  0
SECTION
  2
HEADER
  9
$ACADVER
  1
AC1015
  9
$ACADMAINTVER
 70
     6
  9
$DWGCODEPAGE
  3
ANSI_932
  9
$INSBASE
 10
0.0
 20
0.0
 30
0.0
  9
$EXTMIN
 10
-975.2191548705699
 20
-533.8105063113703
 30
0.0
  9
$EXTMAX
 10
251.6399999999999
 20
235.799999999
 30
0.3
  9
$LIMMIN
 10
0.0
 20
0.0
  9
$LIMMAX
 10
420.0
 20
297.0
  9
$ORTHOMODE
 70
     0
  9
$REGENMODE
 70
     1
  9
$FILLMODE
 70
     1
  9
$QTEXTMODE
 70
     0
  9
$MIRRTEXT
 70
     1
  9
$LTSCALE
 40
1.0
  9
$ATTMODE
 70
     1
  9
$TEXTSIZE
 40
0.2
  9
$TRACEWID
 40
0.05
  9
$TEXTSTYLE
  7
STANDARD
  9
$CLAYER
  8
0
  9
$CELTYPE
  6
CONTINUOUS
  9
$CECOLOR
 62
   256
  9
$CELTSCALE
 40
1.0
  9
$DISPSILH
 70
     0
  9
$DIMSCALE
 40
1.0
  9
$DIMASZ
 40
0.18
  9
$DIMEXO
 40
0.0625
  9
$DIMDLI
 40
0.38
  9
$DIMRND
 40
0.0
  9
$DIMDLE
 40
0.0
  9
$DIMEXE
 40
0.18
  9
$DIMTP
 40
0.0
  9
$DIMTM
 40
0.0
  9
$DIMTXT
 40
0.18
  9
$DIMCEN
 40
0.09
  9
$DIMTSZ
 40
0.0
  9
$DIMTOL
 70
     0
  9
$DIMLIM
 70
     0
  9
$DIMTIH
 70
     1
  9
$DIMTOH
 70
     1
  9
$DIMSE1
 70
     0
  9
$DIMSE2
 70
     0
  9
$DIMTAD
 70
     0
  9
$DIMZIN
 70
     0
  9
$DIMBLK
  1

  9
$DIMASO
 70
     1
  9
$DIMSHO
 70
     1
  9
$DIMPOST
  1

  9
$DIMAPOST
  1

  9
$DIMALT
 70
     0
  9
$DIMALTD
 70
     2
  9
$DIMALTF
 40
25.4
  9
$DIMLFAC
 40
1.0
  9
$DIMTOFL
 70
     0
  9
$DIMTVP
 40
0.0
  9
$DIMTIX
 70
     0
  9
$DIMSOXD
 70
     0
  9
$DIMSAH
 70
     0
  9
$DIMBLK1
  1

  9
$DIMBLK2
  1

  9
$DIMSTYLE
  2
Standard
  9
$DIMCLRD
 70
     0
  9
$DIMCLRE
 70
     0
  9
$DIMCLRT
 70
     0
  9
$DIMTFAC
 40
1.0
  9
$DIMGAP
 40
0.09
  9
$DIMJUST
 70
     0
  9
$DIMSD1
 70
     0
  9
$DIMSD2
 70
     0
  9
$DIMTOLJ
 70
     1
  9
$DIMTZIN
 70
     0
  9
$DIMALTZ
 70
     0
  9
$DIMALTTZ
 70
     0
  9
$DIMUPT
 70
     0
  9
$DIMDEC
 70
     4
  9
$DIMTDEC
 70
     4
  9
$DIMALTU
 70
     2
  9
$DIMALTTD
 70
     2
  9
$DIMTXSTY
  7
STANDARD
  9
$DIMAUNIT
 70
     0
  9
$DIMADEC
 70
     0
  9
$DIMALTRND
 40
0.0
  9
$DIMAZIN
 70
     0
  9
$DIMDSEP
 70
    46
  9
$DIMATFIT
 70
     3
  9
$DIMFRAC
 70
     0
  9
$DIMLDRBLK
  1

  9
$DIMLUNIT
 70
     2
  9
$DIMLWD
 70
    -2
  9
$DIMLWE
 70
    -2
  9
$DIMTMOVE
 70
     0
  9
$LUNITS
 70
     2
  9
$LUPREC
 70
     4
  9
$SKETCHINC
 40
0.1
  9
$FILLETRAD
 40
0.0
  9
$AUNITS
 70
     0
  9
$AUPREC
 70
     0
  9
$MENU
  1
.
  9
$ELEVATION
 40
0.0
  9
$PELEVATION
 40
0.0
  9
$THICKNESS
 40
0.0
  9
$LIMCHECK
 70
     0
  9
$CHAMFERA
 40
0.0
  9
$CHAMFERB
 40
0.0
  9
$CHAMFERC
 40
0.0
  9
$CHAMFERD
 40
0.0
  9
$SKPOLY
 70
     0
  9
$TDCREATE
 40
2452699.663474421
  9
$TDUCREATE
 40
2452699.288474421
  9
$TDUPDATE
 40
2452699.674330555
  9
$TDUUPDATE
 40
2452699.299330555
  9
$TDINDWG
 40
0.0108561343
  9
$TDUSRTIMER
 40
0.0108561343
  9
$USRTIMER
 70
     1
  9
$ANGBASE
 50
0.0
  9
$ANGDIR
 70
     0
  9
$PDMODE
 70
     0
  9
$PDSIZE
 40
0.0
  9
$PLINEWID
 40
0.0
  9
$SPLFRAME
 70
     0
  9
$SPLINETYPE
 70
     6
  9
$SPLINESEGS
 70
     8
  9
$HANDSEED
  5
3F8
  9
$SURFTAB1
 70
     6
  9
$SURFTAB2
 70
     6
  9
$SURFTYPE
 70
     6
  9
$SURFU
 70
     6
  9
$SURFV
 70
     6
  9
$UCSBASE
  2

  9
$UCSNAME
  2

  9
$UCSORG
 10
0.0
 20
0.0
 30
0.0
  9
$UCSXDIR
 10
1.0
 20
0.0
 30
0.0
  9
$UCSYDIR
 10
0.0
 20
1.0
 30
0.0
  9
$UCSORTHOREF
  2

  9
$UCSORTHOVIEW
 70
     0
  9
$UCSORGTOP
 10
0.0
 20
0.0
 30
0.0
  9
$UCSORGBOTTOM
 10
0.0
 20
0.0
 30
0.0
  9
$UCSORGLEFT
 10
0.0
 20
0.0
 30
0.0
  9
$UCSORGRIGHT
 10
0.0
 20
0.0
 30
0.0
  9
$UCSORGFRONT
 10
0.0
 20
0.0
 30
0.0
  9
$UCSORGBACK
 10
0.0
 20
0.0
 30
0.0
  9
$PUCSBASE
  2

  9
$PUCSNAME
  2

  9
$PUCSORG
 10
0.0
 20
0.0
 30
0.0
  9
$PUCSXDIR
 10
1.0
 20
0.0
 30
0.0
  9
$PUCSYDIR
 10
0.0
 20
1.0
 30
0.0
  9
$PUCSORTHOREF
  2

  9
$PUCSORTHOVIEW
 70
     0
  9
$PUCSORGTOP
 10
0.0
 20
0.0
 30
0.0
  9
$PUCSORGBOTTOM
 10
0.0
 20
0.0
 30
0.0
  9
$PUCSORGLEFT
 10
0.0
 20
0.0
 30
0.0
  9
$PUCSORGRIGHT
 10
0.0
 20
0.0
 30
0.0
  9
$PUCSORGFRONT
 10
0.0
 20
0.0
 30
0.0
  9
$PUCSORGBACK
 10
0.0
 20
0.0
 30
0.0
  9
$USERI1
 70
     0
  9
$USERI2
 70
     0
  9
$USERI3
 70
     0
  9
$USERI4
 70
     0
  9
$USERI5
 70
     0
  9
$USERR1
 40
0.0
  9
$USERR2
 40
0.0
  9
$USERR3
 40
0.0
  9
$USERR4
 40
0.0
  9
$USERR5
 40
0.0
  9
$WORLDVIEW
 70
     1
  9
$SHADEDGE
 70
     3
  9
$SHADEDIF
 70
    70
  9
$TILEMODE
 70
     1
  9
$MAXACTVP
 70
    64
  9
$PINSBASE
 10
0.0
 20
0.0
 30
0.0
  9
$PLIMCHECK
 70
     0
  9
$PEXTMIN
 10
1.000000000000000E+20
 20
1.000000000000000E+20
 30
1.000000000000000E+20
  9
$PEXTMAX
 10
-1.000000000000000E+20
 20
-1.000000000000000E+20
 30
-1.000000000000000E+20
  9
$PLIMMIN
 10
0.0
 20
0.0
  9
$PLIMMAX
 10
12.0
 20
9.0
  9
$UNITMODE
 70
     0
  9
$VISRETAIN
 70
     1
  9
$PLINEGEN
 70
     0
  9
$PSLTSCALE
 70
     1
  9
$TREEDEPTH
 70
  3020
  9
$CMLSTYLE
  2
Standard
  9
$CMLJUST
 70
     0
  9
$CMLSCALE
 40
1.0
  9
$PROXYGRAPHICS
 70
     1
  9
$MEASUREMENT
 70
     0
  9
$CELWEIGHT
370
    -1
  9
$ENDCAPS
280
     0
  9
$JOINSTYLE
280
     0
  9
$LWDISPLAY
290
     0
  9
$INSUNITS
 70
     0
  9
$HYPERLINKBASE
  1

  9
$STYLESHEET
  1

  9
$XEDIT
290
     1
  9
$CEPSNTYPE
380
     0
  9
$PSTYLEMODE
290
     1
  9
$FINGERPRINTGUID
  2
{A864F1BE-3BC8-4A2F-987A-913A549F3C5E}
  9
$VERSIONGUID
  2
{4E607F1B-15D3-4B61-A83B-1B0BD1565E7C}
  9
$EXTNAMES
290
     1
  9
$PSVPSCALE
 40
0.0
  9
$OLESTARTUP
290
     0
  0
ENDSEC
  0
SECTION
  2
CLASSES
  0
CLASS
  1
ACDBDICTIONARYWDFLT
  2
AcDbDictionaryWithDefault
  3
AutoCAD 2000
 90
        0
280
     0
281
     0
  0
CLASS
  1
ACDBPLACEHOLDER
  2
AcDbPlaceHolder
  3
AutoCAD 2000
 90
        0
280
     0
281
     0
  0
CLASS
  1
LAYOUT
  2
AcDbLayout
  3
AutoCAD 2000
 90
        0
280
     0
281
     0
  0
ENDSEC
  0
SECTION
  2
TABLES
  0
TABLE
  2
VPORT
  5
8
330
0
100
AcDbSymbolTable
 70
     2
  0
VPORT
  5
3F7
330
8
100
AcDbSymbolTableRecord
100
AcDbViewportTableRecord
  2
*Active
 70
     0
 10
0.0
 20
0.0
 11
1.0
 21
1.0
 12
-818.7625510405315
 22
-449.999972962076
 13
0.0
 23
0.0
 14
1.0
 24
1.0
 15
0.0
 25
0.0
 16
0.0
 26
0.0
 36
1.0
 17
0.0
 27
0.0
 37
0.0
 40
288.0000008298084
 41
1.761278195488721
 42
50.0
 43
0.0
 44
0.0
 50
0.0
 51
0.0
 71
     0
 72
   100
 73
     1
 74
     1
 75
     0
 76
     0
 77
     0
 78
     0
281
     0
 65
     1
110
0.0
120
0.0
130
0.0
111
1.0
121
0.0
131
0.0
112
0.0
122
1.0
132
0.0
 79
     0
146
0.0
  0
ENDTAB
  0
TABLE
  2
LTYPE
  5
5
330
0
100
AcDbSymbolTable
 70
     1
  0
LTYPE
  5
13
330
5
100
AcDbSymbolTableRecord
100
AcDbLinetypeTableRecord
  2
ByBlock
 70
     0
  3

 72
    65
 73
     0
 40
0.0
  0
LTYPE
  5
14
330
5
100
AcDbSymbolTableRecord
100
AcDbLinetypeTableRecord
  2
ByLayer
 70
     0
  3

 72
    65
 73
     0
 40
0.0
  0
LTYPE
  5
15
330
5
100
AcDbSymbolTableRecord
100
AcDbLinetypeTableRecord
  2
CONTINUOUS
 70
     0
  3
Solid line
 72
    65
 73
     0
 40
0.0
  0
ENDTAB
  0
TABLE
  2
LAYER
  5
2
330
0
100
AcDbSymbolTable
 70
   128
  0
LAYER
  5
10
330
2
100
AcDbSymbolTableRecord
100
AcDbLayerTableRecord
  2
0
 70
     0
 62
     7
  6
CONTINUOUS
370
    -3
390
F
  0
LAYER
  5
22
330
2
100
AcDbSymbolTableRecord
100
AcDbLayerTableRecord
  2
1
 70
     0
 62
     7
  6
CONTINUOUS
370
    -3
390
F
  0
LAYER
  5
23
330
2
100
AcDbSymbolTableRecord
100
AcDbLayerTableRecord
  2
2
 70
     0
 62
     7
  6
CONTINUOUS
370
    -3
390
F
  0
LAYER
  5
24
330
2
100
AcDbSymbolTableRecord
100
AcDbLayerTableRecord
  2
3
 70
     0
 62
     7
  6
CONTINUOUS
370
    -3
390
F
  0
LAYER
  5
25
330
2
100
AcDbSymbolTableRecord
100
AcDbLayerTableRecord
  2
4
 70
     0
 62
     7
  6
CONTINUOUS
370
    -3
390
F
  0
LAYER
  5
26
330
2
100
AcDbSymbolTableRecord
100
AcDbLayerTableRecord
  2
5
 70
     0
 62
     7
  6
CONTINUOUS
370
    -3
390
F
  0
LAYER
  5
27
330
2
100
AcDbSymbolTableRecord
100
AcDbLayerTableRecord
  2
6
 70
     0
 62
     7
  6
CONTINUOUS
370
    -3
390
F
  0
LAYER
  5
28
330
2
100
AcDbSymbolTableRecord
100
AcDbLayerTableRecord
  2
7
 70
     0
 62
     7
  6
CONTINUOUS
370
    -3
390
F
  0
LAYER
  5
29
330
2
100
AcDbSymbolTableRecord
100
AcDbLayerTableRecord
  2
8
 70
     0
 62
     7
  6
CONTINUOUS
370
    -3
390
F
  0
LAYER
  5
2A
330
2
100
AcDbSymbolTableRecord
100
AcDbLayerTableRecord
  2
9
 70
     0
 62
     7
  6
CONTINUOUS
370
    -3
390
F
  0
LAYER
  5
2B
330
2
100
AcDbSymbolTableRecord
100
AcDbLayerTableRecord
  2
10
 70
     0
 62
     7
  6
CONTINUOUS
370
    -3
390
F
  0
LAYER
  5
2C
330
2
100
AcDbSymbolTableRecord
100
AcDbLayerTableRecord
  2
11
 70
     0
 62
     7
  6
CONTINUOUS
370
    -3
390
F
  0
LAYER
  5
2D
330
2
100
AcDbSymbolTableRecord
100
AcDbLayerTableRecord
  2
12
 70
     0
 62
     7
  6
CONTINUOUS
370
    -3
390
F
  0
LAYER
  5
2E
330
2
100
AcDbSymbolTableRecord
100
AcDbLayerTableRecord
  2
13
 70
     0
 62
     7
  6
CONTINUOUS
370
    -3
390
F
  0
LAYER
  5
2F
330
2
100
AcDbSymbolTableRecord
100
AcDbLayerTableRecord
  2
14
 70
     0
 62
     7
  6
CONTINUOUS
370
    -3
390
F
  0
LAYER
  5
30
330
2
100
AcDbSymbolTableRecord
100
AcDbLayerTableRecord
  2
15
 70
     0
 62
     7
  6
CONTINUOUS
370
    -3
390
F
  0
LAYER
  5
31
330
2
100
AcDbSymbolTableRecord
100
AcDbLayerTableRecord
  2
16
 70
     0
 62
     7
  6
CONTINUOUS
370
    -3
390
F
  0
LAYER
  5
32
330
2
100
AcDbSymbolTableRecord
100
AcDbLayerTableRecord
  2
17
 70
     0
 62
     7
  6
CONTINUOUS
370
    -3
390
F
  0
LAYER
  5
33
330
2
100
AcDbSymbolTableRecord
100
AcDbLayerTableRecord
  2
18
 70
     0
 62
     7
  6
CONTINUOUS
370
    -3
390
F
  0
LAYER
  5
34
330
2
100
AcDbSymbolTableRecord
100
AcDbLayerTableRecord
  2
19
 70
     0
 62
     7
  6
CONTINUOUS
370
    -3
390
F
  0
LAYER
  5
35
330
2
100
AcDbSymbolTableRecord
100
AcDbLayerTableRecord
  2
20
 70
     0
 62
     7
  6
CONTINUOUS
370
    -3
390
F
  0
LAYER
  5
36
330
2
100
AcDbSymbolTableRecord
100
AcDbLayerTableRecord
  2
21
 70
     0
 62
     7
  6
CONTINUOUS
370
    -3
390
F
  0
LAYER
  5
37
330
2
100
AcDbSymbolTableRecord
100
AcDbLayerTableRecord
  2
22
 70
     0
 62
     7
  6
CONTINUOUS
370
    -3
390
F
  0
LAYER
  5
38
330
2
100
AcDbSymbolTableRecord
100
AcDbLayerTableRecord
  2
23
 70
     0
 62
     7
  6
CONTINUOUS
370
    -3
390
F
  0
LAYER
  5
39
330
2
100
AcDbSymbolTableRecord
100
AcDbLayerTableRecord
  2
24
 70
     0
 62
     7
  6
CONTINUOUS
370
    -3
390
F
  0
LAYER
  5
3A
330
2
100
AcDbSymbolTableRecord
100
AcDbLayerTableRecord
  2
25
 70
     0
 62
     7
  6
CONTINUOUS
370
    -3
390
F
  0
LAYER
  5
3B
330
2
100
AcDbSymbolTableRecord
100
AcDbLayerTableRecord
  2
26
 70
     0
 62
     7
  6
CONTINUOUS
370
    -3
390
F
  0
LAYER
  5
3C
330
2
100
AcDbSymbolTableRecord
100
AcDbLayerTableRecord
  2
27
 70
     0
 62
     7
  6
CONTINUOUS
370
    -3
390
F
  0
LAYER
  5
3D
330
2
100
AcDbSymbolTableRecord
100
AcDbLayerTableRecord
  2
28
 70
     0
 62
     7
  6
CONTINUOUS
370
    -3
390
F
  0
LAYER
  5
3E
330
2
100
AcDbSymbolTableRecord
100
AcDbLayerTableRecord
  2
29
 70
     0
 62
     7
  6
CONTINUOUS
370
    -3
390
F
  0
LAYER
  5
3F
330
2
100
AcDbSymbolTableRecord
100
AcDbLayerTableRecord
  2
30
 70
     0
 62
     7
  6
CONTINUOUS
370
    -3
390
F
  0
LAYER
  5
40
330
2
100
AcDbSymbolTableRecord
100
AcDbLayerTableRecord
  2
31
 70
     0
 62
     7
  6
CONTINUOUS
370
    -3
390
F
  0
LAYER
  5
41
330
2
100
AcDbSymbolTableRecord
100
AcDbLayerTableRecord
  2
32
 70
     0
 62
     7
  6
CONTINUOUS
370
    -3
390
F
  0
LAYER
  5
42
330
2
100
AcDbSymbolTableRecord
100
AcDbLayerTableRecord
  2
33
 70
     0
 62
     7
  6
CONTINUOUS
370
    -3
390
F
  0
LAYER
  5
43
330
2
100
AcDbSymbolTableRecord
100
AcDbLayerTableRecord
  2
34
 70
     0
 62
     7
  6
CONTINUOUS
370
    -3
390
F
  0
LAYER
  5
44
330
2
100
AcDbSymbolTableRecord
100
AcDbLayerTableRecord
  2
35
 70
     0
 62
     7
  6
CONTINUOUS
370
    -3
390
F
  0
LAYER
  5
45
330
2
100
AcDbSymbolTableRecord
100
AcDbLayerTableRecord
  2
36
 70
     0
 62
     7
  6
CONTINUOUS
370
    -3
390
F
  0
LAYER
  5
46
330
2
100
AcDbSymbolTableRecord
100
AcDbLayerTableRecord
  2
37
 70
     0
 62
     7
  6
CONTINUOUS
370
    -3
390
F
  0
LAYER
  5
47
330
2
100
AcDbSymbolTableRecord
100
AcDbLayerTableRecord
  2
38
 70
     0
 62
     7
  6
CONTINUOUS
370
    -3
390
F
  0
LAYER
  5
48
330
2
100
AcDbSymbolTableRecord
100
AcDbLayerTableRecord
  2
39
 70
     0
 62
     7
  6
CONTINUOUS
370
    -3
390
F
  0
LAYER
  5
49
330
2
100
AcDbSymbolTableRecord
100
AcDbLayerTableRecord
  2
40
 70
     0
 62
     7
  6
CONTINUOUS
370
    -3
390
F
  0
LAYER
  5
4A
330
2
100
AcDbSymbolTableRecord
100
AcDbLayerTableRecord
  2
41
 70
     0
 62
     7
  6
CONTINUOUS
370
    -3
390
F
  0
LAYER
  5
4B
330
2
100
AcDbSymbolTableRecord
100
AcDbLayerTableRecord
  2
42
 70
     0
 62
     7
  6
CONTINUOUS
370
    -3
390
F
  0
LAYER
  5
4C
330
2
100
AcDbSymbolTableRecord
100
AcDbLayerTableRecord
  2
43
 70
     0
 62
     7
  6
CONTINUOUS
370
    -3
390
F
  0
LAYER
  5
4D
330
2
100
AcDbSymbolTableRecord
100
AcDbLayerTableRecord
  2
44
 70
     0
 62
     7
  6
CONTINUOUS
370
    -3
390
F
  0
LAYER
  5
4E
330
2
100
AcDbSymbolTableRecord
100
AcDbLayerTableRecord
  2
45
 70
     0
 62
     7
  6
CONTINUOUS
370
    -3
390
F
  0
LAYER
  5
4F
330
2
100
AcDbSymbolTableRecord
100
AcDbLayerTableRecord
  2
46
 70
     0
 62
     7
  6
CONTINUOUS
370
    -3
390
F
  0
LAYER
  5
50
330
2
100
AcDbSymbolTableRecord
100
AcDbLayerTableRecord
  2
47
 70
     0
 62
     7
  6
CONTINUOUS
370
    -3
390
F
  0
LAYER
  5
51
330
2
100
AcDbSymbolTableRecord
100
AcDbLayerTableRecord
  2
48
 70
     0
 62
     7
  6
CONTINUOUS
370
    -3
390
F
  0
LAYER
  5
52
330
2
100
AcDbSymbolTableRecord
100
AcDbLayerTableRecord
  2
49
 70
     0
 62
     7
  6
CONTINUOUS
370
    -3
390
F
  0
LAYER
  5
53
330
2
100
AcDbSymbolTableRecord
100
AcDbLayerTableRecord
  2
50
 70
     0
 62
     7
  6
CONTINUOUS
370
    -3
390
F
  0
LAYER
  5
54
330
2
100
AcDbSymbolTableRecord
100
AcDbLayerTableRecord
  2
51
 70
     0
 62
     7
  6
CONTINUOUS
370
    -3
390
F
  0
LAYER
  5
55
330
2
100
AcDbSymbolTableRecord
100
AcDbLayerTableRecord
  2
52
 70
     0
 62
     7
  6
CONTINUOUS
370
    -3
390
F
  0
LAYER
  5
56
330
2
100
AcDbSymbolTableRecord
100
AcDbLayerTableRecord
  2
53
 70
     0
 62
     7
  6
CONTINUOUS
370
    -3
390
F
  0
LAYER
  5
57
330
2
100
AcDbSymbolTableRecord
100
AcDbLayerTableRecord
  2
54
 70
     0
 62
     7
  6
CONTINUOUS
370
    -3
390
F
  0
LAYER
  5
58
330
2
100
AcDbSymbolTableRecord
100
AcDbLayerTableRecord
  2
55
 70
     0
 62
     7
  6
CONTINUOUS
370
    -3
390
F
  0
LAYER
  5
59
330
2
100
AcDbSymbolTableRecord
100
AcDbLayerTableRecord
  2
56
 70
     0
 62
     7
  6
CONTINUOUS
370
    -3
390
F
  0
LAYER
  5
5A
330
2
100
AcDbSymbolTableRecord
100
AcDbLayerTableRecord
  2
57
 70
     0
 62
     7
  6
CONTINUOUS
370
    -3
390
F
  0
LAYER
  5
5B
330
2
100
AcDbSymbolTableRecord
100
AcDbLayerTableRecord
  2
58
 70
     0
 62
     7
  6
CONTINUOUS
370
    -3
390
F
  0
LAYER
  5
5C
330
2
100
AcDbSymbolTableRecord
100
AcDbLayerTableRecord
  2
59
 70
     0
 62
     7
  6
CONTINUOUS
370
    -3
390
F
  0
LAYER
  5
5D
330
2
100
AcDbSymbolTableRecord
100
AcDbLayerTableRecord
  2
60
 70
     0
 62
     7
  6
CONTINUOUS
370
    -3
390
F
  0
LAYER
  5
5E
330
2
100
AcDbSymbolTableRecord
100
AcDbLayerTableRecord
  2
61
 70
     0
 62
     7
  6
CONTINUOUS
370
    -3
390
F
  0
LAYER
  5
5F
330
2
100
AcDbSymbolTableRecord
100
AcDbLayerTableRecord
  2
62
 70
     0
 62
     7
  6
CONTINUOUS
370
    -3
390
F
  0
LAYER
  5
60
330
2
100
AcDbSymbolTableRecord
100
AcDbLayerTableRecord
  2
63
 70
     0
 62
     7
  6
CONTINUOUS
370
    -3
390
F
  0
LAYER
  5
61
330
2
100
AcDbSymbolTableRecord
100
AcDbLayerTableRecord
  2
64
 70
     0
 62
     7
  6
CONTINUOUS
370
    -3
390
F
  0
LAYER
  5
62
330
2
100
AcDbSymbolTableRecord
100
AcDbLayerTableRecord
  2
65
 70
     0
 62
     7
  6
CONTINUOUS
370
    -3
390
F
  0
LAYER
  5
63
330
2
100
AcDbSymbolTableRecord
100
AcDbLayerTableRecord
  2
66
 70
     0
 62
     7
  6
CONTINUOUS
370
    -3
390
F
  0
LAYER
  5
64
330
2
100
AcDbSymbolTableRecord
100
AcDbLayerTableRecord
  2
67
 70
     0
 62
     7
  6
CONTINUOUS
370
    -3
390
F
  0
LAYER
  5
65
330
2
100
AcDbSymbolTableRecord
100
AcDbLayerTableRecord
  2
68
 70
     0
 62
     7
  6
CONTINUOUS
370
    -3
390
F
  0
LAYER
  5
66
330
2
100
AcDbSymbolTableRecord
100
AcDbLayerTableRecord
  2
69
 70
     0
 62
     7
  6
CONTINUOUS
370
    -3
390
F
  0
LAYER
  5
67
330
2
100
AcDbSymbolTableRecord
100
AcDbLayerTableRecord
  2
70
 70
     0
 62
     7
  6
CONTINUOUS
370
    -3
390
F
  0
LAYER
  5
68
330
2
100
AcDbSymbolTableRecord
100
AcDbLayerTableRecord
  2
71
 70
     0
 62
     7
  6
CONTINUOUS
370
    -3
390
F
  0
LAYER
  5
69
330
2
100
AcDbSymbolTableRecord
100
AcDbLayerTableRecord
  2
72
 70
     0
 62
     7
  6
CONTINUOUS
370
    -3
390
F
  0
LAYER
  5
6A
330
2
100
AcDbSymbolTableRecord
100
AcDbLayerTableRecord
  2
73
 70
     0
 62
     7
  6
CONTINUOUS
370
    -3
390
F
  0
LAYER
  5
6B
330
2
100
AcDbSymbolTableRecord
100
AcDbLayerTableRecord
  2
74
 70
     0
 62
     7
  6
CONTINUOUS
370
    -3
390
F
  0
LAYER
  5
6C
330
2
100
AcDbSymbolTableRecord
100
AcDbLayerTableRecord
  2
75
 70
     0
 62
     7
  6
CONTINUOUS
370
    -3
390
F
  0
LAYER
  5
6D
330
2
100
AcDbSymbolTableRecord
100
AcDbLayerTableRecord
  2
76
 70
     0
 62
     7
  6
CONTINUOUS
370
    -3
390
F
  0
LAYER
  5
6E
330
2
100
AcDbSymbolTableRecord
100
AcDbLayerTableRecord
  2
77
 70
     0
 62
     7
  6
CONTINUOUS
370
    -3
390
F
  0
LAYER
  5
6F
330
2
100
AcDbSymbolTableRecord
100
AcDbLayerTableRecord
  2
78
 70
     0
 62
     7
  6
CONTINUOUS
370
    -3
390
F
  0
LAYER
  5
70
330
2
100
AcDbSymbolTableRecord
100
AcDbLayerTableRecord
  2
79
 70
     0
 62
     7
  6
CONTINUOUS
370
    -3
390
F
  0
LAYER
  5
71
330
2
100
AcDbSymbolTableRecord
100
AcDbLayerTableRecord
  2
80
 70
     0
 62
     7
  6
CONTINUOUS
370
    -3
390
F
  0
LAYER
  5
72
330
2
100
AcDbSymbolTableRecord
100
AcDbLayerTableRecord
  2
81
 70
     0
 62
     7
  6
CONTINUOUS
370
    -3
390
F
  0
LAYER
  5
73
330
2
100
AcDbSymbolTableRecord
100
AcDbLayerTableRecord
  2
82
 70
     0
 62
     7
  6
CONTINUOUS
370
    -3
390
F
  0
LAYER
  5
74
330
2
100
AcDbSymbolTableRecord
100
AcDbLayerTableRecord
  2
83
 70
     0
 62
     7
  6
CONTINUOUS
370
    -3
390
F
  0
LAYER
  5
75
330
2
100
AcDbSymbolTableRecord
100
AcDbLayerTableRecord
  2
84
 70
     0
 62
     7
  6
CONTINUOUS
370
    -3
390
F
  0
LAYER
  5
76
330
2
100
AcDbSymbolTableRecord
100
AcDbLayerTableRecord
  2
85
 70
     0
 62
     7
  6
CONTINUOUS
370
    -3
390
F
  0
LAYER
  5
77
330
2
100
AcDbSymbolTableRecord
100
AcDbLayerTableRecord
  2
86
 70
     0
 62
     7
  6
CONTINUOUS
370
    -3
390
F
  0
LAYER
  5
78
330
2
100
AcDbSymbolTableRecord
100
AcDbLayerTableRecord
  2
87
 70
     0
 62
     7
  6
CONTINUOUS
370
    -3
390
F
  0
LAYER
  5
79
330
2
100
AcDbSymbolTableRecord
100
AcDbLayerTableRecord
  2
88
 70
     0
 62
     7
  6
CONTINUOUS
370
    -3
390
F
  0
LAYER
  5
7A
330
2
100
AcDbSymbolTableRecord
100
AcDbLayerTableRecord
  2
89
 70
     0
 62
     7
  6
CONTINUOUS
370
    -3
390
F
  0
LAYER
  5
7B
330
2
100
AcDbSymbolTableRecord
100
AcDbLayerTableRecord
  2
90
 70
     0
 62
     7
  6
CONTINUOUS
370
    -3
390
F
  0
LAYER
  5
7C
330
2
100
AcDbSymbolTableRecord
100
AcDbLayerTableRecord
  2
91
 70
     0
 62
     7
  6
CONTINUOUS
370
    -3
390
F
  0
LAYER
  5
7D
330
2
100
AcDbSymbolTableRecord
100
AcDbLayerTableRecord
  2
92
 70
     0
 62
     7
  6
CONTINUOUS
370
    -3
390
F
  0
LAYER
  5
7E
330
2
100
AcDbSymbolTableRecord
100
AcDbLayerTableRecord
  2
93
 70
     0
 62
     7
  6
CONTINUOUS
370
    -3
390
F
  0
LAYER
  5
7F
330
2
100
AcDbSymbolTableRecord
100
AcDbLayerTableRecord
  2
94
 70
     0
 62
     7
  6
CONTINUOUS
370
    -3
390
F
  0
LAYER
  5
80
330
2
100
AcDbSymbolTableRecord
100
AcDbLayerTableRecord
  2
95
 70
     0
 62
     7
  6
CONTINUOUS
370
    -3
390
F
  0
LAYER
  5
81
330
2
100
AcDbSymbolTableRecord
100
AcDbLayerTableRecord
  2
96
 70
     0
 62
     7
  6
CONTINUOUS
370
    -3
390
F
  0
LAYER
  5
82
330
2
100
AcDbSymbolTableRecord
100
AcDbLayerTableRecord
  2
97
 70
     0
 62
     7
  6
CONTINUOUS
370
    -3
390
F
  0
LAYER
  5
83
330
2
100
AcDbSymbolTableRecord
100
AcDbLayerTableRecord
  2
98
 70
     0
 62
     7
  6
CONTINUOUS
370
    -3
390
F
  0
LAYER
  5
84
330
2
100
AcDbSymbolTableRecord
100
AcDbLayerTableRecord
  2
99
 70
     0
 62
     7
  6
CONTINUOUS
370
    -3
390
F
  0
LAYER
  5
85
330
2
100
AcDbSymbolTableRecord
100
AcDbLayerTableRecord
  2
100
 70
     0
 62
     7
  6
CONTINUOUS
370
    -3
390
F
  0
LAYER
  5
86
330
2
100
AcDbSymbolTableRecord
100
AcDbLayerTableRecord
  2
101
 70
     0
 62
     7
  6
CONTINUOUS
370
    -3
390
F
  0
LAYER
  5
87
330
2
100
AcDbSymbolTableRecord
100
AcDbLayerTableRecord
  2
102
 70
     0
 62
     7
  6
CONTINUOUS
370
    -3
390
F
  0
LAYER
  5
88
330
2
100
AcDbSymbolTableRecord
100
AcDbLayerTableRecord
  2
103
 70
     0
 62
     7
  6
CONTINUOUS
370
    -3
390
F
  0
LAYER
  5
89
330
2
100
AcDbSymbolTableRecord
100
AcDbLayerTableRecord
  2
104
 70
     0
 62
     7
  6
CONTINUOUS
370
    -3
390
F
  0
LAYER
  5
8A
330
2
100
AcDbSymbolTableRecord
100
AcDbLayerTableRecord
  2
105
 70
     0
 62
     7
  6
CONTINUOUS
370
    -3
390
F
  0
LAYER
  5
8B
330
2
100
AcDbSymbolTableRecord
100
AcDbLayerTableRecord
  2
106
 70
     0
 62
     7
  6
CONTINUOUS
370
    -3
390
F
  0
LAYER
  5
8C
330
2
100
AcDbSymbolTableRecord
100
AcDbLayerTableRecord
  2
107
 70
     0
 62
     7
  6
CONTINUOUS
370
    -3
390
F
  0
LAYER
  5
8D
330
2
100
AcDbSymbolTableRecord
100
AcDbLayerTableRecord
  2
108
 70
     0
 62
     7
  6
CONTINUOUS
370
    -3
390
F
  0
LAYER
  5
8E
330
2
100
AcDbSymbolTableRecord
100
AcDbLayerTableRecord
  2
109
 70
     0
 62
     7
  6
CONTINUOUS
370
    -3
390
F
  0
LAYER
  5
8F
330
2
100
AcDbSymbolTableRecord
100
AcDbLayerTableRecord
  2
110
 70
     0
 62
     7
  6
CONTINUOUS
370
    -3
390
F
  0
LAYER
  5
90
330
2
100
AcDbSymbolTableRecord
100
AcDbLayerTableRecord
  2
111
 70
     0
 62
     7
  6
CONTINUOUS
370
    -3
390
F
  0
LAYER
  5
91
330
2
100
AcDbSymbolTableRecord
100
AcDbLayerTableRecord
  2
112
 70
     0
 62
     7
  6
CONTINUOUS
370
    -3
390
F
  0
LAYER
  5
92
330
2
100
AcDbSymbolTableRecord
100
AcDbLayerTableRecord
  2
113
 70
     0
 62
     7
  6
CONTINUOUS
370
    -3
390
F
  0
LAYER
  5
93
330
2
100
AcDbSymbolTableRecord
100
AcDbLayerTableRecord
  2
114
 70
     0
 62
     7
  6
CONTINUOUS
370
    -3
390
F
  0
LAYER
  5
94
330
2
100
AcDbSymbolTableRecord
100
AcDbLayerTableRecord
  2
115
 70
     0
 62
     7
  6
CONTINUOUS
370
    -3
390
F
  0
LAYER
  5
95
330
2
100
AcDbSymbolTableRecord
100
AcDbLayerTableRecord
  2
116
 70
     0
 62
     7
  6
CONTINUOUS
370
    -3
390
F
  0
LAYER
  5
96
330
2
100
AcDbSymbolTableRecord
100
AcDbLayerTableRecord
  2
117
 70
     0
 62
     7
  6
CONTINUOUS
370
    -3
390
F
  0
LAYER
  5
97
330
2
100
AcDbSymbolTableRecord
100
AcDbLayerTableRecord
  2
118
 70
     0
 62
     7
  6
CONTINUOUS
370
    -3
390
F
  0
LAYER
  5
98
330
2
100
AcDbSymbolTableRecord
100
AcDbLayerTableRecord
  2
119
 70
     0
 62
     7
  6
CONTINUOUS
370
    -3
390
F
  0
LAYER
  5
99
330
2
100
AcDbSymbolTableRecord
100
AcDbLayerTableRecord
  2
120
 70
     0
 62
     7
  6
CONTINUOUS
370
    -3
390
F
  0
LAYER
  5
9A
330
2
100
AcDbSymbolTableRecord
100
AcDbLayerTableRecord
  2
121
 70
     0
 62
     7
  6
CONTINUOUS
370
    -3
390
F
  0
LAYER
  5
9B
330
2
100
AcDbSymbolTableRecord
100
AcDbLayerTableRecord
  2
122
 70
     0
 62
     7
  6
CONTINUOUS
370
    -3
390
F
  0
LAYER
  5
9C
330
2
100
AcDbSymbolTableRecord
100
AcDbLayerTableRecord
  2
123
 70
     0
 62
     7
  6
CONTINUOUS
370
    -3
390
F
  0
LAYER
  5
9D
330
2
100
AcDbSymbolTableRecord
100
AcDbLayerTableRecord
  2
124
 70
     0
 62
     7
  6
CONTINUOUS
370
    -3
390
F
  0
LAYER
  5
9E
330
2
100
AcDbSymbolTableRecord
100
AcDbLayerTableRecord
  2
125
 70
     0
 62
     7
  6
CONTINUOUS
370
    -3
390
F
  0
LAYER
  5
9F
330
2
100
AcDbSymbolTableRecord
100
AcDbLayerTableRecord
  2
126
 70
     0
 62
     7
  6
CONTINUOUS
370
    -3
390
F
  0
LAYER
  5
A0
330
2
100
AcDbSymbolTableRecord
100
AcDbLayerTableRecord
  2
127
 70
     0
 62
     7
  6
CONTINUOUS
370
    -3
390
F
  0
ENDTAB
  0
TABLE
  2
STYLE
  5
3
330
0
100
AcDbSymbolTable
 70
     5
  0
STYLE
  5
11
330
3
100
AcDbSymbolTableRecord
100
AcDbTextStyleTableRecord
  2
STANDARD
 70
     0
 40
0.0
 41
1.0
 50
0.0
 71
     0
 42
0.2
  3
txt
  4

  0
STYLE
  5
A1
330
3
100
AcDbSymbolTableRecord
100
AcDbTextStyleTableRecord
  2
KANJI0
 70
     0
 40
4.355999999999999
 41
0.88
 50
0.0
 71
     0
 42
4.355999999999999
  3

  4
bigfont
  0
STYLE
  5
A2
330
3
100
AcDbSymbolTableRecord
100
AcDbTextStyleTableRecord
  2
KANJI1
 70
     0
 40
2.6
 41
1.0
 50
0.0
 71
     0
 42
2.6
  3

  4
bigfont
  0
STYLE
  5
A3
330
3
100
AcDbSymbolTableRecord
100
AcDbTextStyleTableRecord
  2
KANJI2
 70
     0
 40
3.0
 41
0.9
 50
0.0
 71
     0
 42
3.0
  3

  4
bigfont
  0
STYLE
  5
A4
330
3
100
AcDbSymbolTableRecord
100
AcDbTextStyleTableRecord
  2
KANJI3
 70
     0
 40
3.0
 41
0.6
 50
0.0
 71
     0
 42
3.0
  3

  4
bigfont
  0
ENDTAB
  0
TABLE
  2
VIEW
  5
6
330
0
100
AcDbSymbolTable
 70
     0
  0
ENDTAB
  0
TABLE
  2
UCS
  5
7
330
0
100
AcDbSymbolTable
 70
     0
  0
ENDTAB
  0
TABLE
  2
APPID
  5
9
330
0
100
AcDbSymbolTable
 70
     1
  0
APPID
  5
12
330
9
100
AcDbSymbolTableRecord
100
AcDbRegAppTableRecord
  2
ACAD
 70
     0
  0
ENDTAB
  0
TABLE
  2
DIMSTYLE
  5
A
330
0
100
AcDbSymbolTable
 70
     1
100
AcDbDimStyleTable
 71
     0
  0
DIMSTYLE
105
3F5
330
A
100
AcDbSymbolTableRecord
100
AcDbDimStyleTableRecord
  2
Standard
 70
     0
340
11
  0
ENDTAB
  0
TABLE
  2
BLOCK_RECORD
  5
1
330
0
100
AcDbSymbolTable
 70
     0
  0
BLOCK_RECORD
  5
1E
330
1
100
AcDbSymbolTableRecord
100
AcDbBlockTableRecord
  2
*Model_Space
340
21
  0
BLOCK_RECORD
  5
1A
330
1
100
AcDbSymbolTableRecord
100
AcDbBlockTableRecord
  2
*Paper_Space
340
1D
  0
ENDTAB
  0
ENDSEC
  0
SECTION
  2
BLOCKS
  0
BLOCK
  5
1F
330
1E
100
AcDbEntity
  8
0
100
AcDbBlockBegin
  2
*Model_Space
 70
     0
 10
0.0
 20
0.0
 30
0.0
  3
*Model_Space
  1

  0
ENDBLK
  5
20
330
1E
100
AcDbEntity
  8
0
100
AcDbBlockEnd
  0
BLOCK
  5
1B
330
1A
100
AcDbEntity
 67
     1
  8
0
100
AcDbBlockBegin
  2
*Paper_Space
 70
     0
 10
0.0
 20
0.0
 30
0.0
  3
*Paper_Space
  1

  0
ENDBLK
  5
1C
330
1A
100
AcDbEntity
 67
     1
  8
0
100
AcDbBlockEnd
  0
ENDSEC
  0
SECTION
  2
ENTITIES
  0
ARC
  5
A8
330
1E
100
AcDbEntity
  8
0
  6
Continuous
 62
     3
100
AcDbCircle
 10
-881.4191548695699
 20
-428.1102563103703
 30
0.0
 40
1.0
100
AcDbArc
 50
0.0
 51
180.0
  0
LINE
  5
A9
330
1E
100
AcDbEntity
  8
0
  6
Continuous
 62
     3
100
AcDbLine
 10
-882.4191548695699
 20
-428.1102563103703
 30
0.0
 11
-882.4191548695699
 21
-431.6102563103703
 31
0.0
  0
LINE
  5
AA
330
1E
100
AcDbEntity
  8
0
  6
Continuous
 62
     3
100
AcDbLine
 10
-880.4191548695699
 20
-428.6102563103703
 30
0.0
 11
-880.4191548695699
 21
-428.1102563103703
 31
0.0
  0
LINE
  5
AB
330
1E
100
AcDbEntity
  8
0
  6
Continuous
 62
     3
100
AcDbLine
 10
-879.41915486957
 20
-428.6102563103703
 30
0.0
 11
-879.41915486957
 21
-428.1102563103703
 31
0.0
  0
LINE
  5
AC
330
1E
100
AcDbEntity
  8
0
  6
Continuous
 62
     3
100
AcDbLine
 10
-879.41915486957
 20
-428.1102563103703
 30
0.0
 11
-880.4191548695699
 21
-428.6102563103703
 31
0.0
  0
LINE
  5
AD
330
1E
100
AcDbEntity
  8
0
  6
Continuous
 62
     3
100
AcDbLine
 10
-878.41915486957
 20
-428.6102563103703
 30
0.0
 11
-878.41915486957
 21
-428.1102563103703
 31
0.0
  0
LINE
  5
AE
330
1E
100
AcDbEntity
  8
0
  6
Continuous
 62
     3
100
AcDbLine
 10
-878.41915486957
 20
-428.1102563103703
 30
0.0
 11
-879.41915486957
 21
-428.6102563103703
 31
0.0
  0
LINE
  5
AF
330
1E
100
AcDbEntity
  8
0
  6
Continuous
 62
     3
100
AcDbLine
 10
-878.41915486957
 20
-428.6102563103703
 30
0.0
 11
-877.41915486957
 21
-428.1102563103703
 31
0.0
  0
LINE
  5
B0
330
1E
100
AcDbEntity
  8
0
  6
Continuous
 62
     3
100
AcDbLine
 10
-877.41915486957
 20
-428.1102563103703
 30
0.0
 11
-877.41915486957
 21
-428.6102563103703
 31
0.0
  0
LINE
  5
B1
330
1E
100
AcDbEntity
  8
0
  6
Continuous
 62
     3
100
AcDbLine
 10
-877.41915486957
 20
-428.6102563103703
 30
0.0
 11
-876.41915486957
 21
-428.1102563103703
 31
0.0
  0
LINE
  5
B2
330
1E
100
AcDbEntity
  8
0
  6
Continuous
 62
     3
100
AcDbLine
 10
-876.41915486957
 20
-428.1102563103703
 30
0.0
 11
-876.41915486957
 21
-428.6102563103703
 31
0.0
  0
LINE
  5
B3
330
1E
100
AcDbEntity
  8
0
  6
Continuous
 62
     3
100
AcDbLine
 10
-876.41915486957
 20
-428.6102563103703
 30
0.0
 11
-875.4191548695699
 21
-428.1102563103703
 31
0.0
  0
LINE
  5
B4
330
1E
100
AcDbEntity
  8
0
  6
Continuous
 62
     3
100
AcDbLine
 10
-875.4191548695699
 20
-428.1102563103703
 30
0.0
 11
-875.4191548695699
 21
-428.6102563103703
 31
0.0
  0
LINE
  5
B5
330
1E
100
AcDbEntity
  8
0
  6
Continuous
 62
     3
100
AcDbLine
 10
-875.4191548695699
 20
-428.6102563103703
 30
0.0
 11
-874.4191548695699
 21
-428.1102563103703
 31
0.0
  0
LINE
  5
B6
330
1E
100
AcDbEntity
  8
0
  6
Continuous
 62
     3
100
AcDbLine
 10
-874.4191548695699
 20
-428.1102563103703
 30
0.0
 11
-874.4191548695699
 21
-428.6102563103703
 31
0.0
  0
LINE
  5
B7
330
1E
100
AcDbEntity
  8
0
  6
Continuous
 62
     3
100
AcDbLine
 10
-874.4191548695699
 20
-428.6102563103703
 30
0.0
 11
-873.4191548695699
 21
-428.1102563103703
 31
0.0
  0
LINE
  5
B8
330
1E
100
AcDbEntity
  8
0
  6
Continuous
 62
     3
100
AcDbLine
 10
-873.4191548695699
 20
-428.1102563103703
 30
0.0
 11
-873.4191548695699
 21
-428.6102563103703
 31
0.0
  0
LINE
  5
B9
330
1E
100
AcDbEntity
  8
0
  6
Continuous
 62
     3
100
AcDbLine
 10
-873.4191548695699
 20
-428.6102563103703
 30
0.0
 11
-872.4191548695699
 21
-428.1102563103703
 31
0.0
  0
LINE
  5
BA
330
1E
100
AcDbEntity
  8
0
  6
Continuous
 62
     3
100
AcDbLine
 10
-872.4191548695699
 20
-428.1102563103703
 30
0.0
 11
-872.4191548695699
 21
-428.6102563103703
 31
0.0
  0
LINE
  5
BB
330
1E
100
AcDbEntity
  8
0
  6
Continuous
 62
     3
100
AcDbLine
 10
-872.4191548695699
 20
-428.6102563103703
 30
0.0
 11
-871.41915486957
 21
-428.1102563103703
 31
0.0
  0
LINE
  5
BC
330
1E
100
AcDbEntity
  8
0
  6
Continuous
 62
     3
100
AcDbLine
 10
-871.41915486957
 20
-428.1102563103703
 30
0.0
 11
-871.41915486957
 21
-428.6102563103703
 31
0.0
  0
LINE
  5
BD
330
1E
100
AcDbEntity
  8
0
  6
Continuous
 62
     3
100
AcDbLine
 10
-871.41915486957
 20
-428.6102563103703
 30
0.0
 11
-870.41915486957
 21
-428.1102563103703
 31
0.0
  0
LINE
  5
BE
330
1E
100
AcDbEntity
  8
0
  6
Continuous
 62
     3
100
AcDbLine
 10
-870.41915486957
 20
-428.1102563103703
 30
0.0
 11
-870.41915486957
 21
-428.6102563103703
 31
0.0
  0
LINE
  5
BF
330
1E
100
AcDbEntity
  8
0
  6
Continuous
 62
     3
100
AcDbLine
 10
-870.41915486957
 20
-428.6102563103703
 30
0.0
 11
-869.41915486957
 21
-428.1102563103703
 31
0.0
  0
LINE
  5
C0
330
1E
100
AcDbEntity
  8
0
  6
Continuous
 62
     3
100
AcDbLine
 10
-869.41915486957
 20
-428.6102563103703
 30
0.0
 11
-869.41915486957
 21
-428.1102563103703
 31
0.0
  0
LINE
  5
C1
330
1E
100
AcDbEntity
  8
0
  6
Continuous
 62
     3
100
AcDbLine
 10
-869.41915486957
 20
-428.6102563103703
 30
0.0
 11
-868.41915486957
 21
-428.1102563103703
 31
0.0
  0
LINE
  5
C2
330
1E
100
AcDbEntity
  8
0
  6
Continuous
 62
     3
100
AcDbLine
 10
-868.41915486957
 20
-428.1102563103703
 30
0.0
 11
-868.41915486957
 21
-428.6102563103703
 31
0.0
  0
LINE
  5
C3
330
1E
100
AcDbEntity
  8
0
  6
Continuous
 62
     3
100
AcDbLine
 10
-868.41915486957
 20
-428.6102563103703
 30
0.0
 11
-867.41915486957
 21
-428.1102563103703
 31
0.0
  0
LINE
  5
C4
330
1E
100
AcDbEntity
  8
0
  6
Continuous
 62
     3
100
AcDbLine
 10
-867.41915486957
 20
-428.1102563103703
 30
0.0
 11
-867.41915486957
 21
-428.6102563103703
 31
0.0
  0
POINT
  5
C5
330
1E
100
AcDbEntity
  8
0
  6
Continuous
 62
     3
100
AcDbPoint
 10
-917.4191548715699
 20
-503.8105063083703
 30
0.0
  0
LINE
  5
C6
330
1E
100
AcDbEntity
  8
0
  6
Continuous
 62
     3
100
AcDbLine
 10
-852.71915487157
 20
-507.0105063083704
 30
0.0
 11
-852.71915487157
 21
-505.8105063083703
 31
0.0
  0
ARC
  5
C7
330
1E
100
AcDbEntity
  8
0
  6
Continuous
 62
     3
100
AcDbCircle
 10
-850.4191548715699
 20
-507.0105063073704
 30
0.0
 40
2.299999999999999
100
AcDbArc
 50
179.9999999989999
 51
270.0
  0
LINE
  5
C8
330
1E
100
AcDbEntity
  8
0
  6
Continuous
 62
     3
100
AcDbLine
 10
-845.71915487157
 20
-505.8105063073703
 30
0.0
 11
-845.71915487157
 21
-507.0105063073704
 31
0.0
  0
LINE
  5
C9
330
1E
100
AcDbEntity
  8
0
  6
Continuous
 62
     3
100
AcDbLine
 10
-850.4191548715699
 20
-509.3105063073704
 30
0.0
 11
-848.01915487157
 21
-509.3105063073704
 31
0.0
  0
ARC
  5
CA
330
1E
100
AcDbEntity
  8
0
  6
Continuous
 62
     3
100
AcDbCircle
 10
-848.01915487157
 20
-507.0105063073704
 30
0.0
 40
2.299999999999999
100
AcDbArc
 50
270.0
 51
0.0
  0
ARC
  5
CB
330
1E
100
AcDbEntity
  8
0
  6
Continuous
 62
     3
100
AcDbCircle
 10
-850.41915487257
 20
-432.6105063073704
 30
0.0
 40
2.299999999999999
100
AcDbArc
 50
90.0
 51
180.0000000009999
  0
LINE
  5
CC
330
1E
100
AcDbEntity
  8
0
  6
Continuous
 62
     3
100
AcDbLine
 10
-852.7191548725699
 20
-432.6105063083704
 30
0.0
 11
-852.7191548725699
 21
-433.8105063083703
 31
0.0
  0
LINE
  5
CD
330
1E
100
AcDbEntity
  8
0
  6
Continuous
 62
     3
100
AcDbLine
 10
-845.7191548725699
 20
-433.8105063073704
 30
0.0
 11
-845.7191548725699
 21
-432.6105063073704
 31
0.0
  0
ARC
  5
CE
330
1E
100
AcDbEntity
  8
0
  6
Continuous
 62
     3
100
AcDbCircle
 10
-848.0191548725699
 20
-432.6105063073704
 30
0.0
 40
2.299999999999999
100
AcDbArc
 50
0.0
 51
90.0
  0
LINE
  5
CF
330
1E
100
AcDbEntity
  8
0
  6
Continuous
 62
     3
100
AcDbLine
 10
-850.41915487257
 20
-430.3105063073703
 30
0.0
 11
-848.0191548725699
 21
-430.3105063073703
 31
0.0
  0
LINE
  5
D0
330
1E
100
AcDbEntity
  8
0
  6
Continuous
 62
     3
100
AcDbLine
 10
-841.41915487257
 20
-433.8105063073704
 30
0.0
 11
-845.7191548725699
 21
-433.8105063073704
 31
0.0
  0
LWPOLYLINE
  5
D1
330
1E
100
AcDbEntity
  8
0
 62
     3
100
AcDbPolyline
 90
        4
 70
     1
 43
0.0
 10
-834.9191548735699
 20
-491.0605063073703
 10
-900.4191548735699
 20
-491.0605063053703
 10
-900.41915487257
 20
-448.5605063053704
 10
-834.9191548725698
 20
-448.5605063073704
  0
LINE
  5
D7
330
1E
100
AcDbEntity
  8
0
  6
Continuous
 62
     3
100
AcDbLine
 10
-836.2191548675699
 20
-439.8105063133704
 30
0.0
 11
-838.2191548675699
 21
-439.8105063133704
 31
0.0
  0
LINE
  5
D8
330
1E
100
AcDbEntity
  8
0
  6
Continuous
 62
     3
100
AcDbLine
 10
-838.2191548675699
 20
-439.8105063133704
 30
0.0
 11
-838.21915486657
 21
-433.8105063133704
 31
0.0
  0
LINE
  5
D9
330
1E
100
AcDbEntity
  8
0
  6
Continuous
 62
     3
100
AcDbLine
 10
-842.5191548665701
 20
-433.8105063123704
 30
0.0
 11
-842.51915486757
 21
-439.8105063123704
 31
0.0
  0
LWPOLYLINE
  5
DA
330
1E
100
AcDbEntity
  8
0
 62
     3
100
AcDbPolyline
 90
        3
 70
     0
 43
0.0
 10
-842.51915486757
 20
-439.8105063123704
 10
-844.5191548675699
 20
-439.8105063123704
 10
-844.51915486657
 20
-433.8105063123704
  0
LINE
  5
DF
330
1E
100
AcDbEntity
  8
0
  6
Continuous
 62
     3
100
AcDbLine
 10
-854.7191548665699
 20
-433.8105063113704
 30
0.0
 11
-854.71915486757
 21
-439.8105063113703
 31
0.0
  0
LWPOLYLINE
  5
E0
330
1E
100
AcDbEntity
  8
0
 62
     3
100
AcDbPolyline
 90
        3
 70
     0
 43
0.0
 10
-854.71915486757
 20
-439.8105063113703
 10
-856.7191548675699
 20
-439.8105063113703
 10
-856.71915486657
 20
-433.8105063113704
  0
LINE
  5
E5
330
1E
100
AcDbEntity
  8
0
  6
Continuous
 62
     3
100
AcDbLine
 10
-894.7191548665699
 20
-433.8105063083703
 30
0.0
 11
-894.71915486757
 21
-439.8105063083703
 31
0.0
  0
LWPOLYLINE
  5
E6
330
1E
100
AcDbEntity
  8
0
 62
     3
100
AcDbPolyline
 90
        3
 70
     0
 43
0.0
 10
-894.71915486757
 20
-439.8105063083703
 10
-896.71915486757
 20
-439.8105063083703
 10
-896.7191548665699
 20
-433.8105063083703
  0
LINE
  5
EB
330
1E
100
AcDbEntity
  8
0
  6
Continuous
 62
     3
100
AcDbLine
 10
-892.71915486657
 20
-433.8105063093704
 30
0.0
 11
-892.7191548675699
 21
-439.8105063093703
 31
0.0
  0
LWPOLYLINE
  5
EC
330
1E
100
AcDbEntity
  8
0
 62
     3
100
AcDbPolyline
 90
        3
 70
     0
 43
0.0
 10
-892.7191548675699
 20
-439.8105063093703
 10
-890.7191548675699
 20
-439.8105063093703
 10
-890.71915486657
 20
-433.8105063093704
  0
LINE
  5
F1
330
1E
100
AcDbEntity
  8
0
  6
Continuous
 62
     3
100
AcDbLine
 10
-888.7191548665699
 20
-433.8105063093704
 30
0.0
 11
-888.71915486757
 21
-439.8105063093703
 31
0.0
  0
LWPOLYLINE
  5
F2
330
1E
100
AcDbEntity
  8
0
 62
     3
100
AcDbPolyline
 90
        3
 70
     0
 43
0.0
 10
-888.71915486757
 20
-439.8105063093703
 10
-886.71915486757
 20
-439.8105063093703
 10
-886.7191548665699
 20
-433.8105063093704
  0
LINE
  5
F7
330
1E
100
AcDbEntity
  8
0
  6
Continuous
 62
     3
100
AcDbLine
 10
-884.71915486657
 20
-433.8105063093704
 30
0.0
 11
-884.7191548675699
 21
-439.8105063093703
 31
0.0
  0
LWPOLYLINE
  5
F8
330
1E
100
AcDbEntity
  8
0
 62
     3
100
AcDbPolyline
 90
        3
 70
     0
 43
0.0
 10
-884.7191548675699
 20
-439.8105063093703
 10
-882.7191548675699
 20
-439.8105063093703
 10
-882.71915486657
 20
-433.8105063093704
  0
LINE
  5
FD
330
1E
100
AcDbEntity
  8
0
  6
Continuous
 62
     3
100
AcDbLine
 10
-880.7191548665699
 20
-433.8105063103704
 30
0.0
 11
-880.7191548675699
 21
-439.8105063103703
 31
0.0
  0
LWPOLYLINE
  5
FE
330
1E
100
AcDbEntity
  8
0
 62
     3
100
AcDbPolyline
 90
        3
 70
     0
 43
0.0
 10
-880.7191548675699
 20
-439.8105063103703
 10
-878.71915486757
 20
-439.8105063103703
 10
-878.7191548665699
 20
-433.8105063103704
  0
LINE
  5
103
330
1E
100
AcDbEntity
  8
0
  6
Continuous
 62
     3
100
AcDbLine
 10
-876.7191548665699
 20
-433.8105063103704
 30
0.0
 11
-876.7191548675699
 21
-439.8105063103703
 31
0.0
  0
LWPOLYLINE
  5
104
330
1E
100
AcDbEntity
  8
0
 62
     3
100
AcDbPolyline
 90
        3
 70
     0
 43
0.0
 10
-876.7191548675699
 20
-439.8105063103703
 10
-874.7191548675699
 20
-439.8105063103703
 10
-874.71915486657
 20
-433.8105063103704
  0
LINE
  5
109
330
1E
100
AcDbEntity
  8
0
  6
Continuous
 62
     3
100
AcDbLine
 10
-872.7191548665699
 20
-433.8105063103704
 30
0.0
 11
-872.7191548675699
 21
-439.8105063103703
 31
0.0
  0
LWPOLYLINE
  5
10A
330
1E
100
AcDbEntity
  8
0
 62
     3
100
AcDbPolyline
 90
        3
 70
     0
 43
0.0
 10
-872.7191548675699
 20
-439.8105063103703
 10
-870.71915486757
 20
-439.8105063103703
 10
-870.7191548665699
 20
-433.8105063103704
  0
LINE
  5
10F
330
1E
100
AcDbEntity
  8
0
  6
Continuous
 62
     3
100
AcDbLine
 10
-868.7191548665699
 20
-433.8105063103704
 30
0.0
 11
-868.7191548675698
 21
-439.8105063103703
 31
0.0
  0
LWPOLYLINE
  5
110
330
1E
100
AcDbEntity
  8
0
 62
     3
100
AcDbPolyline
 90
        3
 70
     0
 43
0.0
 10
-868.7191548675698
 20
-439.8105063103703
 10
-866.7191548675699
 20
-439.8105063113703
 10
-866.71915486657
 20
-433.8105063113704
  0
LINE
  5
115
330
1E
100
AcDbEntity
  8
0
  6
Continuous
 62
     3
100
AcDbLine
 10
-864.71915486657
 20
-433.8105063113704
 30
0.0
 11
-864.7191548675699
 21
-439.8105063113703
 31
0.0
  0
LWPOLYLINE
  5
116
330
1E
100
AcDbEntity
  8
0
 62
     3
100
AcDbPolyline
 90
        3
 70
     0
 43
0.0
 10
-864.7191548675699
 20
-439.8105063113703
 10
-862.71915486757
 20
-439.8105063113703
 10
-862.7191548665699
 20
-433.8105063113704
  0
LINE
  5
11B
330
1E
100
AcDbEntity
  8
0
  6
Continuous
 62
     3
100
AcDbLine
 10
-860.7191548665699
 20
-433.8105063113704
 30
0.0
 11
-860.7191548675698
 21
-439.8105063113703
 31
0.0
  0
LWPOLYLINE
  5
11C
330
1E
100
AcDbEntity
  8
0
 62
     3
100
AcDbPolyline
 90
        3
 70
     0
 43
0.0
 10
-860.7191548675698
 20
-439.8105063113703
 10
-858.7191548675699
 20
-439.8105063113703
 10
-858.71915486657
 20
-433.8105063113704
  0
LINE
  5
121
330
1E
100
AcDbEntity
  8
0
  6
Continuous
 62
     3
100
AcDbLine
 10
-915.41915487257
 20
-442.3105063083703
 30
0.0
 11
-915.41915487257
 21
-438.3105063083703
 31
0.0
  0
LINE
  5
122
330
1E
100
AcDbEntity
  8
0
  6
Continuous
 62
     3
100
AcDbLine
 10
-915.4191548715699
 20
-501.3105063083703
 30
0.0
 11
-915.4191548715699
 21
-497.3105063083703
 31
0.0
  0
LINE
  5
123
330
1E
100
AcDbEntity
  8
0
  6
Continuous
 62
     3
100
AcDbLine
 10
-836.21915486857
 20
-505.8105063073703
 30
0.0
 11
-836.21915486857
 21
-499.8105063073703
 31
0.0
  0
LWPOLYLINE
  5
124
330
1E
100
AcDbEntity
  8
0
 62
     3
100
AcDbPolyline
 90
        3
 70
     0
 43
0.0
 10
-836.21915486857
 20
-499.8105063073703
 10
-838.21915486857
 20
-499.8105063073703
 10
-838.21915486857
 20
-505.8105063073703
  0
LINE
  5
129
330
1E
100
AcDbEntity
  8
0
  6
Continuous
 62
     3
100
AcDbLine
 10
-842.5191548685699
 20
-505.8105063083703
 30
0.0
 11
-842.5191548685699
 21
-499.8105063083703
 31
0.0
  0
LWPOLYLINE
  5
12A
330
1E
100
AcDbEntity
  8
0
 62
     3
100
AcDbPolyline
 90
        3
 70
     0
 43
0.0
 10
-842.5191548685699
 20
-499.8105063083703
 10
-844.51915486857
 20
-499.8105063083703
 10
-844.51915486857
 20
-505.8105063083703
  0
LINE
  5
12F
330
1E
100
AcDbEntity
  8
0
  6
Continuous
 62
     3
100
AcDbLine
 10
-854.7191548685699
 20
-505.8105063083703
 30
0.0
 11
-854.7191548685699
 21
-499.8105063083703
 31
0.0
  0
LWPOLYLINE
  5
130
330
1E
100
AcDbEntity
  8
0
 62
     3
100
AcDbPolyline
 90
        3
 70
     0
 43
0.0
 10
-854.7191548685699
 20
-499.8105063083703
 10
-856.7191548685698
 20
-499.8105063083703
 10
-856.7191548685698
 20
-505.8105063083703
  0
LINE
  5
135
330
1E
100
AcDbEntity
  8
0
  6
Continuous
 62
     3
100
AcDbLine
 10
-894.7191548685699
 20
-505.8105063093703
 30
0.0
 11
-894.7191548685699
 21
-499.8105063093704
 31
0.0
  0
LWPOLYLINE
  5
136
330
1E
100
AcDbEntity
  8
0
 62
     3
100
AcDbPolyline
 90
        3
 70
     0
 43
0.0
 10
-894.7191548685699
 20
-499.8105063093704
 10
-896.7191548685699
 20
-499.8105063093704
 10
-896.7191548685699
 20
-505.8105063093703
  0
LINE
  5
13B
330
1E
100
AcDbEntity
  8
0
  6
Continuous
 62
     3
100
AcDbLine
 10
-892.71915486857
 20
-505.8105063093703
 30
0.0
 11
-892.71915486857
 21
-499.8105063093704
 31
0.0
  0
LWPOLYLINE
  5
13C
330
1E
100
AcDbEntity
  8
0
 62
     3
100
AcDbPolyline
 90
        3
 70
     0
 43
0.0
 10
-892.71915486857
 20
-499.8105063093704
 10
-890.71915486857
 20
-499.8105063093704
 10
-890.71915486857
 20
-505.8105063093703
  0
LINE
  5
141
330
1E
100
AcDbEntity
  8
0
  6
Continuous
 62
     3
100
AcDbLine
 10
-888.7191548685699
 20
-505.8105063093703
 30
0.0
 11
-888.7191548685699
 21
-499.8105063093704
 31
0.0
  0
LWPOLYLINE
  5
142
330
1E
100
AcDbEntity
  8
0
 62
     3
100
AcDbPolyline
 90
        3
 70
     0
 43
0.0
 10
-888.7191548685699
 20
-499.8105063093704
 10
-886.7191548685699
 20
-499.8105063093704
 10
-886.7191548685699
 20
-505.8105063093703
  0
LINE
  5
147
330
1E
100
AcDbEntity
  8
0
  6
Continuous
 62
     3
100
AcDbLine
 10
-884.71915486857
 20
-505.8105063093703
 30
0.0
 11
-884.71915486857
 21
-499.8105063093704
 31
0.0
  0
LWPOLYLINE
  5
148
330
1E
100
AcDbEntity
  8
0
 62
     3
100
AcDbPolyline
 90
        3
 70
     0
 43
0.0
 10
-884.71915486857
 20
-499.8105063093704
 10
-882.71915486857
 20
-499.8105063093704
 10
-882.71915486857
 20
-505.8105063093703
  0
LINE
  5
14D
330
1E
100
AcDbEntity
  8
0
  6
Continuous
 62
     3
100
AcDbLine
 10
-880.7191548685699
 20
-505.8105063093703
 30
0.0
 11
-880.7191548685699
 21
-499.8105063093704
 31
0.0
  0
LWPOLYLINE
  5
14E
330
1E
100
AcDbEntity
  8
0
 62
     3
100
AcDbPolyline
 90
        3
 70
     0
 43
0.0
 10
-880.7191548685699
 20
-499.8105063093704
 10
-878.7191548685699
 20
-499.8105063093704
 10
-878.7191548685699
 20
-505.8105063093703
  0
LINE
  5
153
330
1E
100
AcDbEntity
  8
0
  6
Continuous
 62
     3
100
AcDbLine
 10
-876.7191548685699
 20
-505.8105063083703
 30
0.0
 11
-876.7191548685699
 21
-499.8105063083703
 31
0.0
  0
LWPOLYLINE
  5
154
330
1E
100
AcDbEntity
  8
0
 62
     3
100
AcDbPolyline
 90
        3
 70
     0
 43
0.0
 10
-876.7191548685699
 20
-499.8105063083703
 10
-874.71915486857
 20
-499.8105063083703
 10
-874.71915486857
 20
-505.8105063083703
  0
LINE
  5
159
330
1E
100
AcDbEntity
  8
0
  6
Continuous
 62
     3
100
AcDbLine
 10
-872.7191548685699
 20
-505.8105063083703
 30
0.0
 11
-872.7191548685699
 21
-499.8105063083703
 31
0.0
  0
LWPOLYLINE
  5
15A
330
1E
100
AcDbEntity
  8
0
 62
     3
100
AcDbPolyline
 90
        3
 70
     0
 43
0.0
 10
-872.7191548685699
 20
-499.8105063083703
 10
-870.7191548685699
 20
-499.8105063083703
 10
-870.7191548685699
 20
-505.8105063083703
  0
LINE
  5
15F
330
1E
100
AcDbEntity
  8
0
  6
Continuous
 62
     3
100
AcDbLine
 10
-868.7191548685699
 20
-505.8105063083703
 30
0.0
 11
-868.7191548685699
 21
-499.8105063083703
 31
0.0
  0
LWPOLYLINE
  5
160
330
1E
100
AcDbEntity
  8
0
 62
     3
100
AcDbPolyline
 90
        3
 70
     0
 43
0.0
 10
-868.7191548685699
 20
-499.8105063083703
 10
-866.71915486857
 20
-499.8105063083703
 10
-866.71915486857
 20
-505.8105063083703
  0
LINE
  5
165
330
1E
100
AcDbEntity
  8
0
  6
Continuous
 62
     3
100
AcDbLine
 10
-864.7191548685698
 20
-505.8105063083703
 30
0.0
 11
-864.7191548685698
 21
-499.8105063083703
 31
0.0
  0
LWPOLYLINE
  5
166
330
1E
100
AcDbEntity
  8
0
 62
     3
100
AcDbPolyline
 90
        3
 70
     0
 43
0.0
 10
-864.7191548685698
 20
-499.8105063083703
 10
-862.7191548685699
 20
-499.8105063083703
 10
-862.7191548685699
 20
-505.8105063083703
  0
LINE
  5
16B
330
1E
100
AcDbEntity
  8
0
  6
Continuous
 62
     3
100
AcDbLine
 10
-860.7191548685699
 20
-505.8105063083703
 30
0.0
 11
-860.7191548685699
 21
-499.8105063083703
 31
0.0
  0
LWPOLYLINE
  5
16C
330
1E
100
AcDbEntity
  8
0
 62
     3
100
AcDbPolyline
 90
        3
 70
     0
 43
0.0
 10
-860.7191548685699
 20
-499.8105063083703
 10
-858.71915486857
 20
-499.8105063083703
 10
-858.71915486857
 20
-505.8105063083703
  0
LINE
  5
171
330
1E
100
AcDbEntity
  8
0
  6
Continuous
 62
     3
100
AcDbLine
 10
-905.41915487057
 20
-505.8105063083703
 30
0.0
 11
-905.41915487057
 21
-504.3105063083703
 31
0.0
  0
LINE
  5
172
330
1E
100
AcDbEntity
  8
0
  6
Continuous
 62
     3
100
AcDbLine
 10
-905.41915487057
 20
-504.3105063083703
 30
0.0
 11
-910.4191548705699
 21
-504.3105063083703
 31
0.0
  0
LINE
  5
173
330
1E
100
AcDbEntity
  8
0
  6
Continuous
 62
     3
100
AcDbLine
 10
-910.4191548705699
 20
-505.8105063083703
 30
0.0
 11
-910.4191548705699
 21
-504.3105063083703
 31
0.0
  0
LINE
  5
174
330
1E
100
AcDbEntity
  8
0
  6
Continuous
 62
     3
100
AcDbLine
 10
-905.41915486857
 20
-433.8105063083703
 30
0.0
 11
-905.41915486857
 21
-435.2105063083704
 31
0.0
  0
LINE
  5
175
330
1E
100
AcDbEntity
  8
0
  6
Continuous
 62
     3
100
AcDbLine
 10
-905.41915486857
 20
-435.2105063083704
 30
0.0
 11
-910.4191548685699
 21
-435.2105063083704
 31
0.0
  0
LINE
  5
176
330
1E
100
AcDbEntity
  8
0
  6
Continuous
 62
     3
100
AcDbLine
 10
-910.4191548685699
 20
-435.2105063083704
 30
0.0
 11
-910.4191548685699
 21
-433.8105063083703
 31
0.0
  0
CIRCLE
  5
177
330
1E
100
AcDbEntity
  8
0
  6
Continuous
 62
     3
100
AcDbCircle
 10
-915.41915487057
 20
-504.8105063083703
 30
0.0
 40
0.5
  0
CIRCLE
  5
178
330
1E
100
AcDbEntity
  8
0
  6
Continuous
 62
     3
100
AcDbCircle
 10
-915.41915486857
 20
-434.8105063083703
 30
0.0
 40
0.5
  0
LINE
  5
179
330
1E
100
AcDbEntity
  8
0
  6
Continuous
 62
     3
100
AcDbLine
 10
-914.4191548695699
 20
-497.3105063083703
 30
0.0
 11
-915.4191548715699
 21
-497.3105063083703
 31
0.0
  0
LINE
  5
17A
330
1E
100
AcDbEntity
  8
0
  6
Continuous
 62
     3
100
AcDbLine
 10
-914.4191548695699
 20
-497.3105063083703
 30
0.0
 11
-914.41915487057
 21
-501.3105063083703
 31
0.0
  0
LINE
  5
17B
330
1E
100
AcDbEntity
  8
0
  6
Continuous
 62
     3
100
AcDbLine
 10
-915.4191548715699
 20
-501.3105063083703
 30
0.0
 11
-914.41915487057
 21
-501.3105063083703
 31
0.0
  0
LINE
  5
17C
330
1E
100
AcDbEntity
  8
0
  6
Continuous
 62
     3
100
AcDbLine
 10
-915.41915487257
 20
-442.3105063083703
 30
0.0
 11
-914.41915486857
 21
-442.3105063083703
 31
0.0
  0
LINE
  5
17D
330
1E
100
AcDbEntity
  8
0
  6
Continuous
 62
     3
100
AcDbLine
 10
-914.41915486857
 20
-438.3105063083703
 30
0.0
 11
-915.41915487257
 21
-438.3105063083703
 31
0.0
  0
LINE
  5
17E
330
1E
100
AcDbEntity
  8
0
  6
Continuous
 62
     3
100
AcDbLine
 10
-914.41915486857
 20
-438.3105063083703
 30
0.0
 11
-914.41915486857
 21
-442.3105063083703
 31
0.0
  0
ARC
  5
17F
330
1E
100
AcDbEntity
  8
0
  6
Continuous
 62
     3
100
AcDbCircle
 10
-881.4191548695699
 20
-431.6102563103703
 30
0.0
 40
1.0
100
AcDbArc
 50
180.0
 51
0.0
  0
LINE
  5
180
330
1E
100
AcDbEntity
  8
0
  6
Continuous
 62
     3
100
AcDbLine
 10
-880.4191548695699
 20
-431.6102563103703
 30
0.0
 11
-880.4191548695699
 21
-430.3602563103703
 31
0.0
  0
LINE
  5
181
330
1E
100
AcDbEntity
  8
0
  6
Continuous
 62
     3
100
AcDbLine
 10
-865.91915486957
 20
-433.5102563103704
 30
0.0
 11
-865.91915486957
 21
-432.0102563103703
 31
0.0
  0
LINE
  5
182
330
1E
100
AcDbEntity
  8
0
  6
Continuous
 62
     3
100
AcDbLine
 10
-863.91915486957
 20
-433.5102563103704
 30
0.0
 11
-863.91915486957
 21
-432.2602563103703
 31
0.0
  0
ARC
  5
183
330
1E
100
AcDbEntity
  8
0
  6
Continuous
 62
     3
100
AcDbCircle
 10
-849.4191548695699
 20
-432.8102563103704
 30
0.0
 40
4.2
100
AcDbArc
 50
28.393019421
 51
90.0
  0
LINE
  5
184
330
1E
100
AcDbEntity
  8
0
  6
Continuous
 62
     3
100
AcDbLine
 10
-849.4191548695699
 20
-428.6102563103703
 30
0.0
 11
-880.4191548695699
 21
-428.6102563103703
 31
0.0
  0
ARC
  5
185
330
1E
100
AcDbEntity
  8
0
  6
Continuous
 62
     3
100
AcDbCircle
 10
-881.41915487057
 20
-511.5107563103704
 30
0.0
 40
1.0
100
AcDbArc
 50
180.0
 51
0.0
  0
ARC
  5
186
330
1E
100
AcDbEntity
  8
0
  6
Continuous
 62
     3
100
AcDbCircle
 10
-881.41915487057
 20
-508.0107563103704
 30
0.0
 40
1.0
100
AcDbArc
 50
0.0
 51
180.0
  0
LINE
  5
187
330
1E
100
AcDbEntity
  8
0
  6
Continuous
 62
     3
100
AcDbLine
 10
-882.41915487057
 20
-511.5107563103704
 30
0.0
 11
-882.41915487057
 21
-508.0107563103704
 31
0.0
  0
LINE
  5
188
330
1E
100
AcDbEntity
  8
0
  6
Continuous
 62
     3
100
AcDbLine
 10
-880.41915487057
 20
-508.0107563103704
 30
0.0
 11
-880.41915487057
 21
-509.2607563103704
 31
0.0
  0
LINE
  5
189
330
1E
100
AcDbEntity
  8
0
  6
Continuous
 62
     3
100
AcDbLine
 10
-880.41915487057
 20
-511.0107563103703
 30
0.0
 11
-880.41915487057
 21
-511.5107563103704
 31
0.0
  0
LINE
  5
18A
330
1E
100
AcDbEntity
  8
0
  6
Continuous
 62
     3
100
AcDbLine
 10
-879.4191548705699
 20
-511.0107563103703
 30
0.0
 11
-879.4191548705699
 21
-511.5107563103704
 31
0.0
  0
LINE
  5
18B
330
1E
100
AcDbEntity
  8
0
  6
Continuous
 62
     3
100
AcDbLine
 10
-879.4191548705699
 20
-511.5107563103704
 30
0.0
 11
-880.41915487057
 21
-511.0107563103703
 31
0.0
  0
LINE
  5
18C
330
1E
100
AcDbEntity
  8
0
  6
Continuous
 62
     3
100
AcDbLine
 10
-878.4191548705699
 20
-511.0107563103703
 30
0.0
 11
-878.4191548705699
 21
-511.5107563103704
 31
0.0
  0
LINE
  5
18D
330
1E
100
AcDbEntity
  8
0
  6
Continuous
 62
     3
100
AcDbLine
 10
-878.4191548705699
 20
-511.5107563103704
 30
0.0
 11
-879.4191548705699
 21
-511.0107563103703
 31
0.0
  0
LINE
  5
18E
330
1E
100
AcDbEntity
  8
0
  6
Continuous
 62
     3
100
AcDbLine
 10
-878.4191548705699
 20
-511.0107563103703
 30
0.0
 11
-877.4191548705699
 21
-511.5107563103704
 31
0.0
  0
LWPOLYLINE
  5
18F
330
1E
100
AcDbEntity
  8
0
 62
     3
100
AcDbPolyline
 90
       17
 70
     0
 43
0.0
 10
-877.4191548705699
 20
-511.5107563103704
 10
-877.4191548705699
 20
-511.0107563103703
 10
-876.4191548705699
 20
-511.5107563103704
 10
-876.4191548705699
 20
-511.0107563103703
 10
-875.41915487057
 20
-511.5107563103704
 10
-875.41915487057
 20
-511.0107563103703
 10
-874.41915487057
 20
-511.5107563103704
 10
-874.41915487057
 20
-511.0107563103703
 10
-873.41915487057
 20
-511.5107563103704
 10
-873.41915487057
 20
-511.0107563103703
 10
-872.41915487057
 20
-511.5107563103704
 10
-872.41915487057
 20
-511.0107563103703
 10
-871.4191548705699
 20
-511.5107563103704
 10
-871.4191548705699
 20
-511.0107563103703
 10
-870.4191548705699
 20
-511.5107563103704
 10
-870.4191548705699
 20
-511.0107563103703
 10
-869.4191548705699
 20
-511.5107563103704
  0
LINE
  5
1A2
330
1E
100
AcDbEntity
  8
0
  6
Continuous
 62
     3
100
AcDbLine
 10
-869.4191548705699
 20
-511.0107563103703
 30
0.0
 11
-869.4191548705699
 21
-511.5107563103704
 31
0.0
  0
LWPOLYLINE
  5
1A3
330
1E
100
AcDbEntity
  8
0
 62
     3
100
AcDbPolyline
 90
        5
 70
     0
 43
0.0
 10
-869.4191548705699
 20
-511.0107563103703
 10
-868.4191548705699
 20
-511.5107563103704
 10
-868.4191548705699
 20
-511.0107563103703
 10
-867.4191548705699
 20
-511.5107563103704
 10
-867.4191548705699
 20
-511.0107563103703
  0
LINE
  5
1AA
330
1E
100
AcDbEntity
  8
0
  6
Continuous
 62
     3
100
AcDbLine
 10
-865.9191548705699
 20
-506.1107563103703
 30
0.0
 11
-865.9191548705699
 21
-507.6107563103703
 31
0.0
  0
LINE
  5
1AB
330
1E
100
AcDbEntity
  8
0
  6
Continuous
 62
     3
100
AcDbLine
 10
-863.9191548705699
 20
-506.1107563103703
 30
0.0
 11
-863.9191548705699
 21
-507.3607563103704
 31
0.0
  0
POINT
  5
1AC
330
1E
100
AcDbEntity
  8
0
  6
Continuous
 62
     3
100
AcDbPoint
 10
-864.9191548705699
 20
-505.1107563103704
 30
0.0
  0
ARC
  5
1AD
330
1E
100
AcDbEntity
  8
0
  6
Continuous
 62
     3
100
AcDbCircle
 10
-849.41915487057
 20
-506.8107563103703
 30
0.0
 40
4.2
100
AcDbArc
 50
270.0
 51
331.606980579
  0
LINE
  5
1AE
330
1E
100
AcDbEntity
  8
0
  6
Continuous
 62
     3
100
AcDbLine
 10
-849.41915487057
 20
-511.0107563103703
 30
0.0
 11
-880.41915487057
 21
-511.0107563103703
 31
0.0
  0
ARC
  5
1AF
330
1E
100
AcDbEntity
  8
0
  6
Continuous
 62
     3
100
AcDbCircle
 10
-864.9191548705699
 20
-506.1107563103703
 30
0.0
 40
1.0
100
AcDbArc
 50
163.287615436
 51
179.9999999989999
  0
ARC
  5
1B0
330
1E
100
AcDbEntity
  8
0
  6
Continuous
 62
     3
100
AcDbCircle
 10
-864.9191548705699
 20
-506.1107563103703
 30
0.0
 40
1.0
100
AcDbArc
 50
0.0
 51
16.712384564
  0
ARC
  5
1B1
330
1E
100
AcDbEntity
  8
0
  6
Continuous
 62
     3
100
AcDbCircle
 10
-864.91915486957
 20
-433.5102563103704
 30
0.0
 40
1.0
100
AcDbArc
 50
343.287615436
 51
0.0
  0
ARC
  5
1B2
330
1E
100
AcDbEntity
  8
0
  6
Continuous
 62
     3
100
AcDbCircle
 10
-864.91915486957
 20
-433.5102563103704
 30
0.0
 40
1.0
100
AcDbArc
 50
180.0000000009999
 51
196.712384564
  0
LINE
  5
1B3
330
1E
100
AcDbEntity
  8
0
  6
Continuous
 62
     3
100
AcDbLine
 10
-852.6691548705699
 20
-506.0709125603704
 30
0.0
 11
-882.41915487057
 21
-509.5107563103703
 31
0.0
  0
LINE
  5
1B4
330
1E
100
AcDbEntity
  8
0
  6
Continuous
 62
     3
100
AcDbLine
 10
-852.66915486957
 20
-433.5501000603703
 30
0.0
 11
-882.4191548695699
 21
-430.1102563103703
 31
0.0
  0
LINE
  5
1B5
330
1E
100
AcDbEntity
  8
0
  6
Continuous
 62
     3
100
AcDbLine
 10
-841.4191548695699
 20
-430.8102563103703
 30
0.0
 11
-845.71915486957
 21
-430.8102563103703
 31
0.0
  0
LINE
  5
1B6
330
1E
100
AcDbEntity
  8
0
  6
Continuous
 62
     3
100
AcDbLine
 10
-835.1691548695699
 20
-430.8102563103703
 30
0.0
 11
-839.4191548695699
 21
-430.8102563103703
 31
0.0
  0
LINE
  5
1B7
330
1E
100
AcDbEntity
  8
0
  6
Continuous
 62
     3
100
AcDbLine
 10
-841.41915487057
 20
-508.8107563103704
 30
0.0
 11
-845.7191548705701
 21
-508.8107563103704
 31
0.0
  0
LINE
  5
1B8
330
1E
100
AcDbEntity
  8
0
  6
Continuous
 62
     3
100
AcDbLine
 10
-835.16915487057
 20
-508.8107563103704
 30
0.0
 11
-839.41915487057
 21
-508.8107563103704
 31
0.0
  0
LINE
  5
1B9
330
1E
100
AcDbEntity
  8
0
  6
Continuous
 62
     3
100
AcDbLine
 10
-867.9191548695699
 20
-450.8105063103704
 30
0.0
 11
-888.91915486957
 21
-450.8105063103704
 31
0.0
  0
LINE
  5
1BA
330
1E
100
AcDbEntity
  8
0
  6
Continuous
 62
     3
100
AcDbLine
 10
-867.9191548695699
 20
-488.8105063103703
 30
0.0
 11
-867.9191548695699
 21
-450.8105063103704
 31
0.0
  0
LINE
  5
1BB
330
1E
100
AcDbEntity
  8
0
  6
Continuous
 62
     3
100
AcDbLine
 10
-867.9191548695699
 20
-450.8105063103704
 30
0.0
 11
-867.9191548695699
 21
-488.8105063103703
 31
0.0
  0
LINE
  5
1BC
330
1E
100
AcDbEntity
  8
0
  6
Continuous
 62
     3
100
AcDbLine
 10
-847.91915486957
 20
-450.8105063103704
 30
0.0
 11
-867.9191548695699
 21
-450.8105063103704
 31
0.0
  0
LINE
  5
1BD
330
1E
100
AcDbEntity
  8
0
  6
Continuous
 62
     3
100
AcDbLine
 10
-847.91915486957
 20
-488.8105063103703
 30
0.0
 11
-847.91915486957
 21
-450.8105063103704
 31
0.0
  0
LINE
  5
1BE
330
1E
100
AcDbEntity
  8
0
  6
Continuous
 62
     3
100
AcDbLine
 10
-867.9191548695699
 20
-488.8105063103703
 30
0.0
 11
-847.91915486957
 21
-488.8105063103703
 31
0.0
  0
LINE
  5
1BF
330
1E
100
AcDbEntity
  8
0
  6
Continuous
 62
     3
100
AcDbLine
 10
-888.91915486957
 20
-488.8105063103703
 30
0.0
 11
-867.9191548695699
 21
-488.8105063103703
 31
0.0
  0
LINE
  5
1C0
330
1E
100
AcDbEntity
  8
0
  6
Continuous
 62
     3
100
AcDbLine
 10
-888.91915486957
 20
-450.8105063103704
 30
0.0
 11
-888.91915486957
 21
-488.8105063103703
 31
0.0
  0
ARC
  5
1C1
330
1E
100
AcDbEntity
  8
0
  6
Continuous
 62
     3
100
AcDbCircle
 10
-888.91915486957
 20
-450.8105063103704
 30
0.0
 40
1.0
100
AcDbArc
 50
90.0
 51
180.0
  0
LINE
  5
1C2
330
1E
100
AcDbEntity
  8
1
  6
Continuous
 62
     3
100
AcDbLine
 10
-889.91915486957
 20
-488.8105063103703
 30
0.0
 11
-889.91915486957
 21
-450.8105063103704
 31
0.0
  0
ARC
  5
1C3
330
1E
100
AcDbEntity
  8
0
  6
Continuous
 62
     3
100
AcDbCircle
 10
-888.91915486957
 20
-488.8105063103703
 30
0.0
 40
1.0
100
AcDbArc
 50
180.0
 51
270.0
  0
LINE
  5
1C4
330
1E
100
AcDbEntity
  8
1
  6
Continuous
 62
     3
100
AcDbLine
 10
-888.91915486957
 20
-489.8105063103703
 30
0.0
 11
-847.91915486957
 21
-489.8105063103703
 31
0.0
  0
ARC
  5
1C5
330
1E
100
AcDbEntity
  8
0
  6
Continuous
 62
     3
100
AcDbCircle
 10
-847.91915486957
 20
-488.8105063103703
 30
0.0
 40
1.0
100
AcDbArc
 50
270.0
 51
0.0
  0
LINE
  5
1C6
330
1E
100
AcDbEntity
  8
1
  6
Continuous
 62
     3
100
AcDbLine
 10
-888.91915486957
 20
-449.8105063103704
 30
0.0
 11
-847.91915486957
 21
-449.8105063103704
 31
0.0
  0
LINE
  5
1C7
330
1E
100
AcDbEntity
  8
1
  6
Continuous
 62
     3
100
AcDbLine
 10
-846.91915486957
 20
-450.8105063103704
 30
0.0
 11
-846.91915486957
 21
-488.8105063103703
 31
0.0
  0
ARC
  5
1C8
330
1E
100
AcDbEntity
  8
0
  6
Continuous
 62
     3
100
AcDbCircle
 10
-847.91915486957
 20
-450.8105063103704
 30
0.0
 40
1.0
100
AcDbArc
 50
0.0
 51
90.0
  0
POINT
  5
1C9
330
1E
100
AcDbEntity
  8
0
  6
Continuous
 62
     3
100
AcDbPoint
 10
-917.4191548725699
 20
-435.8105063083703
 30
0.0
  0
LINE
  5
1CA
330
1E
100
AcDbEntity
  8
0
  6
Continuous
 62
     3
100
AcDbLine
 10
-917.4191548725699
 20
-434.8105063083703
 30
0.0
 11
-917.4191548715699
 21
-504.8105063083703
 31
0.0
  0
ARC
  5
1CB
330
1E
100
AcDbEntity
  8
0
  6
Continuous
 62
     3
100
AcDbCircle
 10
-915.41915487257
 20
-434.8105063083703
 30
0.0
 40
2.0
100
AcDbArc
 50
30.465544868
 51
180.0
  0
LINE
  5
1CC
330
1E
100
AcDbEntity
  8
0
  6
Continuous
 62
     3
100
AcDbLine
 10
-852.7191548725699
 20
-433.8105063083703
 30
0.0
 11
-913.7191548685699
 21
-433.8105063083703
 31
0.0
  0
LINE
  5
1CD
330
1E
100
AcDbEntity
  8
0
  6
Continuous
 62
     3
100
AcDbLine
 10
-852.7191548685699
 20
-433.8105063103704
 30
0.0
 11
-845.7191548685699
 21
-433.8105063103704
 31
0.0
  0
LINE
  5
1CE
330
1E
100
AcDbEntity
  8
0
  6
Continuous
 62
     3
100
AcDbLine
 10
-850.4191548695699
 20
-433.8102563103704
 30
0.0
 11
-841.4191548695699
 21
-433.8102563103704
 31
0.0
  0
LINE
  5
1CF
330
1E
100
AcDbEntity
  8
0
  6
Continuous
 62
     3
100
AcDbLine
 10
-841.41915487257
 20
-433.8105063073704
 30
0.0
 11
-841.41915487257
 21
-430.3105063073703
 31
0.0
  0
LINE
  5
1D0
330
1E
100
AcDbEntity
  8
0
  6
Continuous
 62
     3
100
AcDbLine
 10
-841.41915487257
 20
-430.3105063073703
 30
0.0
 11
-839.4191548725698
 21
-430.3105063073703
 31
0.0
  0
LINE
  5
1D1
330
1E
100
AcDbEntity
  8
0
  6
Continuous
 62
     3
100
AcDbLine
 10
-835.16915487257
 20
-433.8105063073704
 30
0.0
 11
-839.4191548725698
 21
-433.8105063073704
 31
0.0
  0
LINE
  5
1D2
330
1E
100
AcDbEntity
  8
0
  6
Continuous
 62
     3
100
AcDbLine
 10
-839.4191548695699
 20
-433.8102563103704
 30
0.0
 11
-835.1691548695699
 21
-433.8102563103704
 31
0.0
  0
LINE
  5
1D3
330
1E
100
AcDbEntity
  8
0
  6
Continuous
 62
     3
100
AcDbLine
 10
-839.4191548725698
 20
-430.3105063073703
 30
0.0
 11
-839.4191548725698
 21
-433.8105063073704
 31
0.0
  0
LINE
  5
1D4
330
1E
100
AcDbEntity
  8
0
  6
Continuous
 62
     3
100
AcDbLine
 10
-835.1691548715699
 20
-508.5105063073704
 30
0.0
 11
-835.1691548715699
 21
-505.8105063073703
 31
0.0
  0
LINE
  5
1D5
330
1E
100
AcDbEntity
  8
0
  6
Continuous
 62
     3
100
AcDbLine
 10
-834.36915487157
 20
-509.3105063073704
 30
0.0
 11
-833.4191548715699
 21
-509.3105063073704
 31
0.0
  0
ARC
  5
1D6
330
1E
100
AcDbEntity
  8
0
  6
Continuous
 62
     3
100
AcDbCircle
 10
-834.36915487157
 20
-508.5105063073704
 30
0.0
 40
0.8
100
AcDbArc
 50
180.0000000009999
 51
270.0
  0
LINE
  5
1D7
330
1E
100
AcDbEntity
  8
0
  6
Continuous
 62
     3
100
AcDbLine
 10
-839.4191548715699
 20
-509.3105063073704
 30
0.0
 11
-839.4191548715699
 21
-505.8105063073703
 31
0.0
  0
LINE
  5
1D8
330
1E
100
AcDbEntity
  8
0
  6
Continuous
 62
     3
100
AcDbLine
 10
-841.4191548715699
 20
-509.3105063073704
 30
0.0
 11
-839.4191548715699
 21
-509.3105063073704
 31
0.0
  0
LINE
  5
1D9
330
1E
100
AcDbEntity
  8
0
  6
Continuous
 62
     3
100
AcDbLine
 10
-839.41915487457
 20
-505.8105063073703
 30
0.0
 11
-835.16915487457
 21
-505.8105063073703
 31
0.0
  0
LINE
  5
1DA
330
1E
100
AcDbEntity
  8
0
  6
Continuous
 62
     3
100
AcDbLine
 10
-839.41915487057
 20
-505.8107563103703
 30
0.0
 11
-835.16915487057
 21
-505.8107563103703
 31
0.0
  0
LINE
  5
1DB
330
1E
100
AcDbEntity
  8
0
  6
Continuous
 62
     3
100
AcDbLine
 10
-841.4191548715699
 20
-505.8105063073703
 30
0.0
 11
-841.4191548715699
 21
-509.3105063073704
 31
0.0
  0
LINE
  5
1DC
330
1E
100
AcDbEntity
  8
0
  6
Continuous
 62
     3
100
AcDbLine
 10
-845.7191548745699
 20
-505.8105063073703
 30
0.0
 11
-841.41915487457
 21
-505.8105063073703
 31
0.0
  0
LINE
  5
1DD
330
1E
100
AcDbEntity
  8
0
  6
Continuous
 62
     3
100
AcDbLine
 10
-845.7191548705701
 20
-505.8105063103703
 30
0.0
 11
-852.7191548705699
 21
-505.8105063103703
 31
0.0
  0
LINE
  5
1DE
330
1E
100
AcDbEntity
  8
0
  6
Continuous
 62
     3
100
AcDbLine
 10
-850.41915487057
 20
-505.8107563103703
 30
0.0
 11
-841.41915487057
 21
-505.8107563103703
 31
0.0
  0
LINE
  5
1DF
330
1E
100
AcDbEntity
  8
0
  6
Continuous
 62
     3
100
AcDbLine
 10
-905.4191548715699
 20
-505.8105063083703
 30
0.0
 11
-852.7191548745699
 21
-505.8105063083703
 31
0.0
  0
ARC
  5
1E0
330
1E
100
AcDbEntity
  8
0
  6
Continuous
 62
     3
100
AcDbCircle
 10
-915.4191548745698
 20
-504.8105063083703
 30
0.0
 40
2.0
100
AcDbArc
 50
180.0
 51
329.534455132
  0
LINE
  5
1E1
330
1E
100
AcDbEntity
  8
0
  6
Continuous
 62
     3
100
AcDbLine
 10
-913.76915487157
 20
-505.8105063083703
 30
0.0
 11
-910.41915487157
 21
-505.8105063083703
 31
0.0
  0
LINE
  5
1E2
330
1E
100
AcDbEntity
  8
0
  6
Continuous
 62
     3
100
AcDbLine
 10
-910.4191548745699
 20
-505.8105063053703
 30
0.0
 11
-905.4191548745698
 21
-505.8105063053703
 31
0.0
  0
LINE
  5
1E3
330
1E
100
AcDbEntity
  8
0
  6
Continuous
 62
     3
100
AcDbLine
 10
-828.41915487157
 20
-504.6105063073704
 30
0.0
 11
-833.4191548715699
 21
-504.6105063073704
 31
0.0
  0
LINE
  5
1E4
330
1E
100
AcDbEntity
  8
0
  6
Continuous
 62
     3
100
AcDbLine
 10
-828.41915487157
 20
-504.6105063103704
 30
0.0
 11
-828.41915487157
 21
-505.8105063073703
 31
0.0
  0
LINE
  5
1E5
330
1E
100
AcDbEntity
  8
0
  6
Continuous
 62
     3
100
AcDbLine
 10
-833.41915487457
 20
-505.8105063073703
 30
0.0
 11
-828.4191548745701
 21
-505.8105063073703
 31
0.0
  0
LINE
  5
1E6
330
1E
100
AcDbEntity
  8
0
  6
Continuous
 62
     3
100
AcDbLine
 10
-817.4191548695699
 20
-432.8102563113703
 30
0.0
 11
-818.41915486957
 21
-433.8102563113704
 31
0.0
  0
LINE
  5
1E7
330
1E
100
AcDbEntity
  8
0
  6
Continuous
 62
     3
100
AcDbLine
 10
-817.4191548695699
 20
-432.8102563113703
 30
0.0
 11
-817.4191548695699
 21
-430.8102563113703
 31
0.0
  0
LINE
  5
1E8
330
1E
100
AcDbEntity
  8
0
  6
Continuous
 62
     3
100
AcDbLine
 10
-817.4191548705699
 20
-506.8107563113703
 30
0.0
 11
-818.4191548705699
 21
-505.8107563113703
 31
0.0
  0
LINE
  5
1E9
330
1E
100
AcDbEntity
  8
0
  6
Continuous
 62
     3
100
AcDbLine
 10
-817.4191548705699
 20
-506.8107563113703
 30
0.0
 11
-817.4191548705699
 21
-508.8107563113704
 31
0.0
  0
LINE
  5
1EA
330
1E
100
AcDbEntity
  8
0
  6
Continuous
 62
     3
100
AcDbLine
 10
-825.3191548705698
 20
-505.8107563103703
 30
0.0
 11
-825.3191548705698
 21
-508.8107563103704
 31
0.0
  0
LINE
  5
1EB
330
1E
100
AcDbEntity
  8
0
  6
Continuous
 62
     3
100
AcDbLine
 10
-833.41915487057
 20
-505.8107563103703
 30
0.0
 11
-828.4191548705699
 21
-505.8107563103703
 31
0.0
  0
LINE
  5
1EC
330
1E
100
AcDbEntity
  8
0
  6
Continuous
 62
     3
100
AcDbLine
 10
-817.4191548695699
 20
-430.8102563113703
 30
0.0
 11
-826.81915486957
 21
-430.8102563103703
 31
0.0
  0
LINE
  5
1ED
330
1E
100
AcDbEntity
  8
0
  6
Continuous
 62
     3
100
AcDbLine
 10
-817.4191548705699
 20
-508.8107563113704
 30
0.0
 11
-826.7191548705699
 21
-508.8107563103704
 31
0.0
  0
LINE
  5
1EE
330
1E
100
AcDbEntity
  8
0
  6
Continuous
 62
     3
100
AcDbLine
 10
-828.4191548705699
 20
-508.8107563103704
 30
0.0
 11
-833.41915487057
 21
-508.8107563103704
 31
0.0
  0
ARC
  5
1EF
330
1E
100
AcDbEntity
  8
0
  6
Continuous
 62
     3
100
AcDbCircle
 10
-808.4191548695699
 20
-464.8105063113704
 30
0.0
 40
1.0
100
AcDbArc
 50
90.0
 51
180.0
  0
LINE
  5
1F0
330
1E
100
AcDbEntity
  8
0
  6
Continuous
 62
     3
100
AcDbLine
 10
-809.41915486957
 20
-464.8105063113704
 30
0.0
 11
-809.41915486957
 21
-466.8105063113704
 31
0.0
  0
ARC
  5
1F1
330
1E
100
AcDbEntity
  8
0
  6
Continuous
 62
     3
100
AcDbCircle
 10
-808.4191548695699
 20
-466.8105063113704
 30
0.0
 40
1.0
100
AcDbArc
 50
180.0
 51
270.0
  0
ARC
  5
1F2
330
1E
100
AcDbEntity
  8
0
  6
Continuous
 62
     3
100
AcDbCircle
 10
-808.4191548695699
 20
-472.8105063113704
 30
0.0
 40
1.0
100
AcDbArc
 50
90.0
 51
180.0
  0
LINE
  5
1F3
330
1E
100
AcDbEntity
  8
0
  6
Continuous
 62
     3
100
AcDbLine
 10
-809.41915486957
 20
-472.8105063113704
 30
0.0
 11
-809.41915486957
 21
-474.8105063113704
 31
0.0
  0
ARC
  5
1F4
330
1E
100
AcDbEntity
  8
0
  6
Continuous
 62
     3
100
AcDbCircle
 10
-808.4191548695699
 20
-474.8105063113704
 30
0.0
 40
1.0
100
AcDbArc
 50
180.0
 51
270.0
  0
LINE
  5
1F5
330
1E
100
AcDbEntity
  8
0
  6
Continuous
 62
     3
100
AcDbLine
 10
-817.4191548695699
 20
-433.8105063113704
 30
0.0
 11
-817.9191548695699
 21
-433.8105063113704
 31
0.0
  0
LINE
  5
1F6
330
1E
100
AcDbEntity
  8
0
  6
Continuous
 62
     3
100
AcDbLine
 10
-817.9191548725698
 20
-433.8105063073704
 30
0.0
 11
-826.6691548725699
 21
-433.8105063073704
 31
0.0
  0
LINE
  5
1F7
330
1E
100
AcDbEntity
  8
0
  6
Continuous
 62
     3
100
AcDbLine
 10
-826.66915486957
 20
-433.8102563103704
 30
0.0
 11
-818.41915486957
 21
-433.8102563113704
 31
0.0
  0
ARC
  5
1F8
330
1E
100
AcDbEntity
  8
0
  6
Continuous
 62
     3
100
AcDbCircle
 10
-817.9191548725698
 20
-434.3105063073704
 30
0.0
 40
0.5
100
AcDbArc
 50
0.0
 51
90.0
  0
LINE
  5
1F9
330
1E
100
AcDbEntity
  8
0
  6
Continuous
 62
     3
100
AcDbLine
 10
-826.6691548745701
 20
-505.8105063073703
 30
0.0
 11
-817.9191548715699
 21
-505.8105063073703
 31
0.0
  0
LINE
  5
1FA
330
1E
100
AcDbEntity
  8
0
  6
Continuous
 62
     3
100
AcDbLine
 10
-826.6691548705699
 20
-505.8107563103703
 30
0.0
 11
-818.4191548705699
 21
-505.8107563113703
 31
0.0
  0
LINE
  5
1FB
330
1E
100
AcDbEntity
  8
0
  6
Continuous
 62
     3
100
AcDbLine
 10
-828.41915487157
 20
-509.3105063073704
 30
0.0
 11
-828.41915487157
 21
-505.8105063073703
 31
0.0
  0
ARC
  5
1FC
330
1E
100
AcDbEntity
  8
0
  6
Continuous
 62
     3
100
AcDbCircle
 10
-827.4691548715701
 20
-508.5105063073704
 30
0.0
 40
0.8
100
AcDbArc
 50
270.0
 51
0.0
  0
LINE
  5
1FD
330
1E
100
AcDbEntity
  8
0
  6
Continuous
 62
     3
100
AcDbLine
 10
-826.66915487157
 20
-505.8105063073703
 30
0.0
 11
-826.66915487157
 21
-508.5105063073704
 31
0.0
  0
LINE
  5
1FE
330
1E
100
AcDbEntity
  8
0
  6
Continuous
 62
     3
100
AcDbLine
 10
-827.4691548715701
 20
-509.3105063073704
 30
0.0
 11
-828.41915487157
 21
-509.3105063073704
 31
0.0
  0
LINE
  5
1FF
330
1E
100
AcDbEntity
  8
0
  6
Continuous
 62
     3
100
AcDbLine
 10
-817.4191548705699
 20
-505.8105063113703
 30
0.0
 11
-817.9191548705698
 21
-505.8105063113703
 31
0.0
  0
ARC
  5
200
330
1E
100
AcDbEntity
  8
0
  6
Continuous
 62
     3
100
AcDbCircle
 10
-817.9191548715699
 20
-505.3105063073703
 30
0.0
 40
0.5
100
AcDbArc
 50
270.0
 51
0.0
  0
LINE
  5
201
330
1E
100
AcDbEntity
  8
0
  6
Continuous
 62
     3
100
AcDbLine
 10
-817.4191548715699
 20
-505.3105063073703
 30
0.0
 11
-817.4191548725699
 21
-434.3105063073704
 31
0.0
  0
LINE
  5
202
330
1E
100
AcDbEntity
  8
0
  6
Continuous
 62
     3
100
AcDbLine
 10
-817.4191548695699
 20
-462.8105063113704
 30
0.0
 11
-808.4191548695699
 21
-462.8105063113704
 31
0.0
  0
LINE
  5
203
330
1E
100
AcDbEntity
  8
0
  6
Continuous
 62
     3
100
AcDbLine
 10
-808.4191548695699
 20
-476.8105063113704
 30
0.0
 11
-817.4191548695699
 21
-476.8105063113704
 31
0.0
  0
LINE
  5
204
330
1E
100
AcDbEntity
  8
0
  6
Continuous
 62
     3
100
AcDbLine
 10
-813.16915486957
 20
-470.3417563113704
 30
0.0
 11
-809.41915486957
 21
-470.8105063113704
 31
0.0
  0
ARC
  5
205
330
1E
100
AcDbEntity
  8
0
  6
Continuous
 62
     3
100
AcDbCircle
 10
-813.0441548695699
 20
-469.6855063113704
 30
0.0
 40
0.395284708
100
AcDbArc
 50
108.434948823
 51
198.4349488219999
  0
ARC
  5
206
330
1E
100
AcDbEntity
  8
0
  6
Continuous
 62
     3
100
AcDbCircle
 10
-813.0441548695699
 20
-469.9355063113704
 30
0.0
 40
0.395284708
100
AcDbArc
 50
161.565051178
 51
251.565051177
  0
LWPOLYLINE
  5
207
330
1E
100
AcDbEntity
  8
0
 62
     3
100
AcDbPolyline
 90
        3
 70
     0
 43
0.0
 10
-808.4191548695699
 20
-468.3105063113704
 10
-809.41915486957
 20
-468.3105063113704
 10
-809.41915486957
 20
-468.8105063113704
  0
LINE
  5
20C
330
1E
100
AcDbEntity
  8
0
  6
Continuous
 62
     3
100
AcDbLine
 10
-813.16915486957
 20
-469.2792563113704
 30
0.0
 11
-809.41915486957
 21
-468.8105063113704
 31
0.0
  0
LWPOLYLINE
  5
20D
330
1E
100
AcDbEntity
  8
0
 62
     3
100
AcDbPolyline
 90
        3
 70
     0
 43
0.0
 10
-808.4191548695699
 20
-471.3105063113704
 10
-809.41915486957
 20
-471.3105063113704
 10
-809.41915486957
 20
-470.8105063113704
  0
LINE
  5
212
330
1E
100
AcDbEntity
  8
0
  6
Continuous
 62
     3
100
AcDbLine
 10
-808.4191548695699
 20
-476.8105063113704
 30
0.0
 11
-808.4191548695699
 21
-462.8105063113704
 31
0.0
  0
LWPOLYLINE
  5
213
330
1E
100
AcDbEntity
  8
0
 62
     3
100
AcDbPolyline
 90
        4
 70
     0
 43
0.0
 10
-817.4191548695699
 20
-458.3105063113704
 10
-808.4191548695699
 20
-458.3105063113704
 10
-808.4191548695699
 20
-481.3105063113704
 10
-817.4191548695699
 20
-481.3105063113704
  0
LINE
  5
219
330
1E
100
AcDbEntity
  8
0
  6
Continuous
 62
     3
100
AcDbLine
 10
-808.4191548695699
 20
-465.8105063113704
 30
0.0
 11
-798.4191548695699
 21
-465.8105063113704
 31
0.0
  0
LWPOLYLINE
  5
21A
330
1E
100
AcDbEntity
  8
0
 62
     3
100
AcDbPolyline
 90
        3
 70
     0
 43
0.0
 10
-798.4191548695699
 20
-465.8105063113704
 10
-798.4191548695699
 20
-473.8105063113704
 10
-808.4191548695699
 20
-473.8105063113704
  0
LINE
  5
21F
330
1E
100
AcDbEntity
  8
0
  6
Continuous
 62
     3
100
AcDbLine
 10
-807.41915487057
 20
-511.8105063113703
 30
0.0
 11
-807.41915487057
 21
-515.8105063113703
 31
0.0
  0
LINE
  5
220
330
1E
100
AcDbEntity
  8
0
  6
Continuous
 62
     3
100
AcDbLine
 10
-806.41915487057
 20
-515.8105063113703
 30
0.0
 11
-806.41915487057
 21
-511.8105063113703
 31
0.0
  0
LINE
  5
221
330
1E
100
AcDbEntity
  8
0
  6
Continuous
 62
     3
100
AcDbLine
 10
-807.41915487057
 20
-511.8105063113703
 30
0.0
 11
-787.41915487057
 21
-511.8105063113703
 31
0.0
  0
LINE
  5
222
330
1E
100
AcDbEntity
  8
0
  6
Continuous
 62
     3
100
AcDbLine
 10
-787.41915487057
 20
-515.8105063113703
 30
0.0
 11
-807.41915487057
 21
-515.8105063113703
 31
0.0
  0
LWPOLYLINE
  5
223
330
1E
100
AcDbEntity
  8
0
 62
     3
100
AcDbPolyline
 90
        3
 70
     0
 43
0.0
 10
-791.41915486957
 20
-487.3105063113704
 10
-791.41915486957
 20
-491.3105063113703
 10
-787.41915486957
 20
-491.3105063113703
  0
LINE
  5
228
330
1E
100
AcDbEntity
  8
0
  6
Continuous
 62
     3
100
AcDbLine
 10
-787.41915486957
 20
-448.3105063113704
 30
0.0
 11
-791.41915486957
 21
-448.3105063113704
 31
0.0
  0
LINE
  5
229
330
1E
100
AcDbEntity
  8
0
  6
Continuous
 62
     3
100
AcDbLine
 10
-791.41915486957
 20
-448.3105063113704
 30
0.0
 11
-791.41915486957
 21
-452.3105063113704
 31
0.0
  0
LINE
  5
22A
330
1E
100
AcDbEntity
  8
0
  6
Continuous
 62
     3
100
AcDbLine
 10
-787.41915487057
 20
-520.8105063113703
 30
0.0
 11
-787.41915487057
 21
-516.8105063113703
 31
0.0
  0
LINE
  5
22B
330
1E
100
AcDbEntity
  8
0
  6
Continuous
 62
     3
100
AcDbLine
 10
-791.41915487057
 20
-520.8105063113703
 30
0.0
 11
-791.41915487057
 21
-516.8105063113703
 31
0.0
  0
LINE
  5
22C
330
1E
100
AcDbEntity
  8
0
  6
Continuous
 62
     3
100
AcDbLine
 10
-791.41915487057
 20
-520.8105063113703
 30
0.0
 11
-787.41915487057
 21
-520.8105063113703
 31
0.0
  0
LINE
  5
22D
330
1E
100
AcDbEntity
  8
0
  6
Continuous
 62
     3
100
AcDbLine
 10
-817.4191548695699
 20
-462.8105063113704
 30
0.0
 11
-808.4191548695699
 21
-462.8105063113704
 31
0.0
  0
LINE
  5
22E
330
1E
100
AcDbEntity
  8
0
  6
Continuous
 62
     3
100
AcDbLine
 10
-808.4191548695699
 20
-476.8105063113704
 30
0.0
 11
-817.4191548695699
 21
-476.8105063113704
 31
0.0
  0
LINE
  5
22F
330
1E
100
AcDbEntity
  8
0
  6
Continuous
 62
     3
100
AcDbLine
 10
-817.4191548695699
 20
-433.8105063113704
 30
0.0
 11
-817.4191548695699
 21
-462.8105063113704
 31
0.0
  0
LINE
  5
230
330
1E
100
AcDbEntity
  8
0
  6
Continuous
 62
     3
100
AcDbLine
 10
-808.41915487057
 20
-516.8105063113703
 30
0.0
 11
-808.41915487057
 21
-505.8105063113703
 31
0.0
  0
LINE
  5
231
330
1E
100
AcDbEntity
  8
0
  6
Continuous
 62
     3
100
AcDbLine
 10
-817.4191548705699
 20
-505.8105063113703
 30
0.0
 11
-817.4191548705699
 21
-505.3105063113703
 31
0.0
  0
LINE
  5
232
330
1E
100
AcDbEntity
  8
0
  6
Continuous
 62
     3
100
AcDbLine
 10
-817.4191548695699
 20
-476.8105063113704
 30
0.0
 11
-817.4191548705699
 21
-505.3105063113703
 31
0.0
  0
LINE
  5
233
330
1E
100
AcDbEntity
  8
0
  6
Continuous
 62
     3
100
AcDbLine
 10
-808.41915487057
 20
-505.8105063113703
 30
0.0
 11
-817.4191548705699
 21
-505.8105063113703
 31
0.0
  0
LINE
  5
234
330
1E
100
AcDbEntity
  8
0
  6
Continuous
 62
     3
100
AcDbLine
 10
-787.41915486957
 20
-487.3105063113704
 30
0.0
 11
-787.41915487057
 21
-516.8105063113703
 31
0.0
  0
LINE
  5
235
330
1E
100
AcDbEntity
  8
0
  6
Continuous
 62
     3
100
AcDbLine
 10
-787.41915487057
 20
-516.8105063113703
 30
0.0
 11
-808.41915487057
 21
-516.8105063113703
 31
0.0
  0
LINE
  5
236
330
1E
100
AcDbEntity
  8
0
  6
Continuous
 62
     3
100
AcDbLine
 10
-791.41915486957
 20
-487.3105063113704
 30
0.0
 11
-787.41915486957
 21
-487.3105063113704
 31
0.0
  0
LINE
  5
237
330
1E
100
AcDbEntity
  8
0
  6
Continuous
 62
     3
100
AcDbLine
 10
-791.41915486957
 20
-452.3105063113704
 30
0.0
 11
-791.41915486957
 21
-487.3105063113704
 31
0.0
  0
LINE
  5
238
330
1E
100
AcDbEntity
  8
0
  6
Continuous
 62
     3
100
AcDbLine
 10
-787.41915486957
 20
-452.3105063113704
 30
0.0
 11
-791.41915486957
 21
-452.3105063113704
 31
0.0
  0
LWPOLYLINE
  5
239
330
1E
100
AcDbEntity
  8
0
 62
     3
100
AcDbPolyline
 90
        4
 70
     0
 43
0.0
 10
-787.41915486957
 20
-487.3105063113704
 10
-788.4191548695699
 20
-485.3105063113704
 10
-789.4191548695699
 20
-485.3105063113704
 10
-789.4191548695699
 20
-487.3105063113704
  0
LWPOLYLINE
  5
23F
330
1E
100
AcDbEntity
  8
0
 62
     3
100
AcDbPolyline
 90
        4
 70
     0
 43
0.0
 10
-787.41915486957
 20
-452.3105063113704
 10
-788.4191548695699
 20
-454.3105063113704
 10
-789.4191548695699
 20
-454.3105063113704
 10
-789.4191548695699
 20
-452.3105063113704
  0
LWPOLYLINE
  5
245
330
1E
100
AcDbEntity
  8
0
 62
     3
100
AcDbPolyline
 90
        4
 70
     0
 43
0.0
 10
-791.41915486957
 20
-464.8105063113704
 10
-787.41915486957
 20
-464.3105063113704
 10
-787.41915486957
 20
-460.3105063113704
 10
-791.41915486957
 20
-459.8105063113704
  0
LINE
  5
24B
330
1E
100
AcDbEntity
  8
0
  6
Continuous
 62
     3
100
AcDbLine
 10
-791.41915486957
 20
-479.8105063113704
 30
0.0
 11
-787.41915486957
 21
-479.3105063113704
 31
0.0
  0
LWPOLYLINE
  5
24C
330
1E
100
AcDbEntity
  8
0
 62
     3
100
AcDbPolyline
 90
        3
 70
     0
 43
0.0
 10
-787.41915486957
 20
-479.3105063113704
 10
-787.41915486957
 20
-475.3105063113704
 10
-791.41915486957
 20
-474.8105063113704
  0
LINE
  5
251
330
1E
100
AcDbEntity
  8
0
  6
Continuous
 62
     3
100
AcDbLine
 10
-833.4191548715699
 20
-505.8105063073703
 30
0.0
 11
-833.4191548715699
 21
-504.6105063073704
 31
0.0
  0
LINE
  5
252
330
1E
100
AcDbEntity
  8
0
  6
Continuous
 62
     3
100
AcDbLine
 10
-833.41915487457
 20
-505.8105063073703
 30
0.0
 11
-833.4191548715699
 21
-505.8105063073703
 31
0.0
  0
LINE
  5
253
330
1E
100
AcDbEntity
  8
0
  6
Continuous
 62
     3
100
AcDbLine
 10
-833.4191548715699
 20
-505.8105063073703
 30
0.0
 11
-833.4191548715699
 21
-509.3105063073704
 31
0.0
  0
LWPOLYLINE
  5
254
330
1E
100
AcDbEntity
  8
0
 62
     3
100
AcDbPolyline
 90
        4
 70
     0
 43
0.0
 10
-946.4191548705699
 20
-516.8105063113703
 10
-946.4191548705699
 20
-518.8105063113702
 10
-954.4191548705699
 20
-518.8105063113702
 10
-954.4191548705699
 20
-516.8105063113703
  0
LINE
  5
25A
330
1E
100
AcDbEntity
  8
0
  6
Continuous
 62
     3
100
AcDbLine
 10
-938.4191548695699
 20
-491.3105063113703
 30
0.0
 11
-937.41915486957
 21
-491.3105063113703
 31
0.0
  0
LWPOLYLINE
  5
25B
330
1E
100
AcDbEntity
  8
0
 62
     3
100
AcDbPolyline
 90
        3
 70
     0
 43
0.0
 10
-937.41915486957
 20
-491.3105063113703
 10
-937.41915486957
 20
-487.3105063113704
 10
-938.4191548695699
 20
-487.3105063113704
  0
LINE
  5
260
330
1E
100
AcDbEntity
  8
0
  6
Continuous
 62
     3
100
AcDbLine
 10
-938.4191548695699
 20
-448.3105063113704
 30
0.0
 11
-937.41915486957
 21
-448.3105063113704
 31
0.0
  0
LWPOLYLINE
  5
261
330
1E
100
AcDbEntity
  8
0
 62
     3
100
AcDbPolyline
 90
        3
 70
     0
 43
0.0
 10
-937.41915486957
 20
-448.3105063113704
 10
-937.41915486957
 20
-452.3105063113704
 10
-938.4191548695699
 20
-452.3105063113704
  0
LINE
  5
266
330
1E
100
AcDbEntity
  8
0
  6
Continuous
 62
     3
100
AcDbLine
 10
-962.41915486957
 20
-452.3105063113704
 30
0.0
 11
-963.4191548695699
 21
-452.3105063113704
 31
0.0
  0
LWPOLYLINE
  5
267
330
1E
100
AcDbEntity
  8
0
 62
     3
100
AcDbPolyline
 90
        3
 70
     0
 43
0.0
 10
-963.4191548695699
 20
-452.3105063113704
 10
-963.4191548695699
 20
-448.3105063113704
 10
-962.41915486957
 20
-448.3105063113704
  0
LINE
  5
26C
330
1E
100
AcDbEntity
  8
0
  6
Continuous
 62
     3
100
AcDbLine
 10
-962.41915486957
 20
-487.3105063113704
 30
0.0
 11
-963.4191548695699
 21
-487.3105063113704
 31
0.0
  0
LWPOLYLINE
  5
26D
330
1E
100
AcDbEntity
  8
0
 62
     3
100
AcDbPolyline
 90
        3
 70
     0
 43
0.0
 10
-963.4191548695699
 20
-487.3105063113704
 10
-963.4191548695699
 20
-491.3105063113703
 10
-962.41915486957
 20
-491.3105063113703
  0
LINE
  5
272
330
1E
100
AcDbEntity
  8
0
  6
Continuous
 62
     3
100
AcDbLine
 10
-960.4191548705699
 20
-505.8105063113703
 30
0.0
 11
-960.4191548705699
 21
-516.8105063113703
 31
0.0
  0
LINE
  5
273
330
1E
100
AcDbEntity
  8
0
  6
Continuous
 62
     3
100
AcDbLine
 10
-940.41915487057
 20
-516.8105063113703
 30
0.0
 11
-940.41915487057
 21
-505.8105063113703
 31
0.0
  0
LINE
  5
274
330
1E
100
AcDbEntity
  8
0
  6
Continuous
 62
     3
100
AcDbLine
 10
-949.41915487057
 20
-514.8105063113702
 30
0.0
 11
-940.41915487057
 21
-514.8105063113702
 31
0.0
  0
LINE
  5
275
330
1E
100
AcDbEntity
  8
0
  6
Continuous
 62
     3
100
AcDbLine
 10
-960.4191548705699
 20
-514.8105063113702
 30
0.0
 11
-951.4191548705699
 21
-514.8105063113702
 31
0.0
  0
LINE
  5
276
330
1E
100
AcDbEntity
  8
0
  6
Continuous
 62
     3
100
AcDbLine
 10
-945.4191548705699
 20
-510.8105063113703
 30
0.0
 11
-945.4191548705699
 21
-509.3105063113704
 31
0.0
  0
LWPOLYLINE
  5
277
330
1E
100
AcDbEntity
  8
0
 62
     3
100
AcDbPolyline
 90
       12
 70
     0
 43
0.0
 10
-945.4191548705699
 20
-509.3105063113704
 10
-944.4191548705699
 20
-509.3105063113704
 10
-944.4191548705699
 20
-510.8105063113703
 10
-942.91915487057
 20
-510.8105063113703
 10
-942.91915487057
 20
-511.8105063113703
 10
-944.4191548705699
 20
-511.8105063113703
 10
-944.4191548705699
 20
-513.3105063113703
 10
-945.4191548705699
 20
-513.3105063113703
 10
-945.4191548705699
 20
-511.8105063113703
 10
-946.9191548705699
 20
-511.8105063113703
 10
-946.9191548705699
 20
-510.8105063113703
 10
-945.4191548705699
 20
-510.8105063113703
  0
LINE
  5
285
330
1E
100
AcDbEntity
  8
0
  6
Continuous
 62
     3
100
AcDbLine
 10
-956.41915487057
 20
-510.8105063113703
 30
0.0
 11
-956.41915487057
 21
-509.3105063113704
 31
0.0
  0
LWPOLYLINE
  5
286
330
1E
100
AcDbEntity
  8
0
 62
     3
100
AcDbPolyline
 90
       12
 70
     0
 43
0.0
 10
-956.41915487057
 20
-509.3105063113704
 10
-955.41915487057
 20
-509.3105063113704
 10
-955.41915487057
 20
-510.8105063113703
 10
-953.91915487057
 20
-510.8105063113703
 10
-953.91915487057
 20
-511.8105063113703
 10
-955.41915487057
 20
-511.8105063113703
 10
-955.41915487057
 20
-513.3105063113703
 10
-956.41915487057
 20
-513.3105063113703
 10
-956.41915487057
 20
-511.8105063113703
 10
-957.9191548705699
 20
-511.8105063113703
 10
-957.9191548705699
 20
-510.8105063113703
 10
-956.41915487057
 20
-510.8105063113703
  0
LINE
  5
294
330
1E
100
AcDbEntity
  8
0
  6
Continuous
 62
     3
100
AcDbLine
 10
-949.41915487057
 20
-516.8105063113703
 30
0.0
 11
-949.41915487057
 21
-509.8105063113703
 31
0.0
  0
LINE
  5
295
330
1E
100
AcDbEntity
  8
0
  6
Continuous
 62
     3
100
AcDbLine
 10
-951.4191548705699
 20
-509.8105063113703
 30
0.0
 11
-951.4191548705699
 21
-516.8105063113703
 31
0.0
  0
ARC
  5
296
330
1E
100
AcDbEntity
  8
0
  6
Continuous
 62
     3
100
AcDbCircle
 10
-944.91915487057
 20
-511.3105063113703
 30
0.0
 40
3.0
100
AcDbArc
 50
149.0362434679999
 51
120.9637565319999
  0
ARC
  5
297
330
1E
100
AcDbEntity
  8
0
  6
Continuous
 62
     3
100
AcDbCircle
 10
-955.9191548705699
 20
-511.3105063113703
 30
0.0
 40
3.0
100
AcDbArc
 50
59.036243468
 51
30.963756532
  0
LINE
  5
298
330
1E
100
AcDbEntity
  8
0
  6
Continuous
 62
     3
100
AcDbLine
 10
-960.41915486957
 20
-433.8105063113704
 30
0.0
 11
-960.4191548685699
 21
-422.8105063113703
 31
0.0
  0
LINE
  5
299
330
1E
100
AcDbEntity
  8
0
  6
Continuous
 62
     3
100
AcDbLine
 10
-940.41915486857
 20
-422.8105063113703
 30
0.0
 11
-940.4191548695699
 21
-433.8105063113704
 31
0.0
  0
LINE
  5
29A
330
1E
100
AcDbEntity
  8
0
  6
Continuous
 62
     3
100
AcDbLine
 10
-949.41915486857
 20
-424.8105063113703
 30
0.0
 11
-940.41915486857
 21
-424.8105063113703
 31
0.0
  0
LINE
  5
29B
330
1E
100
AcDbEntity
  8
0
  6
Continuous
 62
     3
100
AcDbLine
 10
-960.4191548685699
 20
-424.8105063113703
 30
0.0
 11
-951.4191548685699
 21
-424.8105063113703
 31
0.0
  0
LWPOLYLINE
  5
29C
330
1E
100
AcDbEntity
  8
0
 62
     3
100
AcDbPolyline
 90
       12
 70
     1
 43
0.0
 10
-945.41915486957
 20
-428.8105063113703
 10
-945.41915486957
 20
-430.3105063113703
 10
-944.41915486957
 20
-430.3105063113703
 10
-944.41915486957
 20
-428.8105063113703
 10
-942.9191548695699
 20
-428.8105063113703
 10
-942.91915486857
 20
-427.8105063113703
 10
-944.4191548685699
 20
-427.8105063113703
 10
-944.4191548685699
 20
-426.3105063113703
 10
-945.4191548685699
 20
-426.3105063113703
 10
-945.4191548685699
 20
-427.8105063113703
 10
-946.9191548685699
 20
-427.8105063113703
 10
-946.91915486957
 20
-428.8105063113703
  0
LINE
  5
2AA
330
1E
100
AcDbEntity
  8
0
  6
Continuous
 62
     3
100
AcDbLine
 10
-956.4191548695699
 20
-428.8105063113703
 30
0.0
 11
-956.4191548695699
 21
-430.3105063113703
 31
0.0
  0
LWPOLYLINE
  5
2AB
330
1E
100
AcDbEntity
  8
0
 62
     3
100
AcDbPolyline
 90
       12
 70
     0
 43
0.0
 10
-956.4191548695699
 20
-430.3105063113703
 10
-955.4191548695699
 20
-430.3105063113703
 10
-955.4191548695699
 20
-428.8105063113703
 10
-953.9191548695699
 20
-428.8105063113703
 10
-953.91915486857
 20
-427.8105063113703
 10
-955.41915486857
 20
-427.8105063113703
 10
-955.41915486857
 20
-426.3105063113703
 10
-956.41915486857
 20
-426.3105063113703
 10
-956.41915486857
 20
-427.8105063113703
 10
-957.9191548685699
 20
-427.8105063113703
 10
-957.91915486957
 20
-428.8105063113703
 10
-956.4191548695699
 20
-428.8105063113703
  0
LINE
  5
2B9
330
1E
100
AcDbEntity
  8
0
  6
Continuous
 62
     3
100
AcDbLine
 10
-949.41915486857
 20
-422.8105063113703
 30
0.0
 11
-949.4191548695699
 21
-429.8105063113704
 31
0.0
  0
LINE
  5
2BA
330
1E
100
AcDbEntity
  8
0
  6
Continuous
 62
     3
100
AcDbLine
 10
-951.41915486957
 20
-429.8105063113704
 30
0.0
 11
-951.4191548685699
 21
-422.8105063113703
 31
0.0
  0
ARC
  5
2BB
330
1E
100
AcDbEntity
  8
0
  6
Continuous
 62
     3
100
AcDbCircle
 10
-944.91915486857
 20
-428.3105063113703
 30
0.0
 40
3.0
100
AcDbArc
 50
239.0362434679999
 51
210.963756532
  0
ARC
  5
2BC
330
1E
100
AcDbEntity
  8
0
  6
Continuous
 62
     3
100
AcDbCircle
 10
-955.9191548685699
 20
-428.3105063113703
 30
0.0
 40
3.0
100
AcDbArc
 50
329.036243468
 51
300.9637565319999
  0
LINE
  5
2BD
330
1E
100
AcDbEntity
  8
0
  6
Continuous
 62
     3
100
AcDbLine
 10
-940.41915487057
 20
-502.8105063113703
 30
0.0
 11
-940.4191548695699
 21
-436.8105063113703
 31
0.0
  0
LINE
  5
2BE
330
1E
100
AcDbEntity
  8
0
  6
Continuous
 62
     3
100
AcDbLine
 10
-960.41915486957
 20
-436.8105063113703
 30
0.0
 11
-960.4191548705699
 21
-502.8105063113703
 31
0.0
  0
TEXT
  5
2BF
330
1E
100
AcDbEntity
  8
0
  6
Continuous
 62
     3
100
AcDbText
 10
-948.96561818957
 20
-495.1303696293703
 30
0.0
 40
4.355999999999999
  1
Ｍ
 50
90.0
 41
0.88
  7
KANJI0
100
AcDbText
  0
LWPOLYLINE
  5
2C0
330
1E
100
AcDbEntity
  8
0
 62
     3
100
AcDbPolyline
 90
        3
 70
     1
 43
0.0
 10
-952.26915486957
 20
-486.5005063093703
 10
-949.76915486957
 20
-486.5005063093703
 10
-951.0191548695699
 20
-483.5005063093704
  0
LINE
  5
2C5
330
1E
100
AcDbEntity
  8
0
  6
Continuous
 62
     3
100
AcDbLine
 10
-952.01915486957
 20
-486.5005063093703
 30
0.0
 11
-952.01915486957
 21
-485.9005063093703
 31
0.0
  0
LINE
  5
2C6
330
1E
100
AcDbEntity
  8
0
  6
Continuous
 62
     3
100
AcDbLine
 10
-951.7691548695699
 20
-485.3005063093703
 30
0.0
 11
-951.7691548695699
 21
-486.5005063093703
 31
0.0
  0
LINE
  5
2C7
330
1E
100
AcDbEntity
  8
0
  6
Continuous
 62
     3
100
AcDbLine
 10
-951.51915486957
 20
-486.5005063093703
 30
0.0
 11
-951.51915486957
 21
-484.7005063093703
 31
0.0
  0
LINE
  5
2C8
330
1E
100
AcDbEntity
  8
0
  6
Continuous
 62
     3
100
AcDbLine
 10
-951.26915486957
 20
-484.1005063093704
 30
0.0
 11
-951.26915486957
 21
-486.5005063093703
 31
0.0
  0
LINE
  5
2C9
330
1E
100
AcDbEntity
  8
0
  6
Continuous
 62
     3
100
AcDbLine
 10
-951.0191548695699
 20
-486.5005063093703
 30
0.0
 11
-951.0191548695699
 21
-483.5005063093704
 31
0.0
  0
LINE
  5
2CA
330
1E
100
AcDbEntity
  8
0
  6
Continuous
 62
     3
100
AcDbLine
 10
-950.7691548695699
 20
-484.1005063093704
 30
0.0
 11
-950.7691548695699
 21
-486.5005063093703
 31
0.0
  0
LINE
  5
2CB
330
1E
100
AcDbEntity
  8
0
  6
Continuous
 62
     3
100
AcDbLine
 10
-950.51915486957
 20
-486.5005063093703
 30
0.0
 11
-950.51915486957
 21
-484.7005063093703
 31
0.0
  0
LINE
  5
2CC
330
1E
100
AcDbEntity
  8
0
  6
Continuous
 62
     3
100
AcDbLine
 10
-950.26915486957
 20
-485.3005063093703
 30
0.0
 11
-950.26915486957
 21
-486.5005063093703
 31
0.0
  0
LINE
  5
2CD
330
1E
100
AcDbEntity
  8
0
  6
Continuous
 62
     3
100
AcDbLine
 10
-950.0191548695699
 20
-486.5005063093703
 30
0.0
 11
-950.0191548695699
 21
-485.9005063093703
 31
0.0
  0
LINE
  5
2CE
330
1E
100
AcDbEntity
  8
0
  6
Continuous
 62
     3
100
AcDbLine
 10
-952.26915486957
 20
-486.5005063093703
 30
0.0
 11
-949.76915486957
 21
-486.5005063093703
 31
0.0
  0
LINE
  5
2CF
330
1E
100
AcDbEntity
  8
0
  6
Continuous
 62
     3
100
AcDbLine
 10
-949.87332153657
 20
-486.2505063093704
 30
0.0
 11
-952.16498820257
 21
-486.2505063093704
 31
0.0
  0
LINE
  5
2D0
330
1E
100
AcDbEntity
  8
0
  6
Continuous
 62
     3
100
AcDbLine
 10
-952.0608215365699
 20
-486.0005063093703
 30
0.0
 11
-949.97748820257
 21
-486.0005063093703
 31
0.0
  0
LINE
  5
2D1
330
1E
100
AcDbEntity
  8
0
  6
Continuous
 62
     3
100
AcDbLine
 10
-950.08165486957
 20
-485.7505063093704
 30
0.0
 11
-951.9566548695699
 21
-485.7505063093704
 31
0.0
  0
LINE
  5
2D2
330
1E
100
AcDbEntity
  8
0
  6
Continuous
 62
     3
100
AcDbLine
 10
-951.8524882025699
 20
-485.5005063093703
 30
0.0
 11
-950.1858215365698
 21
-485.5005063093703
 31
0.0
  0
LINE
  5
2D3
330
1E
100
AcDbEntity
  8
0
  6
Continuous
 62
     3
100
AcDbLine
 10
-950.2899882025699
 20
-485.2505063093704
 30
0.0
 11
-951.7483215365698
 21
-485.2505063093704
 31
0.0
  0
LINE
  5
2D4
330
1E
100
AcDbEntity
  8
0
  6
Continuous
 62
     3
100
AcDbLine
 10
-951.64415486957
 20
-485.0005063093703
 30
0.0
 11
-950.3941548695699
 21
-485.0005063093703
 31
0.0
  0
LINE
  5
2D5
330
1E
100
AcDbEntity
  8
0
  6
Continuous
 62
     3
100
AcDbLine
 10
-950.4983215365699
 20
-484.7505063093704
 30
0.0
 11
-951.53998820257
 21
-484.7505063093704
 31
0.0
  0
LINE
  5
2D6
330
1E
100
AcDbEntity
  8
0
  6
Continuous
 62
     3
100
AcDbLine
 10
-951.43582153657
 20
-484.5005063093704
 30
0.0
 11
-950.60248820257
 21
-484.5005063093704
 31
0.0
  0
LINE
  5
2D7
330
1E
100
AcDbEntity
  8
0
  6
Continuous
 62
     3
100
AcDbLine
 10
-950.70665486957
 20
-484.2505063093703
 30
0.0
 11
-951.33165486957
 21
-484.2505063093703
 31
0.0
  0
LINE
  5
2D8
330
1E
100
AcDbEntity
  8
0
  6
Continuous
 62
     3
100
AcDbLine
 10
-951.22748820257
 20
-484.0005063093704
 30
0.0
 11
-950.81082153657
 21
-484.0005063093704
 31
0.0
  0
LINE
  5
2D9
330
1E
100
AcDbEntity
  8
0
  6
Continuous
 62
     3
100
AcDbLine
 10
-950.9149882025701
 20
-483.7505063093703
 30
0.0
 11
-951.1233215365699
 21
-483.7505063093703
 31
0.0
  0
LINE
  5
2DA
330
1E
100
AcDbEntity
  8
1
  6
Continuous
 62
     3
100
AcDbLine
 10
-955.4191548695699
 20
-436.8105063093704
 30
0.0
 11
-955.4191548695699
 21
-466.8105063093703
 31
0.0
  0
LINE
  5
2DB
330
1E
100
AcDbEntity
  8
1
  6
Continuous
 62
     3
100
AcDbLine
 10
-955.4191548695699
 20
-466.8105063093703
 30
0.0
 11
-959.41915486957
 21
-470.8105063093703
 31
0.0
  0
LINE
  5
2DC
330
1E
100
AcDbEntity
  8
1
  6
Continuous
 62
     3
100
AcDbLine
 10
-959.41915486957
 20
-470.8105063093703
 30
0.0
 11
-959.41915486957
 21
-502.8105063093703
 31
0.0
  0
LINE
  5
2DD
330
1E
100
AcDbEntity
  8
1
  6
Continuous
 62
     3
100
AcDbLine
 10
-954.91915486957
 20
-502.8105063093703
 30
0.0
 11
-940.4191548695699
 21
-502.8105063093703
 31
0.0
  0
LINE
  5
2DE
330
1E
100
AcDbEntity
  8
1
  6
Continuous
 62
     3
100
AcDbLine
 10
-960.41915486957
 20
-502.8105063093703
 30
0.0
 11
-954.91915486957
 21
-502.8105063093703
 31
0.0
  0
LINE
  5
2DF
330
1E
100
AcDbEntity
  8
1
  6
Continuous
 62
     3
100
AcDbLine
 10
-954.91915486957
 20
-436.8105063093704
 30
0.0
 11
-940.4191548695699
 21
-436.8105063093704
 31
0.0
  0
LINE
  5
2E0
330
1E
100
AcDbEntity
  8
1
  6
Continuous
 62
     3
100
AcDbLine
 10
-940.4191548695699
 20
-436.8105063093704
 30
0.0
 11
-940.4191548695699
 21
-502.8105063093703
 31
0.0
  0
LINE
  5
2E1
330
1E
100
AcDbEntity
  8
1
  6
Continuous
 62
     3
100
AcDbLine
 10
-940.4191548695699
 20
-501.5605063093704
 30
0.0
 11
-940.4191548695699
 21
-438.0605063093703
 31
0.0
  0
LINE
  5
2E2
330
1E
100
AcDbEntity
  8
1
  6
Continuous
 62
     3
100
AcDbLine
 10
-960.41915486957
 20
-436.8105063093704
 30
0.0
 11
-960.41915486957
 21
-502.8105063093703
 31
0.0
  0
LINE
  5
2E3
330
1E
100
AcDbEntity
  8
1
  6
Continuous
 62
     3
100
AcDbLine
 10
-960.41915486957
 20
-436.8105063093704
 30
0.0
 11
-954.91915486957
 21
-436.8105063093704
 31
0.0
  0
LINE
  5
2E4
330
1E
100
AcDbEntity
  8
1
  6
Continuous
 62
     3
100
AcDbLine
 10
-941.4191548695699
 20
-502.8105063093703
 30
0.0
 11
-941.4191548695699
 21
-436.8105063093704
 31
0.0
  0
TEXT
  5
2E5
330
1E
100
AcDbEntity
  8
1
  6
Continuous
 62
     3
100
AcDbText
 10
-956.4191548695699
 20
-464.8105063093703
 30
0.1
 40
2.6
  1
MODEL TF-6
 50
90.0
  7
KANJI1
100
AcDbText
  0
LINE
  5
2E6
330
1E
100
AcDbEntity
  8
1
  6
Continuous
 62
     3
100
AcDbLine
 10
-954.1191548695699
 20
-475.3105063093703
 30
0.1
 11
-944.6191548695701
 21
-475.3105063093703
 31
0.1
  0
LINE
  5
2E7
330
1E
100
AcDbEntity
  8
1
  6
Continuous
 62
     3
100
AcDbLine
 10
-944.6191548695701
 20
-446.3105063093703
 30
0.0
 11
-954.1191548695699
 21
-446.3105063093703
 31
0.0
  0
LINE
  5
2E8
330
1E
100
AcDbEntity
  8
1
  6
Continuous
 62
     3
100
AcDbLine
 10
-954.1191548695699
 20
-446.3105063093703
 30
0.0
 11
-954.1191548695699
 21
-475.3105063093703
 31
0.0
  0
LINE
  5
2E9
330
1E
100
AcDbEntity
  8
1
  6
Continuous
 62
     3
100
AcDbLine
 10
-944.6191548695701
 20
-475.3105063093703
 30
0.0
 11
-944.6191548695701
 21
-446.3105063093703
 31
0.0
  0
LINE
  5
2EA
330
1E
100
AcDbEntity
  8
1
  6
Continuous
 62
     3
100
AcDbLine
 10
-953.96103796157
 20
-475.3105063093703
 30
0.0
 11
-954.1191548695699
 21
-475.1523894013703
 31
0.0
  0
LINE
  5
2EB
330
1E
100
AcDbEntity
  8
1
  6
Continuous
 62
     3
100
AcDbLine
 10
-954.1191548695699
 20
-474.4452826203704
 30
0.0
 11
-953.2539311805701
 21
-475.3105063093703
 31
0.0
  0
LINE
  5
2EC
330
1E
100
AcDbEntity
  8
1
  6
Continuous
 62
     3
100
AcDbLine
 10
-952.54682439957
 20
-475.3105063093703
 30
0.0
 11
-954.1191548695699
 21
-473.7381758393703
 31
0.0
  0
LINE
  5
2ED
330
1E
100
AcDbEntity
  8
1
  6
Continuous
 62
     3
100
AcDbLine
 10
-954.1191548695699
 20
-473.0310690573703
 30
0.0
 11
-951.83971761857
 21
-475.3105063093703
 31
0.0
  0
LINE
  5
2EE
330
1E
100
AcDbEntity
  8
1
  6
Continuous
 62
     3
100
AcDbLine
 10
-951.1326108365699
 20
-475.3105063093703
 30
0.0
 11
-954.1191548695699
 21
-472.3239622763704
 31
0.0
  0
LINE
  5
2EF
330
1E
100
AcDbEntity
  8
1
  6
Continuous
 62
     3
100
AcDbLine
 10
-954.1191548695699
 20
-471.6168554953704
 30
0.0
 11
-950.4255040555699
 21
-475.3105063093703
 31
0.0
  0
LINE
  5
2F0
330
1E
100
AcDbEntity
  8
1
  6
Continuous
 62
     3
100
AcDbLine
 10
-949.71839727457
 20
-475.3105063093703
 30
0.0
 11
-954.1191548695699
 21
-470.9097487143703
 31
0.0
  0
LINE
  5
2F1
330
1E
100
AcDbEntity
  8
1
  6
Continuous
 62
     3
100
AcDbLine
 10
-954.1191548695699
 20
-470.2026419333703
 30
0.0
 11
-949.0112904935699
 21
-475.3105063093703
 31
0.0
  0
LINE
  5
2F2
330
1E
100
AcDbEntity
  8
1
  6
Continuous
 62
     3
100
AcDbLine
 10
-948.30418371257
 20
-475.3105063093703
 30
0.0
 11
-954.1191548695699
 21
-469.4955351523703
 31
0.0
  0
LINE
  5
2F3
330
1E
100
AcDbEntity
  8
1
  6
Continuous
 62
     3
100
AcDbLine
 10
-954.1191548695699
 20
-468.7884283703704
 30
0.0
 11
-947.59707693057
 21
-475.3105063093703
 31
0.0
  0
LINE
  5
2F4
330
1E
100
AcDbEntity
  8
1
  6
Continuous
 62
     3
100
AcDbLine
 10
-946.8899701495699
 20
-475.3105063093703
 30
0.0
 11
-954.1191548695699
 21
-468.0813215893704
 31
0.0
  0
LINE
  5
2F5
330
1E
100
AcDbEntity
  8
1
  6
Continuous
 62
     3
100
AcDbLine
 10
-954.1191548695699
 20
-467.3742148083703
 30
0.0
 11
-946.18286336857
 21
-475.3105063093703
 31
0.0
  0
LINE
  5
2F6
330
1E
100
AcDbEntity
  8
1
  6
Continuous
 62
     3
100
AcDbLine
 10
-945.47575658757
 20
-475.3105063093703
 30
0.0
 11
-954.1191548695699
 21
-466.6671080273704
 31
0.0
  0
LINE
  5
2F7
330
1E
100
AcDbEntity
  8
1
  6
Continuous
 62
     3
100
AcDbLine
 10
-954.1191548695699
 20
-465.9600012463704
 30
0.0
 11
-944.7686498065699
 21
-475.3105063093703
 31
0.0
  0
LINE
  5
2F8
330
1E
100
AcDbEntity
  8
1
  6
Continuous
 62
     3
100
AcDbLine
 10
-944.6191548695701
 20
-474.7528944643703
 30
0.0
 11
-954.1191548695699
 21
-465.2528944643703
 31
0.0
  0
LINE
  5
2F9
330
1E
100
AcDbEntity
  8
1
  6
Continuous
 62
     3
100
AcDbLine
 10
-954.1191548695699
 20
-464.5457876833703
 30
0.0
 11
-944.6191548695701
 21
-474.0457876833703
 31
0.0
  0
LINE
  5
2FA
330
1E
100
AcDbEntity
  8
1
  6
Continuous
 62
     3
100
AcDbLine
 10
-944.6191548695701
 20
-473.3386809023703
 30
0.0
 11
-954.1191548695699
 21
-463.8386809023703
 31
0.0
  0
LINE
  5
2FB
330
1E
100
AcDbEntity
  8
1
  6
Continuous
 62
     3
100
AcDbLine
 10
-954.1191548695699
 20
-463.1315741213703
 30
0.0
 11
-944.6191548695701
 21
-472.6315741213703
 31
0.0
  0
LINE
  5
2FC
330
1E
100
AcDbEntity
  8
1
  6
Continuous
 62
     3
100
AcDbLine
 10
-944.6191548695701
 20
-471.9244673403704
 30
0.0
 11
-954.1191548695699
 21
-462.4244673403703
 31
0.0
  0
LINE
  5
2FD
330
1E
100
AcDbEntity
  8
1
  6
Continuous
 62
     3
100
AcDbLine
 10
-954.1191548695699
 20
-461.7173605583704
 30
0.0
 11
-944.6191548695701
 21
-471.2173605583704
 31
0.0
  0
LINE
  5
2FE
330
1E
100
AcDbEntity
  8
1
  6
Continuous
 62
     3
100
AcDbLine
 10
-944.6191548695701
 20
-470.5102537773703
 30
0.0
 11
-954.1191548695699
 21
-461.0102537773704
 31
0.0
  0
LINE
  5
2FF
330
1E
100
AcDbEntity
  8
1
  6
Continuous
 62
     3
100
AcDbLine
 10
-954.1191548695699
 20
-460.3031469963704
 30
0.0
 11
-944.6191548695701
 21
-469.8031469963703
 31
0.0
  0
LINE
  5
300
330
1E
100
AcDbEntity
  8
1
  6
Continuous
 62
     3
100
AcDbLine
 10
-944.6191548695701
 20
-469.0960402153704
 30
0.0
 11
-954.1191548695699
 21
-459.5960402153703
 31
0.0
  0
LINE
  5
301
330
1E
100
AcDbEntity
  8
1
  6
Continuous
 62
     3
100
AcDbLine
 10
-954.1191548695699
 20
-458.8889334343703
 30
0.0
 11
-944.6191548695701
 21
-468.3889334343704
 31
0.0
  0
LINE
  5
302
330
1E
100
AcDbEntity
  8
1
  6
Continuous
 62
     3
100
AcDbLine
 10
-944.6191548695701
 20
-467.6818266533703
 30
0.0
 11
-954.1191548695699
 21
-458.1818266533703
 31
0.0
  0
LINE
  5
303
330
1E
100
AcDbEntity
  8
1
  6
Continuous
 62
     3
100
AcDbLine
 10
-954.1191548695699
 20
-457.4747198713703
 30
0.0
 11
-944.6191548695701
 21
-466.9747198713704
 31
0.0
  0
LINE
  5
304
330
1E
100
AcDbEntity
  8
1
  6
Continuous
 62
     3
100
AcDbLine
 10
-944.6191548695701
 20
-466.2676130903704
 30
0.0
 11
-954.1191548695699
 21
-456.7676130903704
 31
0.0
  0
LINE
  5
305
330
1E
100
AcDbEntity
  8
1
  6
Continuous
 62
     3
100
AcDbLine
 10
-954.1191548695699
 20
-456.0605063093703
 30
0.0
 11
-944.6191548695701
 21
-465.5605063093703
 31
0.0
  0
LINE
  5
306
330
1E
100
AcDbEntity
  8
1
  6
Continuous
 62
     3
100
AcDbLine
 10
-944.6191548695701
 20
-464.8533995283703
 30
0.0
 11
-954.1191548695699
 21
-455.3533995283703
 31
0.0
  0
LINE
  5
307
330
1E
100
AcDbEntity
  8
1
  6
Continuous
 62
     3
100
AcDbLine
 10
-954.1191548695699
 20
-454.6462927473704
 30
0.0
 11
-944.6191548695701
 21
-464.1462927473703
 31
0.0
  0
LINE
  5
308
330
1E
100
AcDbEntity
  8
1
  6
Continuous
 62
     3
100
AcDbLine
 10
-944.6191548695701
 20
-463.4391859653703
 30
0.0
 11
-954.1191548695699
 21
-453.9391859653703
 31
0.0
  0
LINE
  5
309
330
1E
100
AcDbEntity
  8
1
  6
Continuous
 62
     3
100
AcDbLine
 10
-954.1191548695699
 20
-453.2320791843703
 30
0.0
 11
-944.6191548695701
 21
-462.7320791843703
 31
0.0
  0
LINE
  5
30A
330
1E
100
AcDbEntity
  8
1
  6
Continuous
 62
     3
100
AcDbLine
 10
-944.6191548695701
 20
-462.0249724033704
 30
0.0
 11
-954.1191548695699
 21
-452.5249724033703
 31
0.0
  0
LINE
  5
30B
330
1E
100
AcDbEntity
  8
1
  6
Continuous
 62
     3
100
AcDbLine
 10
-954.1191548695699
 20
-451.8178656223703
 30
0.0
 11
-944.6191548695701
 21
-461.3178656223704
 31
0.0
  0
LINE
  5
30C
330
1E
100
AcDbEntity
  8
1
  6
Continuous
 62
     3
100
AcDbLine
 10
-944.6191548695701
 20
-460.6107588413704
 30
0.0
 11
-954.1191548695699
 21
-451.1107588413704
 31
0.0
  0
LINE
  5
30D
330
1E
100
AcDbEntity
  8
1
  6
Continuous
 62
     3
100
AcDbLine
 10
-954.1191548695699
 20
-450.4036520593704
 30
0.0
 11
-944.6191548695701
 21
-459.9036520593704
 31
0.0
  0
LINE
  5
30E
330
1E
100
AcDbEntity
  8
1
  6
Continuous
 62
     3
100
AcDbLine
 10
-944.6191548695701
 20
-459.1965452783703
 30
0.0
 11
-954.1191548695699
 21
-449.6965452783704
 31
0.0
  0
LINE
  5
30F
330
1E
100
AcDbEntity
  8
1
  6
Continuous
 62
     3
100
AcDbLine
 10
-954.1191548695699
 20
-448.9894384973704
 30
0.0
 11
-944.6191548695701
 21
-458.4894384973704
 31
0.0
  0
LINE
  5
310
330
1E
100
AcDbEntity
  8
1
  6
Continuous
 62
     3
100
AcDbLine
 10
-944.6191548695701
 20
-457.7823317163703
 30
0.0
 11
-954.1191548695699
 21
-448.2823317163703
 31
0.0
  0
LINE
  5
311
330
1E
100
AcDbEntity
  8
1
  6
Continuous
 62
     3
100
AcDbLine
 10
-954.1191548695699
 20
-447.5752249353703
 30
0.0
 11
-944.6191548695701
 21
-457.0752249353703
 31
0.0
  0
LINE
  5
312
330
1E
100
AcDbEntity
  8
1
  6
Continuous
 62
     3
100
AcDbLine
 10
-944.6191548695701
 20
-456.3681181543704
 30
0.0
 11
-954.1191548695699
 21
-446.8681181543703
 31
0.0
  0
LINE
  5
313
330
1E
100
AcDbEntity
  8
1
  6
Continuous
 62
     3
100
AcDbLine
 10
-953.96965993357
 20
-446.3105063093703
 30
0.0
 11
-944.6191548695701
 21
-455.6610113723703
 31
0.0
  0
LINE
  5
314
330
1E
100
AcDbEntity
  8
1
  6
Continuous
 62
     3
100
AcDbLine
 10
-944.6191548695701
 20
-454.9539045913703
 30
0.0
 11
-953.26255315157
 21
-446.3105063093703
 31
0.0
  0
LINE
  5
315
330
1E
100
AcDbEntity
  8
1
  6
Continuous
 62
     3
100
AcDbLine
 10
-952.5554463705699
 20
-446.3105063093703
 30
0.0
 11
-944.6191548695701
 21
-454.2467978103704
 31
0.0
  0
LINE
  5
316
330
1E
100
AcDbEntity
  8
1
  6
Continuous
 62
     3
100
AcDbLine
 10
-944.6191548695701
 20
-453.5396910293703
 30
0.0
 11
-951.84833958957
 21
-446.3105063093703
 31
0.0
  0
LINE
  5
317
330
1E
100
AcDbEntity
  8
1
  6
Continuous
 62
     3
100
AcDbLine
 10
-951.1412328085699
 20
-446.3105063093703
 30
0.0
 11
-944.6191548695701
 21
-452.8325842483703
 31
0.0
  0
LINE
  5
318
330
1E
100
AcDbEntity
  8
1
  6
Continuous
 62
     3
100
AcDbLine
 10
-944.6191548695701
 20
-452.1254774663703
 30
0.0
 11
-950.4341260275699
 21
-446.3105063093703
 31
0.0
  0
LINE
  5
319
330
1E
100
AcDbEntity
  8
1
  6
Continuous
 62
     3
100
AcDbLine
 10
-949.7270192455699
 20
-446.3105063093703
 30
0.0
 11
-944.6191548695701
 21
-451.4183706853704
 31
0.0
  0
LINE
  5
31A
330
1E
100
AcDbEntity
  8
1
  6
Continuous
 62
     3
100
AcDbLine
 10
-944.6191548695701
 20
-450.7112639043704
 30
0.0
 11
-949.01991246457
 21
-446.3105063093703
 31
0.0
  0
LINE
  5
31B
330
1E
100
AcDbEntity
  8
1
  6
Continuous
 62
     3
100
AcDbLine
 10
-948.3128056835699
 20
-446.3105063093703
 30
0.0
 11
-944.6191548695701
 21
-450.0041571233704
 31
0.0
  0
LINE
  5
31C
330
1E
100
AcDbEntity
  8
1
  6
Continuous
 62
     3
100
AcDbLine
 10
-944.6191548695701
 20
-449.2970503423704
 30
0.0
 11
-947.60569890257
 21
-446.3105063093703
 31
0.0
  0
LINE
  5
31D
330
1E
100
AcDbEntity
  8
1
  6
Continuous
 62
     3
100
AcDbLine
 10
-946.8985921215701
 20
-446.3105063093703
 30
0.0
 11
-944.6191548695701
 21
-448.5899435603704
 31
0.0
  0
LINE
  5
31E
330
1E
100
AcDbEntity
  8
1
  6
Continuous
 62
     3
100
AcDbLine
 10
-944.6191548695701
 20
-447.8828367793703
 30
0.0
 11
-946.19148533957
 21
-446.3105063093703
 31
0.0
  0
LINE
  5
31F
330
1E
100
AcDbEntity
  8
1
  6
Continuous
 62
     3
100
AcDbLine
 10
-945.4843785585699
 20
-446.3105063093703
 30
0.0
 11
-944.6191548695701
 21
-447.1757299983703
 31
0.0
  0
LINE
  5
320
330
1E
100
AcDbEntity
  8
1
  6
Continuous
 62
     3
100
AcDbLine
 10
-944.6191548695701
 20
-446.4686232173703
 30
0.0
 11
-944.77727177757
 21
-446.3105063093703
 31
0.0
  0
LWPOLYLINE
  5
321
330
1E
100
AcDbEntity
  8
1
 62
     3
100
AcDbPolyline
 90
        4
 70
     1
 43
0.0
 10
-948.91915486957
 20
-478.3105063093703
 10
-948.91915486957
 20
-476.3105063093703
 10
-949.91915486957
 20
-476.3105063093703
 10
-949.91915486957
 20
-478.3105063093703
  0
LINE
  5
327
330
1E
100
AcDbEntity
  8
1
  6
Continuous
 62
     3
100
AcDbLine
 10
-949.8333684315699
 20
-478.3105063093703
 30
0.0
 11
-949.91915486957
 21
-478.2247198713704
 31
0.0
  0
LINE
  5
328
330
1E
100
AcDbEntity
  8
1
  6
Continuous
 62
     3
100
AcDbLine
 10
-949.91915486957
 20
-477.5176130903703
 30
0.0
 11
-949.12626165057
 21
-478.3105063093703
 31
0.0
  0
LINE
  5
329
330
1E
100
AcDbEntity
  8
1
  6
Continuous
 62
     3
100
AcDbLine
 10
-948.91915486957
 20
-477.8105063093703
 30
0.0
 11
-949.91915486957
 21
-476.8105063093703
 31
0.0
  0
LINE
  5
32A
330
1E
100
AcDbEntity
  8
1
  6
Continuous
 62
     3
100
AcDbLine
 10
-949.7120480885699
 20
-476.3105063093703
 30
0.0
 11
-948.91915486957
 21
-477.1033995283703
 31
0.0
  0
LINE
  5
32B
330
1E
100
AcDbEntity
  8
1
  6
Continuous
 62
     3
100
AcDbLine
 10
-948.91915486957
 20
-476.3962927473703
 30
0.0
 11
-949.00494130757
 21
-476.3105063093703
 31
0.0
  0
ARC
  5
32C
330
1E
100
AcDbEntity
  8
0
  6
Continuous
 62
     3
100
AcDbCircle
 10
-956.9191548705699
 20
-520.3105063113703
 30
0.0
 40
0.5
100
AcDbArc
 50
180.0
 51
270.0
  0
ARC
  5
32D
330
1E
100
AcDbEntity
  8
0
  6
Continuous
 62
     3
100
AcDbCircle
 10
-943.91915487057
 20
-520.3105063113703
 30
0.0
 40
0.5
100
AcDbArc
 50
270.0
 51
0.0
  0
LINE
  5
32E
330
1E
100
AcDbEntity
  8
0
  6
Continuous
 62
     3
100
AcDbLine
 10
-956.9191548705699
 20
-520.8105063113703
 30
0.0
 11
-943.91915487057
 21
-520.8105063113703
 31
0.0
  0
LINE
  5
32F
330
1E
100
AcDbEntity
  8
0
  6
Continuous
 62
     3
100
AcDbLine
 10
-943.4191548705699
 20
-520.3105063113703
 30
0.0
 11
-943.4191548705699
 21
-516.8105063113703
 31
0.0
  0
LINE
  5
330
330
1E
100
AcDbEntity
  8
0
  6
Continuous
 62
     3
100
AcDbLine
 10
-957.41915487057
 20
-520.3105063113703
 30
0.0
 11
-957.41915487057
 21
-516.8105063113703
 31
0.0
  0
CIRCLE
  5
331
330
1E
100
AcDbEntity
  8
1
  6
Continuous
 62
     3
100
AcDbCircle
 10
-946.41915486957
 20
-485.0605063093703
 30
0.0
 40
2.0
  0
CIRCLE
  5
332
330
1E
100
AcDbEntity
  8
1
  6
Continuous
 62
     3
100
AcDbCircle
 10
-946.41915486957
 20
-493.0605063093704
 30
0.0
 40
2.0
  0
LWPOLYLINE
  5
333
330
1E
100
AcDbEntity
  8
0
 62
     3
100
AcDbPolyline
 90
        3
 70
     0
 43
0.0
 10
-962.4191548705699
 20
-516.8105063113703
 10
-962.4191548685699
 20
-422.8105063113703
 10
-938.41915486857
 20
-422.8105063113703
  0
LINE
  5
338
330
1E
100
AcDbEntity
  8
0
  6
Continuous
 62
     3
100
AcDbLine
 10
-938.41915486857
 20
-422.8105063113703
 30
0.0
 11
-938.4191548705699
 21
-516.8105063113703
 31
0.0
  0
LINE
  5
339
330
1E
100
AcDbEntity
  8
0
  6
Continuous
 62
     3
100
AcDbLine
 10
-938.4191548705699
 20
-516.8105063113703
 30
0.0
 11
-962.4191548705699
 21
-516.8105063113703
 31
0.0
  0
LWPOLYLINE
  5
33A
330
1E
100
AcDbEntity
  8
0
 62
     3
100
AcDbPolyline
 90
        3
 70
     0
 43
0.0
 10
-946.41915486957
 20
-429.8105063113704
 10
-954.41915486957
 20
-429.8105063113704
 10
-954.41915486957
 20
-431.8105063113703
  0
LINE
  5
33F
330
1E
100
AcDbEntity
  8
0
  6
Continuous
 62
     3
100
AcDbLine
 10
-954.41915486957
 20
-431.8105063113703
 30
0.0
 11
-954.41915486957
 21
-433.8105063113704
 31
0.0
  0
LINE
  5
340
330
1E
100
AcDbEntity
  8
0
  6
Continuous
 62
     3
100
AcDbLine
 10
-946.41915486957
 20
-433.8105063113704
 30
0.0
 11
-946.41915486957
 21
-431.8105063113703
 31
0.0
  0
LINE
  5
341
330
1E
100
AcDbEntity
  8
0
  6
Continuous
 62
     3
100
AcDbLine
 10
-946.41915486957
 20
-431.8105063113703
 30
0.0
 11
-946.41915486957
 21
-429.8105063113704
 31
0.0
  0
LINE
  5
342
330
1E
100
AcDbEntity
  8
0
  6
Continuous
 62
     3
100
AcDbLine
 10
-954.41915486957
 20
-431.8105063113703
 30
0.0
 11
-962.41915486957
 21
-431.8105063113703
 31
0.0
  0
LINE
  5
343
330
1E
100
AcDbEntity
  8
0
  6
Continuous
 62
     3
100
AcDbLine
 10
-938.4191548695699
 20
-431.8105063113703
 30
0.0
 11
-946.41915486957
 21
-431.8105063113703
 31
0.0
  0
LINE
  5
344
330
1E
100
AcDbEntity
  8
0
  6
Continuous
 62
     3
100
AcDbLine
 10
-938.4191548695699
 20
-433.8105063113704
 30
0.0
 11
-962.41915486957
 21
-433.8105063113704
 31
0.0
  0
LINE
  5
345
330
1E
100
AcDbEntity
  8
0
  6
Continuous
 62
     3
100
AcDbLine
 10
-954.4191548705699
 20
-507.8105063113703
 30
0.0
 11
-962.4191548705699
 21
-507.8105063113703
 31
0.0
  0
LINE
  5
346
330
1E
100
AcDbEntity
  8
0
  6
Continuous
 62
     3
100
AcDbLine
 10
-938.4191548705699
 20
-507.8105063113703
 30
0.0
 11
-946.4191548705699
 21
-507.8105063113703
 31
0.0
  0
LINE
  5
347
330
1E
100
AcDbEntity
  8
0
  6
Continuous
 62
     3
100
AcDbLine
 10
-938.4191548705699
 20
-505.8105063113703
 30
0.0
 11
-962.4191548705699
 21
-505.8105063113703
 31
0.0
  0
LINE
  5
348
330
1E
100
AcDbEntity
  8
0
  6
Continuous
 62
     3
100
AcDbLine
 10
-954.4191548705699
 20
-507.8105063113703
 30
0.0
 11
-954.4191548705699
 21
-505.8105063113703
 31
0.0
  0
LINE
  5
349
330
1E
100
AcDbEntity
  8
0
  6
Continuous
 62
     3
100
AcDbLine
 10
-946.4191548705699
 20
-509.8105063113703
 30
0.0
 11
-954.4191548705699
 21
-509.8105063113703
 31
0.0
  0
LINE
  5
34A
330
1E
100
AcDbEntity
  8
0
  6
Continuous
 62
     3
100
AcDbLine
 10
-946.4191548705699
 20
-507.8105063113703
 30
0.0
 11
-946.4191548705699
 21
-509.8105063113703
 31
0.0
  0
LINE
  5
34B
330
1E
100
AcDbEntity
  8
0
  6
Continuous
 62
     3
100
AcDbLine
 10
-954.4191548705699
 20
-509.8105063113703
 30
0.0
 11
-954.4191548705699
 21
-507.8105063113703
 31
0.0
  0
LINE
  5
34C
330
1E
100
AcDbEntity
  8
0
  6
Continuous
 62
     3
100
AcDbLine
 10
-946.4191548705699
 20
-505.8105063113703
 30
0.0
 11
-946.4191548705699
 21
-507.8105063113703
 31
0.0
  0
LINE
  5
34D
330
1E
100
AcDbEntity
  8
0
  6
Continuous
 62
     3
100
AcDbLine
 10
-787.41915486857
 20
-422.8105063113703
 30
0.0
 11
-787.41915486957
 21
-452.3105063113704
 31
0.0
  0
LINE
  5
34E
330
1E
100
AcDbEntity
  8
0
  6
Continuous
 62
     3
100
AcDbLine
 10
-828.4191548725699
 20
-430.3105063073703
 30
0.0
 11
-828.4191548725699
 21
-433.8105063073704
 31
0.0
  0
LINE
  5
34F
330
1E
100
AcDbEntity
  8
0
  6
Continuous
 62
     3
100
AcDbLine
 10
-827.46915487257
 20
-430.3105063073703
 30
0.0
 11
-828.4191548725699
 21
-430.3105063073703
 31
0.0
  0
ARC
  5
350
330
1E
100
AcDbEntity
  8
0
  6
Continuous
 62
     3
100
AcDbCircle
 10
-827.46915487257
 20
-431.1105063073704
 30
0.0
 40
0.8
100
AcDbArc
 50
0.0
 51
90.0
  0
LINE
  5
351
330
1E
100
AcDbEntity
  8
0
  6
Continuous
 62
     3
100
AcDbLine
 10
-836.21915486657
 20
-433.8105063133704
 30
0.0
 11
-836.2191548675699
 21
-439.8105063133704
 31
0.0
  0
LINE
  5
352
330
1E
100
AcDbEntity
  8
0
  6
Continuous
 62
     3
100
AcDbLine
 10
-833.41915487257
 20
-433.8105063073704
 30
0.0
 11
-833.41915487257
 21
-430.3105063073703
 31
0.0
  0
LINE
  5
353
330
1E
100
AcDbEntity
  8
0
  6
Continuous
 62
     3
100
AcDbLine
 10
-834.3691548725699
 20
-430.3105063073703
 30
0.0
 11
-833.41915487257
 21
-430.3105063073703
 31
0.0
  0
ARC
  5
354
330
1E
100
AcDbEntity
  8
0
  6
Continuous
 62
     3
100
AcDbCircle
 10
-834.3691548725699
 20
-431.1105063073704
 30
0.0
 40
0.8
100
AcDbArc
 50
90.0
 51
179.9999999989999
  0
LINE
  5
355
330
1E
100
AcDbEntity
  8
0
  6
Continuous
 62
     3
100
AcDbLine
 10
-835.16915487257
 20
-431.1105063073704
 30
0.0
 11
-835.16915487257
 21
-433.8105063073704
 31
0.0
  0
LINE
  5
356
330
1E
100
AcDbEntity
  8
0
  6
Continuous
 62
     3
100
AcDbLine
 10
-833.4191548755701
 20
-435.0105063063703
 30
0.0
 11
-828.41915487557
 21
-435.0105063063703
 31
0.0
  0
LINE
  5
357
330
1E
100
AcDbEntity
  8
0
  6
Continuous
 62
     3
100
AcDbLine
 10
-828.41915487557
 20
-433.8105063063704
 30
0.0
 11
-828.41915487557
 21
-435.0105063063703
 31
0.0
  0
LINE
  5
358
330
1E
100
AcDbEntity
  8
0
  6
Continuous
 62
     3
100
AcDbLine
 10
-825.3191548695699
 20
-433.8102563103704
 30
0.0
 11
-825.3191548695699
 21
-430.8102563103703
 31
0.0
  0
LINE
  5
359
330
1E
100
AcDbEntity
  8
0
  6
Continuous
 62
     3
100
AcDbLine
 10
-828.41915486957
 20
-430.8102563103703
 30
0.0
 11
-833.4191548695699
 21
-430.8102563103703
 31
0.0
  0
LINE
  5
35A
330
1E
100
AcDbEntity
  8
0
  6
Continuous
 62
     3
100
AcDbLine
 10
-828.4191548725699
 20
-433.8105063073704
 30
0.0
 11
-833.41915487257
 21
-433.8105063073704
 31
0.0
  0
LINE
  5
35B
330
1E
100
AcDbEntity
  8
0
  6
Continuous
 62
     3
100
AcDbLine
 10
-828.4191548725699
 20
-433.8105063073704
 30
0.0
 11
-833.41915487257
 21
-433.8105063073704
 31
0.0
  0
LINE
  5
35C
330
1E
100
AcDbEntity
  8
0
  6
Continuous
 62
     3
100
AcDbLine
 10
-833.4191548695699
 20
-433.8102563103704
 30
0.0
 11
-828.41915486957
 21
-433.8102563103704
 31
0.0
  0
LINE
  5
35D
330
1E
100
AcDbEntity
  8
0
  6
Continuous
 62
     3
100
AcDbLine
 10
-826.6691548725699
 20
-433.8105063073704
 30
0.0
 11
-826.6691548725699
 21
-431.1105063073704
 31
0.0
  0
LINE
  5
35E
330
1E
100
AcDbEntity
  8
0
  6
Continuous
 62
     3
100
AcDbLine
 10
-833.4191548755701
 20
-435.0105063033703
 30
0.0
 11
-833.4191548755701
 21
-433.8105063063704
 31
0.0
  0
TEXT
  5
35F
330
1E
100
AcDbEntity
  8
0
  6
Continuous
 62
     3
100
AcDbText
 10
-783.3191548695699
 20
-391.9501141163704
 30
0.3
 40
3.0
  1
温度センサー
 41
0.9
  7
KANJI2
100
AcDbText
  0
LINE
  5
360
330
1E
100
AcDbEntity
  8
0
  6
Continuous
 62
     3
100
AcDbLine
 10
-783.3191548695699
 20
-392.9501141163703
 30
0.3
 11
-771.01915486957
 21
-392.9501141163703
 31
0.3
  0
LINE
  5
361
330
1E
100
AcDbEntity
  8
0
  6
Continuous
 62
     5
100
AcDbLine
 10
-917.4191548685699
 20
-402.8105063113703
 30
0.0
 11
-917.4191548685699
 21
-432.3105063113703
 31
0.0
  0
LINE
  5
362
330
1E
100
AcDbEntity
  8
0
  6
Continuous
 62
     5
100
AcDbLine
 10
-917.4191548685699
 20
-403.8105063113703
 30
0.0
 11
-915.0043403035699
 21
-404.4575539243703
 31
0.0
  0
LINE
  5
363
330
1E
100
AcDbEntity
  8
0
  6
Continuous
 62
     5
100
AcDbLine
 10
-917.4191548685699
 20
-403.8105063113703
 30
0.0
 11
-915.0043403035699
 21
-403.1634586983703
 31
0.0
  0
LINE
  5
364
330
1E
100
AcDbEntity
  8
0
  6
Continuous
 62
     5
100
AcDbLine
 10
-917.4191548685699
 20
-403.8105063113703
 30
0.0
 11
-817.4191548685699
 21
-403.8105063113703
 31
0.0
  0
LINE
  5
365
330
1E
100
AcDbEntity
  8
0
  6
Continuous
 62
     5
100
AcDbLine
 10
-817.4191548685699
 20
-403.8105063113703
 30
0.0
 11
-819.8339694345699
 21
-403.1634586983703
 31
0.0
  0
LINE
  5
366
330
1E
100
AcDbEntity
  8
0
  6
Continuous
 62
     5
100
AcDbLine
 10
-817.4191548685699
 20
-403.8105063113703
 30
0.0
 11
-819.8339694345699
 21
-404.4575539243703
 31
0.0
  0
TEXT
  5
367
330
1E
100
AcDbEntity
  8
0
  6
Continuous
 62
     5
100
AcDbText
 10
-870.4191548685699
 20
-402.8105063113703
 30
0.3
 40
3.0
  1
１００
 41
0.6
  7
KANJI3
100
AcDbText
  0
LINE
  5
368
330
1E
100
AcDbEntity
  8
0
  6
Continuous
 62
     5
100
AcDbLine
 10
-817.4191548685699
 20
-385.3105063113703
 30
0.3
 11
-815.0043403035699
 21
-385.9575539243703
 31
0.3
  0
LINE
  5
369
330
1E
100
AcDbEntity
  8
0
  6
Continuous
 62
     5
100
AcDbLine
 10
-817.4191548685699
 20
-385.3105063113703
 30
0.0
 11
-815.0043403035699
 21
-384.6634586983704
 31
0.0
  0
LWPOLYLINE
  5
36A
330
1E
100
AcDbEntity
  8
0
 62
     5
100
AcDbPolyline
 90
        3
 70
     0
 43
0.0
 10
-817.4191548685699
 20
-385.3105063113703
 10
-787.41915486857
 20
-385.3105063113703
 10
-789.83396943457
 20
-384.6634586983704
  0
LINE
  5
36F
330
1E
100
AcDbEntity
  8
0
  6
Continuous
 62
     5
100
AcDbLine
 10
-787.41915486857
 20
-385.3105063113703
 30
0.0
 11
-789.83396943457
 21
-385.9575539243703
 31
0.0
  0
TEXT
  5
370
330
1E
100
AcDbEntity
  8
0
  6
Continuous
 62
     5
100
AcDbText
 10
-804.36915486857
 20
-384.3105063113704
 30
0.3
 40
3.0
  1
３０
 41
0.6
  7
KANJI3
100
AcDbText
  0
LINE
  5
371
330
1E
100
AcDbEntity
  8
0
  6
Continuous
 62
     5
100
AcDbLine
 10
-787.41915486857
 20
-385.3105063113703
 30
0.3
 11
-787.41915486857
 21
-422.3105063113703
 31
0.3
  0
LINE
  5
372
330
1E
100
AcDbEntity
  8
0
  6
Continuous
 62
     5
100
AcDbLine
 10
-817.4191548685699
 20
-385.3105063113703
 30
0.0
 11
-817.4191548685699
 21
-429.8105063113704
 31
0.0
  0
LINE
  5
373
330
1E
100
AcDbEntity
  8
0
  6
Continuous
 62
     5
100
AcDbLine
 10
-938.41915486857
 20
-412.8105063113704
 30
0.0
 11
-938.41915486857
 21
-421.8105063113704
 31
0.0
  0
LINE
  5
374
330
1E
100
AcDbEntity
  8
0
  6
Continuous
 62
     5
100
AcDbLine
 10
-937.4191548685699
 20
-424.8105063113703
 30
0.0
 11
-937.4191548685699
 21
-402.8105063113703
 31
0.0
  0
LINE
  5
375
330
1E
100
AcDbEntity
  8
0
  6
Continuous
 62
     5
100
AcDbLine
 10
-938.41915486857
 20
-413.8105063113703
 30
0.0
 11
-940.83396943457
 21
-413.1634586983704
 31
0.0
  0
LINE
  5
376
330
1E
100
AcDbEntity
  8
0
  6
Continuous
 62
     5
100
AcDbLine
 10
-938.41915486857
 20
-413.8105063113703
 30
0.0
 11
-940.83396943457
 21
-414.4575539243703
 31
0.0
  0
TEXT
  5
377
330
1E
100
AcDbEntity
  8
0
  6
Continuous
 62
     5
100
AcDbText
 10
-952.36915486857
 20
-412.8105063113704
 30
0.3
 40
3.0
  1
２４
 41
0.6
  7
KANJI3
100
AcDbText
  0
LINE
  5
378
330
1E
100
AcDbEntity
  8
0
  6
Continuous
 62
     5
100
AcDbLine
 10
-937.4191548685699
 20
-403.8105063113703
 30
0.3
 11
-939.83396943457
 21
-403.1634586983703
 31
0.3
  0
LINE
  5
379
330
1E
100
AcDbEntity
  8
0
  6
Continuous
 62
     5
100
AcDbLine
 10
-937.4191548685699
 20
-403.8105063113703
 30
0.0
 11
-939.83396943457
 21
-404.4575539243703
 31
0.0
  0
TEXT
  5
37A
330
1E
100
AcDbEntity
  8
0
  6
Continuous
 62
     5
100
AcDbText
 10
-952.36915486857
 20
-402.8105063113703
 30
0.3
 40
3.0
  1
２６
 41
0.6
  7
KANJI3
100
AcDbText
  0
LINE
  5
37B
330
1E
100
AcDbEntity
  8
0
  6
Continuous
 62
     5
100
AcDbLine
 10
-962.4191548685699
 20
-421.8105063113704
 30
0.3
 11
-962.4191548685699
 21
-412.8105063113704
 31
0.3
  0
LINE
  5
37C
330
1E
100
AcDbEntity
  8
0
  6
Continuous
 62
     5
100
AcDbLine
 10
-963.41915486857
 20
-424.8105063103704
 30
0.0
 11
-963.41915486857
 21
-402.8105063103703
 31
0.0
  0
LINE
  5
37D
330
1E
100
AcDbEntity
  8
0
  6
Continuous
 62
     5
100
AcDbLine
 10
-962.4191548685699
 20
-413.8105063113703
 30
0.0
 11
-960.00434030357
 21
-414.4575539243703
 31
0.0
  0
LINE
  5
37E
330
1E
100
AcDbEntity
  8
0
  6
Continuous
 62
     5
100
AcDbLine
 10
-962.4191548685699
 20
-413.8105063113703
 30
0.0
 11
-960.00434030357
 21
-413.1634586983704
 31
0.0
  0
LINE
  5
37F
330
1E
100
AcDbEntity
  8
0
  6
Continuous
 62
     5
100
AcDbLine
 10
-962.4191548685699
 20
-413.8105063113703
 30
0.0
 11
-938.41915486857
 21
-413.8105063113703
 31
0.0
  0
LINE
  5
380
330
1E
100
AcDbEntity
  8
0
  6
Continuous
 62
     5
100
AcDbLine
 10
-963.41915486857
 20
-403.8105063103704
 30
0.0
 11
-961.00434030357
 21
-404.4575539233703
 31
0.0
  0
LINE
  5
381
330
1E
100
AcDbEntity
  8
0
  6
Continuous
 62
     5
100
AcDbLine
 10
-963.41915486857
 20
-403.8105063103704
 30
0.0
 11
-961.00434030357
 21
-403.1634586983703
 31
0.0
  0
LINE
  5
382
330
1E
100
AcDbEntity
  8
0
  6
Continuous
 62
     5
100
AcDbLine
 10
-963.41915486857
 20
-403.8105063103704
 30
0.0
 11
-937.4191548685699
 21
-403.8105063113703
 31
0.0
  0
TEXT
  5
383
330
1E
100
AcDbEntity
  8
0
  6
Continuous
 62
     5
100
AcDbText
 10
-972.41915487057
 20
-471.7605063113703
 30
0.3
 40
3.0
  1
９４
 50
90.0
 41
0.6
  7
KANJI3
100
AcDbText
  0
LINE
  5
384
330
1E
100
AcDbEntity
  8
0
  6
Continuous
 62
     5
100
AcDbLine
 10
-972.41915487057
 20
-422.8105063113703
 30
0.3
 11
-963.9191548705699
 21
-422.8105063113703
 31
0.3
  0
LINE
  5
385
330
1E
100
AcDbEntity
  8
0
  6
Continuous
 62
     5
100
AcDbLine
 10
-971.4191548705699
 20
-422.8105063113703
 30
0.0
 11
-972.06620248357
 21
-425.2253208763703
 31
0.0
  0
LINE
  5
386
330
1E
100
AcDbEntity
  8
0
  6
Continuous
 62
     5
100
AcDbLine
 10
-971.4191548705699
 20
-422.8105063113703
 30
0.0
 11
-970.7721072575699
 21
-425.2253208763703
 31
0.0
  0
LINE
  5
387
330
1E
100
AcDbEntity
  8
0
  6
Continuous
 62
     5
100
AcDbLine
 10
-963.4191548705699
 20
-516.8105063113703
 30
0.0
 11
-972.41915487057
 21
-516.8105063113703
 31
0.0
  0
LINE
  5
388
330
1E
100
AcDbEntity
  8
0
  6
Continuous
 62
     5
100
AcDbLine
 10
-971.4191548705699
 20
-516.8105063113703
 30
0.0
 11
-970.7721072575699
 21
-514.3956917453704
 31
0.0
  0
LINE
  5
389
330
1E
100
AcDbEntity
  8
0
  6
Continuous
 62
     5
100
AcDbLine
 10
-971.4191548705699
 20
-516.8105063113703
 30
0.0
 11
-972.06620248357
 21
-514.3956917453704
 31
0.0
  0
LINE
  5
38A
330
1E
100
AcDbEntity
  8
0
  6
Continuous
 62
     5
100
AcDbLine
 10
-972.41915487057
 20
-520.8105063113703
 30
0.0
 11
-958.41915487057
 21
-520.8105063113703
 31
0.0
  0
LINE
  5
38B
330
1E
100
AcDbEntity
  8
0
  6
Continuous
 62
     5
100
AcDbLine
 10
-971.4191548705699
 20
-520.8105063113703
 30
0.0
 11
-972.06620248357
 21
-523.2253208763705
 31
0.0
  0
LINE
  5
38C
330
1E
100
AcDbEntity
  8
0
  6
Continuous
 62
     5
100
AcDbLine
 10
-971.4191548705699
 20
-520.8105063113703
 30
0.0
 11
-970.7721072575699
 21
-523.2253208763705
 31
0.0
  0
LINE
  5
38D
330
1E
100
AcDbEntity
  8
0
  6
Continuous
 62
     5
100
AcDbLine
 10
-971.4191548705699
 20
-516.8105063113703
 30
0.0
 11
-971.4191548705699
 21
-533.8105063113703
 31
0.0
  0
TEXT
  5
38E
330
1E
100
AcDbEntity
  8
0
  6
Continuous
 62
     5
100
AcDbText
 10
-972.41915487057
 20
-531.2605063113704
 30
0.3
 40
3.0
  1
６ｍａｘ
 50
90.0
 41
0.6
  7
KANJI3
100
AcDbText
  0
LINE
  5
38F
330
1E
100
AcDbEntity
  8
0
  6
Continuous
 62
     5
100
AcDbLine
 10
-971.4191548705699
 20
-422.8105063113703
 30
0.3
 11
-971.4191548705699
 21
-516.8105063113703
 31
0.3
  0
ARC
  5
390
330
1E
100
AcDbEntity
  8
0
  6
Continuous
 62
     3
100
AcDbCircle
 10
-809.3191548695699
 20
-409.9501141163703
 30
0.0
 40
0.5
100
AcDbArc
 50
90.0
 51
180.0
  0
LINE
  5
391
330
1E
100
AcDbEntity
  8
0
  6
Continuous
 62
     3
100
AcDbLine
 10
-809.3191548695699
 20
-409.4501141163704
 30
0.0
 11
-804.3191548695698
 21
-409.4501141163704
 31
0.0
  0
LINE
  5
392
330
1E
100
AcDbEntity
  8
0
  6
Continuous
 62
     3
100
AcDbLine
 10
-802.0991548695699
 20
-413.5801141163703
 30
0.0
 11
-801.9391548695699
 21
-412.6601141163703
 31
0.0
  0
LINE
  5
393
330
1E
100
AcDbEntity
  8
0
  6
Continuous
 62
     3
100
AcDbLine
 10
-801.9391548695699
 20
-412.6601141163703
 30
0.0
 11
-801.7691548695699
 21
-411.8301141163703
 31
0.0
  0
LINE
  5
394
330
1E
100
AcDbEntity
  8
0
  6
Continuous
 62
     3
100
AcDbLine
 10
-801.7691548695699
 20
-411.8301141163703
 30
0.0
 11
-801.42915486957
 21
-410.6301141163703
 31
0.0
  0
LINE
  5
395
330
1E
100
AcDbEntity
  8
0
  6
Continuous
 62
     3
100
AcDbLine
 10
-801.42915486957
 20
-410.6301141163703
 30
0.0
 11
-801.1491548695699
 21
-410.2501141163704
 31
0.0
  0
LINE
  5
396
330
1E
100
AcDbEntity
  8
0
  6
Continuous
 62
     3
100
AcDbLine
 10
-801.1491548695699
 20
-410.2501141163704
 30
0.0
 11
-800.7891548695699
 21
-409.9101141163703
 31
0.0
  0
LINE
  5
397
330
1E
100
AcDbEntity
  8
0
  6
Continuous
 62
     3
100
AcDbLine
 10
-800.7891548695699
 20
-409.9101141163703
 30
0.0
 11
-800.4891548695701
 21
-409.7801141163703
 31
0.0
  0
LINE
  5
398
330
1E
100
AcDbEntity
  8
0
  6
Continuous
 62
     3
100
AcDbLine
 10
-800.4891548695701
 20
-409.7801141163703
 30
0.0
 11
-800.12915486957
 21
-409.7501141163703
 31
0.0
  0
LINE
  5
399
330
1E
100
AcDbEntity
  8
0
  6
Continuous
 62
     3
100
AcDbLine
 10
-800.12915486957
 20
-409.7501141163703
 30
0.0
 11
-799.8491548695699
 21
-409.8901141163703
 31
0.0
  0
LINE
  5
39A
330
1E
100
AcDbEntity
  8
0
  6
Continuous
 62
     3
100
AcDbLine
 10
-799.8491548695699
 20
-409.8901141163703
 30
0.0
 11
-799.68915486957
 21
-410.1601141163703
 31
0.0
  0
LINE
  5
39B
330
1E
100
AcDbEntity
  8
0
  6
Continuous
 62
     3
100
AcDbLine
 10
-799.68915486957
 20
-410.1601141163703
 30
0.0
 11
-799.62915486957
 21
-410.4401141163704
 31
0.0
  0
LINE
  5
39C
330
1E
100
AcDbEntity
  8
0
  6
Continuous
 62
     3
100
AcDbLine
 10
-799.62915486957
 20
-410.4401141163704
 30
0.0
 11
-799.51915486957
 21
-411.4401141163703
 31
0.0
  0
LINE
  5
39D
330
1E
100
AcDbEntity
  8
0
  6
Continuous
 62
     3
100
AcDbLine
 10
-799.51915486957
 20
-411.4401141163703
 30
0.0
 11
-799.4391548695699
 21
-412.3501141163703
 31
0.0
  0
LINE
  5
39E
330
1E
100
AcDbEntity
  8
0
  6
Continuous
 62
     3
100
AcDbLine
 10
-799.4391548695699
 20
-412.3501141163703
 30
0.0
 11
-799.37915486957
 21
-413.4901141163703
 31
0.0
  0
LINE
  5
39F
330
1E
100
AcDbEntity
  8
0
  6
Continuous
 62
     3
100
AcDbLine
 10
-800.9391548695699
 20
-416.7801141163703
 30
0.0
 11
-800.87915486957
 21
-414.4601141163703
 31
0.0
  0
LINE
  5
3A0
330
1E
100
AcDbEntity
  8
0
  6
Continuous
 62
     3
100
AcDbLine
 10
-800.87915486957
 20
-414.4601141163703
 30
0.0
 11
-800.83915486957
 21
-413.4101141163704
 31
0.0
  0
LINE
  5
3A1
330
1E
100
AcDbEntity
  8
0
  6
Continuous
 62
     3
100
AcDbLine
 10
-800.83915486957
 20
-413.4101141163704
 30
0.0
 11
-800.75915486957
 21
-412.7701141163703
 31
0.0
  0
LINE
  5
3A2
330
1E
100
AcDbEntity
  8
0
  6
Continuous
 62
     3
100
AcDbLine
 10
-800.75915486957
 20
-412.7701141163703
 30
0.0
 11
-800.6291548695699
 21
-412.2701141163703
 31
0.0
  0
LINE
  5
3A3
330
1E
100
AcDbEntity
  8
0
  6
Continuous
 62
     3
100
AcDbLine
 10
-800.6291548695699
 20
-412.2701141163703
 30
0.0
 11
-800.5491548695699
 21
-411.9201141163704
 31
0.0
  0
LINE
  5
3A4
330
1E
100
AcDbEntity
  8
0
  6
Continuous
 62
     3
100
AcDbLine
 10
-800.5491548695699
 20
-411.9201141163704
 30
0.0
 11
-800.52915486957
 21
-411.8801141163703
 31
0.0
  0
LINE
  5
3A5
330
1E
100
AcDbEntity
  8
0
  6
Continuous
 62
     3
100
AcDbLine
 10
-800.52915486957
 20
-411.8801141163703
 30
0.0
 11
-800.50915486957
 21
-411.8601141163703
 31
0.0
  0
LINE
  5
3A6
330
1E
100
AcDbEntity
  8
0
  6
Continuous
 62
     3
100
AcDbLine
 10
-800.50915486957
 20
-411.8601141163703
 30
0.0
 11
-800.4891548695701
 21
-411.8601141163703
 31
0.0
  0
LINE
  5
3A7
330
1E
100
AcDbEntity
  8
0
  6
Continuous
 62
     3
100
AcDbLine
 10
-800.4891548695701
 20
-411.8601141163703
 30
0.0
 11
-800.4691548695699
 21
-411.8701141163703
 31
0.0
  0
LINE
  5
3A8
330
1E
100
AcDbEntity
  8
0
  6
Continuous
 62
     3
100
AcDbLine
 10
-800.4691548695699
 20
-411.8701141163703
 30
0.0
 11
-800.4591548695699
 21
-411.8901141163703
 31
0.0
  0
LINE
  5
3A9
330
1E
100
AcDbEntity
  8
0
  6
Continuous
 62
     3
100
AcDbLine
 10
-800.4591548695699
 20
-411.8901141163703
 30
0.0
 11
-800.44915486957
 21
-411.9401141163704
 31
0.0
  0
LINE
  5
3AA
330
1E
100
AcDbEntity
  8
0
  6
Continuous
 62
     3
100
AcDbLine
 10
-800.44915486957
 20
-411.9401141163704
 30
0.0
 11
-800.3591548695698
 21
-414.2201141163703
 31
0.0
  0
LINE
  5
3AB
330
1E
100
AcDbEntity
  8
0
  6
Continuous
 62
     3
100
AcDbLine
 10
-800.3591548695698
 20
-414.2201141163703
 30
0.0
 11
-800.27915486957
 21
-416.0501141163703
 31
0.0
  0
ARC
  5
3AC
330
1E
100
AcDbEntity
  8
0
  6
Continuous
 62
     3
100
AcDbCircle
 10
-804.3191548695698
 20
-409.9501141163703
 30
0.0
 40
0.5
100
AcDbArc
 50
0.0
 51
90.00040890000001
  0
LINE
  5
3AD
330
1E
100
AcDbEntity
  8
0
  6
Continuous
 62
     3
100
AcDbLine
 10
-807.8191548695698
 20
-410.9501141163703
 30
0.0
 11
-783.3191548695699
 21
-392.9501141163703
 31
0.0
  0
LINE
  5
3AE
330
1E
100
AcDbEntity
  8
0
  6
Continuous
 62
     3
100
AcDbLine
 10
-807.8191548695698
 20
-410.9501141163703
 30
0.0
 11
-805.48999808657
 21
-410.0418032223704
 31
0.0
  0
LINE
  5
3AF
330
1E
100
AcDbEntity
  8
0
  6
Continuous
 62
     3
100
AcDbLine
 10
-807.8191548695698
 20
-410.9501141163703
 30
0.0
 11
-806.2562013725699
 21
-408.9989154163704
 31
0.0
  0
LWPOLYLINE
  5
3B0
330
1E
100
AcDbEntity
  8
0
 62
     3
100
AcDbPolyline
 90
        3
 70
     0
 43
0.0
 10
-807.4191548695699
 20
-433.8105063113704
 10
-807.4191548695699
 20
-429.8105063113704
 10
-787.41915486957
 20
-429.8105063113704
  0
LINE
  5
3B5
330
1E
100
AcDbEntity
  8
0
  6
Continuous
 62
     3
100
AcDbLine
 10
-806.4191548695699
 20
-429.8105063113704
 30
0.0
 11
-806.4191548695699
 21
-433.8105063113704
 31
0.0
  0
LINE
  5
3B6
330
1E
100
AcDbEntity
  8
0
  6
Continuous
 62
     3
100
AcDbLine
 10
-798.4191548695699
 20
-429.8105063113704
 30
0.0
 11
-798.4191548695699
 21
-422.8105063113703
 31
0.0
  0
LINE
  5
3B7
330
1E
100
AcDbEntity
  8
0
  6
Continuous
 62
     3
100
AcDbLine
 10
-803.8191548695699
 20
-420.4501141163704
 30
0.0
 11
-805.8191548695699
 21
-420.4501141163704
 31
0.0
  0
LINE
  5
3B8
330
1E
100
AcDbEntity
  8
0
  6
Continuous
 62
     3
100
AcDbLine
 10
-805.8191548695699
 20
-420.4501141163704
 30
0.0
 11
-805.8191548695699
 21
-419.4501141163703
 31
0.0
  0
LINE
  5
3B9
330
1E
100
AcDbEntity
  8
0
  6
Continuous
 62
     3
100
AcDbLine
 10
-809.81915486957
 20
-420.4501141163704
 30
0.0
 11
-807.8191548695698
 21
-420.4501141163704
 31
0.0
  0
LINE
  5
3BA
330
1E
100
AcDbEntity
  8
0
  6
Continuous
 62
     3
100
AcDbLine
 10
-807.8191548695698
 20
-420.4501141163704
 30
0.0
 11
-807.8191548695698
 21
-419.4501141163703
 31
0.0
  0
LINE
  5
3BB
330
1E
100
AcDbEntity
  8
0
  6
Continuous
 62
     3
100
AcDbLine
 10
-807.8191548695698
 20
-419.4501141163703
 30
0.0
 11
-805.8191548695699
 21
-419.4501141163703
 31
0.0
  0
LINE
  5
3BC
330
1E
100
AcDbEntity
  8
0
  6
Continuous
 62
     3
100
AcDbLine
 10
-799.15915486957
 20
-418.7301141163703
 30
0.0
 11
-799.0791548695699
 21
-420.0901141163703
 31
0.0
  0
LINE
  5
3BD
330
1E
100
AcDbEntity
  8
0
  6
Continuous
 62
     3
100
AcDbLine
 10
-803.33915486957
 20
-420.9001141163703
 30
0.0
 11
-802.9491548695698
 21
-420.7401141163703
 31
0.0
  0
LINE
  5
3BE
330
1E
100
AcDbEntity
  8
0
  6
Continuous
 62
     3
100
AcDbLine
 10
-802.9491548695698
 20
-420.7401141163703
 30
0.0
 11
-802.6991548695699
 21
-420.5001141163704
 31
0.0
  0
LINE
  5
3BF
330
1E
100
AcDbEntity
  8
0
  6
Continuous
 62
     3
100
AcDbLine
 10
-802.6991548695699
 20
-420.5001141163704
 30
0.0
 11
-802.57915486957
 21
-420.2001141163703
 31
0.0
  0
LINE
  5
3C0
330
1E
100
AcDbEntity
  8
0
  6
Continuous
 62
     3
100
AcDbLine
 10
-806.51915486957
 20
-419.4501141163703
 30
0.0
 11
-806.4091548695699
 21
-420.0501141163703
 31
0.0
  0
LINE
  5
3C1
330
1E
100
AcDbEntity
  8
0
  6
Continuous
 62
     3
100
AcDbLine
 10
-806.4091548695699
 20
-420.0501141163703
 30
0.0
 11
-806.30915486957
 21
-420.3701141163703
 31
0.0
  0
LINE
  5
3C2
330
1E
100
AcDbEntity
  8
0
  6
Continuous
 62
     3
100
AcDbLine
 10
-806.30915486957
 20
-420.3701141163703
 30
0.0
 11
-806.15915486957
 21
-420.6501141163703
 31
0.0
  0
LINE
  5
3C3
330
1E
100
AcDbEntity
  8
0
  6
Continuous
 62
     3
100
AcDbLine
 10
-806.15915486957
 20
-420.6501141163703
 30
0.0
 11
-805.93915486957
 21
-420.9201141163704
 31
0.0
  0
LINE
  5
3C4
330
1E
100
AcDbEntity
  8
0
  6
Continuous
 62
     3
100
AcDbLine
 10
-808.21915486957
 20
-420.4501141163704
 30
0.0
 11
-807.98915486957
 21
-420.9701141163703
 31
0.0
  0
LINE
  5
3C5
330
1E
100
AcDbEntity
  8
0
  6
Continuous
 62
     3
100
AcDbLine
 10
-799.0191548695699
 20
-421.3101141163703
 30
0.0
 11
-798.96915486957
 21
-422.2201141163703
 31
0.0
  0
LINE
  5
3C6
330
1E
100
AcDbEntity
  8
0
  6
Continuous
 62
     3
100
AcDbLine
 10
-804.6791548695699
 20
-421.1654082343703
 30
0.0
 11
-804.4991548695699
 21
-421.1601141163703
 31
0.0
  0
LINE
  5
3C7
330
1E
100
AcDbEntity
  8
0
  6
Continuous
 62
     3
100
AcDbLine
 10
-801.73915486957
 20
-421.5401141163703
 30
0.0
 11
-801.4591548695699
 21
-421.2201141163704
 31
0.0
  0
LINE
  5
3C8
330
1E
100
AcDbEntity
  8
0
  6
Continuous
 62
     3
100
AcDbLine
 10
-800.04915486957
 20
-421.7601141163703
 30
0.0
 11
-800.0126829185699
 21
-422.8105063113703
 31
0.0
  0
LINE
  5
3C9
330
1E
100
AcDbEntity
  8
0
  6
Continuous
 62
     3
100
AcDbLine
 10
-798.96915486957
 20
-422.2201141163703
 30
0.0
 11
-798.9472884915699
 21
-422.8105063113703
 31
0.0
  0
LINE
  5
3CA
330
1E
100
AcDbEntity
  8
0
  6
Continuous
 62
     3
100
AcDbLine
 10
-809.0191548695699
 20
-420.4501141163704
 30
0.0
 11
-809.0191548695699
 21
-433.8105063113704
 31
0.0
  0
LINE
  5
3CB
330
1E
100
AcDbEntity
  8
0
  6
Continuous
 62
     3
100
AcDbLine
 10
-808.51915486957
 20
-433.8105063113704
 30
0.0
 11
-808.51915486957
 21
-420.4501141163704
 31
0.0
  0
LINE
  5
3CC
330
1E
100
AcDbEntity
  8
0
  6
Continuous
 62
     3
100
AcDbLine
 10
-799.0791548695699
 20
-420.0901141163703
 30
0.0
 11
-799.0191548695699
 21
-421.3101141163703
 31
0.0
  0
LINE
  5
3CD
330
1E
100
AcDbEntity
  8
0
  6
Continuous
 62
     3
100
AcDbLine
 10
-804.4991548695699
 20
-421.1601141163703
 30
0.0
 11
-803.87915486957
 21
-421.0501141163703
 31
0.0
  0
LINE
  5
3CE
330
1E
100
AcDbEntity
  8
0
  6
Continuous
 62
     3
100
AcDbLine
 10
-803.87915486957
 20
-421.0501141163703
 30
0.0
 11
-803.33915486957
 21
-420.9001141163703
 31
0.0
  0
LINE
  5
3CF
330
1E
100
AcDbEntity
  8
0
  6
Continuous
 62
     3
100
AcDbLine
 10
-805.93915486957
 20
-420.9201141163704
 30
0.0
 11
-805.6891548695698
 21
-421.0401141163703
 31
0.0
  0
LINE
  5
3D0
330
1E
100
AcDbEntity
  8
0
  6
Continuous
 62
     3
100
AcDbLine
 10
-805.6891548695698
 20
-421.0401141163703
 30
0.0
 11
-805.31915486957
 21
-421.0801141163703
 31
0.0
  0
LINE
  5
3D1
330
1E
100
AcDbEntity
  8
0
  6
Continuous
 62
     3
100
AcDbLine
 10
-805.31915486957
 20
-421.0801141163703
 30
0.0
 11
-804.4991548695699
 21
-421.1664299063703
 31
0.0
  0
LINE
  5
3D2
330
1E
100
AcDbEntity
  8
0
  6
Continuous
 62
     3
100
AcDbLine
 10
-807.98915486957
 20
-420.9701141163703
 30
0.0
 11
-807.7291548695701
 21
-421.3001141163704
 31
0.0
  0
LINE
  5
3D3
330
1E
100
AcDbEntity
  8
0
  6
Continuous
 62
     3
100
AcDbLine
 10
-801.4591548695699
 20
-421.2201141163704
 30
0.0
 11
-801.3091548695699
 21
-420.7301141163704
 31
0.0
  0
LINE
  5
3D4
330
1E
100
AcDbEntity
  8
0
  6
Continuous
 62
     3
100
AcDbLine
 10
-800.1591548695699
 20
-419.6301141163703
 30
0.0
 11
-800.04915486957
 21
-421.7601141163703
 31
0.0
  0
LINE
  5
3D5
330
1E
100
AcDbEntity
  8
0
  6
Continuous
 62
     3
100
AcDbLine
 10
-806.14915486957
 20
-422.3201141163704
 30
0.0
 11
-805.69915486957
 21
-422.4301141163703
 31
0.0
  0
LINE
  5
3D6
330
1E
100
AcDbEntity
  8
0
  6
Continuous
 62
     3
100
AcDbLine
 10
-805.69915486957
 20
-422.4301141163703
 30
0.0
 11
-805.09915486957
 21
-422.5501141163703
 31
0.0
  0
LINE
  5
3D7
330
1E
100
AcDbEntity
  8
0
  6
Continuous
 62
     3
100
AcDbLine
 10
-807.7291548695701
 20
-421.3001141163704
 30
0.0
 11
-807.44915486957
 21
-421.6201141163703
 31
0.0
  0
LINE
  5
3D8
330
1E
100
AcDbEntity
  8
0
  6
Continuous
 62
     3
100
AcDbLine
 10
-807.44915486957
 20
-421.6201141163703
 30
0.0
 11
-807.0491548695699
 21
-421.9401141163704
 31
0.0
  0
LINE
  5
3D9
330
1E
100
AcDbEntity
  8
0
  6
Continuous
 62
     3
100
AcDbLine
 10
-807.0491548695699
 20
-421.9401141163704
 30
0.0
 11
-806.69915486957
 21
-422.1301141163703
 31
0.0
  0
LINE
  5
3DA
330
1E
100
AcDbEntity
  8
0
  6
Continuous
 62
     3
100
AcDbLine
 10
-806.69915486957
 20
-422.1301141163703
 30
0.0
 11
-806.14915486957
 21
-422.3201141163704
 31
0.0
  0
LINE
  5
3DB
330
1E
100
AcDbEntity
  8
0
  6
Continuous
 62
     3
100
AcDbLine
 10
-803.03915486957
 20
-422.3601141163703
 30
0.0
 11
-802.3391548695698
 21
-422.0501141163703
 31
0.0
  0
LINE
  5
3DC
330
1E
100
AcDbEntity
  8
0
  6
Continuous
 62
     3
100
AcDbLine
 10
-802.3391548695698
 20
-422.0501141163703
 30
0.0
 11
-801.73915486957
 21
-421.5401141163703
 31
0.0
  0
LINE
  5
3DD
330
1E
100
AcDbEntity
  8
0
  6
Continuous
 62
     3
100
AcDbLine
 10
-805.09915486957
 20
-422.5501141163703
 30
0.0
 11
-804.6091548695699
 21
-422.5701141163703
 31
0.0
  0
LINE
  5
3DE
330
1E
100
AcDbEntity
  8
0
  6
Continuous
 62
     3
100
AcDbLine
 10
-804.6091548695699
 20
-422.5701141163703
 30
0.0
 11
-804.00915486957
 21
-422.5301141163702
 31
0.0
  0
LINE
  5
3DF
330
1E
100
AcDbEntity
  8
0
  6
Continuous
 62
     3
100
AcDbLine
 10
-804.00915486957
 20
-422.5301141163702
 30
0.0
 11
-803.03915486957
 21
-422.3601141163703
 31
0.0
  0
LINE
  5
3E0
330
1E
100
AcDbEntity
  8
0
  6
Continuous
 62
     3
100
AcDbLine
 10
-807.4191548695699
 20
-433.8105063113704
 30
0.0
 11
-787.41915486957
 21
-433.8105063113704
 31
0.0
  0
LINE
  5
3E1
330
1E
100
AcDbEntity
  8
0
  6
Continuous
 62
     3
100
AcDbLine
 10
-817.4191548695699
 20
-433.8105063113704
 30
0.0
 11
-808.4191548695699
 21
-433.8105063113704
 31
0.0
  0
LINE
  5
3E2
330
1E
100
AcDbEntity
  8
0
  6
Continuous
 62
     3
100
AcDbLine
 10
-787.41915486857
 20
-422.8105063113703
 30
0.0
 11
-808.41915486857
 21
-422.8105063113703
 31
0.0
  0
LINE
  5
3E3
330
1E
100
AcDbEntity
  8
0
  6
Continuous
 62
     3
100
AcDbLine
 10
-808.41915486857
 20
-422.8105063113703
 30
0.0
 11
-808.4191548695699
 21
-433.8105063113704
 31
0.0
  0
LINE
  5
3E4
330
1E
100
AcDbEntity
  8
0
  6
Continuous
 62
     3
100
AcDbLine
 10
-802.57915486957
 20
-420.2001141163703
 30
0.0
 11
-802.35915486957
 21
-418.4301141163703
 31
0.0
  0
LINE
  5
3E5
330
1E
100
AcDbEntity
  8
0
  6
Continuous
 62
     3
100
AcDbLine
 10
-801.3091548695699
 20
-420.7301141163704
 30
0.0
 11
-800.9391548695699
 21
-416.7801141163703
 31
0.0
  0
LINE
  5
3E6
330
1E
100
AcDbEntity
  8
0
  6
Continuous
 62
     3
100
AcDbLine
 10
-800.27915486957
 20
-416.0501141163703
 30
0.0
 11
-800.1591548695699
 21
-419.6301141163703
 31
0.0
  0
LINE
  5
3E7
330
1E
100
AcDbEntity
  8
0
  6
Continuous
 62
     3
100
AcDbLine
 10
-809.81915486957
 20
-420.4501141163704
 30
0.0
 11
-809.81915486957
 21
-409.9501141163703
 31
0.0
  0
LINE
  5
3E8
330
1E
100
AcDbEntity
  8
0
  6
Continuous
 62
     3
100
AcDbLine
 10
-802.35915486957
 20
-418.4301141163703
 30
0.0
 11
-802.0991548695699
 21
-413.5801141163703
 31
0.0
  0
LINE
  5
3E9
330
1E
100
AcDbEntity
  8
0
  6
Continuous
 62
     3
100
AcDbLine
 10
-799.37915486957
 20
-413.4901141163703
 30
0.0
 11
-799.15915486957
 21
-418.7301141163703
 31
0.0
  0
LINE
  5
3EA
330
1E
100
AcDbEntity
  8
0
  6
Continuous
 62
     3
100
AcDbLine
 10
-803.8191548695699
 20
-409.9501141163703
 30
0.0
 11
-803.8191548695699
 21
-420.4501141163704
 31
0.0
  0
LINE
  5
3EB
330
1E
100
AcDbEntity
  8
0
  6
Continuous
 62
     5
100
AcDbLine
 10
-792.4191548685699
 20
-422.8105063113703
 30
0.0
 11
-791.77210725657
 21
-420.3956917453703
 31
0.0
  0
LINE
  5
3EC
330
1E
100
AcDbEntity
  8
0
  6
Continuous
 62
     5
100
AcDbLine
 10
-792.4191548685699
 20
-422.8105063113703
 30
0.0
 11
-793.0662024815699
 21
-420.3956917453703
 31
0.0
  0
LWPOLYLINE
  5
3ED
330
1E
100
AcDbEntity
  8
0
 62
     5
100
AcDbPolyline
 90
        3
 70
     0
 43
0.0
 10
-792.4191548685699
 20
-422.8105063113703
 10
-792.4191548685699
 20
-409.4501141163704
 10
-793.0662024815699
 20
-411.8649286823703
  0
LINE
  5
3F2
330
1E
100
AcDbEntity
  8
0
  6
Continuous
 62
     5
100
AcDbLine
 10
-792.4191548685699
 20
-409.4501141163704
 30
0.0
 11
-791.77210725657
 21
-411.8649286823703
 31
0.0
  0
TEXT
  5
3F3
330
1E
100
AcDbEntity
  8
0
  6
Continuous
 62
     5
100
AcDbText
 10
-793.4191548685699
 20
-421.2303102143704
 30
0.3
 40
3.0
  1
１４ｍａｘ
 50
90.0
 41
0.6
  7
KANJI3
100
AcDbText
  0
LINE
  5
3F4
330
1E
100
AcDbEntity
  8
0
  6
Continuous
 62
     5
100
AcDbLine
 10
-803.3191548695699
 20
-409.4501141163704
 30
0.3
 11
-792.4191548685699
 21
-409.4501141163704
 31
0.3
  0
ENDSEC
  0
SECTION
  2
OBJECTS
  0
DICTIONARY
  5
C
330
0
100
AcDbDictionary
281
     1
  3
ACAD_GROUP
350
D
  3
ACAD_PLOTSTYLENAME
350
E
  3
ACAD_MLINESTYLE
350
16
  3
ACAD_PLOTSETTINGS
350
18
  3
ACAD_LAYOUT
350
19
  0
DICTIONARY
  5
D
102
{ACAD_REACTORS
330
C
102
}
330
C
100
AcDbDictionary
281
     1
  0
ACDBDICTIONARYWDFLT
  5
E
102
{ACAD_REACTORS
330
C
102
}
330
C
100
AcDbDictionary
281
     1
  3
Normal
350
F
100
AcDbDictionaryWithDefault
340
F
  0
DICTIONARY
  5
16
102
{ACAD_REACTORS
330
C
102
}
330
C
100
AcDbDictionary
281
     1
  3
Standard
350
17
  0
DICTIONARY
  5
18
102
{ACAD_REACTORS
330
C
102
}
330
C
100
AcDbDictionary
281
     1
  0
DICTIONARY
  5
19
102
{ACAD_REACTORS
330
C
102
}
330
C
100
AcDbDictionary
281
     1
  3
ﾚｲｱｳﾄ1
350
1D
  3
Model
350
21
  0
ACDBPLACEHOLDER
  5
F
102
{ACAD_REACTORS
330
E
102
}
330
E
  0
MLINESTYLE
  5
17
102
{ACAD_REACTORS
330
16
102
}
330
16
100
AcDbMlineStyle
  2
STANDARD
 70
     0
  3

 62
   256
 51
90.0
 52
90.0
 71
     2
 49
0.5
 62
   256
  6
BYLAYER
 49
-0.5
 62
   256
  6
BYLAYER
  0
LAYOUT
  5
1D
102
{ACAD_REACTORS
330
19
102
}
330
19
100
AcDbPlotSettings
  1

  2
Canon LASER SHOT LBP-880
  4

  6

 40
0.0
 41
0.0
 42
0.0
 43
0.0
 44
0.0
 45
0.0
 46
0.0
 47
0.0
 48
0.0
 49
0.0
140
0.0
141
0.0
142
1.0
143
1.0
 70
   688
 72
     0
 73
     0
 74
     5
  7

 75
    16
147
1.0
148
0.0
149
0.0
100
AcDbLayout
  1
ﾚｲｱｳﾄ1
 70
     1
 71
     1
 10
0.0
 20
0.0
 11
12.0
 21
9.0
 12
0.0
 22
0.0
 32
0.0
 14
1.000000000000000E+20
 24
1.000000000000000E+20
 34
1.000000000000000E+20
 15
-1.000000000000000E+20
 25
-1.000000000000000E+20
 35
-1.000000000000000E+20
146
0.0
 13
0.0
 23
0.0
 33
0.0
 16
1.0
 26
0.0
 36
0.0
 17
0.0
 27
1.0
 37
0.0
 76
     0
330
1A
  0
LAYOUT
  5
21
102
{ACAD_REACTORS
330
19
102
}
330
19
100
AcDbPlotSettings
  1

  2
Canon LASER SHOT LBP-880
  4

  6

 40
0.0
 41
0.0
 42
0.0
 43
0.0
 44
0.0
 45
0.0
 46
0.0
 47
0.0
 48
0.0
 49
0.0
140
0.0
141
0.0
142
1.0
143
1.0
 70
  1712
 72
     0
 73
     0
 74
     0
  7

 75
     0
147
1.0
148
0.0
149
0.0
100
AcDbLayout
  1
Model
 70
     1
 71
     0
 10
0.0
 20
0.0
 11
12.0
 21
9.0
 12
0.0
 22
0.0
 32
0.0
 14
0.0
 24
0.0
 34
0.0
 15
0.0
 25
0.0
 35
0.0
146
0.0
 13
0.0
 23
0.0
 33
0.0
 16
1.0
 26
0.0
 36
0.0
 17
0.0
 27
1.0
 37
0.0
 76
     0
330
1E
  0
ENDSEC
  0
EOF
