  0
SECTION
  2
HEADER
  9
$ACADVER
  1
AC1015
  9
$ACADMAINTVER
 70
     6
  9
$DWGCODEPAGE
  3
ANSI_932
  9
$INSBASE
 10
0.0
 20
0.0
 30
0.0
  9
$EXTMIN
 10
-751.4097318302844
 20
-233.387801904894
 30
0.0
  9
$EXTMAX
 10
-563.6097318282843
 20
-99.58780190489399
 30
0.3
  9
$LIMMIN
 10
0.0
 20
0.0
  9
$LIMMAX
 10
420.0
 20
297.0
  9
$ORTHOMODE
 70
     0
  9
$REGENMODE
 70
     1
  9
$FILLMODE
 70
     1
  9
$QTEXTMODE
 70
     0
  9
$MIRRTEXT
 70
     1
  9
$LTSCALE
 40
1.0
  9
$ATTMODE
 70
     1
  9
$TEXTSIZE
 40
0.2
  9
$TRACEWID
 40
0.05
  9
$TEXTSTYLE
  7
STANDARD
  9
$CLAYER
  8
0
  9
$CELTYPE
  6
CONTINUOUS
  9
$CECOLOR
 62
   256
  9
$CELTSCALE
 40
1.0
  9
$DISPSILH
 70
     0
  9
$DIMSCALE
 40
1.0
  9
$DIMASZ
 40
0.18
  9
$DIMEXO
 40
0.0625
  9
$DIMDLI
 40
0.38
  9
$DIMRND
 40
0.0
  9
$DIMDLE
 40
0.0
  9
$DIMEXE
 40
0.18
  9
$DIMTP
 40
0.0
  9
$DIMTM
 40
0.0
  9
$DIMTXT
 40
0.18
  9
$DIMCEN
 40
0.09
  9
$DIMTSZ
 40
0.0
  9
$DIMTOL
 70
     0
  9
$DIMLIM
 70
     0
  9
$DIMTIH
 70
     1
  9
$DIMTOH
 70
     1
  9
$DIMSE1
 70
     0
  9
$DIMSE2
 70
     0
  9
$DIMTAD
 70
     0
  9
$DIMZIN
 70
     0
  9
$DIMBLK
  1

  9
$DIMASO
 70
     1
  9
$DIMSHO
 70
     1
  9
$DIMPOST
  1

  9
$DIMAPOST
  1

  9
$DIMALT
 70
     0
  9
$DIMALTD
 70
     2
  9
$DIMALTF
 40
25.4
  9
$DIMLFAC
 40
1.0
  9
$DIMTOFL
 70
     0
  9
$DIMTVP
 40
0.0
  9
$DIMTIX
 70
     0
  9
$DIMSOXD
 70
     0
  9
$DIMSAH
 70
     0
  9
$DIMBLK1
  1

  9
$DIMBLK2
  1

  9
$DIMSTYLE
  2
Standard
  9
$DIMCLRD
 70
     0
  9
$DIMCLRE
 70
     0
  9
$DIMCLRT
 70
     0
  9
$DIMTFAC
 40
1.0
  9
$DIMGAP
 40
0.09
  9
$DIMJUST
 70
     0
  9
$DIMSD1
 70
     0
  9
$DIMSD2
 70
     0
  9
$DIMTOLJ
 70
     1
  9
$DIMTZIN
 70
     0
  9
$DIMALTZ
 70
     0
  9
$DIMALTTZ
 70
     0
  9
$DIMUPT
 70
     0
  9
$DIMDEC
 70
     4
  9
$DIMTDEC
 70
     4
  9
$DIMALTU
 70
     2
  9
$DIMALTTD
 70
     2
  9
$DIMTXSTY
  7
STANDARD
  9
$DIMAUNIT
 70
     0
  9
$DIMADEC
 70
     0
  9
$DIMALTRND
 40
0.0
  9
$DIMAZIN
 70
     0
  9
$DIMDSEP
 70
    46
  9
$DIMATFIT
 70
     3
  9
$DIMFRAC
 70
     0
  9
$DIMLDRBLK
  1

  9
$DIMLUNIT
 70
     2
  9
$DIMLWD
 70
    -2
  9
$DIMLWE
 70
    -2
  9
$DIMTMOVE
 70
     0
  9
$LUNITS
 70
     2
  9
$LUPREC
 70
     4
  9
$SKETCHINC
 40
0.1
  9
$FILLETRAD
 40
0.0
  9
$AUNITS
 70
     0
  9
$AUPREC
 70
     0
  9
$MENU
  1
.
  9
$ELEVATION
 40
0.0
  9
$PELEVATION
 40
0.0
  9
$THICKNESS
 40
0.0
  9
$LIMCHECK
 70
     0
  9
$CHAMFERA
 40
0.0
  9
$CHAMFERB
 40
0.0
  9
$CHAMFERC
 40
0.0
  9
$CHAMFERD
 40
0.0
  9
$SKPOLY
 70
     0
  9
$TDCREATE
 40
2452699.634243171
  9
$TDUCREATE
 40
2452699.259243171
  9
$TDUPDATE
 40
2452719.544136805
  9
$TDUUPDATE
 40
2452719.169136805
  9
$TDINDWG
 40
0.0038854167
  9
$TDUSRTIMER
 40
0.0038854167
  9
$USRTIMER
 70
     1
  9
$ANGBASE
 50
0.0
  9
$ANGDIR
 70
     0
  9
$PDMODE
 70
     0
  9
$PDSIZE
 40
0.0
  9
$PLINEWID
 40
0.0
  9
$SPLFRAME
 70
     0
  9
$SPLINETYPE
 70
     6
  9
$SPLINESEGS
 70
     8
  9
$HANDSEED
  5
32F
  9
$SURFTAB1
 70
     6
  9
$SURFTAB2
 70
     6
  9
$SURFTYPE
 70
     6
  9
$SURFU
 70
     6
  9
$SURFV
 70
     6
  9
$UCSBASE
  2

  9
$UCSNAME
  2

  9
$UCSORG
 10
0.0
 20
0.0
 30
0.0
  9
$UCSXDIR
 10
1.0
 20
0.0
 30
0.0
  9
$UCSYDIR
 10
0.0
 20
1.0
 30
0.0
  9
$UCSORTHOREF
  2

  9
$UCSORTHOVIEW
 70
     0
  9
$UCSORGTOP
 10
0.0
 20
0.0
 30
0.0
  9
$UCSORGBOTTOM
 10
0.0
 20
0.0
 30
0.0
  9
$UCSORGLEFT
 10
0.0
 20
0.0
 30
0.0
  9
$UCSORGRIGHT
 10
0.0
 20
0.0
 30
0.0
  9
$UCSORGFRONT
 10
0.0
 20
0.0
 30
0.0
  9
$UCSORGBACK
 10
0.0
 20
0.0
 30
0.0
  9
$PUCSBASE
  2

  9
$PUCSNAME
  2

  9
$PUCSORG
 10
0.0
 20
0.0
 30
0.0
  9
$PUCSXDIR
 10
1.0
 20
0.0
 30
0.0
  9
$PUCSYDIR
 10
0.0
 20
1.0
 30
0.0
  9
$PUCSORTHOREF
  2

  9
$PUCSORTHOVIEW
 70
     0
  9
$PUCSORGTOP
 10
0.0
 20
0.0
 30
0.0
  9
$PUCSORGBOTTOM
 10
0.0
 20
0.0
 30
0.0
  9
$PUCSORGLEFT
 10
0.0
 20
0.0
 30
0.0
  9
$PUCSORGRIGHT
 10
0.0
 20
0.0
 30
0.0
  9
$PUCSORGFRONT
 10
0.0
 20
0.0
 30
0.0
  9
$PUCSORGBACK
 10
0.0
 20
0.0
 30
0.0
  9
$USERI1
 70
     0
  9
$USERI2
 70
     0
  9
$USERI3
 70
     0
  9
$USERI4
 70
     0
  9
$USERI5
 70
     0
  9
$USERR1
 40
0.0
  9
$USERR2
 40
0.0
  9
$USERR3
 40
0.0
  9
$USERR4
 40
0.0
  9
$USERR5
 40
0.0
  9
$WORLDVIEW
 70
     1
  9
$SHADEDGE
 70
     3
  9
$SHADEDIF
 70
    70
  9
$TILEMODE
 70
     1
  9
$MAXACTVP
 70
    64
  9
$PINSBASE
 10
0.0
 20
0.0
 30
0.0
  9
$PLIMCHECK
 70
     0
  9
$PEXTMIN
 10
1.000000000000000E+20
 20
1.000000000000000E+20
 30
1.000000000000000E+20
  9
$PEXTMAX
 10
-1.000000000000000E+20
 20
-1.000000000000000E+20
 30
-1.000000000000000E+20
  9
$PLIMMIN
 10
0.0
 20
0.0
  9
$PLIMMAX
 10
12.0
 20
9.0
  9
$UNITMODE
 70
     0
  9
$VISRETAIN
 70
     1
  9
$PLINEGEN
 70
     0
  9
$PSLTSCALE
 70
     1
  9
$TREEDEPTH
 70
  3020
  9
$CMLSTYLE
  2
Standard
  9
$CMLJUST
 70
     0
  9
$CMLSCALE
 40
1.0
  9
$PROXYGRAPHICS
 70
     1
  9
$MEASUREMENT
 70
     0
  9
$CELWEIGHT
370
    -1
  9
$ENDCAPS
280
     0
  9
$JOINSTYLE
280
     0
  9
$LWDISPLAY
290
     0
  9
$INSUNITS
 70
     0
  9
$HYPERLINKBASE
  1

  9
$STYLESHEET
  1

  9
$XEDIT
290
     1
  9
$CEPSNTYPE
380
     0
  9
$PSTYLEMODE
290
     1
  9
$FINGERPRINTGUID
  2
{7893C72E-E660-4A5E-991F-A89ADB151D62}
  9
$VERSIONGUID
  2
{D6FE5C38-38B0-4F2E-851A-5DA76F9176F5}
  9
$EXTNAMES
290
     1
  9
$PSVPSCALE
 40
0.0
  9
$OLESTARTUP
290
     0
  0
ENDSEC
  0
SECTION
  2
CLASSES
  0
CLASS
  1
ACDBDICTIONARYWDFLT
  2
AcDbDictionaryWithDefault
  3
AutoCAD 2000
 90
        0
280
     0
281
     0
  0
CLASS
  1
ACDBPLACEHOLDER
  2
AcDbPlaceHolder
  3
AutoCAD 2000
 90
        0
280
     0
281
     0
  0
CLASS
  1
LAYOUT
  2
AcDbLayout
  3
AutoCAD 2000
 90
        0
280
     0
281
     0
  0
ENDSEC
  0
SECTION
  2
TABLES
  0
TABLE
  2
VPORT
  5
8
330
0
100
AcDbSymbolTable
 70
     2
  0
VPORT
  5
32E
330
8
100
AcDbSymbolTableRecord
100
AcDbViewportTableRecord
  2
*Active
 70
     0
 10
0.0
 20
0.0
 11
1.0
 21
1.0
 12
-641.3517195155657
 22
-165.4199808369576
 13
0.0
 23
0.0
 14
1.0
 24
1.0
 15
0.0
 25
0.0
 16
0.0
 26
0.0
 36
1.0
 17
0.0
 27
0.0
 37
0.0
 40
288.0000008298084
 41
1.761278195488721
 42
50.0
 43
0.0
 44
0.0
 50
0.0
 51
0.0
 71
     0
 72
   100
 73
     1
 74
     1
 75
     0
 76
     0
 77
     0
 78
     0
281
     0
 65
     1
110
0.0
120
0.0
130
0.0
111
1.0
121
0.0
131
0.0
112
0.0
122
1.0
132
0.0
 79
     0
146
0.0
  0
ENDTAB
  0
TABLE
  2
LTYPE
  5
5
330
0
100
AcDbSymbolTable
 70
     1
  0
LTYPE
  5
13
330
5
100
AcDbSymbolTableRecord
100
AcDbLinetypeTableRecord
  2
ByBlock
 70
     0
  3

 72
    65
 73
     0
 40
0.0
  0
LTYPE
  5
14
330
5
100
AcDbSymbolTableRecord
100
AcDbLinetypeTableRecord
  2
ByLayer
 70
     0
  3

 72
    65
 73
     0
 40
0.0
  0
LTYPE
  5
15
330
5
100
AcDbSymbolTableRecord
100
AcDbLinetypeTableRecord
  2
CONTINUOUS
 70
     0
  3
Solid line
 72
    65
 73
     0
 40
0.0
  0
ENDTAB
  0
TABLE
  2
LAYER
  5
2
330
0
100
AcDbSymbolTable
 70
   128
  0
LAYER
  5
10
330
2
100
AcDbSymbolTableRecord
100
AcDbLayerTableRecord
  2
0
 70
     0
 62
     7
  6
CONTINUOUS
370
    -3
390
F
  0
LAYER
  5
22
330
2
100
AcDbSymbolTableRecord
100
AcDbLayerTableRecord
  2
1
 70
     0
 62
     7
  6
CONTINUOUS
370
    -3
390
F
  0
LAYER
  5
23
330
2
100
AcDbSymbolTableRecord
100
AcDbLayerTableRecord
  2
2
 70
     0
 62
     7
  6
CONTINUOUS
370
    -3
390
F
  0
LAYER
  5
24
330
2
100
AcDbSymbolTableRecord
100
AcDbLayerTableRecord
  2
3
 70
     0
 62
     7
  6
CONTINUOUS
370
    -3
390
F
  0
LAYER
  5
25
330
2
100
AcDbSymbolTableRecord
100
AcDbLayerTableRecord
  2
4
 70
     0
 62
     7
  6
CONTINUOUS
370
    -3
390
F
  0
LAYER
  5
26
330
2
100
AcDbSymbolTableRecord
100
AcDbLayerTableRecord
  2
5
 70
     0
 62
     7
  6
CONTINUOUS
370
    -3
390
F
  0
LAYER
  5
27
330
2
100
AcDbSymbolTableRecord
100
AcDbLayerTableRecord
  2
6
 70
     0
 62
     7
  6
CONTINUOUS
370
    -3
390
F
  0
LAYER
  5
28
330
2
100
AcDbSymbolTableRecord
100
AcDbLayerTableRecord
  2
7
 70
     0
 62
     7
  6
CONTINUOUS
370
    -3
390
F
  0
LAYER
  5
29
330
2
100
AcDbSymbolTableRecord
100
AcDbLayerTableRecord
  2
8
 70
     0
 62
     7
  6
CONTINUOUS
370
    -3
390
F
  0
LAYER
  5
2A
330
2
100
AcDbSymbolTableRecord
100
AcDbLayerTableRecord
  2
9
 70
     0
 62
     7
  6
CONTINUOUS
370
    -3
390
F
  0
LAYER
  5
2B
330
2
100
AcDbSymbolTableRecord
100
AcDbLayerTableRecord
  2
10
 70
     0
 62
     7
  6
CONTINUOUS
370
    -3
390
F
  0
LAYER
  5
2C
330
2
100
AcDbSymbolTableRecord
100
AcDbLayerTableRecord
  2
11
 70
     0
 62
     7
  6
CONTINUOUS
370
    -3
390
F
  0
LAYER
  5
2D
330
2
100
AcDbSymbolTableRecord
100
AcDbLayerTableRecord
  2
12
 70
     0
 62
     7
  6
CONTINUOUS
370
    -3
390
F
  0
LAYER
  5
2E
330
2
100
AcDbSymbolTableRecord
100
AcDbLayerTableRecord
  2
13
 70
     0
 62
     7
  6
CONTINUOUS
370
    -3
390
F
  0
LAYER
  5
2F
330
2
100
AcDbSymbolTableRecord
100
AcDbLayerTableRecord
  2
14
 70
     0
 62
     7
  6
CONTINUOUS
370
    -3
390
F
  0
LAYER
  5
30
330
2
100
AcDbSymbolTableRecord
100
AcDbLayerTableRecord
  2
15
 70
     0
 62
     7
  6
CONTINUOUS
370
    -3
390
F
  0
LAYER
  5
31
330
2
100
AcDbSymbolTableRecord
100
AcDbLayerTableRecord
  2
16
 70
     0
 62
     7
  6
CONTINUOUS
370
    -3
390
F
  0
LAYER
  5
32
330
2
100
AcDbSymbolTableRecord
100
AcDbLayerTableRecord
  2
17
 70
     0
 62
     7
  6
CONTINUOUS
370
    -3
390
F
  0
LAYER
  5
33
330
2
100
AcDbSymbolTableRecord
100
AcDbLayerTableRecord
  2
18
 70
     0
 62
     7
  6
CONTINUOUS
370
    -3
390
F
  0
LAYER
  5
34
330
2
100
AcDbSymbolTableRecord
100
AcDbLayerTableRecord
  2
19
 70
     0
 62
     7
  6
CONTINUOUS
370
    -3
390
F
  0
LAYER
  5
35
330
2
100
AcDbSymbolTableRecord
100
AcDbLayerTableRecord
  2
20
 70
     0
 62
     7
  6
CONTINUOUS
370
    -3
390
F
  0
LAYER
  5
36
330
2
100
AcDbSymbolTableRecord
100
AcDbLayerTableRecord
  2
21
 70
     0
 62
     7
  6
CONTINUOUS
370
    -3
390
F
  0
LAYER
  5
37
330
2
100
AcDbSymbolTableRecord
100
AcDbLayerTableRecord
  2
22
 70
     0
 62
     7
  6
CONTINUOUS
370
    -3
390
F
  0
LAYER
  5
38
330
2
100
AcDbSymbolTableRecord
100
AcDbLayerTableRecord
  2
23
 70
     0
 62
     7
  6
CONTINUOUS
370
    -3
390
F
  0
LAYER
  5
39
330
2
100
AcDbSymbolTableRecord
100
AcDbLayerTableRecord
  2
24
 70
     0
 62
     7
  6
CONTINUOUS
370
    -3
390
F
  0
LAYER
  5
3A
330
2
100
AcDbSymbolTableRecord
100
AcDbLayerTableRecord
  2
25
 70
     0
 62
     7
  6
CONTINUOUS
370
    -3
390
F
  0
LAYER
  5
3B
330
2
100
AcDbSymbolTableRecord
100
AcDbLayerTableRecord
  2
26
 70
     0
 62
     7
  6
CONTINUOUS
370
    -3
390
F
  0
LAYER
  5
3C
330
2
100
AcDbSymbolTableRecord
100
AcDbLayerTableRecord
  2
27
 70
     0
 62
     7
  6
CONTINUOUS
370
    -3
390
F
  0
LAYER
  5
3D
330
2
100
AcDbSymbolTableRecord
100
AcDbLayerTableRecord
  2
28
 70
     0
 62
     7
  6
CONTINUOUS
370
    -3
390
F
  0
LAYER
  5
3E
330
2
100
AcDbSymbolTableRecord
100
AcDbLayerTableRecord
  2
29
 70
     0
 62
     7
  6
CONTINUOUS
370
    -3
390
F
  0
LAYER
  5
3F
330
2
100
AcDbSymbolTableRecord
100
AcDbLayerTableRecord
  2
30
 70
     0
 62
     7
  6
CONTINUOUS
370
    -3
390
F
  0
LAYER
  5
40
330
2
100
AcDbSymbolTableRecord
100
AcDbLayerTableRecord
  2
31
 70
     0
 62
     7
  6
CONTINUOUS
370
    -3
390
F
  0
LAYER
  5
41
330
2
100
AcDbSymbolTableRecord
100
AcDbLayerTableRecord
  2
32
 70
     0
 62
     7
  6
CONTINUOUS
370
    -3
390
F
  0
LAYER
  5
42
330
2
100
AcDbSymbolTableRecord
100
AcDbLayerTableRecord
  2
33
 70
     0
 62
     7
  6
CONTINUOUS
370
    -3
390
F
  0
LAYER
  5
43
330
2
100
AcDbSymbolTableRecord
100
AcDbLayerTableRecord
  2
34
 70
     0
 62
     7
  6
CONTINUOUS
370
    -3
390
F
  0
LAYER
  5
44
330
2
100
AcDbSymbolTableRecord
100
AcDbLayerTableRecord
  2
35
 70
     0
 62
     7
  6
CONTINUOUS
370
    -3
390
F
  0
LAYER
  5
45
330
2
100
AcDbSymbolTableRecord
100
AcDbLayerTableRecord
  2
36
 70
     0
 62
     7
  6
CONTINUOUS
370
    -3
390
F
  0
LAYER
  5
46
330
2
100
AcDbSymbolTableRecord
100
AcDbLayerTableRecord
  2
37
 70
     0
 62
     7
  6
CONTINUOUS
370
    -3
390
F
  0
LAYER
  5
47
330
2
100
AcDbSymbolTableRecord
100
AcDbLayerTableRecord
  2
38
 70
     0
 62
     7
  6
CONTINUOUS
370
    -3
390
F
  0
LAYER
  5
48
330
2
100
AcDbSymbolTableRecord
100
AcDbLayerTableRecord
  2
39
 70
     0
 62
     7
  6
CONTINUOUS
370
    -3
390
F
  0
LAYER
  5
49
330
2
100
AcDbSymbolTableRecord
100
AcDbLayerTableRecord
  2
40
 70
     0
 62
     7
  6
CONTINUOUS
370
    -3
390
F
  0
LAYER
  5
4A
330
2
100
AcDbSymbolTableRecord
100
AcDbLayerTableRecord
  2
41
 70
     0
 62
     7
  6
CONTINUOUS
370
    -3
390
F
  0
LAYER
  5
4B
330
2
100
AcDbSymbolTableRecord
100
AcDbLayerTableRecord
  2
42
 70
     0
 62
     7
  6
CONTINUOUS
370
    -3
390
F
  0
LAYER
  5
4C
330
2
100
AcDbSymbolTableRecord
100
AcDbLayerTableRecord
  2
43
 70
     0
 62
     7
  6
CONTINUOUS
370
    -3
390
F
  0
LAYER
  5
4D
330
2
100
AcDbSymbolTableRecord
100
AcDbLayerTableRecord
  2
44
 70
     0
 62
     7
  6
CONTINUOUS
370
    -3
390
F
  0
LAYER
  5
4E
330
2
100
AcDbSymbolTableRecord
100
AcDbLayerTableRecord
  2
45
 70
     0
 62
     7
  6
CONTINUOUS
370
    -3
390
F
  0
LAYER
  5
4F
330
2
100
AcDbSymbolTableRecord
100
AcDbLayerTableRecord
  2
46
 70
     0
 62
     7
  6
CONTINUOUS
370
    -3
390
F
  0
LAYER
  5
50
330
2
100
AcDbSymbolTableRecord
100
AcDbLayerTableRecord
  2
47
 70
     0
 62
     7
  6
CONTINUOUS
370
    -3
390
F
  0
LAYER
  5
51
330
2
100
AcDbSymbolTableRecord
100
AcDbLayerTableRecord
  2
48
 70
     0
 62
     7
  6
CONTINUOUS
370
    -3
390
F
  0
LAYER
  5
52
330
2
100
AcDbSymbolTableRecord
100
AcDbLayerTableRecord
  2
49
 70
     0
 62
     7
  6
CONTINUOUS
370
    -3
390
F
  0
LAYER
  5
53
330
2
100
AcDbSymbolTableRecord
100
AcDbLayerTableRecord
  2
50
 70
     0
 62
     7
  6
CONTINUOUS
370
    -3
390
F
  0
LAYER
  5
54
330
2
100
AcDbSymbolTableRecord
100
AcDbLayerTableRecord
  2
51
 70
     0
 62
     7
  6
CONTINUOUS
370
    -3
390
F
  0
LAYER
  5
55
330
2
100
AcDbSymbolTableRecord
100
AcDbLayerTableRecord
  2
52
 70
     0
 62
     7
  6
CONTINUOUS
370
    -3
390
F
  0
LAYER
  5
56
330
2
100
AcDbSymbolTableRecord
100
AcDbLayerTableRecord
  2
53
 70
     0
 62
     7
  6
CONTINUOUS
370
    -3
390
F
  0
LAYER
  5
57
330
2
100
AcDbSymbolTableRecord
100
AcDbLayerTableRecord
  2
54
 70
     0
 62
     7
  6
CONTINUOUS
370
    -3
390
F
  0
LAYER
  5
58
330
2
100
AcDbSymbolTableRecord
100
AcDbLayerTableRecord
  2
55
 70
     0
 62
     7
  6
CONTINUOUS
370
    -3
390
F
  0
LAYER
  5
59
330
2
100
AcDbSymbolTableRecord
100
AcDbLayerTableRecord
  2
56
 70
     0
 62
     7
  6
CONTINUOUS
370
    -3
390
F
  0
LAYER
  5
5A
330
2
100
AcDbSymbolTableRecord
100
AcDbLayerTableRecord
  2
57
 70
     0
 62
     7
  6
CONTINUOUS
370
    -3
390
F
  0
LAYER
  5
5B
330
2
100
AcDbSymbolTableRecord
100
AcDbLayerTableRecord
  2
58
 70
     0
 62
     7
  6
CONTINUOUS
370
    -3
390
F
  0
LAYER
  5
5C
330
2
100
AcDbSymbolTableRecord
100
AcDbLayerTableRecord
  2
59
 70
     0
 62
     7
  6
CONTINUOUS
370
    -3
390
F
  0
LAYER
  5
5D
330
2
100
AcDbSymbolTableRecord
100
AcDbLayerTableRecord
  2
60
 70
     0
 62
     7
  6
CONTINUOUS
370
    -3
390
F
  0
LAYER
  5
5E
330
2
100
AcDbSymbolTableRecord
100
AcDbLayerTableRecord
  2
61
 70
     0
 62
     7
  6
CONTINUOUS
370
    -3
390
F
  0
LAYER
  5
5F
330
2
100
AcDbSymbolTableRecord
100
AcDbLayerTableRecord
  2
62
 70
     0
 62
     7
  6
CONTINUOUS
370
    -3
390
F
  0
LAYER
  5
60
330
2
100
AcDbSymbolTableRecord
100
AcDbLayerTableRecord
  2
63
 70
     0
 62
     7
  6
CONTINUOUS
370
    -3
390
F
  0
LAYER
  5
61
330
2
100
AcDbSymbolTableRecord
100
AcDbLayerTableRecord
  2
64
 70
     0
 62
     7
  6
CONTINUOUS
370
    -3
390
F
  0
LAYER
  5
62
330
2
100
AcDbSymbolTableRecord
100
AcDbLayerTableRecord
  2
65
 70
     0
 62
     7
  6
CONTINUOUS
370
    -3
390
F
  0
LAYER
  5
63
330
2
100
AcDbSymbolTableRecord
100
AcDbLayerTableRecord
  2
66
 70
     0
 62
     7
  6
CONTINUOUS
370
    -3
390
F
  0
LAYER
  5
64
330
2
100
AcDbSymbolTableRecord
100
AcDbLayerTableRecord
  2
67
 70
     0
 62
     7
  6
CONTINUOUS
370
    -3
390
F
  0
LAYER
  5
65
330
2
100
AcDbSymbolTableRecord
100
AcDbLayerTableRecord
  2
68
 70
     0
 62
     7
  6
CONTINUOUS
370
    -3
390
F
  0
LAYER
  5
66
330
2
100
AcDbSymbolTableRecord
100
AcDbLayerTableRecord
  2
69
 70
     0
 62
     7
  6
CONTINUOUS
370
    -3
390
F
  0
LAYER
  5
67
330
2
100
AcDbSymbolTableRecord
100
AcDbLayerTableRecord
  2
70
 70
     0
 62
     7
  6
CONTINUOUS
370
    -3
390
F
  0
LAYER
  5
68
330
2
100
AcDbSymbolTableRecord
100
AcDbLayerTableRecord
  2
71
 70
     0
 62
     7
  6
CONTINUOUS
370
    -3
390
F
  0
LAYER
  5
69
330
2
100
AcDbSymbolTableRecord
100
AcDbLayerTableRecord
  2
72
 70
     0
 62
     7
  6
CONTINUOUS
370
    -3
390
F
  0
LAYER
  5
6A
330
2
100
AcDbSymbolTableRecord
100
AcDbLayerTableRecord
  2
73
 70
     0
 62
     7
  6
CONTINUOUS
370
    -3
390
F
  0
LAYER
  5
6B
330
2
100
AcDbSymbolTableRecord
100
AcDbLayerTableRecord
  2
74
 70
     0
 62
     7
  6
CONTINUOUS
370
    -3
390
F
  0
LAYER
  5
6C
330
2
100
AcDbSymbolTableRecord
100
AcDbLayerTableRecord
  2
75
 70
     0
 62
     7
  6
CONTINUOUS
370
    -3
390
F
  0
LAYER
  5
6D
330
2
100
AcDbSymbolTableRecord
100
AcDbLayerTableRecord
  2
76
 70
     0
 62
     7
  6
CONTINUOUS
370
    -3
390
F
  0
LAYER
  5
6E
330
2
100
AcDbSymbolTableRecord
100
AcDbLayerTableRecord
  2
77
 70
     0
 62
     7
  6
CONTINUOUS
370
    -3
390
F
  0
LAYER
  5
6F
330
2
100
AcDbSymbolTableRecord
100
AcDbLayerTableRecord
  2
78
 70
     0
 62
     7
  6
CONTINUOUS
370
    -3
390
F
  0
LAYER
  5
70
330
2
100
AcDbSymbolTableRecord
100
AcDbLayerTableRecord
  2
79
 70
     0
 62
     7
  6
CONTINUOUS
370
    -3
390
F
  0
LAYER
  5
71
330
2
100
AcDbSymbolTableRecord
100
AcDbLayerTableRecord
  2
80
 70
     0
 62
     7
  6
CONTINUOUS
370
    -3
390
F
  0
LAYER
  5
72
330
2
100
AcDbSymbolTableRecord
100
AcDbLayerTableRecord
  2
81
 70
     0
 62
     7
  6
CONTINUOUS
370
    -3
390
F
  0
LAYER
  5
73
330
2
100
AcDbSymbolTableRecord
100
AcDbLayerTableRecord
  2
82
 70
     0
 62
     7
  6
CONTINUOUS
370
    -3
390
F
  0
LAYER
  5
74
330
2
100
AcDbSymbolTableRecord
100
AcDbLayerTableRecord
  2
83
 70
     0
 62
     7
  6
CONTINUOUS
370
    -3
390
F
  0
LAYER
  5
75
330
2
100
AcDbSymbolTableRecord
100
AcDbLayerTableRecord
  2
84
 70
     0
 62
     7
  6
CONTINUOUS
370
    -3
390
F
  0
LAYER
  5
76
330
2
100
AcDbSymbolTableRecord
100
AcDbLayerTableRecord
  2
85
 70
     0
 62
     7
  6
CONTINUOUS
370
    -3
390
F
  0
LAYER
  5
77
330
2
100
AcDbSymbolTableRecord
100
AcDbLayerTableRecord
  2
86
 70
     0
 62
     7
  6
CONTINUOUS
370
    -3
390
F
  0
LAYER
  5
78
330
2
100
AcDbSymbolTableRecord
100
AcDbLayerTableRecord
  2
87
 70
     0
 62
     7
  6
CONTINUOUS
370
    -3
390
F
  0
LAYER
  5
79
330
2
100
AcDbSymbolTableRecord
100
AcDbLayerTableRecord
  2
88
 70
     0
 62
     7
  6
CONTINUOUS
370
    -3
390
F
  0
LAYER
  5
7A
330
2
100
AcDbSymbolTableRecord
100
AcDbLayerTableRecord
  2
89
 70
     0
 62
     7
  6
CONTINUOUS
370
    -3
390
F
  0
LAYER
  5
7B
330
2
100
AcDbSymbolTableRecord
100
AcDbLayerTableRecord
  2
90
 70
     0
 62
     7
  6
CONTINUOUS
370
    -3
390
F
  0
LAYER
  5
7C
330
2
100
AcDbSymbolTableRecord
100
AcDbLayerTableRecord
  2
91
 70
     0
 62
     7
  6
CONTINUOUS
370
    -3
390
F
  0
LAYER
  5
7D
330
2
100
AcDbSymbolTableRecord
100
AcDbLayerTableRecord
  2
92
 70
     0
 62
     7
  6
CONTINUOUS
370
    -3
390
F
  0
LAYER
  5
7E
330
2
100
AcDbSymbolTableRecord
100
AcDbLayerTableRecord
  2
93
 70
     0
 62
     7
  6
CONTINUOUS
370
    -3
390
F
  0
LAYER
  5
7F
330
2
100
AcDbSymbolTableRecord
100
AcDbLayerTableRecord
  2
94
 70
     0
 62
     7
  6
CONTINUOUS
370
    -3
390
F
  0
LAYER
  5
80
330
2
100
AcDbSymbolTableRecord
100
AcDbLayerTableRecord
  2
95
 70
     0
 62
     7
  6
CONTINUOUS
370
    -3
390
F
  0
LAYER
  5
81
330
2
100
AcDbSymbolTableRecord
100
AcDbLayerTableRecord
  2
96
 70
     0
 62
     7
  6
CONTINUOUS
370
    -3
390
F
  0
LAYER
  5
82
330
2
100
AcDbSymbolTableRecord
100
AcDbLayerTableRecord
  2
97
 70
     0
 62
     7
  6
CONTINUOUS
370
    -3
390
F
  0
LAYER
  5
83
330
2
100
AcDbSymbolTableRecord
100
AcDbLayerTableRecord
  2
98
 70
     0
 62
     7
  6
CONTINUOUS
370
    -3
390
F
  0
LAYER
  5
84
330
2
100
AcDbSymbolTableRecord
100
AcDbLayerTableRecord
  2
99
 70
     0
 62
     7
  6
CONTINUOUS
370
    -3
390
F
  0
LAYER
  5
85
330
2
100
AcDbSymbolTableRecord
100
AcDbLayerTableRecord
  2
100
 70
     0
 62
     7
  6
CONTINUOUS
370
    -3
390
F
  0
LAYER
  5
86
330
2
100
AcDbSymbolTableRecord
100
AcDbLayerTableRecord
  2
101
 70
     0
 62
     7
  6
CONTINUOUS
370
    -3
390
F
  0
LAYER
  5
87
330
2
100
AcDbSymbolTableRecord
100
AcDbLayerTableRecord
  2
102
 70
     0
 62
     7
  6
CONTINUOUS
370
    -3
390
F
  0
LAYER
  5
88
330
2
100
AcDbSymbolTableRecord
100
AcDbLayerTableRecord
  2
103
 70
     0
 62
     7
  6
CONTINUOUS
370
    -3
390
F
  0
LAYER
  5
89
330
2
100
AcDbSymbolTableRecord
100
AcDbLayerTableRecord
  2
104
 70
     0
 62
     7
  6
CONTINUOUS
370
    -3
390
F
  0
LAYER
  5
8A
330
2
100
AcDbSymbolTableRecord
100
AcDbLayerTableRecord
  2
105
 70
     0
 62
     7
  6
CONTINUOUS
370
    -3
390
F
  0
LAYER
  5
8B
330
2
100
AcDbSymbolTableRecord
100
AcDbLayerTableRecord
  2
106
 70
     0
 62
     7
  6
CONTINUOUS
370
    -3
390
F
  0
LAYER
  5
8C
330
2
100
AcDbSymbolTableRecord
100
AcDbLayerTableRecord
  2
107
 70
     0
 62
     7
  6
CONTINUOUS
370
    -3
390
F
  0
LAYER
  5
8D
330
2
100
AcDbSymbolTableRecord
100
AcDbLayerTableRecord
  2
108
 70
     0
 62
     7
  6
CONTINUOUS
370
    -3
390
F
  0
LAYER
  5
8E
330
2
100
AcDbSymbolTableRecord
100
AcDbLayerTableRecord
  2
109
 70
     0
 62
     7
  6
CONTINUOUS
370
    -3
390
F
  0
LAYER
  5
8F
330
2
100
AcDbSymbolTableRecord
100
AcDbLayerTableRecord
  2
110
 70
     0
 62
     7
  6
CONTINUOUS
370
    -3
390
F
  0
LAYER
  5
90
330
2
100
AcDbSymbolTableRecord
100
AcDbLayerTableRecord
  2
111
 70
     0
 62
     7
  6
CONTINUOUS
370
    -3
390
F
  0
LAYER
  5
91
330
2
100
AcDbSymbolTableRecord
100
AcDbLayerTableRecord
  2
112
 70
     0
 62
     7
  6
CONTINUOUS
370
    -3
390
F
  0
LAYER
  5
92
330
2
100
AcDbSymbolTableRecord
100
AcDbLayerTableRecord
  2
113
 70
     0
 62
     7
  6
CONTINUOUS
370
    -3
390
F
  0
LAYER
  5
93
330
2
100
AcDbSymbolTableRecord
100
AcDbLayerTableRecord
  2
114
 70
     0
 62
     7
  6
CONTINUOUS
370
    -3
390
F
  0
LAYER
  5
94
330
2
100
AcDbSymbolTableRecord
100
AcDbLayerTableRecord
  2
115
 70
     0
 62
     7
  6
CONTINUOUS
370
    -3
390
F
  0
LAYER
  5
95
330
2
100
AcDbSymbolTableRecord
100
AcDbLayerTableRecord
  2
116
 70
     0
 62
     7
  6
CONTINUOUS
370
    -3
390
F
  0
LAYER
  5
96
330
2
100
AcDbSymbolTableRecord
100
AcDbLayerTableRecord
  2
117
 70
     0
 62
     7
  6
CONTINUOUS
370
    -3
390
F
  0
LAYER
  5
97
330
2
100
AcDbSymbolTableRecord
100
AcDbLayerTableRecord
  2
118
 70
     0
 62
     7
  6
CONTINUOUS
370
    -3
390
F
  0
LAYER
  5
98
330
2
100
AcDbSymbolTableRecord
100
AcDbLayerTableRecord
  2
119
 70
     0
 62
     7
  6
CONTINUOUS
370
    -3
390
F
  0
LAYER
  5
99
330
2
100
AcDbSymbolTableRecord
100
AcDbLayerTableRecord
  2
120
 70
     0
 62
     7
  6
CONTINUOUS
370
    -3
390
F
  0
LAYER
  5
9A
330
2
100
AcDbSymbolTableRecord
100
AcDbLayerTableRecord
  2
121
 70
     0
 62
     7
  6
CONTINUOUS
370
    -3
390
F
  0
LAYER
  5
9B
330
2
100
AcDbSymbolTableRecord
100
AcDbLayerTableRecord
  2
122
 70
     0
 62
     7
  6
CONTINUOUS
370
    -3
390
F
  0
LAYER
  5
9C
330
2
100
AcDbSymbolTableRecord
100
AcDbLayerTableRecord
  2
123
 70
     0
 62
     7
  6
CONTINUOUS
370
    -3
390
F
  0
LAYER
  5
9D
330
2
100
AcDbSymbolTableRecord
100
AcDbLayerTableRecord
  2
124
 70
     0
 62
     7
  6
CONTINUOUS
370
    -3
390
F
  0
LAYER
  5
9E
330
2
100
AcDbSymbolTableRecord
100
AcDbLayerTableRecord
  2
125
 70
     0
 62
     7
  6
CONTINUOUS
370
    -3
390
F
  0
LAYER
  5
9F
330
2
100
AcDbSymbolTableRecord
100
AcDbLayerTableRecord
  2
126
 70
     0
 62
     7
  6
CONTINUOUS
370
    -3
390
F
  0
LAYER
  5
A0
330
2
100
AcDbSymbolTableRecord
100
AcDbLayerTableRecord
  2
127
 70
     0
 62
     7
  6
CONTINUOUS
370
    -3
390
F
  0
ENDTAB
  0
TABLE
  2
STYLE
  5
3
330
0
100
AcDbSymbolTable
 70
     4
  0
STYLE
  5
11
330
3
100
AcDbSymbolTableRecord
100
AcDbTextStyleTableRecord
  2
STANDARD
 70
     0
 40
0.0
 41
1.0
 50
0.0
 71
     0
 42
0.2
  3
txt
  4

  0
STYLE
  5
A1
330
3
100
AcDbSymbolTableRecord
100
AcDbTextStyleTableRecord
  2
KANJI0
 70
     0
 40
4.355999999999998
 41
0.88
 50
0.0
 71
     0
 42
4.355999999999998
  3

  4
bigfont
  0
STYLE
  5
A2
330
3
100
AcDbSymbolTableRecord
100
AcDbTextStyleTableRecord
  2
KANJI1
 70
     0
 40
2.6
 41
1.0
 50
0.0
 71
     0
 42
2.6
  3

  4
bigfont
  0
STYLE
  5
A3
330
3
100
AcDbSymbolTableRecord
100
AcDbTextStyleTableRecord
  2
KANJI2
 70
     0
 40
3.0
 41
0.6
 50
0.0
 71
     0
 42
3.0
  3

  4
bigfont
  0
ENDTAB
  0
TABLE
  2
VIEW
  5
6
330
0
100
AcDbSymbolTable
 70
     0
  0
ENDTAB
  0
TABLE
  2
UCS
  5
7
330
0
100
AcDbSymbolTable
 70
     0
  0
ENDTAB
  0
TABLE
  2
APPID
  5
9
330
0
100
AcDbSymbolTable
 70
     1
  0
APPID
  5
12
330
9
100
AcDbSymbolTableRecord
100
AcDbRegAppTableRecord
  2
ACAD
 70
     0
  0
ENDTAB
  0
TABLE
  2
DIMSTYLE
  5
A
330
0
100
AcDbSymbolTable
 70
     1
100
AcDbDimStyleTable
 71
     0
  0
DIMSTYLE
105
326
330
A
100
AcDbSymbolTableRecord
100
AcDbDimStyleTableRecord
  2
Standard
 70
     0
340
11
  0
ENDTAB
  0
TABLE
  2
BLOCK_RECORD
  5
1
330
0
100
AcDbSymbolTable
 70
     0
  0
BLOCK_RECORD
  5
1E
330
1
100
AcDbSymbolTableRecord
100
AcDbBlockTableRecord
  2
*Model_Space
340
21
  0
BLOCK_RECORD
  5
1A
330
1
100
AcDbSymbolTableRecord
100
AcDbBlockTableRecord
  2
*Paper_Space
340
1D
  0
ENDTAB
  0
ENDSEC
  0
SECTION
  2
BLOCKS
  0
BLOCK
  5
1F
330
1E
100
AcDbEntity
  8
0
100
AcDbBlockBegin
  2
*Model_Space
 70
     0
 10
0.0
 20
0.0
 30
0.0
  3
*Model_Space
  1

  0
ENDBLK
  5
20
330
1E
100
AcDbEntity
  8
0
100
AcDbBlockEnd
  0
BLOCK
  5
1B
330
1A
100
AcDbEntity
 67
     1
  8
0
100
AcDbBlockBegin
  2
*Paper_Space
 70
     0
 10
0.0
 20
0.0
 30
0.0
  3
*Paper_Space
  1

  0
ENDBLK
  5
1C
330
1A
100
AcDbEntity
 67
     1
  8
0
100
AcDbBlockEnd
  0
ENDSEC
  0
SECTION
  2
ENTITIES
  0
POINT
  5
A7
330
1E
100
AcDbEntity
  8
0
  6
Continuous
 62
     3
100
AcDbPoint
 10
-693.6097318312842
 20
-203.3878019018939
 30
0.0
  0
LINE
  5
A8
330
1E
100
AcDbEntity
  8
0
  6
Continuous
 62
     3
100
AcDbLine
 10
-604.6097318312844
 20
-204.187801900894
 30
0.0
 11
-609.6097318312843
 21
-204.187801900894
 31
0.0
  0
LINE
  5
A9
330
1E
100
AcDbEntity
  8
0
  6
Continuous
 62
     3
100
AcDbLine
 10
-609.6097318312843
 20
-205.387801900894
 30
0.0
 11
-609.6097318312843
 21
-204.187801900894
 31
0.0
  0
LINE
  5
AA
330
1E
100
AcDbEntity
  8
0
  6
Continuous
 62
     3
100
AcDbLine
 10
-628.9097318312845
 20
-206.587801901894
 30
0.0
 11
-628.9097318312845
 21
-205.3878019018939
 31
0.0
  0
ARC
  5
AB
330
1E
100
AcDbEntity
  8
0
  6
Continuous
 62
     3
100
AcDbCircle
 10
-626.6097318312844
 20
-206.587801900894
 30
0.0
 40
2.299999999999998
100
AcDbArc
 50
179.9999999989998
 51
270.0
  0
LINE
  5
AC
330
1E
100
AcDbEntity
  8
0
  6
Continuous
 62
     3
100
AcDbLine
 10
-621.9097318312845
 20
-205.387801900894
 30
0.0
 11
-621.9097318312845
 21
-206.587801900894
 31
0.0
  0
LINE
  5
AD
330
1E
100
AcDbEntity
  8
0
  6
Continuous
 62
     3
100
AcDbLine
 10
-626.6097318312844
 20
-208.8878019008939
 30
0.0
 11
-624.2097318312844
 21
-208.8878019008939
 31
0.0
  0
ARC
  5
AE
330
1E
100
AcDbEntity
  8
0
  6
Continuous
 62
     3
100
AcDbCircle
 10
-624.2097318312844
 20
-206.587801900894
 30
0.0
 40
2.299999999999998
100
AcDbArc
 50
270.0
 51
0.0
  0
ARC
  5
AF
330
1E
100
AcDbEntity
  8
0
  6
Continuous
 62
     3
100
AcDbCircle
 10
-626.6097318322843
 20
-132.1878019008939
 30
0.0
 40
2.299999999999998
100
AcDbArc
 50
90.0
 51
180.0000000009999
  0
LINE
  5
B0
330
1E
100
AcDbEntity
  8
0
  6
Continuous
 62
     3
100
AcDbLine
 10
-628.9097318322845
 20
-132.187801901894
 30
0.0
 11
-628.9097318322845
 21
-133.3878019018939
 31
0.0
  0
LINE
  5
B1
330
1E
100
AcDbEntity
  8
0
  6
Continuous
 62
     3
100
AcDbLine
 10
-621.9097318322845
 20
-133.387801900894
 30
0.0
 11
-621.9097318322845
 21
-132.1878019008939
 31
0.0
  0
ARC
  5
B2
330
1E
100
AcDbEntity
  8
0
  6
Continuous
 62
     3
100
AcDbCircle
 10
-624.2097318322844
 20
-132.1878019008939
 30
0.0
 40
2.299999999999998
100
AcDbArc
 50
0.0
 51
90.0
  0
LINE
  5
B3
330
1E
100
AcDbEntity
  8
0
  6
Continuous
 62
     3
100
AcDbLine
 10
-626.6097318322843
 20
-129.887801900894
 30
0.0
 11
-624.2097318322844
 21
-129.887801900894
 31
0.0
  0
LINE
  5
B4
330
1E
100
AcDbEntity
  8
0
  6
Continuous
 62
     3
100
AcDbLine
 10
-604.6097318312844
 20
-204.187801903894
 30
0.0
 11
-604.6097318312844
 21
-205.387801900894
 31
0.0
  0
LINE
  5
B5
330
1E
100
AcDbEntity
  8
0
  6
Continuous
 62
     3
100
AcDbLine
 10
-609.6097318342843
 20
-205.387801900894
 30
0.0
 11
-604.6097318342845
 21
-205.387801900894
 31
0.0
  0
LINE
  5
B6
330
1E
100
AcDbEntity
  8
0
  6
Continuous
 62
     3
100
AcDbLine
 10
-609.6097318352843
 20
-134.587801899894
 30
0.0
 11
-604.6097318352845
 21
-134.587801899894
 31
0.0
  0
LINE
  5
B7
330
1E
100
AcDbEntity
  8
0
  6
Continuous
 62
     3
100
AcDbLine
 10
-604.6097318352845
 20
-133.387801899894
 30
0.0
 11
-604.6097318352845
 21
-134.587801899894
 31
0.0
  0
LINE
  5
B8
330
1E
100
AcDbEntity
  8
0
  6
Continuous
 62
     3
100
AcDbLine
 10
-609.6097318352843
 20
-134.587801896894
 30
0.0
 11
-609.6097318352843
 21
-133.387801899894
 31
0.0
  0
LINE
  5
B9
330
1E
100
AcDbEntity
  8
0
  6
Continuous
 62
     3
100
AcDbLine
 10
-617.6097318322844
 20
-133.387801900894
 30
0.0
 11
-621.9097318322845
 21
-133.387801900894
 31
0.0
  0
LINE
  5
BA
330
1E
100
AcDbEntity
  8
0
  6
Continuous
 62
     3
100
AcDbLine
 10
-609.6097318342843
 20
-205.387801900894
 30
0.0
 11
-609.6097318312843
 21
-205.387801900894
 31
0.0
  0
LINE
  5
BB
330
1E
100
AcDbEntity
  8
0
  6
Continuous
 62
     3
100
AcDbLine
 10
-611.1097318332845
 20
-190.637801900894
 30
0.0
 11
-676.6097318332845
 21
-190.637801898894
 31
0.0
  0
LINE
  5
BC
330
1E
100
AcDbEntity
  8
0
  6
Continuous
 62
     3
100
AcDbLine
 10
-676.6097318332845
 20
-190.637801898894
 30
0.0
 11
-676.6097318322843
 21
-148.137801898894
 31
0.0
  0
LINE
  5
BD
330
1E
100
AcDbEntity
  8
0
  6
Continuous
 62
     3
100
AcDbLine
 10
-676.6097318322843
 20
-148.137801898894
 30
0.0
 11
-611.1097318322844
 21
-148.137801900894
 31
0.0
  0
LINE
  5
BE
330
1E
100
AcDbEntity
  8
0
  6
Continuous
 62
     3
100
AcDbLine
 10
-611.1097318322844
 20
-148.137801900894
 30
0.0
 11
-611.1097318332845
 21
-190.637801900894
 31
0.0
  0
LINE
  5
BF
330
1E
100
AcDbEntity
  8
0
  6
Continuous
 62
     3
100
AcDbLine
 10
-612.4097318262844
 20
-133.387801906894
 30
0.0
 11
-612.4097318272844
 21
-139.3878019068939
 31
0.0
  0
LINE
  5
C0
330
1E
100
AcDbEntity
  8
0
  6
Continuous
 62
     3
100
AcDbLine
 10
-612.4097318272844
 20
-139.3878019068939
 30
0.0
 11
-614.4097318272842
 21
-139.3878019068939
 31
0.0
  0
LINE
  5
C1
330
1E
100
AcDbEntity
  8
0
  6
Continuous
 62
     3
100
AcDbLine
 10
-614.4097318272842
 20
-139.3878019068939
 30
0.0
 11
-614.4097318262842
 21
-133.387801906894
 31
0.0
  0
LINE
  5
C2
330
1E
100
AcDbEntity
  8
0
  6
Continuous
 62
     3
100
AcDbLine
 10
-618.7097318262845
 20
-133.3878019058939
 30
0.0
 11
-618.7097318272845
 21
-139.3878019058939
 31
0.0
  0
LINE
  5
C3
330
1E
100
AcDbEntity
  8
0
  6
Continuous
 62
     3
100
AcDbLine
 10
-618.7097318272845
 20
-139.3878019058939
 30
0.0
 11
-620.7097318272843
 21
-139.3878019058939
 31
0.0
  0
LINE
  5
C4
330
1E
100
AcDbEntity
  8
0
  6
Continuous
 62
     3
100
AcDbLine
 10
-620.7097318272843
 20
-139.3878019058939
 30
0.0
 11
-620.7097318262845
 21
-133.3878019058939
 31
0.0
  0
LINE
  5
C5
330
1E
100
AcDbEntity
  8
0
  6
Continuous
 62
     3
100
AcDbLine
 10
-630.9097318262844
 20
-133.387801904894
 30
0.0
 11
-630.9097318272844
 21
-139.387801904894
 31
0.0
  0
LINE
  5
C6
330
1E
100
AcDbEntity
  8
0
  6
Continuous
 62
     3
100
AcDbLine
 10
-630.9097318272844
 20
-139.387801904894
 30
0.0
 11
-632.9097318272844
 21
-139.387801904894
 31
0.0
  0
LINE
  5
C7
330
1E
100
AcDbEntity
  8
0
  6
Continuous
 62
     3
100
AcDbLine
 10
-632.9097318272844
 20
-139.387801904894
 30
0.0
 11
-632.9097318262844
 21
-133.387801904894
 31
0.0
  0
LINE
  5
C8
330
1E
100
AcDbEntity
  8
0
  6
Continuous
 62
     3
100
AcDbLine
 10
-670.9097318262844
 20
-133.3878019018939
 30
0.0
 11
-670.9097318272844
 21
-139.3878019018939
 31
0.0
  0
LINE
  5
C9
330
1E
100
AcDbEntity
  8
0
  6
Continuous
 62
     3
100
AcDbLine
 10
-670.9097318272844
 20
-139.3878019018939
 30
0.0
 11
-672.9097318272842
 21
-139.3878019018939
 31
0.0
  0
LINE
  5
CA
330
1E
100
AcDbEntity
  8
0
  6
Continuous
 62
     3
100
AcDbLine
 10
-672.9097318272842
 20
-139.3878019018939
 30
0.0
 11
-672.9097318262844
 21
-133.3878019018939
 31
0.0
  0
LINE
  5
CB
330
1E
100
AcDbEntity
  8
0
  6
Continuous
 62
     3
100
AcDbLine
 10
-668.9097318262844
 20
-133.387801902894
 30
0.0
 11
-668.9097318272842
 21
-139.387801902894
 31
0.0
  0
LINE
  5
CC
330
1E
100
AcDbEntity
  8
0
  6
Continuous
 62
     3
100
AcDbLine
 10
-668.9097318272842
 20
-139.387801902894
 30
0.0
 11
-666.9097318272844
 21
-139.387801902894
 31
0.0
  0
LINE
  5
CD
330
1E
100
AcDbEntity
  8
0
  6
Continuous
 62
     3
100
AcDbLine
 10
-666.9097318272844
 20
-139.387801902894
 30
0.0
 11
-666.9097318262844
 21
-133.387801902894
 31
0.0
  0
LINE
  5
CE
330
1E
100
AcDbEntity
  8
0
  6
Continuous
 62
     3
100
AcDbLine
 10
-664.9097318262844
 20
-133.387801902894
 30
0.0
 11
-664.9097318272842
 21
-139.387801902894
 31
0.0
  0
LINE
  5
CF
330
1E
100
AcDbEntity
  8
0
  6
Continuous
 62
     3
100
AcDbLine
 10
-664.9097318272842
 20
-139.387801902894
 30
0.0
 11
-662.9097318272844
 21
-139.387801902894
 31
0.0
  0
LINE
  5
D0
330
1E
100
AcDbEntity
  8
0
  6
Continuous
 62
     3
100
AcDbLine
 10
-662.9097318272844
 20
-139.387801902894
 30
0.0
 11
-662.9097318262844
 21
-133.387801902894
 31
0.0
  0
LINE
  5
D1
330
1E
100
AcDbEntity
  8
0
  6
Continuous
 62
     3
100
AcDbLine
 10
-660.9097318262844
 20
-133.387801902894
 30
0.0
 11
-660.9097318272844
 21
-139.387801902894
 31
0.0
  0
LINE
  5
D2
330
1E
100
AcDbEntity
  8
0
  6
Continuous
 62
     3
100
AcDbLine
 10
-660.9097318272844
 20
-139.387801902894
 30
0.0
 11
-658.9097318272844
 21
-139.387801902894
 31
0.0
  0
LINE
  5
D3
330
1E
100
AcDbEntity
  8
0
  6
Continuous
 62
     3
100
AcDbLine
 10
-658.9097318272844
 20
-139.387801902894
 30
0.0
 11
-658.9097318262844
 21
-133.387801902894
 31
0.0
  0
LINE
  5
D4
330
1E
100
AcDbEntity
  8
0
  6
Continuous
 62
     3
100
AcDbLine
 10
-656.9097318262844
 20
-133.387801903894
 30
0.0
 11
-656.9097318272844
 21
-139.3878019038939
 31
0.0
  0
LINE
  5
D5
330
1E
100
AcDbEntity
  8
0
  6
Continuous
 62
     3
100
AcDbLine
 10
-656.9097318272844
 20
-139.3878019038939
 30
0.0
 11
-654.9097318272844
 21
-139.3878019038939
 31
0.0
  0
LINE
  5
D6
330
1E
100
AcDbEntity
  8
0
  6
Continuous
 62
     3
100
AcDbLine
 10
-654.9097318272844
 20
-139.3878019038939
 30
0.0
 11
-654.9097318262844
 21
-133.387801903894
 31
0.0
  0
LINE
  5
D7
330
1E
100
AcDbEntity
  8
0
  6
Continuous
 62
     3
100
AcDbLine
 10
-652.9097318262844
 20
-133.387801903894
 30
0.0
 11
-652.9097318272844
 21
-139.3878019038939
 31
0.0
  0
LINE
  5
D8
330
1E
100
AcDbEntity
  8
0
  6
Continuous
 62
     3
100
AcDbLine
 10
-652.9097318272844
 20
-139.3878019038939
 30
0.0
 11
-650.9097318272844
 21
-139.3878019038939
 31
0.0
  0
LINE
  5
D9
330
1E
100
AcDbEntity
  8
0
  6
Continuous
 62
     3
100
AcDbLine
 10
-650.9097318272844
 20
-139.3878019038939
 30
0.0
 11
-650.9097318262844
 21
-133.387801903894
 31
0.0
  0
LINE
  5
DA
330
1E
100
AcDbEntity
  8
0
  6
Continuous
 62
     3
100
AcDbLine
 10
-648.9097318262844
 20
-133.387801903894
 30
0.0
 11
-648.9097318272844
 21
-139.3878019038939
 31
0.0
  0
LINE
  5
DB
330
1E
100
AcDbEntity
  8
0
  6
Continuous
 62
     3
100
AcDbLine
 10
-648.9097318272844
 20
-139.3878019038939
 30
0.0
 11
-646.9097318272844
 21
-139.3878019038939
 31
0.0
  0
LINE
  5
DC
330
1E
100
AcDbEntity
  8
0
  6
Continuous
 62
     3
100
AcDbLine
 10
-646.9097318272844
 20
-139.3878019038939
 30
0.0
 11
-646.9097318262844
 21
-133.387801903894
 31
0.0
  0
LINE
  5
DD
330
1E
100
AcDbEntity
  8
0
  6
Continuous
 62
     3
100
AcDbLine
 10
-644.9097318262844
 20
-133.387801903894
 30
0.0
 11
-644.9097318272844
 21
-139.3878019038939
 31
0.0
  0
LINE
  5
DE
330
1E
100
AcDbEntity
  8
0
  6
Continuous
 62
     3
100
AcDbLine
 10
-644.9097318272844
 20
-139.3878019038939
 30
0.0
 11
-642.9097318272844
 21
-139.387801904894
 31
0.0
  0
LINE
  5
DF
330
1E
100
AcDbEntity
  8
0
  6
Continuous
 62
     3
100
AcDbLine
 10
-642.9097318272844
 20
-139.387801904894
 30
0.0
 11
-642.9097318262844
 21
-133.387801904894
 31
0.0
  0
LINE
  5
E0
330
1E
100
AcDbEntity
  8
0
  6
Continuous
 62
     3
100
AcDbLine
 10
-640.9097318262844
 20
-133.387801904894
 30
0.0
 11
-640.9097318272844
 21
-139.387801904894
 31
0.0
  0
LINE
  5
E1
330
1E
100
AcDbEntity
  8
0
  6
Continuous
 62
     3
100
AcDbLine
 10
-640.9097318272844
 20
-139.387801904894
 30
0.0
 11
-638.9097318272844
 21
-139.387801904894
 31
0.0
  0
LINE
  5
E2
330
1E
100
AcDbEntity
  8
0
  6
Continuous
 62
     3
100
AcDbLine
 10
-638.9097318272844
 20
-139.387801904894
 30
0.0
 11
-638.9097318262844
 21
-133.387801904894
 31
0.0
  0
LINE
  5
E3
330
1E
100
AcDbEntity
  8
0
  6
Continuous
 62
     3
100
AcDbLine
 10
-636.9097318262844
 20
-133.387801904894
 30
0.0
 11
-636.9097318272844
 21
-139.387801904894
 31
0.0
  0
LINE
  5
E4
330
1E
100
AcDbEntity
  8
0
  6
Continuous
 62
     3
100
AcDbLine
 10
-636.9097318272844
 20
-139.387801904894
 30
0.0
 11
-634.9097318272844
 21
-139.387801904894
 31
0.0
  0
LINE
  5
E5
330
1E
100
AcDbEntity
  8
0
  6
Continuous
 62
     3
100
AcDbLine
 10
-634.9097318272844
 20
-139.387801904894
 30
0.0
 11
-634.9097318262844
 21
-133.387801904894
 31
0.0
  0
LINE
  5
E6
330
1E
100
AcDbEntity
  8
0
  6
Continuous
 62
     3
100
AcDbLine
 10
-691.6097318322844
 20
-141.887801901894
 30
0.0
 11
-691.6097318322844
 21
-137.887801901894
 31
0.0
  0
LINE
  5
E7
330
1E
100
AcDbEntity
  8
0
  6
Continuous
 62
     3
100
AcDbLine
 10
-691.6097318312843
 20
-200.8878019018939
 30
0.0
 11
-691.6097318312843
 21
-196.8878019018939
 31
0.0
  0
LINE
  5
E8
330
1E
100
AcDbEntity
  8
0
  6
Continuous
 62
     3
100
AcDbLine
 10
-612.4097318282845
 20
-205.387801900894
 30
0.0
 11
-612.4097318282845
 21
-199.3878019008939
 31
0.0
  0
LINE
  5
E9
330
1E
100
AcDbEntity
  8
0
  6
Continuous
 62
     3
100
AcDbLine
 10
-612.4097318282845
 20
-199.3878019008939
 30
0.0
 11
-614.4097318282845
 21
-199.3878019008939
 31
0.0
  0
LINE
  5
EA
330
1E
100
AcDbEntity
  8
0
  6
Continuous
 62
     3
100
AcDbLine
 10
-614.4097318282845
 20
-199.3878019008939
 30
0.0
 11
-614.4097318282845
 21
-205.387801900894
 31
0.0
  0
LINE
  5
EB
330
1E
100
AcDbEntity
  8
0
  6
Continuous
 62
     3
100
AcDbLine
 10
-618.7097318282845
 20
-205.3878019018939
 30
0.0
 11
-618.7097318282845
 21
-199.3878019018939
 31
0.0
  0
LINE
  5
EC
330
1E
100
AcDbEntity
  8
0
  6
Continuous
 62
     3
100
AcDbLine
 10
-618.7097318282845
 20
-199.3878019018939
 30
0.0
 11
-620.7097318282843
 21
-199.3878019018939
 31
0.0
  0
LINE
  5
ED
330
1E
100
AcDbEntity
  8
0
  6
Continuous
 62
     3
100
AcDbLine
 10
-620.7097318282843
 20
-199.3878019018939
 30
0.0
 11
-620.7097318282843
 21
-205.3878019018939
 31
0.0
  0
LINE
  5
EE
330
1E
100
AcDbEntity
  8
0
  6
Continuous
 62
     3
100
AcDbLine
 10
-630.9097318282844
 20
-205.3878019018939
 30
0.0
 11
-630.9097318282844
 21
-199.3878019018939
 31
0.0
  0
LINE
  5
EF
330
1E
100
AcDbEntity
  8
0
  6
Continuous
 62
     3
100
AcDbLine
 10
-630.9097318282844
 20
-199.3878019018939
 30
0.0
 11
-632.9097318282844
 21
-199.3878019018939
 31
0.0
  0
LINE
  5
F0
330
1E
100
AcDbEntity
  8
0
  6
Continuous
 62
     3
100
AcDbLine
 10
-632.9097318282844
 20
-199.3878019018939
 30
0.0
 11
-632.9097318282844
 21
-205.3878019018939
 31
0.0
  0
LINE
  5
F1
330
1E
100
AcDbEntity
  8
0
  6
Continuous
 62
     3
100
AcDbLine
 10
-670.9097318282844
 20
-205.3878019028939
 30
0.0
 11
-670.9097318282844
 21
-199.3878019028939
 31
0.0
  0
LINE
  5
F2
330
1E
100
AcDbEntity
  8
0
  6
Continuous
 62
     3
100
AcDbLine
 10
-670.9097318282844
 20
-199.3878019028939
 30
0.0
 11
-672.9097318282842
 21
-199.3878019028939
 31
0.0
  0
LINE
  5
F3
330
1E
100
AcDbEntity
  8
0
  6
Continuous
 62
     3
100
AcDbLine
 10
-672.9097318282842
 20
-199.3878019028939
 30
0.0
 11
-672.9097318282842
 21
-205.3878019028939
 31
0.0
  0
LINE
  5
F4
330
1E
100
AcDbEntity
  8
0
  6
Continuous
 62
     3
100
AcDbLine
 10
-668.9097318282842
 20
-205.3878019028939
 30
0.0
 11
-668.9097318282842
 21
-199.3878019028939
 31
0.0
  0
LINE
  5
F5
330
1E
100
AcDbEntity
  8
0
  6
Continuous
 62
     3
100
AcDbLine
 10
-668.9097318282842
 20
-199.3878019028939
 30
0.0
 11
-666.9097318282844
 21
-199.3878019028939
 31
0.0
  0
LINE
  5
F6
330
1E
100
AcDbEntity
  8
0
  6
Continuous
 62
     3
100
AcDbLine
 10
-666.9097318282844
 20
-199.3878019028939
 30
0.0
 11
-666.9097318282844
 21
-205.3878019028939
 31
0.0
  0
LINE
  5
F7
330
1E
100
AcDbEntity
  8
0
  6
Continuous
 62
     3
100
AcDbLine
 10
-664.9097318282842
 20
-205.3878019028939
 30
0.0
 11
-664.9097318282842
 21
-199.3878019028939
 31
0.0
  0
LINE
  5
F8
330
1E
100
AcDbEntity
  8
0
  6
Continuous
 62
     3
100
AcDbLine
 10
-664.9097318282842
 20
-199.3878019028939
 30
0.0
 11
-662.9097318282844
 21
-199.3878019028939
 31
0.0
  0
LINE
  5
F9
330
1E
100
AcDbEntity
  8
0
  6
Continuous
 62
     3
100
AcDbLine
 10
-662.9097318282844
 20
-199.3878019028939
 30
0.0
 11
-662.9097318282844
 21
-205.3878019028939
 31
0.0
  0
LINE
  5
FA
330
1E
100
AcDbEntity
  8
0
  6
Continuous
 62
     3
100
AcDbLine
 10
-660.9097318282842
 20
-205.3878019028939
 30
0.0
 11
-660.9097318282842
 21
-199.3878019028939
 31
0.0
  0
LINE
  5
FB
330
1E
100
AcDbEntity
  8
0
  6
Continuous
 62
     3
100
AcDbLine
 10
-660.9097318282842
 20
-199.3878019028939
 30
0.0
 11
-658.9097318282844
 21
-199.3878019028939
 31
0.0
  0
LINE
  5
FC
330
1E
100
AcDbEntity
  8
0
  6
Continuous
 62
     3
100
AcDbLine
 10
-658.9097318282844
 20
-199.3878019028939
 30
0.0
 11
-658.9097318282844
 21
-205.3878019028939
 31
0.0
  0
LINE
  5
FD
330
1E
100
AcDbEntity
  8
0
  6
Continuous
 62
     3
100
AcDbLine
 10
-656.9097318282842
 20
-205.3878019028939
 30
0.0
 11
-656.9097318282842
 21
-199.3878019028939
 31
0.0
  0
LINE
  5
FE
330
1E
100
AcDbEntity
  8
0
  6
Continuous
 62
     3
100
AcDbLine
 10
-656.9097318282842
 20
-199.3878019028939
 30
0.0
 11
-654.9097318282844
 21
-199.3878019028939
 31
0.0
  0
LINE
  5
FF
330
1E
100
AcDbEntity
  8
0
  6
Continuous
 62
     3
100
AcDbLine
 10
-654.9097318282844
 20
-199.3878019028939
 30
0.0
 11
-654.9097318282844
 21
-205.3878019028939
 31
0.0
  0
LINE
  5
100
330
1E
100
AcDbEntity
  8
0
  6
Continuous
 62
     3
100
AcDbLine
 10
-652.9097318282842
 20
-205.3878019018939
 30
0.0
 11
-652.9097318282842
 21
-199.3878019018939
 31
0.0
  0
LINE
  5
101
330
1E
100
AcDbEntity
  8
0
  6
Continuous
 62
     3
100
AcDbLine
 10
-652.9097318282842
 20
-199.3878019018939
 30
0.0
 11
-650.9097318282844
 21
-199.3878019018939
 31
0.0
  0
LINE
  5
102
330
1E
100
AcDbEntity
  8
0
  6
Continuous
 62
     3
100
AcDbLine
 10
-650.9097318282844
 20
-199.3878019018939
 30
0.0
 11
-650.9097318282844
 21
-205.3878019018939
 31
0.0
  0
LINE
  5
103
330
1E
100
AcDbEntity
  8
0
  6
Continuous
 62
     3
100
AcDbLine
 10
-648.9097318282844
 20
-205.3878019018939
 30
0.0
 11
-648.9097318282844
 21
-199.3878019018939
 31
0.0
  0
LINE
  5
104
330
1E
100
AcDbEntity
  8
0
  6
Continuous
 62
     3
100
AcDbLine
 10
-648.9097318282844
 20
-199.3878019018939
 30
0.0
 11
-646.9097318282844
 21
-199.3878019018939
 31
0.0
  0
LINE
  5
105
330
1E
100
AcDbEntity
  8
0
  6
Continuous
 62
     3
100
AcDbLine
 10
-646.9097318282844
 20
-199.3878019018939
 30
0.0
 11
-646.9097318282844
 21
-205.3878019018939
 31
0.0
  0
LINE
  5
106
330
1E
100
AcDbEntity
  8
0
  6
Continuous
 62
     3
100
AcDbLine
 10
-644.9097318282844
 20
-205.3878019018939
 30
0.0
 11
-644.9097318282844
 21
-199.3878019018939
 31
0.0
  0
LINE
  5
107
330
1E
100
AcDbEntity
  8
0
  6
Continuous
 62
     3
100
AcDbLine
 10
-644.9097318282844
 20
-199.3878019018939
 30
0.0
 11
-642.9097318282844
 21
-199.3878019018939
 31
0.0
  0
LINE
  5
108
330
1E
100
AcDbEntity
  8
0
  6
Continuous
 62
     3
100
AcDbLine
 10
-642.9097318282844
 20
-199.3878019018939
 30
0.0
 11
-642.9097318282844
 21
-205.3878019018939
 31
0.0
  0
LINE
  5
109
330
1E
100
AcDbEntity
  8
0
  6
Continuous
 62
     3
100
AcDbLine
 10
-640.9097318282844
 20
-205.3878019018939
 30
0.0
 11
-640.9097318282844
 21
-199.3878019018939
 31
0.0
  0
LINE
  5
10A
330
1E
100
AcDbEntity
  8
0
  6
Continuous
 62
     3
100
AcDbLine
 10
-640.9097318282844
 20
-199.3878019018939
 30
0.0
 11
-638.9097318282844
 21
-199.3878019018939
 31
0.0
  0
LINE
  5
10B
330
1E
100
AcDbEntity
  8
0
  6
Continuous
 62
     3
100
AcDbLine
 10
-638.9097318282844
 20
-199.3878019018939
 30
0.0
 11
-638.9097318282844
 21
-205.3878019018939
 31
0.0
  0
LINE
  5
10C
330
1E
100
AcDbEntity
  8
0
  6
Continuous
 62
     3
100
AcDbLine
 10
-636.9097318282844
 20
-205.3878019018939
 30
0.0
 11
-636.9097318282844
 21
-199.3878019018939
 31
0.0
  0
LINE
  5
10D
330
1E
100
AcDbEntity
  8
0
  6
Continuous
 62
     3
100
AcDbLine
 10
-636.9097318282844
 20
-199.3878019018939
 30
0.0
 11
-634.9097318282844
 21
-199.3878019018939
 31
0.0
  0
LINE
  5
10E
330
1E
100
AcDbEntity
  8
0
  6
Continuous
 62
     3
100
AcDbLine
 10
-634.9097318282844
 20
-199.3878019018939
 30
0.0
 11
-634.9097318282844
 21
-205.3878019018939
 31
0.0
  0
LINE
  5
10F
330
1E
100
AcDbEntity
  8
0
  6
Continuous
 62
     3
100
AcDbLine
 10
-681.6097318302843
 20
-205.3878019018939
 30
0.0
 11
-681.6097318302843
 21
-203.887801901894
 31
0.0
  0
LINE
  5
110
330
1E
100
AcDbEntity
  8
0
  6
Continuous
 62
     3
100
AcDbLine
 10
-681.6097318302843
 20
-203.887801901894
 30
0.0
 11
-686.6097318302843
 21
-203.887801901894
 31
0.0
  0
LINE
  5
111
330
1E
100
AcDbEntity
  8
0
  6
Continuous
 62
     3
100
AcDbLine
 10
-686.6097318302843
 20
-205.3878019018939
 30
0.0
 11
-686.6097318302843
 21
-203.887801901894
 31
0.0
  0
LINE
  5
112
330
1E
100
AcDbEntity
  8
0
  6
Continuous
 62
     3
100
AcDbLine
 10
-681.6097318282843
 20
-133.3878019018939
 30
0.0
 11
-681.6097318282843
 21
-134.787801901894
 31
0.0
  0
LINE
  5
113
330
1E
100
AcDbEntity
  8
0
  6
Continuous
 62
     3
100
AcDbLine
 10
-681.6097318282843
 20
-134.787801901894
 30
0.0
 11
-686.6097318282843
 21
-134.787801901894
 31
0.0
  0
LINE
  5
114
330
1E
100
AcDbEntity
  8
0
  6
Continuous
 62
     3
100
AcDbLine
 10
-686.6097318282843
 20
-134.787801901894
 30
0.0
 11
-686.6097318282843
 21
-133.3878019018939
 31
0.0
  0
CIRCLE
  5
115
330
1E
100
AcDbEntity
  8
0
  6
Continuous
 62
     3
100
AcDbCircle
 10
-691.6097318302844
 20
-204.387801901894
 30
0.0
 40
0.5
  0
CIRCLE
  5
116
330
1E
100
AcDbEntity
  8
0
  6
Continuous
 62
     3
100
AcDbCircle
 10
-691.6097318282843
 20
-134.3878019018939
 30
0.0
 40
0.5
  0
LINE
  5
117
330
1E
100
AcDbEntity
  8
0
  6
Continuous
 62
     3
100
AcDbLine
 10
-690.6097318292843
 20
-196.8878019018939
 30
0.0
 11
-691.6097318312843
 21
-196.8878019018939
 31
0.0
  0
LINE
  5
118
330
1E
100
AcDbEntity
  8
0
  6
Continuous
 62
     3
100
AcDbLine
 10
-690.6097318292843
 20
-196.8878019018939
 30
0.0
 11
-690.6097318302844
 21
-200.8878019018939
 31
0.0
  0
LINE
  5
119
330
1E
100
AcDbEntity
  8
0
  6
Continuous
 62
     3
100
AcDbLine
 10
-691.6097318312843
 20
-200.8878019018939
 30
0.0
 11
-690.6097318302844
 21
-200.8878019018939
 31
0.0
  0
LINE
  5
11A
330
1E
100
AcDbEntity
  8
0
  6
Continuous
 62
     3
100
AcDbLine
 10
-691.6097318322844
 20
-141.887801901894
 30
0.0
 11
-690.6097318282843
 21
-141.887801901894
 31
0.0
  0
LINE
  5
11B
330
1E
100
AcDbEntity
  8
0
  6
Continuous
 62
     3
100
AcDbLine
 10
-690.6097318282843
 20
-137.887801901894
 30
0.0
 11
-691.6097318322844
 21
-137.887801901894
 31
0.0
  0
LINE
  5
11C
330
1E
100
AcDbEntity
  8
0
  6
Continuous
 62
     3
100
AcDbLine
 10
-690.6097318282843
 20
-137.887801901894
 30
0.0
 11
-690.6097318282843
 21
-141.887801901894
 31
0.0
  0
LINE
  5
11D
330
1E
100
AcDbEntity
  8
0
  6
Continuous
 62
     3
100
AcDbLine
 10
-593.6097318292843
 20
-132.3875519048939
 30
0.0
 11
-594.6097318292843
 21
-133.3875519048939
 31
0.0
  0
LINE
  5
11E
330
1E
100
AcDbEntity
  8
0
  6
Continuous
 62
     3
100
AcDbLine
 10
-593.6097318292843
 20
-132.3875519048939
 30
0.0
 11
-593.6097318292843
 21
-130.3875519048939
 31
0.0
  0
LINE
  5
11F
330
1E
100
AcDbEntity
  8
0
  6
Continuous
 62
     3
100
AcDbLine
 10
-601.5097318292844
 20
-133.387551903894
 30
0.0
 11
-601.5097318292844
 21
-130.387551903894
 31
0.0
  0
ARC
  5
120
330
1E
100
AcDbEntity
  8
0
  6
Continuous
 62
     3
100
AcDbCircle
 10
-657.6097318292843
 20
-127.687551903894
 30
0.0
 40
1.0
100
AcDbArc
 50
0.0
 51
180.0
  0
ARC
  5
121
330
1E
100
AcDbEntity
  8
0
  6
Continuous
 62
     3
100
AcDbCircle
 10
-657.6097318292843
 20
-131.187551903894
 30
0.0
 40
1.0
100
AcDbArc
 50
180.0
 51
0.0
  0
LINE
  5
122
330
1E
100
AcDbEntity
  8
0
  6
Continuous
 62
     3
100
AcDbLine
 10
-658.6097318292843
 20
-127.687551903894
 30
0.0
 11
-658.6097318292843
 21
-131.187551903894
 31
0.0
  0
LINE
  5
123
330
1E
100
AcDbEntity
  8
0
  6
Continuous
 62
     3
100
AcDbLine
 10
-656.6097318292843
 20
-131.187551903894
 30
0.0
 11
-656.6097318292843
 21
-129.937551903894
 31
0.0
  0
LINE
  5
124
330
1E
100
AcDbEntity
  8
0
  6
Continuous
 62
     3
100
AcDbLine
 10
-656.6097318292843
 20
-128.187551903894
 30
0.0
 11
-656.6097318292843
 21
-127.687551903894
 31
0.0
  0
LINE
  5
125
330
1E
100
AcDbEntity
  8
0
  6
Continuous
 62
     3
100
AcDbLine
 10
-655.6097318292843
 20
-128.187551903894
 30
0.0
 11
-655.6097318292843
 21
-127.687551903894
 31
0.0
  0
LINE
  5
126
330
1E
100
AcDbEntity
  8
0
  6
Continuous
 62
     3
100
AcDbLine
 10
-655.6097318292843
 20
-127.687551903894
 30
0.0
 11
-656.6097318292843
 21
-128.187551903894
 31
0.0
  0
LINE
  5
127
330
1E
100
AcDbEntity
  8
0
  6
Continuous
 62
     3
100
AcDbLine
 10
-654.6097318292843
 20
-128.187551903894
 30
0.0
 11
-654.6097318292843
 21
-127.687551903894
 31
0.0
  0
LINE
  5
128
330
1E
100
AcDbEntity
  8
0
  6
Continuous
 62
     3
100
AcDbLine
 10
-654.6097318292843
 20
-127.687551903894
 30
0.0
 11
-655.6097318292843
 21
-128.187551903894
 31
0.0
  0
LINE
  5
129
330
1E
100
AcDbEntity
  8
0
  6
Continuous
 62
     3
100
AcDbLine
 10
-654.6097318292843
 20
-128.187551903894
 30
0.0
 11
-653.6097318292843
 21
-127.687551903894
 31
0.0
  0
LINE
  5
12A
330
1E
100
AcDbEntity
  8
0
  6
Continuous
 62
     3
100
AcDbLine
 10
-653.6097318292843
 20
-127.687551903894
 30
0.0
 11
-653.6097318292843
 21
-128.187551903894
 31
0.0
  0
LINE
  5
12B
330
1E
100
AcDbEntity
  8
0
  6
Continuous
 62
     3
100
AcDbLine
 10
-653.6097318292843
 20
-128.187551903894
 30
0.0
 11
-652.6097318292843
 21
-127.687551903894
 31
0.0
  0
LINE
  5
12C
330
1E
100
AcDbEntity
  8
0
  6
Continuous
 62
     3
100
AcDbLine
 10
-652.6097318292843
 20
-127.687551903894
 30
0.0
 11
-652.6097318292843
 21
-128.187551903894
 31
0.0
  0
LINE
  5
12D
330
1E
100
AcDbEntity
  8
0
  6
Continuous
 62
     3
100
AcDbLine
 10
-652.6097318292843
 20
-128.187551903894
 30
0.0
 11
-651.6097318292842
 21
-127.687551903894
 31
0.0
  0
LINE
  5
12E
330
1E
100
AcDbEntity
  8
0
  6
Continuous
 62
     3
100
AcDbLine
 10
-651.6097318292842
 20
-127.687551903894
 30
0.0
 11
-651.6097318292842
 21
-128.187551903894
 31
0.0
  0
LINE
  5
12F
330
1E
100
AcDbEntity
  8
0
  6
Continuous
 62
     3
100
AcDbLine
 10
-651.6097318292842
 20
-128.187551903894
 30
0.0
 11
-650.6097318292843
 21
-127.687551903894
 31
0.0
  0
LINE
  5
130
330
1E
100
AcDbEntity
  8
0
  6
Continuous
 62
     3
100
AcDbLine
 10
-650.6097318292843
 20
-127.687551903894
 30
0.0
 11
-650.6097318292843
 21
-128.187551903894
 31
0.0
  0
LINE
  5
131
330
1E
100
AcDbEntity
  8
0
  6
Continuous
 62
     3
100
AcDbLine
 10
-650.6097318292843
 20
-128.187551903894
 30
0.0
 11
-649.6097318292843
 21
-127.687551903894
 31
0.0
  0
LINE
  5
132
330
1E
100
AcDbEntity
  8
0
  6
Continuous
 62
     3
100
AcDbLine
 10
-649.6097318292843
 20
-127.687551903894
 30
0.0
 11
-649.6097318292843
 21
-128.187551903894
 31
0.0
  0
LINE
  5
133
330
1E
100
AcDbEntity
  8
0
  6
Continuous
 62
     3
100
AcDbLine
 10
-649.6097318292843
 20
-128.187551903894
 30
0.0
 11
-648.6097318292843
 21
-127.687551903894
 31
0.0
  0
LINE
  5
134
330
1E
100
AcDbEntity
  8
0
  6
Continuous
 62
     3
100
AcDbLine
 10
-648.6097318292843
 20
-127.687551903894
 30
0.0
 11
-648.6097318292843
 21
-128.187551903894
 31
0.0
  0
LINE
  5
135
330
1E
100
AcDbEntity
  8
0
  6
Continuous
 62
     3
100
AcDbLine
 10
-648.6097318292843
 20
-128.187551903894
 30
0.0
 11
-647.6097318292843
 21
-127.687551903894
 31
0.0
  0
LINE
  5
136
330
1E
100
AcDbEntity
  8
0
  6
Continuous
 62
     3
100
AcDbLine
 10
-647.6097318292843
 20
-127.687551903894
 30
0.0
 11
-647.6097318292843
 21
-128.187551903894
 31
0.0
  0
LINE
  5
137
330
1E
100
AcDbEntity
  8
0
  6
Continuous
 62
     3
100
AcDbLine
 10
-647.6097318292843
 20
-128.187551903894
 30
0.0
 11
-646.6097318292843
 21
-127.687551903894
 31
0.0
  0
LINE
  5
138
330
1E
100
AcDbEntity
  8
0
  6
Continuous
 62
     3
100
AcDbLine
 10
-646.6097318292843
 20
-127.687551903894
 30
0.0
 11
-646.6097318292843
 21
-128.187551903894
 31
0.0
  0
LINE
  5
139
330
1E
100
AcDbEntity
  8
0
  6
Continuous
 62
     3
100
AcDbLine
 10
-646.6097318292843
 20
-128.187551903894
 30
0.0
 11
-645.6097318292843
 21
-127.687551903894
 31
0.0
  0
LINE
  5
13A
330
1E
100
AcDbEntity
  8
0
  6
Continuous
 62
     3
100
AcDbLine
 10
-645.6097318292843
 20
-128.187551903894
 30
0.0
 11
-645.6097318292843
 21
-127.687551903894
 31
0.0
  0
LINE
  5
13B
330
1E
100
AcDbEntity
  8
0
  6
Continuous
 62
     3
100
AcDbLine
 10
-645.6097318292843
 20
-128.187551903894
 30
0.0
 11
-644.6097318292843
 21
-127.687551903894
 31
0.0
  0
LINE
  5
13C
330
1E
100
AcDbEntity
  8
0
  6
Continuous
 62
     3
100
AcDbLine
 10
-644.6097318292843
 20
-127.687551903894
 30
0.0
 11
-644.6097318292843
 21
-128.187551903894
 31
0.0
  0
LINE
  5
13D
330
1E
100
AcDbEntity
  8
0
  6
Continuous
 62
     3
100
AcDbLine
 10
-644.6097318292843
 20
-128.187551903894
 30
0.0
 11
-643.6097318292843
 21
-127.687551903894
 31
0.0
  0
LINE
  5
13E
330
1E
100
AcDbEntity
  8
0
  6
Continuous
 62
     3
100
AcDbLine
 10
-643.6097318292843
 20
-127.687551903894
 30
0.0
 11
-643.6097318292843
 21
-128.187551903894
 31
0.0
  0
LINE
  5
13F
330
1E
100
AcDbEntity
  8
0
  6
Continuous
 62
     3
100
AcDbLine
 10
-642.1097318292843
 20
-133.087551903894
 30
0.0
 11
-642.1097318292843
 21
-131.5875519038939
 31
0.0
  0
LINE
  5
140
330
1E
100
AcDbEntity
  8
0
  6
Continuous
 62
     3
100
AcDbLine
 10
-640.1097318292843
 20
-133.087551903894
 30
0.0
 11
-640.1097318292843
 21
-131.8375519038939
 31
0.0
  0
ARC
  5
141
330
1E
100
AcDbEntity
  8
0
  6
Continuous
 62
     3
100
AcDbCircle
 10
-625.6097318292843
 20
-132.387551903894
 30
0.0
 40
4.2
100
AcDbArc
 50
28.393019421
 51
90.0
  0
LINE
  5
142
330
1E
100
AcDbEntity
  8
0
  6
Continuous
 62
     3
100
AcDbLine
 10
-625.6097318292843
 20
-128.187551903894
 30
0.0
 11
-656.6097318292843
 21
-128.187551903894
 31
0.0
  0
LINE
  5
143
330
1E
100
AcDbEntity
  8
0
  6
Continuous
 62
     3
100
AcDbLine
 10
-593.6097318302842
 20
-206.3880519048939
 30
0.0
 11
-594.6097318302843
 21
-205.3880519048939
 31
0.0
  0
LINE
  5
144
330
1E
100
AcDbEntity
  8
0
  6
Continuous
 62
     3
100
AcDbLine
 10
-593.6097318302842
 20
-206.3880519048939
 30
0.0
 11
-593.6097318302842
 21
-208.388051904894
 31
0.0
  0
LINE
  5
145
330
1E
100
AcDbEntity
  8
0
  6
Continuous
 62
     3
100
AcDbLine
 10
-601.5097318302842
 20
-205.388051903894
 30
0.0
 11
-601.5097318302842
 21
-208.388051903894
 31
0.0
  0
ARC
  5
146
330
1E
100
AcDbEntity
  8
0
  6
Continuous
 62
     3
100
AcDbCircle
 10
-657.6097318302843
 20
-211.088051903894
 30
0.0
 40
1.0
100
AcDbArc
 50
180.0
 51
0.0
  0
ARC
  5
147
330
1E
100
AcDbEntity
  8
0
  6
Continuous
 62
     3
100
AcDbCircle
 10
-657.6097318302843
 20
-207.5880519038939
 30
0.0
 40
1.0
100
AcDbArc
 50
0.0
 51
180.0
  0
LINE
  5
148
330
1E
100
AcDbEntity
  8
0
  6
Continuous
 62
     3
100
AcDbLine
 10
-658.6097318302843
 20
-211.088051903894
 30
0.0
 11
-658.6097318302843
 21
-207.5880519038939
 31
0.0
  0
LINE
  5
149
330
1E
100
AcDbEntity
  8
0
  6
Continuous
 62
     3
100
AcDbLine
 10
-656.6097318302843
 20
-207.5880519038939
 30
0.0
 11
-656.6097318302843
 21
-208.838051903894
 31
0.0
  0
LINE
  5
14A
330
1E
100
AcDbEntity
  8
0
  6
Continuous
 62
     3
100
AcDbLine
 10
-656.6097318302843
 20
-210.588051903894
 30
0.0
 11
-656.6097318302843
 21
-211.088051903894
 31
0.0
  0
LINE
  5
14B
330
1E
100
AcDbEntity
  8
0
  6
Continuous
 62
     3
100
AcDbLine
 10
-655.6097318302843
 20
-210.588051903894
 30
0.0
 11
-655.6097318302843
 21
-211.088051903894
 31
0.0
  0
LINE
  5
14C
330
1E
100
AcDbEntity
  8
0
  6
Continuous
 62
     3
100
AcDbLine
 10
-655.6097318302843
 20
-211.088051903894
 30
0.0
 11
-656.6097318302843
 21
-210.588051903894
 31
0.0
  0
LINE
  5
14D
330
1E
100
AcDbEntity
  8
0
  6
Continuous
 62
     3
100
AcDbLine
 10
-654.6097318302843
 20
-210.588051903894
 30
0.0
 11
-654.6097318302843
 21
-211.088051903894
 31
0.0
  0
LINE
  5
14E
330
1E
100
AcDbEntity
  8
0
  6
Continuous
 62
     3
100
AcDbLine
 10
-654.6097318302843
 20
-211.088051903894
 30
0.0
 11
-655.6097318302843
 21
-210.588051903894
 31
0.0
  0
LINE
  5
14F
330
1E
100
AcDbEntity
  8
0
  6
Continuous
 62
     3
100
AcDbLine
 10
-654.6097318302843
 20
-210.588051903894
 30
0.0
 11
-653.6097318302843
 21
-211.088051903894
 31
0.0
  0
LINE
  5
150
330
1E
100
AcDbEntity
  8
0
  6
Continuous
 62
     3
100
AcDbLine
 10
-653.6097318302843
 20
-211.088051903894
 30
0.0
 11
-653.6097318302843
 21
-210.588051903894
 31
0.0
  0
LINE
  5
151
330
1E
100
AcDbEntity
  8
0
  6
Continuous
 62
     3
100
AcDbLine
 10
-653.6097318302843
 20
-210.588051903894
 30
0.0
 11
-652.6097318302843
 21
-211.088051903894
 31
0.0
  0
LINE
  5
152
330
1E
100
AcDbEntity
  8
0
  6
Continuous
 62
     3
100
AcDbLine
 10
-652.6097318302843
 20
-211.088051903894
 30
0.0
 11
-652.6097318302843
 21
-210.588051903894
 31
0.0
  0
LINE
  5
153
330
1E
100
AcDbEntity
  8
0
  6
Continuous
 62
     3
100
AcDbLine
 10
-652.6097318302843
 20
-210.588051903894
 30
0.0
 11
-651.6097318302843
 21
-211.088051903894
 31
0.0
  0
LINE
  5
154
330
1E
100
AcDbEntity
  8
0
  6
Continuous
 62
     3
100
AcDbLine
 10
-651.6097318302843
 20
-211.088051903894
 30
0.0
 11
-651.6097318302843
 21
-210.588051903894
 31
0.0
  0
LINE
  5
155
330
1E
100
AcDbEntity
  8
0
  6
Continuous
 62
     3
100
AcDbLine
 10
-651.6097318302843
 20
-210.588051903894
 30
0.0
 11
-650.6097318302843
 21
-211.088051903894
 31
0.0
  0
LINE
  5
156
330
1E
100
AcDbEntity
  8
0
  6
Continuous
 62
     3
100
AcDbLine
 10
-650.6097318302843
 20
-211.088051903894
 30
0.0
 11
-650.6097318302843
 21
-210.588051903894
 31
0.0
  0
LINE
  5
157
330
1E
100
AcDbEntity
  8
0
  6
Continuous
 62
     3
100
AcDbLine
 10
-650.6097318302843
 20
-210.588051903894
 30
0.0
 11
-649.6097318302843
 21
-211.088051903894
 31
0.0
  0
LINE
  5
158
330
1E
100
AcDbEntity
  8
0
  6
Continuous
 62
     3
100
AcDbLine
 10
-649.6097318302843
 20
-211.088051903894
 30
0.0
 11
-649.6097318302843
 21
-210.588051903894
 31
0.0
  0
LINE
  5
159
330
1E
100
AcDbEntity
  8
0
  6
Continuous
 62
     3
100
AcDbLine
 10
-649.6097318302843
 20
-210.588051903894
 30
0.0
 11
-648.6097318302843
 21
-211.088051903894
 31
0.0
  0
LINE
  5
15A
330
1E
100
AcDbEntity
  8
0
  6
Continuous
 62
     3
100
AcDbLine
 10
-648.6097318302843
 20
-211.088051903894
 30
0.0
 11
-648.6097318302843
 21
-210.588051903894
 31
0.0
  0
LINE
  5
15B
330
1E
100
AcDbEntity
  8
0
  6
Continuous
 62
     3
100
AcDbLine
 10
-648.6097318302843
 20
-210.588051903894
 30
0.0
 11
-647.6097318302842
 21
-211.088051903894
 31
0.0
  0
LINE
  5
15C
330
1E
100
AcDbEntity
  8
0
  6
Continuous
 62
     3
100
AcDbLine
 10
-647.6097318302842
 20
-211.088051903894
 30
0.0
 11
-647.6097318302842
 21
-210.588051903894
 31
0.0
  0
LINE
  5
15D
330
1E
100
AcDbEntity
  8
0
  6
Continuous
 62
     3
100
AcDbLine
 10
-647.6097318302842
 20
-210.588051903894
 30
0.0
 11
-646.6097318302843
 21
-211.088051903894
 31
0.0
  0
LINE
  5
15E
330
1E
100
AcDbEntity
  8
0
  6
Continuous
 62
     3
100
AcDbLine
 10
-646.6097318302843
 20
-211.088051903894
 30
0.0
 11
-646.6097318302843
 21
-210.588051903894
 31
0.0
  0
LINE
  5
15F
330
1E
100
AcDbEntity
  8
0
  6
Continuous
 62
     3
100
AcDbLine
 10
-646.6097318302843
 20
-210.588051903894
 30
0.0
 11
-645.6097318302843
 21
-211.088051903894
 31
0.0
  0
LINE
  5
160
330
1E
100
AcDbEntity
  8
0
  6
Continuous
 62
     3
100
AcDbLine
 10
-645.6097318302843
 20
-210.588051903894
 30
0.0
 11
-645.6097318302843
 21
-211.088051903894
 31
0.0
  0
LINE
  5
161
330
1E
100
AcDbEntity
  8
0
  6
Continuous
 62
     3
100
AcDbLine
 10
-645.6097318302843
 20
-210.588051903894
 30
0.0
 11
-644.6097318302843
 21
-211.088051903894
 31
0.0
  0
LINE
  5
162
330
1E
100
AcDbEntity
  8
0
  6
Continuous
 62
     3
100
AcDbLine
 10
-644.6097318302843
 20
-211.088051903894
 30
0.0
 11
-644.6097318302843
 21
-210.588051903894
 31
0.0
  0
LINE
  5
163
330
1E
100
AcDbEntity
  8
0
  6
Continuous
 62
     3
100
AcDbLine
 10
-644.6097318302843
 20
-210.588051903894
 30
0.0
 11
-643.6097318302842
 21
-211.088051903894
 31
0.0
  0
LINE
  5
164
330
1E
100
AcDbEntity
  8
0
  6
Continuous
 62
     3
100
AcDbLine
 10
-643.6097318302842
 20
-211.088051903894
 30
0.0
 11
-643.6097318302842
 21
-210.588051903894
 31
0.0
  0
LINE
  5
165
330
1E
100
AcDbEntity
  8
0
  6
Continuous
 62
     3
100
AcDbLine
 10
-642.1097318302843
 20
-205.688051903894
 30
0.0
 11
-642.1097318302843
 21
-207.1880519038939
 31
0.0
  0
LINE
  5
166
330
1E
100
AcDbEntity
  8
0
  6
Continuous
 62
     3
100
AcDbLine
 10
-640.1097318302843
 20
-205.688051903894
 30
0.0
 11
-640.1097318302843
 21
-206.938051903894
 31
0.0
  0
POINT
  5
167
330
1E
100
AcDbEntity
  8
0
  6
Continuous
 62
     3
100
AcDbPoint
 10
-641.1097318302843
 20
-204.688051903894
 30
0.0
  0
ARC
  5
168
330
1E
100
AcDbEntity
  8
0
  6
Continuous
 62
     3
100
AcDbCircle
 10
-625.6097318302843
 20
-206.3880519038939
 30
0.0
 40
4.2
100
AcDbArc
 50
270.0
 51
331.606980579
  0
LINE
  5
169
330
1E
100
AcDbEntity
  8
0
  6
Continuous
 62
     3
100
AcDbLine
 10
-625.6097318302843
 20
-210.588051903894
 30
0.0
 11
-656.6097318302843
 21
-210.588051903894
 31
0.0
  0
LINE
  5
16A
330
1E
100
AcDbEntity
  8
0
  6
Continuous
 62
     3
100
AcDbLine
 10
-609.6097318302843
 20
-205.388051903894
 30
0.0
 11
-604.6097318302843
 21
-205.388051903894
 31
0.0
  0
ARC
  5
16B
330
1E
100
AcDbEntity
  8
0
  6
Continuous
 62
     3
100
AcDbCircle
 10
-641.1097318302843
 20
-205.688051903894
 30
0.0
 40
1.0
100
AcDbArc
 50
163.287615436
 51
179.9999999989998
  0
ARC
  5
16C
330
1E
100
AcDbEntity
  8
0
  6
Continuous
 62
     3
100
AcDbCircle
 10
-641.1097318302843
 20
-205.688051903894
 30
0.0
 40
1.0
100
AcDbArc
 50
0.0
 51
16.712384564
  0
ARC
  5
16D
330
1E
100
AcDbEntity
  8
0
  6
Continuous
 62
     3
100
AcDbCircle
 10
-641.1097318292843
 20
-133.087551903894
 30
0.0
 40
1.0
100
AcDbArc
 50
343.287615436
 51
0.0
  0
ARC
  5
16E
330
1E
100
AcDbEntity
  8
0
  6
Continuous
 62
     3
100
AcDbCircle
 10
-641.1097318292843
 20
-133.087551903894
 30
0.0
 40
1.0
100
AcDbArc
 50
180.0000000009999
 51
196.712384564
  0
LINE
  5
16F
330
1E
100
AcDbEntity
  8
0
  6
Continuous
 62
     3
100
AcDbLine
 10
-628.8597318302842
 20
-205.648208153894
 30
0.0
 11
-658.6097318302843
 21
-209.088051903894
 31
0.0
  0
LINE
  5
170
330
1E
100
AcDbEntity
  8
0
  6
Continuous
 62
     3
100
AcDbLine
 10
-628.8597318292843
 20
-133.127395653894
 30
0.0
 11
-658.6097318292843
 21
-129.687551903894
 31
0.0
  0
LINE
  5
171
330
1E
100
AcDbEntity
  8
0
  6
Continuous
 62
     3
100
AcDbLine
 10
-617.6097318292843
 20
-130.387551903894
 30
0.0
 11
-621.9097318292845
 21
-130.387551903894
 31
0.0
  0
LINE
  5
172
330
1E
100
AcDbEntity
  8
0
  6
Continuous
 62
     3
100
AcDbLine
 10
-611.3597318292843
 20
-130.387551903894
 30
0.0
 11
-615.6097318292843
 21
-130.387551903894
 31
0.0
  0
LINE
  5
173
330
1E
100
AcDbEntity
  8
0
  6
Continuous
 62
     3
100
AcDbLine
 10
-604.6097318292843
 20
-130.387551903894
 30
0.0
 11
-609.6097318292843
 21
-130.387551903894
 31
0.0
  0
LINE
  5
174
330
1E
100
AcDbEntity
  8
0
  6
Continuous
 62
     3
100
AcDbLine
 10
-593.6097318292843
 20
-130.3875519048939
 30
0.0
 11
-603.0097318292844
 21
-130.387551903894
 31
0.0
  0
LINE
  5
175
330
1E
100
AcDbEntity
  8
0
  6
Continuous
 62
     3
100
AcDbLine
 10
-593.6097318302842
 20
-208.388051904894
 30
0.0
 11
-602.9097318302842
 21
-208.388051903894
 31
0.0
  0
LINE
  5
176
330
1E
100
AcDbEntity
  8
0
  6
Continuous
 62
     3
100
AcDbLine
 10
-604.6097318302843
 20
-208.388051903894
 30
0.0
 11
-609.6097318302843
 21
-208.388051903894
 31
0.0
  0
LINE
  5
177
330
1E
100
AcDbEntity
  8
0
  6
Continuous
 62
     3
100
AcDbLine
 10
-617.6097318302843
 20
-208.388051903894
 30
0.0
 11
-621.9097318302845
 21
-208.388051903894
 31
0.0
  0
LINE
  5
178
330
1E
100
AcDbEntity
  8
0
  6
Continuous
 62
     3
100
AcDbLine
 10
-611.3597318302843
 20
-208.388051903894
 30
0.0
 11
-615.6097318302843
 21
-208.388051903894
 31
0.0
  0
LINE
  5
179
330
1E
100
AcDbEntity
  8
0
  6
Continuous
 62
     3
100
AcDbLine
 10
-593.6097318292843
 20
-157.887801904894
 30
0.0
 11
-584.6097318292843
 21
-157.887801904894
 31
0.0
  0
LINE
  5
17A
330
1E
100
AcDbEntity
  8
0
  6
Continuous
 62
     3
100
AcDbLine
 10
-584.6097318292843
 20
-157.887801904894
 30
0.0
 11
-584.6097318292843
 21
-180.887801904894
 31
0.0
  0
LINE
  5
17B
330
1E
100
AcDbEntity
  8
0
  6
Continuous
 62
     3
100
AcDbLine
 10
-584.6097318292843
 20
-180.887801904894
 30
0.0
 11
-593.6097318292843
 21
-180.887801904894
 31
0.0
  0
LINE
  5
17C
330
1E
100
AcDbEntity
  8
0
  6
Continuous
 62
     3
100
AcDbLine
 10
-584.6097318292843
 20
-165.387801904894
 30
0.0
 11
-574.6097318292843
 21
-165.387801904894
 31
0.0
  0
LINE
  5
17D
330
1E
100
AcDbEntity
  8
0
  6
Continuous
 62
     3
100
AcDbLine
 10
-574.6097318292843
 20
-165.387801904894
 30
0.0
 11
-574.6097318292843
 21
-173.387801904894
 31
0.0
  0
LINE
  5
17E
330
1E
100
AcDbEntity
  8
0
  6
Continuous
 62
     3
100
AcDbLine
 10
-574.6097318292843
 20
-173.387801904894
 30
0.0
 11
-584.6097318292843
 21
-173.387801904894
 31
0.0
  0
ARC
  5
17F
330
1E
100
AcDbEntity
  8
0
  6
Continuous
 62
     3
100
AcDbCircle
 10
-584.6097318292843
 20
-164.387801904894
 30
0.0
 40
1.0
100
AcDbArc
 50
90.0
 51
180.0
  0
LINE
  5
180
330
1E
100
AcDbEntity
  8
0
  6
Continuous
 62
     3
100
AcDbLine
 10
-585.6097318292843
 20
-164.387801904894
 30
0.0
 11
-585.6097318292843
 21
-166.387801904894
 31
0.0
  0
ARC
  5
181
330
1E
100
AcDbEntity
  8
0
  6
Continuous
 62
     3
100
AcDbCircle
 10
-584.6097318292843
 20
-166.387801904894
 30
0.0
 40
1.0
100
AcDbArc
 50
180.0
 51
270.0
  0
ARC
  5
182
330
1E
100
AcDbEntity
  8
0
  6
Continuous
 62
     3
100
AcDbCircle
 10
-584.6097318292843
 20
-172.387801904894
 30
0.0
 40
1.0
100
AcDbArc
 50
90.0
 51
180.0
  0
LINE
  5
183
330
1E
100
AcDbEntity
  8
0
  6
Continuous
 62
     3
100
AcDbLine
 10
-585.6097318292843
 20
-172.387801904894
 30
0.0
 11
-585.6097318292843
 21
-174.3878019048939
 31
0.0
  0
ARC
  5
184
330
1E
100
AcDbEntity
  8
0
  6
Continuous
 62
     3
100
AcDbCircle
 10
-584.6097318292843
 20
-174.3878019048939
 30
0.0
 40
1.0
100
AcDbArc
 50
180.0
 51
270.0
  0
LINE
  5
185
330
1E
100
AcDbEntity
  8
0
  6
Continuous
 62
     3
100
AcDbLine
 10
-583.6097318302843
 20
-211.3878019048939
 30
0.0
 11
-583.6097318302843
 21
-215.3878019048939
 31
0.0
  0
LINE
  5
186
330
1E
100
AcDbEntity
  8
0
  6
Continuous
 62
     3
100
AcDbLine
 10
-582.6097318302843
 20
-215.3878019048939
 30
0.0
 11
-582.6097318302843
 21
-211.3878019048939
 31
0.0
  0
LINE
  5
187
330
1E
100
AcDbEntity
  8
0
  6
Continuous
 62
     3
100
AcDbLine
 10
-583.6097318302843
 20
-211.3878019048939
 30
0.0
 11
-563.6097318302843
 21
-211.3878019048939
 31
0.0
  0
LINE
  5
188
330
1E
100
AcDbEntity
  8
0
  6
Continuous
 62
     3
100
AcDbLine
 10
-563.6097318302843
 20
-215.3878019048939
 30
0.0
 11
-583.6097318302843
 21
-215.3878019048939
 31
0.0
  0
LINE
  5
189
330
1E
100
AcDbEntity
  8
0
  6
Continuous
 62
     3
100
AcDbLine
 10
-583.6097318292843
 20
-133.387801904894
 30
0.0
 11
-583.6097318292843
 21
-129.387801904894
 31
0.0
  0
LINE
  5
18A
330
1E
100
AcDbEntity
  8
0
  6
Continuous
 62
     3
100
AcDbLine
 10
-583.6097318292843
 20
-129.387801904894
 30
0.0
 11
-563.6097318292843
 21
-129.387801904894
 31
0.0
  0
LINE
  5
18B
330
1E
100
AcDbEntity
  8
0
  6
Continuous
 62
     3
100
AcDbLine
 10
-582.6097318292843
 20
-129.387801904894
 30
0.0
 11
-582.6097318292843
 21
-133.387801904894
 31
0.0
  0
LINE
  5
18C
330
1E
100
AcDbEntity
  8
0
  6
Continuous
 62
     3
100
AcDbLine
 10
-583.6097318292843
 20
-133.387801904894
 30
0.0
 11
-563.6097318292843
 21
-133.387801904894
 31
0.0
  0
LINE
  5
18D
330
1E
100
AcDbEntity
  8
0
  6
Continuous
 62
     3
100
AcDbLine
 10
-567.6097318292843
 20
-186.8878019048939
 30
0.0
 11
-567.6097318292843
 21
-190.8878019048939
 31
0.0
  0
LINE
  5
18E
330
1E
100
AcDbEntity
  8
0
  6
Continuous
 62
     3
100
AcDbLine
 10
-567.6097318292843
 20
-190.8878019048939
 30
0.0
 11
-563.6097318292843
 21
-190.8878019048939
 31
0.0
  0
LINE
  5
18F
330
1E
100
AcDbEntity
  8
0
  6
Continuous
 62
     3
100
AcDbLine
 10
-563.6097318292843
 20
-147.887801904894
 30
0.0
 11
-567.6097318292843
 21
-147.887801904894
 31
0.0
  0
LINE
  5
190
330
1E
100
AcDbEntity
  8
0
  6
Continuous
 62
     3
100
AcDbLine
 10
-593.6097318292843
 20
-133.387801904894
 30
0.0
 11
-594.1097318292843
 21
-133.387801904894
 31
0.0
  0
LINE
  5
191
330
1E
100
AcDbEntity
  8
0
  6
Continuous
 62
     3
100
AcDbLine
 10
-563.6097318302843
 20
-220.3878019048939
 30
0.0
 11
-563.6097318302843
 21
-216.387801904894
 31
0.0
  0
LINE
  5
192
330
1E
100
AcDbEntity
  8
0
  6
Continuous
 62
     3
100
AcDbLine
 10
-567.6097318302843
 20
-220.3878019048939
 30
0.0
 11
-567.6097318302843
 21
-216.387801904894
 31
0.0
  0
LINE
  5
193
330
1E
100
AcDbEntity
  8
0
  6
Continuous
 62
     3
100
AcDbLine
 10
-567.6097318302843
 20
-220.3878019048939
 30
0.0
 11
-563.6097318302843
 21
-220.3878019048939
 31
0.0
  0
LINE
  5
194
330
1E
100
AcDbEntity
  8
0
  6
Continuous
 62
     3
100
AcDbLine
 10
-644.1097318292843
 20
-150.387801903894
 30
0.0
 11
-665.1097318292843
 21
-150.387801903894
 31
0.0
  0
LINE
  5
195
330
1E
100
AcDbEntity
  8
0
  6
Continuous
 62
     3
100
AcDbLine
 10
-644.1097318292843
 20
-188.387801903894
 30
0.0
 11
-644.1097318292843
 21
-150.387801903894
 31
0.0
  0
LINE
  5
196
330
1E
100
AcDbEntity
  8
0
  6
Continuous
 62
     3
100
AcDbLine
 10
-644.1097318292843
 20
-150.387801903894
 30
0.0
 11
-644.1097318292843
 21
-188.387801903894
 31
0.0
  0
LINE
  5
197
330
1E
100
AcDbEntity
  8
0
  6
Continuous
 62
     3
100
AcDbLine
 10
-624.1097318292843
 20
-150.387801903894
 30
0.0
 11
-644.1097318292843
 21
-150.387801903894
 31
0.0
  0
LINE
  5
198
330
1E
100
AcDbEntity
  8
0
  6
Continuous
 62
     3
100
AcDbLine
 10
-624.1097318292843
 20
-188.387801903894
 30
0.0
 11
-624.1097318292843
 21
-150.387801903894
 31
0.0
  0
LINE
  5
199
330
1E
100
AcDbEntity
  8
0
  6
Continuous
 62
     3
100
AcDbLine
 10
-644.1097318292843
 20
-188.387801903894
 30
0.0
 11
-624.1097318292843
 21
-188.387801903894
 31
0.0
  0
LINE
  5
19A
330
1E
100
AcDbEntity
  8
0
  6
Continuous
 62
     3
100
AcDbLine
 10
-665.1097318292843
 20
-188.387801903894
 30
0.0
 11
-644.1097318292843
 21
-188.387801903894
 31
0.0
  0
LINE
  5
19B
330
1E
100
AcDbEntity
  8
0
  6
Continuous
 62
     3
100
AcDbLine
 10
-665.1097318292843
 20
-150.387801903894
 30
0.0
 11
-665.1097318292843
 21
-188.387801903894
 31
0.0
  0
ARC
  5
19C
330
1E
100
AcDbEntity
  8
0
  6
Continuous
 62
     3
100
AcDbCircle
 10
-665.1097318292843
 20
-150.387801903894
 30
0.0
 40
1.0
100
AcDbArc
 50
90.0
 51
180.0
  0
LINE
  5
19D
330
1E
100
AcDbEntity
  8
1
  6
Continuous
 62
     3
100
AcDbLine
 10
-666.1097318292843
 20
-188.387801903894
 30
0.0
 11
-666.1097318292843
 21
-150.387801903894
 31
0.0
  0
ARC
  5
19E
330
1E
100
AcDbEntity
  8
0
  6
Continuous
 62
     3
100
AcDbCircle
 10
-665.1097318292843
 20
-188.387801903894
 30
0.0
 40
1.0
100
AcDbArc
 50
180.0
 51
270.0
  0
LINE
  5
19F
330
1E
100
AcDbEntity
  8
1
  6
Continuous
 62
     3
100
AcDbLine
 10
-665.1097318292843
 20
-189.387801903894
 30
0.0
 11
-624.1097318292843
 21
-189.387801903894
 31
0.0
  0
ARC
  5
1A0
330
1E
100
AcDbEntity
  8
0
  6
Continuous
 62
     3
100
AcDbCircle
 10
-624.1097318292843
 20
-188.387801903894
 30
0.0
 40
1.0
100
AcDbArc
 50
270.0
 51
0.0
  0
LINE
  5
1A1
330
1E
100
AcDbEntity
  8
1
  6
Continuous
 62
     3
100
AcDbLine
 10
-665.1097318292843
 20
-149.3878019038939
 30
0.0
 11
-624.1097318292843
 21
-149.3878019038939
 31
0.0
  0
LINE
  5
1A2
330
1E
100
AcDbEntity
  8
1
  6
Continuous
 62
     3
100
AcDbLine
 10
-623.1097318292843
 20
-150.387801903894
 30
0.0
 11
-623.1097318292843
 21
-188.387801903894
 31
0.0
  0
ARC
  5
1A3
330
1E
100
AcDbEntity
  8
0
  6
Continuous
 62
     3
100
AcDbCircle
 10
-624.1097318292843
 20
-150.387801903894
 30
0.0
 40
1.0
100
AcDbArc
 50
0.0
 51
90.0
  0
POINT
  5
1A4
330
1E
100
AcDbEntity
  8
0
  6
Continuous
 62
     3
100
AcDbPoint
 10
-693.6097318322842
 20
-135.3878019018939
 30
0.0
  0
LINE
  5
1A5
330
1E
100
AcDbEntity
  8
0
  6
Continuous
 62
     3
100
AcDbLine
 10
-693.6097318322842
 20
-134.3878019018939
 30
0.0
 11
-693.6097318312842
 21
-204.387801901894
 31
0.0
  0
ARC
  5
1A6
330
1E
100
AcDbEntity
  8
0
  6
Continuous
 62
     3
100
AcDbCircle
 10
-691.6097318322844
 20
-134.3878019018939
 30
0.0
 40
2.0
100
AcDbArc
 50
30.465544868
 51
180.0
  0
LINE
  5
1A7
330
1E
100
AcDbEntity
  8
0
  6
Continuous
 62
     3
100
AcDbLine
 10
-628.9097318322845
 20
-133.3878019018939
 30
0.0
 11
-689.9097318282843
 21
-133.3878019018939
 31
0.0
  0
LINE
  5
1A8
330
1E
100
AcDbEntity
  8
0
  6
Continuous
 62
     3
100
AcDbLine
 10
-628.9097318282844
 20
-133.387801903894
 30
0.0
 11
-621.9097318282844
 21
-133.387801903894
 31
0.0
  0
LINE
  5
1A9
330
1E
100
AcDbEntity
  8
0
  6
Continuous
 62
     3
100
AcDbLine
 10
-626.6097318292842
 20
-133.387551903894
 30
0.0
 11
-617.6097318292843
 21
-133.387551903894
 31
0.0
  0
LINE
  5
1AA
330
1E
100
AcDbEntity
  8
0
  6
Continuous
 62
     3
100
AcDbLine
 10
-609.6097318322843
 20
-133.387801900894
 30
0.0
 11
-609.6097318322843
 21
-129.887801900894
 31
0.0
  0
LINE
  5
1AB
330
1E
100
AcDbEntity
  8
0
  6
Continuous
 62
     3
100
AcDbLine
 10
-611.3597318322844
 20
-130.6878019008939
 30
0.0
 11
-611.3597318322844
 21
-133.387801900894
 31
0.0
  0
LINE
  5
1AC
330
1E
100
AcDbEntity
  8
0
  6
Continuous
 62
     3
100
AcDbLine
 10
-617.6097318322844
 20
-133.387801900894
 30
0.0
 11
-617.6097318322844
 21
-129.887801900894
 31
0.0
  0
LINE
  5
1AD
330
1E
100
AcDbEntity
  8
0
  6
Continuous
 62
     3
100
AcDbLine
 10
-617.6097318322844
 20
-129.887801900894
 30
0.0
 11
-615.6097318322844
 21
-129.887801900894
 31
0.0
  0
LINE
  5
1AE
330
1E
100
AcDbEntity
  8
0
  6
Continuous
 62
     3
100
AcDbLine
 10
-611.3597318322844
 20
-133.387801900894
 30
0.0
 11
-615.6097318322844
 21
-133.387801900894
 31
0.0
  0
LINE
  5
1AF
330
1E
100
AcDbEntity
  8
0
  6
Continuous
 62
     3
100
AcDbLine
 10
-615.6097318292843
 20
-133.387551903894
 30
0.0
 11
-611.3597318292843
 21
-133.387551903894
 31
0.0
  0
LINE
  5
1B0
330
1E
100
AcDbEntity
  8
0
  6
Continuous
 62
     3
100
AcDbLine
 10
-615.6097318322844
 20
-129.887801900894
 30
0.0
 11
-615.6097318322844
 21
-133.387801900894
 31
0.0
  0
LINE
  5
1B1
330
1E
100
AcDbEntity
  8
0
  6
Continuous
 62
     3
100
AcDbLine
 10
-610.5597318322843
 20
-129.887801900894
 30
0.0
 11
-609.6097318322843
 21
-129.887801900894
 31
0.0
  0
ARC
  5
1B2
330
1E
100
AcDbEntity
  8
0
  6
Continuous
 62
     3
100
AcDbCircle
 10
-610.5597318322843
 20
-130.6878019008939
 30
0.0
 40
0.8
100
AcDbArc
 50
90.0
 51
179.9999999989998
  0
LINE
  5
1B3
330
1E
100
AcDbEntity
  8
0
  6
Continuous
 62
     3
100
AcDbLine
 10
-604.6097318322844
 20
-133.387801900894
 30
0.0
 11
-609.6097318322843
 21
-133.387801900894
 31
0.0
  0
LINE
  5
1B4
330
1E
100
AcDbEntity
  8
0
  6
Continuous
 62
     3
100
AcDbLine
 10
-604.6097318322844
 20
-133.387801900894
 30
0.0
 11
-609.6097318322843
 21
-133.387801900894
 31
0.0
  0
LINE
  5
1B5
330
1E
100
AcDbEntity
  8
0
  6
Continuous
 62
     3
100
AcDbLine
 10
-609.6097318292843
 20
-133.387551903894
 30
0.0
 11
-604.6097318292843
 21
-133.387551903894
 31
0.0
  0
LINE
  5
1B6
330
1E
100
AcDbEntity
  8
0
  6
Continuous
 62
     3
100
AcDbLine
 10
-604.6097318322844
 20
-129.887801900894
 30
0.0
 11
-604.6097318322844
 21
-133.387801900894
 31
0.0
  0
LINE
  5
1B7
330
1E
100
AcDbEntity
  8
0
  6
Continuous
 62
     3
100
AcDbLine
 10
-602.8597318322844
 20
-133.387801900894
 30
0.0
 11
-602.8597318322844
 21
-130.6878019008939
 31
0.0
  0
LINE
  5
1B8
330
1E
100
AcDbEntity
  8
0
  6
Continuous
 62
     3
100
AcDbLine
 10
-603.6597318322844
 20
-129.887801900894
 30
0.0
 11
-604.6097318322844
 21
-129.887801900894
 31
0.0
  0
ARC
  5
1B9
330
1E
100
AcDbEntity
  8
0
  6
Continuous
 62
     3
100
AcDbCircle
 10
-603.6597318322844
 20
-130.6878019008939
 30
0.0
 40
0.8
100
AcDbArc
 50
0.0
 51
90.0
  0
LINE
  5
1BA
330
1E
100
AcDbEntity
  8
0
  6
Continuous
 62
     3
100
AcDbLine
 10
-594.1097318322844
 20
-133.387801900894
 30
0.0
 11
-602.8597318322844
 21
-133.387801900894
 31
0.0
  0
LINE
  5
1BB
330
1E
100
AcDbEntity
  8
0
  6
Continuous
 62
     3
100
AcDbLine
 10
-602.8597318292843
 20
-133.387551903894
 30
0.0
 11
-594.6097318292843
 21
-133.3875519048939
 31
0.0
  0
ARC
  5
1BC
330
1E
100
AcDbEntity
  8
0
  6
Continuous
 62
     3
100
AcDbCircle
 10
-594.1097318322844
 20
-133.8878019008939
 30
0.0
 40
0.5
100
AcDbArc
 50
0.0
 51
90.0
  0
LINE
  5
1BD
330
1E
100
AcDbEntity
  8
0
  6
Continuous
 62
     3
100
AcDbLine
 10
-602.8597318342844
 20
-205.387801900894
 30
0.0
 11
-594.1097318312844
 21
-205.387801900894
 31
0.0
  0
LINE
  5
1BE
330
1E
100
AcDbEntity
  8
0
  6
Continuous
 62
     3
100
AcDbLine
 10
-602.8597318302843
 20
-205.388051903894
 30
0.0
 11
-594.6097318302843
 21
-205.3880519048939
 31
0.0
  0
LINE
  5
1BF
330
1E
100
AcDbEntity
  8
0
  6
Continuous
 62
     3
100
AcDbLine
 10
-609.6097318312843
 20
-205.387801900894
 30
0.0
 11
-609.6097318312843
 21
-208.8878019008939
 31
0.0
  0
LINE
  5
1C0
330
1E
100
AcDbEntity
  8
0
  6
Continuous
 62
     3
100
AcDbLine
 10
-604.6097318312844
 20
-208.8878019008939
 30
0.0
 11
-604.6097318312844
 21
-205.387801900894
 31
0.0
  0
ARC
  5
1C1
330
1E
100
AcDbEntity
  8
0
  6
Continuous
 62
     3
100
AcDbCircle
 10
-603.6597318312844
 20
-208.087801900894
 30
0.0
 40
0.8
100
AcDbArc
 50
270.0
 51
0.0
  0
LINE
  5
1C2
330
1E
100
AcDbEntity
  8
0
  6
Continuous
 62
     3
100
AcDbLine
 10
-602.8597318312844
 20
-205.387801900894
 30
0.0
 11
-602.8597318312844
 21
-208.087801900894
 31
0.0
  0
LINE
  5
1C3
330
1E
100
AcDbEntity
  8
0
  6
Continuous
 62
     3
100
AcDbLine
 10
-603.6597318312844
 20
-208.8878019008939
 30
0.0
 11
-604.6097318312844
 21
-208.8878019008939
 31
0.0
  0
LINE
  5
1C4
330
1E
100
AcDbEntity
  8
0
  6
Continuous
 62
     3
100
AcDbLine
 10
-611.3597318312844
 20
-208.087801900894
 30
0.0
 11
-611.3597318312844
 21
-205.387801900894
 31
0.0
  0
LINE
  5
1C5
330
1E
100
AcDbEntity
  8
0
  6
Continuous
 62
     3
100
AcDbLine
 10
-610.5597318312844
 20
-208.8878019008939
 30
0.0
 11
-609.6097318312843
 21
-208.8878019008939
 31
0.0
  0
ARC
  5
1C6
330
1E
100
AcDbEntity
  8
0
  6
Continuous
 62
     3
100
AcDbCircle
 10
-610.5597318312844
 20
-208.087801900894
 30
0.0
 40
0.8
100
AcDbArc
 50
180.0000000009999
 51
270.0
  0
LINE
  5
1C7
330
1E
100
AcDbEntity
  8
0
  6
Continuous
 62
     3
100
AcDbLine
 10
-615.6097318312844
 20
-208.8878019008939
 30
0.0
 11
-615.6097318312844
 21
-205.387801900894
 31
0.0
  0
LINE
  5
1C8
330
1E
100
AcDbEntity
  8
0
  6
Continuous
 62
     3
100
AcDbLine
 10
-617.6097318312844
 20
-208.8878019008939
 30
0.0
 11
-615.6097318312844
 21
-208.8878019008939
 31
0.0
  0
LINE
  5
1C9
330
1E
100
AcDbEntity
  8
0
  6
Continuous
 62
     3
100
AcDbLine
 10
-615.6097318342845
 20
-205.387801900894
 30
0.0
 11
-611.3597318342844
 21
-205.387801900894
 31
0.0
  0
LINE
  5
1CA
330
1E
100
AcDbEntity
  8
0
  6
Continuous
 62
     3
100
AcDbLine
 10
-615.6097318302843
 20
-205.388051903894
 30
0.0
 11
-611.3597318302843
 21
-205.388051903894
 31
0.0
  0
LINE
  5
1CB
330
1E
100
AcDbEntity
  8
0
  6
Continuous
 62
     3
100
AcDbLine
 10
-617.6097318312844
 20
-205.387801900894
 30
0.0
 11
-617.6097318312844
 21
-208.8878019008939
 31
0.0
  0
LINE
  5
1CC
330
1E
100
AcDbEntity
  8
0
  6
Continuous
 62
     3
100
AcDbLine
 10
-621.9097318342845
 20
-205.387801900894
 30
0.0
 11
-617.6097318342844
 21
-205.387801900894
 31
0.0
  0
LINE
  5
1CD
330
1E
100
AcDbEntity
  8
0
  6
Continuous
 62
     3
100
AcDbLine
 10
-621.9097318302845
 20
-205.3878019038939
 30
0.0
 11
-628.9097318302845
 21
-205.3878019038939
 31
0.0
  0
LINE
  5
1CE
330
1E
100
AcDbEntity
  8
0
  6
Continuous
 62
     3
100
AcDbLine
 10
-626.6097318302843
 20
-205.388051903894
 30
0.0
 11
-617.6097318302843
 21
-205.388051903894
 31
0.0
  0
LINE
  5
1CF
330
1E
100
AcDbEntity
  8
0
  6
Continuous
 62
     3
100
AcDbLine
 10
-681.6097318312844
 20
-205.3878019018939
 30
0.0
 11
-628.9097318342843
 21
-205.3878019018939
 31
0.0
  0
ARC
  5
1D0
330
1E
100
AcDbEntity
  8
0
  6
Continuous
 62
     3
100
AcDbCircle
 10
-691.6097318342845
 20
-204.387801901894
 30
0.0
 40
2.0
100
AcDbArc
 50
180.0
 51
329.534455132
  0
LINE
  5
1D1
330
1E
100
AcDbEntity
  8
0
  6
Continuous
 62
     3
100
AcDbLine
 10
-689.9597318312843
 20
-205.3878019018939
 30
0.0
 11
-686.6097318312844
 21
-205.3878019018939
 31
0.0
  0
LINE
  5
1D2
330
1E
100
AcDbEntity
  8
0
  6
Continuous
 62
     3
100
AcDbLine
 10
-686.6097318342845
 20
-205.3878018988939
 30
0.0
 11
-681.6097318342845
 21
-205.3878018988939
 31
0.0
  0
LINE
  5
1D3
330
1E
100
AcDbEntity
  8
0
  6
Continuous
 62
     3
100
AcDbLine
 10
-584.6097318282843
 20
-122.387801904894
 30
0.0
 11
-584.6097318292843
 21
-133.387801904894
 31
0.0
  0
LINE
  5
1D4
330
1E
100
AcDbEntity
  8
0
  6
Continuous
 62
     3
100
AcDbLine
 10
-593.6097318292843
 20
-133.387801904894
 30
0.0
 11
-584.6097318292843
 21
-133.387801904894
 31
0.0
  0
LINE
  5
1D5
330
1E
100
AcDbEntity
  8
0
  6
Continuous
 62
     3
100
AcDbLine
 10
-563.6097318282843
 20
-122.387801904894
 30
0.0
 11
-584.6097318282843
 21
-122.387801904894
 31
0.0
  0
LINE
  5
1D6
330
1E
100
AcDbEntity
  8
0
  6
Continuous
 62
     3
100
AcDbLine
 10
-563.6097318282843
 20
-122.387801904894
 30
0.0
 11
-563.6097318292843
 21
-151.887801904894
 31
0.0
  0
LWPOLYLINE
  5
1D7
330
1E
100
AcDbEntity
  8
0
 62
     3
100
AcDbPolyline
 90
        3
 70
     0
 43
0.0
 10
-563.6097318292843
 20
-151.887801904894
 10
-567.6097318292843
 20
-151.887801904894
 10
-567.6097318292843
 20
-186.8878019048939
  0
LINE
  5
1DC
330
1E
100
AcDbEntity
  8
0
  6
Continuous
 62
     3
100
AcDbLine
 10
-567.6097318292843
 20
-186.8878019048939
 30
0.0
 11
-563.6097318292843
 21
-186.8878019048939
 31
0.0
  0
LINE
  5
1DD
330
1E
100
AcDbEntity
  8
0
  6
Continuous
 62
     3
100
AcDbLine
 10
-563.6097318292843
 20
-186.8878019048939
 30
0.0
 11
-563.6097318302843
 21
-216.387801904894
 31
0.0
  0
LWPOLYLINE
  5
1DE
330
1E
100
AcDbEntity
  8
0
 62
     3
100
AcDbPolyline
 90
        3
 70
     0
 43
0.0
 10
-563.6097318302843
 20
-216.387801904894
 10
-584.6097318302843
 20
-216.387801904894
 10
-584.6097318302843
 20
-205.3878019048939
  0
LINE
  5
1E3
330
1E
100
AcDbEntity
  8
0
  6
Continuous
 62
     3
100
AcDbLine
 10
-593.6097318302842
 20
-205.3878019048939
 30
0.0
 11
-594.1097318302843
 21
-205.3878019048939
 31
0.0
  0
ARC
  5
1E4
330
1E
100
AcDbEntity
  8
0
  6
Continuous
 62
     3
100
AcDbCircle
 10
-594.1097318312844
 20
-204.8878019008939
 30
0.0
 40
0.5
100
AcDbArc
 50
270.0
 51
0.0
  0
LINE
  5
1E5
330
1E
100
AcDbEntity
  8
0
  6
Continuous
 62
     3
100
AcDbLine
 10
-593.6097318312844
 20
-204.8878019008939
 30
0.0
 11
-593.6097318322842
 21
-133.8878019008939
 31
0.0
  0
LINE
  5
1E6
330
1E
100
AcDbEntity
  8
0
  6
Continuous
 62
     3
100
AcDbLine
 10
-584.6097318302843
 20
-205.3878019048939
 30
0.0
 11
-593.6097318302842
 21
-205.3878019048939
 31
0.0
  0
LINE
  5
1E7
330
1E
100
AcDbEntity
  8
0
  6
Continuous
 62
     3
100
AcDbLine
 10
-593.6097318292843
 20
-162.387801904894
 30
0.0
 11
-584.6097318292843
 21
-162.387801904894
 31
0.0
  0
LINE
  5
1E8
330
1E
100
AcDbEntity
  8
0
  6
Continuous
 62
     3
100
AcDbLine
 10
-584.6097318292843
 20
-176.387801904894
 30
0.0
 11
-593.6097318292843
 21
-176.387801904894
 31
0.0
  0
LINE
  5
1E9
330
1E
100
AcDbEntity
  8
0
  6
Continuous
 62
     3
100
AcDbLine
 10
-589.3597318292843
 20
-169.919051904894
 30
0.0
 11
-585.6097318292843
 21
-170.387801904894
 31
0.0
  0
ARC
  5
1EA
330
1E
100
AcDbEntity
  8
0
  6
Continuous
 62
     3
100
AcDbCircle
 10
-589.2347318292843
 20
-169.262801904894
 30
0.0
 40
0.395284708
100
AcDbArc
 50
108.434948823
 51
198.4349488219998
  0
ARC
  5
1EB
330
1E
100
AcDbEntity
  8
0
  6
Continuous
 62
     3
100
AcDbCircle
 10
-589.2347318292843
 20
-169.512801904894
 30
0.0
 40
0.395284708
100
AcDbArc
 50
161.565051178
 51
251.565051177
  0
LWPOLYLINE
  5
1EC
330
1E
100
AcDbEntity
  8
0
 62
     3
100
AcDbPolyline
 90
        3
 70
     0
 43
0.0
 10
-584.6097318292843
 20
-167.887801904894
 10
-585.6097318292843
 20
-167.887801904894
 10
-585.6097318292843
 20
-168.387801904894
  0
LINE
  5
1F1
330
1E
100
AcDbEntity
  8
0
  6
Continuous
 62
     3
100
AcDbLine
 10
-589.3597318292843
 20
-168.856551904894
 30
0.0
 11
-585.6097318292843
 21
-168.387801904894
 31
0.0
  0
LWPOLYLINE
  5
1F2
330
1E
100
AcDbEntity
  8
0
 62
     3
100
AcDbPolyline
 90
        3
 70
     0
 43
0.0
 10
-584.6097318292843
 20
-170.887801904894
 10
-585.6097318292843
 20
-170.887801904894
 10
-585.6097318292843
 20
-170.387801904894
  0
LINE
  5
1F7
330
1E
100
AcDbEntity
  8
0
  6
Continuous
 62
     3
100
AcDbLine
 10
-584.6097318292843
 20
-176.387801904894
 30
0.0
 11
-584.6097318292843
 21
-162.387801904894
 31
0.0
  0
LWPOLYLINE
  5
1F8
330
1E
100
AcDbEntity
  8
0
 62
     3
100
AcDbPolyline
 90
        4
 70
     0
 43
0.0
 10
-563.6097318292843
 20
-151.887801904894
 10
-564.6097318292843
 20
-153.887801904894
 10
-565.6097318292843
 20
-153.887801904894
 10
-565.6097318292843
 20
-151.887801904894
  0
LWPOLYLINE
  5
1FE
330
1E
100
AcDbEntity
  8
0
 62
     3
100
AcDbPolyline
 90
        4
 70
     0
 43
0.0
 10
-563.6097318292843
 20
-186.8878019048939
 10
-564.6097318292843
 20
-184.887801904894
 10
-565.6097318292843
 20
-184.887801904894
 10
-565.6097318292843
 20
-186.8878019048939
  0
LWPOLYLINE
  5
204
330
1E
100
AcDbEntity
  8
0
 62
     3
100
AcDbPolyline
 90
        4
 70
     0
 43
0.0
 10
-567.6097318292843
 20
-179.3878019048939
 10
-563.6097318292843
 20
-178.8878019048939
 10
-563.6097318292843
 20
-174.8878019048939
 10
-567.6097318292843
 20
-174.3878019048939
  0
LWPOLYLINE
  5
20A
330
1E
100
AcDbEntity
  8
0
 62
     3
100
AcDbPolyline
 90
        4
 70
     0
 43
0.0
 10
-567.6097318292843
 20
-164.387801904894
 10
-563.6097318292843
 20
-163.887801904894
 10
-563.6097318292843
 20
-159.887801904894
 10
-567.6097318292843
 20
-159.387801904894
  0
LINE
  5
210
330
1E
100
AcDbEntity
  8
0
  6
Continuous
 62
     3
100
AcDbLine
 10
-567.6097318292843
 20
-151.887801904894
 30
0.0
 11
-567.6097318292843
 21
-147.887801904894
 31
0.0
  0
LWPOLYLINE
  5
211
330
1E
100
AcDbEntity
  8
0
 62
     3
100
AcDbPolyline
 90
        4
 70
     0
 43
0.0
 10
-722.6097318302844
 20
-216.387801904894
 10
-722.6097318302844
 20
-218.3878019048939
 10
-730.6097318302844
 20
-218.3878019048939
 10
-730.6097318302844
 20
-216.387801904894
  0
LINE
  5
217
330
1E
100
AcDbEntity
  8
0
  6
Continuous
 62
     3
100
AcDbLine
 10
-714.6097318292843
 20
-190.8878019048939
 30
0.0
 11
-713.6097318292843
 21
-190.8878019048939
 31
0.0
  0
LINE
  5
218
330
1E
100
AcDbEntity
  8
0
  6
Continuous
 62
     3
100
AcDbLine
 10
-713.6097318292843
 20
-190.8878019048939
 30
0.0
 11
-713.6097318292843
 21
-186.8878019048939
 31
0.0
  0
LINE
  5
219
330
1E
100
AcDbEntity
  8
0
  6
Continuous
 62
     3
100
AcDbLine
 10
-713.6097318292843
 20
-186.8878019048939
 30
0.0
 11
-714.6097318292843
 21
-186.8878019048939
 31
0.0
  0
LINE
  5
21A
330
1E
100
AcDbEntity
  8
0
  6
Continuous
 62
     3
100
AcDbLine
 10
-714.6097318292843
 20
-147.887801904894
 30
0.0
 11
-713.6097318292843
 21
-147.887801904894
 31
0.0
  0
LINE
  5
21B
330
1E
100
AcDbEntity
  8
0
  6
Continuous
 62
     3
100
AcDbLine
 10
-713.6097318292843
 20
-147.887801904894
 30
0.0
 11
-713.6097318292843
 21
-151.887801904894
 31
0.0
  0
LINE
  5
21C
330
1E
100
AcDbEntity
  8
0
  6
Continuous
 62
     3
100
AcDbLine
 10
-713.6097318292843
 20
-151.887801904894
 30
0.0
 11
-714.6097318292843
 21
-151.887801904894
 31
0.0
  0
LINE
  5
21D
330
1E
100
AcDbEntity
  8
0
  6
Continuous
 62
     3
100
AcDbLine
 10
-738.6097318292843
 20
-151.887801904894
 30
0.0
 11
-739.6097318292843
 21
-151.887801904894
 31
0.0
  0
LINE
  5
21E
330
1E
100
AcDbEntity
  8
0
  6
Continuous
 62
     3
100
AcDbLine
 10
-739.6097318292843
 20
-151.887801904894
 30
0.0
 11
-739.6097318292843
 21
-147.887801904894
 31
0.0
  0
LINE
  5
21F
330
1E
100
AcDbEntity
  8
0
  6
Continuous
 62
     3
100
AcDbLine
 10
-739.6097318292843
 20
-147.887801904894
 30
0.0
 11
-738.6097318292843
 21
-147.887801904894
 31
0.0
  0
LINE
  5
220
330
1E
100
AcDbEntity
  8
0
  6
Continuous
 62
     3
100
AcDbLine
 10
-738.6097318292843
 20
-186.8878019048939
 30
0.0
 11
-739.6097318292843
 21
-186.8878019048939
 31
0.0
  0
LINE
  5
221
330
1E
100
AcDbEntity
  8
0
  6
Continuous
 62
     3
100
AcDbLine
 10
-739.6097318292843
 20
-186.8878019048939
 30
0.0
 11
-739.6097318292843
 21
-190.8878019048939
 31
0.0
  0
LINE
  5
222
330
1E
100
AcDbEntity
  8
0
  6
Continuous
 62
     3
100
AcDbLine
 10
-739.6097318292843
 20
-190.8878019048939
 30
0.0
 11
-738.6097318292843
 21
-190.8878019048939
 31
0.0
  0
LINE
  5
223
330
1E
100
AcDbEntity
  8
0
  6
Continuous
 62
     3
100
AcDbLine
 10
-736.6097318302844
 20
-205.3878019048939
 30
0.0
 11
-736.6097318302844
 21
-216.387801904894
 31
0.0
  0
LINE
  5
224
330
1E
100
AcDbEntity
  8
0
  6
Continuous
 62
     3
100
AcDbLine
 10
-716.6097318302844
 20
-216.387801904894
 30
0.0
 11
-716.6097318302844
 21
-205.3878019048939
 31
0.0
  0
LINE
  5
225
330
1E
100
AcDbEntity
  8
0
  6
Continuous
 62
     3
100
AcDbLine
 10
-725.6097318302844
 20
-214.387801904894
 30
0.0
 11
-716.6097318302844
 21
-214.387801904894
 31
0.0
  0
LINE
  5
226
330
1E
100
AcDbEntity
  8
0
  6
Continuous
 62
     3
100
AcDbLine
 10
-736.6097318302844
 20
-214.387801904894
 30
0.0
 11
-727.6097318302844
 21
-214.387801904894
 31
0.0
  0
LINE
  5
227
330
1E
100
AcDbEntity
  8
0
  6
Continuous
 62
     3
100
AcDbLine
 10
-721.6097318302844
 20
-210.387801904894
 30
0.0
 11
-721.6097318302844
 21
-208.8878019048939
 31
0.0
  0
LINE
  5
228
330
1E
100
AcDbEntity
  8
0
  6
Continuous
 62
     3
100
AcDbLine
 10
-721.6097318302844
 20
-208.8878019048939
 30
0.0
 11
-720.6097318302844
 21
-208.8878019048939
 31
0.0
  0
LINE
  5
229
330
1E
100
AcDbEntity
  8
0
  6
Continuous
 62
     3
100
AcDbLine
 10
-720.6097318302844
 20
-208.8878019048939
 30
0.0
 11
-720.6097318302844
 21
-210.387801904894
 31
0.0
  0
LINE
  5
22A
330
1E
100
AcDbEntity
  8
0
  6
Continuous
 62
     3
100
AcDbLine
 10
-720.6097318302844
 20
-210.387801904894
 30
0.0
 11
-719.1097318302844
 21
-210.387801904894
 31
0.0
  0
LINE
  5
22B
330
1E
100
AcDbEntity
  8
0
  6
Continuous
 62
     3
100
AcDbLine
 10
-719.1097318302844
 20
-210.387801904894
 30
0.0
 11
-719.1097318302844
 21
-211.3878019048939
 31
0.0
  0
LINE
  5
22C
330
1E
100
AcDbEntity
  8
0
  6
Continuous
 62
     3
100
AcDbLine
 10
-719.1097318302844
 20
-211.3878019048939
 30
0.0
 11
-720.6097318302844
 21
-211.3878019048939
 31
0.0
  0
LINE
  5
22D
330
1E
100
AcDbEntity
  8
0
  6
Continuous
 62
     3
100
AcDbLine
 10
-720.6097318302844
 20
-211.3878019048939
 30
0.0
 11
-720.6097318302844
 21
-212.887801904894
 31
0.0
  0
LINE
  5
22E
330
1E
100
AcDbEntity
  8
0
  6
Continuous
 62
     3
100
AcDbLine
 10
-720.6097318302844
 20
-212.887801904894
 30
0.0
 11
-721.6097318302844
 21
-212.887801904894
 31
0.0
  0
LINE
  5
22F
330
1E
100
AcDbEntity
  8
0
  6
Continuous
 62
     3
100
AcDbLine
 10
-721.6097318302844
 20
-212.887801904894
 30
0.0
 11
-721.6097318302844
 21
-211.3878019048939
 31
0.0
  0
LINE
  5
230
330
1E
100
AcDbEntity
  8
0
  6
Continuous
 62
     3
100
AcDbLine
 10
-721.6097318302844
 20
-211.3878019048939
 30
0.0
 11
-723.1097318302844
 21
-211.3878019048939
 31
0.0
  0
LINE
  5
231
330
1E
100
AcDbEntity
  8
0
  6
Continuous
 62
     3
100
AcDbLine
 10
-723.1097318302844
 20
-211.3878019048939
 30
0.0
 11
-723.1097318302844
 21
-210.387801904894
 31
0.0
  0
LINE
  5
232
330
1E
100
AcDbEntity
  8
0
  6
Continuous
 62
     3
100
AcDbLine
 10
-723.1097318302844
 20
-210.387801904894
 30
0.0
 11
-721.6097318302844
 21
-210.387801904894
 31
0.0
  0
LINE
  5
233
330
1E
100
AcDbEntity
  8
0
  6
Continuous
 62
     3
100
AcDbLine
 10
-732.6097318302844
 20
-210.387801904894
 30
0.0
 11
-732.6097318302844
 21
-208.8878019048939
 31
0.0
  0
LINE
  5
234
330
1E
100
AcDbEntity
  8
0
  6
Continuous
 62
     3
100
AcDbLine
 10
-732.6097318302844
 20
-208.8878019048939
 30
0.0
 11
-731.6097318302844
 21
-208.8878019048939
 31
0.0
  0
LINE
  5
235
330
1E
100
AcDbEntity
  8
0
  6
Continuous
 62
     3
100
AcDbLine
 10
-731.6097318302844
 20
-208.8878019048939
 30
0.0
 11
-731.6097318302844
 21
-210.387801904894
 31
0.0
  0
LINE
  5
236
330
1E
100
AcDbEntity
  8
0
  6
Continuous
 62
     3
100
AcDbLine
 10
-731.6097318302844
 20
-210.387801904894
 30
0.0
 11
-730.1097318302844
 21
-210.387801904894
 31
0.0
  0
LINE
  5
237
330
1E
100
AcDbEntity
  8
0
  6
Continuous
 62
     3
100
AcDbLine
 10
-730.1097318302844
 20
-210.387801904894
 30
0.0
 11
-730.1097318302844
 21
-211.3878019048939
 31
0.0
  0
LINE
  5
238
330
1E
100
AcDbEntity
  8
0
  6
Continuous
 62
     3
100
AcDbLine
 10
-730.1097318302844
 20
-211.3878019048939
 30
0.0
 11
-731.6097318302844
 21
-211.3878019048939
 31
0.0
  0
LINE
  5
239
330
1E
100
AcDbEntity
  8
0
  6
Continuous
 62
     3
100
AcDbLine
 10
-731.6097318302844
 20
-211.3878019048939
 30
0.0
 11
-731.6097318302844
 21
-212.887801904894
 31
0.0
  0
LINE
  5
23A
330
1E
100
AcDbEntity
  8
0
  6
Continuous
 62
     3
100
AcDbLine
 10
-731.6097318302844
 20
-212.887801904894
 30
0.0
 11
-732.6097318302844
 21
-212.887801904894
 31
0.0
  0
LINE
  5
23B
330
1E
100
AcDbEntity
  8
0
  6
Continuous
 62
     3
100
AcDbLine
 10
-732.6097318302844
 20
-212.887801904894
 30
0.0
 11
-732.6097318302844
 21
-211.3878019048939
 31
0.0
  0
LINE
  5
23C
330
1E
100
AcDbEntity
  8
0
  6
Continuous
 62
     3
100
AcDbLine
 10
-732.6097318302844
 20
-211.3878019048939
 30
0.0
 11
-734.1097318302844
 21
-211.3878019048939
 31
0.0
  0
LINE
  5
23D
330
1E
100
AcDbEntity
  8
0
  6
Continuous
 62
     3
100
AcDbLine
 10
-734.1097318302844
 20
-211.3878019048939
 30
0.0
 11
-734.1097318302844
 21
-210.387801904894
 31
0.0
  0
LINE
  5
23E
330
1E
100
AcDbEntity
  8
0
  6
Continuous
 62
     3
100
AcDbLine
 10
-734.1097318302844
 20
-210.387801904894
 30
0.0
 11
-732.6097318302844
 21
-210.387801904894
 31
0.0
  0
LINE
  5
23F
330
1E
100
AcDbEntity
  8
0
  6
Continuous
 62
     3
100
AcDbLine
 10
-725.6097318302844
 20
-216.387801904894
 30
0.0
 11
-725.6097318302844
 21
-209.3878019048939
 31
0.0
  0
LINE
  5
240
330
1E
100
AcDbEntity
  8
0
  6
Continuous
 62
     3
100
AcDbLine
 10
-727.6097318302844
 20
-209.3878019048939
 30
0.0
 11
-727.6097318302844
 21
-216.387801904894
 31
0.0
  0
ARC
  5
241
330
1E
100
AcDbEntity
  8
0
  6
Continuous
 62
     3
100
AcDbCircle
 10
-721.1097318302844
 20
-210.887801904894
 30
0.0
 40
3.0
100
AcDbArc
 50
149.0362434679999
 51
120.9637565319999
  0
ARC
  5
242
330
1E
100
AcDbEntity
  8
0
  6
Continuous
 62
     3
100
AcDbCircle
 10
-732.1097318302844
 20
-210.887801904894
 30
0.0
 40
3.0
100
AcDbArc
 50
59.036243468
 51
30.963756532
  0
LINE
  5
243
330
1E
100
AcDbEntity
  8
0
  6
Continuous
 62
     3
100
AcDbLine
 10
-736.6097318292843
 20
-133.387801904894
 30
0.0
 11
-736.6097318282843
 21
-122.387801904894
 31
0.0
  0
LINE
  5
244
330
1E
100
AcDbEntity
  8
0
  6
Continuous
 62
     3
100
AcDbLine
 10
-716.6097318282843
 20
-122.387801904894
 30
0.0
 11
-716.6097318292843
 21
-133.387801904894
 31
0.0
  0
LINE
  5
245
330
1E
100
AcDbEntity
  8
0
  6
Continuous
 62
     3
100
AcDbLine
 10
-725.6097318282843
 20
-124.387801904894
 30
0.0
 11
-716.6097318282843
 21
-124.387801904894
 31
0.0
  0
LINE
  5
246
330
1E
100
AcDbEntity
  8
0
  6
Continuous
 62
     3
100
AcDbLine
 10
-736.6097318282843
 20
-124.387801904894
 30
0.0
 11
-727.6097318282843
 21
-124.387801904894
 31
0.0
  0
LINE
  5
247
330
1E
100
AcDbEntity
  8
0
  6
Continuous
 62
     3
100
AcDbLine
 10
-721.6097318292843
 20
-128.387801904894
 30
0.0
 11
-721.6097318292843
 21
-129.887801904894
 31
0.0
  0
LINE
  5
248
330
1E
100
AcDbEntity
  8
0
  6
Continuous
 62
     3
100
AcDbLine
 10
-721.6097318292843
 20
-129.887801904894
 30
0.0
 11
-720.6097318292843
 21
-129.887801904894
 31
0.0
  0
LINE
  5
249
330
1E
100
AcDbEntity
  8
0
  6
Continuous
 62
     3
100
AcDbLine
 10
-720.6097318292843
 20
-129.887801904894
 30
0.0
 11
-720.6097318292843
 21
-128.387801904894
 31
0.0
  0
LINE
  5
24A
330
1E
100
AcDbEntity
  8
0
  6
Continuous
 62
     3
100
AcDbLine
 10
-720.6097318292843
 20
-128.387801904894
 30
0.0
 11
-719.1097318292843
 21
-128.387801904894
 31
0.0
  0
LINE
  5
24B
330
1E
100
AcDbEntity
  8
0
  6
Continuous
 62
     3
100
AcDbLine
 10
-719.1097318292843
 20
-128.387801904894
 30
0.0
 11
-719.1097318282843
 21
-127.387801904894
 31
0.0
  0
LINE
  5
24C
330
1E
100
AcDbEntity
  8
0
  6
Continuous
 62
     3
100
AcDbLine
 10
-719.1097318282843
 20
-127.387801904894
 30
0.0
 11
-720.6097318282843
 21
-127.387801904894
 31
0.0
  0
LINE
  5
24D
330
1E
100
AcDbEntity
  8
0
  6
Continuous
 62
     3
100
AcDbLine
 10
-720.6097318282843
 20
-127.387801904894
 30
0.0
 11
-720.6097318282843
 21
-125.887801904894
 31
0.0
  0
LINE
  5
24E
330
1E
100
AcDbEntity
  8
0
  6
Continuous
 62
     3
100
AcDbLine
 10
-720.6097318282843
 20
-125.887801904894
 30
0.0
 11
-721.6097318282843
 21
-125.887801904894
 31
0.0
  0
LINE
  5
24F
330
1E
100
AcDbEntity
  8
0
  6
Continuous
 62
     3
100
AcDbLine
 10
-721.6097318282843
 20
-125.887801904894
 30
0.0
 11
-721.6097318282843
 21
-127.387801904894
 31
0.0
  0
LINE
  5
250
330
1E
100
AcDbEntity
  8
0
  6
Continuous
 62
     3
100
AcDbLine
 10
-721.6097318282843
 20
-127.387801904894
 30
0.0
 11
-723.1097318282843
 21
-127.387801904894
 31
0.0
  0
LINE
  5
251
330
1E
100
AcDbEntity
  8
0
  6
Continuous
 62
     3
100
AcDbLine
 10
-723.1097318282843
 20
-127.387801904894
 30
0.0
 11
-723.1097318292843
 21
-128.387801904894
 31
0.0
  0
LINE
  5
252
330
1E
100
AcDbEntity
  8
0
  6
Continuous
 62
     3
100
AcDbLine
 10
-723.1097318292843
 20
-128.387801904894
 30
0.0
 11
-721.6097318292843
 21
-128.387801904894
 31
0.0
  0
LINE
  5
253
330
1E
100
AcDbEntity
  8
0
  6
Continuous
 62
     3
100
AcDbLine
 10
-732.6097318292843
 20
-128.387801904894
 30
0.0
 11
-732.6097318292843
 21
-129.887801904894
 31
0.0
  0
LINE
  5
254
330
1E
100
AcDbEntity
  8
0
  6
Continuous
 62
     3
100
AcDbLine
 10
-732.6097318292843
 20
-129.887801904894
 30
0.0
 11
-731.6097318292843
 21
-129.887801904894
 31
0.0
  0
LINE
  5
255
330
1E
100
AcDbEntity
  8
0
  6
Continuous
 62
     3
100
AcDbLine
 10
-731.6097318292843
 20
-129.887801904894
 30
0.0
 11
-731.6097318292843
 21
-128.387801904894
 31
0.0
  0
LINE
  5
256
330
1E
100
AcDbEntity
  8
0
  6
Continuous
 62
     3
100
AcDbLine
 10
-731.6097318292843
 20
-128.387801904894
 30
0.0
 11
-730.1097318292843
 21
-128.387801904894
 31
0.0
  0
LINE
  5
257
330
1E
100
AcDbEntity
  8
0
  6
Continuous
 62
     3
100
AcDbLine
 10
-730.1097318292843
 20
-128.387801904894
 30
0.0
 11
-730.1097318282843
 21
-127.387801904894
 31
0.0
  0
LINE
  5
258
330
1E
100
AcDbEntity
  8
0
  6
Continuous
 62
     3
100
AcDbLine
 10
-730.1097318282843
 20
-127.387801904894
 30
0.0
 11
-731.6097318282843
 21
-127.387801904894
 31
0.0
  0
LINE
  5
259
330
1E
100
AcDbEntity
  8
0
  6
Continuous
 62
     3
100
AcDbLine
 10
-731.6097318282843
 20
-127.387801904894
 30
0.0
 11
-731.6097318282843
 21
-125.887801904894
 31
0.0
  0
LINE
  5
25A
330
1E
100
AcDbEntity
  8
0
  6
Continuous
 62
     3
100
AcDbLine
 10
-731.6097318282843
 20
-125.887801904894
 30
0.0
 11
-732.6097318282843
 21
-125.887801904894
 31
0.0
  0
LINE
  5
25B
330
1E
100
AcDbEntity
  8
0
  6
Continuous
 62
     3
100
AcDbLine
 10
-732.6097318282843
 20
-125.887801904894
 30
0.0
 11
-732.6097318282843
 21
-127.387801904894
 31
0.0
  0
LINE
  5
25C
330
1E
100
AcDbEntity
  8
0
  6
Continuous
 62
     3
100
AcDbLine
 10
-732.6097318282843
 20
-127.387801904894
 30
0.0
 11
-734.1097318282843
 21
-127.387801904894
 31
0.0
  0
LINE
  5
25D
330
1E
100
AcDbEntity
  8
0
  6
Continuous
 62
     3
100
AcDbLine
 10
-734.1097318282843
 20
-127.387801904894
 30
0.0
 11
-734.1097318292843
 21
-128.387801904894
 31
0.0
  0
LINE
  5
25E
330
1E
100
AcDbEntity
  8
0
  6
Continuous
 62
     3
100
AcDbLine
 10
-734.1097318292843
 20
-128.387801904894
 30
0.0
 11
-732.6097318292843
 21
-128.387801904894
 31
0.0
  0
LINE
  5
25F
330
1E
100
AcDbEntity
  8
0
  6
Continuous
 62
     3
100
AcDbLine
 10
-725.6097318282843
 20
-122.387801904894
 30
0.0
 11
-725.6097318292843
 21
-129.387801904894
 31
0.0
  0
LINE
  5
260
330
1E
100
AcDbEntity
  8
0
  6
Continuous
 62
     3
100
AcDbLine
 10
-727.6097318292843
 20
-129.387801904894
 30
0.0
 11
-727.6097318282843
 21
-122.387801904894
 31
0.0
  0
ARC
  5
261
330
1E
100
AcDbEntity
  8
0
  6
Continuous
 62
     3
100
AcDbCircle
 10
-721.1097318282845
 20
-127.887801904894
 30
0.0
 40
3.0
100
AcDbArc
 50
239.0362434679999
 51
210.963756532
  0
ARC
  5
262
330
1E
100
AcDbEntity
  8
0
  6
Continuous
 62
     3
100
AcDbCircle
 10
-732.1097318282843
 20
-127.887801904894
 30
0.0
 40
3.0
100
AcDbArc
 50
329.036243468
 51
300.9637565319998
  0
LINE
  5
263
330
1E
100
AcDbEntity
  8
0
  6
Continuous
 62
     3
100
AcDbLine
 10
-716.6097318302844
 20
-202.387801904894
 30
0.0
 11
-716.6097318292843
 21
-136.387801904894
 31
0.0
  0
LINE
  5
264
330
1E
100
AcDbEntity
  8
0
  6
Continuous
 62
     3
100
AcDbLine
 10
-736.6097318292843
 20
-136.387801904894
 30
0.0
 11
-736.6097318302844
 21
-202.387801904894
 31
0.0
  0
TEXT
  5
265
330
1E
100
AcDbEntity
  8
0
  6
Continuous
 62
     3
100
AcDbText
 10
-725.1561951492845
 20
-194.7076652228939
 30
0.0
 40
4.355999999999998
  1
Ｍ
 50
90.0
 41
0.88
  7
KANJI0
100
AcDbText
  0
LWPOLYLINE
  5
266
330
1E
100
AcDbEntity
  8
0
 62
     3
100
AcDbPolyline
 90
        3
 70
     1
 43
0.0
 10
-728.4597318292845
 20
-186.0778019028939
 10
-725.9597318292843
 20
-186.0778019028939
 10
-727.2097318292845
 20
-183.0778019028939
  0
LINE
  5
26B
330
1E
100
AcDbEntity
  8
0
  6
Continuous
 62
     3
100
AcDbLine
 10
-728.2097318292843
 20
-186.0778019028939
 30
0.0
 11
-728.2097318292843
 21
-185.4778019028939
 31
0.0
  0
LINE
  5
26C
330
1E
100
AcDbEntity
  8
0
  6
Continuous
 62
     3
100
AcDbLine
 10
-727.9597318292843
 20
-184.8778019028939
 30
0.0
 11
-727.9597318292843
 21
-186.0778019028939
 31
0.0
  0
LINE
  5
26D
330
1E
100
AcDbEntity
  8
0
  6
Continuous
 62
     3
100
AcDbLine
 10
-727.7097318292844
 20
-186.0778019028939
 30
0.0
 11
-727.7097318292844
 21
-184.2778019028939
 31
0.0
  0
LINE
  5
26E
330
1E
100
AcDbEntity
  8
0
  6
Continuous
 62
     3
100
AcDbLine
 10
-727.4597318292843
 20
-183.6778019028939
 30
0.0
 11
-727.4597318292843
 21
-186.0778019028939
 31
0.0
  0
LINE
  5
26F
330
1E
100
AcDbEntity
  8
0
  6
Continuous
 62
     3
100
AcDbLine
 10
-727.2097318292845
 20
-186.0778019028939
 30
0.0
 11
-727.2097318292845
 21
-183.0778019028939
 31
0.0
  0
LINE
  5
270
330
1E
100
AcDbEntity
  8
0
  6
Continuous
 62
     3
100
AcDbLine
 10
-726.9597318292843
 20
-183.6778019028939
 30
0.0
 11
-726.9597318292843
 21
-186.0778019028939
 31
0.0
  0
LINE
  5
271
330
1E
100
AcDbEntity
  8
0
  6
Continuous
 62
     3
100
AcDbLine
 10
-726.7097318292845
 20
-186.0778019028939
 30
0.0
 11
-726.7097318292845
 21
-184.2778019028939
 31
0.0
  0
LINE
  5
272
330
1E
100
AcDbEntity
  8
0
  6
Continuous
 62
     3
100
AcDbLine
 10
-726.4597318292843
 20
-184.8778019028939
 30
0.0
 11
-726.4597318292843
 21
-186.0778019028939
 31
0.0
  0
LINE
  5
273
330
1E
100
AcDbEntity
  8
0
  6
Continuous
 62
     3
100
AcDbLine
 10
-726.2097318292845
 20
-186.0778019028939
 30
0.0
 11
-726.2097318292845
 21
-185.4778019028939
 31
0.0
  0
LINE
  5
274
330
1E
100
AcDbEntity
  8
0
  6
Continuous
 62
     3
100
AcDbLine
 10
-728.4597318292845
 20
-186.0778019028939
 30
0.0
 11
-725.9597318292843
 21
-186.0778019028939
 31
0.0
  0
LINE
  5
275
330
1E
100
AcDbEntity
  8
0
  6
Continuous
 62
     3
100
AcDbLine
 10
-726.0638984962842
 20
-185.8278019028939
 30
0.0
 11
-728.3555651622844
 21
-185.8278019028939
 31
0.0
  0
LINE
  5
276
330
1E
100
AcDbEntity
  8
0
  6
Continuous
 62
     3
100
AcDbLine
 10
-728.2513984962843
 20
-185.5778019028939
 30
0.0
 11
-726.1680651622842
 21
-185.5778019028939
 31
0.0
  0
LINE
  5
277
330
1E
100
AcDbEntity
  8
0
  6
Continuous
 62
     3
100
AcDbLine
 10
-726.2722318292843
 20
-185.3278019028939
 30
0.0
 11
-728.1472318292843
 21
-185.3278019028939
 31
0.0
  0
LINE
  5
278
330
1E
100
AcDbEntity
  8
0
  6
Continuous
 62
     3
100
AcDbLine
 10
-728.0430651622842
 20
-185.0778019028939
 30
0.0
 11
-726.3763984962842
 21
-185.0778019028939
 31
0.0
  0
LINE
  5
279
330
1E
100
AcDbEntity
  8
0
  6
Continuous
 62
     3
100
AcDbLine
 10
-726.4805651622842
 20
-184.8278019028939
 30
0.0
 11
-727.9388984962842
 21
-184.8278019028939
 31
0.0
  0
LINE
  5
27A
330
1E
100
AcDbEntity
  8
0
  6
Continuous
 62
     3
100
AcDbLine
 10
-727.8347318292843
 20
-184.5778019028939
 30
0.0
 11
-726.5847318292843
 21
-184.5778019028939
 31
0.0
  0
LINE
  5
27B
330
1E
100
AcDbEntity
  8
0
  6
Continuous
 62
     3
100
AcDbLine
 10
-726.6888984962843
 20
-184.3278019028939
 30
0.0
 11
-727.7305651622842
 21
-184.3278019028939
 31
0.0
  0
LINE
  5
27C
330
1E
100
AcDbEntity
  8
0
  6
Continuous
 62
     3
100
AcDbLine
 10
-727.6263984962842
 20
-184.0778019028939
 30
0.0
 11
-726.7930651622844
 21
-184.0778019028939
 31
0.0
  0
LINE
  5
27D
330
1E
100
AcDbEntity
  8
0
  6
Continuous
 62
     3
100
AcDbLine
 10
-726.8972318292845
 20
-183.8278019028939
 30
0.0
 11
-727.5222318292843
 21
-183.8278019028939
 31
0.0
  0
LINE
  5
27E
330
1E
100
AcDbEntity
  8
0
  6
Continuous
 62
     3
100
AcDbLine
 10
-727.4180651622843
 20
-183.5778019028939
 30
0.0
 11
-727.0013984962843
 21
-183.5778019028939
 31
0.0
  0
LINE
  5
27F
330
1E
100
AcDbEntity
  8
0
  6
Continuous
 62
     3
100
AcDbLine
 10
-727.1055651622844
 20
-183.3278019028939
 30
0.0
 11
-727.3138984962843
 21
-183.3278019028939
 31
0.0
  0
LINE
  5
280
330
1E
100
AcDbEntity
  8
1
  6
Continuous
 62
     3
100
AcDbLine
 10
-731.6097318292843
 20
-136.387801902894
 30
0.0
 11
-731.6097318292843
 21
-166.387801902894
 31
0.0
  0
LINE
  5
281
330
1E
100
AcDbEntity
  8
1
  6
Continuous
 62
     3
100
AcDbLine
 10
-731.6097318292843
 20
-166.387801902894
 30
0.0
 11
-735.6097318292843
 21
-170.387801902894
 31
0.0
  0
LINE
  5
282
330
1E
100
AcDbEntity
  8
1
  6
Continuous
 62
     3
100
AcDbLine
 10
-735.6097318292843
 20
-170.387801902894
 30
0.0
 11
-735.6097318292843
 21
-202.387801902894
 31
0.0
  0
LINE
  5
283
330
1E
100
AcDbEntity
  8
1
  6
Continuous
 62
     3
100
AcDbLine
 10
-731.1097318292843
 20
-202.387801902894
 30
0.0
 11
-716.6097318292843
 21
-202.387801902894
 31
0.0
  0
LINE
  5
284
330
1E
100
AcDbEntity
  8
1
  6
Continuous
 62
     3
100
AcDbLine
 10
-736.6097318292843
 20
-202.387801902894
 30
0.0
 11
-731.1097318292843
 21
-202.387801902894
 31
0.0
  0
LINE
  5
285
330
1E
100
AcDbEntity
  8
1
  6
Continuous
 62
     3
100
AcDbLine
 10
-731.1097318292843
 20
-136.387801902894
 30
0.0
 11
-716.6097318292843
 21
-136.387801902894
 31
0.0
  0
LINE
  5
286
330
1E
100
AcDbEntity
  8
1
  6
Continuous
 62
     3
100
AcDbLine
 10
-716.6097318292843
 20
-136.387801902894
 30
0.0
 11
-716.6097318292843
 21
-202.387801902894
 31
0.0
  0
LINE
  5
287
330
1E
100
AcDbEntity
  8
1
  6
Continuous
 62
     3
100
AcDbLine
 10
-716.6097318292843
 20
-201.1378019028939
 30
0.0
 11
-716.6097318292843
 21
-137.637801902894
 31
0.0
  0
LINE
  5
288
330
1E
100
AcDbEntity
  8
1
  6
Continuous
 62
     3
100
AcDbLine
 10
-736.6097318292843
 20
-136.387801902894
 30
0.0
 11
-736.6097318292843
 21
-202.387801902894
 31
0.0
  0
LINE
  5
289
330
1E
100
AcDbEntity
  8
1
  6
Continuous
 62
     3
100
AcDbLine
 10
-736.6097318292843
 20
-136.387801902894
 30
0.0
 11
-731.1097318292843
 21
-136.387801902894
 31
0.0
  0
LINE
  5
28A
330
1E
100
AcDbEntity
  8
1
  6
Continuous
 62
     3
100
AcDbLine
 10
-717.6097318292843
 20
-202.387801902894
 30
0.0
 11
-717.6097318292843
 21
-136.387801902894
 31
0.0
  0
TEXT
  5
28B
330
1E
100
AcDbEntity
  8
1
  6
Continuous
 62
     3
100
AcDbText
 10
-732.6097318292843
 20
-164.387801902894
 30
0.1
 40
2.6
  1
MODEL TF-6
 50
90.0
  7
KANJI1
100
AcDbText
  0
LINE
  5
28C
330
1E
100
AcDbEntity
  8
1
  6
Continuous
 62
     3
100
AcDbLine
 10
-730.3097318292842
 20
-174.8878019028939
 30
0.1
 11
-720.8097318292844
 21
-174.8878019028939
 31
0.1
  0
LINE
  5
28D
330
1E
100
AcDbEntity
  8
1
  6
Continuous
 62
     3
100
AcDbLine
 10
-720.8097318292844
 20
-145.887801902894
 30
0.0
 11
-730.3097318292842
 21
-145.887801902894
 31
0.0
  0
LINE
  5
28E
330
1E
100
AcDbEntity
  8
1
  6
Continuous
 62
     3
100
AcDbLine
 10
-730.3097318292842
 20
-145.887801902894
 30
0.0
 11
-730.3097318292842
 21
-174.8878019028939
 31
0.0
  0
LINE
  5
28F
330
1E
100
AcDbEntity
  8
1
  6
Continuous
 62
     3
100
AcDbLine
 10
-720.8097318292844
 20
-174.8878019028939
 30
0.0
 11
-720.8097318292844
 21
-145.887801902894
 31
0.0
  0
LINE
  5
290
330
1E
100
AcDbEntity
  8
1
  6
Continuous
 62
     3
100
AcDbLine
 10
-730.1516149212845
 20
-174.8878019028939
 30
0.0
 11
-730.3097318292842
 21
-174.729684994894
 31
0.0
  0
LINE
  5
291
330
1E
100
AcDbEntity
  8
1
  6
Continuous
 62
     3
100
AcDbLine
 10
-730.3097318292842
 20
-174.022578213894
 30
0.0
 11
-729.4445081402844
 21
-174.8878019028939
 31
0.0
  0
LINE
  5
292
330
1E
100
AcDbEntity
  8
1
  6
Continuous
 62
     3
100
AcDbLine
 10
-728.7374013592843
 20
-174.8878019028939
 30
0.0
 11
-730.3097318292842
 21
-173.3154714328939
 31
0.0
  0
LINE
  5
293
330
1E
100
AcDbEntity
  8
1
  6
Continuous
 62
     3
100
AcDbLine
 10
-730.3097318292842
 20
-172.6083646508939
 30
0.0
 11
-728.0302945782842
 21
-174.8878019028939
 31
0.0
  0
LINE
  5
294
330
1E
100
AcDbEntity
  8
1
  6
Continuous
 62
     3
100
AcDbLine
 10
-727.3231877962841
 20
-174.8878019028939
 30
0.0
 11
-730.3097318292842
 21
-171.9012578698939
 31
0.0
  0
LINE
  5
295
330
1E
100
AcDbEntity
  8
1
  6
Continuous
 62
     3
100
AcDbLine
 10
-730.3097318292842
 20
-171.194151088894
 30
0.0
 11
-726.6160810152844
 21
-174.8878019028939
 31
0.0
  0
LINE
  5
296
330
1E
100
AcDbEntity
  8
1
  6
Continuous
 62
     3
100
AcDbLine
 10
-725.9089742342844
 20
-174.8878019028939
 30
0.0
 11
-730.3097318292842
 21
-170.487044307894
 31
0.0
  0
LINE
  5
297
330
1E
100
AcDbEntity
  8
1
  6
Continuous
 62
     3
100
AcDbLine
 10
-730.3097318292842
 20
-169.779937526894
 30
0.0
 11
-725.2018674532843
 21
-174.8878019028939
 31
0.0
  0
LINE
  5
298
330
1E
100
AcDbEntity
  8
1
  6
Continuous
 62
     3
100
AcDbLine
 10
-724.4947606722844
 20
-174.8878019028939
 30
0.0
 11
-730.3097318292842
 21
-169.0728307458939
 31
0.0
  0
LINE
  5
299
330
1E
100
AcDbEntity
  8
1
  6
Continuous
 62
     3
100
AcDbLine
 10
-730.3097318292842
 20
-168.3657239638939
 30
0.0
 11
-723.7876538902844
 21
-174.8878019028939
 31
0.0
  0
LINE
  5
29A
330
1E
100
AcDbEntity
  8
1
  6
Continuous
 62
     3
100
AcDbLine
 10
-723.0805471092843
 20
-174.8878019028939
 30
0.0
 11
-730.3097318292842
 21
-167.658617182894
 31
0.0
  0
LINE
  5
29B
330
1E
100
AcDbEntity
  8
1
  6
Continuous
 62
     3
100
AcDbLine
 10
-730.3097318292842
 20
-166.9515104018939
 30
0.0
 11
-722.3734403282843
 21
-174.8878019028939
 31
0.0
  0
LINE
  5
29C
330
1E
100
AcDbEntity
  8
1
  6
Continuous
 62
     3
100
AcDbLine
 10
-721.6663335472843
 20
-174.8878019028939
 30
0.0
 11
-730.3097318292842
 21
-166.2444036208939
 31
0.0
  0
LINE
  5
29D
330
1E
100
AcDbEntity
  8
1
  6
Continuous
 62
     3
100
AcDbLine
 10
-730.3097318292842
 20
-165.5372968398939
 30
0.0
 11
-720.9592267662843
 21
-174.8878019028939
 31
0.0
  0
LINE
  5
29E
330
1E
100
AcDbEntity
  8
1
  6
Continuous
 62
     3
100
AcDbLine
 10
-720.8097318292844
 20
-174.3301900578939
 30
0.0
 11
-730.3097318292842
 21
-164.830190057894
 31
0.0
  0
LINE
  5
29F
330
1E
100
AcDbEntity
  8
1
  6
Continuous
 62
     3
100
AcDbLine
 10
-730.3097318292842
 20
-164.123083276894
 30
0.0
 11
-720.8097318292844
 21
-173.6230832768939
 31
0.0
  0
LINE
  5
2A0
330
1E
100
AcDbEntity
  8
1
  6
Continuous
 62
     3
100
AcDbLine
 10
-720.8097318292844
 20
-172.915976495894
 30
0.0
 11
-730.3097318292842
 21
-163.415976495894
 31
0.0
  0
LINE
  5
2A1
330
1E
100
AcDbEntity
  8
1
  6
Continuous
 62
     3
100
AcDbLine
 10
-730.3097318292842
 20
-162.7088697148939
 30
0.0
 11
-720.8097318292844
 21
-172.2088697148939
 31
0.0
  0
LINE
  5
2A2
330
1E
100
AcDbEntity
  8
1
  6
Continuous
 62
     3
100
AcDbLine
 10
-720.8097318292844
 20
-171.501762933894
 30
0.0
 11
-730.3097318292842
 21
-162.001762933894
 31
0.0
  0
LINE
  5
2A3
330
1E
100
AcDbEntity
  8
1
  6
Continuous
 62
     3
100
AcDbLine
 10
-730.3097318292842
 20
-161.2946561518939
 30
0.0
 11
-720.8097318292844
 21
-170.7946561518939
 31
0.0
  0
LINE
  5
2A4
330
1E
100
AcDbEntity
  8
1
  6
Continuous
 62
     3
100
AcDbLine
 10
-720.8097318292844
 20
-170.0875493708939
 30
0.0
 11
-730.3097318292842
 21
-160.5875493708939
 31
0.0
  0
LINE
  5
2A5
330
1E
100
AcDbEntity
  8
1
  6
Continuous
 62
     3
100
AcDbLine
 10
-730.3097318292842
 20
-159.880442589894
 30
0.0
 11
-720.8097318292844
 21
-169.380442589894
 31
0.0
  0
LINE
  5
2A6
330
1E
100
AcDbEntity
  8
1
  6
Continuous
 62
     3
100
AcDbLine
 10
-720.8097318292844
 20
-168.673335808894
 30
0.0
 11
-730.3097318292842
 21
-159.1733358088939
 31
0.0
  0
LINE
  5
2A7
330
1E
100
AcDbEntity
  8
1
  6
Continuous
 62
     3
100
AcDbLine
 10
-730.3097318292842
 20
-158.466229027894
 30
0.0
 11
-720.8097318292844
 21
-167.9662290278939
 31
0.0
  0
LINE
  5
2A8
330
1E
100
AcDbEntity
  8
1
  6
Continuous
 62
     3
100
AcDbLine
 10
-720.8097318292844
 20
-167.259122246894
 30
0.0
 11
-730.3097318292842
 21
-157.759122246894
 31
0.0
  0
LINE
  5
2A9
330
1E
100
AcDbEntity
  8
1
  6
Continuous
 62
     3
100
AcDbLine
 10
-730.3097318292842
 20
-157.052015464894
 30
0.0
 11
-720.8097318292844
 21
-166.5520154648939
 31
0.0
  0
LINE
  5
2AA
330
1E
100
AcDbEntity
  8
1
  6
Continuous
 62
     3
100
AcDbLine
 10
-720.8097318292844
 20
-165.844908683894
 30
0.0
 11
-730.3097318292842
 21
-156.344908683894
 31
0.0
  0
LINE
  5
2AB
330
1E
100
AcDbEntity
  8
1
  6
Continuous
 62
     3
100
AcDbLine
 10
-730.3097318292842
 20
-155.637801902894
 30
0.0
 11
-720.8097318292844
 21
-165.137801902894
 31
0.0
  0
LINE
  5
2AC
330
1E
100
AcDbEntity
  8
1
  6
Continuous
 62
     3
100
AcDbLine
 10
-720.8097318292844
 20
-164.4306951218939
 30
0.0
 11
-730.3097318292842
 21
-154.9306951218939
 31
0.0
  0
LINE
  5
2AD
330
1E
100
AcDbEntity
  8
1
  6
Continuous
 62
     3
100
AcDbLine
 10
-730.3097318292842
 20
-154.223588340894
 30
0.0
 11
-720.8097318292844
 21
-163.723588340894
 31
0.0
  0
LINE
  5
2AE
330
1E
100
AcDbEntity
  8
1
  6
Continuous
 62
     3
100
AcDbLine
 10
-720.8097318292844
 20
-163.016481558894
 30
0.0
 11
-730.3097318292842
 21
-153.516481558894
 31
0.0
  0
LINE
  5
2AF
330
1E
100
AcDbEntity
  8
1
  6
Continuous
 62
     3
100
AcDbLine
 10
-730.3097318292842
 20
-152.809374777894
 30
0.0
 11
-720.8097318292844
 21
-162.3093747778939
 31
0.0
  0
LINE
  5
2B0
330
1E
100
AcDbEntity
  8
1
  6
Continuous
 62
     3
100
AcDbLine
 10
-720.8097318292844
 20
-161.602267996894
 30
0.0
 11
-730.3097318292842
 21
-152.102267996894
 31
0.0
  0
LINE
  5
2B1
330
1E
100
AcDbEntity
  8
1
  6
Continuous
 62
     3
100
AcDbLine
 10
-730.3097318292842
 20
-151.395161215894
 30
0.0
 11
-720.8097318292844
 21
-160.8951612158939
 31
0.0
  0
LINE
  5
2B2
330
1E
100
AcDbEntity
  8
1
  6
Continuous
 62
     3
100
AcDbLine
 10
-720.8097318292844
 20
-160.188054434894
 30
0.0
 11
-730.3097318292842
 21
-150.688054434894
 31
0.0
  0
LINE
  5
2B3
330
1E
100
AcDbEntity
  8
1
  6
Continuous
 62
     3
100
AcDbLine
 10
-730.3097318292842
 20
-149.9809476528939
 30
0.0
 11
-720.8097318292844
 21
-159.480947652894
 31
0.0
  0
LINE
  5
2B4
330
1E
100
AcDbEntity
  8
1
  6
Continuous
 62
     3
100
AcDbLine
 10
-720.8097318292844
 20
-158.773840871894
 30
0.0
 11
-730.3097318292842
 21
-149.273840871894
 31
0.0
  0
LINE
  5
2B5
330
1E
100
AcDbEntity
  8
1
  6
Continuous
 62
     3
100
AcDbLine
 10
-730.3097318292842
 20
-148.5667340908939
 30
0.0
 11
-720.8097318292844
 21
-158.066734090894
 31
0.0
  0
LINE
  5
2B6
330
1E
100
AcDbEntity
  8
1
  6
Continuous
 62
     3
100
AcDbLine
 10
-720.8097318292844
 20
-157.3596273098939
 30
0.0
 11
-730.3097318292842
 21
-147.8596273098939
 31
0.0
  0
LINE
  5
2B7
330
1E
100
AcDbEntity
  8
1
  6
Continuous
 62
     3
100
AcDbLine
 10
-730.3097318292842
 20
-147.152520528894
 30
0.0
 11
-720.8097318292844
 21
-156.652520528894
 31
0.0
  0
LINE
  5
2B8
330
1E
100
AcDbEntity
  8
1
  6
Continuous
 62
     3
100
AcDbLine
 10
-720.8097318292844
 20
-155.945413747894
 30
0.0
 11
-730.3097318292842
 21
-146.445413747894
 31
0.0
  0
LINE
  5
2B9
330
1E
100
AcDbEntity
  8
1
  6
Continuous
 62
     3
100
AcDbLine
 10
-730.1602368932845
 20
-145.887801902894
 30
0.0
 11
-720.8097318292844
 21
-155.2383069658939
 31
0.0
  0
LINE
  5
2BA
330
1E
100
AcDbEntity
  8
1
  6
Continuous
 62
     3
100
AcDbLine
 10
-720.8097318292844
 20
-154.531200184894
 30
0.0
 11
-729.4531301112843
 21
-145.887801902894
 31
0.0
  0
LINE
  5
2BB
330
1E
100
AcDbEntity
  8
1
  6
Continuous
 62
     3
100
AcDbLine
 10
-728.7460233302843
 20
-145.887801902894
 30
0.0
 11
-720.8097318292844
 21
-153.824093403894
 31
0.0
  0
LINE
  5
2BC
330
1E
100
AcDbEntity
  8
1
  6
Continuous
 62
     3
100
AcDbLine
 10
-720.8097318292844
 20
-153.1169866228939
 30
0.0
 11
-728.0389165492842
 21
-145.887801902894
 31
0.0
  0
LINE
  5
2BD
330
1E
100
AcDbEntity
  8
1
  6
Continuous
 62
     3
100
AcDbLine
 10
-727.3318097682842
 20
-145.887801902894
 30
0.0
 11
-720.8097318292844
 21
-152.409879841894
 31
0.0
  0
LINE
  5
2BE
330
1E
100
AcDbEntity
  8
1
  6
Continuous
 62
     3
100
AcDbLine
 10
-720.8097318292844
 20
-151.702773059894
 30
0.0
 11
-726.6247029872844
 21
-145.887801902894
 31
0.0
  0
LINE
  5
2BF
330
1E
100
AcDbEntity
  8
1
  6
Continuous
 62
     3
100
AcDbLine
 10
-725.9175962052844
 20
-145.887801902894
 30
0.0
 11
-720.8097318292844
 21
-150.995666278894
 31
0.0
  0
LINE
  5
2C0
330
1E
100
AcDbEntity
  8
1
  6
Continuous
 62
     3
100
AcDbLine
 10
-720.8097318292844
 20
-150.2885594978939
 30
0.0
 11
-725.2104894242843
 21
-145.887801902894
 31
0.0
  0
LINE
  5
2C1
330
1E
100
AcDbEntity
  8
1
  6
Continuous
 62
     3
100
AcDbLine
 10
-724.5033826432845
 20
-145.887801902894
 30
0.0
 11
-720.8097318292844
 21
-149.5814527168939
 31
0.0
  0
LINE
  5
2C2
330
1E
100
AcDbEntity
  8
1
  6
Continuous
 62
     3
100
AcDbLine
 10
-720.8097318292844
 20
-148.8743459358939
 30
0.0
 11
-723.7962758622843
 21
-145.887801902894
 31
0.0
  0
LINE
  5
2C3
330
1E
100
AcDbEntity
  8
1
  6
Continuous
 62
     3
100
AcDbLine
 10
-723.0891690812843
 20
-145.887801902894
 30
0.0
 11
-720.8097318292844
 21
-148.167239153894
 31
0.0
  0
LINE
  5
2C4
330
1E
100
AcDbEntity
  8
1
  6
Continuous
 62
     3
100
AcDbLine
 10
-720.8097318292844
 20
-147.460132372894
 30
0.0
 11
-722.3820622992842
 21
-145.887801902894
 31
0.0
  0
LINE
  5
2C5
330
1E
100
AcDbEntity
  8
1
  6
Continuous
 62
     3
100
AcDbLine
 10
-721.6749555182842
 20
-145.887801902894
 30
0.0
 11
-720.8097318292844
 21
-146.7530255918939
 31
0.0
  0
LINE
  5
2C6
330
1E
100
AcDbEntity
  8
1
  6
Continuous
 62
     3
100
AcDbLine
 10
-720.8097318292844
 20
-146.0459188108939
 30
0.0
 11
-720.9678487372842
 21
-145.887801902894
 31
0.0
  0
LWPOLYLINE
  5
2C7
330
1E
100
AcDbEntity
  8
1
 62
     3
100
AcDbPolyline
 90
        4
 70
     1
 43
0.0
 10
-725.1097318292843
 20
-177.8878019028939
 10
-725.1097318292843
 20
-175.8878019028939
 10
-726.1097318292843
 20
-175.8878019028939
 10
-726.1097318292843
 20
-177.8878019028939
  0
LINE
  5
2CD
330
1E
100
AcDbEntity
  8
1
  6
Continuous
 62
     3
100
AcDbLine
 10
-726.0239453912843
 20
-177.8878019028939
 30
0.0
 11
-726.1097318292843
 21
-177.802015464894
 31
0.0
  0
LINE
  5
2CE
330
1E
100
AcDbEntity
  8
1
  6
Continuous
 62
     3
100
AcDbLine
 10
-726.1097318292843
 20
-177.094908683894
 30
0.0
 11
-725.3168386102844
 21
-177.8878019028939
 31
0.0
  0
LINE
  5
2CF
330
1E
100
AcDbEntity
  8
1
  6
Continuous
 62
     3
100
AcDbLine
 10
-725.1097318292843
 20
-177.3878019028939
 30
0.0
 11
-726.1097318292843
 21
-176.3878019028939
 31
0.0
  0
LINE
  5
2D0
330
1E
100
AcDbEntity
  8
1
  6
Continuous
 62
     3
100
AcDbLine
 10
-725.9026250482843
 20
-175.8878019028939
 30
0.0
 11
-725.1097318292843
 21
-176.6806951218939
 31
0.0
  0
LINE
  5
2D1
330
1E
100
AcDbEntity
  8
1
  6
Continuous
 62
     3
100
AcDbLine
 10
-725.1097318292843
 20
-175.973588340894
 30
0.0
 11
-725.1955182672843
 21
-175.8878019028939
 31
0.0
  0
ARC
  5
2D2
330
1E
100
AcDbEntity
  8
0
  6
Continuous
 62
     3
100
AcDbCircle
 10
-733.1097318302844
 20
-219.8878019048939
 30
0.0
 40
0.5
100
AcDbArc
 50
180.0
 51
270.0
  0
ARC
  5
2D3
330
1E
100
AcDbEntity
  8
0
  6
Continuous
 62
     3
100
AcDbCircle
 10
-720.1097318302844
 20
-219.8878019048939
 30
0.0
 40
0.5
100
AcDbArc
 50
270.0
 51
0.0
  0
LINE
  5
2D4
330
1E
100
AcDbEntity
  8
0
  6
Continuous
 62
     3
100
AcDbLine
 10
-733.1097318302844
 20
-220.3878019048939
 30
0.0
 11
-720.1097318302844
 21
-220.3878019048939
 31
0.0
  0
LINE
  5
2D5
330
1E
100
AcDbEntity
  8
0
  6
Continuous
 62
     3
100
AcDbLine
 10
-719.6097318302844
 20
-219.8878019048939
 30
0.0
 11
-719.6097318302844
 21
-216.387801904894
 31
0.0
  0
LINE
  5
2D6
330
1E
100
AcDbEntity
  8
0
  6
Continuous
 62
     3
100
AcDbLine
 10
-733.6097318302844
 20
-219.8878019048939
 30
0.0
 11
-733.6097318302844
 21
-216.387801904894
 31
0.0
  0
CIRCLE
  5
2D7
330
1E
100
AcDbEntity
  8
1
  6
Continuous
 62
     3
100
AcDbCircle
 10
-722.6097318292843
 20
-184.6378019028939
 30
0.0
 40
2.0
  0
CIRCLE
  5
2D8
330
1E
100
AcDbEntity
  8
1
  6
Continuous
 62
     3
100
AcDbCircle
 10
-722.6097318292843
 20
-192.6378019028939
 30
0.0
 40
2.0
  0
LWPOLYLINE
  5
2D9
330
1E
100
AcDbEntity
  8
0
 62
     3
100
AcDbPolyline
 90
        3
 70
     0
 43
0.0
 10
-738.6097318302844
 20
-216.387801904894
 10
-738.6097318282843
 20
-122.387801904894
 10
-714.6097318282843
 20
-122.387801904894
  0
LINE
  5
2DE
330
1E
100
AcDbEntity
  8
0
  6
Continuous
 62
     3
100
AcDbLine
 10
-714.6097318282843
 20
-122.387801904894
 30
0.0
 11
-714.6097318302844
 21
-216.387801904894
 31
0.0
  0
LINE
  5
2DF
330
1E
100
AcDbEntity
  8
0
  6
Continuous
 62
     3
100
AcDbLine
 10
-714.6097318302844
 20
-216.387801904894
 30
0.0
 11
-738.6097318302844
 21
-216.387801904894
 31
0.0
  0
LWPOLYLINE
  5
2E0
330
1E
100
AcDbEntity
  8
0
 62
     3
100
AcDbPolyline
 90
        3
 70
     0
 43
0.0
 10
-722.6097318292843
 20
-129.387801904894
 10
-730.6097318292843
 20
-129.387801904894
 10
-730.6097318292843
 20
-131.387801904894
  0
LINE
  5
2E5
330
1E
100
AcDbEntity
  8
0
  6
Continuous
 62
     3
100
AcDbLine
 10
-730.6097318292843
 20
-131.387801904894
 30
0.0
 11
-730.6097318292843
 21
-133.387801904894
 31
0.0
  0
LINE
  5
2E6
330
1E
100
AcDbEntity
  8
0
  6
Continuous
 62
     3
100
AcDbLine
 10
-722.6097318292843
 20
-133.387801904894
 30
0.0
 11
-722.6097318292843
 21
-131.387801904894
 31
0.0
  0
LINE
  5
2E7
330
1E
100
AcDbEntity
  8
0
  6
Continuous
 62
     3
100
AcDbLine
 10
-722.6097318292843
 20
-131.387801904894
 30
0.0
 11
-722.6097318292843
 21
-129.387801904894
 31
0.0
  0
LINE
  5
2E8
330
1E
100
AcDbEntity
  8
0
  6
Continuous
 62
     3
100
AcDbLine
 10
-730.6097318292843
 20
-131.387801904894
 30
0.0
 11
-738.6097318292843
 21
-131.387801904894
 31
0.0
  0
LINE
  5
2E9
330
1E
100
AcDbEntity
  8
0
  6
Continuous
 62
     3
100
AcDbLine
 10
-714.6097318292843
 20
-131.387801904894
 30
0.0
 11
-722.6097318292843
 21
-131.387801904894
 31
0.0
  0
LINE
  5
2EA
330
1E
100
AcDbEntity
  8
0
  6
Continuous
 62
     3
100
AcDbLine
 10
-714.6097318292843
 20
-133.387801904894
 30
0.0
 11
-738.6097318292843
 21
-133.387801904894
 31
0.0
  0
LINE
  5
2EB
330
1E
100
AcDbEntity
  8
0
  6
Continuous
 62
     3
100
AcDbLine
 10
-730.6097318302844
 20
-207.3878019048939
 30
0.0
 11
-738.6097318302844
 21
-207.3878019048939
 31
0.0
  0
LINE
  5
2EC
330
1E
100
AcDbEntity
  8
0
  6
Continuous
 62
     3
100
AcDbLine
 10
-714.6097318302844
 20
-207.3878019048939
 30
0.0
 11
-722.6097318302844
 21
-207.3878019048939
 31
0.0
  0
LINE
  5
2ED
330
1E
100
AcDbEntity
  8
0
  6
Continuous
 62
     3
100
AcDbLine
 10
-714.6097318302844
 20
-205.3878019048939
 30
0.0
 11
-738.6097318302844
 21
-205.3878019048939
 31
0.0
  0
LINE
  5
2EE
330
1E
100
AcDbEntity
  8
0
  6
Continuous
 62
     3
100
AcDbLine
 10
-730.6097318302844
 20
-207.3878019048939
 30
0.0
 11
-730.6097318302844
 21
-205.3878019048939
 31
0.0
  0
LINE
  5
2EF
330
1E
100
AcDbEntity
  8
0
  6
Continuous
 62
     3
100
AcDbLine
 10
-722.6097318302844
 20
-209.3878019048939
 30
0.0
 11
-730.6097318302844
 21
-209.3878019048939
 31
0.0
  0
LINE
  5
2F0
330
1E
100
AcDbEntity
  8
0
  6
Continuous
 62
     3
100
AcDbLine
 10
-722.6097318302844
 20
-207.3878019048939
 30
0.0
 11
-722.6097318302844
 21
-209.3878019048939
 31
0.0
  0
LINE
  5
2F1
330
1E
100
AcDbEntity
  8
0
  6
Continuous
 62
     3
100
AcDbLine
 10
-730.6097318302844
 20
-209.3878019048939
 30
0.0
 11
-730.6097318302844
 21
-207.3878019048939
 31
0.0
  0
LINE
  5
2F2
330
1E
100
AcDbEntity
  8
0
  6
Continuous
 62
     3
100
AcDbLine
 10
-722.6097318302844
 20
-205.3878019048939
 30
0.0
 11
-722.6097318302844
 21
-207.3878019048939
 31
0.0
  0
LINE
  5
2F3
330
1E
100
AcDbEntity
  8
0
  6
Continuous
 62
     5
100
AcDbLine
 10
-563.6097318282843
 20
-121.3878019048939
 30
0.0
 11
-563.6097318282843
 21
-102.387801904894
 31
0.0
  0
LINE
  5
2F4
330
1E
100
AcDbEntity
  8
0
  6
Continuous
 62
     5
100
AcDbLine
 10
-593.6097318282843
 20
-102.387801904894
 30
0.0
 11
-593.6097318282843
 21
-129.387801904894
 31
0.0
  0
LINE
  5
2F5
330
1E
100
AcDbEntity
  8
0
  6
Continuous
 62
     5
100
AcDbLine
 10
-584.6097318282843
 20
-121.3878019048939
 30
0.0
 11
-584.6097318282843
 21
-112.387801904894
 31
0.0
  0
LINE
  5
2F6
330
1E
100
AcDbEntity
  8
0
  6
Continuous
 62
     5
100
AcDbLine
 10
-693.6097318282843
 20
-102.387801904894
 30
0.0
 11
-693.6097318282843
 21
-131.887801904894
 31
0.0
  0
LINE
  5
2F7
330
1E
100
AcDbEntity
  8
0
  6
Continuous
 62
     5
100
AcDbLine
 10
-693.6097318282843
 20
-103.387801904894
 30
0.0
 11
-691.1949172632843
 21
-104.034849517894
 31
0.0
  0
LINE
  5
2F8
330
1E
100
AcDbEntity
  8
0
  6
Continuous
 62
     5
100
AcDbLine
 10
-693.6097318282843
 20
-103.387801904894
 30
0.0
 11
-691.1949172632843
 21
-102.7407542918939
 31
0.0
  0
LINE
  5
2F9
330
1E
100
AcDbEntity
  8
0
  6
Continuous
 62
     5
100
AcDbLine
 10
-693.6097318282843
 20
-103.387801904894
 30
0.0
 11
-593.6097318282843
 21
-103.387801904894
 31
0.0
  0
LINE
  5
2FA
330
1E
100
AcDbEntity
  8
0
  6
Continuous
 62
     5
100
AcDbLine
 10
-593.6097318282843
 20
-103.387801904894
 30
0.0
 11
-596.0245463942843
 21
-102.7407542918939
 31
0.0
  0
LINE
  5
2FB
330
1E
100
AcDbEntity
  8
0
  6
Continuous
 62
     5
100
AcDbLine
 10
-593.6097318282843
 20
-103.387801904894
 30
0.0
 11
-596.0245463942843
 21
-104.034849517894
 31
0.0
  0
TEXT
  5
2FC
330
1E
100
AcDbEntity
  8
0
  6
Continuous
 62
     5
100
AcDbText
 10
-646.6097318282843
 20
-102.387801904894
 30
0.3
 40
3.0
  1
１００
 41
0.6
  7
KANJI2
100
AcDbText
  0
LINE
  5
2FD
330
1E
100
AcDbEntity
  8
0
  6
Continuous
 62
     5
100
AcDbLine
 10
-593.6097318282843
 20
-103.387801904894
 30
0.3
 11
-591.1949172632842
 21
-104.034849517894
 31
0.3
  0
LINE
  5
2FE
330
1E
100
AcDbEntity
  8
0
  6
Continuous
 62
     5
100
AcDbLine
 10
-593.6097318282843
 20
-103.387801904894
 30
0.0
 11
-591.1949172632842
 21
-102.7407542918939
 31
0.0
  0
LINE
  5
2FF
330
1E
100
AcDbEntity
  8
0
  6
Continuous
 62
     5
100
AcDbLine
 10
-593.6097318282843
 20
-103.387801904894
 30
0.0
 11
-563.6097318282843
 21
-103.387801904894
 31
0.0
  0
LINE
  5
300
330
1E
100
AcDbEntity
  8
0
  6
Continuous
 62
     5
100
AcDbLine
 10
-563.6097318282843
 20
-103.387801904894
 30
0.0
 11
-566.0245463942843
 21
-102.7407542918939
 31
0.0
  0
LINE
  5
301
330
1E
100
AcDbEntity
  8
0
  6
Continuous
 62
     5
100
AcDbLine
 10
-563.6097318282843
 20
-103.387801904894
 30
0.0
 11
-566.0245463942843
 21
-104.034849517894
 31
0.0
  0
TEXT
  5
302
330
1E
100
AcDbEntity
  8
0
  6
Continuous
 62
     5
100
AcDbText
 10
-580.5597318282845
 20
-102.387801904894
 30
0.3
 40
3.0
  1
３０
 41
0.6
  7
KANJI2
100
AcDbText
  0
LINE
  5
303
330
1E
100
AcDbEntity
  8
0
  6
Continuous
 62
     5
100
AcDbLine
 10
-584.6097318282843
 20
-113.387801904894
 30
0.3
 11
-582.1949172632844
 21
-114.0348495168939
 31
0.3
  0
LINE
  5
304
330
1E
100
AcDbEntity
  8
0
  6
Continuous
 62
     5
100
AcDbLine
 10
-584.6097318282843
 20
-113.387801904894
 30
0.0
 11
-582.1949172632844
 21
-112.7407542918939
 31
0.0
  0
LINE
  5
305
330
1E
100
AcDbEntity
  8
0
  6
Continuous
 62
     5
100
AcDbLine
 10
-584.6097318282843
 20
-113.387801904894
 30
0.0
 11
-563.6097318282843
 21
-113.387801904894
 31
0.0
  0
LINE
  5
306
330
1E
100
AcDbEntity
  8
0
  6
Continuous
 62
     5
100
AcDbLine
 10
-563.6097318282843
 20
-113.387801904894
 30
0.0
 11
-566.0245463942843
 21
-112.7407542918939
 31
0.0
  0
LINE
  5
307
330
1E
100
AcDbEntity
  8
0
  6
Continuous
 62
     5
100
AcDbLine
 10
-563.6097318282843
 20
-113.387801904894
 30
0.0
 11
-566.0245463942843
 21
-114.0348495168939
 31
0.0
  0
TEXT
  5
308
330
1E
100
AcDbEntity
  8
0
  6
Continuous
 62
     5
100
AcDbText
 10
-576.0597318282845
 20
-112.387801904894
 30
0.3
 40
3.0
  1
２１
 41
0.6
  7
KANJI2
100
AcDbText
  0
LINE
  5
309
330
1E
100
AcDbEntity
  8
0
  6
Continuous
 62
     5
100
AcDbLine
 10
-738.6097318282843
 20
-121.3878019048939
 30
0.3
 11
-738.6097318282843
 21
-112.387801904894
 31
0.3
  0
LINE
  5
30A
330
1E
100
AcDbEntity
  8
0
  6
Continuous
 62
     5
100
AcDbLine
 10
-714.6097318282843
 20
-112.387801904894
 30
0.0
 11
-714.6097318282843
 21
-121.3878019048939
 31
0.0
  0
LINE
  5
30B
330
1E
100
AcDbEntity
  8
0
  6
Continuous
 62
     5
100
AcDbLine
 10
-713.6097318282843
 20
-124.387801904894
 30
0.0
 11
-713.6097318282843
 21
-102.387801904894
 31
0.0
  0
LINE
  5
30C
330
1E
100
AcDbEntity
  8
0
  6
Continuous
 62
     5
100
AcDbLine
 10
-739.6097318282843
 20
-124.387801903894
 30
0.0
 11
-739.6097318282843
 21
-102.387801903894
 31
0.0
  0
LINE
  5
30D
330
1E
100
AcDbEntity
  8
0
  6
Continuous
 62
     5
100
AcDbLine
 10
-738.6097318282843
 20
-113.387801904894
 30
0.0
 11
-736.1949172632843
 21
-114.0348495178939
 31
0.0
  0
LINE
  5
30E
330
1E
100
AcDbEntity
  8
0
  6
Continuous
 62
     5
100
AcDbLine
 10
-738.6097318282843
 20
-113.387801904894
 30
0.0
 11
-736.1949172632843
 21
-112.7407542918939
 31
0.0
  0
LINE
  5
30F
330
1E
100
AcDbEntity
  8
0
  6
Continuous
 62
     5
100
AcDbLine
 10
-738.6097318282843
 20
-113.387801904894
 30
0.0
 11
-714.6097318282843
 21
-113.387801904894
 31
0.0
  0
LINE
  5
310
330
1E
100
AcDbEntity
  8
0
  6
Continuous
 62
     5
100
AcDbLine
 10
-714.6097318282843
 20
-113.387801904894
 30
0.0
 11
-717.0245463942843
 21
-112.7407542918939
 31
0.0
  0
LINE
  5
311
330
1E
100
AcDbEntity
  8
0
  6
Continuous
 62
     5
100
AcDbLine
 10
-714.6097318282843
 20
-113.387801904894
 30
0.0
 11
-717.0245463942843
 21
-114.0348495178939
 31
0.0
  0
TEXT
  5
312
330
1E
100
AcDbEntity
  8
0
  6
Continuous
 62
     5
100
AcDbText
 10
-728.5597318282842
 20
-112.387801904894
 30
0.3
 40
3.0
  1
２４
 41
0.6
  7
KANJI2
100
AcDbText
  0
LINE
  5
313
330
1E
100
AcDbEntity
  8
0
  6
Continuous
 62
     5
100
AcDbLine
 10
-739.6097318282843
 20
-103.387801903894
 30
0.3
 11
-737.1949172632842
 21
-104.0348495168939
 31
0.3
  0
LINE
  5
314
330
1E
100
AcDbEntity
  8
0
  6
Continuous
 62
     5
100
AcDbLine
 10
-739.6097318282843
 20
-103.387801903894
 30
0.0
 11
-737.1949172632842
 21
-102.7407542918939
 31
0.0
  0
LINE
  5
315
330
1E
100
AcDbEntity
  8
0
  6
Continuous
 62
     5
100
AcDbLine
 10
-739.6097318282843
 20
-103.387801903894
 30
0.0
 11
-713.6097318282843
 21
-103.387801904894
 31
0.0
  0
LINE
  5
316
330
1E
100
AcDbEntity
  8
0
  6
Continuous
 62
     5
100
AcDbLine
 10
-713.6097318282843
 20
-103.387801904894
 30
0.0
 11
-716.0245463942843
 21
-102.7407542918939
 31
0.0
  0
LINE
  5
317
330
1E
100
AcDbEntity
  8
0
  6
Continuous
 62
     5
100
AcDbLine
 10
-713.6097318282843
 20
-103.387801904894
 30
0.0
 11
-716.0245463942843
 21
-104.034849517894
 31
0.0
  0
TEXT
  5
318
330
1E
100
AcDbEntity
  8
0
  6
Continuous
 62
     5
100
AcDbText
 10
-728.5597318282842
 20
-102.387801904894
 30
0.3
 40
3.0
  1
２６
 41
0.6
  7
KANJI2
100
AcDbText
  0
TEXT
  5
319
330
1E
100
AcDbEntity
  8
0
  6
Continuous
 62
     5
100
AcDbText
 10
-748.6097318302844
 20
-171.337801904894
 30
0.3
 40
3.0
  1
９４
 50
90.0
 41
0.6
  7
KANJI2
100
AcDbText
  0
LINE
  5
31A
330
1E
100
AcDbEntity
  8
0
  6
Continuous
 62
     5
100
AcDbLine
 10
-748.6097318302844
 20
-122.387801904894
 30
0.3
 11
-740.1097318302844
 21
-122.387801904894
 31
0.3
  0
LINE
  5
31B
330
1E
100
AcDbEntity
  8
0
  6
Continuous
 62
     5
100
AcDbLine
 10
-747.6097318302844
 20
-122.387801904894
 30
0.0
 11
-748.2567794432845
 21
-124.802616469894
 31
0.0
  0
LINE
  5
31C
330
1E
100
AcDbEntity
  8
0
  6
Continuous
 62
     5
100
AcDbLine
 10
-747.6097318302844
 20
-122.387801904894
 30
0.0
 11
-746.9626842172845
 21
-124.802616469894
 31
0.0
  0
LINE
  5
31D
330
1E
100
AcDbEntity
  8
0
  6
Continuous
 62
     5
100
AcDbLine
 10
-739.6097318302844
 20
-216.387801904894
 30
0.0
 11
-748.6097318302844
 21
-216.387801904894
 31
0.0
  0
LINE
  5
31E
330
1E
100
AcDbEntity
  8
0
  6
Continuous
 62
     5
100
AcDbLine
 10
-747.6097318302844
 20
-216.387801904894
 30
0.0
 11
-746.9626842172845
 21
-213.972987338894
 31
0.0
  0
LINE
  5
31F
330
1E
100
AcDbEntity
  8
0
  6
Continuous
 62
     5
100
AcDbLine
 10
-747.6097318302844
 20
-216.387801904894
 30
0.0
 11
-748.2567794432845
 21
-213.972987338894
 31
0.0
  0
LINE
  5
320
330
1E
100
AcDbEntity
  8
0
  6
Continuous
 62
     5
100
AcDbLine
 10
-748.6097318302844
 20
-220.3878019048939
 30
0.0
 11
-734.6097318302844
 21
-220.3878019048939
 31
0.0
  0
LINE
  5
321
330
1E
100
AcDbEntity
  8
0
  6
Continuous
 62
     5
100
AcDbLine
 10
-747.6097318302844
 20
-220.3878019048939
 30
0.0
 11
-748.2567794432845
 21
-222.802616469894
 31
0.0
  0
LINE
  5
322
330
1E
100
AcDbEntity
  8
0
  6
Continuous
 62
     5
100
AcDbLine
 10
-747.6097318302844
 20
-220.3878019048939
 30
0.0
 11
-746.9626842172845
 21
-222.802616469894
 31
0.0
  0
LINE
  5
323
330
1E
100
AcDbEntity
  8
0
  6
Continuous
 62
     5
100
AcDbLine
 10
-747.6097318302844
 20
-216.387801904894
 30
0.0
 11
-747.6097318302844
 21
-233.387801904894
 31
0.0
  0
TEXT
  5
324
330
1E
100
AcDbEntity
  8
0
  6
Continuous
 62
     5
100
AcDbText
 10
-748.6097318302844
 20
-230.837801904894
 30
0.3
 40
3.0
  1
６ｍａｘ
 50
90.0
 41
0.6
  7
KANJI2
100
AcDbText
  0
LINE
  5
325
330
1E
100
AcDbEntity
  8
0
  6
Continuous
 62
     5
100
AcDbLine
 10
-747.6097318302844
 20
-122.387801904894
 30
0.3
 11
-747.6097318302844
 21
-216.387801904894
 31
0.3
  0
ENDSEC
  0
SECTION
  2
OBJECTS
  0
DICTIONARY
  5
C
330
0
100
AcDbDictionary
281
     1
  3
ACAD_GROUP
350
D
  3
ACAD_PLOTSTYLENAME
350
E
  3
ACAD_MLINESTYLE
350
16
  3
ACAD_PLOTSETTINGS
350
18
  3
ACAD_LAYOUT
350
19
  0
DICTIONARY
  5
D
102
{ACAD_REACTORS
330
C
102
}
330
C
100
AcDbDictionary
281
     1
  0
ACDBDICTIONARYWDFLT
  5
E
102
{ACAD_REACTORS
330
C
102
}
330
C
100
AcDbDictionary
281
     1
  3
Normal
350
F
100
AcDbDictionaryWithDefault
340
F
  0
DICTIONARY
  5
16
102
{ACAD_REACTORS
330
C
102
}
330
C
100
AcDbDictionary
281
     1
  3
Standard
350
17
  0
DICTIONARY
  5
18
102
{ACAD_REACTORS
330
C
102
}
330
C
100
AcDbDictionary
281
     1
  0
DICTIONARY
  5
19
102
{ACAD_REACTORS
330
C
102
}
330
C
100
AcDbDictionary
281
     1
  3
ﾚｲｱｳﾄ1
350
1D
  3
Model
350
21
  0
ACDBPLACEHOLDER
  5
F
102
{ACAD_REACTORS
330
E
102
}
330
E
  0
MLINESTYLE
  5
17
102
{ACAD_REACTORS
330
16
102
}
330
16
100
AcDbMlineStyle
  2
STANDARD
 70
     0
  3

 62
   256
 51
90.0
 52
90.0
 71
     2
 49
0.5
 62
   256
  6
BYLAYER
 49
-0.5
 62
   256
  6
BYLAYER
  0
LAYOUT
  5
1D
102
{ACAD_REACTORS
330
19
102
}
330
19
100
AcDbPlotSettings
  1

  2
Canon LASER SHOT LBP-880
  4

  6

 40
0.0
 41
0.0
 42
0.0
 43
0.0
 44
0.0
 45
0.0
 46
0.0
 47
0.0
 48
0.0
 49
0.0
140
0.0
141
0.0
142
1.0
143
1.0
 70
   688
 72
     0
 73
     0
 74
     5
  7

 75
    16
147
1.0
148
0.0
149
0.0
100
AcDbLayout
  1
ﾚｲｱｳﾄ1
 70
     1
 71
     1
 10
0.0
 20
0.0
 11
12.0
 21
9.0
 12
0.0
 22
0.0
 32
0.0
 14
1.000000000000000E+20
 24
1.000000000000000E+20
 34
1.000000000000000E+20
 15
-1.000000000000000E+20
 25
-1.000000000000000E+20
 35
-1.000000000000000E+20
146
0.0
 13
0.0
 23
0.0
 33
0.0
 16
1.0
 26
0.0
 36
0.0
 17
0.0
 27
1.0
 37
0.0
 76
     0
330
1A
  0
LAYOUT
  5
21
102
{ACAD_REACTORS
330
19
102
}
330
19
100
AcDbPlotSettings
  1

  2
Canon LASER SHOT LBP-880
  4

  6

 40
0.0
 41
0.0
 42
0.0
 43
0.0
 44
0.0
 45
0.0
 46
0.0
 47
0.0
 48
0.0
 49
0.0
140
0.0
141
0.0
142
1.0
143
1.0
 70
  1712
 72
     0
 73
     0
 74
     0
  7

 75
     0
147
1.0
148
0.0
149
0.0
100
AcDbLayout
  1
Model
 70
     1
 71
     0
 10
0.0
 20
0.0
 11
12.0
 21
9.0
 12
0.0
 22
0.0
 32
0.0
 14
0.0
 24
0.0
 34
0.0
 15
0.0
 25
0.0
 35
0.0
146
0.0
 13
0.0
 23
0.0
 33
0.0
 16
1.0
 26
0.0
 36
0.0
 17
0.0
 27
1.0
 37
0.0
 76
     0
330
1E
  0
ENDSEC
  0
EOF
