  0
SECTION
  2
HEADER
  9
$ACADVER
  1
AC1009
  9
$INSBASE
 10
0.0
 20
0.0
 30
0.0
  9
$EXTMIN
 10
-575.85328197379852
 20
-410.51455112750727
 30
0.0
  9
$EXTMAX
 10
-388.05328197179858
 20
-276.71455112750698
 30
0.3
  9
$LIMMIN
 10
0.0
 20
0.0
  9
$LIMMAX
 10
420.0
 20
297.0
  9
$ORTHOMODE
 70
     0
  9
$REGENMODE
 70
     1
  9
$FILLMODE
 70
     1
  9
$QTEXTMODE
 70
     0
  9
$MIRRTEXT
 70
     1
  9
$DRAGMODE
 70
     2
  9
$LTSCALE
 40
1.0
  9
$OSMODE
 70
   167
  9
$ATTMODE
 70
     1
  9
$TEXTSIZE
 40
0.2
  9
$TRACEWID
 40
0.05
  9
$TEXTSTYLE
  7
STANDARD
  9
$CLAYER
  8
0
  9
$CELTYPE
  6
CONTINUOUS
  9
$CECOLOR
 62
   256
  9
$DIMSCALE
 40
1.0
  9
$DIMASZ
 40
0.18
  9
$DIMEXO
 40
0.0625
  9
$DIMDLI
 40
0.38
  9
$DIMRND
 40
0.0
  9
$DIMDLE
 40
0.0
  9
$DIMEXE
 40
0.18
  9
$DIMTP
 40
0.0
  9
$DIMTM
 40
0.0
  9
$DIMTXT
 40
0.18
  9
$DIMCEN
 40
0.09
  9
$DIMTSZ
 40
0.0
  9
$DIMTOL
 70
     0
  9
$DIMLIM
 70
     0
  9
$DIMTIH
 70
     1
  9
$DIMTOH
 70
     1
  9
$DIMSE1
 70
     0
  9
$DIMSE2
 70
     0
  9
$DIMTAD
 70
     0
  9
$DIMZIN
 70
     0
  9
$DIMBLK
  1

  9
$DIMASO
 70
     1
  9
$DIMSHO
 70
     1
  9
$DIMPOST
  1

  9
$DIMAPOST
  1

  9
$DIMALT
 70
     0
  9
$DIMALTD
 70
     2
  9
$DIMALTF
 40
25.399999999999999
  9
$DIMLFAC
 40
1.0
  9
$DIMTOFL
 70
     0
  9
$DIMTVP
 40
0.0
  9
$DIMTIX
 70
     0
  9
$DIMSOXD
 70
     0
  9
$DIMSAH
 70
     0
  9
$DIMBLK1
  1

  9
$DIMBLK2
  1

  9
$DIMSTYLE
  2
STANDARD
  9
$DIMCLRD
 70
     0
  9
$DIMCLRE
 70
     0
  9
$DIMCLRT
 70
     0
  9
$DIMTFAC
 40
1.0
  9
$DIMGAP
 40
0.09
  9
$LUNITS
 70
     2
  9
$LUPREC
 70
     4
  9
$SKETCHINC
 40
0.1
  9
$FILLETRAD
 40
0.0
  9
$AUNITS
 70
     0
  9
$AUPREC
 70
     0
  9
$MENU
  1
.
  9
$ELEVATION
 40
0.0
  9
$PELEVATION
 40
0.0
  9
$THICKNESS
 40
0.0
  9
$LIMCHECK
 70
     0
  9
$BLIPMODE
 70
     0
  9
$CHAMFERA
 40
0.0
  9
$CHAMFERB
 40
0.0
  9
$SKPOLY
 70
     0
  9
$TDCREATE
 40
2452699.6829297459
  9
$TDUPDATE
 40
2456716.556987755
  9
$TDINDWG
 40
0.0116261574
  9
$TDUSRTIMER
 40
0.0116261574
  9
$USRTIMER
 70
     1
  9
$ANGBASE
 50
0.0
  9
$ANGDIR
 70
     0
  9
$PDMODE
 70
     0
  9
$PDSIZE
 40
0.0
  9
$PLINEWID
 40
0.0
  9
$COORDS
 70
     2
  9
$SPLFRAME
 70
     0
  9
$SPLINETYPE
 70
     6
  9
$SPLINESEGS
 70
     8
  9
$ATTDIA
 70
     0
  9
$ATTREQ
 70
     1
  9
$HANDLING
 70
     1
  9
$HANDSEED
  5
622
  9
$SURFTAB1
 70
     6
  9
$SURFTAB2
 70
     6
  9
$SURFTYPE
 70
     6
  9
$SURFU
 70
     6
  9
$SURFV
 70
     6
  9
$UCSNAME
  2

  9
$UCSORG
 10
0.0
 20
0.0
 30
0.0
  9
$UCSXDIR
 10
1.0
 20
0.0
 30
0.0
  9
$UCSYDIR
 10
0.0
 20
1.0
 30
0.0
  9
$PUCSNAME
  2

  9
$PUCSORG
 10
0.0
 20
0.0
 30
0.0
  9
$PUCSXDIR
 10
1.0
 20
0.0
 30
0.0
  9
$PUCSYDIR
 10
0.0
 20
1.0
 30
0.0
  9
$USERI1
 70
     0
  9
$USERI2
 70
     0
  9
$USERI3
 70
     0
  9
$USERI4
 70
     0
  9
$USERI5
 70
     0
  9
$USERR1
 40
0.0
  9
$USERR2
 40
0.0
  9
$USERR3
 40
0.0
  9
$USERR4
 40
0.0
  9
$USERR5
 40
0.0
  9
$WORLDVIEW
 70
     1
  9
$SHADEDGE
 70
     3
  9
$SHADEDIF
 70
    70
  9
$TILEMODE
 70
     1
  9
$MAXACTVP
 70
    64
  9
$PLIMCHECK
 70
     0
  9
$PEXTMIN
 10
1.0000000000000000E+020
 20
1.0000000000000000E+020
 30
1.0000000000000000E+020
  9
$PEXTMAX
 10
-1.0000000000000000E+020
 20
-1.0000000000000000E+020
 30
-1.0000000000000000E+020
  9
$PLIMMIN
 10
0.0
 20
0.0
  9
$PLIMMAX
 10
12.0
 20
9.0
  9
$UNITMODE
 70
     0
  9
$VISRETAIN
 70
     1
  9
$PLINEGEN
 70
     0
  9
$PSLTSCALE
 70
     1
  0
ENDSEC
  0
SECTION
  2
TABLES
  0
TABLE
  2
VPORT
 70
     1
  0
VPORT
  2
*ACTIVE
 70
     0
 10
0.0
 20
0.0
 11
1.0
 21
1.0
 12
-533.16548763577919
 22
-351.51796680004031
 13
0.0
 23
0.0
 14
1.0
 24
1.0
 15
0.0
 25
0.0
 16
0.0
 26
0.0
 36
1.0
 17
0.0
 27
0.0
 37
0.0
 40
60.253937167674849
 41
1.807916181606519
 42
50.0
 43
0.0
 44
0.0
 50
0.0
 51
0.0
 71
     0
 72
   100
 73
     1
 74
     1
 75
     0
 76
     0
 77
     0
 78
     0
  0
ENDTAB
  0
TABLE
  2
LTYPE
 70
     1
  0
LTYPE
  2
CONTINUOUS
 70
     0
  3
Solid line
 72
    65
 73
     0
 40
0.0
  0
ENDTAB
  0
TABLE
  2
LAYER
 70
   128
  0
LAYER
  2
0
 70
     0
 62
     7
  6
CONTINUOUS
  0
LAYER
  2
1
 70
     0
 62
     7
  6
CONTINUOUS
  0
LAYER
  2
2
 70
     0
 62
     7
  6
CONTINUOUS
  0
LAYER
  2
3
 70
     0
 62
     7
  6
CONTINUOUS
  0
LAYER
  2
4
 70
     0
 62
     7
  6
CONTINUOUS
  0
LAYER
  2
5
 70
     0
 62
     7
  6
CONTINUOUS
  0
LAYER
  2
6
 70
     0
 62
     7
  6
CONTINUOUS
  0
LAYER
  2
7
 70
     0
 62
     7
  6
CONTINUOUS
  0
LAYER
  2
8
 70
     0
 62
     7
  6
CONTINUOUS
  0
LAYER
  2
9
 70
     0
 62
     7
  6
CONTINUOUS
  0
LAYER
  2
10
 70
     0
 62
     7
  6
CONTINUOUS
  0
LAYER
  2
11
 70
     0
 62
     7
  6
CONTINUOUS
  0
LAYER
  2
12
 70
     0
 62
     7
  6
CONTINUOUS
  0
LAYER
  2
13
 70
     0
 62
     7
  6
CONTINUOUS
  0
LAYER
  2
14
 70
     0
 62
     7
  6
CONTINUOUS
  0
LAYER
  2
15
 70
     0
 62
     7
  6
CONTINUOUS
  0
LAYER
  2
16
 70
     0
 62
     7
  6
CONTINUOUS
  0
LAYER
  2
17
 70
     0
 62
     7
  6
CONTINUOUS
  0
LAYER
  2
18
 70
     0
 62
     7
  6
CONTINUOUS
  0
LAYER
  2
19
 70
     0
 62
     7
  6
CONTINUOUS
  0
LAYER
  2
20
 70
     0
 62
     7
  6
CONTINUOUS
  0
LAYER
  2
21
 70
     0
 62
     7
  6
CONTINUOUS
  0
LAYER
  2
22
 70
     0
 62
     7
  6
CONTINUOUS
  0
LAYER
  2
23
 70
     0
 62
     7
  6
CONTINUOUS
  0
LAYER
  2
24
 70
     0
 62
     7
  6
CONTINUOUS
  0
LAYER
  2
25
 70
     0
 62
     7
  6
CONTINUOUS
  0
LAYER
  2
26
 70
     0
 62
     7
  6
CONTINUOUS
  0
LAYER
  2
27
 70
     0
 62
     7
  6
CONTINUOUS
  0
LAYER
  2
28
 70
     0
 62
     7
  6
CONTINUOUS
  0
LAYER
  2
29
 70
     0
 62
     7
  6
CONTINUOUS
  0
LAYER
  2
30
 70
     0
 62
     7
  6
CONTINUOUS
  0
LAYER
  2
31
 70
     0
 62
     7
  6
CONTINUOUS
  0
LAYER
  2
32
 70
     0
 62
     7
  6
CONTINUOUS
  0
LAYER
  2
33
 70
     0
 62
     7
  6
CONTINUOUS
  0
LAYER
  2
34
 70
     0
 62
     7
  6
CONTINUOUS
  0
LAYER
  2
35
 70
     0
 62
     7
  6
CONTINUOUS
  0
LAYER
  2
36
 70
     0
 62
     7
  6
CONTINUOUS
  0
LAYER
  2
37
 70
     0
 62
     7
  6
CONTINUOUS
  0
LAYER
  2
38
 70
     0
 62
     7
  6
CONTINUOUS
  0
LAYER
  2
39
 70
     0
 62
     7
  6
CONTINUOUS
  0
LAYER
  2
40
 70
     0
 62
     7
  6
CONTINUOUS
  0
LAYER
  2
41
 70
     0
 62
     7
  6
CONTINUOUS
  0
LAYER
  2
42
 70
     0
 62
     7
  6
CONTINUOUS
  0
LAYER
  2
43
 70
     0
 62
     7
  6
CONTINUOUS
  0
LAYER
  2
44
 70
     0
 62
     7
  6
CONTINUOUS
  0
LAYER
  2
45
 70
     0
 62
     7
  6
CONTINUOUS
  0
LAYER
  2
46
 70
     0
 62
     7
  6
CONTINUOUS
  0
LAYER
  2
47
 70
     0
 62
     7
  6
CONTINUOUS
  0
LAYER
  2
48
 70
     0
 62
     7
  6
CONTINUOUS
  0
LAYER
  2
49
 70
     0
 62
     7
  6
CONTINUOUS
  0
LAYER
  2
50
 70
     0
 62
     7
  6
CONTINUOUS
  0
LAYER
  2
51
 70
     0
 62
     7
  6
CONTINUOUS
  0
LAYER
  2
52
 70
     0
 62
     7
  6
CONTINUOUS
  0
LAYER
  2
53
 70
     0
 62
     7
  6
CONTINUOUS
  0
LAYER
  2
54
 70
     0
 62
     7
  6
CONTINUOUS
  0
LAYER
  2
55
 70
     0
 62
     7
  6
CONTINUOUS
  0
LAYER
  2
56
 70
     0
 62
     7
  6
CONTINUOUS
  0
LAYER
  2
57
 70
     0
 62
     7
  6
CONTINUOUS
  0
LAYER
  2
58
 70
     0
 62
     7
  6
CONTINUOUS
  0
LAYER
  2
59
 70
     0
 62
     7
  6
CONTINUOUS
  0
LAYER
  2
60
 70
     0
 62
     7
  6
CONTINUOUS
  0
LAYER
  2
61
 70
     0
 62
     7
  6
CONTINUOUS
  0
LAYER
  2
62
 70
     0
 62
     7
  6
CONTINUOUS
  0
LAYER
  2
63
 70
     0
 62
     7
  6
CONTINUOUS
  0
LAYER
  2
64
 70
     0
 62
     7
  6
CONTINUOUS
  0
LAYER
  2
65
 70
     0
 62
     7
  6
CONTINUOUS
  0
LAYER
  2
66
 70
     0
 62
     7
  6
CONTINUOUS
  0
LAYER
  2
67
 70
     0
 62
     7
  6
CONTINUOUS
  0
LAYER
  2
68
 70
     0
 62
     7
  6
CONTINUOUS
  0
LAYER
  2
69
 70
     0
 62
     7
  6
CONTINUOUS
  0
LAYER
  2
70
 70
     0
 62
     7
  6
CONTINUOUS
  0
LAYER
  2
71
 70
     0
 62
     7
  6
CONTINUOUS
  0
LAYER
  2
72
 70
     0
 62
     7
  6
CONTINUOUS
  0
LAYER
  2
73
 70
     0
 62
     7
  6
CONTINUOUS
  0
LAYER
  2
74
 70
     0
 62
     7
  6
CONTINUOUS
  0
LAYER
  2
75
 70
     0
 62
     7
  6
CONTINUOUS
  0
LAYER
  2
76
 70
     0
 62
     7
  6
CONTINUOUS
  0
LAYER
  2
77
 70
     0
 62
     7
  6
CONTINUOUS
  0
LAYER
  2
78
 70
     0
 62
     7
  6
CONTINUOUS
  0
LAYER
  2
79
 70
     0
 62
     7
  6
CONTINUOUS
  0
LAYER
  2
80
 70
     0
 62
     7
  6
CONTINUOUS
  0
LAYER
  2
81
 70
     0
 62
     7
  6
CONTINUOUS
  0
LAYER
  2
82
 70
     0
 62
     7
  6
CONTINUOUS
  0
LAYER
  2
83
 70
     0
 62
     7
  6
CONTINUOUS
  0
LAYER
  2
84
 70
     0
 62
     7
  6
CONTINUOUS
  0
LAYER
  2
85
 70
     0
 62
     7
  6
CONTINUOUS
  0
LAYER
  2
86
 70
     0
 62
     7
  6
CONTINUOUS
  0
LAYER
  2
87
 70
     0
 62
     7
  6
CONTINUOUS
  0
LAYER
  2
88
 70
     0
 62
     7
  6
CONTINUOUS
  0
LAYER
  2
89
 70
     0
 62
     7
  6
CONTINUOUS
  0
LAYER
  2
90
 70
     0
 62
     7
  6
CONTINUOUS
  0
LAYER
  2
91
 70
     0
 62
     7
  6
CONTINUOUS
  0
LAYER
  2
92
 70
     0
 62
     7
  6
CONTINUOUS
  0
LAYER
  2
93
 70
     0
 62
     7
  6
CONTINUOUS
  0
LAYER
  2
94
 70
     0
 62
     7
  6
CONTINUOUS
  0
LAYER
  2
95
 70
     0
 62
     7
  6
CONTINUOUS
  0
LAYER
  2
96
 70
     0
 62
     7
  6
CONTINUOUS
  0
LAYER
  2
97
 70
     0
 62
     7
  6
CONTINUOUS
  0
LAYER
  2
98
 70
     0
 62
     7
  6
CONTINUOUS
  0
LAYER
  2
99
 70
     0
 62
     7
  6
CONTINUOUS
  0
LAYER
  2
100
 70
     0
 62
     7
  6
CONTINUOUS
  0
LAYER
  2
101
 70
     0
 62
     7
  6
CONTINUOUS
  0
LAYER
  2
102
 70
     0
 62
     7
  6
CONTINUOUS
  0
LAYER
  2
103
 70
     0
 62
     7
  6
CONTINUOUS
  0
LAYER
  2
104
 70
     0
 62
     7
  6
CONTINUOUS
  0
LAYER
  2
105
 70
     0
 62
     7
  6
CONTINUOUS
  0
LAYER
  2
106
 70
     0
 62
     7
  6
CONTINUOUS
  0
LAYER
  2
107
 70
     0
 62
     7
  6
CONTINUOUS
  0
LAYER
  2
108
 70
     0
 62
     7
  6
CONTINUOUS
  0
LAYER
  2
109
 70
     0
 62
     7
  6
CONTINUOUS
  0
LAYER
  2
110
 70
     0
 62
     7
  6
CONTINUOUS
  0
LAYER
  2
111
 70
     0
 62
     7
  6
CONTINUOUS
  0
LAYER
  2
112
 70
     0
 62
     7
  6
CONTINUOUS
  0
LAYER
  2
113
 70
     0
 62
     7
  6
CONTINUOUS
  0
LAYER
  2
114
 70
     0
 62
     7
  6
CONTINUOUS
  0
LAYER
  2
115
 70
     0
 62
     7
  6
CONTINUOUS
  0
LAYER
  2
116
 70
     0
 62
     7
  6
CONTINUOUS
  0
LAYER
  2
117
 70
     0
 62
     7
  6
CONTINUOUS
  0
LAYER
  2
118
 70
     0
 62
     7
  6
CONTINUOUS
  0
LAYER
  2
119
 70
     0
 62
     7
  6
CONTINUOUS
  0
LAYER
  2
120
 70
     0
 62
     7
  6
CONTINUOUS
  0
LAYER
  2
121
 70
     0
 62
     7
  6
CONTINUOUS
  0
LAYER
  2
122
 70
     0
 62
     7
  6
CONTINUOUS
  0
LAYER
  2
123
 70
     0
 62
     7
  6
CONTINUOUS
  0
LAYER
  2
124
 70
     0
 62
     7
  6
CONTINUOUS
  0
LAYER
  2
125
 70
     0
 62
     7
  6
CONTINUOUS
  0
LAYER
  2
126
 70
     0
 62
     7
  6
CONTINUOUS
  0
LAYER
  2
127
 70
     0
 62
     7
  6
CONTINUOUS
  0
ENDTAB
  0
TABLE
  2
STYLE
 70
     6
  0
STYLE
  2
STANDARD
 70
     0
 40
0.0
 41
1.0
 50
0.0
 71
     0
 42
0.2
  3
txt
  4

  0
STYLE
  2
KANJI0
 70
     0
 40
3.0
 41
0.6
 50
0.0
 71
     0
 42
3.0
  3
txt
  4
bigfont
  0
STYLE
  2
KANJI1
 70
     0
 40
3.0
 41
0.666666667
 50
0.0
 71
     0
 42
3.0
  3
txt
  4
bigfont
  0
STYLE
  2
KANJI2
 70
     0
 40
1.5
 41
0.666666667
 50
0.0
 71
     0
 42
1.5
  3
txt
  4
bigfont
  0
STYLE
  2
KANJI3
 70
     0
 40
2.5
 41
0.6
 50
0.0
 71
     0
 42
2.5
  3
txt
  4
bigfont
  0
STYLE
  2
KANJI4
 70
     0
 40
2.0
 41
1.0
 50
0.0
 71
     0
 42
2.0
  3
txt
  4
bigfont
  0
ENDTAB
  0
TABLE
  2
VIEW
 70
     0
  0
ENDTAB
  0
TABLE
  2
UCS
 70
     0
  0
ENDTAB
  0
TABLE
  2
APPID
 70
     2
  0
APPID
  2
ACAD
 70
     0
  0
APPID
  2
ACAD_MLEADERVER
 70
     0
  0
ENDTAB
  0
TABLE
  2
DIMSTYLE
 70
     1
  0
DIMSTYLE
  2
STANDARD
 70
     0
  3

  4

  5

  6

  7

 40
1.0
 41
0.18
 42
0.0625
 43
0.38
 44
0.18
 45
0.0
 46
0.0
 47
0.0
 48
0.0
140
0.18
141
0.09
142
0.0
143
25.399999999999999
144
1.0
145
0.0
146
1.0
147
0.09
 71
     0
 72
     0
 73
     1
 74
     1
 75
     0
 76
     0
 77
     0
 78
     0
170
     0
171
     2
172
     0
173
     0
174
     0
175
     0
176
     0
177
     0
178
     0
  0
ENDTAB
  0
ENDSEC
  0
SECTION
  2
BLOCKS
  0
BLOCK
  8
0
  2
$MODEL_SPACE
 70
     0
 10
0.0
 20
0.0
 30
0.0
  3
$MODEL_SPACE
  1

  0
ENDBLK
  5
20
  8
0
  0
BLOCK
 67
     1
  8
0
  2
$PAPER_SPACE
 70
     0
 10
0.0
 20
0.0
 30
0.0
  3
$PAPER_SPACE
  1

  0
ENDBLK
  5
1C
 67
     1
  8
0
  0
ENDSEC
  0
SECTION
  2
ENTITIES
  0
LINE
  5
A9
  8
0
  6
CONTINUOUS
 62
     5
 10
-563.05328197179836
 20
-298.51455112750722
 30
0.0
 11
-563.05328197179836
 21
-289.5145511275071
 31
0.0
  0
LINE
  5
AA
  8
0
  6
CONTINUOUS
 62
     5
 10
-539.05328197179858
 20
-289.5145511275071
 30
0.0
 11
-539.05328197179858
 21
-298.51455112750722
 31
0.0
  0
LINE
  5
AB
  8
0
  6
CONTINUOUS
 62
     5
 10
-538.05328197179836
 20
-301.51455112750722
 30
0.0
 11
-538.05328197179836
 21
-279.51455112750722
 31
0.0
  0
LINE
  5
AC
  8
0
  6
CONTINUOUS
 62
     5
 10
-564.05328197179858
 20
-301.51455112650717
 30
0.0
 11
-564.05328197179858
 21
-279.51455112650717
 31
0.0
  0
LINE
  5
AD
  8
0
  6
CONTINUOUS
 62
     5
 10
-563.05328197179836
 20
-290.51455112750722
 30
0.0
 11
-560.63846740679844
 21
-291.16159874050732
 31
0.0
  0
LINE
  5
AE
  8
0
  6
CONTINUOUS
 62
     5
 10
-563.05328197179836
 20
-290.51455112750722
 30
0.0
 11
-560.63846740679844
 21
-289.86750351450729
 31
0.0
  0
LINE
  5
AF
  8
0
  6
CONTINUOUS
 62
     5
 10
-563.05328197179836
 20
-290.51455112750722
 30
0.0
 11
-539.05328197179858
 21
-290.51455112750722
 31
0.0
  0
LINE
  5
B0
  8
0
  6
CONTINUOUS
 62
     5
 10
-539.05328197179858
 20
-290.51455112750722
 30
0.0
 11
-541.4680965377986
 21
-289.86750351450729
 31
0.0
  0
LINE
  5
B1
  8
0
  6
CONTINUOUS
 62
     5
 10
-539.05328197179858
 20
-290.51455112750722
 30
0.0
 11
-541.4680965377986
 21
-291.16159874050732
 31
0.0
  0
TEXT
  5
B2
  8
0
  6
CONTINUOUS
 62
     3
 10
-553.00328197179851
 20
-289.5145511275071
 30
0.3
 40
3.0
  1
２４
 41
0.6
  7
KANJI0
  0
LINE
  5
B3
  8
0
  6
CONTINUOUS
 62
     5
 10
-564.05328197179858
 20
-280.51455112650717
 30
0.3
 11
-561.63846740679844
 21
-281.16159873950721
 31
0.3
  0
LINE
  5
B4
  8
0
  6
CONTINUOUS
 62
     5
 10
-564.05328197179858
 20
-280.51455112650717
 30
0.0
 11
-561.63846740679844
 21
-279.86750351450718
 31
0.0
  0
LINE
  5
B5
  8
0
  6
CONTINUOUS
 62
     5
 10
-564.05328197179858
 20
-280.51455112650717
 30
0.0
 11
-538.05328197179836
 21
-280.51455112750727
 31
0.0
  0
LINE
  5
B6
  8
0
  6
CONTINUOUS
 62
     5
 10
-538.05328197179836
 20
-280.51455112750727
 30
0.0
 11
-540.4680965377986
 21
-279.86750351450718
 31
0.0
  0
LINE
  5
B7
  8
0
  6
CONTINUOUS
 62
     5
 10
-538.05328197179836
 20
-280.51455112750727
 30
0.0
 11
-540.4680965377986
 21
-281.16159874050732
 31
0.0
  0
TEXT
  5
B8
  8
0
  6
CONTINUOUS
 62
     3
 10
-553.00328197179851
 20
-279.51455112750722
 30
0.3
 40
3.0
  1
２６
 41
0.6
  7
KANJI0
  0
LINE
  5
B9
  8
0
  6
CONTINUOUS
 62
     5
 10
-564.05328197379845
 20
-393.51455112750722
 30
0.3
 11
-573.05328197379856
 21
-393.51455112750722
 31
0.3
  0
LINE
  5
BA
  8
0
  6
CONTINUOUS
 62
     5
 10
-573.05328197379856
 20
-299.51455112750722
 30
0.0
 11
-564.55328197379856
 21
-299.51455112750722
 31
0.0
  0
LINE
  5
BB
  8
0
  6
CONTINUOUS
 62
     5
 10
-572.05328197379845
 20
-299.51455112750722
 30
0.0
 11
-572.70032958679849
 21
-301.9293656925073
 31
0.0
  0
LINE
  5
BC
  8
0
  6
CONTINUOUS
 62
     5
 10
-572.05328197379845
 20
-299.51455112750722
 30
0.0
 11
-571.40623436079863
 21
-301.9293656925073
 31
0.0
  0
LINE
  5
BD
  8
0
  6
CONTINUOUS
 62
     5
 10
-572.05328197379845
 20
-299.51455112750722
 30
0.0
 11
-572.05328197379845
 21
-393.51455112750722
 31
0.0
  0
LINE
  5
BE
  8
0
  6
CONTINUOUS
 62
     5
 10
-572.05328197379845
 20
-393.51455112750722
 30
0.0
 11
-571.40623436079863
 21
-391.0997365615072
 31
0.0
  0
LINE
  5
BF
  8
0
  6
CONTINUOUS
 62
     5
 10
-572.05328197379845
 20
-393.51455112750722
 30
0.0
 11
-572.70032958679849
 21
-391.0997365615072
 31
0.0
  0
TEXT
  5
C0
  8
0
  6
CONTINUOUS
 62
     3
 10
-573.05328197379856
 20
-348.46455112750732
 30
0.3
 40
3.0
  1
９４
 50
90.0
 41
0.6
  7
KANJI0
  0
LINE
  5
C1
  8
0
  6
CONTINUOUS
 62
     5
 10
-573.05328197379856
 20
-397.5145511275071
 30
0.3
 11
-559.05328197379845
 21
-397.5145511275071
 31
0.3
  0
LINE
  5
C2
  8
0
  6
CONTINUOUS
 62
     5
 10
-572.05328197379845
 20
-397.5145511275071
 30
0.0
 11
-572.70032958679849
 21
-399.9293656925073
 31
0.0
  0
LINE
  5
C3
  8
0
  6
CONTINUOUS
 62
     5
 10
-572.05328197379845
 20
-397.5145511275071
 30
0.0
 11
-571.40623436079863
 21
-399.9293656925073
 31
0.0
  0
LINE
  5
C4
  8
0
  6
CONTINUOUS
 62
     5
 10
-572.05328197379845
 20
-393.51455112750722
 30
0.0
 11
-572.05328197379845
 21
-410.51455112750727
 31
0.0
  0
TEXT
  5
C5
  8
0
  6
CONTINUOUS
 62
     3
 10
-573.05328197379856
 20
-407.96455112750732
 30
0.3
 40
3.0
  1
６ｍａｘ
 50
90.0
 41
0.6
  7
KANJI0
  0
LINE
  5
C6
  8
0
  6
CONTINUOUS
 62
     5
 10
-388.05328197179858
 20
-298.51455112750722
 30
0.3
 11
-388.05328197179858
 21
-279.51455112750722
 31
0.3
  0
LINE
  5
C7
  8
0
  6
CONTINUOUS
 62
     5
 10
-418.05328197179858
 20
-279.51455112750722
 30
0.0
 11
-418.05328197179858
 21
-306.51455112750722
 31
0.0
  0
LINE
  5
C8
  8
0
  6
CONTINUOUS
 62
     5
 10
-409.05328197179841
 20
-298.51455112750722
 30
0.0
 11
-409.05328197179841
 21
-289.5145511275071
 31
0.0
  0
LINE
  5
C9
  8
0
  6
CONTINUOUS
 62
     5
 10
-518.05328197179858
 20
-279.51455112750722
 30
0.0
 11
-518.05328197179858
 21
-309.01455112750722
 31
0.0
  0
LINE
  5
CA
  8
0
  6
CONTINUOUS
 62
     5
 10
-518.05328197179858
 20
-280.51455112750727
 30
0.0
 11
-515.63846740679844
 21
-281.16159874050732
 31
0.0
  0
LINE
  5
CB
  8
0
  6
CONTINUOUS
 62
     5
 10
-518.05328197179858
 20
-280.51455112750727
 30
0.0
 11
-515.63846740679844
 21
-279.86750351450718
 31
0.0
  0
LINE
  5
CC
  8
0
  6
CONTINUOUS
 62
     5
 10
-518.05328197179858
 20
-280.51455112750727
 30
0.0
 11
-418.05328197179858
 21
-280.51455112750727
 31
0.0
  0
LINE
  5
CD
  8
0
  6
CONTINUOUS
 62
     5
 10
-418.05328197179858
 20
-280.51455112750727
 30
0.0
 11
-420.46809653779849
 21
-279.86750351450718
 31
0.0
  0
LINE
  5
CE
  8
0
  6
CONTINUOUS
 62
     5
 10
-418.05328197179858
 20
-280.51455112750727
 30
0.0
 11
-420.46809653779849
 21
-281.16159874050732
 31
0.0
  0
TEXT
  5
CF
  8
0
  6
CONTINUOUS
 62
     3
 10
-471.05328197179841
 20
-279.51455112750722
 30
0.3
 40
3.0
  1
１００
 41
0.6
  7
KANJI0
  0
LINE
  5
D0
  8
0
  6
CONTINUOUS
 62
     5
 10
-418.05328197179858
 20
-280.51455112750727
 30
0.3
 11
-415.63846740679861
 21
-281.16159874050732
 31
0.3
  0
LINE
  5
D1
  8
0
  6
CONTINUOUS
 62
     5
 10
-418.05328197179858
 20
-280.51455112750727
 30
0.0
 11
-415.63846740679861
 21
-279.86750351450718
 31
0.0
  0
LINE
  5
D2
  8
0
  6
CONTINUOUS
 62
     5
 10
-418.05328197179858
 20
-280.51455112750727
 30
0.0
 11
-388.05328197179858
 21
-280.51455112750727
 31
0.0
  0
LINE
  5
D3
  8
0
  6
CONTINUOUS
 62
     5
 10
-388.05328197179858
 20
-280.51455112750727
 30
0.0
 11
-390.46809653779849
 21
-279.86750351450718
 31
0.0
  0
LINE
  5
D4
  8
0
  6
CONTINUOUS
 62
     5
 10
-388.05328197179858
 20
-280.51455112750727
 30
0.0
 11
-390.46809653779849
 21
-281.16159874050732
 31
0.0
  0
TEXT
  5
D5
  8
0
  6
CONTINUOUS
 62
     3
 10
-405.0032819717984
 20
-279.51455112750722
 30
0.3
 40
3.0
  1
３０
 41
0.6
  7
KANJI0
  0
LINE
  5
D6
  8
0
  6
CONTINUOUS
 62
     5
 10
-409.05328197179841
 20
-290.51455112750722
 30
0.3
 11
-406.63846740679861
 21
-291.16159873950721
 31
0.3
  0
LINE
  5
D7
  8
0
  6
CONTINUOUS
 62
     5
 10
-409.05328197179841
 20
-290.51455112750722
 30
0.0
 11
-406.63846740679861
 21
-289.86750351450729
 31
0.0
  0
LINE
  5
D8
  8
0
  6
CONTINUOUS
 62
     5
 10
-409.05328197179841
 20
-290.51455112750722
 30
0.0
 11
-388.05328197179858
 21
-290.51455112750722
 31
0.0
  0
LINE
  5
D9
  8
0
  6
CONTINUOUS
 62
     5
 10
-388.05328197179858
 20
-290.51455112750722
 30
0.0
 11
-390.46809653779849
 21
-289.86750351450729
 31
0.0
  0
LINE
  5
DA
  8
0
  6
CONTINUOUS
 62
     5
 10
-388.05328197179858
 20
-290.51455112750722
 30
0.0
 11
-390.46809653779849
 21
-291.16159873950721
 31
0.0
  0
TEXT
  5
DB
  8
0
  6
CONTINUOUS
 62
     3
 10
-400.5032819717984
 20
-289.5145511275071
 30
0.3
 40
3.0
  1
２１
 41
0.6
  7
KANJI0
  0
LINE
  5
DC
  8
0
  6
CONTINUOUS
 62
     3
 10
-518.05328197479855
 20
-380.51455112450719
 30
0.3
 11
-518.05328197479855
 21
-380.51455112450719
 31
0.3
  0
LINE
  5
DD
  8
0
  6
CONTINUOUS
 62
     3
 10
-518.05328197579854
 20
-312.51455112450731
 30
0.0
 11
-518.05328197579854
 21
-312.51455112450731
 31
0.0
  0
LINE
  5
DE
  8
0
  6
CONTINUOUS
 62
     3
 10
-429.05328197479838
 20
-381.31455112350721
 30
0.0
 11
-434.05328197479838
 21
-381.31455112350721
 31
0.0
  0
LINE
  5
DF
  8
0
  6
CONTINUOUS
 62
     3
 10
-434.05328197479838
 20
-382.51455112350732
 30
0.0
 11
-434.05328197479838
 21
-381.31455112350721
 31
0.0
  0
LINE
  5
E0
  8
0
  6
CONTINUOUS
 62
     3
 10
-453.35328197479862
 20
-383.71455112450718
 30
0.0
 11
-453.35328197479862
 21
-382.51455112450719
 31
0.0
  0
ARC
  5
E1
  8
0
  6
CONTINUOUS
 62
     3
 10
-451.05328197479849
 20
-383.71455112350731
 30
0.0
 40
2.299999999999998
 50
179.9999999989999
 51
270.0
  0
LINE
  5
E2
  8
0
  6
CONTINUOUS
 62
     3
 10
-446.35328197479862
 20
-382.51455112350732
 30
0.0
 11
-446.35328197479862
 21
-383.71455112350731
 31
0.0
  0
LINE
  5
E3
  8
0
  6
CONTINUOUS
 62
     3
 10
-451.05328197479849
 20
-386.01455112350732
 30
0.0
 11
-448.65328197479852
 21
-386.01455112350732
 31
0.0
  0
ARC
  5
E4
  8
0
  6
CONTINUOUS
 62
     3
 10
-448.65328197479852
 20
-383.71455112350731
 30
0.0
 40
2.299999999999998
 50
270.0
 51
0.0
  0
ARC
  5
E5
  8
0
  6
CONTINUOUS
 62
     3
 10
-451.05328197579843
 20
-309.31455112350721
 30
0.0
 40
2.299999999999998
 50
90.0
 51
180.0000000009999
  0
LINE
  5
E6
  8
0
  6
CONTINUOUS
 62
     3
 10
-453.35328197579861
 20
-309.3145511245072
 30
0.0
 11
-453.35328197579861
 21
-310.51455112450731
 31
0.0
  0
LINE
  5
E7
  8
0
  6
CONTINUOUS
 62
     3
 10
-446.35328197579838
 20
-310.51455112350732
 30
0.0
 11
-446.35328197579838
 21
-309.31455112350721
 31
0.0
  0
ARC
  5
E8
  8
0
  6
CONTINUOUS
 62
     3
 10
-448.65328197579851
 20
-309.31455112350721
 30
0.0
 40
2.299999999999998
 50
0.0
 51
90.0
  0
LINE
  5
E9
  8
0
  6
CONTINUOUS
 62
     3
 10
-451.05328197579843
 20
-307.01455112350732
 30
0.0
 11
-448.65328197579851
 21
-307.01455112350732
 31
0.0
  0
LINE
  5
EA
  8
0
  6
CONTINUOUS
 62
     3
 10
-429.05328197479838
 20
-381.3145511265073
 30
0.0
 11
-429.05328197479838
 21
-382.51455112350732
 31
0.0
  0
LINE
  5
EB
  8
0
  6
CONTINUOUS
 62
     3
 10
-434.05328197879851
 20
-311.71455112250709
 30
0.0
 11
-429.0532819787984
 21
-311.71455112250709
 31
0.0
  0
LINE
  5
EC
  8
0
  6
CONTINUOUS
 62
     3
 10
-429.0532819787984
 20
-310.5145511225071
 30
0.0
 11
-429.0532819787984
 21
-311.71455112250709
 31
0.0
  0
LINE
  5
ED
  8
0
  6
CONTINUOUS
 62
     3
 10
-434.05328197879851
 20
-311.71455111950718
 30
0.0
 11
-434.05328197879851
 21
-310.5145511225071
 31
0.0
  0
LINE
  5
EE
  8
0
  6
CONTINUOUS
 62
     3
 10
-442.05328197579843
 20
-310.51455112350732
 30
0.0
 11
-446.35328197579838
 21
-310.51455112350732
 31
0.0
  0
LINE
  5
EF
  8
0
  6
CONTINUOUS
 62
     3
 10
-434.05328197779841
 20
-382.51455112350732
 30
0.0
 11
-434.05328197479838
 21
-382.51455112350732
 31
0.0
  0
LINE
  5
F0
  8
0
  6
CONTINUOUS
 62
     3
 10
-436.85328196979862
 20
-310.5145511295072
 30
0.0
 11
-436.85328197079861
 21
-316.5145511295072
 31
0.0
  0
POLYLINE
  5
F1
  8
0
 62
     3
 66
     1
 10
0.0
 20
0.0
 30
0.0
  0
VERTEX
  5
4CC
  8
0
 62
     3
 10
-436.85328197079861
 20
-316.5145511295072
 30
0.0
  0
VERTEX
  5
4CD
  8
0
 62
     3
 10
-438.85328197079838
 20
-316.5145511295072
 30
0.0
  0
VERTEX
  5
4CE
  8
0
 62
     3
 10
-438.85328196979839
 20
-310.5145511295072
 30
0.0
  0
SEQEND
  5
4CF
  8
0
 62
     3
  0
LINE
  5
F6
  8
0
  6
CONTINUOUS
 62
     3
 10
-443.1532819697984
 20
-310.51455112850721
 30
0.0
 11
-443.15328197079839
 21
-316.51455112850721
 31
0.0
  0
POLYLINE
  5
F7
  8
0
 62
     3
 66
     1
 10
0.0
 20
0.0
 30
0.0
  0
VERTEX
  5
4D0
  8
0
 62
     3
 10
-443.15328197079839
 20
-316.51455112850721
 30
0.0
  0
VERTEX
  5
4D1
  8
0
 62
     3
 10
-445.1532819707985
 20
-316.51455112850721
 30
0.0
  0
VERTEX
  5
4D2
  8
0
 62
     3
 10
-445.15328196979868
 20
-310.51455112850721
 30
0.0
  0
SEQEND
  5
4D3
  8
0
 62
     3
  0
LINE
  5
FC
  8
0
  6
CONTINUOUS
 62
     3
 10
-455.35328196979839
 20
-310.51455112750722
 30
0.0
 11
-455.35328197079838
 21
-316.5145511275071
 31
0.0
  0
POLYLINE
  5
FD
  8
0
 62
     3
 66
     1
 10
0.0
 20
0.0
 30
0.0
  0
VERTEX
  5
4D4
  8
0
 62
     3
 10
-455.35328197079838
 20
-316.5145511275071
 30
0.0
  0
VERTEX
  5
4D5
  8
0
 62
     3
 10
-457.35328197079849
 20
-316.5145511275071
 30
0.0
  0
VERTEX
  5
4D6
  8
0
 62
     3
 10
-457.35328196979862
 20
-310.51455112750722
 30
0.0
  0
SEQEND
  5
4D7
  8
0
 62
     3
  0
LINE
  5
102
  8
0
  6
CONTINUOUS
 62
     3
 10
-495.3532819697985
 20
-310.51455112450731
 30
0.0
 11
-495.35328197079849
 21
-316.51455112450731
 31
0.0
  0
POLYLINE
  5
103
  8
0
 62
     3
 66
     1
 10
0.0
 20
0.0
 30
0.0
  0
VERTEX
  5
4D8
  8
0
 62
     3
 10
-495.35328197079849
 20
-316.51455112450731
 30
0.0
  0
VERTEX
  5
4D9
  8
0
 62
     3
 10
-497.35328197079838
 20
-316.51455112450731
 30
0.0
  0
VERTEX
  5
4DA
  8
0
 62
     3
 10
-497.3532819697985
 20
-310.51455112450731
 30
0.0
  0
SEQEND
  5
4DB
  8
0
 62
     3
  0
LINE
  5
108
  8
0
  6
CONTINUOUS
 62
     3
 10
-493.3532819697985
 20
-310.5145511255073
 30
0.0
 11
-493.35328197079838
 21
-316.51455112550718
 31
0.0
  0
POLYLINE
  5
109
  8
0
 62
     3
 66
     1
 10
0.0
 20
0.0
 30
0.0
  0
VERTEX
  5
4DC
  8
0
 62
     3
 10
-493.35328197079838
 20
-316.51455112550718
 30
0.0
  0
VERTEX
  5
4DD
  8
0
 62
     3
 10
-491.35328197079849
 20
-316.51455112550718
 30
0.0
  0
VERTEX
  5
4DE
  8
0
 62
     3
 10
-491.3532819697985
 20
-310.5145511255073
 30
0.0
  0
SEQEND
  5
4DF
  8
0
 62
     3
  0
LINE
  5
10E
  8
0
  6
CONTINUOUS
 62
     3
 10
-489.3532819697985
 20
-310.5145511255073
 30
0.0
 11
-489.35328197079838
 21
-316.51455112550718
 31
0.0
  0
POLYLINE
  5
10F
  8
0
 62
     3
 66
     1
 10
0.0
 20
0.0
 30
0.0
  0
VERTEX
  5
4E0
  8
0
 62
     3
 10
-489.35328197079838
 20
-316.51455112550718
 30
0.0
  0
VERTEX
  5
4E1
  8
0
 62
     3
 10
-487.35328197079849
 20
-316.51455112550718
 30
0.0
  0
VERTEX
  5
4E2
  8
0
 62
     3
 10
-487.3532819697985
 20
-310.5145511255073
 30
0.0
  0
SEQEND
  5
4E3
  8
0
 62
     3
  0
LINE
  5
114
  8
0
  6
CONTINUOUS
 62
     3
 10
-485.3532819697985
 20
-310.5145511255073
 30
0.0
 11
-485.35328197079849
 21
-316.51455112550718
 31
0.0
  0
POLYLINE
  5
115
  8
0
 62
     3
 66
     1
 10
0.0
 20
0.0
 30
0.0
  0
VERTEX
  5
4E4
  8
0
 62
     3
 10
-485.35328197079849
 20
-316.51455112550718
 30
0.0
  0
VERTEX
  5
4E5
  8
0
 62
     3
 10
-483.35328197079838
 20
-316.51455112550718
 30
0.0
  0
VERTEX
  5
4E6
  8
0
 62
     3
 10
-483.35328196979839
 20
-310.5145511255073
 30
0.0
  0
SEQEND
  5
4E7
  8
0
 62
     3
  0
LINE
  5
11A
  8
0
  6
CONTINUOUS
 62
     3
 10
-481.3532819697985
 20
-310.51455112650717
 30
0.0
 11
-481.35328197079849
 21
-316.51455112650717
 31
0.0
  0
POLYLINE
  5
11B
  8
0
 62
     3
 66
     1
 10
0.0
 20
0.0
 30
0.0
  0
VERTEX
  5
4E8
  8
0
 62
     3
 10
-481.35328197079849
 20
-316.51455112650717
 30
0.0
  0
VERTEX
  5
4E9
  8
0
 62
     3
 10
-479.35328197079838
 20
-316.51455112650717
 30
0.0
  0
VERTEX
  5
4EA
  8
0
 62
     3
 10
-479.35328196979839
 20
-310.51455112650717
 30
0.0
  0
SEQEND
  5
4EB
  8
0
 62
     3
  0
LINE
  5
120
  8
0
  6
CONTINUOUS
 62
     3
 10
-477.3532819697985
 20
-310.51455112650717
 30
0.0
 11
-477.35328197079849
 21
-316.51455112650717
 31
0.0
  0
POLYLINE
  5
121
  8
0
 62
     3
 66
     1
 10
0.0
 20
0.0
 30
0.0
  0
VERTEX
  5
4EC
  8
0
 62
     3
 10
-477.35328197079849
 20
-316.51455112650717
 30
0.0
  0
VERTEX
  5
4ED
  8
0
 62
     3
 10
-475.35328197079838
 20
-316.51455112650717
 30
0.0
  0
VERTEX
  5
4EE
  8
0
 62
     3
 10
-475.35328196979839
 20
-310.51455112650717
 30
0.0
  0
SEQEND
  5
4EF
  8
0
 62
     3
  0
LINE
  5
126
  8
0
  6
CONTINUOUS
 62
     3
 10
-473.3532819697985
 20
-310.51455112650717
 30
0.0
 11
-473.35328197079849
 21
-316.51455112650717
 31
0.0
  0
POLYLINE
  5
127
  8
0
 62
     3
 66
     1
 10
0.0
 20
0.0
 30
0.0
  0
VERTEX
  5
4F0
  8
0
 62
     3
 10
-473.35328197079849
 20
-316.51455112650717
 30
0.0
  0
VERTEX
  5
4F1
  8
0
 62
     3
 10
-471.35328197079838
 20
-316.51455112650717
 30
0.0
  0
VERTEX
  5
4F2
  8
0
 62
     3
 10
-471.35328196979839
 20
-310.51455112650717
 30
0.0
  0
SEQEND
  5
4F3
  8
0
 62
     3
  0
LINE
  5
12C
  8
0
  6
CONTINUOUS
 62
     3
 10
-469.3532819697985
 20
-310.51455112650717
 30
0.0
 11
-469.35328197079849
 21
-316.51455112650717
 31
0.0
  0
POLYLINE
  5
12D
  8
0
 62
     3
 66
     1
 10
0.0
 20
0.0
 30
0.0
  0
VERTEX
  5
4F4
  8
0
 62
     3
 10
-469.35328197079849
 20
-316.51455112650717
 30
0.0
  0
VERTEX
  5
4F5
  8
0
 62
     3
 10
-467.35328197079838
 20
-316.5145511275071
 30
0.0
  0
VERTEX
  5
4F6
  8
0
 62
     3
 10
-467.35328196979839
 20
-310.51455112750722
 30
0.0
  0
SEQEND
  5
4F7
  8
0
 62
     3
  0
LINE
  5
132
  8
0
  6
CONTINUOUS
 62
     3
 10
-465.3532819697985
 20
-310.51455112750722
 30
0.0
 11
-465.35328197079849
 21
-316.5145511275071
 31
0.0
  0
POLYLINE
  5
133
  8
0
 62
     3
 66
     1
 10
0.0
 20
0.0
 30
0.0
  0
VERTEX
  5
4F8
  8
0
 62
     3
 10
-465.35328197079849
 20
-316.5145511275071
 30
0.0
  0
VERTEX
  5
4F9
  8
0
 62
     3
 10
-463.35328197079838
 20
-316.5145511275071
 30
0.0
  0
VERTEX
  5
4FA
  8
0
 62
     3
 10
-463.35328196979839
 20
-310.51455112750722
 30
0.0
  0
SEQEND
  5
4FB
  8
0
 62
     3
  0
LINE
  5
138
  8
0
  6
CONTINUOUS
 62
     3
 10
-461.35328196979867
 20
-310.51455112750722
 30
0.0
 11
-461.35328197079849
 21
-316.5145511275071
 31
0.0
  0
POLYLINE
  5
139
  8
0
 62
     3
 66
     1
 10
0.0
 20
0.0
 30
0.0
  0
VERTEX
  5
4FC
  8
0
 62
     3
 10
-461.35328197079849
 20
-316.5145511275071
 30
0.0
  0
VERTEX
  5
4FD
  8
0
 62
     3
 10
-459.35328197079838
 20
-316.5145511275071
 30
0.0
  0
VERTEX
  5
4FE
  8
0
 62
     3
 10
-459.35328196979839
 20
-310.51455112750722
 30
0.0
  0
SEQEND
  5
4FF
  8
0
 62
     3
  0
LINE
  5
13E
  8
0
  6
CONTINUOUS
 62
     3
 10
-516.05328197579854
 20
-319.01455112450731
 30
0.0
 11
-516.05328197579854
 21
-315.01455112450731
 31
0.0
  0
LINE
  5
13F
  8
0
  6
CONTINUOUS
 62
     3
 10
-516.05328197479855
 20
-378.01455112450731
 30
0.0
 11
-516.05328197479855
 21
-374.01455112450719
 31
0.0
  0
LINE
  5
140
  8
0
  6
CONTINUOUS
 62
     3
 10
-436.85328197179859
 20
-382.51455112350732
 30
0.0
 11
-436.85328197179859
 21
-376.51455112350732
 31
0.0
  0
POLYLINE
  5
141
  8
0
 62
     3
 66
     1
 10
0.0
 20
0.0
 30
0.0
  0
VERTEX
  5
500
  8
0
 62
     3
 10
-436.85328197179859
 20
-376.51455112350732
 30
0.0
  0
VERTEX
  5
501
  8
0
 62
     3
 10
-438.85328197179859
 20
-376.51455112350732
 30
0.0
  0
VERTEX
  5
502
  8
0
 62
     3
 10
-438.85328197179859
 20
-382.51455112350732
 30
0.0
  0
SEQEND
  5
503
  8
0
 62
     3
  0
LINE
  5
146
  8
0
  6
CONTINUOUS
 62
     3
 10
-443.15328197179838
 20
-382.51455112450719
 30
0.0
 11
-443.15328197179838
 21
-376.51455112450731
 31
0.0
  0
POLYLINE
  5
147
  8
0
 62
     3
 66
     1
 10
0.0
 20
0.0
 30
0.0
  0
VERTEX
  5
504
  8
0
 62
     3
 10
-443.15328197179838
 20
-376.51455112450731
 30
0.0
  0
VERTEX
  5
505
  8
0
 62
     3
 10
-445.15328197179861
 20
-376.51455112450731
 30
0.0
  0
VERTEX
  5
506
  8
0
 62
     3
 10
-445.15328197179861
 20
-382.51455112450719
 30
0.0
  0
SEQEND
  5
507
  8
0
 62
     3
  0
LINE
  5
14C
  8
0
  6
CONTINUOUS
 62
     3
 10
-455.35328197179842
 20
-382.51455112450719
 30
0.0
 11
-455.35328197179842
 21
-376.51455112450731
 31
0.0
  0
POLYLINE
  5
14D
  8
0
 62
     3
 66
     1
 10
0.0
 20
0.0
 30
0.0
  0
VERTEX
  5
508
  8
0
 62
     3
 10
-455.35328197179842
 20
-376.51455112450731
 30
0.0
  0
VERTEX
  5
509
  8
0
 62
     3
 10
-457.35328197179859
 20
-376.51455112450731
 30
0.0
  0
VERTEX
  5
50A
  8
0
 62
     3
 10
-457.35328197179859
 20
-382.51455112450719
 30
0.0
  0
SEQEND
  5
50B
  8
0
 62
     3
  0
LINE
  5
152
  8
0
  6
CONTINUOUS
 62
     3
 10
-495.35328197179848
 20
-382.51455112550718
 30
0.0
 11
-495.35328197179848
 21
-376.51455112550718
 31
0.0
  0
POLYLINE
  5
153
  8
0
 62
     3
 66
     1
 10
0.0
 20
0.0
 30
0.0
  0
VERTEX
  5
50C
  8
0
 62
     3
 10
-495.35328197179848
 20
-376.51455112550718
 30
0.0
  0
VERTEX
  5
50D
  8
0
 62
     3
 10
-497.35328197179859
 20
-376.51455112550718
 30
0.0
  0
VERTEX
  5
50E
  8
0
 62
     3
 10
-497.35328197179859
 20
-382.51455112550718
 30
0.0
  0
SEQEND
  5
50F
  8
0
 62
     3
  0
LINE
  5
158
  8
0
  6
CONTINUOUS
 62
     3
 10
-493.35328197179859
 20
-382.51455112550718
 30
0.0
 11
-493.35328197179859
 21
-376.51455112550718
 31
0.0
  0
POLYLINE
  5
159
  8
0
 62
     3
 66
     1
 10
0.0
 20
0.0
 30
0.0
  0
VERTEX
  5
510
  8
0
 62
     3
 10
-493.35328197179859
 20
-376.51455112550718
 30
0.0
  0
VERTEX
  5
511
  8
0
 62
     3
 10
-491.35328197179848
 20
-376.51455112550718
 30
0.0
  0
VERTEX
  5
512
  8
0
 62
     3
 10
-491.35328197179848
 20
-382.51455112550718
 30
0.0
  0
SEQEND
  5
513
  8
0
 62
     3
  0
LINE
  5
15E
  8
0
  6
CONTINUOUS
 62
     3
 10
-489.35328197179859
 20
-382.51455112550718
 30
0.0
 11
-489.35328197179859
 21
-376.51455112550718
 31
0.0
  0
POLYLINE
  5
15F
  8
0
 62
     3
 66
     1
 10
0.0
 20
0.0
 30
0.0
  0
VERTEX
  5
514
  8
0
 62
     3
 10
-489.35328197179859
 20
-376.51455112550718
 30
0.0
  0
VERTEX
  5
515
  8
0
 62
     3
 10
-487.35328197179848
 20
-376.51455112550718
 30
0.0
  0
VERTEX
  5
516
  8
0
 62
     3
 10
-487.35328197179848
 20
-382.51455112550718
 30
0.0
  0
SEQEND
  5
517
  8
0
 62
     3
  0
LINE
  5
164
  8
0
  6
CONTINUOUS
 62
     3
 10
-485.35328197179859
 20
-382.51455112550718
 30
0.0
 11
-485.35328197179859
 21
-376.51455112550718
 31
0.0
  0
POLYLINE
  5
165
  8
0
 62
     3
 66
     1
 10
0.0
 20
0.0
 30
0.0
  0
VERTEX
  5
518
  8
0
 62
     3
 10
-485.35328197179859
 20
-376.51455112550718
 30
0.0
  0
VERTEX
  5
519
  8
0
 62
     3
 10
-483.35328197179842
 20
-376.51455112550718
 30
0.0
  0
VERTEX
  5
51A
  8
0
 62
     3
 10
-483.35328197179842
 20
-382.51455112550718
 30
0.0
  0
SEQEND
  5
51B
  8
0
 62
     3
  0
LINE
  5
16A
  8
0
  6
CONTINUOUS
 62
     3
 10
-481.35328197179859
 20
-382.51455112550718
 30
0.0
 11
-481.35328197179859
 21
-376.51455112550718
 31
0.0
  0
POLYLINE
  5
16B
  8
0
 62
     3
 66
     1
 10
0.0
 20
0.0
 30
0.0
  0
VERTEX
  5
51C
  8
0
 62
     3
 10
-481.35328197179859
 20
-376.51455112550718
 30
0.0
  0
VERTEX
  5
51D
  8
0
 62
     3
 10
-479.35328197179842
 20
-376.51455112550718
 30
0.0
  0
VERTEX
  5
51E
  8
0
 62
     3
 10
-479.35328197179842
 20
-382.51455112550718
 30
0.0
  0
SEQEND
  5
51F
  8
0
 62
     3
  0
LINE
  5
170
  8
0
  6
CONTINUOUS
 62
     3
 10
-477.35328197179859
 20
-382.51455112450719
 30
0.0
 11
-477.35328197179859
 21
-376.51455112450731
 31
0.0
  0
POLYLINE
  5
171
  8
0
 62
     3
 66
     1
 10
0.0
 20
0.0
 30
0.0
  0
VERTEX
  5
520
  8
0
 62
     3
 10
-477.35328197179859
 20
-376.51455112450731
 30
0.0
  0
VERTEX
  5
521
  8
0
 62
     3
 10
-475.35328197179842
 20
-376.51455112450731
 30
0.0
  0
VERTEX
  5
522
  8
0
 62
     3
 10
-475.35328197179842
 20
-382.51455112450719
 30
0.0
  0
SEQEND
  5
523
  8
0
 62
     3
  0
LINE
  5
176
  8
0
  6
CONTINUOUS
 62
     3
 10
-473.35328197179859
 20
-382.51455112450719
 30
0.0
 11
-473.35328197179859
 21
-376.51455112450731
 31
0.0
  0
POLYLINE
  5
177
  8
0
 62
     3
 66
     1
 10
0.0
 20
0.0
 30
0.0
  0
VERTEX
  5
524
  8
0
 62
     3
 10
-473.35328197179859
 20
-376.51455112450731
 30
0.0
  0
VERTEX
  5
525
  8
0
 62
     3
 10
-471.35328197179842
 20
-376.51455112450731
 30
0.0
  0
VERTEX
  5
526
  8
0
 62
     3
 10
-471.35328197179842
 20
-382.51455112450719
 30
0.0
  0
SEQEND
  5
527
  8
0
 62
     3
  0
LINE
  5
17C
  8
0
  6
CONTINUOUS
 62
     3
 10
-469.35328197179859
 20
-382.51455112450719
 30
0.0
 11
-469.35328197179859
 21
-376.51455112450731
 31
0.0
  0
POLYLINE
  5
17D
  8
0
 62
     3
 66
     1
 10
0.0
 20
0.0
 30
0.0
  0
VERTEX
  5
528
  8
0
 62
     3
 10
-469.35328197179859
 20
-376.51455112450731
 30
0.0
  0
VERTEX
  5
529
  8
0
 62
     3
 10
-467.35328197179842
 20
-376.51455112450731
 30
0.0
  0
VERTEX
  5
52A
  8
0
 62
     3
 10
-467.35328197179842
 20
-382.51455112450719
 30
0.0
  0
SEQEND
  5
52B
  8
0
 62
     3
  0
LINE
  5
182
  8
0
  6
CONTINUOUS
 62
     3
 10
-465.35328197179871
 20
-382.51455112450719
 30
0.0
 11
-465.35328197179871
 21
-376.51455112450731
 31
0.0
  0
POLYLINE
  5
183
  8
0
 62
     3
 66
     1
 10
0.0
 20
0.0
 30
0.0
  0
VERTEX
  5
52C
  8
0
 62
     3
 10
-465.35328197179871
 20
-376.51455112450731
 30
0.0
  0
VERTEX
  5
52D
  8
0
 62
     3
 10
-463.35328197179842
 20
-376.51455112450731
 30
0.0
  0
VERTEX
  5
52E
  8
0
 62
     3
 10
-463.35328197179842
 20
-382.51455112450719
 30
0.0
  0
SEQEND
  5
52F
  8
0
 62
     3
  0
LINE
  5
188
  8
0
  6
CONTINUOUS
 62
     3
 10
-461.35328197179871
 20
-382.51455112450719
 30
0.0
 11
-461.35328197179871
 21
-376.51455112450731
 31
0.0
  0
POLYLINE
  5
189
  8
0
 62
     3
 66
     1
 10
0.0
 20
0.0
 30
0.0
  0
VERTEX
  5
530
  8
0
 62
     3
 10
-461.35328197179871
 20
-376.51455112450731
 30
0.0
  0
VERTEX
  5
531
  8
0
 62
     3
 10
-459.35328197179842
 20
-376.51455112450731
 30
0.0
  0
VERTEX
  5
532
  8
0
 62
     3
 10
-459.35328197179842
 20
-382.51455112450719
 30
0.0
  0
SEQEND
  5
533
  8
0
 62
     3
  0
LINE
  5
18E
  8
0
  6
CONTINUOUS
 62
     3
 10
-506.05328197379851
 20
-382.51455112450719
 30
0.0
 11
-506.05328197379851
 21
-381.01455112450731
 31
0.0
  0
LINE
  5
18F
  8
0
  6
CONTINUOUS
 62
     3
 10
-506.05328197379851
 20
-381.01455112450731
 30
0.0
 11
-511.05328197379862
 21
-381.01455112450731
 31
0.0
  0
LINE
  5
190
  8
0
  6
CONTINUOUS
 62
     3
 10
-511.05328197379862
 20
-382.51455112450719
 30
0.0
 11
-511.05328197379862
 21
-381.01455112450731
 31
0.0
  0
LINE
  5
191
  8
0
  6
CONTINUOUS
 62
     3
 10
-506.05328197179858
 20
-310.51455112450731
 30
0.0
 11
-506.05328197179858
 21
-311.91455112450723
 31
0.0
  0
LINE
  5
192
  8
0
  6
CONTINUOUS
 62
     3
 10
-506.05328197179858
 20
-311.91455112450723
 30
0.0
 11
-511.05328197179858
 21
-311.91455112450723
 31
0.0
  0
LINE
  5
193
  8
0
  6
CONTINUOUS
 62
     3
 10
-511.05328197179858
 20
-311.91455112450723
 30
0.0
 11
-511.05328197179858
 21
-310.51455112450731
 31
0.0
  0
CIRCLE
  5
194
  8
0
  6
CONTINUOUS
 62
     3
 10
-516.05328197379845
 20
-381.51455112450731
 30
0.0
 40
0.5
  0
CIRCLE
  5
195
  8
0
  6
CONTINUOUS
 62
     3
 10
-516.05328197179836
 20
-311.51455112450719
 30
0.0
 40
0.5
  0
LINE
  5
196
  8
0
  6
CONTINUOUS
 62
     3
 10
-515.05328197279857
 20
-374.01455112450719
 30
0.0
 11
-516.05328197479855
 21
-374.01455112450719
 31
0.0
  0
LINE
  5
197
  8
0
  6
CONTINUOUS
 62
     3
 10
-515.05328197279857
 20
-374.01455112450719
 30
0.0
 11
-515.05328197379856
 21
-378.01455112450731
 31
0.0
  0
LINE
  5
198
  8
0
  6
CONTINUOUS
 62
     3
 10
-516.05328197479855
 20
-378.01455112450731
 30
0.0
 11
-515.05328197379856
 21
-378.01455112450731
 31
0.0
  0
LINE
  5
199
  8
0
  6
CONTINUOUS
 62
     3
 10
-516.05328197579854
 20
-319.01455112450731
 30
0.0
 11
-515.05328197179858
 21
-319.01455112450731
 31
0.0
  0
LINE
  5
19A
  8
0
  6
CONTINUOUS
 62
     3
 10
-515.05328197179858
 20
-315.01455112450731
 30
0.0
 11
-516.05328197579854
 21
-315.01455112450731
 31
0.0
  0
LINE
  5
19B
  8
0
  6
CONTINUOUS
 62
     3
 10
-515.05328197179858
 20
-315.01455112450731
 30
0.0
 11
-515.05328197179858
 21
-319.01455112450731
 31
0.0
  0
LINE
  5
19C
  8
0
  6
CONTINUOUS
 62
     3
 10
-418.0532819727984
 20
-309.51430112750728
 30
0.0
 11
-419.05328197279857
 21
-310.51430112750711
 31
0.0
  0
LINE
  5
19D
  8
0
  6
CONTINUOUS
 62
     3
 10
-418.0532819727984
 20
-309.51430112750728
 30
0.0
 11
-418.0532819727984
 21
-307.51430112750728
 31
0.0
  0
LINE
  5
19E
  8
0
  6
CONTINUOUS
 62
     3
 10
-425.95328197279838
 20
-310.51430112650718
 30
0.0
 11
-425.95328197279838
 21
-307.51430112650729
 31
0.0
  0
ARC
  5
19F
  8
0
  6
CONTINUOUS
 62
     3
 10
-482.05328197279852
 20
-304.81430112650719
 30
0.0
 40
1.0
 50
0.0
 51
180.0
  0
ARC
  5
1A0
  8
0
  6
CONTINUOUS
 62
     3
 10
-482.05328197279852
 20
-308.3143011265073
 30
0.0
 40
1.0
 50
180.0
 51
0.0
  0
LINE
  5
1A1
  8
0
  6
CONTINUOUS
 62
     3
 10
-483.0532819727984
 20
-304.81430112650719
 30
0.0
 11
-483.0532819727984
 21
-308.3143011265073
 31
0.0
  0
LINE
  5
1A2
  8
0
  6
CONTINUOUS
 62
     3
 10
-481.05328197279857
 20
-308.3143011265073
 30
0.0
 11
-481.05328197279857
 21
-307.06430112650719
 31
0.0
  0
LINE
  5
1A3
  8
0
  6
CONTINUOUS
 62
     3
 10
-481.05328197279857
 20
-305.3143011265073
 30
0.0
 11
-481.05328197279857
 21
-304.81430112650719
 31
0.0
  0
LINE
  5
1A4
  8
0
  6
CONTINUOUS
 62
     3
 10
-480.0532819727984
 20
-305.3143011265073
 30
0.0
 11
-480.0532819727984
 21
-304.81430112650719
 31
0.0
  0
LINE
  5
1A5
  8
0
  6
CONTINUOUS
 62
     3
 10
-480.0532819727984
 20
-304.81430112650719
 30
0.0
 11
-481.05328197279857
 21
-305.3143011265073
 31
0.0
  0
LINE
  5
1A6
  8
0
  6
CONTINUOUS
 62
     3
 10
-479.0532819727984
 20
-305.3143011265073
 30
0.0
 11
-479.0532819727984
 21
-304.81430112650719
 31
0.0
  0
LINE
  5
1A7
  8
0
  6
CONTINUOUS
 62
     3
 10
-479.0532819727984
 20
-304.81430112650719
 30
0.0
 11
-480.0532819727984
 21
-305.3143011265073
 31
0.0
  0
LINE
  5
1A8
  8
0
  6
CONTINUOUS
 62
     3
 10
-479.0532819727984
 20
-305.3143011265073
 30
0.0
 11
-478.05328197279852
 21
-304.81430112650719
 31
0.0
  0
POLYLINE
  5
1A9
  8
0
 62
     3
 66
     1
 10
0.0
 20
0.0
 30
0.0
  0
VERTEX
  5
534
  8
0
 62
     3
 10
-478.05328197279852
 20
-304.81430112650719
 30
0.0
  0
VERTEX
  5
535
  8
0
 62
     3
 10
-478.05328197279852
 20
-305.3143011265073
 30
0.0
  0
VERTEX
  5
536
  8
0
 62
     3
 10
-477.05328197279857
 20
-304.81430112650719
 30
0.0
  0
VERTEX
  5
537
  8
0
 62
     3
 10
-477.05328197279857
 20
-305.3143011265073
 30
0.0
  0
VERTEX
  5
538
  8
0
 62
     3
 10
-476.0532819727984
 20
-304.81430112650719
 30
0.0
  0
VERTEX
  5
539
  8
0
 62
     3
 10
-476.0532819727984
 20
-305.3143011265073
 30
0.0
  0
VERTEX
  5
53A
  8
0
 62
     3
 10
-475.0532819727984
 20
-304.81430112650719
 30
0.0
  0
VERTEX
  5
53B
  8
0
 62
     3
 10
-475.0532819727984
 20
-305.3143011265073
 30
0.0
  0
VERTEX
  5
53C
  8
0
 62
     3
 10
-474.05328197279852
 20
-304.81430112650719
 30
0.0
  0
VERTEX
  5
53D
  8
0
 62
     3
 10
-474.05328197279852
 20
-305.3143011265073
 30
0.0
  0
VERTEX
  5
53E
  8
0
 62
     3
 10
-473.05328197279857
 20
-304.81430112650719
 30
0.0
  0
VERTEX
  5
53F
  8
0
 62
     3
 10
-473.05328197279857
 20
-305.3143011265073
 30
0.0
  0
VERTEX
  5
540
  8
0
 62
     3
 10
-472.0532819727984
 20
-304.81430112650719
 30
0.0
  0
VERTEX
  5
541
  8
0
 62
     3
 10
-472.0532819727984
 20
-305.3143011265073
 30
0.0
  0
VERTEX
  5
542
  8
0
 62
     3
 10
-471.0532819727984
 20
-304.81430112650719
 30
0.0
  0
VERTEX
  5
543
  8
0
 62
     3
 10
-471.0532819727984
 20
-305.3143011265073
 30
0.0
  0
VERTEX
  5
544
  8
0
 62
     3
 10
-470.0532819727984
 20
-304.81430112650719
 30
0.0
  0
SEQEND
  5
545
  8
0
 62
     3
  0
LINE
  5
1BC
  8
0
  6
CONTINUOUS
 62
     3
 10
-470.0532819727984
 20
-305.3143011265073
 30
0.0
 11
-470.0532819727984
 21
-304.81430112650719
 31
0.0
  0
POLYLINE
  5
1BD
  8
0
 62
     3
 66
     1
 10
0.0
 20
0.0
 30
0.0
  0
VERTEX
  5
546
  8
0
 62
     3
 10
-470.0532819727984
 20
-305.3143011265073
 30
0.0
  0
VERTEX
  5
547
  8
0
 62
     3
 10
-469.05328197279857
 20
-304.81430112650719
 30
0.0
  0
VERTEX
  5
548
  8
0
 62
     3
 10
-469.05328197279857
 20
-305.3143011265073
 30
0.0
  0
VERTEX
  5
549
  8
0
 62
     3
 10
-468.0532819727984
 20
-304.81430112650719
 30
0.0
  0
VERTEX
  5
54A
  8
0
 62
     3
 10
-468.0532819727984
 20
-305.3143011265073
 30
0.0
  0
SEQEND
  5
54B
  8
0
 62
     3
  0
LINE
  5
1C4
  8
0
  6
CONTINUOUS
 62
     3
 10
-466.5532819727984
 20
-310.21430112650722
 30
0.0
 11
-466.5532819727984
 21
-308.71430112650728
 31
0.0
  0
LINE
  5
1C5
  8
0
  6
CONTINUOUS
 62
     3
 10
-464.55328197279857
 20
-310.21430112650722
 30
0.0
 11
-464.55328197279857
 21
-308.96430112650728
 31
0.0
  0
ARC
  5
1C6
  8
0
  6
CONTINUOUS
 62
     3
 10
-450.0532819727984
 20
-309.51430112650729
 30
0.0
 40
4.2000000000000002
 50
28.393019421000002
 51
90.0
  0
LINE
  5
1C7
  8
0
  6
CONTINUOUS
 62
     3
 10
-450.0532819727984
 20
-305.3143011265073
 30
0.0
 11
-481.05328197279857
 21
-305.3143011265073
 31
0.0
  0
LINE
  5
1C8
  8
0
  6
CONTINUOUS
 62
     3
 10
-418.05328197379851
 20
-383.51480112750721
 30
0.0
 11
-419.05328197379862
 21
-382.5148011275071
 31
0.0
  0
LINE
  5
1C9
  8
0
  6
CONTINUOUS
 62
     3
 10
-418.05328197379851
 20
-383.51480112750721
 30
0.0
 11
-418.05328197379851
 21
-385.51480112750721
 31
0.0
  0
LINE
  5
1CA
  8
0
  6
CONTINUOUS
 62
     3
 10
-425.95328197379848
 20
-382.51480112650711
 30
0.0
 11
-425.95328197379848
 21
-385.51480112650722
 31
0.0
  0
ARC
  5
1CB
  8
0
  6
CONTINUOUS
 62
     3
 10
-482.05328197379851
 20
-388.21480112650721
 30
0.0
 40
1.0
 50
180.0
 51
0.0
  0
ARC
  5
1CC
  8
0
  6
CONTINUOUS
 62
     3
 10
-482.05328197379851
 20
-384.71480112650721
 30
0.0
 40
1.0
 50
0.0
 51
180.0
  0
LINE
  5
1CD
  8
0
  6
CONTINUOUS
 62
     3
 10
-483.05328197379839
 20
-388.21480112650721
 30
0.0
 11
-483.05328197379839
 21
-384.71480112650721
 31
0.0
  0
LINE
  5
1CE
  8
0
  6
CONTINUOUS
 62
     3
 10
-481.05328197379851
 20
-384.71480112650721
 30
0.0
 11
-481.05328197379851
 21
-385.96480112650721
 31
0.0
  0
LINE
  5
1CF
  8
0
  6
CONTINUOUS
 62
     3
 10
-481.05328197379851
 20
-387.71480112650721
 30
0.0
 11
-481.05328197379851
 21
-388.21480112650721
 31
0.0
  0
LINE
  5
1D0
  8
0
  6
CONTINUOUS
 62
     3
 10
-480.05328197379851
 20
-387.71480112650721
 30
0.0
 11
-480.05328197379851
 21
-388.21480112650721
 31
0.0
  0
LINE
  5
1D1
  8
0
  6
CONTINUOUS
 62
     3
 10
-480.05328197379851
 20
-388.21480112650721
 30
0.0
 11
-481.05328197379851
 21
-387.71480112650721
 31
0.0
  0
LINE
  5
1D2
  8
0
  6
CONTINUOUS
 62
     3
 10
-479.05328197379839
 20
-387.71480112650721
 30
0.0
 11
-479.05328197379839
 21
-388.21480112650721
 31
0.0
  0
LINE
  5
1D3
  8
0
  6
CONTINUOUS
 62
     3
 10
-479.05328197379839
 20
-388.21480112650721
 30
0.0
 11
-480.05328197379851
 21
-387.71480112650721
 31
0.0
  0
LINE
  5
1D4
  8
0
  6
CONTINUOUS
 62
     3
 10
-479.05328197379839
 20
-387.71480112650721
 30
0.0
 11
-478.05328197379851
 21
-388.21480112650721
 31
0.0
  0
POLYLINE
  5
1D5
  8
0
 62
     3
 66
     1
 10
0.0
 20
0.0
 30
0.0
  0
VERTEX
  5
54C
  8
0
 62
     3
 10
-478.05328197379851
 20
-388.21480112650721
 30
0.0
  0
VERTEX
  5
54D
  8
0
 62
     3
 10
-478.05328197379851
 20
-387.71480112650721
 30
0.0
  0
VERTEX
  5
54E
  8
0
 62
     3
 10
-477.05328197379862
 20
-388.21480112650721
 30
0.0
  0
VERTEX
  5
54F
  8
0
 62
     3
 10
-477.05328197379862
 20
-387.71480112650721
 30
0.0
  0
VERTEX
  5
550
  8
0
 62
     3
 10
-476.05328197379851
 20
-388.21480112650721
 30
0.0
  0
VERTEX
  5
551
  8
0
 62
     3
 10
-476.05328197379851
 20
-387.71480112650721
 30
0.0
  0
VERTEX
  5
552
  8
0
 62
     3
 10
-475.05328197379839
 20
-388.21480112650721
 30
0.0
  0
VERTEX
  5
553
  8
0
 62
     3
 10
-475.05328197379839
 20
-387.71480112650721
 30
0.0
  0
VERTEX
  5
554
  8
0
 62
     3
 10
-474.05328197379851
 20
-388.21480112650721
 30
0.0
  0
VERTEX
  5
555
  8
0
 62
     3
 10
-474.05328197379851
 20
-387.71480112650721
 30
0.0
  0
VERTEX
  5
556
  8
0
 62
     3
 10
-473.05328197379862
 20
-388.21480112650721
 30
0.0
  0
VERTEX
  5
557
  8
0
 62
     3
 10
-473.05328197379862
 20
-387.71480112650721
 30
0.0
  0
VERTEX
  5
558
  8
0
 62
     3
 10
-472.05328197379851
 20
-388.21480112650721
 30
0.0
  0
VERTEX
  5
559
  8
0
 62
     3
 10
-472.05328197379851
 20
-387.71480112650721
 30
0.0
  0
VERTEX
  5
55A
  8
0
 62
     3
 10
-471.05328197379839
 20
-388.21480112650721
 30
0.0
  0
VERTEX
  5
55B
  8
0
 62
     3
 10
-471.05328197379839
 20
-387.71480112650721
 30
0.0
  0
VERTEX
  5
55C
  8
0
 62
     3
 10
-470.05328197379839
 20
-388.21480112650721
 30
0.0
  0
SEQEND
  5
55D
  8
0
 62
     3
  0
LINE
  5
1E8
  8
0
  6
CONTINUOUS
 62
     3
 10
-470.05328197379839
 20
-387.71480112650721
 30
0.0
 11
-470.05328197379839
 21
-388.21480112650721
 31
0.0
  0
POLYLINE
  5
1E9
  8
0
 62
     3
 66
     1
 10
0.0
 20
0.0
 30
0.0
  0
VERTEX
  5
55E
  8
0
 62
     3
 10
-470.05328197379839
 20
-387.71480112650721
 30
0.0
  0
VERTEX
  5
55F
  8
0
 62
     3
 10
-469.05328197379862
 20
-388.21480112650721
 30
0.0
  0
VERTEX
  5
560
  8
0
 62
     3
 10
-469.05328197379862
 20
-387.71480112650721
 30
0.0
  0
VERTEX
  5
561
  8
0
 62
     3
 10
-468.05328197379851
 20
-388.21480112650721
 30
0.0
  0
VERTEX
  5
562
  8
0
 62
     3
 10
-468.05328197379851
 20
-387.71480112650721
 30
0.0
  0
SEQEND
  5
563
  8
0
 62
     3
  0
LINE
  5
1F0
  8
0
  6
CONTINUOUS
 62
     3
 10
-466.55328197379839
 20
-382.81480112650718
 30
0.0
 11
-466.55328197379839
 21
-384.31480112650729
 31
0.0
  0
LINE
  5
1F1
  8
0
  6
CONTINUOUS
 62
     3
 10
-464.55328197379862
 20
-382.81480112650718
 30
0.0
 11
-464.55328197379862
 21
-384.0648011265074
 31
0.0
  0
LINE
  5
1F2
  8
0
  6
CONTINUOUS
 62
     3
 10
-465.55328197379851
 20
-381.8148011265074
 30
0.0
 11
-465.55328197379851
 21
-381.8148011265074
 31
0.0
  0
ARC
  5
1F3
  8
0
  6
CONTINUOUS
 62
     3
 10
-450.05328197379839
 20
-383.51480112650722
 30
0.0
 40
4.2000000000000002
 50
270.0
 51
331.60698057900009
  0
LINE
  5
1F4
  8
0
  6
CONTINUOUS
 62
     3
 10
-450.05328197379839
 20
-387.71480112650721
 30
0.0
 11
-481.05328197379851
 21
-387.71480112650721
 31
0.0
  0
LINE
  5
1F5
  8
0
  6
CONTINUOUS
 62
     3
 10
-427.30328197379839
 20
-382.51480112650711
 30
0.0
 11
-419.05328197379862
 21
-382.5148011275071
 31
0.0
  0
ARC
  5
1F6
  8
0
  6
CONTINUOUS
 62
     3
 10
-465.55328197379851
 20
-382.81480112650718
 30
0.0
 40
1.0
 50
163.28761543600001
 51
179.9999999989999
  0
ARC
  5
1F7
  8
0
  6
CONTINUOUS
 62
     3
 10
-465.55328197379851
 20
-382.81480112650718
 30
0.0
 40
1.0
 50
0.0
 51
16.712384564000001
  0
ARC
  5
1F8
  8
0
  6
CONTINUOUS
 62
     3
 10
-465.55328197279852
 20
-310.21430112650722
 30
0.0
 40
1.0
 50
343.28761543600001
 51
0.0
  0
ARC
  5
1F9
  8
0
  6
CONTINUOUS
 62
     3
 10
-465.55328197279852
 20
-310.21430112650722
 30
0.0
 40
1.0
 50
180.0000000009999
 51
196.71238456399999
  0
LINE
  5
1FA
  8
0
  6
CONTINUOUS
 62
     3
 10
-453.30328197379851
 20
-382.7749573765073
 30
0.0
 11
-483.05328197379839
 21
-386.21480112650721
 31
0.0
  0
LINE
  5
1FB
  8
0
  6
CONTINUOUS
 62
     3
 10
-453.3032819727984
 20
-310.25414487650733
 30
0.0
 11
-483.0532819727984
 21
-306.81430112650719
 31
0.0
  0
LINE
  5
1FC
  8
0
  6
CONTINUOUS
 62
     3
 10
-442.0532819727984
 20
-307.51430112650729
 30
0.0
 11
-446.35328197279841
 21
-307.51430112650729
 31
0.0
  0
LINE
  5
1FD
  8
0
  6
CONTINUOUS
 62
     3
 10
-435.8032819727984
 20
-307.51430112650729
 30
0.0
 11
-440.05328197279857
 21
-307.51430112650729
 31
0.0
  0
LINE
  5
1FE
  8
0
  6
CONTINUOUS
 62
     3
 10
-429.0532819727984
 20
-307.51430112650729
 30
0.0
 11
-434.0532819727984
 21
-307.51430112650729
 31
0.0
  0
LINE
  5
1FF
  8
0
  6
CONTINUOUS
 62
     3
 10
-418.0532819727984
 20
-307.51430112750728
 30
0.0
 11
-427.45328197279838
 21
-307.51430112650729
 31
0.0
  0
LINE
  5
200
  8
0
  6
CONTINUOUS
 62
     3
 10
-418.05328197379851
 20
-385.51480112750721
 30
0.0
 11
-427.35328197379852
 21
-385.51480112650722
 31
0.0
  0
LINE
  5
201
  8
0
  6
CONTINUOUS
 62
     3
 10
-429.05328197379839
 20
-385.51480112650722
 30
0.0
 11
-434.05328197379851
 21
-385.51480112650722
 31
0.0
  0
LINE
  5
202
  8
0
  6
CONTINUOUS
 62
     3
 10
-442.05328197379839
 20
-385.51480112650722
 30
0.0
 11
-446.35328197379829
 21
-385.51480112650722
 31
0.0
  0
LINE
  5
203
  8
0
  6
CONTINUOUS
 62
     3
 10
-435.80328197379839
 20
-385.51480112650722
 30
0.0
 11
-440.05328197379862
 21
-385.51480112650722
 31
0.0
  0
POLYLINE
  5
204
  8
0
 62
     3
 66
     1
 10
0.0
 20
0.0
 30
0.0
  0
VERTEX
  5
564
  8
0
 62
     3
 10
-418.0532819727984
 20
-335.0145511275071
 30
0.0
  0
VERTEX
  5
565
  8
0
 62
     3
 10
-409.0532819727984
 20
-335.0145511275071
 30
0.0
  0
VERTEX
  5
566
  8
0
 62
     3
 10
-409.0532819727984
 20
-358.0145511275071
 30
0.0
  0
VERTEX
  5
567
  8
0
 62
     3
 10
-418.0532819727984
 20
-358.0145511275071
 30
0.0
  0
SEQEND
  5
568
  8
0
 62
     3
  0
LINE
  5
20A
  8
0
  6
CONTINUOUS
 62
     3
 10
-409.0532819727984
 20
-342.51455112750722
 30
0.0
 11
-399.05328197279852
 21
-342.51455112750722
 31
0.0
  0
POLYLINE
  5
20B
  8
0
 62
     3
 66
     1
 10
0.0
 20
0.0
 30
0.0
  0
VERTEX
  5
569
  8
0
 62
     3
 10
-399.05328197279852
 20
-342.51455112750722
 30
0.0
  0
VERTEX
  5
56A
  8
0
 62
     3
 10
-399.05328197279852
 20
-350.51455112750722
 30
0.0
  0
VERTEX
  5
56B
  8
0
 62
     3
 10
-409.0532819727984
 20
-350.51455112750722
 30
0.0
  0
SEQEND
  5
56C
  8
0
 62
     3
  0
LINE
  5
210
  8
0
  6
CONTINUOUS
 62
     3
 10
-409.0532819727984
 20
-345.01455112750722
 30
0.0
 11
-410.05328197279857
 21
-345.01455112750722
 31
0.0
  0
LINE
  5
211
  8
0
  6
CONTINUOUS
 62
     3
 10
-410.05328197279857
 20
-345.01455112750722
 30
0.0
 11
-410.05328197279857
 21
-345.5145511275071
 31
0.0
  0
ARC
  5
212
  8
0
  6
CONTINUOUS
 62
     3
 10
-413.67828197279857
 20
-346.38955112750722
 30
0.0
 40
0.395284708
 50
108.434948823
 51
198.43494882199991
  0
LINE
  5
213
  8
0
  6
CONTINUOUS
 62
     3
 10
-413.8032819727984
 20
-345.98330112750727
 30
0.0
 11
-410.05328197279857
 21
-345.5145511275071
 31
0.0
  0
LINE
  5
214
  8
0
  6
CONTINUOUS
 62
     3
 10
-409.0532819727984
 20
-348.01455112750722
 30
0.0
 11
-410.05328197279857
 21
-348.01455112750722
 31
0.0
  0
LINE
  5
215
  8
0
  6
CONTINUOUS
 62
     3
 10
-410.05328197279857
 20
-348.01455112750722
 30
0.0
 11
-410.05328197279857
 21
-347.5145511275071
 31
0.0
  0
ARC
  5
216
  8
0
  6
CONTINUOUS
 62
     3
 10
-413.67828197279857
 20
-346.6395511275071
 30
0.0
 40
0.395284708
 50
161.565051178
 51
251.56505117699999
  0
LINE
  5
217
  8
0
  6
CONTINUOUS
 62
     3
 10
-413.8032819727984
 20
-347.04580112750722
 30
0.0
 11
-410.05328197279857
 21
-347.5145511275071
 31
0.0
  0
ARC
  5
218
  8
0
  6
CONTINUOUS
 62
     3
 10
-409.0532819727984
 20
-341.5145511275071
 30
0.0
 40
1.0
 50
90.0
 51
180.0
  0
LINE
  5
219
  8
0
  6
CONTINUOUS
 62
     3
 10
-410.05328197279857
 20
-341.5145511275071
 30
0.0
 11
-410.05328197279857
 21
-343.5145511275071
 31
0.0
  0
ARC
  5
21A
  8
0
  6
CONTINUOUS
 62
     3
 10
-409.0532819727984
 20
-343.5145511275071
 30
0.0
 40
1.0
 50
180.0
 51
270.0
  0
ARC
  5
21B
  8
0
  6
CONTINUOUS
 62
     3
 10
-409.0532819727984
 20
-349.51455112750722
 30
0.0
 40
1.0
 50
90.0
 51
180.0
  0
LINE
  5
21C
  8
0
  6
CONTINUOUS
 62
     3
 10
-410.05328197279857
 20
-349.51455112750722
 30
0.0
 11
-410.05328197279857
 21
-351.51455112750722
 31
0.0
  0
ARC
  5
21D
  8
0
  6
CONTINUOUS
 62
     3
 10
-409.0532819727984
 20
-351.51455112750722
 30
0.0
 40
1.0
 50
180.0
 51
270.0
  0
LINE
  5
21E
  8
0
  6
CONTINUOUS
 62
     3
 10
-408.05328197379839
 20
-388.51455112750727
 30
0.0
 11
-408.05328197379839
 21
-392.51455112750722
 31
0.0
  0
LINE
  5
21F
  8
0
  6
CONTINUOUS
 62
     3
 10
-407.05328197379851
 20
-392.51455112750722
 30
0.0
 11
-407.05328197379851
 21
-388.51455112750727
 31
0.0
  0
LINE
  5
220
  8
0
  6
CONTINUOUS
 62
     3
 10
-408.05328197379839
 20
-388.51455112750727
 30
0.0
 11
-388.05328197379851
 21
-388.51455112750727
 31
0.0
  0
LINE
  5
221
  8
0
  6
CONTINUOUS
 62
     3
 10
-388.05328197379851
 20
-392.51455112750722
 30
0.0
 11
-408.05328197379839
 21
-392.51455112750722
 31
0.0
  0
POLYLINE
  5
222
  8
0
 62
     3
 66
     1
 10
0.0
 20
0.0
 30
0.0
  0
VERTEX
  5
56D
  8
0
 62
     3
 10
-408.0532819727984
 20
-310.51455112750722
 30
0.0
  0
VERTEX
  5
56E
  8
0
 62
     3
 10
-408.0532819727984
 20
-306.51455112750722
 30
0.0
  0
VERTEX
  5
56F
  8
0
 62
     3
 10
-388.05328197279852
 20
-306.51455112750722
 30
0.0
  0
SEQEND
  5
570
  8
0
 62
     3
  0
LINE
  5
227
  8
0
  6
CONTINUOUS
 62
     3
 10
-407.05328197279852
 20
-306.51455112750722
 30
0.0
 11
-407.05328197279852
 21
-310.51455112750722
 31
0.0
  0
LINE
  5
228
  8
0
  6
CONTINUOUS
 62
     3
 10
-408.0532819727984
 20
-310.51455112750722
 30
0.0
 11
-388.05328197279852
 21
-310.51455112750722
 31
0.0
  0
LINE
  5
229
  8
0
  6
CONTINUOUS
 62
     3
 10
-392.05328197279852
 20
-364.01455112750722
 30
0.0
 11
-392.05328197279852
 21
-368.01455112750722
 31
0.0
  0
LINE
  5
22A
  8
0
  6
CONTINUOUS
 62
     3
 10
-392.05328197279852
 20
-368.01455112750722
 30
0.0
 11
-388.05328197279852
 21
-368.01455112750722
 31
0.0
  0
LINE
  5
22B
  8
0
  6
CONTINUOUS
 62
     3
 10
-388.05328197279852
 20
-325.01455112750722
 30
0.0
 11
-392.05328197279852
 21
-325.01455112750722
 31
0.0
  0
LINE
  5
22C
  8
0
  6
CONTINUOUS
 62
     3
 10
-392.05328197279852
 20
-325.01455112750722
 30
0.0
 11
-392.05328197279852
 21
-329.0145511275071
 31
0.0
  0
LINE
  5
22D
  8
0
  6
CONTINUOUS
 62
     3
 10
-388.05328197379851
 20
-397.5145511275071
 30
0.0
 11
-388.05328197379851
 21
-393.51455112750722
 31
0.0
  0
LINE
  5
22E
  8
0
  6
CONTINUOUS
 62
     3
 10
-392.05328197379851
 20
-397.5145511275071
 30
0.0
 11
-392.05328197379851
 21
-393.51455112750722
 31
0.0
  0
LINE
  5
22F
  8
0
  6
CONTINUOUS
 62
     3
 10
-392.05328197379851
 20
-397.5145511275071
 30
0.0
 11
-388.05328197379851
 21
-397.5145511275071
 31
0.0
  0
LINE
  5
230
  8
0
  6
CONTINUOUS
 62
     3
 10
-448.55328197279857
 20
-365.51455112650729
 30
0.0
 11
-448.55328197279857
 21
-327.51455112650729
 31
0.0
  0
ARC
  5
231
  8
0
  6
CONTINUOUS
 62
     3
 10
-489.55328197279857
 20
-327.51455112650729
 30
0.0
 40
1.0
 50
90.0
 51
180.0
  0
LINE
  5
232
  8
6
  6
CONTINUOUS
 62
     3
 10
-490.55328197279852
 20
-365.51455112650729
 30
0.0
 11
-490.55328197279852
 21
-327.51455112650729
 31
0.0
  0
ARC
  5
233
  8
0
  6
CONTINUOUS
 62
     3
 10
-489.55328197279857
 20
-365.51455112650729
 30
0.0
 40
1.0
 50
180.0
 51
270.0
  0
LINE
  5
234
  8
6
  6
CONTINUOUS
 62
     3
 10
-489.55328197279857
 20
-366.51455112650717
 30
0.0
 11
-448.55328197279857
 21
-366.51455112650717
 31
0.0
  0
ARC
  5
235
  8
0
  6
CONTINUOUS
 62
     3
 10
-448.55328197279857
 20
-365.51455112650729
 30
0.0
 40
1.0
 50
270.0
 51
0.0
  0
LINE
  5
236
  8
6
  6
CONTINUOUS
 62
     3
 10
-489.55328197279857
 20
-326.51455112650717
 30
0.0
 11
-448.55328197279857
 21
-326.51455112650717
 31
0.0
  0
LINE
  5
237
  8
6
  6
CONTINUOUS
 62
     3
 10
-447.55328197279857
 20
-327.51455112650729
 30
0.0
 11
-447.55328197279857
 21
-365.51455112650729
 31
0.0
  0
ARC
  5
238
  8
0
  6
CONTINUOUS
 62
     3
 10
-448.55328197279857
 20
-327.51455112650729
 30
0.0
 40
1.0
 50
0.0
 51
90.0
  0
LINE
  5
239
  8
0
  6
CONTINUOUS
 62
     3
 10
-518.05328197579854
 20
-311.51455112450719
 30
0.0
 11
-518.05328197479855
 21
-381.51455112450731
 31
0.0
  0
ARC
  5
23A
  8
0
  6
CONTINUOUS
 62
     3
 10
-516.05328197579854
 20
-311.51455112450719
 30
0.0
 40
2.0
 50
30.465544867999999
 51
180.0
  0
LINE
  5
23B
  8
0
  6
CONTINUOUS
 62
     3
 10
-453.35328197579861
 20
-310.51455112450731
 30
0.0
 11
-514.35328197179842
 21
-310.51455112450731
 31
0.0
  0
LINE
  5
23C
  8
0
  6
CONTINUOUS
 62
     3
 10
-453.35328197179859
 20
-310.51455112650717
 30
0.0
 11
-446.35328197179842
 21
-310.51455112650717
 31
0.0
  0
LINE
  5
23D
  8
0
  6
CONTINUOUS
 62
     3
 10
-451.0532819727984
 20
-310.51430112650718
 30
0.0
 11
-442.0532819727984
 21
-310.51430112650718
 31
0.0
  0
POLYLINE
  5
23E
  8
0
 62
     3
 66
     1
 10
0.0
 20
0.0
 30
0.0
  0
VERTEX
  5
571
  8
0
 62
     3
 10
-442.05328197579843
 20
-310.51455112350732
 30
0.0
  0
VERTEX
  5
572
  8
0
 62
     3
 10
-442.05328197579843
 20
-307.01455112350732
 30
0.0
  0
VERTEX
  5
573
  8
0
 62
     3
 10
-440.05328197579848
 20
-307.01455112350732
 30
0.0
  0
VERTEX
  5
574
  8
0
 62
     3
 10
-440.05328197579848
 20
-310.51455112350732
 30
0.0
  0
SEQEND
  5
575
  8
0
 62
     3
  0
LINE
  5
244
  8
0
  6
CONTINUOUS
 62
     3
 10
-434.05328197579843
 20
-310.51455112350732
 30
0.0
 11
-434.05328197579843
 21
-307.01455112350732
 31
0.0
  0
LINE
  5
245
  8
0
  6
CONTINUOUS
 62
     3
 10
-429.05328197579843
 20
-307.01455112350732
 30
0.0
 11
-429.05328197579843
 21
-310.51455112350732
 31
0.0
  0
LINE
  5
246
  8
0
  6
CONTINUOUS
 62
     3
 10
-435.00328197579842
 20
-307.01455112350732
 30
0.0
 11
-434.05328197579843
 21
-307.01455112350732
 31
0.0
  0
ARC
  5
247
  8
0
  6
CONTINUOUS
 62
     3
 10
-435.00328197579842
 20
-307.81455112350721
 30
0.0
 40
0.8
 50
90.0
 51
179.9999999989999
  0
LINE
  5
248
  8
0
  6
CONTINUOUS
 62
     3
 10
-428.10328197579838
 20
-307.01455112350732
 30
0.0
 11
-429.05328197579843
 21
-307.01455112350732
 31
0.0
  0
ARC
  5
249
  8
0
  6
CONTINUOUS
 62
     3
 10
-428.10328197579838
 20
-307.81455112350721
 30
0.0
 40
0.8
 50
0.0
 51
90.0
  0
LINE
  5
24A
  8
0
  6
CONTINUOUS
 62
     3
 10
-435.80328197579843
 20
-310.51455112350732
 30
0.0
 11
-440.05328197579848
 21
-310.51455112350732
 31
0.0
  0
LINE
  5
24B
  8
0
  6
CONTINUOUS
 62
     3
 10
-440.05328197279857
 20
-310.51430112650718
 30
0.0
 11
-435.8032819727984
 21
-310.51430112650718
 31
0.0
  0
LINE
  5
24C
  8
0
  6
CONTINUOUS
 62
     3
 10
-435.80328197579843
 20
-307.81455112350721
 30
0.0
 11
-435.80328197579843
 21
-310.51455112350732
 31
0.0
  0
LINE
  5
24D
  8
0
  6
CONTINUOUS
 62
     3
 10
-429.05328197579843
 20
-310.51455112350732
 30
0.0
 11
-434.05328197579843
 21
-310.51455112350732
 31
0.0
  0
LINE
  5
24E
  8
0
  6
CONTINUOUS
 62
     3
 10
-429.05328197579843
 20
-310.51455112350732
 30
0.0
 11
-434.05328197579843
 21
-310.51455112350732
 31
0.0
  0
LINE
  5
24F
  8
0
  6
CONTINUOUS
 62
     3
 10
-434.0532819727984
 20
-310.51430112650718
 30
0.0
 11
-429.0532819727984
 21
-310.51430112650718
 31
0.0
  0
LINE
  5
250
  8
0
  6
CONTINUOUS
 62
     3
 10
-427.30328197579843
 20
-310.51455112350732
 30
0.0
 11
-427.30328197579843
 21
-307.81455112350721
 31
0.0
  0
LINE
  5
251
  8
0
  6
CONTINUOUS
 62
     3
 10
-418.55328197579848
 20
-310.51455112350732
 30
0.0
 11
-427.30328197579843
 21
-310.51455112350732
 31
0.0
  0
LINE
  5
252
  8
0
  6
CONTINUOUS
 62
     3
 10
-427.3032819727984
 20
-310.51430112650718
 30
0.0
 11
-419.05328197279857
 21
-310.51430112750711
 31
0.0
  0
ARC
  5
253
  8
0
  6
CONTINUOUS
 62
     3
 10
-418.55328197579848
 20
-311.01455112350732
 30
0.0
 40
0.5
 50
0.0
 51
90.0
  0
LINE
  5
254
  8
0
  6
CONTINUOUS
 62
     3
 10
-418.0532819727984
 20
-310.51455112750722
 30
0.0
 11
-418.0532819727984
 21
-311.01455112750722
 31
0.0
  0
LINE
  5
255
  8
0
  6
CONTINUOUS
 62
     3
 10
-409.05328197179841
 20
-299.51455112750722
 30
0.0
 11
-409.0532819727984
 21
-310.51455112750722
 31
0.0
  0
LINE
  5
256
  8
0
  6
CONTINUOUS
 62
     3
 10
-418.0532819727984
 20
-310.51455112750722
 30
0.0
 11
-409.0532819727984
 21
-310.51455112750722
 31
0.0
  0
LINE
  5
257
  8
0
  6
CONTINUOUS
 62
     3
 10
-388.05328197179858
 20
-299.51455112750722
 30
0.0
 11
-409.05328197179841
 21
-299.51455112750722
 31
0.0
  0
LINE
  5
258
  8
0
  6
CONTINUOUS
 62
     3
 10
-388.05328197179858
 20
-299.51455112750722
 30
0.0
 11
-388.05328197279852
 21
-329.0145511275071
 31
0.0
  0
POLYLINE
  5
259
  8
0
 62
     3
 66
     1
 10
0.0
 20
0.0
 30
0.0
  0
VERTEX
  5
576
  8
0
 62
     3
 10
-388.05328197279852
 20
-329.0145511275071
 30
0.0
  0
VERTEX
  5
577
  8
0
 62
     3
 10
-389.05328197279852
 20
-331.0145511275071
 30
0.0
  0
VERTEX
  5
578
  8
0
 62
     3
 10
-390.05328197279852
 20
-331.0145511275071
 30
0.0
  0
VERTEX
  5
579
  8
0
 62
     3
 10
-390.05328197279852
 20
-329.0145511275071
 30
0.0
  0
SEQEND
  5
57A
  8
0
 62
     3
  0
LINE
  5
25F
  8
0
  6
CONTINUOUS
 62
     3
 10
-388.05328197279852
 20
-329.0145511275071
 30
0.0
 11
-392.05328197279852
 21
-329.0145511275071
 31
0.0
  0
POLYLINE
  5
260
  8
0
 62
     3
 66
     1
 10
0.0
 20
0.0
 30
0.0
  0
VERTEX
  5
57B
  8
0
 62
     3
 10
-392.05328197279852
 20
-341.5145511275071
 30
0.0
  0
VERTEX
  5
57C
  8
0
 62
     3
 10
-388.05328197279852
 20
-341.01455112750722
 30
0.0
  0
VERTEX
  5
57D
  8
0
 62
     3
 10
-388.05328197279852
 20
-337.01455112750722
 30
0.0
  0
VERTEX
  5
57E
  8
0
 62
     3
 10
-392.05328197279852
 20
-336.51455112750722
 30
0.0
  0
SEQEND
  5
57F
  8
0
 62
     3
  0
POLYLINE
  5
266
  8
0
 62
     3
 66
     1
 10
0.0
 20
0.0
 30
0.0
  0
VERTEX
  5
580
  8
0
 62
     3
 10
-392.05328197279852
 20
-356.51455112750722
 30
0.0
  0
VERTEX
  5
581
  8
0
 62
     3
 10
-388.05328197279852
 20
-356.0145511275071
 30
0.0
  0
VERTEX
  5
582
  8
0
 62
     3
 10
-388.05328197279852
 20
-352.0145511275071
 30
0.0
  0
VERTEX
  5
583
  8
0
 62
     3
 10
-392.05328197279852
 20
-351.51455112750722
 30
0.0
  0
SEQEND
  5
584
  8
0
 62
     3
  0
POLYLINE
  5
26C
  8
0
 62
     3
 66
     1
 10
0.0
 20
0.0
 30
0.0
  0
VERTEX
  5
585
  8
0
 62
     3
 10
-389.05328197279852
 20
-362.01455112750722
 30
0.0
  0
VERTEX
  5
586
  8
0
 62
     3
 10
-390.05328197279852
 20
-362.01455112750722
 30
0.0
  0
VERTEX
  5
587
  8
0
 62
     3
 10
-390.05328197279852
 20
-364.01455112750722
 30
0.0
  0
SEQEND
  5
588
  8
0
 62
     3
  0
LINE
  5
271
  8
0
  6
CONTINUOUS
 62
     3
 10
-392.05328197279852
 20
-329.0145511275071
 30
0.0
 11
-392.05328197279852
 21
-364.01455112750722
 31
0.0
  0
POLYLINE
  5
272
  8
0
 62
     3
 66
     1
 10
0.0
 20
0.0
 30
0.0
  0
VERTEX
  5
589
  8
0
 62
     3
 10
-392.05328197279852
 20
-364.01455112750722
 30
0.0
  0
VERTEX
  5
58A
  8
0
 62
     3
 10
-388.05328197279852
 20
-364.01455112750722
 30
0.0
  0
VERTEX
  5
58B
  8
0
 62
     3
 10
-388.05328197379851
 20
-393.51455112750722
 30
0.0
  0
SEQEND
  5
58C
  8
0
 62
     3
  0
LINE
  5
277
  8
0
  6
CONTINUOUS
 62
     3
 10
-388.05328197279852
 20
-364.01455112750722
 30
0.0
 11
-389.05328197279852
 21
-362.01455112750722
 31
0.0
  0
LINE
  5
278
  8
0
  6
CONTINUOUS
 62
     3
 10
-388.05328197379851
 20
-393.51455112750722
 30
0.0
 11
-409.05328197379851
 21
-393.51455112750722
 31
0.0
  0
LINE
  5
279
  8
0
  6
CONTINUOUS
 62
     3
 10
-409.05328197379851
 20
-393.51455112750722
 30
0.0
 11
-409.05328197379851
 21
-382.51455112750722
 31
0.0
  0
ARC
  5
27A
  8
0
  6
CONTINUOUS
 62
     3
 10
-418.55328197479872
 20
-382.01455112350732
 30
0.0
 40
0.5
 50
270.0
 51
0.0
  0
LINE
  5
27B
  8
0
  6
CONTINUOUS
 62
     3
 10
-427.30328197779841
 20
-382.51455112350732
 30
0.0
 11
-418.55328197479872
 21
-382.51455112350732
 31
0.0
  0
LINE
  5
27C
  8
0
  6
CONTINUOUS
 62
     3
 10
-418.05328197379851
 20
-382.51455112750722
 30
0.0
 11
-418.05328197379851
 21
-382.01455112750722
 31
0.0
  0
LINE
  5
27D
  8
0
  6
CONTINUOUS
 62
     3
 10
-418.05328197479861
 20
-382.01455112350732
 30
0.0
 11
-418.05328197579843
 21
-311.01455112350732
 31
0.0
  0
LINE
  5
27E
  8
0
  6
CONTINUOUS
 62
     3
 10
-409.05328197379851
 20
-382.51455112750722
 30
0.0
 11
-418.05328197379851
 21
-382.51455112750722
 31
0.0
  0
LINE
  5
27F
  8
0
  6
CONTINUOUS
 62
     3
 10
-427.30328197479838
 20
-382.51455112350732
 30
0.0
 11
-427.30328197479838
 21
-385.21455112350731
 31
0.0
  0
LINE
  5
280
  8
0
  6
CONTINUOUS
 62
     3
 10
-434.05328197479838
 20
-382.51455112350732
 30
0.0
 11
-434.05328197479838
 21
-386.01455112350732
 31
0.0
  0
LINE
  5
281
  8
0
  6
CONTINUOUS
 62
     3
 10
-429.05328197479838
 20
-386.01455112350732
 30
0.0
 11
-429.05328197479838
 21
-382.51455112350732
 31
0.0
  0
LINE
  5
282
  8
0
  6
CONTINUOUS
 62
     3
 10
-435.0032819747986
 20
-386.01455112350732
 30
0.0
 11
-434.05328197479838
 21
-386.01455112350732
 31
0.0
  0
ARC
  5
283
  8
0
  6
CONTINUOUS
 62
     3
 10
-435.0032819747986
 20
-385.21455112350731
 30
0.0
 40
0.8
 50
180.0000000009999
 51
270.0
  0
LINE
  5
284
  8
0
  6
CONTINUOUS
 62
     3
 10
-428.10328197479862
 20
-386.01455112350732
 30
0.0
 11
-429.05328197479838
 21
-386.01455112350732
 31
0.0
  0
ARC
  5
285
  8
0
  6
CONTINUOUS
 62
     3
 10
-428.10328197479862
 20
-385.21455112350731
 30
0.0
 40
0.8
 50
270.0
 51
0.0
  0
LINE
  5
286
  8
0
  6
CONTINUOUS
 62
     3
 10
-434.05328197779841
 20
-382.51455112350732
 30
0.0
 11
-429.05328197779841
 21
-382.51455112350732
 31
0.0
  0
LINE
  5
287
  8
0
  6
CONTINUOUS
 62
     3
 10
-434.05328197379851
 20
-382.51480112650711
 30
0.0
 11
-429.05328197379839
 21
-382.51480112650711
 31
0.0
  0
LINE
  5
288
  8
0
  6
CONTINUOUS
 62
     3
 10
-440.05328197479861
 20
-386.01455112350732
 30
0.0
 11
-440.05328197479861
 21
-382.51455112350732
 31
0.0
  0
LINE
  5
289
  8
0
  6
CONTINUOUS
 62
     3
 10
-440.05328197779858
 20
-382.51455112350732
 30
0.0
 11
-435.80328197779841
 21
-382.51455112350732
 31
0.0
  0
LINE
  5
28A
  8
0
  6
CONTINUOUS
 62
     3
 10
-440.05328197379862
 20
-382.51480112650711
 30
0.0
 11
-435.80328197379839
 21
-382.51480112650711
 31
0.0
  0
LINE
  5
28B
  8
0
  6
CONTINUOUS
 62
     3
 10
-435.80328197479838
 20
-385.21455112350731
 30
0.0
 11
-435.80328197479838
 21
-382.51455112350732
 31
0.0
  0
POLYLINE
  5
28C
  8
0
 62
     3
 66
     1
 10
0.0
 20
0.0
 30
0.0
  0
VERTEX
  5
58D
  8
0
 62
     3
 10
-442.05328197479838
 20
-382.51455112350732
 30
0.0
  0
VERTEX
  5
58E
  8
0
 62
     3
 10
-442.05328197479838
 20
-386.01455112350732
 30
0.0
  0
VERTEX
  5
58F
  8
0
 62
     3
 10
-440.05328197479861
 20
-386.01455112350732
 30
0.0
  0
SEQEND
  5
590
  8
0
 62
     3
  0
LINE
  5
291
  8
0
  6
CONTINUOUS
 62
     3
 10
-446.35328197779842
 20
-382.51455112350732
 30
0.0
 11
-442.05328197779841
 21
-382.51455112350732
 31
0.0
  0
LINE
  5
292
  8
0
  6
CONTINUOUS
 62
     3
 10
-451.05328197379851
 20
-382.51480112650711
 30
0.0
 11
-442.05328197379839
 21
-382.51480112650711
 31
0.0
  0
LINE
  5
293
  8
0
  6
CONTINUOUS
 62
     3
 10
-446.35328197379829
 20
-382.51455112650717
 30
0.0
 11
-453.35328197379852
 21
-382.51455112650717
 31
0.0
  0
LINE
  5
294
  8
0
  6
CONTINUOUS
 62
     3
 10
-506.05328197479849
 20
-382.51455112450719
 30
0.0
 11
-453.35328197779859
 21
-382.51455112450719
 31
0.0
  0
LINE
  5
295
  8
0
  6
CONTINUOUS
 62
     3
 10
-514.40328197479857
 20
-382.51455112450719
 30
0.0
 11
-511.05328197479861
 21
-382.51455112450719
 31
0.0
  0
ARC
  5
296
  8
0
  6
CONTINUOUS
 62
     3
 10
-516.05328197779863
 20
-381.51455112450731
 30
0.0
 40
2.0
 50
180.0
 51
329.53445513200001
  0
LINE
  5
297
  8
0
  6
CONTINUOUS
 62
     3
 10
-511.05328197779858
 20
-382.51455112150722
 30
0.0
 11
-506.05328197779858
 21
-382.51455112150722
 31
0.0
  0
POLYLINE
  5
298
  8
0
 62
     3
 66
     1
 10
0.0
 20
0.0
 30
0.0
  0
VERTEX
  5
591
  8
0
 62
     3
 10
-501.05328197679859
 20
-367.76455112150722
 30
0.0
  0
VERTEX
  5
592
  8
0
 62
     3
 10
-501.05328197579843
 20
-325.26455112150722
 30
0.0
  0
VERTEX
  5
593
  8
0
 62
     3
 10
-435.55328197579848
 20
-325.26455112350732
 30
0.0
  0
SEQEND
  5
594
  8
0
 62
     3
  0
LINE
  5
29D
  8
0
  6
CONTINUOUS
 62
     3
 10
-435.55328197679859
 20
-367.76455112350732
 30
0.0
 11
-501.05328197679859
 21
-367.76455112150722
 31
0.0
  0
LINE
  5
29E
  8
0
  6
CONTINUOUS
 62
     3
 10
-435.55328197579848
 20
-325.26455112350732
 30
0.0
 11
-435.55328197679859
 21
-367.76455112350732
 31
0.0
  0
LINE
  5
29F
  8
0
  6
CONTINUOUS
 62
     3
 10
-418.0532819727984
 20
-339.5145511275071
 30
0.0
 11
-409.0532819727984
 21
-339.5145511275071
 31
0.0
  0
LINE
  5
2A0
  8
0
  6
CONTINUOUS
 62
     3
 10
-409.0532819727984
 20
-353.51455112750722
 30
0.0
 11
-418.0532819727984
 21
-353.51455112750722
 31
0.0
  0
LINE
  5
2A1
  8
0
  6
CONTINUOUS
 62
     3
 10
-448.55328197279857
 20
-365.51455112650729
 30
0.0
 11
-448.55328197279857
 21
-327.51455112650729
 31
0.0
  0
LINE
  5
2A2
  8
0
  6
CONTINUOUS
 62
     3
 10
-468.55328197279857
 20
-327.51455112650729
 30
0.0
 11
-489.55328197279857
 21
-327.51455112650729
 31
0.0
  0
LINE
  5
2A3
  8
0
  6
CONTINUOUS
 62
     3
 10
-468.55328197279857
 20
-365.51455112650729
 30
0.0
 11
-468.55328197279857
 21
-327.51455112650729
 31
0.0
  0
LINE
  5
2A4
  8
0
  6
CONTINUOUS
 62
     3
 10
-468.55328197279857
 20
-327.51455112650729
 30
0.0
 11
-468.55328197279857
 21
-365.51455112650729
 31
0.0
  0
LINE
  5
2A5
  8
0
  6
CONTINUOUS
 62
     3
 10
-448.55328197279857
 20
-327.51455112650729
 30
0.0
 11
-468.55328197279857
 21
-327.51455112650729
 31
0.0
  0
LINE
  5
2A6
  8
0
  6
CONTINUOUS
 62
     3
 10
-448.55328197279857
 20
-365.51455112650729
 30
0.0
 11
-448.55328197279857
 21
-327.51455112650729
 31
0.0
  0
LINE
  5
2A7
  8
0
  6
CONTINUOUS
 62
     3
 10
-468.55328197279857
 20
-365.51455112650729
 30
0.0
 11
-448.55328197279857
 21
-365.51455112650729
 31
0.0
  0
LINE
  5
2A8
  8
0
  6
CONTINUOUS
 62
     3
 10
-489.55328197279857
 20
-365.51455112650729
 30
0.0
 11
-468.55328197279857
 21
-365.51455112650729
 31
0.0
  0
LINE
  5
2A9
  8
0
  6
CONTINUOUS
 62
     3
 10
-489.55328197279857
 20
-327.51455112650729
 30
0.0
 11
-489.55328197279857
 21
-365.51455112650729
 31
0.0
  0
POLYLINE
  5
2AA
  8
0
 62
     3
 66
     1
 10
0.0
 20
0.0
 30
0.0
  0
VERTEX
  5
595
  8
0
 62
     3
 10
-547.05328197379845
 20
-393.51455112750722
 30
0.0
  0
VERTEX
  5
596
  8
0
 62
     3
 10
-547.05328197379845
 20
-395.5145511275071
 30
0.0
  0
VERTEX
  5
597
  8
0
 62
     3
 10
-555.05328197379845
 20
-395.5145511275071
 30
0.0
  0
VERTEX
  5
598
  8
0
 62
     3
 10
-555.05328197379845
 20
-393.51455112750722
 30
0.0
  0
SEQEND
  5
599
  8
0
 62
     3
  0
LINE
  5
2B0
  8
0
  6
CONTINUOUS
 62
     3
 10
-539.05328197379845
 20
-382.51455112750722
 30
0.0
 11
-563.05328197379845
 21
-382.51455112750722
 31
0.0
  0
LINE
  5
2B1
  8
0
  6
CONTINUOUS
 62
     3
 10
-561.05328197379856
 20
-382.51455112750722
 30
0.0
 11
-561.05328197379856
 21
-393.51455112750722
 31
0.0
  0
LINE
  5
2B2
  8
0
  6
CONTINUOUS
 62
     3
 10
-541.05328197379845
 20
-393.51455112750722
 30
0.0
 11
-541.05328197379845
 21
-382.51455112750722
 31
0.0
  0
LINE
  5
2B3
  8
0
  6
CONTINUOUS
 62
     3
 10
-550.05328197379845
 20
-391.5145511275071
 30
0.0
 11
-541.05328197379845
 21
-391.5145511275071
 31
0.0
  0
LINE
  5
2B4
  8
0
  6
CONTINUOUS
 62
     3
 10
-561.05328197379856
 20
-391.5145511275071
 30
0.0
 11
-552.05328197379856
 21
-391.5145511275071
 31
0.0
  0
POLYLINE
  5
2B5
  8
0
 62
     3
 66
     1
 10
0.0
 20
0.0
 30
0.0
  0
VERTEX
  5
59A
  8
0
 62
     3
 10
-546.05328197379845
 20
-387.51455112750722
 30
0.0
  0
VERTEX
  5
59B
  8
0
 62
     3
 10
-546.05328197379845
 20
-386.01455112750722
 30
0.0
  0
VERTEX
  5
59C
  8
0
 62
     3
 10
-545.05328197379845
 20
-386.01455112750722
 30
0.0
  0
VERTEX
  5
59D
  8
0
 62
     3
 10
-545.05328197379845
 20
-387.51455112750722
 30
0.0
  0
VERTEX
  5
59E
  8
0
 62
     3
 10
-543.55328197379845
 20
-387.51455112750722
 30
0.0
  0
VERTEX
  5
59F
  8
0
 62
     3
 10
-543.55328197379845
 20
-388.51455112750727
 30
0.0
  0
VERTEX
  5
5A0
  8
0
 62
     3
 10
-545.05328197379845
 20
-388.51455112750727
 30
0.0
  0
VERTEX
  5
5A1
  8
0
 62
     3
 10
-545.05328197379845
 20
-390.01455112750722
 30
0.0
  0
VERTEX
  5
5A2
  8
0
 62
     3
 10
-546.05328197379845
 20
-390.01455112750722
 30
0.0
  0
VERTEX
  5
5A3
  8
0
 62
     3
 10
-546.05328197379845
 20
-388.51455112750727
 30
0.0
  0
VERTEX
  5
5A4
  8
0
 62
     3
 10
-547.55328197379845
 20
-388.51455112750727
 30
0.0
  0
VERTEX
  5
5A5
  8
0
 62
     3
 10
-547.55328197379845
 20
-387.51455112750722
 30
0.0
  0
VERTEX
  5
5A6
  8
0
 62
     3
 10
-546.05328197379845
 20
-387.51455112750722
 30
0.0
  0
SEQEND
  5
5A7
  8
0
 62
     3
  0
LINE
  5
2C4
  8
0
  6
CONTINUOUS
 62
     3
 10
-557.05328197379845
 20
-387.51455112750722
 30
0.0
 11
-557.05328197379845
 21
-386.01455112750722
 31
0.0
  0
POLYLINE
  5
2C5
  8
0
 62
     3
 66
     1
 10
0.0
 20
0.0
 30
0.0
  0
VERTEX
  5
5A8
  8
0
 62
     3
 10
-557.05328197379845
 20
-386.01455112750722
 30
0.0
  0
VERTEX
  5
5A9
  8
0
 62
     3
 10
-556.05328197379845
 20
-386.01455112750722
 30
0.0
  0
VERTEX
  5
5AA
  8
0
 62
     3
 10
-556.05328197379845
 20
-387.51455112750722
 30
0.0
  0
VERTEX
  5
5AB
  8
0
 62
     3
 10
-554.55328197379845
 20
-387.51455112750722
 30
0.0
  0
VERTEX
  5
5AC
  8
0
 62
     3
 10
-554.55328197379845
 20
-388.51455112750727
 30
0.0
  0
VERTEX
  5
5AD
  8
0
 62
     3
 10
-556.05328197379845
 20
-388.51455112750727
 30
0.0
  0
VERTEX
  5
5AE
  8
0
 62
     3
 10
-556.05328197379845
 20
-390.01455112750722
 30
0.0
  0
VERTEX
  5
5AF
  8
0
 62
     3
 10
-557.05328197379845
 20
-390.01455112750722
 30
0.0
  0
VERTEX
  5
5B0
  8
0
 62
     3
 10
-557.05328197379845
 20
-388.51455112750727
 30
0.0
  0
VERTEX
  5
5B1
  8
0
 62
     3
 10
-558.55328197379845
 20
-388.51455112750727
 30
0.0
  0
VERTEX
  5
5B2
  8
0
 62
     3
 10
-558.55328197379845
 20
-387.51455112750722
 30
0.0
  0
VERTEX
  5
5B3
  8
0
 62
     3
 10
-557.05328197379845
 20
-387.51455112750722
 30
0.0
  0
SEQEND
  5
5B4
  8
0
 62
     3
  0
LINE
  5
2D3
  8
0
  6
CONTINUOUS
 62
     3
 10
-539.05328197379845
 20
-384.51455112750722
 30
0.0
 11
-563.05328197379845
 21
-384.51455112750722
 31
0.0
  0
POLYLINE
  5
2D4
  8
0
 62
     3
 66
     1
 10
0.0
 20
0.0
 30
0.0
  0
VERTEX
  5
5B5
  8
0
 62
     3
 10
-547.05328197379845
 20
-384.51455112750722
 30
0.0
  0
VERTEX
  5
5B6
  8
0
 62
     3
 10
-547.05328197379845
 20
-386.51455112750722
 30
0.0
  0
VERTEX
  5
5B7
  8
0
 62
     3
 10
-555.05328197379845
 20
-386.51455112750722
 30
0.0
  0
VERTEX
  5
5B8
  8
0
 62
     3
 10
-555.05328197379845
 20
-384.51455112750722
 30
0.0
  0
SEQEND
  5
5B9
  8
0
 62
     3
  0
LINE
  5
2DA
  8
0
  6
CONTINUOUS
 62
     3
 10
-550.05328197379845
 20
-393.51455112750722
 30
0.0
 11
-550.05328197379845
 21
-386.51455112750722
 31
0.0
  0
LINE
  5
2DB
  8
0
  6
CONTINUOUS
 62
     3
 10
-552.05328197379856
 20
-386.51455112750722
 30
0.0
 11
-552.05328197379856
 21
-393.51455112750722
 31
0.0
  0
ARC
  5
2DC
  8
0
  6
CONTINUOUS
 62
     3
 10
-545.55328197379845
 20
-388.01455112750722
 30
0.0
 40
3.0
 50
149.0362434679999
 51
120.96375653199991
  0
ARC
  5
2DD
  8
0
  6
CONTINUOUS
 62
     3
 10
-556.55328197379856
 20
-388.01455112750722
 30
0.0
 40
3.0
 50
59.036243468000002
 51
30.963756531999991
  0
LINE
  5
2DE
  8
0
  6
CONTINUOUS
 62
     3
 10
-555.05328197379845
 20
-384.51455112750722
 30
0.0
 11
-555.05328197379845
 21
-382.51455112750722
 31
0.0
  0
LINE
  5
2DF
  8
0
  6
CONTINUOUS
 62
     3
 10
-552.55328197379856
 20
-382.51455112750722
 30
0.0
 11
-552.55328197379856
 21
-384.51455112750722
 31
0.0
  0
LINE
  5
2E0
  8
0
  6
CONTINUOUS
 62
     3
 10
-549.55328197379845
 20
-384.51455112750722
 30
0.0
 11
-549.55328197379845
 21
-382.51455112750722
 31
0.0
  0
LINE
  5
2E1
  8
0
  6
CONTINUOUS
 62
     3
 10
-547.05328197379845
 20
-382.51455112750722
 30
0.0
 11
-547.05328197379845
 21
-384.51455112750722
 31
0.0
  0
LINE
  5
2E2
  8
0
  6
CONTINUOUS
 62
     3
 10
-539.05328197279857
 20
-310.51455112750722
 30
0.0
 11
-563.05328197279835
 21
-310.51455112750722
 31
0.0
  0
LINE
  5
2E3
  8
0
  6
CONTINUOUS
 62
     3
 10
-561.05328197279857
 20
-310.51455112750722
 30
0.0
 11
-561.05328197179858
 21
-299.51455112750722
 31
0.0
  0
LINE
  5
2E4
  8
0
  6
CONTINUOUS
 62
     3
 10
-541.05328197179836
 20
-299.51455112750722
 30
0.0
 11
-541.05328197279835
 21
-310.51455112750722
 31
0.0
  0
LINE
  5
2E5
  8
0
  6
CONTINUOUS
 62
     3
 10
-550.05328197179836
 20
-301.51455112750722
 30
0.0
 11
-541.05328197179836
 21
-301.51455112750722
 31
0.0
  0
LINE
  5
2E6
  8
0
  6
CONTINUOUS
 62
     3
 10
-561.05328197179858
 20
-301.51455112750722
 30
0.0
 11
-552.05328197179858
 21
-301.51455112750722
 31
0.0
  0
LINE
  5
2E7
  8
0
  6
CONTINUOUS
 62
     3
 10
-546.05328197279835
 20
-305.51455112750722
 30
0.0
 11
-546.05328197279835
 21
-307.01455112750722
 31
0.0
  0
POLYLINE
  5
2E8
  8
0
 62
     3
 66
     1
 10
0.0
 20
0.0
 30
0.0
  0
VERTEX
  5
5BA
  8
0
 62
     3
 10
-546.05328197279835
 20
-307.01455112750722
 30
0.0
  0
VERTEX
  5
5BB
  8
0
 62
     3
 10
-545.05328197279835
 20
-307.01455112750722
 30
0.0
  0
VERTEX
  5
5BC
  8
0
 62
     3
 10
-545.05328197279835
 20
-305.51455112750722
 30
0.0
  0
VERTEX
  5
5BD
  8
0
 62
     3
 10
-543.55328197279857
 20
-305.51455112750722
 30
0.0
  0
VERTEX
  5
5BE
  8
0
 62
     3
 10
-543.55328197179858
 20
-304.51455112750722
 30
0.0
  0
VERTEX
  5
5BF
  8
0
 62
     3
 10
-545.05328197179836
 20
-304.51455112750722
 30
0.0
  0
VERTEX
  5
5C0
  8
0
 62
     3
 10
-545.05328197179836
 20
-303.01455112750727
 30
0.0
  0
VERTEX
  5
5C1
  8
0
 62
     3
 10
-546.05328197179836
 20
-303.01455112750727
 30
0.0
  0
VERTEX
  5
5C2
  8
0
 62
     3
 10
-546.05328197179836
 20
-304.51455112750722
 30
0.0
  0
VERTEX
  5
5C3
  8
0
 62
     3
 10
-547.55328197179858
 20
-304.51455112750722
 30
0.0
  0
VERTEX
  5
5C4
  8
0
 62
     3
 10
-547.55328197279857
 20
-305.51455112750722
 30
0.0
  0
VERTEX
  5
5C5
  8
0
 62
     3
 10
-546.05328197279835
 20
-305.51455112750722
 30
0.0
  0
SEQEND
  5
5C6
  8
0
 62
     3
  0
LINE
  5
2F6
  8
0
  6
CONTINUOUS
 62
     3
 10
-557.05328197279846
 20
-305.51455112750722
 30
0.0
 11
-557.05328197279846
 21
-307.01455112750722
 31
0.0
  0
POLYLINE
  5
2F7
  8
0
 62
     3
 66
     1
 10
0.0
 20
0.0
 30
0.0
  0
VERTEX
  5
5C7
  8
0
 62
     3
 10
-557.05328197279846
 20
-307.01455112750722
 30
0.0
  0
VERTEX
  5
5C8
  8
0
 62
     3
 10
-556.05328197279857
 20
-307.01455112750722
 30
0.0
  0
VERTEX
  5
5C9
  8
0
 62
     3
 10
-556.05328197279857
 20
-305.51455112750722
 30
0.0
  0
VERTEX
  5
5CA
  8
0
 62
     3
 10
-554.55328197279835
 20
-305.51455112750722
 30
0.0
  0
VERTEX
  5
5CB
  8
0
 62
     3
 10
-554.55328197179836
 20
-304.51455112750722
 30
0.0
  0
VERTEX
  5
5CC
  8
0
 62
     3
 10
-556.05328197179858
 20
-304.51455112750722
 30
0.0
  0
VERTEX
  5
5CD
  8
0
 62
     3
 10
-556.05328197179858
 20
-303.01455112750727
 30
0.0
  0
VERTEX
  5
5CE
  8
0
 62
     3
 10
-557.05328197179847
 20
-303.01455112750727
 30
0.0
  0
VERTEX
  5
5CF
  8
0
 62
     3
 10
-557.05328197179847
 20
-304.51455112750722
 30
0.0
  0
VERTEX
  5
5D0
  8
0
 62
     3
 10
-558.55328197179836
 20
-304.51455112750722
 30
0.0
  0
VERTEX
  5
5D1
  8
0
 62
     3
 10
-558.55328197279835
 20
-305.51455112750722
 30
0.0
  0
VERTEX
  5
5D2
  8
0
 62
     3
 10
-557.05328197279846
 20
-305.51455112750722
 30
0.0
  0
SEQEND
  5
5D3
  8
0
 62
     3
  0
LINE
  5
305
  8
0
  6
CONTINUOUS
 62
     3
 10
-539.05328197279857
 20
-308.51455112750722
 30
0.0
 11
-563.05328197279835
 21
-308.51455112750722
 31
0.0
  0
POLYLINE
  5
306
  8
0
 62
     3
 66
     1
 10
0.0
 20
0.0
 30
0.0
  0
VERTEX
  5
5D4
  8
0
 62
     3
 10
-547.05328197279835
 20
-308.51455112750722
 30
0.0
  0
VERTEX
  5
5D5
  8
0
 62
     3
 10
-547.05328197279835
 20
-306.51455112750722
 30
0.0
  0
VERTEX
  5
5D6
  8
0
 62
     3
 10
-555.05328197279835
 20
-306.51455112750722
 30
0.0
  0
VERTEX
  5
5D7
  8
0
 62
     3
 10
-555.05328197279835
 20
-308.51455112750722
 30
0.0
  0
SEQEND
  5
5D8
  8
0
 62
     3
  0
LINE
  5
30C
  8
0
  6
CONTINUOUS
 62
     3
 10
-550.05328197179836
 20
-299.51455112750722
 30
0.0
 11
-550.05328197279835
 21
-306.51455112750722
 31
0.0
  0
LINE
  5
30D
  8
0
  6
CONTINUOUS
 62
     3
 10
-552.05328197279857
 20
-306.51455112750722
 30
0.0
 11
-552.05328197179858
 21
-299.51455112750722
 31
0.0
  0
ARC
  5
30E
  8
0
  6
CONTINUOUS
 62
     3
 10
-545.55328197179836
 20
-305.01455112750722
 30
0.0
 40
3.0
 50
239.0362434679999
 51
210.96375653199999
  0
ARC
  5
30F
  8
0
  6
CONTINUOUS
 62
     3
 10
-556.55328197179858
 20
-305.01455112750722
 30
0.0
 40
3.0
 50
329.03624346800001
 51
300.96375653199988
  0
LINE
  5
310
  8
0
  6
CONTINUOUS
 62
     3
 10
-555.05328197279835
 20
-308.51455112750722
 30
0.0
 11
-555.05328197279835
 21
-310.51455112750722
 31
0.0
  0
LINE
  5
311
  8
0
  6
CONTINUOUS
 62
     3
 10
-552.55328197279857
 20
-310.51455112750722
 30
0.0
 11
-552.55328197279857
 21
-308.51455112750722
 31
0.0
  0
LINE
  5
312
  8
0
  6
CONTINUOUS
 62
     3
 10
-549.55328197279835
 20
-308.51455112750722
 30
0.0
 11
-549.55328197279835
 21
-310.51455112750722
 31
0.0
  0
LINE
  5
313
  8
0
  6
CONTINUOUS
 62
     3
 10
-547.05328197279835
 20
-310.51455112750722
 30
0.0
 11
-547.05328197279835
 21
-308.51455112750722
 31
0.0
  0
LINE
  5
314
  8
0
  6
CONTINUOUS
 62
     3
 10
-541.05328197379845
 20
-379.51455112750722
 30
0.0
 11
-541.05328197279835
 21
-313.51455112750727
 31
0.0
  0
LINE
  5
315
  8
0
  6
CONTINUOUS
 62
     3
 10
-561.05328197279857
 20
-313.51455112750727
 30
0.0
 11
-561.05328197379856
 21
-379.51455112750722
 31
0.0
  0
LINE
  5
316
  8
0
  6
CONTINUOUS
 62
     3
 10
-561.05328197379856
 20
-379.51455112750722
 30
0.0
 11
-561.05328197379856
 21
-382.51455112750722
 31
0.0
  0
LINE
  5
317
  8
0
  6
CONTINUOUS
 62
     3
 10
-541.05328197379845
 20
-382.51455112750722
 30
0.0
 11
-541.05328197379845
 21
-379.51455112750722
 31
0.0
  0
LINE
  5
318
  8
0
  6
CONTINUOUS
 62
     3
 10
-541.05328197279835
 20
-313.51455112750727
 30
0.0
 11
-541.05328197279835
 21
-310.51455112750722
 31
0.0
  0
LINE
  5
319
  8
0
  6
CONTINUOUS
 62
     3
 10
-561.05328197279857
 20
-310.51455112750722
 30
0.0
 11
-561.05328197279857
 21
-313.51455112750727
 31
0.0
  0
LINE
  5
31A
  8
6
  6
CONTINUOUS
 62
     3
 10
-555.55328197279835
 20
-379.5145511255073
 30
0.0
 11
-541.05328197279835
 21
-379.5145511255073
 31
0.0
  0
LINE
  5
31B
  8
6
  6
CONTINUOUS
 62
     3
 10
-561.05328197279857
 20
-379.5145511255073
 30
0.0
 11
-555.55328197279835
 21
-379.5145511255073
 31
0.0
  0
LINE
  5
31C
  8
6
  6
CONTINUOUS
 62
     3
 10
-555.55328197279835
 20
-313.5145511255073
 30
0.0
 11
-541.05328197279835
 21
-313.5145511255073
 31
0.0
  0
LINE
  5
31D
  8
6
  6
CONTINUOUS
 62
     3
 10
-541.05328197279835
 20
-313.5145511255073
 30
0.0
 11
-541.05328197279835
 21
-379.5145511255073
 31
0.0
  0
LINE
  5
31E
  8
6
  6
CONTINUOUS
 62
     3
 10
-541.05328197279835
 20
-378.26455112550718
 30
0.0
 11
-541.05328197279835
 21
-314.7645511255073
 31
0.0
  0
LINE
  5
31F
  8
6
  6
CONTINUOUS
 62
     3
 10
-561.05328197279857
 20
-313.5145511255073
 30
0.0
 11
-561.05328197279857
 21
-379.5145511255073
 31
0.0
  0
LINE
  5
320
  8
6
  6
CONTINUOUS
 62
     3
 10
-561.05328197279857
 20
-313.5145511255073
 30
0.0
 11
-555.55328197279835
 21
-313.5145511255073
 31
0.0
  0
ARC
  5
321
  8
0
  6
CONTINUOUS
 62
     3
 10
-557.55328197379845
 20
-397.01455112750722
 30
0.0
 40
0.5
 50
180.0
 51
270.0
  0
ARC
  5
322
  8
0
  6
CONTINUOUS
 62
     3
 10
-544.55328197379845
 20
-397.01455112750722
 30
0.0
 40
0.5
 50
270.0
 51
0.0
  0
LINE
  5
323
  8
0
  6
CONTINUOUS
 62
     3
 10
-557.55328197379845
 20
-397.5145511275071
 30
0.0
 11
-544.55328197379845
 21
-397.5145511275071
 31
0.0
  0
LINE
  5
324
  8
0
  6
CONTINUOUS
 62
     3
 10
-544.05328197379856
 20
-397.01455112750722
 30
0.0
 11
-544.05328197379856
 21
-393.51455112750722
 31
0.0
  0
LINE
  5
325
  8
0
  6
CONTINUOUS
 62
     3
 10
-558.05328197379845
 20
-397.01455112750722
 30
0.0
 11
-558.05328197379845
 21
-393.51455112750722
 31
0.0
  0
LINE
  5
326
  8
0
  6
CONTINUOUS
 62
     3
 10
-563.05328197179836
 20
-299.51455112750722
 30
0.0
 11
-539.05328197179858
 21
-299.51455112750722
 31
0.0
  0
LINE
  5
327
  8
0
  6
CONTINUOUS
 62
     3
 10
-539.05328197279857
 20
-325.01455112750722
 30
0.0
 11
-538.05328197279835
 21
-325.01455112750722
 31
0.0
  0
LINE
  5
328
  8
0
  6
CONTINUOUS
 62
     3
 10
-538.05328197279835
 20
-329.0145511275071
 30
0.0
 11
-539.05328197279857
 21
-329.0145511275071
 31
0.0
  0
LINE
  5
329
  8
0
  6
CONTINUOUS
 62
     3
 10
-538.05328197279835
 20
-325.01455112750722
 30
0.0
 11
-538.05328197279835
 21
-329.0145511275071
 31
0.0
  0
POLYLINE
  5
32A
  8
0
 62
     3
 66
     1
 10
0.0
 20
0.0
 30
0.0
  0
VERTEX
  5
5D9
  8
0
 62
     3
 10
-563.05328197279835
 20
-329.0145511275071
 30
0.0
  0
VERTEX
  5
5DA
  8
0
 62
     3
 10
-564.05328197279857
 20
-329.0145511275071
 30
0.0
  0
VERTEX
  5
5DB
  8
0
 62
     3
 10
-564.05328197279857
 20
-325.01455112750722
 30
0.0
  0
VERTEX
  5
5DC
  8
0
 62
     3
 10
-563.05328197279835
 20
-325.01455112750722
 30
0.0
  0
SEQEND
  5
5DD
  8
0
 62
     3
  0
POLYLINE
  5
330
  8
0
 62
     3
 66
     1
 10
0.0
 20
0.0
 30
0.0
  0
VERTEX
  5
5DE
  8
0
 62
     3
 10
-563.05328197279835
 20
-364.01455112750722
 30
0.0
  0
VERTEX
  5
5DF
  8
0
 62
     3
 10
-564.05328197279857
 20
-364.01455112750722
 30
0.0
  0
VERTEX
  5
5E0
  8
0
 62
     3
 10
-564.05328197279857
 20
-368.01455112750722
 30
0.0
  0
VERTEX
  5
5E1
  8
0
 62
     3
 10
-563.05328197279835
 20
-368.01455112750722
 30
0.0
  0
SEQEND
  5
5E2
  8
0
 62
     3
  0
LINE
  5
336
  8
0
  6
CONTINUOUS
 62
     3
 10
-563.05328197379845
 20
-393.51455112750722
 30
0.0
 11
-563.05328197179836
 21
-299.51455112750722
 31
0.0
  0
LINE
  5
337
  8
0
  6
CONTINUOUS
 62
     3
 10
-538.05328197279835
 20
-364.01455112750722
 30
0.0
 11
-539.05328197279857
 21
-364.01455112750722
 31
0.0
  0
LINE
  5
338
  8
0
  6
CONTINUOUS
 62
     3
 10
-539.05328197179858
 20
-299.51455112750722
 30
0.0
 11
-539.05328197379845
 21
-393.51455112750722
 31
0.0
  0
LINE
  5
339
  8
0
  6
CONTINUOUS
 62
     3
 10
-539.05328197279857
 20
-368.01455112750722
 30
0.0
 11
-538.05328197279835
 21
-368.01455112750722
 31
0.0
  0
LINE
  5
33A
  8
0
  6
CONTINUOUS
 62
     3
 10
-538.05328197279835
 20
-368.01455112750722
 30
0.0
 11
-538.05328197279835
 21
-364.01455112750722
 31
0.0
  0
LINE
  5
33B
  8
0
  6
CONTINUOUS
 62
     3
 10
-539.05328197379845
 20
-393.51455112750722
 30
0.0
 11
-563.05328197379845
 21
-393.51455112750722
 31
0.0
  0
LINE
  5
33C
  8
6
  6
CONTINUOUS
 62
     3
 10
-561.05328197279857
 20
-313.51455112750727
 30
0.0
 11
-561.05328197279857
 21
-379.51455112750722
 31
0.0
  0
LINE
  5
33D
  8
6
  6
CONTINUOUS
 62
     3
 10
-555.55328197279835
 20
-313.51455112750727
 30
0.0
 11
-541.05328197279835
 21
-313.51455112750727
 31
0.0
  0
LINE
  5
33E
  8
6
  6
CONTINUOUS
 62
     3
 10
-555.55328197279835
 20
-379.51455112750722
 30
0.0
 11
-541.05328197279835
 21
-379.51455112750722
 31
0.0
  0
LINE
  5
33F
  8
6
  6
CONTINUOUS
 62
     3
 10
-541.05328197279835
 20
-313.51455112750727
 30
0.0
 11
-541.05328197279835
 21
-379.51455112750722
 31
0.0
  0
LINE
  5
340
  8
6
  6
CONTINUOUS
 62
     3
 10
-561.05328197279857
 20
-379.51455112750722
 30
0.0
 11
-555.55328197279835
 21
-379.51455112750722
 31
0.0
  0
LINE
  5
341
  8
6
  6
CONTINUOUS
 62
     3
 10
-558.05328197279835
 20
-358.2645511275071
 30
0.0
 11
-558.05328197279835
 21
-374.26455112750722
 31
0.0
  0
LINE
  5
342
  8
6
  6
CONTINUOUS
 62
     3
 10
-545.55328197279835
 20
-374.26455112750722
 30
0.0
 11
-545.55328197279835
 21
-358.2645511275071
 31
0.0
  0
LINE
  5
343
  8
6
  6
CONTINUOUS
 62
     3
 10
-545.55328197279835
 20
-374.26455112750722
 30
0.0
 11
-558.05328197279835
 21
-374.26455112750722
 31
0.0
  0
LINE
  5
344
  8
6
  6
CONTINUOUS
 62
     3
 10
-545.55328197279835
 20
-358.2645511275071
 30
0.0
 11
-558.05328197279835
 21
-358.2645511275071
 31
0.0
  0
LINE
  5
345
  8
6
  6
CONTINUOUS
 62
     3
 10
-553.55328197279835
 20
-338.01455112750722
 30
0.0
 11
-553.55328197279835
 21
-355.01455112750722
 31
0.0
  0
LINE
  5
346
  8
6
  6
CONTINUOUS
 62
     3
 10
-546.05328197279835
 20
-355.01455112750722
 30
0.0
 11
-546.05328197279835
 21
-338.01455112750722
 31
0.0
  0
LINE
  5
347
  8
6
  6
CONTINUOUS
 62
     3
 10
-546.05328197279835
 20
-355.01455112750722
 30
0.0
 11
-553.55328197279835
 21
-355.01455112750722
 31
0.0
  0
LINE
  5
348
  8
6
  6
CONTINUOUS
 62
     3
 10
-546.05328197279835
 20
-338.01455112750722
 30
0.0
 11
-553.55328197279835
 21
-338.01455112750722
 31
0.0
  0
LINE
  5
349
  8
6
  6
CONTINUOUS
 62
     3
 10
-560.55328197279857
 20
-313.51455112750727
 30
0.0
 11
-555.05328197279835
 21
-313.51455112750727
 31
0.0
  0
CIRCLE
  5
34A
  8
6
  6
CONTINUOUS
 62
     3
 10
-555.55328197279835
 20
-331.26455112750722
 30
0.0
 40
1.6000000000000001
  0
CIRCLE
  5
34B
  8
6
  6
CONTINUOUS
 62
     3
 10
-555.55328197279835
 20
-326.7645511275071
 30
0.0
 40
1.6000000000000001
  0
CIRCLE
  5
34C
  8
6
  6
CONTINUOUS
 62
     3
 10
-555.55328197279835
 20
-322.26455112750722
 30
0.0
 40
1.6000000000000001
  0
LINE
  5
34D
  8
6
  6
CONTINUOUS
 62
     3
 10
-560.55328197279857
 20
-313.51455112750727
 30
0.0
 11
-561.05328197279857
 21
-313.51455112750727
 31
0.0
  0
LINE
  5
34E
  8
6
  6
CONTINUOUS
 62
     3
 10
-541.05328197279835
 20
-376.01455112750727
 30
0.0
 11
-561.05328197279857
 21
-376.01455112750727
 31
0.0
  0
LINE
  5
34F
  8
6
  6
CONTINUOUS
 62
     3
 10
-541.05328197279835
 20
-318.01455112750722
 30
0.0
 11
-561.05328197279857
 21
-318.01455112750722
 31
0.0
  0
LINE
  5
350
  8
6
  6
CONTINUOUS
 62
     3
 10
-541.05328197279835
 20
-319.01455112750722
 30
0.0
 11
-561.05328197279857
 21
-319.01455112750722
 31
0.0
  0
TEXT
  5
351
  8
6
  6
CONTINUOUS
 62
     3
 10
-556.07828197279844
 20
-317.26455112750722
 30
0.05
 40
3.0
  1
ＴＦ－ＰＣ
 41
0.666666667
  7
KANJI1
  0
TEXT
  5
352
  8
6
  6
CONTINUOUS
 62
     3
 10
-553.55328197279835
 20
-337.2645511275071
 30
0.05
 40
1.5
  1
ＯＦＦ
 41
0.666666667
  7
KANJI2
  0
TEXT
  5
353
  8
6
  6
CONTINUOUS
 62
     3
 10
-548.05328197279857
 20
-337.2645511275071
 30
0.05
 40
1.5
  1
ＯＮ
 41
0.666666667
  7
KANJI2
  0
TEXT
  5
354
  8
6
  6
CONTINUOUS
 62
     3
 10
-553.05328197279846
 20
-332.51455112750722
 30
0.05
 40
2.5
  1
ＳＱ
 41
0.6
  7
KANJI3
  0
TEXT
  5
355
  8
6
  6
CONTINUOUS
 62
     3
 10
-553.05328197279846
 20
-328.01455112750727
 30
0.05
 40
2.5
  1
ＬＯＣＡＬ
 41
0.6
  7
KANJI3
  0
TEXT
  5
356
  8
6
  6
CONTINUOUS
 62
     3
 10
-553.05328197279846
 20
-323.51455112750722
 30
0.05
 40
2.5
  1
ＰＯＷ
 41
0.6
  7
KANJI3
  0
TEXT
  5
357
  8
6
  6
CONTINUOUS
 62
     3
 10
-558.30328197279857
 20
-357.51455112750722
 30
0.05
 40
2.5
  1
ＣＮ
 41
0.6
  7
KANJI3
  0
TEXT
  5
358
  8
6
  6
CONTINUOUS
 62
     3
 10
-559.05328197279835
 20
-340.26455112750722
 30
0.05
 40
2.5
  1
ＤＳＷ
 41
0.6
  7
KANJI3
  0
TEXT
  5
359
  8
6
  6
CONTINUOUS
 62
     3
 10
-545.55328197279835
 20
-353.51455112750722
 30
0.05
 40
1.5
  1
１
 41
0.666666667
  7
KANJI2
  0
TEXT
  5
35A
  8
6
  6
CONTINUOUS
 62
     3
 10
-545.55328197279835
 20
-340.76455112750722
 30
0.05
 40
1.5
  1
６
 41
0.666666667
  7
KANJI2
  0
LINE
  5
35C
  8
6
  6
CONTINUOUS
 62
     3
 10
-553.55328197279835
 20
-338.01455112750722
 30
0.05
 11
-553.55328197279835
 21
-355.01455112750722
 31
0.05
  0
LINE
  5
35D
  8
6
  6
CONTINUOUS
 62
     3
 10
-546.05328197279835
 20
-355.01455112750722
 30
0.0
 11
-546.05328197279835
 21
-338.01455112750722
 31
0.0
  0
LINE
  5
35E
  8
6
  6
CONTINUOUS
 62
     3
 10
-546.05328197279835
 20
-355.01455112750722
 30
0.0
 11
-553.55328197279835
 21
-355.01455112750722
 31
0.0
  0
LINE
  5
35F
  8
6
  6
CONTINUOUS
 62
     3
 10
-546.05328197279835
 20
-338.01455112750722
 30
0.0
 11
-553.55328197279835
 21
-338.01455112750722
 31
0.0
  0
POINT
  5
360
  8
0
  6
CONTINUOUS
 62
     3
 10
-553.55328197279835
 20
-339.31455112750729
 30
0.0
  0
LINE
  5
361
  8
0
  6
CONTINUOUS
 62
     3
 10
-549.35328197279864
 20
-339.31455112750729
 30
0.0
 11
-549.35328197279864
 21
-340.61455112750718
 31
0.0
  0
LINE
  5
362
  8
0
  6
CONTINUOUS
 62
     3
 10
-549.35328197279864
 20
-341.9145511275072
 30
0.0
 11
-549.35328197279864
 21
-343.21455112750732
 31
0.0
  0
LINE
  5
363
  8
0
  6
CONTINUOUS
 62
     3
 10
-549.35328197279864
 20
-344.51455112750722
 30
0.0
 11
-549.35328197279864
 21
-345.81455112750717
 31
0.0
  0
LINE
  5
364
  8
0
  6
CONTINUOUS
 62
     3
 10
-549.35328197279864
 20
-347.11455112750718
 30
0.0
 11
-549.35328197279864
 21
-348.4145511275072
 31
0.0
  0
LINE
  5
365
  8
0
  6
CONTINUOUS
 62
     3
 10
-549.35328197279864
 20
-349.71455112750732
 30
0.0
 11
-549.35328197279864
 21
-351.01455112750727
 31
0.0
  0
LINE
  5
366
  8
0
  6
CONTINUOUS
 62
     3
 10
-549.35328197279864
 20
-352.31455112750717
 30
0.0
 11
-549.35328197279864
 21
-353.6145511275073
 31
0.0
  0
TEXT
  5
367
  8
0
  6
CONTINUOUS
 62
     3
 10
-546.85328197279864
 20
-354.0145511275071
 30
0.0
 40
2.0
  1
１
 50
90.0
  7
KANJI4
  0
TEXT
  5
368
  8
0
  6
CONTINUOUS
 62
     3
 10
-546.85328197279864
 20
-351.4145511275072
 30
0.0
 40
2.0
  1
２
 50
90.0
  7
KANJI4
  0
TEXT
  5
369
  8
0
  6
CONTINUOUS
 62
     3
 10
-546.85328197279864
 20
-348.81455112750717
 30
0.0
 40
2.0
  1
３
 50
90.0
  7
KANJI4
  0
TEXT
  5
36A
  8
0
  6
CONTINUOUS
 62
     3
 10
-546.85328197279864
 20
-346.21455112750732
 30
0.0
 40
2.0
  1
４
 50
90.0
  7
KANJI4
  0
TEXT
  5
36B
  8
0
  6
CONTINUOUS
 62
     3
 10
-546.85328197279864
 20
-343.6145511275073
 30
0.0
 40
2.0
  1
５
 50
90.0
  7
KANJI4
  0
TEXT
  5
36C
  8
0
  6
CONTINUOUS
 62
     3
 10
-546.85328197279864
 20
-341.01455112750722
 30
0.0
 40
2.0
  1
６
 50
90.0
  7
KANJI4
  0
LINE
  5
36D
  8
0
  6
CONTINUOUS
 62
     3
 10
-553.55328197279835
 20
-339.31455112750729
 30
0.0
 11
-549.35328197279864
 21
-339.31455112750729
 31
0.0
  0
LINE
  5
36E
  8
0
  6
CONTINUOUS
 62
     3
 10
-553.55328197279835
 20
-340.61455112750718
 30
0.0
 11
-549.35328197279864
 21
-340.61455112750718
 31
0.0
  0
LINE
  5
36F
  8
0
  6
CONTINUOUS
 62
     3
 10
-553.55328197279835
 20
-341.9145511275072
 30
0.0
 11
-549.35328197279864
 21
-341.9145511275072
 31
0.0
  0
LINE
  5
370
  8
0
  6
CONTINUOUS
 62
     3
 10
-553.55328197279835
 20
-343.21455112750732
 30
0.0
 11
-549.35328197279864
 21
-343.21455112750732
 31
0.0
  0
LINE
  5
371
  8
0
  6
CONTINUOUS
 62
     3
 10
-553.55328197279835
 20
-344.51455112750722
 30
0.0
 11
-549.35328197279864
 21
-344.51455112750722
 31
0.0
  0
LINE
  5
372
  8
0
  6
CONTINUOUS
 62
     3
 10
-553.55328197279835
 20
-345.81455112750717
 30
0.0
 11
-549.35328197279864
 21
-345.81455112750717
 31
0.0
  0
LINE
  5
373
  8
0
  6
CONTINUOUS
 62
     3
 10
-553.55328197279835
 20
-347.11455112750718
 30
0.0
 11
-549.35328197279864
 21
-347.11455112750718
 31
0.0
  0
LINE
  5
374
  8
0
  6
CONTINUOUS
 62
     3
 10
-553.55328197279835
 20
-348.4145511275072
 30
0.0
 11
-549.35328197279864
 21
-348.4145511275072
 31
0.0
  0
LINE
  5
375
  8
0
  6
CONTINUOUS
 62
     3
 10
-553.55328197279835
 20
-349.71455112750732
 30
0.0
 11
-549.35328197279864
 21
-349.71455112750732
 31
0.0
  0
LINE
  5
376
  8
0
  6
CONTINUOUS
 62
     3
 10
-553.55328197279835
 20
-351.01455112750727
 30
0.0
 11
-549.35328197279864
 21
-351.01455112750727
 31
0.0
  0
LINE
  5
377
  8
0
  6
CONTINUOUS
 62
     3
 10
-553.55328197279835
 20
-352.31455112750717
 30
0.0
 11
-549.35328197279864
 21
-352.31455112750717
 31
0.0
  0
LINE
  5
378
  8
0
  6
CONTINUOUS
 62
     3
 10
-553.55328197279835
 20
-353.6145511275073
 30
0.0
 11
-549.35328197279864
 21
-353.6145511275073
 31
0.0
  0
POLYLINE
  5
379
  8
0
 62
     3
 66
     1
 10
0.0
 20
0.0
 30
0.0
 70
     1
  0
VERTEX
  5
5E3
  8
0
 62
     3
 10
-553.55328197279835
 20
-340.61455112750718
 30
0.0
  0
VERTEX
  5
5E4
  8
0
 62
     3
 10
-552.05328197279857
 20
-340.61455112750718
 30
0.0
  0
VERTEX
  5
5E5
  8
0
 62
     3
 10
-552.05328197279857
 20
-339.31455112750729
 30
0.0
  0
VERTEX
  5
5E6
  8
0
 62
     3
 10
-553.55328197279835
 20
-339.31455112750729
 30
0.0
  0
SEQEND
  5
5E7
  8
0
 62
     3
  0
LINE
  5
37F
  8
0
  6
CONTINUOUS
 62
     3
 10
-552.05328197279857
 20
-343.21455112750732
 30
0.0
 11
-552.05328197279857
 21
-341.9145511275072
 31
0.0
  0
LINE
  5
380
  8
0
  6
CONTINUOUS
 62
     3
 10
-553.55328197279835
 20
-341.9145511275072
 30
0.0
 11
-553.55328197279835
 21
-343.21455112750732
 31
0.0
  0
LINE
  5
381
  8
0
  6
CONTINUOUS
 62
     3
 10
-553.55328197279835
 20
-341.9145511275072
 30
0.0
 11
-549.35328197279864
 21
-341.9145511275072
 31
0.0
  0
LINE
  5
382
  8
0
  6
CONTINUOUS
 62
     3
 10
-553.55328197279835
 20
-343.21455112750732
 30
0.0
 11
-549.35328197279864
 21
-343.21455112750732
 31
0.0
  0
LINE
  5
383
  8
0
  6
CONTINUOUS
 62
     3
 10
-553.55328197279835
 20
-343.21455112750732
 30
0.0
 11
-552.05328197279857
 21
-343.21455112750732
 31
0.0
  0
LINE
  5
384
  8
0
  6
CONTINUOUS
 62
     3
 10
-552.05328197279857
 20
-341.9145511275072
 30
0.0
 11
-553.55328197279835
 21
-341.9145511275072
 31
0.0
  0
LINE
  5
385
  8
0
  6
CONTINUOUS
 62
     3
 10
-553.55328197279835
 20
-347.11455112750718
 30
0.0
 11
-549.35328197279864
 21
-347.11455112750718
 31
0.0
  0
LINE
  5
386
  8
0
  6
CONTINUOUS
 62
     3
 10
-553.55328197279835
 20
-348.4145511275072
 30
0.0
 11
-549.35328197279864
 21
-348.4145511275072
 31
0.0
  0
LINE
  5
387
  8
0
  6
CONTINUOUS
 62
     3
 10
-553.55328197279835
 20
-349.71455112750732
 30
0.0
 11
-549.35328197279864
 21
-349.71455112750732
 31
0.0
  0
LINE
  5
388
  8
0
  6
CONTINUOUS
 62
     3
 10
-553.55328197279835
 20
-351.01455112750727
 30
0.0
 11
-549.35328197279864
 21
-351.01455112750727
 31
0.0
  0
LINE
  5
389
  8
0
  6
CONTINUOUS
 62
     3
 10
-553.55328197279835
 20
-348.4145511275072
 30
0.0
 11
-552.05328197279857
 21
-348.4145511275072
 31
0.0
  0
LINE
  5
38A
  8
0
  6
CONTINUOUS
 62
     3
 10
-552.05328197279857
 20
-347.11455112750718
 30
0.0
 11
-553.55328197279835
 21
-347.11455112750718
 31
0.0
  0
LINE
  5
38B
  8
0
  6
CONTINUOUS
 62
     3
 10
-553.55328197279835
 20
-349.71455112750732
 30
0.0
 11
-549.35328197279864
 21
-349.71455112750732
 31
0.0
  0
LINE
  5
38C
  8
0
  6
CONTINUOUS
 62
     3
 10
-553.55328197279835
 20
-351.01455112750727
 30
0.0
 11
-549.35328197279864
 21
-351.01455112750727
 31
0.0
  0
LINE
  5
38D
  8
0
  6
CONTINUOUS
 62
     3
 10
-553.55328197279835
 20
-351.01455112750727
 30
0.0
 11
-552.05328197279857
 21
-351.01455112750727
 31
0.0
  0
LINE
  5
38E
  8
0
  6
CONTINUOUS
 62
     3
 10
-552.05328197279857
 20
-349.71455112750732
 30
0.0
 11
-553.55328197279835
 21
-349.71455112750732
 31
0.0
  0
LINE
  5
38F
  8
0
  6
CONTINUOUS
 62
     3
 10
-553.55328197279835
 20
-344.51455112750722
 30
0.0
 11
-549.35328197279864
 21
-344.51455112750722
 31
0.0
  0
LINE
  5
390
  8
0
  6
CONTINUOUS
 62
     3
 10
-553.55328197279835
 20
-345.81455112750717
 30
0.0
 11
-549.35328197279864
 21
-345.81455112750717
 31
0.0
  0
LINE
  5
391
  8
0
  6
CONTINUOUS
 62
     3
 10
-553.55328197279835
 20
-344.51455112750722
 30
0.0
 11
-549.35328197279864
 21
-344.51455112750722
 31
0.0
  0
LINE
  5
392
  8
0
  6
CONTINUOUS
 62
     3
 10
-553.55328197279835
 20
-345.81455112750717
 30
0.0
 11
-549.35328197279864
 21
-345.81455112750717
 31
0.0
  0
LINE
  5
393
  8
0
  6
CONTINUOUS
 62
     3
 10
-553.55328197279835
 20
-345.81455112750717
 30
0.0
 11
-552.05328197279857
 21
-345.81455112750717
 31
0.0
  0
LINE
  5
394
  8
0
  6
CONTINUOUS
 62
     3
 10
-552.05328197279857
 20
-344.51455112750722
 30
0.0
 11
-553.55328197279835
 21
-344.51455112750722
 31
0.0
  0
LINE
  5
395
  8
0
  6
CONTINUOUS
 62
     3
 10
-552.05328197279857
 20
-345.81455112750717
 30
0.0
 11
-552.05328197279857
 21
-344.51455112750722
 31
0.0
  0
LINE
  5
396
  8
0
  6
CONTINUOUS
 62
     3
 10
-553.55328197279835
 20
-344.51455112750722
 30
0.0
 11
-553.55328197279835
 21
-345.81455112750717
 31
0.0
  0
LINE
  5
397
  8
0
  6
CONTINUOUS
 62
     3
 10
-552.05328197279857
 20
-348.4145511275072
 30
0.0
 11
-552.05328197279857
 21
-347.11455112750718
 31
0.0
  0
LINE
  5
398
  8
0
  6
CONTINUOUS
 62
     3
 10
-553.55328197279835
 20
-347.11455112750718
 30
0.0
 11
-553.55328197279835
 21
-348.4145511275072
 31
0.0
  0
LINE
  5
399
  8
0
  6
CONTINUOUS
 62
     3
 10
-552.05328197279857
 20
-351.01455112750727
 30
0.0
 11
-552.05328197279857
 21
-349.71455112750732
 31
0.0
  0
LINE
  5
39A
  8
0
  6
CONTINUOUS
 62
     3
 10
-553.55328197279835
 20
-349.71455112750732
 30
0.0
 11
-553.55328197279835
 21
-351.01455112750727
 31
0.0
  0
LINE
  5
39B
  8
0
  6
CONTINUOUS
 62
     3
 10
-552.05328197279857
 20
-353.6145511275073
 30
0.0
 11
-552.05328197279857
 21
-352.31455112750717
 31
0.0
  0
LINE
  5
39C
  8
0
  6
CONTINUOUS
 62
     3
 10
-553.55328197279835
 20
-352.31455112750717
 30
0.0
 11
-553.55328197279835
 21
-353.6145511275073
 31
0.0
  0
LINE
  5
39D
  8
0
  6
CONTINUOUS
 62
     3
 10
-553.55328197279835
 20
-352.31455112750717
 30
0.0
 11
-549.35328197279864
 21
-352.31455112750717
 31
0.0
  0
LINE
  5
39E
  8
0
  6
CONTINUOUS
 62
     3
 10
-553.55328197279835
 20
-353.6145511275073
 30
0.0
 11
-549.35328197279864
 21
-353.6145511275073
 31
0.0
  0
LINE
  5
39F
  8
0
  6
CONTINUOUS
 62
     3
 10
-553.55328197279835
 20
-352.31455112750717
 30
0.0
 11
-549.35328197279864
 21
-352.31455112750717
 31
0.0
  0
LINE
  5
3A0
  8
0
  6
CONTINUOUS
 62
     3
 10
-553.55328197279835
 20
-353.6145511275073
 30
0.0
 11
-549.35328197279864
 21
-353.6145511275073
 31
0.0
  0
LINE
  5
3A1
  8
0
  6
CONTINUOUS
 62
     3
 10
-553.55328197279835
 20
-352.31455112750717
 30
0.0
 11
-549.35328197279864
 21
-352.31455112750717
 31
0.0
  0
LINE
  5
3A2
  8
0
  6
CONTINUOUS
 62
     3
 10
-553.55328197279835
 20
-353.6145511275073
 30
0.0
 11
-549.35328197279864
 21
-353.6145511275073
 31
0.0
  0
LINE
  5
3A3
  8
0
  6
CONTINUOUS
 62
     3
 10
-553.55328197279835
 20
-353.6145511275073
 30
0.0
 11
-552.05328197279857
 21
-353.6145511275073
 31
0.0
  0
LINE
  5
3A4
  8
0
  6
CONTINUOUS
 62
     3
 10
-552.05328197279857
 20
-352.31455112750717
 30
0.0
 11
-553.55328197279835
 21
-352.31455112750717
 31
0.0
  0
LINE
  5
3A5
  8
0
  6
CONTINUOUS
 62
     3
 10
-545.55328197279835
 20
-373.26455112750722
 30
0.0
 11
-545.55328197279835
 21
-359.26455112750727
 31
0.0
  0
LINE
  5
3A6
  8
0
  6
CONTINUOUS
 62
     3
 10
-558.05328197279835
 20
-359.26455112750727
 30
0.0
 11
-558.05328197279835
 21
-373.26455112750722
 31
0.0
  0
LINE
  5
3A7
  8
0
  6
CONTINUOUS
 62
     3
 10
-547.7532819727985
 20
-359.26455112750727
 30
0.0
 11
-558.05328197279835
 21
-359.26455112750727
 31
0.0
  0
LINE
  5
3A8
  8
0
  6
CONTINUOUS
 62
     3
 10
-558.05328197279835
 20
-373.26455112750722
 30
0.0
 11
-547.7532819727985
 21
-373.26455112750722
 31
0.0
  0
LINE
  5
3A9
  8
0
  6
CONTINUOUS
 62
     3
 10
-557.85328197279864
 20
-366.2645511275071
 30
0.0
 11
-557.85328197279864
 21
-364.2645511275071
 31
0.0
  0
LINE
  5
3AA
  8
0
  6
CONTINUOUS
 62
     3
 10
-557.85328197279864
 20
-364.2645511275071
 30
0.0
 11
-556.35328197279864
 21
-364.2645511275071
 31
0.0
  0
LINE
  5
3AB
  8
0
  6
CONTINUOUS
 62
     3
 10
-556.35328197279864
 20
-364.2645511275071
 30
0.0
 11
-556.35328197279864
 21
-363.26455112750722
 31
0.0
  0
LINE
  5
3AC
  8
0
  6
CONTINUOUS
 62
     3
 10
-556.35328197279864
 20
-363.26455112750722
 30
0.0
 11
-555.35328197279864
 21
-363.26455112750722
 31
0.0
  0
LINE
  5
3AD
  8
0
  6
CONTINUOUS
 62
     3
 10
-555.35328197279864
 20
-363.26455112750722
 30
0.0
 11
-555.35328197279864
 21
-362.2645511275071
 31
0.0
  0
LINE
  5
3AE
  8
0
  6
CONTINUOUS
 62
     3
 10
-555.35328197279864
 20
-362.2645511275071
 30
0.0
 11
-554.35328197279864
 21
-362.2645511275071
 31
0.0
  0
LINE
  5
3AF
  8
0
  6
CONTINUOUS
 62
     3
 10
-554.35328197279864
 20
-362.2645511275071
 30
0.0
 11
-554.35328197279864
 21
-360.2645511275071
 31
0.0
  0
LINE
  5
3B0
  8
0
  6
CONTINUOUS
 62
     3
 10
-554.35328197279864
 20
-360.2645511275071
 30
0.0
 11
-548.35328197279864
 21
-360.2645511275071
 31
0.0
  0
LINE
  5
3B1
  8
0
  6
CONTINUOUS
 62
     3
 10
-548.35328197279864
 20
-360.2645511275071
 30
0.0
 11
-548.35328197279864
 21
-362.2645511275071
 31
0.0
  0
LINE
  5
3B2
  8
0
  6
CONTINUOUS
 62
     3
 10
-557.85328197279864
 20
-366.2645511275071
 30
0.0
 11
-557.85328197279864
 21
-368.26455112750722
 31
0.0
  0
LINE
  5
3B3
  8
0
  6
CONTINUOUS
 62
     3
 10
-557.85328197279864
 20
-368.26455112750722
 30
0.0
 11
-556.35328197279864
 21
-368.26455112750722
 31
0.0
  0
LINE
  5
3B4
  8
0
  6
CONTINUOUS
 62
     3
 10
-556.35328197279864
 20
-368.26455112750722
 30
0.0
 11
-556.35328197279864
 21
-369.26455112750722
 31
0.0
  0
LINE
  5
3B5
  8
0
  6
CONTINUOUS
 62
     3
 10
-556.35328197279864
 20
-369.26455112750722
 30
0.0
 11
-555.35328197279864
 21
-369.26455112750722
 31
0.0
  0
LINE
  5
3B6
  8
0
  6
CONTINUOUS
 62
     3
 10
-555.35328197279864
 20
-369.26455112750722
 30
0.0
 11
-555.35328197279864
 21
-370.26455112750722
 31
0.0
  0
LINE
  5
3B7
  8
0
  6
CONTINUOUS
 62
     3
 10
-555.35328197279864
 20
-370.26455112750722
 30
0.0
 11
-554.35328197279864
 21
-370.26455112750722
 31
0.0
  0
LINE
  5
3B8
  8
0
  6
CONTINUOUS
 62
     3
 10
-554.35328197279864
 20
-370.26455112750722
 30
0.0
 11
-554.35328197279864
 21
-372.26455112750722
 31
0.0
  0
LINE
  5
3B9
  8
0
  6
CONTINUOUS
 62
     3
 10
-554.35328197279864
 20
-372.26455112750722
 30
0.0
 11
-548.35328197279864
 21
-372.26455112750722
 31
0.0
  0
LINE
  5
3BA
  8
0
  6
CONTINUOUS
 62
     3
 10
-548.35328197279864
 20
-372.26455112750722
 30
0.0
 11
-548.35328197279864
 21
-370.26455112750722
 31
0.0
  0
LINE
  5
3BB
  8
0
  6
CONTINUOUS
 62
     3
 10
-547.7532819727985
 20
-370.26455112750722
 30
0.0
 11
-547.7532819727985
 21
-373.26455112750722
 31
0.0
  0
LINE
  5
3BC
  8
0
  6
CONTINUOUS
 62
     3
 10
-547.7532819727985
 20
-359.26455112750727
 30
0.0
 11
-547.7532819727985
 21
-362.2645511275071
 31
0.0
  0
LINE
  5
3BD
  8
0
  6
CONTINUOUS
 62
     3
 10
-548.35328197279864
 20
-362.2645511275071
 30
0.0
 11
-547.7532819727985
 21
-362.2645511275071
 31
0.0
  0
LINE
  5
3BE
  8
0
  6
CONTINUOUS
 62
     3
 10
-548.35328197279864
 20
-370.26455112750722
 30
0.0
 11
-547.7532819727985
 21
-370.26455112750722
 31
0.0
  0
ARC
  5
3BF
  8
0
  6
CONTINUOUS
 62
     3
 10
-546.85328197279864
 20
-363.51455112750727
 30
0.0
 40
0.2
 50
270.0
 51
90.0
  0
LINE
  5
3C0
  8
0
  6
CONTINUOUS
 62
     3
 10
-546.85328197279864
 20
-363.31455112750717
 30
0.0
 11
-552.2532819727985
 21
-363.31455112750717
 31
0.0
  0
ARC
  5
3C1
  8
0
  6
CONTINUOUS
 62
     3
 10
-552.2532819727985
 20
-363.51455112750727
 30
0.0
 40
0.2
 50
90.0
 51
270.0
  0
LINE
  5
3C2
  8
0
  6
CONTINUOUS
 62
     3
 10
-552.2532819727985
 20
-363.71455112750732
 30
0.0
 11
-546.85328197279864
 21
-363.71455112750732
 31
0.0
  0
ARC
  5
3C3
  8
0
  6
CONTINUOUS
 62
     3
 10
-546.85328197279864
 20
-364.31455112750729
 30
0.0
 40
0.2
 50
270.0
 51
90.0
  0
LINE
  5
3C4
  8
0
  6
CONTINUOUS
 62
     3
 10
-546.85328197279864
 20
-364.1145511275073
 30
0.0
 11
-552.2532819727985
 21
-364.1145511275073
 31
0.0
  0
ARC
  5
3C5
  8
0
  6
CONTINUOUS
 62
     3
 10
-552.2532819727985
 20
-364.31455112750729
 30
0.0
 40
0.2
 50
90.0
 51
270.0
  0
LINE
  5
3C6
  8
0
  6
CONTINUOUS
 62
     3
 10
-552.2532819727985
 20
-364.5145511275071
 30
0.0
 11
-546.85328197279864
 21
-364.5145511275071
 31
0.0
  0
ARC
  5
3C7
  8
0
  6
CONTINUOUS
 62
     3
 10
-546.85328197279864
 20
-365.1145511275073
 30
0.0
 40
0.2
 50
270.0
 51
90.0
  0
LINE
  5
3C8
  8
0
  6
CONTINUOUS
 62
     3
 10
-546.85328197279864
 20
-364.9145511275072
 30
0.0
 11
-552.2532819727985
 21
-364.9145511275072
 31
0.0
  0
ARC
  5
3C9
  8
0
  6
CONTINUOUS
 62
     3
 10
-552.2532819727985
 20
-365.1145511275073
 30
0.0
 40
0.2
 50
90.0
 51
270.0
  0
LINE
  5
3CA
  8
0
  6
CONTINUOUS
 62
     3
 10
-552.2532819727985
 20
-365.31455112750717
 30
0.0
 11
-546.85328197279864
 21
-365.31455112750717
 31
0.0
  0
ARC
  5
3CB
  8
0
  6
CONTINUOUS
 62
     3
 10
-546.85328197279864
 20
-365.9145511275072
 30
0.0
 40
0.2
 50
270.0
 51
90.0
  0
LINE
  5
3CC
  8
0
  6
CONTINUOUS
 62
     3
 10
-546.85328197279864
 20
-365.71455112750732
 30
0.0
 11
-552.2532819727985
 21
-365.71455112750732
 31
0.0
  0
ARC
  5
3CD
  8
0
  6
CONTINUOUS
 62
     3
 10
-552.2532819727985
 20
-365.9145511275072
 30
0.0
 40
0.2
 50
90.0
 51
270.0
  0
LINE
  5
3CE
  8
0
  6
CONTINUOUS
 62
     3
 10
-552.2532819727985
 20
-366.1145511275073
 30
0.0
 11
-546.85328197279864
 21
-366.1145511275073
 31
0.0
  0
ARC
  5
3CF
  8
0
  6
CONTINUOUS
 62
     3
 10
-546.85328197279864
 20
-366.71455112750732
 30
0.0
 40
0.2
 50
270.0
 51
90.0
  0
LINE
  5
3D0
  8
0
  6
CONTINUOUS
 62
     3
 10
-546.85328197279864
 20
-366.5145511275071
 30
0.0
 11
-552.2532819727985
 21
-366.5145511275071
 31
0.0
  0
ARC
  5
3D1
  8
0
  6
CONTINUOUS
 62
     3
 10
-552.2532819727985
 20
-366.71455112750732
 30
0.0
 40
0.2
 50
90.0
 51
270.0
  0
LINE
  5
3D2
  8
0
  6
CONTINUOUS
 62
     3
 10
-552.2532819727985
 20
-366.91455112750731
 30
0.0
 11
-546.85328197279864
 21
-366.91455112750731
 31
0.0
  0
ARC
  5
3D3
  8
0
  6
CONTINUOUS
 62
     3
 10
-546.85328197279864
 20
-367.51455112750722
 30
0.0
 40
0.2
 50
270.0
 51
90.0
  0
LINE
  5
3D4
  8
0
  6
CONTINUOUS
 62
     3
 10
-546.85328197279864
 20
-367.31455112750717
 30
0.0
 11
-552.2532819727985
 21
-367.31455112750717
 31
0.0
  0
ARC
  5
3D5
  8
0
  6
CONTINUOUS
 62
     3
 10
-552.2532819727985
 20
-367.51455112750722
 30
0.0
 40
0.2
 50
90.0
 51
270.0
  0
LINE
  5
3D6
  8
0
  6
CONTINUOUS
 62
     3
 10
-552.2532819727985
 20
-367.71455112750732
 30
0.0
 11
-546.85328197279864
 21
-367.71455112750732
 31
0.0
  0
ARC
  5
3D7
  8
0
  6
CONTINUOUS
 62
     3
 10
-546.85328197279864
 20
-368.31455112750729
 30
0.0
 40
0.2
 50
270.0
 51
90.0
  0
LINE
  5
3D8
  8
0
  6
CONTINUOUS
 62
     3
 10
-546.85328197279864
 20
-368.11455112750718
 30
0.0
 11
-552.2532819727985
 21
-368.11455112750718
 31
0.0
  0
ARC
  5
3D9
  8
0
  6
CONTINUOUS
 62
     3
 10
-552.2532819727985
 20
-368.31455112750729
 30
0.0
 40
0.2
 50
90.0
 51
270.0
  0
LINE
  5
3DA
  8
0
  6
CONTINUOUS
 62
     3
 10
-552.2532819727985
 20
-368.5145511275071
 30
0.0
 11
-546.85328197279864
 21
-368.5145511275071
 31
0.0
  0
ARC
  5
3DB
  8
0
  6
CONTINUOUS
 62
     3
 10
-546.85328197279864
 20
-369.1145511275073
 30
0.0
 40
0.2
 50
270.0
 51
90.0
  0
LINE
  5
3DC
  8
0
  6
CONTINUOUS
 62
     3
 10
-546.85328197279864
 20
-368.91455112750731
 30
0.0
 11
-552.2532819727985
 21
-368.91455112750731
 31
0.0
  0
ARC
  5
3DD
  8
0
  6
CONTINUOUS
 62
     3
 10
-552.2532819727985
 20
-369.1145511275073
 30
0.0
 40
0.2
 50
90.0
 51
270.0
  0
LINE
  5
3DE
  8
0
  6
CONTINUOUS
 62
     3
 10
-552.2532819727985
 20
-369.31455112750717
 30
0.0
 11
-546.85328197279864
 21
-369.31455112750717
 31
0.0
  0
POLYLINE
  5
3DF
  8
0
 62
     3
 66
     1
 10
0.0
 20
0.0
 30
0.0
 70
     1
  0
VERTEX
  5
5E8
  8
0
 62
     3
 10
-553.35328197279864
 20
-363.71455112750732
 30
0.0
  0
VERTEX
  5
5E9
  8
0
 62
     3
 10
-546.55328197279835
 20
-363.71455112750732
 30
0.0
  0
VERTEX
  5
5EA
  8
0
 62
     3
 10
-546.55328197279835
 20
-363.31455112750717
 30
0.0
  0
VERTEX
  5
5EB
  8
0
 62
     3
 10
-553.35328197279864
 20
-363.31455112750717
 30
0.0
  0
SEQEND
  5
5EC
  8
0
 62
     3
  0
LINE
  5
3E5
  8
0
  6
CONTINUOUS
 62
     3
 10
-553.35328197279864
 20
-364.5145511275071
 30
0.0
 11
-546.55328197279835
 21
-364.5145511275071
 31
0.0
  0
LINE
  5
3E6
  8
0
  6
CONTINUOUS
 62
     3
 10
-546.55328197279835
 20
-364.1145511275073
 30
0.0
 11
-553.35328197279864
 21
-364.1145511275073
 31
0.0
  0
LINE
  5
3E7
  8
0
  6
CONTINUOUS
 62
     3
 10
-553.35328197279864
 20
-364.1145511275073
 30
0.0
 11
-553.35328197279864
 21
-364.5145511275071
 31
0.0
  0
LINE
  5
3E8
  8
0
  6
CONTINUOUS
 62
     3
 10
-553.35328197279864
 20
-365.31455112750717
 30
0.0
 11
-546.55328197279835
 21
-365.31455112750717
 31
0.0
  0
LINE
  5
3E9
  8
0
  6
CONTINUOUS
 62
     3
 10
-546.55328197279835
 20
-364.9145511275072
 30
0.0
 11
-553.35328197279864
 21
-364.9145511275072
 31
0.0
  0
LINE
  5
3EA
  8
0
  6
CONTINUOUS
 62
     3
 10
-553.35328197279864
 20
-364.9145511275072
 30
0.0
 11
-553.35328197279864
 21
-365.31455112750717
 31
0.0
  0
LINE
  5
3EB
  8
0
  6
CONTINUOUS
 62
     3
 10
-553.35328197279864
 20
-366.1145511275073
 30
0.0
 11
-546.55328197279835
 21
-366.1145511275073
 31
0.0
  0
LINE
  5
3EC
  8
0
  6
CONTINUOUS
 62
     3
 10
-546.55328197279835
 20
-365.71455112750732
 30
0.0
 11
-553.35328197279864
 21
-365.71455112750732
 31
0.0
  0
LINE
  5
3ED
  8
0
  6
CONTINUOUS
 62
     3
 10
-553.35328197279864
 20
-365.71455112750732
 30
0.0
 11
-553.35328197279864
 21
-366.1145511275073
 31
0.0
  0
LINE
  5
3EE
  8
0
  6
CONTINUOUS
 62
     3
 10
-553.35328197279864
 20
-366.91455112750731
 30
0.0
 11
-546.55328197279835
 21
-366.91455112750731
 31
0.0
  0
LINE
  5
3EF
  8
0
  6
CONTINUOUS
 62
     3
 10
-546.55328197279835
 20
-366.5145511275071
 30
0.0
 11
-553.35328197279864
 21
-366.5145511275071
 31
0.0
  0
LINE
  5
3F0
  8
0
  6
CONTINUOUS
 62
     3
 10
-553.35328197279864
 20
-366.5145511275071
 30
0.0
 11
-553.35328197279864
 21
-366.91455112750731
 31
0.0
  0
LINE
  5
3F1
  8
0
  6
CONTINUOUS
 62
     3
 10
-553.35328197279864
 20
-367.71455112750732
 30
0.0
 11
-546.55328197279835
 21
-367.71455112750732
 31
0.0
  0
LINE
  5
3F2
  8
0
  6
CONTINUOUS
 62
     3
 10
-546.55328197279835
 20
-367.31455112750717
 30
0.0
 11
-553.35328197279864
 21
-367.31455112750717
 31
0.0
  0
LINE
  5
3F3
  8
0
  6
CONTINUOUS
 62
     3
 10
-553.35328197279864
 20
-367.31455112750717
 30
0.0
 11
-553.35328197279864
 21
-367.71455112750732
 31
0.0
  0
LINE
  5
3F4
  8
0
  6
CONTINUOUS
 62
     3
 10
-553.35328197279864
 20
-368.5145511275071
 30
0.0
 11
-546.55328197279835
 21
-368.5145511275071
 31
0.0
  0
LINE
  5
3F5
  8
0
  6
CONTINUOUS
 62
     3
 10
-546.55328197279835
 20
-368.11455112750718
 30
0.0
 11
-553.35328197279864
 21
-368.11455112750718
 31
0.0
  0
LINE
  5
3F6
  8
0
  6
CONTINUOUS
 62
     3
 10
-553.35328197279864
 20
-368.11455112750718
 30
0.0
 11
-553.35328197279864
 21
-368.5145511275071
 31
0.0
  0
LINE
  5
3F7
  8
0
  6
CONTINUOUS
 62
     3
 10
-553.35328197279864
 20
-369.31455112750717
 30
0.0
 11
-546.55328197279835
 21
-369.31455112750717
 31
0.0
  0
LINE
  5
3F8
  8
0
  6
CONTINUOUS
 62
     3
 10
-546.55328197279835
 20
-368.91455112750731
 30
0.0
 11
-553.35328197279864
 21
-368.91455112750731
 31
0.0
  0
LINE
  5
3F9
  8
0
  6
CONTINUOUS
 62
     3
 10
-553.35328197279864
 20
-368.91455112750731
 30
0.0
 11
-553.35328197279864
 21
-369.31455112750717
 31
0.0
  0
LINE
  5
3FA
  8
0
  6
CONTINUOUS
 62
     3
 10
-546.55328197279835
 20
-369.31455112750717
 30
0.0
 11
-546.55328197279835
 21
-368.91455112750731
 31
0.0
  0
LINE
  5
3FB
  8
0
  6
CONTINUOUS
 62
     3
 10
-546.55328197279835
 20
-368.5145511275071
 30
0.0
 11
-546.55328197279835
 21
-368.11455112750718
 31
0.0
  0
LINE
  5
3FC
  8
0
  6
CONTINUOUS
 62
     3
 10
-546.55328197279835
 20
-367.71455112750732
 30
0.0
 11
-546.55328197279835
 21
-367.31455112750717
 31
0.0
  0
LINE
  5
3FD
  8
0
  6
CONTINUOUS
 62
     3
 10
-546.55328197279835
 20
-366.91455112750731
 30
0.0
 11
-546.55328197279835
 21
-366.5145511275071
 31
0.0
  0
LINE
  5
3FE
  8
0
  6
CONTINUOUS
 62
     3
 10
-546.55328197279835
 20
-366.1145511275073
 30
0.0
 11
-546.55328197279835
 21
-365.71455112750732
 31
0.0
  0
LINE
  5
3FF
  8
0
  6
CONTINUOUS
 62
     3
 10
-546.55328197279835
 20
-365.31455112750717
 30
0.0
 11
-546.55328197279835
 21
-364.9145511275072
 31
0.0
  0
LINE
  5
400
  8
0
  6
CONTINUOUS
 62
     3
 10
-546.55328197279835
 20
-364.5145511275071
 30
0.0
 11
-546.55328197279835
 21
-364.1145511275073
 31
0.0
  0
LINE
  5
401
  8
0
  6
CONTINUOUS
 62
     3
 10
-553.35328197279864
 20
-363.4988657025072
 30
0.0
 11
-553.16896739779861
 21
-363.31455112750717
 31
0.0
  0
LINE
  5
402
  8
0
  6
CONTINUOUS
 62
     3
 10
-552.88612468479835
 20
-363.31455112750717
 30
0.0
 11
-553.28612468479855
 21
-363.71455112750732
 31
0.0
  0
LINE
  5
403
  8
0
  6
CONTINUOUS
 62
     3
 10
-553.0032819727985
 20
-363.71455112750732
 30
0.0
 11
-552.60328197279864
 21
-363.31455112750717
 31
0.0
  0
LINE
  5
404
  8
0
  6
CONTINUOUS
 62
     3
 10
-552.32043925979849
 20
-363.31455112750717
 30
0.0
 11
-552.34041983779844
 21
-363.33453170550729
 31
0.0
  0
LINE
  5
405
  8
0
  6
CONTINUOUS
 62
     3
 10
-552.4333013947986
 20
-363.4274132625074
 30
0.0
 11
-552.7204392597987
 21
-363.71455112750732
 31
0.0
  0
LINE
  5
406
  8
0
  6
CONTINUOUS
 62
     3
 10
-552.43759654779842
 20
-363.71455112750732
 30
0.0
 11
-552.38664298479853
 21
-363.66359756450731
 31
0.0
  0
LINE
  5
407
  8
0
  6
CONTINUOUS
 62
     3
 10
-553.35328197279864
 20
-364.29886665650719
 30
0.0
 11
-553.16896644379835
 21
-364.1145511275073
 31
0.0
  0
LINE
  5
408
  8
0
  6
CONTINUOUS
 62
     3
 10
-552.88612373079854
 20
-364.1145511275073
 30
0.0
 11
-553.28612373079864
 21
-364.5145511275071
 31
0.0
  0
LINE
  5
409
  8
0
  6
CONTINUOUS
 62
     3
 10
-553.00328101879859
 20
-364.5145511275071
 30
0.0
 11
-552.60328101879838
 21
-364.1145511275073
 31
0.0
  0
LINE
  5
40A
  8
0
  6
CONTINUOUS
 62
     3
 10
-552.32043830579846
 20
-364.1145511275073
 30
0.0
 11
-552.34041798879855
 21
-364.13453081050721
 31
0.0
  0
LINE
  5
40B
  8
0
  6
CONTINUOUS
 62
     3
 10
-552.43330228979869
 20
-364.2274151105072
 30
0.0
 11
-552.72043830579844
 21
-364.5145511275071
 31
0.0
  0
LINE
  5
40C
  8
0
  6
CONTINUOUS
 62
     3
 10
-552.43759559379828
 20
-364.5145511275071
 30
0.0
 11
-552.38664248079863
 21
-364.46359801550722
 31
0.0
  0
LINE
  5
40D
  8
0
  6
CONTINUOUS
 62
     3
 10
-553.35328197279864
 20
-365.09886570250723
 30
0.0
 11
-553.16896739779861
 21
-364.9145511275072
 31
0.0
  0
LINE
  5
40E
  8
0
  6
CONTINUOUS
 62
     3
 10
-552.88612468479835
 20
-364.9145511275072
 30
0.0
 11
-553.28612468479855
 21
-365.31455112750717
 31
0.0
  0
LINE
  5
40F
  8
0
  6
CONTINUOUS
 62
     3
 10
-553.0032819727985
 20
-365.31455112750717
 30
0.0
 11
-552.60328197279864
 21
-364.9145511275072
 31
0.0
  0
LINE
  5
410
  8
0
  6
CONTINUOUS
 62
     3
 10
-552.32043925979849
 20
-364.9145511275072
 30
0.0
 11
-552.34041983779844
 21
-364.93453170550731
 31
0.0
  0
LINE
  5
411
  8
0
  6
CONTINUOUS
 62
     3
 10
-552.4333013947986
 20
-365.0274132625072
 30
0.0
 11
-552.7204392597987
 21
-365.31455112750717
 31
0.0
  0
LINE
  5
412
  8
0
  6
CONTINUOUS
 62
     3
 10
-552.43759654779842
 20
-365.31455112750717
 30
0.0
 11
-552.38664298479853
 21
-365.26359756450722
 31
0.0
  0
LINE
  5
413
  8
0
  6
CONTINUOUS
 62
     3
 10
-553.35328197279864
 20
-365.89886570250718
 30
0.0
 11
-553.16896739779861
 21
-365.71455112750732
 31
0.0
  0
LINE
  5
414
  8
0
  6
CONTINUOUS
 62
     3
 10
-552.88612468479835
 20
-365.71455112750732
 30
0.0
 11
-553.28612468479855
 21
-366.1145511275073
 31
0.0
  0
LINE
  5
415
  8
0
  6
CONTINUOUS
 62
     3
 10
-553.0032819727985
 20
-366.1145511275073
 30
0.0
 11
-552.60328197279864
 21
-365.71455112750732
 31
0.0
  0
LINE
  5
416
  8
0
  6
CONTINUOUS
 62
     3
 10
-552.32043925979849
 20
-365.71455112750732
 30
0.0
 11
-552.34041983779844
 21
-365.73453170550721
 31
0.0
  0
LINE
  5
417
  8
0
  6
CONTINUOUS
 62
     3
 10
-552.4333013947986
 20
-365.82741326250732
 30
0.0
 11
-552.7204392597987
 21
-366.1145511275073
 31
0.0
  0
LINE
  5
418
  8
0
  6
CONTINUOUS
 62
     3
 10
-552.43759654779842
 20
-366.1145511275073
 30
0.0
 11
-552.38664298479853
 21
-366.06359756450718
 31
0.0
  0
LINE
  5
419
  8
0
  6
CONTINUOUS
 62
     3
 10
-553.35328197279864
 20
-366.69886570250719
 30
0.0
 11
-553.16896739779861
 21
-366.5145511275071
 31
0.0
  0
LINE
  5
41A
  8
0
  6
CONTINUOUS
 62
     3
 10
-552.88612468479835
 20
-366.5145511275071
 30
0.0
 11
-553.28612468479855
 21
-366.91455112750731
 31
0.0
  0
LINE
  5
41B
  8
0
  6
CONTINUOUS
 62
     3
 10
-553.0032819727985
 20
-366.91455112750731
 30
0.0
 11
-552.60328197279864
 21
-366.5145511275071
 31
0.0
  0
LINE
  5
41C
  8
0
  6
CONTINUOUS
 62
     3
 10
-552.32043925979849
 20
-366.5145511275071
 30
0.0
 11
-552.34041983779844
 21
-366.53453170550722
 31
0.0
  0
LINE
  5
41D
  8
0
  6
CONTINUOUS
 62
     3
 10
-552.4333013947986
 20
-366.62741326250722
 30
0.0
 11
-552.7204392597987
 21
-366.91455112750731
 31
0.0
  0
LINE
  5
41E
  8
0
  6
CONTINUOUS
 62
     3
 10
-552.43759654779842
 20
-366.91455112750731
 30
0.0
 11
-552.38664298479853
 21
-366.86359756450719
 31
0.0
  0
LINE
  5
41F
  8
0
  6
CONTINUOUS
 62
     3
 10
-553.35328197279864
 20
-367.4988657025072
 30
0.0
 11
-553.16896739779861
 21
-367.31455112750717
 31
0.0
  0
LINE
  5
420
  8
0
  6
CONTINUOUS
 62
     3
 10
-552.88612468479835
 20
-367.31455112750717
 30
0.0
 11
-553.28612468479855
 21
-367.71455112750732
 31
0.0
  0
LINE
  5
421
  8
0
  6
CONTINUOUS
 62
     3
 10
-553.0032819727985
 20
-367.71455112750732
 30
0.0
 11
-552.60328197279864
 21
-367.31455112750717
 31
0.0
  0
LINE
  5
422
  8
0
  6
CONTINUOUS
 62
     3
 10
-552.32043925979849
 20
-367.31455112750717
 30
0.0
 11
-552.34041983779844
 21
-367.33453170550729
 31
0.0
  0
LINE
  5
423
  8
0
  6
CONTINUOUS
 62
     3
 10
-552.4333013947986
 20
-367.42741326250717
 30
0.0
 11
-552.7204392597987
 21
-367.71455112750732
 31
0.0
  0
LINE
  5
424
  8
0
  6
CONTINUOUS
 62
     3
 10
-552.43759654779842
 20
-367.71455112750732
 30
0.0
 11
-552.38664298479853
 21
-367.66359756450731
 31
0.0
  0
LINE
  5
425
  8
0
  6
CONTINUOUS
 62
     3
 10
-553.35328197279864
 20
-368.29886665650741
 30
0.0
 11
-553.16896644379835
 21
-368.11455112750718
 31
0.0
  0
LINE
  5
426
  8
0
  6
CONTINUOUS
 62
     3
 10
-552.88612373079854
 20
-368.11455112750718
 30
0.0
 11
-553.28612373079864
 21
-368.5145511275071
 31
0.0
  0
LINE
  5
427
  8
0
  6
CONTINUOUS
 62
     3
 10
-553.00328101879859
 20
-368.5145511275071
 30
0.0
 11
-552.60328101879838
 21
-368.11455112750718
 31
0.0
  0
LINE
  5
428
  8
0
  6
CONTINUOUS
 62
     3
 10
-552.32043830579846
 20
-368.11455112750718
 30
0.0
 11
-552.34041798879855
 21
-368.13453081050721
 31
0.0
  0
LINE
  5
429
  8
0
  6
CONTINUOUS
 62
     3
 10
-552.43330228979869
 20
-368.2274151105072
 30
0.0
 11
-552.72043830579844
 21
-368.5145511275071
 31
0.0
  0
LINE
  5
42A
  8
0
  6
CONTINUOUS
 62
     3
 10
-552.43759559379828
 20
-368.5145511275071
 30
0.0
 11
-552.38664248079863
 21
-368.46359801550722
 31
0.0
  0
LINE
  5
42B
  8
0
  6
CONTINUOUS
 62
     3
 10
-553.35328197279864
 20
-369.09886570250723
 30
0.0
 11
-553.16896739779861
 21
-368.91455112750731
 31
0.0
  0
LINE
  5
42C
  8
0
  6
CONTINUOUS
 62
     3
 10
-552.88612468479835
 20
-368.91455112750731
 30
0.0
 11
-553.28612468479855
 21
-369.31455112750717
 31
0.0
  0
LINE
  5
42D
  8
0
  6
CONTINUOUS
 62
     3
 10
-553.0032819727985
 20
-369.31455112750717
 30
0.0
 11
-552.60328197279864
 21
-368.91455112750731
 31
0.0
  0
LINE
  5
42E
  8
0
  6
CONTINUOUS
 62
     3
 10
-552.32043925979849
 20
-368.91455112750731
 30
0.0
 11
-552.34041983779844
 21
-368.93453170550731
 31
0.0
  0
LINE
  5
42F
  8
0
  6
CONTINUOUS
 62
     3
 10
-552.4333013947986
 20
-369.02741326250731
 30
0.0
 11
-552.7204392597987
 21
-369.31455112750717
 31
0.0
  0
LINE
  5
430
  8
0
  6
CONTINUOUS
 62
     3
 10
-552.43759654779842
 20
-369.31455112750717
 30
0.0
 11
-552.38664298479853
 21
-369.26359756450722
 31
0.0
  0
LINE
  5
431
  8
0
  6
CONTINUOUS
 62
     3
 10
-553.55328197279835
 20
-339.58318027750721
 30
0.0
 11
-553.28465282279842
 21
-339.31455112750729
 31
0.0
  0
LINE
  5
432
  8
0
  6
CONTINUOUS
 62
     3
 10
-553.00181010979861
 20
-339.31455112750729
 30
0.0
 11
-553.55328197279835
 21
-339.8660229905073
 31
0.0
  0
LINE
  5
433
  8
0
  6
CONTINUOUS
 62
     3
 10
-553.55328197279835
 20
-340.14886570250729
 30
0.0
 11
-552.71896739779845
 21
-339.31455112750729
 31
0.0
  0
LINE
  5
434
  8
0
  6
CONTINUOUS
 62
     3
 10
-552.43612468479864
 20
-339.31455112750729
 30
0.0
 11
-553.55328197279835
 21
-340.43170841550722
 31
0.0
  0
LINE
  5
435
  8
0
  6
CONTINUOUS
 62
     3
 10
-553.45328197279844
 20
-340.61455112750718
 30
0.0
 11
-552.1532819727986
 21
-339.31455112750729
 31
0.0
  0
LINE
  5
436
  8
0
  6
CONTINUOUS
 62
     3
 10
-552.05328197279857
 20
-339.49739384050719
 30
0.0
 11
-553.17043925979851
 21
-340.61455112750718
 31
0.0
  0
LINE
  5
437
  8
0
  6
CONTINUOUS
 62
     3
 10
-552.88759654779835
 20
-340.61455112750718
 30
0.0
 11
-552.05328197279857
 21
-339.78023655250718
 31
0.0
  0
LINE
  5
438
  8
0
  6
CONTINUOUS
 62
     3
 10
-552.05328197279857
 20
-340.06307926550721
 30
0.0
 11
-552.60475383479854
 21
-340.61455112750718
 31
0.0
  0
LINE
  5
439
  8
0
  6
CONTINUOUS
 62
     3
 10
-552.32191112279861
 20
-340.61455112750718
 30
0.0
 11
-552.05328197279857
 21
-340.3459219775072
 31
0.0
  0
LINE
  5
43A
  8
0
  6
CONTINUOUS
 62
     3
 10
-553.55328197279835
 20
-342.1831802775074
 30
0.0
 11
-553.28465282279842
 21
-341.9145511275072
 31
0.0
  0
LINE
  5
43B
  8
0
  6
CONTINUOUS
 62
     3
 10
-553.00181010979861
 20
-341.9145511275072
 30
0.0
 11
-553.55328197279835
 21
-342.46602299050721
 31
0.0
  0
LINE
  5
43C
  8
0
  6
CONTINUOUS
 62
     3
 10
-553.55328197279835
 20
-342.74886570250709
 30
0.0
 11
-552.71896739779845
 21
-341.9145511275072
 31
0.0
  0
LINE
  5
43D
  8
0
  6
CONTINUOUS
 62
     3
 10
-552.43612468479864
 20
-341.9145511275072
 30
0.0
 11
-553.55328197279835
 21
-343.0317084155073
 31
0.0
  0
LINE
  5
43E
  8
0
  6
CONTINUOUS
 62
     3
 10
-553.45328197279844
 20
-343.21455112750732
 30
0.0
 11
-552.1532819727986
 21
-341.9145511275072
 31
0.0
  0
LINE
  5
43F
  8
0
  6
CONTINUOUS
 62
     3
 10
-552.05328197279857
 20
-342.09739384050721
 30
0.0
 11
-553.17043925979851
 21
-343.21455112750732
 31
0.0
  0
LINE
  5
440
  8
0
  6
CONTINUOUS
 62
     3
 10
-552.88759654779835
 20
-343.21455112750732
 30
0.0
 11
-552.05328197279857
 21
-342.38023655250731
 31
0.0
  0
LINE
  5
441
  8
0
  6
CONTINUOUS
 62
     3
 10
-552.05328197279857
 20
-342.66307926550718
 30
0.0
 11
-552.60475383479854
 21
-343.21455112750732
 31
0.0
  0
LINE
  5
442
  8
0
  6
CONTINUOUS
 62
     3
 10
-552.32191112279861
 20
-343.21455112750732
 30
0.0
 11
-552.05328197279857
 21
-342.94592197750723
 31
0.0
  0
LINE
  5
443
  8
0
  6
CONTINUOUS
 62
     3
 10
-553.55328197279835
 20
-344.78318027750731
 30
0.0
 11
-553.28465282279842
 21
-344.51455112750722
 31
0.0
  0
LINE
  5
444
  8
0
  6
CONTINUOUS
 62
     3
 10
-553.00181010979861
 20
-344.51455112750722
 30
0.0
 11
-553.55328197279835
 21
-345.06602299050718
 31
0.0
  0
LINE
  5
445
  8
0
  6
CONTINUOUS
 62
     3
 10
-553.55328197279835
 20
-345.34886570250723
 30
0.0
 11
-552.71896739779845
 21
-344.51455112750722
 31
0.0
  0
LINE
  5
446
  8
0
  6
CONTINUOUS
 62
     3
 10
-552.43612468479864
 20
-344.51455112750722
 30
0.0
 11
-553.55328197279835
 21
-345.63170841550721
 31
0.0
  0
LINE
  5
447
  8
0
  6
CONTINUOUS
 62
     3
 10
-553.45328197279844
 20
-345.81455112750717
 30
0.0
 11
-552.1532819727986
 21
-344.51455112750722
 31
0.0
  0
LINE
  5
448
  8
0
  6
CONTINUOUS
 62
     3
 10
-552.05328197279857
 20
-344.69739384050729
 30
0.0
 11
-553.17043925979851
 21
-345.81455112750717
 31
0.0
  0
LINE
  5
449
  8
0
  6
CONTINUOUS
 62
     3
 10
-552.88759654779835
 20
-345.81455112750717
 30
0.0
 11
-552.05328197279857
 21
-344.98023655250722
 31
0.0
  0
LINE
  5
44A
  8
0
  6
CONTINUOUS
 62
     3
 10
-552.05328197279857
 20
-345.2630792655072
 30
0.0
 11
-552.60475383479854
 21
-345.81455112750717
 31
0.0
  0
LINE
  5
44B
  8
0
  6
CONTINUOUS
 62
     3
 10
-552.32191112279861
 20
-345.81455112750717
 30
0.0
 11
-552.05328197279857
 21
-345.54592197750731
 31
0.0
  0
LINE
  5
44C
  8
0
  6
CONTINUOUS
 62
     3
 10
-553.55328197279835
 20
-347.38318027750722
 30
0.0
 11
-553.28465282279842
 21
-347.11455112750718
 31
0.0
  0
LINE
  5
44D
  8
0
  6
CONTINUOUS
 62
     3
 10
-553.00181010979861
 20
-347.11455112750718
 30
0.0
 11
-553.55328197279835
 21
-347.6660229905072
 31
0.0
  0
LINE
  5
44E
  8
0
  6
CONTINUOUS
 62
     3
 10
-553.55328197279835
 20
-347.94886570250719
 30
0.0
 11
-552.71896739779845
 21
-347.11455112750718
 31
0.0
  0
LINE
  5
44F
  8
0
  6
CONTINUOUS
 62
     3
 10
-552.43612468479864
 20
-347.11455112750718
 30
0.0
 11
-553.55328197279835
 21
-348.23170841550723
 31
0.0
  0
LINE
  5
450
  8
0
  6
CONTINUOUS
 62
     3
 10
-553.45328197279844
 20
-348.4145511275072
 30
0.0
 11
-552.1532819727986
 21
-347.11455112750718
 31
0.0
  0
LINE
  5
451
  8
0
  6
CONTINUOUS
 62
     3
 10
-552.05328197279857
 20
-347.2973938405072
 30
0.0
 11
-553.17043925979851
 21
-348.4145511275072
 31
0.0
  0
LINE
  5
452
  8
0
  6
CONTINUOUS
 62
     3
 10
-552.88759654779835
 20
-348.4145511275072
 30
0.0
 11
-552.05328197279857
 21
-347.5802365525073
 31
0.0
  0
LINE
  5
453
  8
0
  6
CONTINUOUS
 62
     3
 10
-552.05328197279857
 20
-347.86307926550728
 30
0.0
 11
-552.60475383479854
 21
-348.4145511275072
 31
0.0
  0
LINE
  5
454
  8
0
  6
CONTINUOUS
 62
     3
 10
-552.32191112279861
 20
-348.4145511275072
 30
0.0
 11
-552.05328197279857
 21
-348.14592197750733
 31
0.0
  0
LINE
  5
455
  8
0
  6
CONTINUOUS
 62
     3
 10
-553.55328197279835
 20
-349.98318027750719
 30
0.0
 11
-553.28465282279842
 21
-349.71455112750732
 31
0.0
  0
LINE
  5
456
  8
0
  6
CONTINUOUS
 62
     3
 10
-553.00181010979861
 20
-349.71455112750732
 30
0.0
 11
-553.55328197279835
 21
-350.26602299050722
 31
0.0
  0
LINE
  5
457
  8
0
  6
CONTINUOUS
 62
     3
 10
-553.55328197279835
 20
-350.54886570250733
 30
0.0
 11
-552.71896739779845
 21
-349.71455112750732
 31
0.0
  0
LINE
  5
458
  8
0
  6
CONTINUOUS
 62
     3
 10
-552.43612468479864
 20
-349.71455112750732
 30
0.0
 11
-553.55328197279835
 21
-350.83170841550719
 31
0.0
  0
LINE
  5
459
  8
0
  6
CONTINUOUS
 62
     3
 10
-553.45328197279844
 20
-351.01455112750727
 30
0.0
 11
-552.1532819727986
 21
-349.71455112750732
 31
0.0
  0
LINE
  5
45A
  8
0
  6
CONTINUOUS
 62
     3
 10
-552.05328197279857
 20
-349.89739384050722
 30
0.0
 11
-553.17043925979851
 21
-351.01455112750727
 31
0.0
  0
LINE
  5
45B
  8
0
  6
CONTINUOUS
 62
     3
 10
-552.88759654779835
 20
-351.01455112750727
 30
0.0
 11
-552.05328197279857
 21
-350.18023655250721
 31
0.0
  0
LINE
  5
45C
  8
0
  6
CONTINUOUS
 62
     3
 10
-552.05328197279857
 20
-350.4630792655073
 30
0.0
 11
-552.60475383479854
 21
-351.01455112750727
 31
0.0
  0
LINE
  5
45D
  8
0
  6
CONTINUOUS
 62
     3
 10
-552.32191112279861
 20
-351.01455112750727
 30
0.0
 11
-552.05328197279857
 21
-350.74592197750741
 31
0.0
  0
LINE
  5
45E
  8
0
  6
CONTINUOUS
 62
     3
 10
-553.55328197279835
 20
-352.5831802775071
 30
0.0
 11
-553.28465282279842
 21
-352.31455112750717
 31
0.0
  0
LINE
  5
45F
  8
0
  6
CONTINUOUS
 62
     3
 10
-553.00181010979861
 20
-352.31455112750717
 30
0.0
 11
-553.55328197279835
 21
-352.8660229905073
 31
0.0
  0
LINE
  5
460
  8
0
  6
CONTINUOUS
 62
     3
 10
-553.55328197279835
 20
-353.14886570250718
 30
0.0
 11
-552.71896739779845
 21
-352.31455112750717
 31
0.0
  0
LINE
  5
461
  8
0
  6
CONTINUOUS
 62
     3
 10
-552.43612468479864
 20
-352.31455112750717
 30
0.0
 11
-553.55328197279835
 21
-353.43170841550722
 31
0.0
  0
LINE
  5
462
  8
0
  6
CONTINUOUS
 62
     3
 10
-553.45328197279844
 20
-353.6145511275073
 30
0.0
 11
-552.1532819727986
 21
-352.31455112750717
 31
0.0
  0
LINE
  5
463
  8
0
  6
CONTINUOUS
 62
     3
 10
-552.05328197279857
 20
-352.49739384050719
 30
0.0
 11
-553.17043925979851
 21
-353.6145511275073
 31
0.0
  0
LINE
  5
464
  8
0
  6
CONTINUOUS
 62
     3
 10
-552.88759654779835
 20
-353.6145511275073
 30
0.0
 11
-552.05328197279857
 21
-352.78023655250718
 31
0.0
  0
LINE
  5
465
  8
0
  6
CONTINUOUS
 62
     3
 10
-552.05328197279857
 20
-353.06307926550721
 30
0.0
 11
-552.60475383479854
 21
-353.6145511275073
 31
0.0
  0
LINE
  5
466
  8
0
  6
CONTINUOUS
 62
     3
 10
-552.32191112279861
 20
-353.6145511275073
 30
0.0
 11
-552.05328197279857
 21
-353.3459219775072
 31
0.0
  0
ENDSEC
  0
EOF
