  0
SECTION
  2
HEADER
  9
$ACADVER
  1
AC1012
  9
$DWGCODEPAGE
  3
ansi_932
  9
$INSBASE
 10
0.0
 20
0.0
 30
0.0
  9
$EXTMIN
 10
57.73112251233552
 20
66.75
 30
0.0
  9
$EXTMAX
 10
491.2711029052734
 20
322.096901528401
 30
0.0
  9
$LIMMIN
 10
57.73112251233552
 20
66.75
  9
$LIMMAX
 10
491.2711029052734
 20
322.096901528401
  9
$ORTHOMODE
 70
     0
  9
$REGENMODE
 70
     1
  9
$FILLMODE
 70
     1
  9
$QTEXTMODE
 70
     0
  9
$MIRRTEXT
 70
     1
  9
$DRAGMODE
 70
     2
  9
$LTSCALE
 40
1.0
  9
$OSMODE
 70
    37
  9
$ATTMODE
 70
     1
  9
$TEXTSIZE
 40
0.2
  9
$TRACEWID
 40
0.05
  9
$TEXTSTYLE
  7
STANDARD
  9
$CLAYER
  8
0
  9
$CELTYPE
  6
BYLAYER
  9
$CECOLOR
 62
   256
  9
$CELTSCALE
 40
1.0
  9
$DELOBJ
 70
     1
  9
$DISPSILH
 70
     0
  9
$DIMSCALE
 40
1.0
  9
$DIMASZ
 40
0.18
  9
$DIMEXO
 40
0.0625
  9
$DIMDLI
 40
0.38
  9
$DIMRND
 40
0.0
  9
$DIMDLE
 40
0.0
  9
$DIMEXE
 40
0.18
  9
$DIMTP
 40
0.0
  9
$DIMTM
 40
0.0
  9
$DIMTXT
 40
0.18
  9
$DIMCEN
 40
0.09
  9
$DIMTSZ
 40
0.0
  9
$DIMTOL
 70
     0
  9
$DIMLIM
 70
     0
  9
$DIMTIH
 70
     1
  9
$DIMTOH
 70
     1
  9
$DIMSE1
 70
     0
  9
$DIMSE2
 70
     0
  9
$DIMTAD
 70
     0
  9
$DIMZIN
 70
     0
  9
$DIMBLK
  1

  9
$DIMASO
 70
     1
  9
$DIMSHO
 70
     1
  9
$DIMPOST
  1

  9
$DIMAPOST
  1

  9
$DIMALT
 70
     0
  9
$DIMALTD
 70
     2
  9
$DIMALTF
 40
25.4
  9
$DIMLFAC
 40
1.0
  9
$DIMTOFL
 70
     0
  9
$DIMTVP
 40
0.0
  9
$DIMTIX
 70
     0
  9
$DIMSOXD
 70
     0
  9
$DIMSAH
 70
     0
  9
$DIMBLK1
  1

  9
$DIMBLK2
  1

  9
$DIMSTYLE
  2
STANDARD
  9
$DIMCLRD
 70
     0
  9
$DIMCLRE
 70
     0
  9
$DIMCLRT
 70
     0
  9
$DIMTFAC
 40
1.0
  9
$DIMGAP
 40
0.09
  9
$DIMJUST
 70
     0
  9
$DIMSD1
 70
     0
  9
$DIMSD2
 70
     0
  9
$DIMTOLJ
 70
     1
  9
$DIMTZIN
 70
     0
  9
$DIMALTZ
 70
     0
  9
$DIMALTTZ
 70
     0
  9
$DIMFIT
 70
     3
  9
$DIMUPT
 70
     0
  9
$DIMUNIT
 70
     2
  9
$DIMDEC
 70
     4
  9
$DIMTDEC
 70
     4
  9
$DIMALTU
 70
     2
  9
$DIMALTTD
 70
     2
  9
$DIMTXSTY
  7
STANDARD
  9
$DIMAUNIT
 70
     0
  9
$LUNITS
 70
     2
  9
$LUPREC
 70
     4
  9
$SKETCHINC
 40
0.1
  9
$FILLETRAD
 40
0.5
  9
$AUNITS
 70
     0
  9
$AUPREC
 70
     0
  9
$MENU
  1
.
  9
$ELEVATION
 40
0.0
  9
$PELEVATION
 40
0.0
  9
$THICKNESS
 40
0.0
  9
$LIMCHECK
 70
     0
  9
$CHAMFERA
 40
0.0
  9
$CHAMFERB
 40
0.0
  9
$CHAMFERC
 40
0.0
  9
$CHAMFERD
 40
0.0
  9
$SKPOLY
 70
     0
  9
$TDCREATE
 40
2456715.759975729
  9
$TDUPDATE
 40
2456715.75998346
  9
$TDINDWG
 40
0.0000000116
  9
$TDUSRTIMER
 40
0.0000000116
  9
$USRTIMER
 70
     1
  9
$ANGBASE
 50
0.0
  9
$ANGDIR
 70
     0
  9
$PDMODE
 70
     0
  9
$PDSIZE
 40
0.0
  9
$PLINEWID
 40
0.0
  9
$COORDS
 70
     1
  9
$SPLFRAME
 70
     0
  9
$SPLINETYPE
 70
     6
  9
$SPLINESEGS
 70
     8
  9
$ATTDIA
 70
     0
  9
$ATTREQ
 70
     1
  9
$HANDLING
 70
     1
  9
$HANDSEED
  5
6F8
  9
$SURFTAB1
 70
     6
  9
$SURFTAB2
 70
     6
  9
$SURFTYPE
 70
     6
  9
$SURFU
 70
     6
  9
$SURFV
 70
     6
  9
$UCSNAME
  2

  9
$UCSORG
 10
0.0
 20
0.0
 30
0.0
  9
$UCSXDIR
 10
1.0
 20
0.0
 30
0.0
  9
$UCSYDIR
 10
0.0
 20
1.0
 30
0.0
  9
$PUCSNAME
  2

  9
$PUCSORG
 10
0.0
 20
0.0
 30
0.0
  9
$PUCSXDIR
 10
1.0
 20
0.0
 30
0.0
  9
$PUCSYDIR
 10
0.0
 20
1.0
 30
0.0
  9
$USERI1
 70
     0
  9
$USERI2
 70
     0
  9
$USERI3
 70
     0
  9
$USERI4
 70
     0
  9
$USERI5
 70
     0
  9
$USERR1
 40
0.0
  9
$USERR2
 40
0.0
  9
$USERR3
 40
0.0
  9
$USERR4
 40
0.0
  9
$USERR5
 40
0.0
  9
$WORLDVIEW
 70
     1
  9
$SHADEDGE
 70
     3
  9
$SHADEDIF
 70
    70
  9
$TILEMODE
 70
     1
  9
$MAXACTVP
 70
    64
  9
$PINSBASE
 10
0.0
 20
0.0
 30
0.0
  9
$PLIMCHECK
 70
     0
  9
$PEXTMIN
 10
-9.375
 20
-25.0
 30
0.0
  9
$PEXTMAX
 10
525.0
 20
371.25
 30
0.0
  9
$PLIMMIN
 10
-7.5
 20
-20.0
  9
$PLIMMAX
 10
420.0
 20
297.0
  9
$UNITMODE
 70
     0
  9
$VISRETAIN
 70
     1
  9
$PLINEGEN
 70
     0
  9
$PSLTSCALE
 70
     1
  9
$TREEDEPTH
 70
  3020
  9
$PICKSTYLE
 70
     1
  9
$CMLSTYLE
  2
STANDARD
  9
$CMLJUST
 70
     0
  9
$CMLSCALE
 40
1.0
  9
$SAVEIMAGES
 70
     1
  0
ENDSEC
  0
SECTION
  2
CLASSES
  0
CLASS
  1
ACDBDICTIONARYWDFLT
  2
AcDbDictionaryWithDefault
  3
ObjectDBX Classes
 90
    32768
280
     0
281
     0
  0
CLASS
  1
VISUALSTYLE
  2
AcDbVisualStyle
  3
ObjectDBX Classes
 90
     4095
280
     0
281
     0
  0
CLASS
  1
MATERIAL
  2
AcDbMaterial
  3
ObjectDBX Classes
 90
     1153
280
     0
281
     0
  0
CLASS
  1
SCALE
  2
AcDbScale
  3
ObjectDBX Classes
 90
     1153
280
     0
281
     0
  0
CLASS
  1
SUN
  2
AcDbSun
  3
SCENEOE
 90
     1153
280
     0
281
     0
  0
CLASS
  1
RASTERVARIABLES
  2
AcDbRasterVariables
  3
ISM
 90
    32768
280
     0
281
     0
  0
CLASS
  1
DICTIONARYVAR
  2
AcDbDictionaryVar
  3
ObjectDBX Classes
 90
        0
280
     0
281
     0
  0
CLASS
  1
XRECORD
  2
AcDbXrecord
  3
ObjectDBX Classes
 90
    32768
280
     0
281
     0
  0
CLASS
  1
LWPOLYLINE
  2
AcDbPolyline
  3
ObjectDBX Classes
 90
    32768
280
     0
281
     1
  0
CLASS
  1
HATCH
  2
AcDbHatch
  3
ObjectDBX Classes
 90
    32768
280
     0
281
     1
  0
CLASS
  1
ACDBPLACEHOLDER
  2
AcDbPlaceHolder
  3
ObjectDBX Classes
 90
        0
280
     0
281
     0
  0
CLASS
  1
LAYOUT
  2
AcDbLayout
  3
ObjectDBX Classes
 90
        0
280
     0
281
     0
  0
ENDSEC
  0
SECTION
  2
TABLES
  0
TABLE
  2
VPORT
  5
8
330
0
100
AcDbSymbolTable
 70
     1
  0
VPORT
  5
29
330
8
100
AcDbSymbolTableRecord
100
AcDbViewportTableRecord
  2
*ACTIVE
 70
     0
 10
0.0
 20
0.0
 11
1.0
 21
1.0
 12
219.6008901670436
 22
155.5387606113604
 13
0.0
 23
0.0
 14
0.5
 24
0.5
 15
0.5
 25
0.5
 16
0.0
 26
0.0
 36
1.0
 17
0.0
 27
0.0
 37
0.0
 40
214.4913972838568
 41
1.697847037884332
 42
50.0
 43
0.0
 44
0.0
 50
0.0
 51
0.0
 71
     0
 72
 20000
 73
     1
 74
     3
 75
     0
 76
     0
 77
     0
 78
     0
  0
ENDTAB
  0
TABLE
  2
LTYPE
  5
5
330
0
100
AcDbSymbolTable
 70
     2
  0
LTYPE
  5
14
330
5
100
AcDbSymbolTableRecord
100
AcDbLinetypeTableRecord
  2
BYBLOCK
 70
     0
  3

 72
    65
 73
     0
 40
0.0
  0
LTYPE
  5
15
330
5
100
AcDbSymbolTableRecord
100
AcDbLinetypeTableRecord
  2
BYLAYER
 70
     0
  3

 72
    65
 73
     0
 40
0.0
  0
LTYPE
  5
16
330
5
100
AcDbSymbolTableRecord
100
AcDbLinetypeTableRecord
  2
CONTINUOUS
 70
     0
  3
Solid line
 72
    65
 73
     0
 40
0.0
  0
LTYPE
  5
6C
330
5
100
AcDbSymbolTableRecord
100
AcDbLinetypeTableRecord
  2
LTYPE1
 70
     0
  3

 72
    65
 73
     2
 40
3.0
 49
1.8
 74
     0
 49
-1.2
 74
     0
  0
ENDTAB
  0
TABLE
  2
LAYER
  5
2
330
0
100
AcDbSymbolTable
 70
   129
  0
LAYER
  5
10
330
2
100
AcDbSymbolTableRecord
100
AcDbLayerTableRecord
  2
0
 70
     0
 62
     7
  6
CONTINUOUS
  0
LAYER
  5
6D
330
2
100
AcDbSymbolTableRecord
100
AcDbLayerTableRecord
  2
1
 70
     0
 62
     7
  6
CONTINUOUS
  0
LAYER
  5
6E
330
2
100
AcDbSymbolTableRecord
100
AcDbLayerTableRecord
  2
2
 70
     0
 62
     7
  6
CONTINUOUS
  0
LAYER
  5
6F
330
2
100
AcDbSymbolTableRecord
100
AcDbLayerTableRecord
  2
3
 70
     0
 62
     7
  6
CONTINUOUS
  0
LAYER
  5
70
330
2
100
AcDbSymbolTableRecord
100
AcDbLayerTableRecord
  2
4
 70
     0
 62
     7
  6
CONTINUOUS
  0
LAYER
  5
71
330
2
100
AcDbSymbolTableRecord
100
AcDbLayerTableRecord
  2
5
 70
     0
 62
     7
  6
CONTINUOUS
  0
LAYER
  5
72
330
2
100
AcDbSymbolTableRecord
100
AcDbLayerTableRecord
  2
6
 70
     0
 62
     7
  6
CONTINUOUS
  0
LAYER
  5
73
330
2
100
AcDbSymbolTableRecord
100
AcDbLayerTableRecord
  2
7
 70
     0
 62
     7
  6
CONTINUOUS
  0
LAYER
  5
74
330
2
100
AcDbSymbolTableRecord
100
AcDbLayerTableRecord
  2
8
 70
     0
 62
     7
  6
CONTINUOUS
  0
LAYER
  5
75
330
2
100
AcDbSymbolTableRecord
100
AcDbLayerTableRecord
  2
9
 70
     0
 62
     7
  6
CONTINUOUS
  0
LAYER
  5
76
330
2
100
AcDbSymbolTableRecord
100
AcDbLayerTableRecord
  2
10
 70
     0
 62
     7
  6
CONTINUOUS
  0
LAYER
  5
77
330
2
100
AcDbSymbolTableRecord
100
AcDbLayerTableRecord
  2
11
 70
     0
 62
     7
  6
CONTINUOUS
  0
LAYER
  5
78
330
2
100
AcDbSymbolTableRecord
100
AcDbLayerTableRecord
  2
12
 70
     0
 62
     7
  6
CONTINUOUS
  0
LAYER
  5
79
330
2
100
AcDbSymbolTableRecord
100
AcDbLayerTableRecord
  2
13
 70
     0
 62
     7
  6
CONTINUOUS
  0
LAYER
  5
7A
330
2
100
AcDbSymbolTableRecord
100
AcDbLayerTableRecord
  2
14
 70
     0
 62
     7
  6
CONTINUOUS
  0
LAYER
  5
7B
330
2
100
AcDbSymbolTableRecord
100
AcDbLayerTableRecord
  2
15
 70
     0
 62
     7
  6
CONTINUOUS
  0
LAYER
  5
7C
330
2
100
AcDbSymbolTableRecord
100
AcDbLayerTableRecord
  2
16
 70
     0
 62
     7
  6
CONTINUOUS
  0
LAYER
  5
7D
330
2
100
AcDbSymbolTableRecord
100
AcDbLayerTableRecord
  2
17
 70
     0
 62
     7
  6
CONTINUOUS
  0
LAYER
  5
7E
330
2
100
AcDbSymbolTableRecord
100
AcDbLayerTableRecord
  2
18
 70
     0
 62
     7
  6
CONTINUOUS
  0
LAYER
  5
7F
330
2
100
AcDbSymbolTableRecord
100
AcDbLayerTableRecord
  2
19
 70
     0
 62
     7
  6
CONTINUOUS
  0
LAYER
  5
80
330
2
100
AcDbSymbolTableRecord
100
AcDbLayerTableRecord
  2
20
 70
     0
 62
     7
  6
CONTINUOUS
  0
LAYER
  5
81
330
2
100
AcDbSymbolTableRecord
100
AcDbLayerTableRecord
  2
21
 70
     0
 62
     7
  6
CONTINUOUS
  0
LAYER
  5
82
330
2
100
AcDbSymbolTableRecord
100
AcDbLayerTableRecord
  2
22
 70
     0
 62
     7
  6
CONTINUOUS
  0
LAYER
  5
83
330
2
100
AcDbSymbolTableRecord
100
AcDbLayerTableRecord
  2
23
 70
     0
 62
     7
  6
CONTINUOUS
  0
LAYER
  5
84
330
2
100
AcDbSymbolTableRecord
100
AcDbLayerTableRecord
  2
24
 70
     0
 62
     7
  6
CONTINUOUS
  0
LAYER
  5
85
330
2
100
AcDbSymbolTableRecord
100
AcDbLayerTableRecord
  2
25
 70
     0
 62
     7
  6
CONTINUOUS
  0
LAYER
  5
86
330
2
100
AcDbSymbolTableRecord
100
AcDbLayerTableRecord
  2
26
 70
     0
 62
     7
  6
CONTINUOUS
  0
LAYER
  5
87
330
2
100
AcDbSymbolTableRecord
100
AcDbLayerTableRecord
  2
27
 70
     0
 62
     7
  6
CONTINUOUS
  0
LAYER
  5
88
330
2
100
AcDbSymbolTableRecord
100
AcDbLayerTableRecord
  2
28
 70
     0
 62
     7
  6
CONTINUOUS
  0
LAYER
  5
89
330
2
100
AcDbSymbolTableRecord
100
AcDbLayerTableRecord
  2
29
 70
     0
 62
     7
  6
CONTINUOUS
  0
LAYER
  5
8A
330
2
100
AcDbSymbolTableRecord
100
AcDbLayerTableRecord
  2
30
 70
     0
 62
     7
  6
CONTINUOUS
  0
LAYER
  5
8B
330
2
100
AcDbSymbolTableRecord
100
AcDbLayerTableRecord
  2
31
 70
     0
 62
     7
  6
CONTINUOUS
  0
LAYER
  5
8C
330
2
100
AcDbSymbolTableRecord
100
AcDbLayerTableRecord
  2
32
 70
     0
 62
     7
  6
CONTINUOUS
  0
LAYER
  5
8D
330
2
100
AcDbSymbolTableRecord
100
AcDbLayerTableRecord
  2
33
 70
     0
 62
     7
  6
CONTINUOUS
  0
LAYER
  5
8E
330
2
100
AcDbSymbolTableRecord
100
AcDbLayerTableRecord
  2
34
 70
     0
 62
     7
  6
CONTINUOUS
  0
LAYER
  5
8F
330
2
100
AcDbSymbolTableRecord
100
AcDbLayerTableRecord
  2
35
 70
     0
 62
     7
  6
CONTINUOUS
  0
LAYER
  5
90
330
2
100
AcDbSymbolTableRecord
100
AcDbLayerTableRecord
  2
36
 70
     0
 62
     7
  6
CONTINUOUS
  0
LAYER
  5
91
330
2
100
AcDbSymbolTableRecord
100
AcDbLayerTableRecord
  2
37
 70
     0
 62
     7
  6
CONTINUOUS
  0
LAYER
  5
92
330
2
100
AcDbSymbolTableRecord
100
AcDbLayerTableRecord
  2
38
 70
     0
 62
     7
  6
CONTINUOUS
  0
LAYER
  5
93
330
2
100
AcDbSymbolTableRecord
100
AcDbLayerTableRecord
  2
39
 70
     0
 62
     7
  6
CONTINUOUS
  0
LAYER
  5
94
330
2
100
AcDbSymbolTableRecord
100
AcDbLayerTableRecord
  2
40
 70
     0
 62
     7
  6
CONTINUOUS
  0
LAYER
  5
95
330
2
100
AcDbSymbolTableRecord
100
AcDbLayerTableRecord
  2
41
 70
     0
 62
     7
  6
CONTINUOUS
  0
LAYER
  5
96
330
2
100
AcDbSymbolTableRecord
100
AcDbLayerTableRecord
  2
42
 70
     0
 62
     7
  6
CONTINUOUS
  0
LAYER
  5
97
330
2
100
AcDbSymbolTableRecord
100
AcDbLayerTableRecord
  2
43
 70
     0
 62
     7
  6
CONTINUOUS
  0
LAYER
  5
98
330
2
100
AcDbSymbolTableRecord
100
AcDbLayerTableRecord
  2
44
 70
     0
 62
     7
  6
CONTINUOUS
  0
LAYER
  5
99
330
2
100
AcDbSymbolTableRecord
100
AcDbLayerTableRecord
  2
45
 70
     0
 62
     7
  6
CONTINUOUS
  0
LAYER
  5
9A
330
2
100
AcDbSymbolTableRecord
100
AcDbLayerTableRecord
  2
46
 70
     0
 62
     7
  6
CONTINUOUS
  0
LAYER
  5
9B
330
2
100
AcDbSymbolTableRecord
100
AcDbLayerTableRecord
  2
47
 70
     0
 62
     7
  6
CONTINUOUS
  0
LAYER
  5
9C
330
2
100
AcDbSymbolTableRecord
100
AcDbLayerTableRecord
  2
48
 70
     0
 62
     7
  6
CONTINUOUS
  0
LAYER
  5
9D
330
2
100
AcDbSymbolTableRecord
100
AcDbLayerTableRecord
  2
49
 70
     0
 62
     7
  6
CONTINUOUS
  0
LAYER
  5
9E
330
2
100
AcDbSymbolTableRecord
100
AcDbLayerTableRecord
  2
50
 70
     0
 62
     7
  6
CONTINUOUS
  0
LAYER
  5
9F
330
2
100
AcDbSymbolTableRecord
100
AcDbLayerTableRecord
  2
51
 70
     0
 62
     7
  6
CONTINUOUS
  0
LAYER
  5
A0
330
2
100
AcDbSymbolTableRecord
100
AcDbLayerTableRecord
  2
52
 70
     0
 62
     7
  6
CONTINUOUS
  0
LAYER
  5
A1
330
2
100
AcDbSymbolTableRecord
100
AcDbLayerTableRecord
  2
53
 70
     0
 62
     7
  6
CONTINUOUS
  0
LAYER
  5
A2
330
2
100
AcDbSymbolTableRecord
100
AcDbLayerTableRecord
  2
54
 70
     0
 62
     7
  6
CONTINUOUS
  0
LAYER
  5
A3
330
2
100
AcDbSymbolTableRecord
100
AcDbLayerTableRecord
  2
55
 70
     0
 62
     7
  6
CONTINUOUS
  0
LAYER
  5
A4
330
2
100
AcDbSymbolTableRecord
100
AcDbLayerTableRecord
  2
56
 70
     0
 62
     7
  6
CONTINUOUS
  0
LAYER
  5
A5
330
2
100
AcDbSymbolTableRecord
100
AcDbLayerTableRecord
  2
57
 70
     0
 62
     7
  6
CONTINUOUS
  0
LAYER
  5
A6
330
2
100
AcDbSymbolTableRecord
100
AcDbLayerTableRecord
  2
58
 70
     0
 62
     7
  6
CONTINUOUS
  0
LAYER
  5
A7
330
2
100
AcDbSymbolTableRecord
100
AcDbLayerTableRecord
  2
59
 70
     0
 62
     7
  6
CONTINUOUS
  0
LAYER
  5
A8
330
2
100
AcDbSymbolTableRecord
100
AcDbLayerTableRecord
  2
60
 70
     0
 62
     7
  6
CONTINUOUS
  0
LAYER
  5
A9
330
2
100
AcDbSymbolTableRecord
100
AcDbLayerTableRecord
  2
61
 70
     0
 62
     7
  6
CONTINUOUS
  0
LAYER
  5
AA
330
2
100
AcDbSymbolTableRecord
100
AcDbLayerTableRecord
  2
62
 70
     0
 62
     7
  6
CONTINUOUS
  0
LAYER
  5
AB
330
2
100
AcDbSymbolTableRecord
100
AcDbLayerTableRecord
  2
63
 70
     0
 62
     7
  6
CONTINUOUS
  0
LAYER
  5
AC
330
2
100
AcDbSymbolTableRecord
100
AcDbLayerTableRecord
  2
64
 70
     0
 62
     7
  6
CONTINUOUS
  0
LAYER
  5
AD
330
2
100
AcDbSymbolTableRecord
100
AcDbLayerTableRecord
  2
65
 70
     0
 62
     7
  6
CONTINUOUS
  0
LAYER
  5
AE
330
2
100
AcDbSymbolTableRecord
100
AcDbLayerTableRecord
  2
66
 70
     0
 62
     7
  6
CONTINUOUS
  0
LAYER
  5
AF
330
2
100
AcDbSymbolTableRecord
100
AcDbLayerTableRecord
  2
67
 70
     0
 62
     7
  6
CONTINUOUS
  0
LAYER
  5
B0
330
2
100
AcDbSymbolTableRecord
100
AcDbLayerTableRecord
  2
68
 70
     0
 62
     7
  6
CONTINUOUS
  0
LAYER
  5
B1
330
2
100
AcDbSymbolTableRecord
100
AcDbLayerTableRecord
  2
69
 70
     0
 62
     7
  6
CONTINUOUS
  0
LAYER
  5
B2
330
2
100
AcDbSymbolTableRecord
100
AcDbLayerTableRecord
  2
70
 70
     0
 62
     7
  6
CONTINUOUS
  0
LAYER
  5
B3
330
2
100
AcDbSymbolTableRecord
100
AcDbLayerTableRecord
  2
71
 70
     0
 62
     7
  6
CONTINUOUS
  0
LAYER
  5
B4
330
2
100
AcDbSymbolTableRecord
100
AcDbLayerTableRecord
  2
72
 70
     0
 62
     7
  6
CONTINUOUS
  0
LAYER
  5
B5
330
2
100
AcDbSymbolTableRecord
100
AcDbLayerTableRecord
  2
73
 70
     0
 62
     7
  6
CONTINUOUS
  0
LAYER
  5
B6
330
2
100
AcDbSymbolTableRecord
100
AcDbLayerTableRecord
  2
74
 70
     0
 62
     7
  6
CONTINUOUS
  0
LAYER
  5
B7
330
2
100
AcDbSymbolTableRecord
100
AcDbLayerTableRecord
  2
75
 70
     0
 62
     7
  6
CONTINUOUS
  0
LAYER
  5
B8
330
2
100
AcDbSymbolTableRecord
100
AcDbLayerTableRecord
  2
76
 70
     0
 62
     7
  6
CONTINUOUS
  0
LAYER
  5
B9
330
2
100
AcDbSymbolTableRecord
100
AcDbLayerTableRecord
  2
77
 70
     0
 62
     7
  6
CONTINUOUS
  0
LAYER
  5
BA
330
2
100
AcDbSymbolTableRecord
100
AcDbLayerTableRecord
  2
78
 70
     0
 62
     7
  6
CONTINUOUS
  0
LAYER
  5
BB
330
2
100
AcDbSymbolTableRecord
100
AcDbLayerTableRecord
  2
79
 70
     0
 62
     7
  6
CONTINUOUS
  0
LAYER
  5
BC
330
2
100
AcDbSymbolTableRecord
100
AcDbLayerTableRecord
  2
80
 70
     0
 62
     7
  6
CONTINUOUS
  0
LAYER
  5
BD
330
2
100
AcDbSymbolTableRecord
100
AcDbLayerTableRecord
  2
81
 70
     0
 62
     7
  6
CONTINUOUS
  0
LAYER
  5
BE
330
2
100
AcDbSymbolTableRecord
100
AcDbLayerTableRecord
  2
82
 70
     0
 62
     7
  6
CONTINUOUS
  0
LAYER
  5
BF
330
2
100
AcDbSymbolTableRecord
100
AcDbLayerTableRecord
  2
83
 70
     0
 62
     7
  6
CONTINUOUS
  0
LAYER
  5
C0
330
2
100
AcDbSymbolTableRecord
100
AcDbLayerTableRecord
  2
84
 70
     0
 62
     7
  6
CONTINUOUS
  0
LAYER
  5
C1
330
2
100
AcDbSymbolTableRecord
100
AcDbLayerTableRecord
  2
85
 70
     0
 62
     7
  6
CONTINUOUS
  0
LAYER
  5
C2
330
2
100
AcDbSymbolTableRecord
100
AcDbLayerTableRecord
  2
86
 70
     0
 62
     7
  6
CONTINUOUS
  0
LAYER
  5
C3
330
2
100
AcDbSymbolTableRecord
100
AcDbLayerTableRecord
  2
87
 70
     0
 62
     7
  6
CONTINUOUS
  0
LAYER
  5
C4
330
2
100
AcDbSymbolTableRecord
100
AcDbLayerTableRecord
  2
88
 70
     0
 62
     7
  6
CONTINUOUS
  0
LAYER
  5
C5
330
2
100
AcDbSymbolTableRecord
100
AcDbLayerTableRecord
  2
89
 70
     0
 62
     7
  6
CONTINUOUS
  0
LAYER
  5
C6
330
2
100
AcDbSymbolTableRecord
100
AcDbLayerTableRecord
  2
90
 70
     0
 62
     7
  6
CONTINUOUS
  0
LAYER
  5
C7
330
2
100
AcDbSymbolTableRecord
100
AcDbLayerTableRecord
  2
91
 70
     0
 62
     7
  6
CONTINUOUS
  0
LAYER
  5
C8
330
2
100
AcDbSymbolTableRecord
100
AcDbLayerTableRecord
  2
92
 70
     0
 62
     7
  6
CONTINUOUS
  0
LAYER
  5
C9
330
2
100
AcDbSymbolTableRecord
100
AcDbLayerTableRecord
  2
93
 70
     0
 62
     7
  6
CONTINUOUS
  0
LAYER
  5
CA
330
2
100
AcDbSymbolTableRecord
100
AcDbLayerTableRecord
  2
94
 70
     0
 62
     7
  6
CONTINUOUS
  0
LAYER
  5
CB
330
2
100
AcDbSymbolTableRecord
100
AcDbLayerTableRecord
  2
95
 70
     0
 62
     7
  6
CONTINUOUS
  0
LAYER
  5
CC
330
2
100
AcDbSymbolTableRecord
100
AcDbLayerTableRecord
  2
96
 70
     0
 62
     7
  6
CONTINUOUS
  0
LAYER
  5
CD
330
2
100
AcDbSymbolTableRecord
100
AcDbLayerTableRecord
  2
97
 70
     0
 62
     7
  6
CONTINUOUS
  0
LAYER
  5
CE
330
2
100
AcDbSymbolTableRecord
100
AcDbLayerTableRecord
  2
98
 70
     0
 62
     7
  6
CONTINUOUS
  0
LAYER
  5
CF
330
2
100
AcDbSymbolTableRecord
100
AcDbLayerTableRecord
  2
99
 70
     0
 62
     7
  6
CONTINUOUS
  0
LAYER
  5
D0
330
2
100
AcDbSymbolTableRecord
100
AcDbLayerTableRecord
  2
100
 70
     0
 62
     7
  6
CONTINUOUS
  0
LAYER
  5
D1
330
2
100
AcDbSymbolTableRecord
100
AcDbLayerTableRecord
  2
101
 70
     0
 62
     7
  6
CONTINUOUS
  0
LAYER
  5
D2
330
2
100
AcDbSymbolTableRecord
100
AcDbLayerTableRecord
  2
102
 70
     0
 62
     7
  6
CONTINUOUS
  0
LAYER
  5
D3
330
2
100
AcDbSymbolTableRecord
100
AcDbLayerTableRecord
  2
103
 70
     0
 62
     7
  6
CONTINUOUS
  0
LAYER
  5
D4
330
2
100
AcDbSymbolTableRecord
100
AcDbLayerTableRecord
  2
104
 70
     0
 62
     7
  6
CONTINUOUS
  0
LAYER
  5
D5
330
2
100
AcDbSymbolTableRecord
100
AcDbLayerTableRecord
  2
105
 70
     0
 62
     7
  6
CONTINUOUS
  0
LAYER
  5
D6
330
2
100
AcDbSymbolTableRecord
100
AcDbLayerTableRecord
  2
106
 70
     0
 62
     7
  6
CONTINUOUS
  0
LAYER
  5
D7
330
2
100
AcDbSymbolTableRecord
100
AcDbLayerTableRecord
  2
107
 70
     0
 62
     7
  6
CONTINUOUS
  0
LAYER
  5
D8
330
2
100
AcDbSymbolTableRecord
100
AcDbLayerTableRecord
  2
108
 70
     0
 62
     7
  6
CONTINUOUS
  0
LAYER
  5
D9
330
2
100
AcDbSymbolTableRecord
100
AcDbLayerTableRecord
  2
109
 70
     0
 62
     7
  6
CONTINUOUS
  0
LAYER
  5
DA
330
2
100
AcDbSymbolTableRecord
100
AcDbLayerTableRecord
  2
110
 70
     0
 62
     7
  6
CONTINUOUS
  0
LAYER
  5
DB
330
2
100
AcDbSymbolTableRecord
100
AcDbLayerTableRecord
  2
111
 70
     0
 62
     7
  6
CONTINUOUS
  0
LAYER
  5
DC
330
2
100
AcDbSymbolTableRecord
100
AcDbLayerTableRecord
  2
112
 70
     0
 62
     7
  6
CONTINUOUS
  0
LAYER
  5
DD
330
2
100
AcDbSymbolTableRecord
100
AcDbLayerTableRecord
  2
113
 70
     0
 62
     7
  6
CONTINUOUS
  0
LAYER
  5
DE
330
2
100
AcDbSymbolTableRecord
100
AcDbLayerTableRecord
  2
114
 70
     0
 62
     7
  6
CONTINUOUS
  0
LAYER
  5
DF
330
2
100
AcDbSymbolTableRecord
100
AcDbLayerTableRecord
  2
115
 70
     0
 62
     7
  6
CONTINUOUS
  0
LAYER
  5
E0
330
2
100
AcDbSymbolTableRecord
100
AcDbLayerTableRecord
  2
116
 70
     0
 62
     7
  6
CONTINUOUS
  0
LAYER
  5
E1
330
2
100
AcDbSymbolTableRecord
100
AcDbLayerTableRecord
  2
117
 70
     0
 62
     7
  6
CONTINUOUS
  0
LAYER
  5
E2
330
2
100
AcDbSymbolTableRecord
100
AcDbLayerTableRecord
  2
118
 70
     0
 62
     7
  6
CONTINUOUS
  0
LAYER
  5
E3
330
2
100
AcDbSymbolTableRecord
100
AcDbLayerTableRecord
  2
119
 70
     0
 62
     7
  6
CONTINUOUS
  0
LAYER
  5
E4
330
2
100
AcDbSymbolTableRecord
100
AcDbLayerTableRecord
  2
120
 70
     0
 62
     7
  6
CONTINUOUS
  0
LAYER
  5
E5
330
2
100
AcDbSymbolTableRecord
100
AcDbLayerTableRecord
  2
121
 70
     0
 62
     7
  6
CONTINUOUS
  0
LAYER
  5
E6
330
2
100
AcDbSymbolTableRecord
100
AcDbLayerTableRecord
  2
122
 70
     0
 62
     7
  6
CONTINUOUS
  0
LAYER
  5
E7
330
2
100
AcDbSymbolTableRecord
100
AcDbLayerTableRecord
  2
123
 70
     0
 62
     7
  6
CONTINUOUS
  0
LAYER
  5
E8
330
2
100
AcDbSymbolTableRecord
100
AcDbLayerTableRecord
  2
124
 70
     0
 62
     7
  6
CONTINUOUS
  0
LAYER
  5
E9
330
2
100
AcDbSymbolTableRecord
100
AcDbLayerTableRecord
  2
125
 70
     0
 62
     7
  6
CONTINUOUS
  0
LAYER
  5
EA
330
2
100
AcDbSymbolTableRecord
100
AcDbLayerTableRecord
  2
126
 70
     0
 62
     7
  6
CONTINUOUS
  0
LAYER
  5
EB
330
2
100
AcDbSymbolTableRecord
100
AcDbLayerTableRecord
  2
127
 70
     0
 62
     7
  6
CONTINUOUS
  0
LAYER
  5
EC
330
2
100
AcDbSymbolTableRecord
100
AcDbLayerTableRecord
  2
RCVIEWPORTFRAME
 70
     0
 62
    -7
  6
CONTINUOUS
  0
ENDTAB
  0
TABLE
  2
STYLE
  5
3
330
0
100
AcDbSymbolTable
 70
     4
  0
STYLE
  5
11
330
3
100
AcDbSymbolTableRecord
100
AcDbTextStyleTableRecord
  2
STANDARD
 70
     0
 40
0.0
 41
1.0
 50
0.0
 71
     0
 42
0.2
  3
txt.shx
  4
extfont
  0
STYLE
  5
ED
330
3
100
AcDbSymbolTableRecord
100
AcDbTextStyleTableRecord
  2
MS_PGOTHIC
 70
     0
 40
0.0
 41
1.0
 50
0.0
 71
     0
 42
0.2
  3
MS PGothic.ttf
  4

1001
ACAD
1000
ＭＳ Ｐゴシック
1071
    32818
  0
STYLE
  5
EE
330
3
100
AcDbSymbolTableRecord
100
AcDbTextStyleTableRecord
  2
VERTICAL
 70
     4
 40
0.0
 41
1.0
 50
0.0
 71
     0
 42
0.2
  3
txt.shx
  4
extfont
  0
STYLE
  5
EF
330
3
100
AcDbSymbolTableRecord
100
AcDbTextStyleTableRecord
  2
VERTICAL_MS_PGOTHIC
 70
     0
 40
0.0
 41
1.0
 50
0.0
 71
     0
 42
0.2
  3
MS PGothic.ttf
  4

1001
ACAD
1000
@ＭＳ Ｐゴシック
1071
    32818
  0
ENDTAB
  0
TABLE
  2
VIEW
  5
6
330
0
100
AcDbSymbolTable
 70
     0
  0
ENDTAB
  0
TABLE
  2
UCS
  5
7
330
0
100
AcDbSymbolTable
 70
     0
  0
ENDTAB
  0
TABLE
  2
APPID
  5
9
330
0
100
AcDbSymbolTable
 70
     2
  0
APPID
  5
12
330
9
100
AcDbSymbolTableRecord
100
AcDbRegAppTableRecord
  2
ACAD
 70
     0
  0
APPID
  5
6A
330
9
100
AcDbSymbolTableRecord
100
AcDbRegAppTableRecord
  2
ROOTPRO_CAD
 70
     0
  0
ENDTAB
  0
TABLE
  2
DIMSTYLE
  5
A
330
0
100
AcDbSymbolTable
 70
     1
  0
DIMSTYLE
105
27
330
A
100
AcDbSymbolTableRecord
100
AcDbDimStyleTableRecord
  2
STANDARD
 70
     0
  3

  4

  5

  6

  7

 40
1.0
 41
0.18
 42
0.0625
 43
0.38
 44
0.18
 45
0.0
 46
0.0
 47
0.0
 48
0.0
140
0.18
141
0.09
142
0.0
143
25.4
144
1.0
145
0.0
146
1.0
147
0.09
 71
     0
 72
     0
 73
     1
 74
     1
 75
     0
 76
     0
 77
     0
 78
     0
170
     0
171
     2
172
     0
173
     0
174
     0
175
     0
176
     0
177
     0
178
     0
270
     2
271
     4
272
     4
273
     2
274
     2
340
11
275
     0
280
     0
281
     0
282
     0
283
     1
284
     0
285
     0
286
     0
287
     3
288
     0
  0
ENDTAB
  0
TABLE
  2
BLOCK_RECORD
  5
1
330
0
100
AcDbSymbolTable
 70
     1
  0
BLOCK_RECORD
  5
1F
330
1
100
AcDbSymbolTableRecord
100
AcDbBlockTableRecord
  2
*MODEL_SPACE
  0
BLOCK_RECORD
  5
1B
330
1
100
AcDbSymbolTableRecord
100
AcDbBlockTableRecord
  2
*PAPER_SPACE
  0
ENDTAB
  0
ENDSEC
  0
SECTION
  2
BLOCKS
  0
BLOCK
  5
20
330
1F
100
AcDbEntity
  8
0
100
AcDbBlockBegin
  2
*MODEL_SPACE
 70
     0
 10
0.0
 20
0.0
 30
0.0
  3
*MODEL_SPACE
  1

  0
ENDBLK
  5
21
330
1F
100
AcDbEntity
  8
0
100
AcDbBlockEnd
  0
BLOCK
  5
1C
330
1B
100
AcDbEntity
 67
     1
  8
0
100
AcDbBlockBegin
  2
*PAPER_SPACE
 70
     0
 10
0.0
 20
0.0
 30
0.0
  3
*PAPER_SPACE
  1

  0
ENDBLK
  5
1D
330
1B
100
AcDbEntity
 67
     1
  8
0
100
AcDbBlockEnd
  0
ENDSEC
  0
SECTION
  2
ENTITIES
  0
POLYLINE
  5
F0
330
1F
100
AcDbEntity
  8
0
  6
CONTINUOUS
 62
     3
100
AcDb2dPolyline
 66
     1
 10
0.0
 20
0.0
 30
0.0
  0
VERTEX
  5
F1
330
F0
100
AcDbEntity
  8
0
100
AcDbVertex
100
AcDb2dVertex
 10
52.5
 20
114.25
 30
0.0
  0
VERTEX
  5
F2
330
F0
100
AcDbEntity
  8
0
100
AcDbVertex
100
AcDb2dVertex
 10
56.5
 20
114.25
 30
0.0
  0
VERTEX
  5
F3
330
F0
100
AcDbEntity
  8
0
100
AcDbVertex
100
AcDb2dVertex
 10
56.5
 20
114.75
 30
0.0
  0
VERTEX
  5
F4
330
F0
100
AcDbEntity
  8
0
100
AcDbVertex
100
AcDb2dVertex
 10
57.5
 20
114.75
 30
0.0
  0
SEQEND
  5
F5
330
F0
100
AcDbEntity
  8
0
  6
CONTINUOUS
 62
     3
  0
LINE
  5
F6
330
1F
100
AcDbEntity
  8
0
  6
CONTINUOUS
 62
     3
100
AcDbLine
 10
52.5
 20
114.25
 30
0.0
 11
48.5
 21
114.25
 31
0.0
  0
LINE
  5
F7
330
1F
100
AcDbEntity
  8
0
  6
CONTINUOUS
 62
     3
100
AcDbLine
 10
48.5
 20
114.25
 30
0.0
 11
48.5
 21
114.75
 31
0.0
  0
LINE
  5
F8
330
1F
100
AcDbEntity
  8
0
  6
CONTINUOUS
 62
     3
100
AcDbLine
 10
48.5
 20
114.75
 30
0.0
 11
47.5
 21
114.75
 31
0.0
  0
LINE
  5
F9
330
1F
100
AcDbEntity
  8
0
  6
CONTINUOUS
 62
     3
100
AcDbLine
 10
47.56
 20
79.25
 30
0.0
 11
57.5
 21
79.25
 31
0.0
  0
LINE
  5
FA
330
1F
100
AcDbEntity
  8
0
  6
CONTINUOUS
 62
     3
100
AcDbLine
 10
46.25
 20
116.25
 30
0.0
 11
50.55
 21
116.25
 31
0.0
  0
LINE
  5
FB
330
1F
100
AcDbEntity
  8
0
  6
CONTINUOUS
 62
     3
100
AcDbLine
 10
46.25
 20
97.75
 30
0.0
 11
58.75
 21
97.75
 31
0.0
  0
LINE
  5
FC
330
1F
100
AcDbEntity
  8
0
  6
CONTINUOUS
 62
     3
100
AcDbLine
 10
47.5
 20
116.25
 30
0.0
 11
47.5
 21
97.75
 31
0.0
  0
LINE
  5
FD
330
1F
100
AcDbEntity
  8
0
  6
CONTINUOUS
 62
     3
100
AcDbLine
 10
58.75
 20
116.25
 30
0.0
 11
47.5
 21
116.25
 31
0.0
  0
LINE
  5
FE
330
1F
100
AcDbEntity
  8
0
  6
CONTINUOUS
 62
     3
100
AcDbLine
 10
47.5
 20
117.75
 30
0.0
 11
47.5
 21
116.25
 31
0.0
  0
LINE
  5
FF
330
1F
100
AcDbEntity
  8
0
  6
CONTINUOUS
 62
     3
100
AcDbLine
 10
57.5
 20
117.75
 30
0.0
 11
57.5
 21
116.25
 31
0.0
  0
LINE
  5
100
330
1F
100
AcDbEntity
  8
0
  6
CONTINUOUS
 62
     3
100
AcDbLine
 10
55.65
 20
120.0
 30
0.0
 11
49.35
 21
120.0
 31
0.0
  0
LINE
  5
101
330
1F
100
AcDbEntity
  8
0
  6
CONTINUOUS
 62
     3
100
AcDbLine
 10
49.35
 20
120.0
 30
0.0
 11
49.35
 21
116.25
 31
0.0
  0
LINE
  5
102
330
1F
100
AcDbEntity
  8
0
  6
CONTINUOUS
 62
     3
100
AcDbLine
 10
52.5
 20
77.75
 30
0.0
 11
47.5
 21
77.75
 31
0.0
  0
LINE
  5
103
330
1F
100
AcDbEntity
  8
0
  6
CONTINUOUS
 62
     3
100
AcDbLine
 10
52.5
 20
77.75
 30
0.0
 11
57.5
 21
77.75
 31
0.0
  0
LINE
  5
104
330
1F
100
AcDbEntity
  8
0
  6
CONTINUOUS
 62
     3
100
AcDbLine
 10
57.5
 20
116.25
 30
0.0
 11
57.5
 21
77.75
 31
0.0
  0
POINT
  5
105
330
1F
100
AcDbEntity
  8
0
  6
CONTINUOUS
 62
     3
100
AcDbPoint
 10
52.5
 20
182.75
 30
0.0
  0
POINT
  5
106
330
1F
100
AcDbEntity
  8
0
  6
CONTINUOUS
 62
     3
100
AcDbPoint
 10
52.5
 20
182.75
 30
0.0
  0
POINT
  5
107
330
1F
100
AcDbEntity
  8
0
  6
LTYPE1
 62
     1
100
AcDbPoint
 10
52.5
 20
178.5
 30
0.0
  0
LINE
  5
108
330
1F
100
AcDbEntity
  8
0
  6
CONTINUOUS
 62
     1
100
AcDbLine
 10
52.5
 20
183.495057685
 30
0.0
 11
52.504942315
 21
183.5
 31
0.0
  0
LINE
  5
109
330
1F
100
AcDbEntity
  8
0
  6
CONTINUOUS
 62
     1
100
AcDbLine
 10
58.75
 20
134.590728753
 30
0.0
 11
58.659271247
 21
134.5
 31
0.0
  0
LINE
  5
10A
330
1F
100
AcDbEntity
  8
0
  6
CONTINUOUS
 62
     3
100
AcDbLine
 10
52.5
 20
184.0
 30
0.0
 11
52.5
 21
182.5
 31
0.0
  0
LINE
  5
10B
330
1F
100
AcDbEntity
  8
0
  6
CONTINUOUS
 62
     3
100
AcDbLine
 10
52.5
 20
134.5
 30
0.0
 11
58.75
 21
134.5
 31
0.0
  0
LINE
  5
10C
330
1F
100
AcDbEntity
  8
0
  6
CONTINUOUS
 62
     3
100
AcDbLine
 10
52.5
 20
130.5
 30
0.0
 11
52.5
 21
134.5
 31
0.0
  0
LINE
  5
10D
330
1F
100
AcDbEntity
  8
0
  6
CONTINUOUS
 62
     3
100
AcDbLine
 10
58.75
 20
130.5
 30
0.0
 11
52.5
 21
130.5
 31
0.0
  0
LINE
  5
10E
330
1F
100
AcDbEntity
  8
0
  6
CONTINUOUS
 62
     3
100
AcDbLine
 10
55.5
 20
134.5
 30
0.0
 11
55.5
 21
130.5
 31
0.0
  0
LINE
  5
10F
330
1F
100
AcDbEntity
  8
0
  6
CONTINUOUS
 62
     3
100
AcDbLine
 10
57.25
 20
116.25
 30
0.0
 11
58.75
 21
116.25
 31
0.0
  0
LINE
  5
110
330
1F
100
AcDbEntity
  8
0
  6
CONTINUOUS
 62
     3
100
AcDbLine
 10
52.5
 20
137.85
 30
0.0
 11
52.5
 21
145.1
 31
0.0
  0
LINE
  5
111
330
1F
100
AcDbEntity
  8
0
  6
CONTINUOUS
 62
     3
100
AcDbLine
 10
58.75
 20
143.1
 30
0.0
 11
58.75
 21
116.25
 31
0.0
  0
LINE
  5
112
330
1F
100
AcDbEntity
  8
0
  6
CONTINUOUS
 62
     3
100
AcDbLine
 10
58.25
 20
184.0
 30
0.0
 11
52.5
 21
184.0
 31
0.0
  0
LINE
  5
113
330
1F
100
AcDbEntity
  8
0
  6
CONTINUOUS
 62
     3
100
AcDbLine
 10
52.5
 20
144.55
 30
0.0
 11
52.5
 21
182.5
 31
0.0
  0
POLYLINE
  5
114
330
1F
100
AcDbEntity
  8
0
  6
CONTINUOUS
 62
     3
100
AcDb2dPolyline
 66
     1
 10
0.0
 20
0.0
 30
0.0
  0
VERTEX
  5
115
330
114
100
AcDbEntity
  8
0
100
AcDbVertex
100
AcDb2dVertex
 10
52.5
 20
183.5
 30
0.0
  0
VERTEX
  5
116
330
114
100
AcDbEntity
  8
0
100
AcDbVertex
100
AcDb2dVertex
 10
52.5
 20
182.75
 30
0.0
  0
SEQEND
  5
117
330
114
100
AcDbEntity
  8
0
  6
CONTINUOUS
 62
     3
  0
POINT
  5
118
330
1F
100
AcDbEntity
  8
0
  6
LTYPE1
 62
     1
100
AcDbPoint
 10
52.5
 20
178.5
 30
0.0
  0
LINE
  5
119
330
1F
100
AcDbEntity
  8
0
  6
LTYPE1
 62
     1
100
AcDbLine
 10
49.5
 20
120.0
 30
0.0
 11
49.5
 21
122.672
 31
0.0
  0
LINE
  5
11A
330
1F
100
AcDbEntity
  8
0
  6
LTYPE1
 62
     1
100
AcDbLine
 10
49.5
 20
123.5
 30
0.0
 11
49.5
 21
122.672
 31
0.0
  0
LINE
  5
11B
330
1F
100
AcDbEntity
  8
0
  6
CONTINUOUS
 62
     3
100
AcDbLine
 10
55.0
 20
134.25
 30
0.0
 11
55.0
 21
130.75
 31
0.0
  0
LINE
  5
11C
330
1F
100
AcDbEntity
  8
0
  6
CONTINUOUS
 62
     3
100
AcDbLine
 10
55.0
 20
134.25
 30
0.0
 11
52.5
 21
134.25
 31
0.0
  0
LINE
  5
11D
330
1F
100
AcDbEntity
  8
0
  6
CONTINUOUS
 62
     3
100
AcDbLine
 10
55.0
 20
130.75
 30
0.0
 11
52.5
 21
130.75
 31
0.0
  0
LINE
  5
11E
330
1F
100
AcDbEntity
  8
0
  6
CONTINUOUS
 62
     3
100
AcDbLine
 10
52.5
 20
130.75
 30
0.0
 11
52.5
 21
134.25
 31
0.0
  0
LINE
  5
11F
330
1F
100
AcDbEntity
  8
0
  6
CONTINUOUS
 62
     3
100
AcDbLine
 10
55.5
 20
120.0
 30
0.0
 11
55.5
 21
116.75
 31
0.0
  0
LINE
  5
120
330
1F
100
AcDbEntity
  8
0
  6
CONTINUOUS
 62
     3
100
AcDbLine
 10
52.5
 20
149.342
 30
0.0
 11
52.5
 21
184.0
 31
0.0
  0
LINE
  5
121
330
1F
100
AcDbEntity
  8
0
  6
CONTINUOUS
 62
     3
100
AcDbLine
 10
55.5
 20
118.5
 30
0.0
 11
49.5
 21
118.5
 31
0.0
  0
LINE
  5
122
330
1F
100
AcDbEntity
  8
0
  6
CONTINUOUS
 62
     3
100
AcDbLine
 10
55.5
 20
116.75
 30
0.0
 11
49.5
 21
116.75
 31
0.0
  0
LINE
  5
123
330
1F
100
AcDbEntity
  8
0
  6
CONTINUOUS
 62
     3
100
AcDbLine
 10
49.5
 20
116.75
 30
0.0
 11
49.5
 21
129.75
 31
0.0
  0
LINE
  5
124
330
1F
100
AcDbEntity
  8
0
  6
CONTINUOUS
 62
     3
100
AcDbLine
 10
49.5
 20
129.75
 30
0.0
 11
49.5
 21
130.75
 31
0.0
  0
LINE
  5
125
330
1F
100
AcDbEntity
  8
0
  6
CONTINUOUS
 62
     3
100
AcDbLine
 10
49.5
 20
134.25
 30
0.0
 11
49.5
 21
135.25
 31
0.0
  0
LINE
  5
126
330
1F
100
AcDbEntity
  8
0
  6
CONTINUOUS
 62
     3
100
AcDbLine
 10
55.5
 20
120.0
 30
0.0
 11
53.5
 21
120.0
 31
0.0
  0
LINE
  5
127
330
1F
100
AcDbEntity
  8
0
  6
CONTINUOUS
 62
     3
100
AcDbLine
 10
53.5
 20
120.0
 30
0.0
 11
49.35
 21
120.0
 31
0.0
  0
LINE
  5
128
330
1F
100
AcDbEntity
  8
0
  6
CONTINUOUS
 62
     3
100
AcDbLine
 10
46.75
 20
184.0
 30
0.0
 11
52.5
 21
184.0
 31
0.0
  0
LINE
  5
129
330
1F
100
AcDbEntity
  8
0
  6
CONTINUOUS
 62
     3
100
AcDbLine
 10
46.25
 20
183.0
 30
0.0
 11
46.25
 21
149.342
 31
0.0
  0
LINE
  5
12A
330
1F
100
AcDbEntity
  8
0
  6
CONTINUOUS
 62
     3
100
AcDbLine
 10
46.75
 20
184.0
 30
0.0
 11
46.25
 21
183.0
 31
0.0
  0
LINE
  5
12B
330
1F
100
AcDbEntity
  8
0
  6
CONTINUOUS
 62
     3
100
AcDbLine
 10
46.25
 20
149.765
 30
0.0
 11
46.25
 21
122.672
 31
0.0
  0
LINE
  5
12C
330
1F
100
AcDbEntity
  8
0
  6
CONTINUOUS
 62
     3
100
AcDbLine
 10
46.25
 20
122.672
 30
0.0
 11
46.25
 21
116.25
 31
0.0
  0
LINE
  5
12D
330
1F
100
AcDbEntity
  8
0
  6
CONTINUOUS
 62
     3
100
AcDbLine
 10
47.75
 20
116.25
 30
0.0
 11
46.25
 21
116.25
 31
0.0
  0
LINE
  5
12E
330
1F
100
AcDbEntity
  8
0
  6
CONTINUOUS
 62
     3
100
AcDbLine
 10
52.5
 20
137.85
 30
0.0
 11
46.25
 21
137.85
 31
0.0
  0
LINE
  5
12F
330
1F
100
AcDbEntity
  8
0
  6
CONTINUOUS
 62
     3
100
AcDbLine
 10
49.5
 20
130.25
 30
0.0
 11
46.2
 21
130.25
 31
0.0
  0
LINE
  5
130
330
1F
100
AcDbEntity
  8
0
  6
CONTINUOUS
 62
     6
100
AcDbLine
 10
46.75
 20
139.25
 30
0.0
 11
46.75
 21
137.85
 31
0.0
  0
LINE
  5
131
330
1F
100
AcDbEntity
  8
0
  6
CONTINUOUS
 62
     3
100
AcDbLine
 10
58.75
 20
156.75
 30
0.0
 11
55.3
 21
156.75
 31
0.0
  0
LINE
  5
132
330
1F
100
AcDbEntity
  8
0
  6
CONTINUOUS
 62
     3
100
AcDbLine
 10
57.25
 20
172.75
 30
0.0
 11
57.25
 21
170.75
 31
0.0
  0
LINE
  5
133
330
1F
100
AcDbEntity
  8
0
  6
CONTINUOUS
 62
     3
100
AcDbLine
 10
57.25
 20
176.25
 30
0.0
 11
57.25
 21
174.25
 31
0.0
  0
LINE
  5
134
330
1F
100
AcDbEntity
  8
0
  6
CONTINUOUS
 62
     6
100
AcDbLine
 10
58.25
 20
172.75
 30
0.0
 11
58.25
 21
174.25
 31
0.0
  0
LINE
  5
135
330
1F
100
AcDbEntity
  8
0
  6
CONTINUOUS
 62
     3
100
AcDbLine
 10
57.25
 20
169.25
 30
0.0
 11
57.25
 21
167.75
 31
0.0
  0
LINE
  5
136
330
1F
100
AcDbEntity
  8
0
  6
CONTINUOUS
 62
     3
100
AcDbLine
 10
57.25
 20
167.75
 30
0.0
 11
57.25
 21
167.25
 31
0.0
  0
LINE
  5
137
330
1F
100
AcDbEntity
  8
0
  6
CONTINUOUS
 62
     3
100
AcDbLine
 10
57.25
 20
165.75
 30
0.0
 11
57.25
 21
163.75
 31
0.0
  0
LINE
  5
138
330
1F
100
AcDbEntity
  8
0
  6
CONTINUOUS
 62
     3
100
AcDbLine
 10
57.25
 20
162.25
 30
0.0
 11
57.25
 21
160.25
 31
0.0
  0
LINE
  5
139
330
1F
100
AcDbEntity
  8
0
  6
CONTINUOUS
 62
     3
100
AcDbLine
 10
57.25
 20
158.718
 30
0.0
 11
57.25
 21
156.75
 31
0.0
  0
LINE
  5
13A
330
1F
100
AcDbEntity
  8
0
  6
CONTINUOUS
 62
     3
100
AcDbLine
 10
57.25
 20
155.25
 30
0.0
 11
57.25
 21
153.25
 31
0.0
  0
LINE
  5
13B
330
1F
100
AcDbEntity
  8
0
  6
CONTINUOUS
 62
     3
100
AcDbLine
 10
57.25
 20
151.75
 30
0.0
 11
57.25
 21
149.75
 31
0.0
  0
LINE
  5
13C
330
1F
100
AcDbEntity
  8
0
  6
CONTINUOUS
 62
     3
100
AcDbLine
 10
57.25
 20
148.25
 30
0.0
 11
57.25
 21
146.25
 31
0.0
  0
LINE
  5
13D
330
1F
100
AcDbEntity
  8
0
  6
CONTINUOUS
 62
     3
100
AcDbLine
 10
57.25
 20
144.75
 30
0.0
 11
57.25
 21
142.75
 31
0.0
  0
LINE
  5
13E
330
1F
100
AcDbEntity
  8
0
  6
CONTINUOUS
 62
     3
100
AcDbLine
 10
57.25
 20
141.25
 30
0.0
 11
57.25
 21
139.25
 31
0.0
  0
LINE
  5
13F
330
1F
100
AcDbEntity
  8
0
  6
CONTINUOUS
 62
     3
100
AcDbLine
 10
55.3
 20
139.25
 30
0.0
 11
58.75
 21
139.25
 31
0.0
  0
LINE
  5
140
330
1F
100
AcDbEntity
  8
0
  6
CONTINUOUS
 62
     3
100
AcDbLine
 10
46.25
 20
156.75
 30
0.0
 11
49.7
 21
156.75
 31
0.0
  0
LINE
  5
141
330
1F
100
AcDbEntity
  8
0
  6
CONTINUOUS
 62
     3
100
AcDbLine
 10
47.75
 20
172.75
 30
0.0
 11
47.75
 21
170.75
 31
0.0
  0
LINE
  5
142
330
1F
100
AcDbEntity
  8
0
  6
CONTINUOUS
 62
     3
100
AcDbLine
 10
47.75
 20
176.25
 30
0.0
 11
47.75
 21
174.25
 31
0.0
  0
LINE
  5
143
330
1F
100
AcDbEntity
  8
0
  6
CONTINUOUS
 62
     6
100
AcDbLine
 10
46.75
 20
172.75
 30
0.0
 11
46.75
 21
174.25
 31
0.0
  0
LINE
  5
144
330
1F
100
AcDbEntity
  8
0
  6
CONTINUOUS
 62
     3
100
AcDbLine
 10
47.75
 20
169.25
 30
0.0
 11
47.75
 21
167.75
 31
0.0
  0
LINE
  5
145
330
1F
100
AcDbEntity
  8
0
  6
CONTINUOUS
 62
     3
100
AcDbLine
 10
47.75
 20
167.75
 30
0.0
 11
47.75
 21
167.25
 31
0.0
  0
LINE
  5
146
330
1F
100
AcDbEntity
  8
0
  6
CONTINUOUS
 62
     3
100
AcDbLine
 10
47.75
 20
165.75
 30
0.0
 11
47.75
 21
163.75
 31
0.0
  0
LINE
  5
147
330
1F
100
AcDbEntity
  8
0
  6
CONTINUOUS
 62
     3
100
AcDbLine
 10
47.75
 20
162.25
 30
0.0
 11
47.75
 21
160.25
 31
0.0
  0
LINE
  5
148
330
1F
100
AcDbEntity
  8
0
  6
CONTINUOUS
 62
     3
100
AcDbLine
 10
47.75
 20
158.718
 30
0.0
 11
47.75
 21
156.75
 31
0.0
  0
LINE
  5
149
330
1F
100
AcDbEntity
  8
0
  6
CONTINUOUS
 62
     3
100
AcDbLine
 10
47.75
 20
155.25
 30
0.0
 11
47.75
 21
153.25
 31
0.0
  0
LINE
  5
14A
330
1F
100
AcDbEntity
  8
0
  6
CONTINUOUS
 62
     3
100
AcDbLine
 10
47.75
 20
151.75
 30
0.0
 11
47.75
 21
149.75
 31
0.0
  0
LINE
  5
14B
330
1F
100
AcDbEntity
  8
0
  6
CONTINUOUS
 62
     3
100
AcDbLine
 10
47.75
 20
148.25
 30
0.0
 11
47.75
 21
146.25
 31
0.0
  0
LINE
  5
14C
330
1F
100
AcDbEntity
  8
0
  6
CONTINUOUS
 62
     3
100
AcDbLine
 10
47.75
 20
144.75
 30
0.0
 11
47.75
 21
142.75
 31
0.0
  0
LINE
  5
14D
330
1F
100
AcDbEntity
  8
0
  6
CONTINUOUS
 62
     3
100
AcDbLine
 10
47.75
 20
141.25
 30
0.0
 11
47.75
 21
139.25
 31
0.0
  0
LINE
  5
14E
330
1F
100
AcDbEntity
  8
0
  6
CONTINUOUS
 62
     3
100
AcDbLine
 10
49.7
 20
139.25
 30
0.0
 11
46.25
 21
139.25
 31
0.0
  0
LINE
  5
14F
330
1F
100
AcDbEntity
  8
0
  6
CONTINUOUS
 62
     6
100
AcDbLine
 10
46.75
 20
174.25
 30
0.0
 11
46.75
 21
172.75
 31
0.0
  0
LINE
  5
150
330
1F
100
AcDbEntity
  8
0
  6
CONTINUOUS
 62
     6
100
AcDbLine
 10
46.75
 20
170.75
 30
0.0
 11
46.75
 21
169.25
 31
0.0
  0
LINE
  5
151
330
1F
100
AcDbEntity
  8
0
  6
CONTINUOUS
 62
     6
100
AcDbLine
 10
46.75
 20
167.25
 30
0.0
 11
46.75
 21
165.75
 31
0.0
  0
LINE
  5
152
330
1F
100
AcDbEntity
  8
0
  6
CONTINUOUS
 62
     6
100
AcDbLine
 10
46.75
 20
141.25
 30
0.0
 11
46.75
 21
142.75
 31
0.0
  0
LINE
  5
153
330
1F
100
AcDbEntity
  8
0
  6
CONTINUOUS
 62
     6
100
AcDbLine
 10
46.75
 20
144.75
 30
0.0
 11
46.75
 21
146.25
 31
0.0
  0
LINE
  5
154
330
1F
100
AcDbEntity
  8
0
  6
CONTINUOUS
 62
     6
100
AcDbLine
 10
46.75
 20
148.25
 30
0.0
 11
46.75
 21
149.75
 31
0.0
  0
LINE
  5
155
330
1F
100
AcDbEntity
  8
0
  6
CONTINUOUS
 62
     6
100
AcDbLine
 10
46.75
 20
151.75
 30
0.0
 11
46.75
 21
153.25
 31
0.0
  0
LINE
  5
156
330
1F
100
AcDbEntity
  8
0
  6
CONTINUOUS
 62
     6
100
AcDbLine
 10
46.75
 20
162.25
 30
0.0
 11
46.75
 21
163.75
 31
0.0
  0
LINE
  5
157
330
1F
100
AcDbEntity
  8
0
  6
CONTINUOUS
 62
     6
100
AcDbLine
 10
46.75
 20
158.75
 30
0.0
 11
46.75
 21
160.25
 31
0.0
  0
LINE
  5
158
330
1F
100
AcDbEntity
  8
0
  6
CONTINUOUS
 62
     6
100
AcDbLine
 10
46.75
 20
155.25
 30
0.0
 11
46.75
 21
156.75
 31
0.0
  0
LINE
  5
159
330
1F
100
AcDbEntity
  8
0
  6
CONTINUOUS
 62
     6
100
AcDbLine
 10
58.25
 20
170.75
 30
0.0
 11
58.25
 21
169.25
 31
0.0
  0
LINE
  5
15A
330
1F
100
AcDbEntity
  8
0
  6
CONTINUOUS
 62
     6
100
AcDbLine
 10
58.25
 20
167.25
 30
0.0
 11
58.25
 21
165.75
 31
0.0
  0
LINE
  5
15B
330
1F
100
AcDbEntity
  8
0
  6
CONTINUOUS
 62
     6
100
AcDbLine
 10
58.25
 20
163.75
 30
0.0
 11
58.25
 21
162.25
 31
0.0
  0
LINE
  5
15C
330
1F
100
AcDbEntity
  8
0
  6
CONTINUOUS
 62
     6
100
AcDbLine
 10
58.25
 20
160.25
 30
0.0
 11
58.25
 21
158.75
 31
0.0
  0
LINE
  5
15D
330
1F
100
AcDbEntity
  8
0
  6
CONTINUOUS
 62
     6
100
AcDbLine
 10
58.25
 20
156.75
 30
0.0
 11
58.25
 21
155.25
 31
0.0
  0
LINE
  5
15E
330
1F
100
AcDbEntity
  8
0
  6
CONTINUOUS
 62
     6
100
AcDbLine
 10
58.25
 20
153.25
 30
0.0
 11
58.25
 21
151.75
 31
0.0
  0
LINE
  5
15F
330
1F
100
AcDbEntity
  8
0
  6
CONTINUOUS
 62
     6
100
AcDbLine
 10
58.25
 20
149.75
 30
0.0
 11
58.25
 21
148.25
 31
0.0
  0
LINE
  5
160
330
1F
100
AcDbEntity
  8
0
  6
CONTINUOUS
 62
     6
100
AcDbLine
 10
58.25
 20
146.25
 30
0.0
 11
58.25
 21
144.75
 31
0.0
  0
LINE
  5
161
330
1F
100
AcDbEntity
  8
0
  6
CONTINUOUS
 62
     6
100
AcDbLine
 10
58.25
 20
142.75
 30
0.0
 11
58.25
 21
141.25
 31
0.0
  0
LINE
  5
162
330
1F
100
AcDbEntity
  8
0
  6
CONTINUOUS
 62
     3
100
AcDbLine
 10
58.75
 20
183.0
 30
0.0
 11
58.75
 21
142.55
 31
0.0
  0
LINE
  5
163
330
1F
100
AcDbEntity
  8
0
  6
CONTINUOUS
 62
     3
100
AcDbLine
 10
58.25
 20
184.0
 30
0.0
 11
58.75
 21
183.0
 31
0.0
  0
LINE
  5
164
330
1F
100
AcDbEntity
  8
0
  6
CONTINUOUS
 62
     3
100
AcDbLine
 10
52.5
 20
137.85
 30
0.0
 11
50.0
 21
137.85
 31
0.0
  0
LINE
  5
165
330
1F
100
AcDbEntity
  8
0
  6
CONTINUOUS
 62
     3
100
AcDbLine
 10
49.5
 20
123.75
 30
0.0
 11
49.5
 21
137.35
 31
0.0
  0
ARC
  5
166
330
1F
100
AcDbEntity
  8
0
  6
CONTINUOUS
 62
     3
100
AcDbCircle
 10
50.0
 20
137.35
 30
0.0
 40
0.5
100
AcDbArc
 50
90.0
 51
180.0
  0
LINE
  5
167
330
1F
100
AcDbEntity
  8
0
  6
CONTINUOUS
 62
     3
100
AcDbLine
 10
55.0
 20
165.75
 30
0.0
 11
55.0
 21
163.75
 31
0.0
  0
LINE
  5
168
330
1F
100
AcDbEntity
  8
0
  6
CONTINUOUS
 62
     3
100
AcDbLine
 10
55.0
 20
169.25
 30
0.0
 11
55.0
 21
167.25
 31
0.0
  0
LINE
  5
169
330
1F
100
AcDbEntity
  8
0
  6
CONTINUOUS
 62
     3
100
AcDbLine
 10
55.0
 20
172.75
 30
0.0
 11
55.0
 21
170.75
 31
0.0
  0
LINE
  5
16A
330
1F
100
AcDbEntity
  8
0
  6
CONTINUOUS
 62
     3
100
AcDbLine
 10
55.0
 20
176.25
 30
0.0
 11
55.0
 21
174.25
 31
0.0
  0
LINE
  5
16B
330
1F
100
AcDbEntity
  8
0
  6
CONTINUOUS
 62
     3
100
AcDbLine
 10
55.0
 20
158.75
 30
0.0
 11
55.0
 21
156.75
 31
0.0
  0
LINE
  5
16C
330
1F
100
AcDbEntity
  8
0
  6
CONTINUOUS
 62
     3
100
AcDbLine
 10
55.0
 20
156.75
 30
0.0
 11
57.0
 21
156.75
 31
0.0
  0
LINE
  5
16D
330
1F
100
AcDbEntity
  8
0
  6
CONTINUOUS
 62
     3
100
AcDbLine
 10
55.0
 20
162.25
 30
0.0
 11
55.0
 21
160.25
 31
0.0
  0
LINE
  5
16E
330
1F
100
AcDbEntity
  8
0
  6
CONTINUOUS
 62
     3
100
AcDbLine
 10
55.0
 20
155.25
 30
0.0
 11
55.0
 21
153.25
 31
0.0
  0
LINE
  5
16F
330
1F
100
AcDbEntity
  8
0
  6
CONTINUOUS
 62
     3
100
AcDbLine
 10
55.0
 20
151.75
 30
0.0
 11
55.0
 21
149.75
 31
0.0
  0
LINE
  5
170
330
1F
100
AcDbEntity
  8
0
  6
CONTINUOUS
 62
     3
100
AcDbLine
 10
55.0
 20
148.25
 30
0.0
 11
55.0
 21
146.25
 31
0.0
  0
LINE
  5
171
330
1F
100
AcDbEntity
  8
0
  6
CONTINUOUS
 62
     3
100
AcDbLine
 10
55.0
 20
144.75
 30
0.0
 11
55.0
 21
142.75
 31
0.0
  0
LINE
  5
172
330
1F
100
AcDbEntity
  8
0
  6
CONTINUOUS
 62
     3
100
AcDbLine
 10
55.0
 20
141.25
 30
0.0
 11
55.0
 21
139.25
 31
0.0
  0
LINE
  5
173
330
1F
100
AcDbEntity
  8
0
  6
CONTINUOUS
 62
     3
100
AcDbLine
 10
55.0
 20
139.25
 30
0.0
 11
57.0
 21
139.25
 31
0.0
  0
LINE
  5
174
330
1F
100
AcDbEntity
  8
0
  6
CONTINUOUS
 62
     3
100
AcDbLine
 10
55.0
 20
176.25
 30
0.0
 11
58.75
 21
176.25
 31
0.0
  0
LINE
  5
175
330
1F
100
AcDbEntity
  8
0
  6
CONTINUOUS
 62
     3
100
AcDbLine
 10
55.0
 20
174.25
 30
0.0
 11
58.75
 21
174.25
 31
0.0
  0
LINE
  5
176
330
1F
100
AcDbEntity
  8
0
  6
CONTINUOUS
 62
     3
100
AcDbLine
 10
55.0
 20
170.75
 30
0.0
 11
58.75
 21
170.75
 31
0.0
  0
LINE
  5
177
330
1F
100
AcDbEntity
  8
0
  6
CONTINUOUS
 62
     3
100
AcDbLine
 10
55.0
 20
169.25
 30
0.0
 11
58.75
 21
169.25
 31
0.0
  0
LINE
  5
178
330
1F
100
AcDbEntity
  8
0
  6
CONTINUOUS
 62
     3
100
AcDbLine
 10
55.0
 20
167.25
 30
0.0
 11
58.75
 21
167.25
 31
0.0
  0
LINE
  5
179
330
1F
100
AcDbEntity
  8
0
  6
CONTINUOUS
 62
     3
100
AcDbLine
 10
55.0
 20
165.75
 30
0.0
 11
58.75
 21
165.75
 31
0.0
  0
LINE
  5
17A
330
1F
100
AcDbEntity
  8
0
  6
CONTINUOUS
 62
     3
100
AcDbLine
 10
55.0
 20
163.75
 30
0.0
 11
58.75
 21
163.75
 31
0.0
  0
LINE
  5
17B
330
1F
100
AcDbEntity
  8
0
  6
CONTINUOUS
 62
     3
100
AcDbLine
 10
55.0
 20
162.25
 30
0.0
 11
58.75
 21
162.25
 31
0.0
  0
LINE
  5
17C
330
1F
100
AcDbEntity
  8
0
  6
CONTINUOUS
 62
     3
100
AcDbLine
 10
55.0
 20
160.25
 30
0.0
 11
58.75
 21
160.25
 31
0.0
  0
LINE
  5
17D
330
1F
100
AcDbEntity
  8
0
  6
CONTINUOUS
 62
     3
100
AcDbLine
 10
55.0
 20
158.75
 30
0.0
 11
58.75
 21
158.75
 31
0.0
  0
LINE
  5
17E
330
1F
100
AcDbEntity
  8
0
  6
CONTINUOUS
 62
     3
100
AcDbLine
 10
55.0
 20
155.25
 30
0.0
 11
58.75
 21
155.25
 31
0.0
  0
LINE
  5
17F
330
1F
100
AcDbEntity
  8
0
  6
CONTINUOUS
 62
     3
100
AcDbLine
 10
55.0
 20
153.25
 30
0.0
 11
58.75
 21
153.25
 31
0.0
  0
LINE
  5
180
330
1F
100
AcDbEntity
  8
0
  6
CONTINUOUS
 62
     3
100
AcDbLine
 10
55.0
 20
151.75
 30
0.0
 11
58.75
 21
151.75
 31
0.0
  0
LINE
  5
181
330
1F
100
AcDbEntity
  8
0
  6
CONTINUOUS
 62
     3
100
AcDbLine
 10
55.0
 20
149.75
 30
0.0
 11
58.75
 21
149.75
 31
0.0
  0
LINE
  5
182
330
1F
100
AcDbEntity
  8
0
  6
CONTINUOUS
 62
     3
100
AcDbLine
 10
55.0
 20
148.25
 30
0.0
 11
58.75
 21
148.25
 31
0.0
  0
LINE
  5
183
330
1F
100
AcDbEntity
  8
0
  6
CONTINUOUS
 62
     3
100
AcDbLine
 10
55.0
 20
146.25
 30
0.0
 11
58.75
 21
146.25
 31
0.0
  0
LINE
  5
184
330
1F
100
AcDbEntity
  8
0
  6
CONTINUOUS
 62
     3
100
AcDbLine
 10
55.0
 20
144.75
 30
0.0
 11
58.75
 21
144.75
 31
0.0
  0
LINE
  5
185
330
1F
100
AcDbEntity
  8
0
  6
CONTINUOUS
 62
     3
100
AcDbLine
 10
55.0
 20
142.75
 30
0.0
 11
58.75
 21
142.75
 31
0.0
  0
LINE
  5
186
330
1F
100
AcDbEntity
  8
0
  6
CONTINUOUS
 62
     3
100
AcDbLine
 10
55.0
 20
141.25
 30
0.0
 11
58.75
 21
141.25
 31
0.0
  0
LINE
  5
187
330
1F
100
AcDbEntity
  8
0
  6
CONTINUOUS
 62
     3
100
AcDbLine
 10
55.0
 20
172.75
 30
0.0
 11
58.75
 21
172.75
 31
0.0
  0
LINE
  5
188
330
1F
100
AcDbEntity
  8
0
  6
CONTINUOUS
 62
     3
100
AcDbLine
 10
50.0
 20
165.75
 30
0.0
 11
50.0
 21
163.75
 31
0.0
  0
LINE
  5
189
330
1F
100
AcDbEntity
  8
0
  6
CONTINUOUS
 62
     3
100
AcDbLine
 10
50.0
 20
169.25
 30
0.0
 11
50.0
 21
167.25
 31
0.0
  0
LINE
  5
18A
330
1F
100
AcDbEntity
  8
0
  6
CONTINUOUS
 62
     3
100
AcDbLine
 10
50.0
 20
172.75
 30
0.0
 11
50.0
 21
170.75
 31
0.0
  0
LINE
  5
18B
330
1F
100
AcDbEntity
  8
0
  6
CONTINUOUS
 62
     3
100
AcDbLine
 10
50.0
 20
176.25
 30
0.0
 11
50.0
 21
174.25
 31
0.0
  0
LINE
  5
18C
330
1F
100
AcDbEntity
  8
0
  6
CONTINUOUS
 62
     3
100
AcDbLine
 10
50.0
 20
158.75
 30
0.0
 11
50.0
 21
156.75
 31
0.0
  0
LINE
  5
18D
330
1F
100
AcDbEntity
  8
0
  6
CONTINUOUS
 62
     3
100
AcDbLine
 10
50.0
 20
156.75
 30
0.0
 11
48.0
 21
156.75
 31
0.0
  0
LINE
  5
18E
330
1F
100
AcDbEntity
  8
0
  6
CONTINUOUS
 62
     3
100
AcDbLine
 10
50.0
 20
162.25
 30
0.0
 11
50.0
 21
160.25
 31
0.0
  0
LINE
  5
18F
330
1F
100
AcDbEntity
  8
0
  6
CONTINUOUS
 62
     3
100
AcDbLine
 10
50.0
 20
155.25
 30
0.0
 11
50.0
 21
153.25
 31
0.0
  0
LINE
  5
190
330
1F
100
AcDbEntity
  8
0
  6
CONTINUOUS
 62
     3
100
AcDbLine
 10
50.0
 20
151.75
 30
0.0
 11
50.0
 21
149.75
 31
0.0
  0
LINE
  5
191
330
1F
100
AcDbEntity
  8
0
  6
CONTINUOUS
 62
     3
100
AcDbLine
 10
50.0
 20
148.25
 30
0.0
 11
50.0
 21
146.25
 31
0.0
  0
LINE
  5
192
330
1F
100
AcDbEntity
  8
0
  6
CONTINUOUS
 62
     3
100
AcDbLine
 10
50.0
 20
144.75
 30
0.0
 11
50.0
 21
142.75
 31
0.0
  0
LINE
  5
193
330
1F
100
AcDbEntity
  8
0
  6
CONTINUOUS
 62
     3
100
AcDbLine
 10
50.0
 20
141.25
 30
0.0
 11
50.0
 21
139.25
 31
0.0
  0
LINE
  5
194
330
1F
100
AcDbEntity
  8
0
  6
CONTINUOUS
 62
     3
100
AcDbLine
 10
50.0
 20
139.25
 30
0.0
 11
48.0
 21
139.25
 31
0.0
  0
LINE
  5
195
330
1F
100
AcDbEntity
  8
0
  6
CONTINUOUS
 62
     3
100
AcDbLine
 10
50.0
 20
176.25
 30
0.0
 11
46.25
 21
176.25
 31
0.0
  0
LINE
  5
196
330
1F
100
AcDbEntity
  8
0
  6
CONTINUOUS
 62
     3
100
AcDbLine
 10
50.0
 20
174.25
 30
0.0
 11
46.25
 21
174.25
 31
0.0
  0
LINE
  5
197
330
1F
100
AcDbEntity
  8
0
  6
CONTINUOUS
 62
     3
100
AcDbLine
 10
50.0
 20
170.75
 30
0.0
 11
46.25
 21
170.75
 31
0.0
  0
LINE
  5
198
330
1F
100
AcDbEntity
  8
0
  6
CONTINUOUS
 62
     3
100
AcDbLine
 10
50.0
 20
169.25
 30
0.0
 11
46.25
 21
169.25
 31
0.0
  0
LINE
  5
199
330
1F
100
AcDbEntity
  8
0
  6
CONTINUOUS
 62
     3
100
AcDbLine
 10
50.0
 20
167.25
 30
0.0
 11
46.25
 21
167.25
 31
0.0
  0
LINE
  5
19A
330
1F
100
AcDbEntity
  8
0
  6
CONTINUOUS
 62
     3
100
AcDbLine
 10
50.0
 20
165.75
 30
0.0
 11
46.25
 21
165.75
 31
0.0
  0
LINE
  5
19B
330
1F
100
AcDbEntity
  8
0
  6
CONTINUOUS
 62
     3
100
AcDbLine
 10
50.0
 20
163.75
 30
0.0
 11
46.25
 21
163.75
 31
0.0
  0
LINE
  5
19C
330
1F
100
AcDbEntity
  8
0
  6
CONTINUOUS
 62
     3
100
AcDbLine
 10
50.0
 20
162.25
 30
0.0
 11
46.25
 21
162.25
 31
0.0
  0
LINE
  5
19D
330
1F
100
AcDbEntity
  8
0
  6
CONTINUOUS
 62
     3
100
AcDbLine
 10
50.0
 20
160.25
 30
0.0
 11
46.25
 21
160.25
 31
0.0
  0
LINE
  5
19E
330
1F
100
AcDbEntity
  8
0
  6
CONTINUOUS
 62
     3
100
AcDbLine
 10
50.0
 20
158.75
 30
0.0
 11
46.25
 21
158.75
 31
0.0
  0
LINE
  5
19F
330
1F
100
AcDbEntity
  8
0
  6
CONTINUOUS
 62
     3
100
AcDbLine
 10
50.0
 20
155.25
 30
0.0
 11
46.25
 21
155.25
 31
0.0
  0
LINE
  5
1A0
330
1F
100
AcDbEntity
  8
0
  6
CONTINUOUS
 62
     3
100
AcDbLine
 10
50.0
 20
153.25
 30
0.0
 11
46.25
 21
153.25
 31
0.0
  0
LINE
  5
1A1
330
1F
100
AcDbEntity
  8
0
  6
CONTINUOUS
 62
     3
100
AcDbLine
 10
50.0
 20
151.75
 30
0.0
 11
46.25
 21
151.75
 31
0.0
  0
LINE
  5
1A2
330
1F
100
AcDbEntity
  8
0
  6
CONTINUOUS
 62
     3
100
AcDbLine
 10
50.0
 20
149.75
 30
0.0
 11
46.25
 21
149.75
 31
0.0
  0
LINE
  5
1A3
330
1F
100
AcDbEntity
  8
0
  6
CONTINUOUS
 62
     3
100
AcDbLine
 10
50.0
 20
148.25
 30
0.0
 11
46.25
 21
148.25
 31
0.0
  0
LINE
  5
1A4
330
1F
100
AcDbEntity
  8
0
  6
CONTINUOUS
 62
     3
100
AcDbLine
 10
50.0
 20
146.25
 30
0.0
 11
46.25
 21
146.25
 31
0.0
  0
LINE
  5
1A5
330
1F
100
AcDbEntity
  8
0
  6
CONTINUOUS
 62
     3
100
AcDbLine
 10
50.0
 20
144.75
 30
0.0
 11
46.25
 21
144.75
 31
0.0
  0
LINE
  5
1A6
330
1F
100
AcDbEntity
  8
0
  6
CONTINUOUS
 62
     3
100
AcDbLine
 10
50.0
 20
142.75
 30
0.0
 11
46.25
 21
142.75
 31
0.0
  0
LINE
  5
1A7
330
1F
100
AcDbEntity
  8
0
  6
CONTINUOUS
 62
     3
100
AcDbLine
 10
50.0
 20
141.25
 30
0.0
 11
46.25
 21
141.25
 31
0.0
  0
LINE
  5
1A8
330
1F
100
AcDbEntity
  8
0
  6
CONTINUOUS
 62
     3
100
AcDbLine
 10
50.0
 20
172.75
 30
0.0
 11
46.25
 21
172.75
 31
0.0
  0
LINE
  5
1A9
330
1F
100
AcDbEntity
  8
0
  6
CONTINUOUS
 62
     3
100
AcDbLine
 10
55.65
 20
120.0
 30
0.0
 11
55.65
 21
116.25
 31
0.0
  0
LINE
  5
1AA
330
1F
100
AcDbEntity
  8
0
  6
CONTINUOUS
 62
     3
100
AcDbLine
 10
46.2
 20
117.75
 30
0.0
 11
47.5
 21
117.75
 31
0.0
  0
LINE
  5
1AB
330
1F
100
AcDbEntity
  8
0
  6
CONTINUOUS
 62
     3
100
AcDbLine
 10
58.75
 20
117.75
 30
0.0
 11
57.5
 21
117.75
 31
0.0
  0
ARC
  5
1AC
330
1F
100
AcDbEntity
  8
0
  6
CONTINUOUS
 62
     3
100
AcDbCircle
 10
58.2719745
 20
66.697066671
 30
0.0
 40
0.45
100
AcDbArc
 50
270.0
 51
0.0
  0
ARC
  5
1AD
330
1F
100
AcDbEntity
  8
0
  6
CONTINUOUS
 62
     3
100
AcDbCircle
 10
46.6719745
 20
66.697066671
 30
0.0
 40
0.45
100
AcDbArc
 50
180.0
 51
270.0
  0
LINE
  5
1AE
330
1F
100
AcDbEntity
  8
0
  6
CONTINUOUS
 62
     3
100
AcDbLine
 10
58.2719745
 20
66.247066671
 30
0.0
 11
46.6719745
 21
66.247066671
 31
0.0
  0
LINE
  5
1AF
330
1F
100
AcDbEntity
  8
0
  6
CONTINUOUS
 62
     3
100
AcDbLine
 10
57.4719745
 20
67.147066671
 30
0.0
 11
57.4719745
 21
66.247066671
 31
0.0
  0
LINE
  5
1B0
330
1F
100
AcDbEntity
  8
0
  6
CONTINUOUS
 62
     3
100
AcDbLine
 10
46.25
 20
116.25
 30
0.0
 11
46.25
 21
66.697066671
 31
0.0
  0
LINE
  5
1B1
330
1F
100
AcDbEntity
  8
0
  6
CONTINUOUS
 62
     3
100
AcDbLine
 10
58.75
 20
116.25
 30
0.0
 11
58.75
 21
66.697066671
 31
0.0
  0
LINE
  5
1B2
330
1F
100
AcDbEntity
  8
0
  6
CONTINUOUS
 62
     3
100
AcDbLine
 10
47.5
 20
113.25
 30
0.0
 11
57.5
 21
113.25
 31
0.0
  0
LINE
  5
1B3
330
1F
100
AcDbEntity
  8
0
  6
CONTINUOUS
 62
     3
100
AcDbLine
 10
57.5
 20
113.25
 30
0.0
 11
57.5
 21
98.25
 31
0.0
  0
LINE
  5
1B4
330
1F
100
AcDbEntity
  8
0
  6
CONTINUOUS
 62
     3
100
AcDbLine
 10
57.5
 20
98.25
 30
0.0
 11
47.5
 21
98.25
 31
0.0
  0
LINE
  5
1B5
330
1F
100
AcDbEntity
  8
0
  6
CONTINUOUS
 62
     3
100
AcDbLine
 10
47.5
 20
98.25
 30
0.0
 11
47.5
 21
113.25
 31
0.0
  0
LINE
  5
1B6
330
1F
100
AcDbEntity
  8
0
  6
CONTINUOUS
 62
     3
100
AcDbLine
 10
47.5
 20
112.25
 30
0.0
 11
57.5
 21
112.25
 31
0.0
  0
LINE
  5
1B7
330
1F
100
AcDbEntity
  8
0
  6
CONTINUOUS
 62
     3
100
AcDbLine
 10
47.5
 20
98.75
 30
0.0
 11
57.5
 21
98.75
 31
0.0
  0
LINE
  5
1B8
330
1F
100
AcDbEntity
  8
0
  6
CONTINUOUS
 62
     3
100
AcDbLine
 10
57.5
 20
99.25
 30
0.0
 11
47.5
 21
99.25
 31
0.0
  0
LINE
  5
1B9
330
1F
100
AcDbEntity
  8
0
  6
CONTINUOUS
 62
     3
100
AcDbLine
 10
47.5
 20
105.25
 30
0.0
 11
57.5
 21
105.25
 31
0.0
  0
LINE
  5
1BA
330
1F
100
AcDbEntity
  8
0
  6
CONTINUOUS
 62
     3
100
AcDbLine
 10
47.5
 20
105.75
 30
0.0
 11
57.5
 21
105.75
 31
0.0
  0
LINE
  5
1BB
330
1F
100
AcDbEntity
  8
0
  6
CONTINUOUS
 62
     3
100
AcDbLine
 10
57.5
 20
105.75
 30
0.0
 11
57.5
 21
109.75
 31
0.0
  0
LINE
  5
1BC
330
1F
100
AcDbEntity
  8
0
  6
CONTINUOUS
 62
     3
100
AcDbLine
 10
47.5
 20
111.25
 30
0.0
 11
57.5
 21
111.25
 31
0.0
  0
LINE
  5
1BD
330
1F
100
AcDbEntity
  8
0
  6
CONTINUOUS
 62
     3
100
AcDbLine
 10
54.0
 20
100.75
 30
0.0
 11
56.0
 21
100.75
 31
0.0
  0
LINE
  5
1BE
330
1F
100
AcDbEntity
  8
0
  6
CONTINUOUS
 62
     3
100
AcDbLine
 10
54.0
 20
104.25
 30
0.0
 11
56.0
 21
104.25
 31
0.0
  0
LINE
  5
1BF
330
1F
100
AcDbEntity
  8
0
  6
CONTINUOUS
 62
     3
100
AcDbLine
 10
53.5
 20
99.75
 30
0.0
 11
53.0
 21
99.75
 31
0.0
  0
LINE
  5
1C0
330
1F
100
AcDbEntity
  8
0
  6
CONTINUOUS
 62
     3
100
AcDbLine
 10
53.5
 20
99.75
 30
0.0
 11
57.0
 21
99.75
 31
0.0
  0
LINE
  5
1C1
330
1F
100
AcDbEntity
  8
0
  6
CONTINUOUS
 62
     3
100
AcDbLine
 10
56.5
 20
104.75
 30
0.0
 11
53.5
 21
104.75
 31
0.0
  0
LINE
  5
1C2
330
1F
100
AcDbEntity
  8
0
  6
CONTINUOUS
 62
     3
100
AcDbLine
 10
53.5
 20
104.75
 30
0.0
 11
53.0
 21
99.75
 31
0.0
  0
LINE
  5
1C3
330
1F
100
AcDbEntity
  8
0
  6
CONTINUOUS
 62
     3
100
AcDbLine
 10
56.5
 20
104.75
 30
0.0
 11
57.0
 21
99.75
 31
0.0
  0
LINE
  5
1C4
330
1F
100
AcDbEntity
  8
0
  6
CONTINUOUS
 62
     3
100
AcDbLine
 10
54.0
 20
100.75
 30
0.0
 11
53.0
 21
99.75
 31
0.0
  0
LINE
  5
1C5
330
1F
100
AcDbEntity
  8
0
  6
CONTINUOUS
 62
     3
100
AcDbLine
 10
56.0
 20
100.75
 30
0.0
 11
57.0
 21
99.75
 31
0.0
  0
LINE
  5
1C6
330
1F
100
AcDbEntity
  8
0
  6
CONTINUOUS
 62
     3
100
AcDbLine
 10
56.0
 20
100.75
 30
0.0
 11
56.0
 21
104.25
 31
0.0
  0
LINE
  5
1C7
330
1F
100
AcDbEntity
  8
0
  6
CONTINUOUS
 62
     3
100
AcDbLine
 10
54.0
 20
104.25
 30
0.0
 11
54.0
 21
100.75
 31
0.0
  0
LINE
  5
1C8
330
1F
100
AcDbEntity
  8
0
  6
CONTINUOUS
 62
     3
100
AcDbLine
 10
54.0
 20
104.25
 30
0.0
 11
53.5
 21
104.85
 31
0.0
  0
LINE
  5
1C9
330
1F
100
AcDbEntity
  8
0
  6
CONTINUOUS
 62
     3
100
AcDbLine
 10
56.0
 20
104.25
 30
0.0
 11
56.5
 21
104.75
 31
0.0
  0
LINE
  5
1CA
330
1F
100
AcDbEntity
  8
0
  6
CONTINUOUS
 62
     3
100
AcDbLine
 10
49.0
 20
100.75
 30
0.0
 11
51.0
 21
100.75
 31
0.0
  0
LINE
  5
1CB
330
1F
100
AcDbEntity
  8
0
  6
CONTINUOUS
 62
     3
100
AcDbLine
 10
49.0
 20
104.25
 30
0.0
 11
51.0
 21
104.25
 31
0.0
  0
LINE
  5
1CC
330
1F
100
AcDbEntity
  8
0
  6
CONTINUOUS
 62
     3
100
AcDbLine
 10
48.5
 20
99.75
 30
0.0
 11
48.0
 21
99.75
 31
0.0
  0
LINE
  5
1CD
330
1F
100
AcDbEntity
  8
0
  6
CONTINUOUS
 62
     3
100
AcDbLine
 10
48.5
 20
99.75
 30
0.0
 11
52.0
 21
99.75
 31
0.0
  0
LINE
  5
1CE
330
1F
100
AcDbEntity
  8
0
  6
CONTINUOUS
 62
     3
100
AcDbLine
 10
51.5
 20
104.75
 30
0.0
 11
48.5
 21
104.75
 31
0.0
  0
LINE
  5
1CF
330
1F
100
AcDbEntity
  8
0
  6
CONTINUOUS
 62
     3
100
AcDbLine
 10
48.5
 20
104.75
 30
0.0
 11
48.0
 21
99.75
 31
0.0
  0
LINE
  5
1D0
330
1F
100
AcDbEntity
  8
0
  6
CONTINUOUS
 62
     3
100
AcDbLine
 10
51.5
 20
104.75
 30
0.0
 11
52.0
 21
99.75
 31
0.0
  0
LINE
  5
1D1
330
1F
100
AcDbEntity
  8
0
  6
CONTINUOUS
 62
     3
100
AcDbLine
 10
49.0
 20
100.75
 30
0.0
 11
48.0
 21
99.75
 31
0.0
  0
LINE
  5
1D2
330
1F
100
AcDbEntity
  8
0
  6
CONTINUOUS
 62
     3
100
AcDbLine
 10
51.0
 20
100.75
 30
0.0
 11
52.0
 21
99.75
 31
0.0
  0
LINE
  5
1D3
330
1F
100
AcDbEntity
  8
0
  6
CONTINUOUS
 62
     3
100
AcDbLine
 10
51.0
 20
100.75
 30
0.0
 11
51.0
 21
104.25
 31
0.0
  0
LINE
  5
1D4
330
1F
100
AcDbEntity
  8
0
  6
CONTINUOUS
 62
     3
100
AcDbLine
 10
49.0
 20
104.25
 30
0.0
 11
49.0
 21
100.75
 31
0.0
  0
LINE
  5
1D5
330
1F
100
AcDbEntity
  8
0
  6
CONTINUOUS
 62
     3
100
AcDbLine
 10
49.0
 20
104.25
 30
0.0
 11
48.5
 21
104.85
 31
0.0
  0
LINE
  5
1D6
330
1F
100
AcDbEntity
  8
0
  6
CONTINUOUS
 62
     3
100
AcDbLine
 10
51.0
 20
104.25
 30
0.0
 11
51.5
 21
104.75
 31
0.0
  0
LINE
  5
1D7
330
1F
100
AcDbEntity
  8
0
  6
CONTINUOUS
 62
     3
100
AcDbLine
 10
51.0
 20
113.25
 30
0.0
 11
51.0
 21
114.25
 31
0.0
  0
LINE
  5
1D8
330
1F
100
AcDbEntity
  8
0
  6
CONTINUOUS
 62
     3
100
AcDbLine
 10
52.5
 20
114.25
 30
0.0
 11
52.5
 21
113.25
 31
0.0
  0
LINE
  5
1D9
330
1F
100
AcDbEntity
  8
0
  6
CONTINUOUS
 62
     3
100
AcDbLine
 10
57.5
 20
94.75
 30
0.0
 11
57.5
 21
79.75
 31
0.0
  0
LINE
  5
1DA
330
1F
100
AcDbEntity
  8
0
  6
CONTINUOUS
 62
     3
100
AcDbLine
 10
47.5
 20
79.75
 30
0.0
 11
47.5
 21
94.75
 31
0.0
  0
LINE
  5
1DB
330
1F
100
AcDbEntity
  8
0
  6
CONTINUOUS
 62
     3
100
AcDbLine
 10
57.5
 20
87.25
 30
0.0
 11
57.5
 21
91.25
 31
0.0
  0
LINE
  5
1DC
330
1F
100
AcDbEntity
  8
0
  6
CONTINUOUS
 62
     3
100
AcDbLine
 10
47.5
 20
97.54
 30
0.0
 11
47.5
 21
66.247066671
 31
0.0
  0
LINE
  5
1DD
330
1F
100
AcDbEntity
  8
0
  6
CONTINUOUS
 62
     3
100
AcDbLine
 10
57.5
 20
79.25
 30
0.0
 11
57.5
 21
66.247066671
 31
0.0
  0
LINE
  5
1DE
330
1F
100
AcDbEntity
  8
0
  6
CONTINUOUS
 62
     3
100
AcDbLine
 10
48.5
 20
66.247066671
 30
0.0
 11
48.5
 21
71.747066671
 31
0.0
  0
LINE
  5
1DF
330
1F
100
AcDbEntity
  8
0
  6
CONTINUOUS
 62
     3
100
AcDbLine
 10
48.5
 20
71.747066671
 30
0.0
 11
56.5
 21
71.747066671
 31
0.0
  0
LINE
  5
1E0
330
1F
100
AcDbEntity
  8
0
  6
CONTINUOUS
 62
     3
100
AcDbLine
 10
56.5
 20
71.747066671
 30
0.0
 11
56.5
 21
66.247066671
 31
0.0
  0
LINE
  5
1E1
330
1F
100
AcDbEntity
  8
0
  6
CONTINUOUS
 62
     3
100
AcDbLine
 10
47.5
 20
105.75
 30
0.0
 11
57.5
 21
105.75
 31
0.0
  0
LINE
  5
1E2
330
1F
100
AcDbEntity
  8
0
  6
CONTINUOUS
 62
     3
100
AcDbLine
 10
57.5
 20
105.75
 30
0.0
 11
57.5
 21
109.75
 31
0.0
  0
LINE
  5
1E3
330
1F
100
AcDbEntity
  8
0
  6
CONTINUOUS
 62
     3
100
AcDbLine
 10
47.5
 20
111.25
 30
0.0
 11
57.5
 21
111.25
 31
0.0
  0
LINE
  5
1E4
330
1F
100
AcDbEntity
  8
0
  6
CONTINUOUS
 62
     3
100
AcDbLine
 10
47.5
 20
105.75
 30
0.0
 11
57.5
 21
105.75
 31
0.0
  0
LINE
  5
1E5
330
1F
100
AcDbEntity
  8
0
  6
CONTINUOUS
 62
     3
100
AcDbLine
 10
57.5
 20
105.75
 30
0.0
 11
57.5
 21
109.75
 31
0.0
  0
LINE
  5
1E6
330
1F
100
AcDbEntity
  8
0
  6
CONTINUOUS
 62
     3
100
AcDbLine
 10
47.5
 20
111.25
 30
0.0
 11
57.5
 21
111.25
 31
0.0
  0
LINE
  5
1E7
330
1F
100
AcDbEntity
  8
0
  6
CONTINUOUS
 62
     3
100
AcDbLine
 10
57.5
 20
87.25
 30
0.0
 11
57.5
 21
91.25
 31
0.0
  0
LINE
  5
1E8
330
1F
100
AcDbEntity
  8
0
  6
CONTINUOUS
 62
     3
100
AcDbLine
 10
57.5
 20
87.25
 30
0.0
 11
57.5
 21
91.25
 31
0.0
  0
LINE
  5
1E9
330
1F
100
AcDbEntity
  8
0
  6
CONTINUOUS
 62
     3
100
AcDbLine
 10
57.5
 20
87.25
 30
0.0
 11
57.5
 21
91.25
 31
0.0
  0
TEXT
  5
1EA
330
1F
100
AcDbEntity
  8
0
  6
CONTINUOUS
 62
     3
100
AcDbText
 10
54.0
 20
106.7113639386544
 30
0.0
 40
2.063485544303342
  1
３
 41
0.666666667
  7
MS_PGOTHIC
 11
54.0
 21
106.2894456287676
 31
0.0
100
AcDbText
 73
     1
  0
TEXT
  5
1EB
330
1F
100
AcDbEntity
  8
0
  6
CONTINUOUS
 62
     3
100
AcDbText
 10
49.0
 20
106.7404080427104
 30
0.0
 40
2.063770011283386
  1
４
 41
0.666666667
  7
MS_PGOTHIC
 11
49.0
 21
106.3184315682158
 31
0.0
100
AcDbText
 73
     1
  0
LINE
  5
1EC
330
1F
100
AcDbEntity
  8
0
  6
CONTINUOUS
 62
     3
100
AcDbLine
 10
47.65
 20
93.8
 30
0.0
 11
57.45
 21
93.8
 31
0.0
  0
LINE
  5
1ED
330
1F
100
AcDbEntity
  8
0
  6
CONTINUOUS
 62
     3
100
AcDbLine
 10
349.25
 20
73.0
 30
0.0
 11
353.25
 21
73.0
 31
0.0
  0
LINE
  5
1EE
330
1F
100
AcDbEntity
  8
0
  6
CONTINUOUS
 62
     3
100
AcDbLine
 10
349.25
 20
73.0
 30
0.0
 11
353.25
 21
73.0
 31
0.0
  0
LINE
  5
1EF
330
1F
100
AcDbEntity
  8
0
  6
CONTINUOUS
 62
     3
100
AcDbLine
 10
385.25
 20
73.0
 30
0.0
 11
377.75
 21
69.0
 31
0.0
  0
LINE
  5
1F0
330
1F
100
AcDbEntity
  8
0
  6
CONTINUOUS
 62
     3
100
AcDbLine
 10
335.75
 20
73.0
 30
0.0
 11
353.35
 21
73.0
 31
0.0
  0
LINE
  5
1F1
330
1F
100
AcDbEntity
  8
0
  6
CONTINUOUS
 62
     3
100
AcDbLine
 10
336.65
 20
73.0
 30
0.0
 11
317.75
 21
73.0
 31
0.0
  0
POINT
  5
1F2
330
1F
100
AcDbEntity
  8
0
  6
CONTINUOUS
 62
     3
100
AcDbPoint
 10
364.75
 20
71.5
 30
0.0
  0
POINT
  5
1F3
330
1F
100
AcDbEntity
  8
0
  6
CONTINUOUS
 62
     3
100
AcDbPoint
 10
364.75
 20
73.5
 30
0.0
  0
LINE
  5
1F4
330
1F
100
AcDbEntity
  8
0
  6
CONTINUOUS
 62
     3
100
AcDbLine
 10
364.75
 20
71.5
 30
0.0
 11
364.75
 21
73.5
 31
0.0
  0
LINE
  5
1F5
330
1F
100
AcDbEntity
  8
0
  6
CONTINUOUS
 62
     3
100
AcDbLine
 10
364.75
 20
73.5
 30
0.0
 11
368.75
 21
73.5
 31
0.0
  0
LINE
  5
1F6
330
1F
100
AcDbEntity
  8
0
  6
CONTINUOUS
 62
     3
100
AcDbLine
 10
368.75
 20
71.5
 30
0.0
 11
364.75
 21
71.5
 31
0.0
  0
LINE
  5
1F7
330
1F
100
AcDbEntity
  8
0
  6
CONTINUOUS
 62
     3
100
AcDbLine
 10
368.75
 20
73.5
 30
0.0
 11
368.75
 21
71.5
 31
0.0
  0
LINE
  5
1F8
330
1F
100
AcDbEntity
  8
0
  6
CONTINUOUS
 62
     3
100
AcDbLine
 10
364.75
 20
73.5
 30
0.0
 11
368.75
 21
73.5
 31
0.0
  0
LINE
  5
1F9
330
1F
100
AcDbEntity
  8
0
  6
CONTINUOUS
 62
     3
100
AcDbLine
 10
377.75
 20
69.0
 30
0.0
 11
353.35
 21
69.0
 31
0.0
  0
LINE
  5
1FA
330
1F
100
AcDbEntity
  8
0
  6
CONTINUOUS
 62
     3
100
AcDbLine
 10
306.75
 20
116.25
 30
0.0
 11
324.024830111
 21
116.25
 31
0.0
  0
LINE
  5
1FB
330
1F
100
AcDbEntity
  8
0
  6
CONTINUOUS
 62
     3
100
AcDbLine
 10
345.878395696
 20
118.5
 30
0.0
 11
325.621604304
 21
118.5
 31
0.0
  0
LINE
  5
1FC
330
1F
100
AcDbEntity
  8
0
  6
CONTINUOUS
 62
     3
100
AcDbLine
 10
345.878395696
 20
118.5
 30
0.0
 11
347.475169889
 21
116.25
 31
0.0
  0
POINT
  5
1FD
330
1F
100
AcDbEntity
  8
0
  6
CONTINUOUS
 62
     3
100
AcDbPoint
 10
306.75
 20
75.5
 30
0.0
  0
POINT
  5
1FE
330
1F
100
AcDbEntity
  8
0
  6
CONTINUOUS
 62
     3
100
AcDbPoint
 10
306.75
 20
77.5
 30
0.0
  0
LINE
  5
1FF
330
1F
100
AcDbEntity
  8
0
  6
CONTINUOUS
 62
     3
100
AcDbLine
 10
306.75
 20
75.5
 30
0.0
 11
306.75
 21
77.5
 31
0.0
  0
LINE
  5
200
330
1F
100
AcDbEntity
  8
0
  6
CONTINUOUS
 62
     3
100
AcDbLine
 10
306.75
 20
77.5
 30
0.0
 11
302.75
 21
77.5
 31
0.0
  0
LINE
  5
201
330
1F
100
AcDbEntity
  8
0
  6
CONTINUOUS
 62
     3
100
AcDbLine
 10
302.75
 20
75.5
 30
0.0
 11
306.75
 21
75.5
 31
0.0
  0
LINE
  5
202
330
1F
100
AcDbEntity
  8
0
  6
CONTINUOUS
 62
     3
100
AcDbLine
 10
302.75
 20
77.5
 30
0.0
 11
302.75
 21
75.5
 31
0.0
  0
LINE
  5
203
330
1F
100
AcDbEntity
  8
0
  6
CONTINUOUS
 62
     3
100
AcDbLine
 10
325.621604304
 20
118.5
 30
0.0
 11
324.024830111
 21
116.25
 31
0.0
  0
LINE
  5
204
330
1F
100
AcDbEntity
  8
0
  6
CONTINUOUS
 62
     3
100
AcDbLine
 10
347.475169889
 20
116.25
 30
0.0
 11
365.25
 21
116.25
 31
0.0
  0
POINT
  5
205
330
1F
100
AcDbEntity
  8
0
  6
CONTINUOUS
 62
     3
100
AcDbPoint
 10
356.5
 20
134.0
 30
0.0
  0
LINE
  5
206
330
1F
100
AcDbEntity
  8
0
  6
CONTINUOUS
 62
     3
100
AcDbLine
 10
356.5
 20
178.5
 30
0.0
 11
356.5
 21
134.0
 31
0.0
  0
POINT
  5
207
330
1F
100
AcDbEntity
  8
0
  6
CONTINUOUS
 62
     3
100
AcDbPoint
 10
315.0
 20
134.0
 30
0.0
  0
LINE
  5
208
330
1F
100
AcDbEntity
  8
0
  6
CONTINUOUS
 62
     3
100
AcDbLine
 10
315.0
 20
178.5
 30
0.0
 11
356.5
 21
178.5
 31
0.0
  0
LINE
  5
209
330
1F
100
AcDbEntity
  8
0
  6
CONTINUOUS
 62
     3
100
AcDbLine
 10
315.0
 20
178.5
 30
0.0
 11
315.0
 21
134.0
 31
0.0
  0
LINE
  5
20A
330
1F
100
AcDbEntity
  8
0
  6
CONTINUOUS
 62
     3
100
AcDbLine
 10
356.5
 20
134.0
 30
0.0
 11
315.0
 21
134.0
 31
0.0
  0
LINE
  5
20B
330
1F
100
AcDbEntity
  8
0
  6
CONTINUOUS
 62
     3
100
AcDbLine
 10
365.25
 20
173.91
 30
0.0
 11
365.25
 21
137.85
 31
0.0
  0
LINE
  5
20C
330
1F
100
AcDbEntity
  8
0
  6
CONTINUOUS
 62
     3
100
AcDbLine
 10
365.25
 20
136.0
 30
0.0
 11
365.25
 21
133.6
 31
0.0
  0
LINE
  5
20D
330
1F
100
AcDbEntity
  8
0
  6
CONTINUOUS
 62
     3
100
AcDbLine
 10
365.25
 20
137.85
 30
0.0
 11
365.25
 21
136.0
 31
0.0
  0
LINE
  5
20E
330
1F
100
AcDbEntity
  8
0
  6
CONTINUOUS
 62
     3
100
AcDbLine
 10
306.25
 20
130.25
 30
0.0
 11
307.25
 21
130.25
 31
0.0
  0
LINE
  5
20F
330
1F
100
AcDbEntity
  8
0
  6
CONTINUOUS
 62
     3
100
AcDbLine
 10
307.25
 20
130.25
 30
0.0
 11
307.25
 21
137.85
 31
0.0
  0
LINE
  5
210
330
1F
100
AcDbEntity
  8
0
  6
CONTINUOUS
 62
     3
100
AcDbLine
 10
364.25
 20
184.0
 30
0.0
 11
335.75
 21
184.0
 31
0.0
  0
LINE
  5
211
330
1F
100
AcDbEntity
  8
0
  6
CONTINUOUS
 62
     3
100
AcDbLine
 10
307.25
 20
184.0
 30
0.0
 11
335.75
 21
184.0
 31
0.0
  0
LINE
  5
212
330
1F
100
AcDbEntity
  8
0
  6
CONTINUOUS
 62
     3
100
AcDbLine
 10
365.25
 20
136.0
 30
0.0
 11
365.25
 21
116.25
 31
0.0
  0
LINE
  5
213
330
1F
100
AcDbEntity
  8
0
  6
CONTINUOUS
 62
     3
100
AcDbLine
 10
345.878395696
 20
118.5
 30
0.0
 11
325.621604304
 21
118.5
 31
0.0
  0
LINE
  5
214
330
1F
100
AcDbEntity
  8
0
  6
CONTINUOUS
 62
     3
100
AcDbLine
 10
324.024830111
 20
116.25
 30
0.0
 11
306.25
 21
116.25
 31
0.0
  0
LINE
  5
215
330
1F
100
AcDbEntity
  8
0
  6
CONTINUOUS
 62
     3
100
AcDbLine
 10
325.621604304
 20
118.5
 30
0.0
 11
324.024830111
 21
116.25
 31
0.0
  0
LINE
  5
216
330
1F
100
AcDbEntity
  8
0
  6
CONTINUOUS
 62
     3
100
AcDbLine
 10
345.878395696
 20
118.5
 30
0.0
 11
347.475169889
 21
116.25
 31
0.0
  0
LINE
  5
217
330
1F
100
AcDbEntity
  8
0
  6
CONTINUOUS
 62
     3
100
AcDbLine
 10
365.25
 20
116.25
 30
0.0
 11
347.475169889
 21
116.25
 31
0.0
  0
CIRCLE
  5
218
330
1F
100
AcDbEntity
  8
0
  6
CONTINUOUS
 62
     3
100
AcDbCircle
 10
308.75
 20
181.0
 30
0.0
 40
1.5
  0
LINE
  5
219
330
1F
100
AcDbEntity
  8
0
  6
CONTINUOUS
 62
     3
100
AcDbLine
 10
365.25
 20
134.5
 30
0.0
 11
364.25
 21
134.5
 31
0.0
  0
LINE
  5
21A
330
1F
100
AcDbEntity
  8
0
  6
CONTINUOUS
 62
     3
100
AcDbLine
 10
364.25
 20
130.5
 30
0.0
 11
365.25
 21
130.5
 31
0.0
  0
LINE
  5
21B
330
1F
100
AcDbEntity
  8
0
  6
CONTINUOUS
 62
     3
100
AcDbLine
 10
364.25
 20
134.5
 30
0.0
 11
364.25
 21
130.5
 31
0.0
  0
ARC
  5
21C
330
1F
100
AcDbEntity
  8
0
  6
CONTINUOUS
 62
     3
100
AcDbCircle
 10
307.25
 20
183.0
 30
0.0
 40
1.0
100
AcDbArc
 50
90.0
 51
180.0
  0
LINE
  5
21D
330
1F
100
AcDbEntity
  8
0
  6
CONTINUOUS
 62
     3
100
AcDbLine
 10
306.25
 20
183.0
 30
0.0
 11
306.25
 21
137.85
 31
0.0
  0
LINE
  5
21E
330
1F
100
AcDbEntity
  8
0
  6
CONTINUOUS
 62
     3
100
AcDbLine
 10
363.75
 20
163.75
 30
0.0
 11
363.75
 21
165.75
 31
0.0
  0
LINE
  5
21F
330
1F
100
AcDbEntity
  8
0
  6
CONTINUOUS
 62
     3
100
AcDbLine
 10
311.0
 20
139.25
 30
0.0
 11
311.25
 21
139.25
 31
0.0
  0
LINE
  5
220
330
1F
100
AcDbEntity
  8
0
  6
CONTINUOUS
 62
     3
100
AcDbLine
 10
306.25
 20
139.25
 30
0.0
 11
308.75
 21
139.25
 31
0.0
  0
LINE
  5
221
330
1F
100
AcDbEntity
  8
0
  6
CONTINUOUS
 62
     3
100
AcDbLine
 10
308.75
 20
139.25
 30
0.0
 11
306.25
 21
139.25
 31
0.0
  0
LINE
  5
222
330
1F
100
AcDbEntity
  8
0
  6
CONTINUOUS
 62
     3
100
AcDbLine
 10
311.25
 20
139.25
 30
0.0
 11
307.75
 21
139.25
 31
0.0
  0
LINE
  5
223
330
1F
100
AcDbEntity
  8
0
  6
CONTINUOUS
 62
     3
100
AcDbLine
 10
309.75
 20
144.75
 30
0.0
 11
306.25
 21
144.75
 31
0.0
  0
LINE
  5
224
330
1F
100
AcDbEntity
  8
0
  6
CONTINUOUS
 62
     3
100
AcDbLine
 10
311.25
 20
144.75
 30
0.0
 11
309.75
 21
144.75
 31
0.0
  0
LINE
  5
225
330
1F
100
AcDbEntity
  8
0
  6
CONTINUOUS
 62
     3
100
AcDbLine
 10
306.25
 20
142.75
 30
0.0
 11
309.75
 21
142.75
 31
0.0
  0
LINE
  5
226
330
1F
100
AcDbEntity
  8
0
  6
CONTINUOUS
 62
     3
100
AcDbLine
 10
309.75
 20
141.25
 30
0.0
 11
306.25
 21
141.25
 31
0.0
  0
LINE
  5
227
330
1F
100
AcDbEntity
  8
0
  6
CONTINUOUS
 62
     3
100
AcDbLine
 10
309.75
 20
142.75
 30
0.0
 11
309.75
 21
141.25
 31
0.0
  0
LINE
  5
228
330
1F
100
AcDbEntity
  8
0
  6
CONTINUOUS
 62
     3
100
AcDbLine
 10
309.75
 20
148.25
 30
0.0
 11
306.25
 21
148.25
 31
0.0
  0
LINE
  5
229
330
1F
100
AcDbEntity
  8
0
  6
CONTINUOUS
 62
     3
100
AcDbLine
 10
306.25
 20
146.25
 30
0.0
 11
309.75
 21
146.25
 31
0.0
  0
LINE
  5
22A
330
1F
100
AcDbEntity
  8
0
  6
CONTINUOUS
 62
     3
100
AcDbLine
 10
309.75
 20
148.25
 30
0.0
 11
309.75
 21
146.25
 31
0.0
  0
LINE
  5
22B
330
1F
100
AcDbEntity
  8
0
  6
CONTINUOUS
 62
     3
100
AcDbLine
 10
309.75
 20
151.75
 30
0.0
 11
306.25
 21
151.75
 31
0.0
  0
LINE
  5
22C
330
1F
100
AcDbEntity
  8
0
  6
CONTINUOUS
 62
     3
100
AcDbLine
 10
306.25
 20
149.75
 30
0.0
 11
309.75
 21
149.75
 31
0.0
  0
LINE
  5
22D
330
1F
100
AcDbEntity
  8
0
  6
CONTINUOUS
 62
     3
100
AcDbLine
 10
309.75
 20
151.75
 30
0.0
 11
309.75
 21
149.75
 31
0.0
  0
LINE
  5
22E
330
1F
100
AcDbEntity
  8
0
  6
CONTINUOUS
 62
     3
100
AcDbLine
 10
309.75
 20
155.25
 30
0.0
 11
306.25
 21
155.25
 31
0.0
  0
LINE
  5
22F
330
1F
100
AcDbEntity
  8
0
  6
CONTINUOUS
 62
     3
100
AcDbLine
 10
306.25
 20
153.25
 30
0.0
 11
309.75
 21
153.25
 31
0.0
  0
LINE
  5
230
330
1F
100
AcDbEntity
  8
0
  6
CONTINUOUS
 62
     3
100
AcDbLine
 10
309.75
 20
155.25
 30
0.0
 11
309.75
 21
153.25
 31
0.0
  0
LINE
  5
231
330
1F
100
AcDbEntity
  8
0
  6
CONTINUOUS
 62
     3
100
AcDbLine
 10
309.75
 20
158.75
 30
0.0
 11
306.25
 21
158.75
 31
0.0
  0
LINE
  5
232
330
1F
100
AcDbEntity
  8
0
  6
CONTINUOUS
 62
     3
100
AcDbLine
 10
306.25
 20
156.75
 30
0.0
 11
309.75
 21
156.75
 31
0.0
  0
LINE
  5
233
330
1F
100
AcDbEntity
  8
0
  6
CONTINUOUS
 62
     3
100
AcDbLine
 10
309.75
 20
158.75
 30
0.0
 11
309.75
 21
156.75
 31
0.0
  0
LINE
  5
234
330
1F
100
AcDbEntity
  8
0
  6
CONTINUOUS
 62
     3
100
AcDbLine
 10
309.75
 20
162.25
 30
0.0
 11
306.25
 21
162.25
 31
0.0
  0
LINE
  5
235
330
1F
100
AcDbEntity
  8
0
  6
CONTINUOUS
 62
     3
100
AcDbLine
 10
306.25
 20
160.25
 30
0.0
 11
309.75
 21
160.25
 31
0.0
  0
LINE
  5
236
330
1F
100
AcDbEntity
  8
0
  6
CONTINUOUS
 62
     3
100
AcDbLine
 10
309.75
 20
162.25
 30
0.0
 11
309.75
 21
160.25
 31
0.0
  0
LINE
  5
237
330
1F
100
AcDbEntity
  8
0
  6
CONTINUOUS
 62
     3
100
AcDbLine
 10
307.75
 20
163.75
 30
0.0
 11
307.75
 21
165.75
 31
0.0
  0
LINE
  5
238
330
1F
100
AcDbEntity
  8
0
  6
CONTINUOUS
 62
     3
100
AcDbLine
 10
311.25
 20
169.25
 30
0.0
 11
306.25
 21
169.25
 31
0.0
  0
LINE
  5
239
330
1F
100
AcDbEntity
  8
0
  6
CONTINUOUS
 62
     3
100
AcDbLine
 10
311.25
 20
166.75
 30
0.0
 11
311.25
 21
169.25
 31
0.0
  0
LINE
  5
23A
330
1F
100
AcDbEntity
  8
0
  6
CONTINUOUS
 62
     3
100
AcDbLine
 10
306.25
 20
163.75
 30
0.0
 11
311.25
 21
163.75
 31
0.0
  0
LINE
  5
23B
330
1F
100
AcDbEntity
  8
0
  6
CONTINUOUS
 62
     3
100
AcDbLine
 10
311.25
 20
166.75
 30
0.0
 11
311.25
 21
163.75
 31
0.0
  0
LINE
  5
23C
330
1F
100
AcDbEntity
  8
0
  6
CONTINUOUS
 62
     3
100
AcDbLine
 10
311.25
 20
144.75
 30
0.0
 11
311.25
 21
139.25
 31
0.0
  0
LINE
  5
23D
330
1F
100
AcDbEntity
  8
0
  6
CONTINUOUS
 62
     3
100
AcDbLine
 10
360.25
 20
169.25
 30
0.0
 11
360.25
 21
163.75
 31
0.0
  0
LINE
  5
23E
330
1F
100
AcDbEntity
  8
0
  6
CONTINUOUS
 62
     3
100
AcDbLine
 10
306.25
 20
137.85
 30
0.0
 11
306.25
 21
116.25
 31
0.0
  0
LINE
  5
23F
330
1F
100
AcDbEntity
  8
0
  6
CONTINUOUS
 62
     3
100
AcDbLine
 10
353.35
 20
69.0
 30
0.0
 11
351.35
 21
69.0
 31
0.0
  0
LINE
  5
240
330
1F
100
AcDbEntity
  8
0
  6
CONTINUOUS
 62
     3
100
AcDbLine
 10
353.45
 20
71.8
 30
0.0
 11
351.35
 21
71.0
 31
0.0
  0
LINE
  5
241
330
1F
100
AcDbEntity
  8
0
  6
CONTINUOUS
 62
     3
100
AcDbLine
 10
351.35
 20
69.0
 30
0.0
 11
351.35
 21
71.0
 31
0.0
  0
LINE
  5
242
330
1F
100
AcDbEntity
  8
0
  6
CONTINUOUS
 62
     3
100
AcDbLine
 10
377.85
 20
69.0
 30
0.0
 11
353.45
 21
69.0
 31
0.0
  0
LINE
  5
243
330
1F
100
AcDbEntity
  8
0
  6
CONTINUOUS
 62
     3
100
AcDbLine
 10
353.45
 20
73.0
 30
0.0
 11
353.45
 21
69.0
 31
0.0
  0
LINE
  5
244
330
1F
100
AcDbEntity
  8
0
  6
CONTINUOUS
 62
     3
100
AcDbLine
 10
336.75
 20
73.0
 30
0.0
 11
317.85
 21
73.0
 31
0.0
  0
LINE
  5
245
330
1F
100
AcDbEntity
  8
0
  6
CONTINUOUS
 62
     3
100
AcDbLine
 10
301.1
 20
73.0
 30
0.0
 11
301.1
 21
71.8
 31
0.0
  0
LINE
  5
246
330
1F
100
AcDbEntity
  8
0
  6
CONTINUOUS
 62
     3
100
AcDbLine
 10
383.85
 20
72.2
 30
0.0
 11
377.85
 21
69.0
 31
0.0
  0
LINE
  5
247
330
1F
100
AcDbEntity
  8
0
  6
CONTINUOUS
 62
     3
100
AcDbLine
 10
317.8
 20
73.0
 30
0.0
 11
302.6
 21
73.0
 31
0.0
  0
LINE
  5
248
330
1F
100
AcDbEntity
  8
0
  6
CONTINUOUS
 62
     3
100
AcDbLine
 10
335.85
 20
73.0
 30
0.0
 11
353.45
 21
73.0
 31
0.0
  0
LINE
  5
249
330
1F
100
AcDbEntity
  8
0
  6
CONTINUOUS
 62
     3
100
AcDbLine
 10
349.35
 20
73.0
 30
0.0
 11
353.35
 21
73.0
 31
0.0
  0
LINE
  5
24A
330
1F
100
AcDbEntity
  8
0
  6
CONTINUOUS
 62
     3
100
AcDbLine
 10
349.35
 20
73.0
 30
0.0
 11
353.45
 21
73.0
 31
0.0
  0
LINE
  5
24B
330
1F
100
AcDbEntity
  8
0
  6
CONTINUOUS
 62
     3
100
AcDbLine
 10
302.6
 20
73.0
 30
0.0
 11
287.85
 21
73.0
 31
0.0
  0
LINE
  5
24C
330
1F
100
AcDbEntity
  8
0
  6
CONTINUOUS
 62
     3
100
AcDbLine
 10
287.85
 20
73.0
 30
0.0
 11
292.85
 21
67.75
 31
0.0
  0
ARC
  5
24D
330
1F
100
AcDbEntity
  8
0
  6
CONTINUOUS
 62
     3
100
AcDbCircle
 10
349.95
 20
73.0
 30
0.0
 40
0.5
100
AcDbArc
 50
180.0
 51
0.0
  0
LINE
  5
24E
330
1F
100
AcDbEntity
  8
0
  6
CONTINUOUS
 62
     3
100
AcDbLine
 10
319.1
 20
72.2
 30
0.0
 11
319.1
 21
73.0
 31
0.0
  0
LINE
  5
24F
330
1F
100
AcDbEntity
  8
0
  6
CONTINUOUS
 62
     3
100
AcDbLine
 10
316.35
 20
66.35
 30
0.0
 11
316.35
 21
68.4
 31
0.0
  0
LINE
  5
250
330
1F
100
AcDbEntity
  8
0
  6
CONTINUOUS
 62
     3
100
AcDbLine
 10
316.1
 20
73.0
 30
0.0
 11
316.1
 21
72.0
 31
0.0
  0
LINE
  5
251
330
1F
100
AcDbEntity
  8
0
  6
CONTINUOUS
 62
     3
100
AcDbLine
 10
316.1
 20
72.0
 30
0.0
 11
315.1
 21
72.0
 31
0.0
  0
LINE
  5
252
330
1F
100
AcDbEntity
  8
0
  6
CONTINUOUS
 62
     3
100
AcDbLine
 10
315.1
 20
73.0
 30
0.0
 11
310.1
 21
73.0
 31
0.0
  0
LINE
  5
253
330
1F
100
AcDbEntity
  8
0
  6
CONTINUOUS
 62
     3
100
AcDbLine
 10
319.1
 20
73.0
 30
0.0
 11
316.1
 21
73.0
 31
0.0
  0
LINE
  5
254
330
1F
100
AcDbEntity
  8
0
  6
CONTINUOUS
 62
     3
100
AcDbLine
 10
313.35
 20
66.35
 30
0.0
 11
313.35
 21
67.15
 31
0.0
  0
LINE
  5
255
330
1F
100
AcDbEntity
  8
0
  6
CONTINUOUS
 62
     3
100
AcDbLine
 10
316.35
 20
66.35
 30
0.0
 11
313.35
 21
66.35
 31
0.0
  0
LINE
  5
256
330
1F
100
AcDbEntity
  8
0
  6
CONTINUOUS
 62
     3
100
AcDbLine
 10
310.1
 20
71.75
 30
0.0
 11
300.85
 21
71.75
 31
0.0
  0
LINE
  5
257
330
1F
100
AcDbEntity
  8
0
  6
CONTINUOUS
 62
     3
100
AcDbLine
 10
310.1
 20
73.0
 30
0.0
 11
310.1
 21
71.75
 31
0.0
  0
ARC
  5
258
330
1F
100
AcDbEntity
  8
0
  6
CONTINUOUS
 62
     3
100
AcDbCircle
 10
307.35
 20
67.15
 30
0.0
 40
0.8
100
AcDbArc
 50
269.999726792
 51
0.0
  0
LINE
  5
259
330
1F
100
AcDbEntity
  8
0
  6
CONTINUOUS
 62
     3
100
AcDbLine
 10
300.85
 20
71.75
 30
0.0
 11
300.85
 21
73.0
 31
0.0
  0
LINE
  5
25A
330
1F
100
AcDbEntity
  8
0
  6
CONTINUOUS
 62
     3
100
AcDbLine
 10
292.85
 20
66.35
 30
0.0
 11
292.85
 21
73.0
 31
0.0
  0
LINE
  5
25B
330
1F
100
AcDbEntity
  8
0
  6
CONTINUOUS
 62
     3
100
AcDbLine
 10
300.85
 20
73.0
 30
0.0
 11
292.85
 21
73.0
 31
0.0
  0
LINE
  5
25C
330
1F
100
AcDbEntity
  8
0
  6
CONTINUOUS
 62
     3
100
AcDbLine
 10
313.35
 20
67.15
 30
0.0
 11
307.35
 21
67.15
 31
0.0
  0
LINE
  5
25D
330
1F
100
AcDbEntity
  8
0
  6
CONTINUOUS
 62
     3
100
AcDbLine
 10
315.1
 20
72.0
 30
0.0
 11
315.1
 21
73.0
 31
0.0
  0
LINE
  5
25E
330
1F
100
AcDbEntity
  8
0
  6
CONTINUOUS
 62
     3
100
AcDbLine
 10
319.1
 20
72.2
 30
0.0
 11
321.3
 21
71.85
 31
0.0
  0
LINE
  5
25F
330
1F
100
AcDbEntity
  8
0
  6
CONTINUOUS
 62
     3
100
AcDbLine
 10
316.35
 20
68.4
 30
0.0
 11
317.827607557
 21
68.4
 31
0.0
  0
LINE
  5
260
330
1F
100
AcDbEntity
  8
0
  6
CONTINUOUS
 62
     3
100
AcDbLine
 10
321.3
 20
71.85
 30
0.0
 11
318.191194813
 21
68.55677368
 31
0.0
  0
ARC
  5
261
330
1F
100
AcDbEntity
  8
0
  6
CONTINUOUS
 62
     3
100
AcDbCircle
 10
317.827607557
 20
68.9
 30
0.0
 40
0.5
100
AcDbArc
 50
270.0
 51
316.650043621
  0
LINE
  5
262
330
1F
100
AcDbEntity
  8
0
  6
CONTINUOUS
 62
     3
100
AcDbLine
 10
307.35
 20
66.35
 30
0.0
 11
307.35
 21
67.15
 31
0.0
  0
LINE
  5
263
330
1F
100
AcDbEntity
  8
0
  6
CONTINUOUS
 62
     3
100
AcDbLine
 10
286.85
 20
66.35
 30
0.0
 11
286.85
 21
67.15
 31
0.0
  0
LINE
  5
264
330
1F
100
AcDbEntity
  8
0
  6
CONTINUOUS
 62
     3
100
AcDbLine
 10
292.85
 20
67.15
 30
0.0
 11
286.85
 21
67.15
 31
0.0
  0
LINE
  5
265
330
1F
100
AcDbEntity
  8
0
  6
CONTINUOUS
 62
     3
100
AcDbLine
 10
307.35
 20
66.35
 30
0.0
 11
286.85
 21
66.35
 31
0.0
  0
LINE
  5
266
330
1F
100
AcDbEntity
  8
0
  6
CONTINUOUS
 62
     3
100
AcDbLine
 10
374.098572094
 20
112.959245036
 30
0.0
 11
365.25
 21
116.25
 31
0.0
  0
LINE
  5
267
330
1F
100
AcDbEntity
  8
0
  6
CONTINUOUS
 62
     3
100
AcDbLine
 10
374.75
 20
97.716981132
 30
0.0
 11
374.75
 21
112.021964971
 31
0.0
  0
ARC
  5
268
330
1F
100
AcDbEntity
  8
0
  6
CONTINUOUS
 62
     3
100
AcDbCircle
 10
373.75
 20
112.021963063
 30
0.0
 40
1.0
100
AcDbArc
 50
0.000109283
 51
69.599997152
  0
LINE
  5
269
330
1F
100
AcDbEntity
  8
0
  6
CONTINUOUS
 62
     3
100
AcDbLine
 10
373.75
 20
97.716981132
 30
0.0
 11
373.75
 21
112.021963063
 31
0.0
  0
LINE
  5
26A
330
1F
100
AcDbEntity
  8
0
  6
CONTINUOUS
 62
     3
100
AcDbLine
 10
373.75
 20
112.021963063
 30
0.0
 11
374.45
 21
112.511963063
 31
0.0
  0
LINE
  5
26B
330
1F
100
AcDbEntity
  8
0
  6
CONTINUOUS
 62
     3
100
AcDbLine
 10
373.75
 20
112.021963063
 30
0.0
 11
365.25
 21
115.183085208
 31
0.0
  0
LINE
  5
26C
330
1F
100
AcDbEntity
  8
0
  6
CONTINUOUS
 62
     3
100
AcDbLine
 10
365.25
 20
115.183085208
 30
0.0
 11
365.25
 21
116.403636364
 31
0.0
  0
LINE
  5
26D
330
1F
100
AcDbEntity
  8
0
  6
CONTINUOUS
 62
     3
100
AcDbLine
 10
384.56353902
 20
94.476661644
 30
0.0
 11
374.75
 21
97.716981132
 31
0.0
  0
ARC
  5
26E
330
1F
100
AcDbEntity
  8
0
  6
CONTINUOUS
 62
     3
100
AcDbCircle
 10
384.25
 20
93.527086327
 30
0.0
 40
1.0
100
AcDbArc
 50
0.0
 51
71.727361733
  0
LINE
  5
26F
330
1F
100
AcDbEntity
  8
0
  6
CONTINUOUS
 62
     3
100
AcDbLine
 10
385.25
 20
73.0
 30
0.0
 11
385.25
 21
93.527086327
 31
0.0
  0
LINE
  5
270
330
1F
100
AcDbEntity
  8
0
  6
CONTINUOUS
 62
     3
100
AcDbLine
 10
384.25
 20
93.527086327
 30
0.0
 11
374.43646098
 21
96.767405815
 31
0.0
  0
LINE
  5
271
330
1F
100
AcDbEntity
  8
0
  6
CONTINUOUS
 62
     3
100
AcDbLine
 10
384.25
 20
93.527086327
 30
0.0
 11
385.03
 21
94.017086327
 31
0.0
  0
LINE
  5
272
330
1F
100
AcDbEntity
  8
0
  6
CONTINUOUS
 62
     3
100
AcDbLine
 10
384.25
 20
93.527086327
 30
0.0
 11
384.25
 21
72.5
 31
0.0
  0
POINT
  5
273
330
1F
100
AcDbEntity
  8
0
  6
CONTINUOUS
 62
     3
100
AcDbPoint
 10
373.75
 20
98.75
 30
0.0
  0
ARC
  5
274
330
1F
100
AcDbEntity
  8
0
  6
CONTINUOUS
 62
     3
100
AcDbCircle
 10
374.75
 20
97.716981132
 30
0.0
 40
1.0
100
AcDbArc
 50
180.0
 51
251.727361733
  0
LINE
  5
275
330
1F
100
AcDbEntity
  8
0
  6
CONTINUOUS
 62
     3
100
AcDbLine
 10
374.75
 20
97.716981132
 30
0.0
 11
374.12
 21
97.226981132
 31
0.0
  0
LINE
  5
276
330
1F
100
AcDbEntity
  8
0
  6
CONTINUOUS
 62
     3
100
AcDbLine
 10
297.75
 20
112.021963063
 30
0.0
 11
306.25
 21
115.183085208
 31
0.0
  0
LINE
  5
277
330
1F
100
AcDbEntity
  8
0
  6
CONTINUOUS
 62
     3
100
AcDbLine
 10
306.25
 20
115.183085208
 30
0.0
 11
306.25
 21
116.403636364
 31
0.0
  0
LINE
  5
278
330
1F
100
AcDbEntity
  8
0
  6
CONTINUOUS
 62
     3
100
AcDbLine
 10
297.401425536
 20
112.959244154
 30
0.0
 11
306.25
 21
116.25
 31
0.0
  0
POINT
  5
279
330
1F
100
AcDbEntity
  8
0
  6
CONTINUOUS
 62
     3
100
AcDbPoint
 10
297.75
 20
98.75
 30
0.0
  0
LINE
  5
27A
330
1F
100
AcDbEntity
  8
0
  6
CONTINUOUS
 62
     3
100
AcDbLine
 10
287.25
 20
93.560105195
 30
0.0
 11
297.06353902
 21
96.800424683
 31
0.0
  0
LINE
  5
27B
330
1F
100
AcDbEntity
  8
0
  6
CONTINUOUS
 62
     3
100
AcDbLine
 10
296.75
 20
97.716981132
 30
0.0
 11
297.37
 21
97.196981132
 31
0.0
  0
LINE
  5
27C
330
1F
100
AcDbEntity
  8
0
  6
CONTINUOUS
 62
     3
100
AcDbLine
 10
297.75
 20
97.75
 30
0.0
 11
297.75
 21
112.021963063
 31
0.0
  0
ARC
  5
27D
330
1F
100
AcDbEntity
  8
0
  6
CONTINUOUS
 62
     3
100
AcDbCircle
 10
296.75
 20
97.75
 30
0.0
 40
1.0
100
AcDbArc
 50
288.2726382669999
 51
0.0
  0
LINE
  5
27E
330
1F
100
AcDbEntity
  8
0
  6
CONTINUOUS
 62
     3
100
AcDbLine
 10
286.93646098
 20
94.509680512
 30
0.0
 11
296.75
 21
97.75
 31
0.0
  0
LINE
  5
27F
330
1F
100
AcDbEntity
  8
0
  6
CONTINUOUS
 62
     3
100
AcDbLine
 10
296.75
 20
97.75
 30
0.0
 11
296.75
 21
112.021964971
 31
0.0
  0
LINE
  5
280
330
1F
100
AcDbEntity
  8
0
  6
CONTINUOUS
 62
     3
100
AcDbLine
 10
297.75
 20
112.021963063
 30
0.0
 11
297.12
 21
112.451963063
 31
0.0
  0
ARC
  5
281
330
1F
100
AcDbEntity
  8
0
  6
CONTINUOUS
 62
     3
100
AcDbCircle
 10
297.75
 20
112.021963063
 30
0.0
 40
1.0
100
AcDbArc
 50
110.400147705
 51
179.999890717
  0
LINE
  5
282
330
1F
100
AcDbEntity
  8
0
  6
CONTINUOUS
 62
     3
100
AcDbLine
 10
286.25
 20
73.0
 30
0.0
 11
286.25
 21
93.527086327
 31
0.0
  0
LINE
  5
283
330
1F
100
AcDbEntity
  8
0
  6
CONTINUOUS
 62
     3
100
AcDbLine
 10
287.25
 20
93.527086327
 30
0.0
 11
287.25
 21
73.0
 31
0.0
  0
ARC
  5
284
330
1F
100
AcDbEntity
  8
0
  6
CONTINUOUS
 62
     3
100
AcDbCircle
 10
287.25
 20
93.527086327
 30
0.0
 40
1.0
100
AcDbArc
 50
108.272638267
 51
180.0
  0
LINE
  5
285
330
1F
100
AcDbEntity
  8
0
  6
CONTINUOUS
 62
     3
100
AcDbLine
 10
287.25
 20
93.527086327
 30
0.0
 11
286.57
 21
94.007086327
 31
0.0
  0
LINE
  5
286
330
1F
100
AcDbEntity
  8
0
  6
CONTINUOUS
 62
     3
100
AcDbLine
 10
365.25
 20
183.0
 30
0.0
 11
365.25
 21
173.85
 31
0.0
  0
ARC
  5
287
330
1F
100
AcDbEntity
  8
0
  6
CONTINUOUS
 62
     3
100
AcDbCircle
 10
364.25
 20
183.0
 30
0.0
 40
1.0
100
AcDbArc
 50
0.0
 51
90.0
  0
CIRCLE
  5
288
330
1F
100
AcDbEntity
  8
0
  6
CONTINUOUS
 62
     3
100
AcDbCircle
 10
362.75
 20
181.0
 30
0.0
 40
1.5
  0
LINE
  5
289
330
1F
100
AcDbEntity
  8
0
  6
CONTINUOUS
 62
     3
100
AcDbLine
 10
364.25
 20
172.85
 30
0.0
 11
364.25
 21
174.25
 31
0.0
  0
LINE
  5
28A
330
1F
100
AcDbEntity
  8
0
  6
CONTINUOUS
 62
     3
100
AcDbLine
 10
363.75
 20
167.25
 30
0.0
 11
363.75
 21
169.25
 31
0.0
  0
LINE
  5
28B
330
1F
100
AcDbEntity
  8
0
  6
CONTINUOUS
 62
     3
100
AcDbLine
 10
363.75
 20
170.75
 30
0.0
 11
363.75
 21
172.75
 31
0.0
  0
LINE
  5
28C
330
1F
100
AcDbEntity
  8
0
  6
CONTINUOUS
 62
     3
100
AcDbLine
 10
361.75
 20
172.75
 30
0.0
 11
365.25
 21
172.75
 31
0.0
  0
LINE
  5
28D
330
1F
100
AcDbEntity
  8
0
  6
CONTINUOUS
 62
     3
100
AcDbLine
 10
365.25
 20
170.75
 30
0.0
 11
361.75
 21
170.75
 31
0.0
  0
LINE
  5
28E
330
1F
100
AcDbEntity
  8
0
  6
CONTINUOUS
 62
     3
100
AcDbLine
 10
361.75
 20
172.75
 30
0.0
 11
361.75
 21
170.75
 31
0.0
  0
LINE
  5
28F
330
1F
100
AcDbEntity
  8
0
  6
CONTINUOUS
 62
     3
100
AcDbLine
 10
363.75
 20
174.25
 30
0.0
 11
363.75
 21
176.25
 31
0.0
  0
LINE
  5
290
330
1F
100
AcDbEntity
  8
0
  6
CONTINUOUS
 62
     3
100
AcDbLine
 10
361.75
 20
176.25
 30
0.0
 11
365.25
 21
176.25
 31
0.0
  0
LINE
  5
291
330
1F
100
AcDbEntity
  8
0
  6
CONTINUOUS
 62
     3
100
AcDbLine
 10
365.25
 20
174.25
 30
0.0
 11
361.75
 21
174.25
 31
0.0
  0
LINE
  5
292
330
1F
100
AcDbEntity
  8
0
  6
CONTINUOUS
 62
     3
100
AcDbLine
 10
361.75
 20
176.25
 30
0.0
 11
361.75
 21
174.25
 31
0.0
  0
LINE
  5
293
330
1F
100
AcDbEntity
  8
0
  6
CONTINUOUS
 62
     3
100
AcDbLine
 10
365.25
 20
167.25
 30
0.0
 11
361.75
 21
167.25
 31
0.0
  0
LINE
  5
294
330
1F
100
AcDbEntity
  8
0
  6
CONTINUOUS
 62
     3
100
AcDbLine
 10
361.75
 20
165.75
 30
0.0
 11
365.25
 21
165.75
 31
0.0
  0
LINE
  5
295
330
1F
100
AcDbEntity
  8
0
  6
CONTINUOUS
 62
     3
100
AcDbLine
 10
361.75
 20
167.25
 30
0.0
 11
361.75
 21
165.75
 31
0.0
  0
LINE
  5
296
330
1F
100
AcDbEntity
  8
0
  6
CONTINUOUS
 62
     3
100
AcDbLine
 10
361.75
 20
170.75
 30
0.0
 11
361.75
 21
169.25
 31
0.0
  0
LINE
  5
297
330
1F
100
AcDbEntity
  8
0
  6
CONTINUOUS
 62
     3
100
AcDbLine
 10
360.25
 20
169.25
 30
0.0
 11
365.25
 21
169.25
 31
0.0
  0
LINE
  5
298
330
1F
100
AcDbEntity
  8
0
  6
CONTINUOUS
 62
     3
100
AcDbLine
 10
364.25
 20
165.75
 30
0.0
 11
364.25
 21
167.25
 31
0.0
  0
LINE
  5
299
330
1F
100
AcDbEntity
  8
0
  6
CONTINUOUS
 62
     3
100
AcDbLine
 10
364.25
 20
169.25
 30
0.0
 11
364.25
 21
170.75
 31
0.0
  0
LINE
  5
29A
330
1F
100
AcDbEntity
  8
0
  6
CONTINUOUS
 62
     3
100
AcDbLine
 10
365.25
 20
138.35
 30
0.0
 11
365.25
 21
137.85
 31
0.0
  0
LINE
  5
29B
330
1F
100
AcDbEntity
  8
0
  6
CONTINUOUS
 62
     3
100
AcDbLine
 10
365.25
 20
141.65
 30
0.0
 11
365.25
 21
137.85
 31
0.0
  0
LINE
  5
29C
330
1F
100
AcDbEntity
  8
0
  6
CONTINUOUS
 62
     3
100
AcDbLine
 10
364.25
 20
144.75
 30
0.0
 11
365.25
 21
144.75
 31
0.0
  0
LINE
  5
29D
330
1F
100
AcDbEntity
  8
0
  6
CONTINUOUS
 62
     3
100
AcDbLine
 10
364.25
 20
139.33
 30
0.0
 11
364.25
 21
139.25
 31
0.0
  0
LINE
  5
29E
330
1F
100
AcDbEntity
  8
0
  6
CONTINUOUS
 62
     3
100
AcDbLine
 10
362.75
 20
139.25
 30
0.0
 11
365.25
 21
139.25
 31
0.0
  0
LINE
  5
29F
330
1F
100
AcDbEntity
  8
0
  6
CONTINUOUS
 62
     3
100
AcDbLine
 10
360.25
 20
139.25
 30
0.0
 11
363.75
 21
139.25
 31
0.0
  0
LINE
  5
2A0
330
1F
100
AcDbEntity
  8
0
  6
CONTINUOUS
 62
     3
100
AcDbLine
 10
365.25
 20
142.75
 30
0.0
 11
361.75
 21
142.75
 31
0.0
  0
LINE
  5
2A1
330
1F
100
AcDbEntity
  8
0
  6
CONTINUOUS
 62
     3
100
AcDbLine
 10
361.75
 20
141.25
 30
0.0
 11
365.25
 21
141.25
 31
0.0
  0
LINE
  5
2A2
330
1F
100
AcDbEntity
  8
0
  6
CONTINUOUS
 62
     3
100
AcDbLine
 10
363.75
 20
142.75
 30
0.0
 11
363.75
 21
144.75
 31
0.0
  0
LINE
  5
2A3
330
1F
100
AcDbEntity
  8
0
  6
CONTINUOUS
 62
     3
100
AcDbLine
 10
363.75
 20
139.25
 30
0.0
 11
363.75
 21
141.25
 31
0.0
  0
LINE
  5
2A4
330
1F
100
AcDbEntity
  8
0
  6
CONTINUOUS
 62
     3
100
AcDbLine
 10
364.25
 20
148.25
 30
0.0
 11
365.25
 21
148.25
 31
0.0
  0
LINE
  5
2A5
330
1F
100
AcDbEntity
  8
0
  6
CONTINUOUS
 62
     3
100
AcDbLine
 10
363.75
 20
146.25
 30
0.0
 11
363.75
 21
148.25
 31
0.0
  0
LINE
  5
2A6
330
1F
100
AcDbEntity
  8
0
  6
CONTINUOUS
 62
     3
100
AcDbLine
 10
361.75
 20
148.25
 30
0.0
 11
365.25
 21
148.25
 31
0.0
  0
LINE
  5
2A7
330
1F
100
AcDbEntity
  8
0
  6
CONTINUOUS
 62
     3
100
AcDbLine
 10
365.25
 20
146.25
 30
0.0
 11
361.75
 21
146.25
 31
0.0
  0
LINE
  5
2A8
330
1F
100
AcDbEntity
  8
0
  6
CONTINUOUS
 62
     3
100
AcDbLine
 10
361.75
 20
148.25
 30
0.0
 11
361.75
 21
146.25
 31
0.0
  0
LINE
  5
2A9
330
1F
100
AcDbEntity
  8
0
  6
CONTINUOUS
 62
     3
100
AcDbLine
 10
364.25
 20
151.75
 30
0.0
 11
365.25
 21
151.75
 31
0.0
  0
LINE
  5
2AA
330
1F
100
AcDbEntity
  8
0
  6
CONTINUOUS
 62
     3
100
AcDbLine
 10
363.75
 20
149.75
 30
0.0
 11
363.75
 21
151.75
 31
0.0
  0
LINE
  5
2AB
330
1F
100
AcDbEntity
  8
0
  6
CONTINUOUS
 62
     3
100
AcDbLine
 10
361.75
 20
151.75
 30
0.0
 11
365.25
 21
151.75
 31
0.0
  0
LINE
  5
2AC
330
1F
100
AcDbEntity
  8
0
  6
CONTINUOUS
 62
     3
100
AcDbLine
 10
365.25
 20
149.75
 30
0.0
 11
361.75
 21
149.75
 31
0.0
  0
LINE
  5
2AD
330
1F
100
AcDbEntity
  8
0
  6
CONTINUOUS
 62
     3
100
AcDbLine
 10
361.75
 20
151.75
 30
0.0
 11
361.75
 21
149.75
 31
0.0
  0
LINE
  5
2AE
330
1F
100
AcDbEntity
  8
0
  6
CONTINUOUS
 62
     3
100
AcDbLine
 10
364.25
 20
155.25
 30
0.0
 11
365.25
 21
155.25
 31
0.0
  0
LINE
  5
2AF
330
1F
100
AcDbEntity
  8
0
  6
CONTINUOUS
 62
     3
100
AcDbLine
 10
363.75
 20
153.25
 30
0.0
 11
363.75
 21
155.25
 31
0.0
  0
LINE
  5
2B0
330
1F
100
AcDbEntity
  8
0
  6
CONTINUOUS
 62
     3
100
AcDbLine
 10
361.75
 20
155.25
 30
0.0
 11
365.25
 21
155.25
 31
0.0
  0
LINE
  5
2B1
330
1F
100
AcDbEntity
  8
0
  6
CONTINUOUS
 62
     3
100
AcDbLine
 10
365.25
 20
153.25
 30
0.0
 11
361.75
 21
153.25
 31
0.0
  0
LINE
  5
2B2
330
1F
100
AcDbEntity
  8
0
  6
CONTINUOUS
 62
     3
100
AcDbLine
 10
361.75
 20
155.25
 30
0.0
 11
361.75
 21
153.25
 31
0.0
  0
LINE
  5
2B3
330
1F
100
AcDbEntity
  8
0
  6
CONTINUOUS
 62
     3
100
AcDbLine
 10
364.25
 20
158.75
 30
0.0
 11
365.25
 21
158.75
 31
0.0
  0
LINE
  5
2B4
330
1F
100
AcDbEntity
  8
0
  6
CONTINUOUS
 62
     3
100
AcDbLine
 10
363.75
 20
156.75
 30
0.0
 11
363.75
 21
158.75
 31
0.0
  0
LINE
  5
2B5
330
1F
100
AcDbEntity
  8
0
  6
CONTINUOUS
 62
     3
100
AcDbLine
 10
361.75
 20
158.75
 30
0.0
 11
365.25
 21
158.75
 31
0.0
  0
LINE
  5
2B6
330
1F
100
AcDbEntity
  8
0
  6
CONTINUOUS
 62
     3
100
AcDbLine
 10
365.25
 20
156.75
 30
0.0
 11
361.75
 21
156.75
 31
0.0
  0
LINE
  5
2B7
330
1F
100
AcDbEntity
  8
0
  6
CONTINUOUS
 62
     3
100
AcDbLine
 10
361.75
 20
158.75
 30
0.0
 11
361.75
 21
156.75
 31
0.0
  0
LINE
  5
2B8
330
1F
100
AcDbEntity
  8
0
  6
CONTINUOUS
 62
     3
100
AcDbLine
 10
363.75
 20
160.25
 30
0.0
 11
363.75
 21
162.25
 31
0.0
  0
LINE
  5
2B9
330
1F
100
AcDbEntity
  8
0
  6
CONTINUOUS
 62
     3
100
AcDbLine
 10
361.75
 20
162.25
 30
0.0
 11
365.25
 21
162.25
 31
0.0
  0
LINE
  5
2BA
330
1F
100
AcDbEntity
  8
0
  6
CONTINUOUS
 62
     3
100
AcDbLine
 10
365.25
 20
160.25
 30
0.0
 11
361.75
 21
160.25
 31
0.0
  0
LINE
  5
2BB
330
1F
100
AcDbEntity
  8
0
  6
CONTINUOUS
 62
     3
100
AcDbLine
 10
361.75
 20
162.25
 30
0.0
 11
361.75
 21
160.25
 31
0.0
  0
LINE
  5
2BC
330
1F
100
AcDbEntity
  8
0
  6
CONTINUOUS
 62
     3
100
AcDbLine
 10
365.25
 20
163.75
 30
0.0
 11
360.25
 21
163.75
 31
0.0
  0
LINE
  5
2BD
330
1F
100
AcDbEntity
  8
0
  6
CONTINUOUS
 62
     3
100
AcDbLine
 10
365.25
 20
139.25
 30
0.0
 11
361.75
 21
139.25
 31
0.0
  0
LINE
  5
2BE
330
1F
100
AcDbEntity
  8
0
  6
CONTINUOUS
 62
     3
100
AcDbLine
 10
364.25
 20
142.75
 30
0.0
 11
364.25
 21
141.25
 31
0.0
  0
LINE
  5
2BF
330
1F
100
AcDbEntity
  8
0
  6
CONTINUOUS
 62
     3
100
AcDbLine
 10
364.25
 20
144.75
 30
0.0
 11
364.25
 21
146.25
 31
0.0
  0
LINE
  5
2C0
330
1F
100
AcDbEntity
  8
0
  6
CONTINUOUS
 62
     3
100
AcDbLine
 10
364.25
 20
148.25
 30
0.0
 11
364.25
 21
149.75
 31
0.0
  0
LINE
  5
2C1
330
1F
100
AcDbEntity
  8
0
  6
CONTINUOUS
 62
     3
100
AcDbLine
 10
364.25
 20
151.75
 30
0.0
 11
364.25
 21
153.25
 31
0.0
  0
LINE
  5
2C2
330
1F
100
AcDbEntity
  8
0
  6
CONTINUOUS
 62
     3
100
AcDbLine
 10
364.25
 20
155.25
 30
0.0
 11
364.25
 21
156.75
 31
0.0
  0
LINE
  5
2C3
330
1F
100
AcDbEntity
  8
0
  6
CONTINUOUS
 62
     3
100
AcDbLine
 10
364.25
 20
158.75
 30
0.0
 11
364.25
 21
160.25
 31
0.0
  0
LINE
  5
2C4
330
1F
100
AcDbEntity
  8
0
  6
CONTINUOUS
 62
     3
100
AcDbLine
 10
364.25
 20
162.25
 30
0.0
 11
364.25
 21
163.75
 31
0.0
  0
LINE
  5
2C5
330
1F
100
AcDbEntity
  8
0
  6
CONTINUOUS
 62
     3
100
AcDbLine
 10
360.25
 20
139.25
 30
0.0
 11
360.25
 21
144.75
 31
0.0
  0
LINE
  5
2C6
330
1F
100
AcDbEntity
  8
0
  6
CONTINUOUS
 62
     3
100
AcDbLine
 10
360.25
 20
144.75
 30
0.0
 11
365.25
 21
144.75
 31
0.0
  0
LINE
  5
2C7
330
1F
100
AcDbEntity
  8
0
  6
CONTINUOUS
 62
     3
100
AcDbLine
 10
361.75
 20
142.75
 30
0.0
 11
361.75
 21
141.25
 31
0.0
  0
LINE
  5
2C8
330
1F
100
AcDbEntity
  8
0
  6
CONTINUOUS
 62
     3
100
AcDbLine
 10
307.25
 20
172.85
 30
0.0
 11
307.25
 21
174.25
 31
0.0
  0
LINE
  5
2C9
330
1F
100
AcDbEntity
  8
0
  6
CONTINUOUS
 62
     3
100
AcDbLine
 10
307.75
 20
167.25
 30
0.0
 11
307.75
 21
169.25
 31
0.0
  0
LINE
  5
2CA
330
1F
100
AcDbEntity
  8
0
  6
CONTINUOUS
 62
     3
100
AcDbLine
 10
307.75
 20
170.75
 30
0.0
 11
307.75
 21
172.75
 31
0.0
  0
LINE
  5
2CB
330
1F
100
AcDbEntity
  8
0
  6
CONTINUOUS
 62
     3
100
AcDbLine
 10
309.75
 20
172.75
 30
0.0
 11
306.25
 21
172.75
 31
0.0
  0
LINE
  5
2CC
330
1F
100
AcDbEntity
  8
0
  6
CONTINUOUS
 62
     3
100
AcDbLine
 10
306.25
 20
170.75
 30
0.0
 11
309.75
 21
170.75
 31
0.0
  0
LINE
  5
2CD
330
1F
100
AcDbEntity
  8
0
  6
CONTINUOUS
 62
     3
100
AcDbLine
 10
309.75
 20
172.75
 30
0.0
 11
309.75
 21
170.75
 31
0.0
  0
LINE
  5
2CE
330
1F
100
AcDbEntity
  8
0
  6
CONTINUOUS
 62
     3
100
AcDbLine
 10
307.75
 20
174.25
 30
0.0
 11
307.75
 21
176.25
 31
0.0
  0
LINE
  5
2CF
330
1F
100
AcDbEntity
  8
0
  6
CONTINUOUS
 62
     3
100
AcDbLine
 10
309.75
 20
176.25
 30
0.0
 11
306.25
 21
176.25
 31
0.0
  0
LINE
  5
2D0
330
1F
100
AcDbEntity
  8
0
  6
CONTINUOUS
 62
     3
100
AcDbLine
 10
306.25
 20
174.25
 30
0.0
 11
309.75
 21
174.25
 31
0.0
  0
LINE
  5
2D1
330
1F
100
AcDbEntity
  8
0
  6
CONTINUOUS
 62
     3
100
AcDbLine
 10
309.75
 20
176.25
 30
0.0
 11
309.75
 21
174.25
 31
0.0
  0
LINE
  5
2D2
330
1F
100
AcDbEntity
  8
0
  6
CONTINUOUS
 62
     3
100
AcDbLine
 10
306.25
 20
167.25
 30
0.0
 11
309.75
 21
167.25
 31
0.0
  0
LINE
  5
2D3
330
1F
100
AcDbEntity
  8
0
  6
CONTINUOUS
 62
     3
100
AcDbLine
 10
309.75
 20
165.75
 30
0.0
 11
306.25
 21
165.75
 31
0.0
  0
LINE
  5
2D4
330
1F
100
AcDbEntity
  8
0
  6
CONTINUOUS
 62
     3
100
AcDbLine
 10
307.25
 20
170.75
 30
0.0
 11
307.25
 21
169.25
 31
0.0
  0
LINE
  5
2D5
330
1F
100
AcDbEntity
  8
0
  6
CONTINUOUS
 62
     3
100
AcDbLine
 10
307.25
 20
167.25
 30
0.0
 11
307.25
 21
165.75
 31
0.0
  0
LINE
  5
2D6
330
1F
100
AcDbEntity
  8
0
  6
CONTINUOUS
 62
     3
100
AcDbLine
 10
309.75
 20
167.25
 30
0.0
 11
309.75
 21
165.75
 31
0.0
  0
LINE
  5
2D7
330
1F
100
AcDbEntity
  8
0
  6
CONTINUOUS
 62
     3
100
AcDbLine
 10
307.25
 20
144.75
 30
0.0
 11
306.25
 21
144.75
 31
0.0
  0
LINE
  5
2D8
330
1F
100
AcDbEntity
  8
0
  6
CONTINUOUS
 62
     3
100
AcDbLine
 10
307.25
 20
139.33
 30
0.0
 11
307.25
 21
139.25
 31
0.0
  0
LINE
  5
2D9
330
1F
100
AcDbEntity
  8
0
  6
CONTINUOUS
 62
     3
100
AcDbLine
 10
307.75
 20
142.75
 30
0.0
 11
307.75
 21
144.75
 31
0.0
  0
LINE
  5
2DA
330
1F
100
AcDbEntity
  8
0
  6
CONTINUOUS
 62
     3
100
AcDbLine
 10
307.75
 20
139.25
 30
0.0
 11
307.75
 21
141.25
 31
0.0
  0
LINE
  5
2DB
330
1F
100
AcDbEntity
  8
0
  6
CONTINUOUS
 62
     3
100
AcDbLine
 10
307.25
 20
148.25
 30
0.0
 11
306.25
 21
148.25
 31
0.0
  0
LINE
  5
2DC
330
1F
100
AcDbEntity
  8
0
  6
CONTINUOUS
 62
     3
100
AcDbLine
 10
307.75
 20
146.25
 30
0.0
 11
307.75
 21
148.25
 31
0.0
  0
LINE
  5
2DD
330
1F
100
AcDbEntity
  8
0
  6
CONTINUOUS
 62
     3
100
AcDbLine
 10
307.25
 20
151.75
 30
0.0
 11
306.25
 21
151.75
 31
0.0
  0
LINE
  5
2DE
330
1F
100
AcDbEntity
  8
0
  6
CONTINUOUS
 62
     3
100
AcDbLine
 10
307.75
 20
149.75
 30
0.0
 11
307.75
 21
151.75
 31
0.0
  0
LINE
  5
2DF
330
1F
100
AcDbEntity
  8
0
  6
CONTINUOUS
 62
     3
100
AcDbLine
 10
307.25
 20
155.25
 30
0.0
 11
306.25
 21
155.25
 31
0.0
  0
LINE
  5
2E0
330
1F
100
AcDbEntity
  8
0
  6
CONTINUOUS
 62
     3
100
AcDbLine
 10
307.75
 20
153.25
 30
0.0
 11
307.75
 21
155.25
 31
0.0
  0
LINE
  5
2E1
330
1F
100
AcDbEntity
  8
0
  6
CONTINUOUS
 62
     3
100
AcDbLine
 10
307.25
 20
158.75
 30
0.0
 11
306.25
 21
158.75
 31
0.0
  0
LINE
  5
2E2
330
1F
100
AcDbEntity
  8
0
  6
CONTINUOUS
 62
     3
100
AcDbLine
 10
307.75
 20
156.75
 30
0.0
 11
307.75
 21
158.75
 31
0.0
  0
LINE
  5
2E3
330
1F
100
AcDbEntity
  8
0
  6
CONTINUOUS
 62
     3
100
AcDbLine
 10
307.75
 20
160.25
 30
0.0
 11
307.75
 21
162.25
 31
0.0
  0
LINE
  5
2E4
330
1F
100
AcDbEntity
  8
0
  6
CONTINUOUS
 62
     3
100
AcDbLine
 10
306.25
 20
137.85
 30
0.0
 11
307.25
 21
137.85
 31
0.0
  0
LINE
  5
2E5
330
1F
100
AcDbEntity
  8
0
  6
CONTINUOUS
 62
     3
100
AcDbLine
 10
307.25
 20
163.75
 30
0.0
 11
307.25
 21
162.25
 31
0.0
  0
LINE
  5
2E6
330
1F
100
AcDbEntity
  8
0
  6
CONTINUOUS
 62
     3
100
AcDbLine
 10
307.25
 20
160.25
 30
0.0
 11
307.25
 21
158.75
 31
0.0
  0
LINE
  5
2E7
330
1F
100
AcDbEntity
  8
0
  6
CONTINUOUS
 62
     3
100
AcDbLine
 10
307.25
 20
156.75
 30
0.0
 11
307.25
 21
155.25
 31
0.0
  0
LINE
  5
2E8
330
1F
100
AcDbEntity
  8
0
  6
CONTINUOUS
 62
     3
100
AcDbLine
 10
307.25
 20
153.25
 30
0.0
 11
307.25
 21
151.75
 31
0.0
  0
LINE
  5
2E9
330
1F
100
AcDbEntity
  8
0
  6
CONTINUOUS
 62
     3
100
AcDbLine
 10
307.25
 20
149.75
 30
0.0
 11
307.25
 21
148.25
 31
0.0
  0
LINE
  5
2EA
330
1F
100
AcDbEntity
  8
0
  6
CONTINUOUS
 62
     3
100
AcDbLine
 10
307.25
 20
146.25
 30
0.0
 11
307.25
 21
144.75
 31
0.0
  0
LINE
  5
2EB
330
1F
100
AcDbEntity
  8
0
  6
CONTINUOUS
 62
     3
100
AcDbLine
 10
307.25
 20
142.75
 30
0.0
 11
307.25
 21
141.25
 31
0.0
  0
LINE
  5
2EC
330
1F
100
AcDbEntity
  8
0
  6
CONTINUOUS
 62
     3
100
AcDbLine
 10
307.25
 20
139.33
 30
0.0
 11
307.25
 21
137.85
 31
0.0
  0
LINE
  5
2ED
330
1F
100
AcDbEntity
  8
0
  6
CONTINUOUS
 62
     2
100
AcDbLine
 10
335.95
 20
66.5
 30
0.0
 11
348.45
 21
66.5
 31
0.0
  0
LINE
  5
2EE
330
1F
100
AcDbEntity
  8
0
  6
CONTINUOUS
 62
     2
100
AcDbLine
 10
348.45
 20
65.5
 30
0.0
 11
335.95
 21
65.5
 31
0.0
  0
ARC
  5
2EF
330
1F
100
AcDbEntity
  8
0
  6
CONTINUOUS
 62
     2
100
AcDbCircle
 10
348.45
 20
66.5
 30
0.0
 40
1.0
100
AcDbArc
 50
270.0
 51
0.0
  0
LINE
  5
2F0
330
1F
100
AcDbEntity
  8
0
  6
CONTINUOUS
 62
     2
100
AcDbLine
 10
335.95
 20
66.5
 30
0.0
 11
323.45
 21
66.5
 31
0.0
  0
LINE
  5
2F1
330
1F
100
AcDbEntity
  8
0
  6
CONTINUOUS
 62
     2
100
AcDbLine
 10
323.45
 20
65.5
 30
0.0
 11
335.95
 21
65.5
 31
0.0
  0
ARC
  5
2F2
330
1F
100
AcDbEntity
  8
0
  6
CONTINUOUS
 62
     2
100
AcDbCircle
 10
323.45
 20
66.5
 30
0.0
 40
1.0
100
AcDbArc
 50
180.0
 51
270.0
  0
ARC
  5
2F3
330
1F
100
AcDbEntity
  8
0
  6
CONTINUOUS
 62
     2
100
AcDbCircle
 10
322.45
 20
71.8
 30
0.0
 40
1.0
100
AcDbArc
 50
0.0
 51
90.0
  0
LINE
  5
2F4
330
1F
100
AcDbEntity
  8
0
  6
CONTINUOUS
 62
     2
100
AcDbLine
 10
323.45
 20
66.5
 30
0.0
 11
323.45
 21
71.8
 31
0.0
  0
LINE
  5
2F5
330
1F
100
AcDbEntity
  8
0
  6
CONTINUOUS
 62
     2
100
AcDbLine
 10
322.45
 20
71.8
 30
0.0
 11
322.45
 21
66.5
 31
0.0
  0
LINE
  5
2F6
330
1F
100
AcDbEntity
  8
0
  6
CONTINUOUS
 62
     2
100
AcDbLine
 10
353.45
 20
71.8
 30
0.0
 11
349.45
 21
71.8
 31
0.0
  0
LINE
  5
2F7
330
1F
100
AcDbEntity
  8
0
  6
CONTINUOUS
 62
     2
100
AcDbLine
 10
353.45
 20
72.8
 30
0.0
 11
353.45
 21
71.8
 31
0.0
  0
LINE
  5
2F8
330
1F
100
AcDbEntity
  8
0
  6
CONTINUOUS
 62
     2
100
AcDbLine
 10
353.45
 20
71.8
 30
0.0
 11
349.45
 21
71.8
 31
0.0
  0
LINE
  5
2F9
330
1F
100
AcDbEntity
  8
0
  6
CONTINUOUS
 62
     2
100
AcDbLine
 10
348.45
 20
66.5
 30
0.0
 11
348.45
 21
71.8
 31
0.0
  0
LINE
  5
2FA
330
1F
100
AcDbEntity
  8
0
  6
CONTINUOUS
 62
     2
100
AcDbLine
 10
349.45
 20
71.8
 30
0.0
 11
349.45
 21
66.5
 31
0.0
  0
ARC
  5
2FB
330
1F
100
AcDbEntity
  8
0
  6
CONTINUOUS
 62
     2
100
AcDbCircle
 10
349.45
 20
71.8
 30
0.0
 40
1.0
100
AcDbArc
 50
90.0
 51
180.0
  0
ARC
  5
2FC
330
1F
100
AcDbEntity
  8
0
  6
CONTINUOUS
 62
     2
100
AcDbCircle
 10
349.45
 20
71.8
 30
0.0
 40
1.0
100
AcDbArc
 50
90.0
 51
180.0
  0
LINE
  5
2FD
330
1F
100
AcDbEntity
  8
0
  6
CONTINUOUS
 62
     2
100
AcDbLine
 10
353.45
 20
72.8
 30
0.0
 11
353.45
 21
71.8
 31
0.0
  0
LINE
  5
2FE
330
1F
100
AcDbEntity
  8
0
  6
CONTINUOUS
 62
     2
100
AcDbLine
 10
353.45
 20
72.8
 30
0.0
 11
349.45
 21
72.8
 31
0.0
  0
LINE
  5
2FF
330
1F
100
AcDbEntity
  8
0
  6
CONTINUOUS
 62
     2
100
AcDbLine
 10
322.45
 20
71.8
 30
0.0
 11
321.3
 21
71.8
 31
0.0
  0
LINE
  5
300
330
1F
100
AcDbEntity
  8
0
  6
CONTINUOUS
 62
     3
100
AcDbLine
 10
318.35
 20
73.0
 30
0.0
 11
286.25
 21
73.0
 31
0.0
  0
LINE
  5
301
330
1F
100
AcDbEntity
  8
0
  6
CONTINUOUS
 62
     2
100
AcDbLine
 10
322.45
 20
72.8
 30
0.0
 11
319.1
 21
72.8
 31
0.0
  0
LINE
  5
302
330
1F
100
AcDbEntity
  8
0
  6
CONTINUOUS
 62
     2
100
AcDbLine
 10
319.1
 20
72.8
 30
0.0
 11
319.1
 21
72.2
 31
0.0
  0
LINE
  5
303
330
1F
100
AcDbEntity
  8
0
  6
CONTINUOUS
 62
     2
100
AcDbLine
 10
319.1
 20
72.2
 30
0.0
 11
321.3
 21
71.85
 31
0.0
  0
ARC
  5
304
330
1F
100
AcDbEntity
  8
0
  6
CONTINUOUS
 62
     3
100
AcDbCircle
 10
327.75
 20
148.25
 30
0.0
 40
0.5
100
AcDbArc
 50
90.0
 51
180.0
  0
ARC
  5
305
330
1F
100
AcDbEntity
  8
0
  6
CONTINUOUS
 62
     3
100
AcDbCircle
 10
327.75
 20
137.25
 30
0.0
 40
0.5
100
AcDbArc
 50
180.0
 51
270.0
  0
ARC
  5
306
330
1F
100
AcDbEntity
  8
0
  6
CONTINUOUS
 62
     3
100
AcDbCircle
 10
332.25
 20
137.25
 30
0.0
 40
0.5
100
AcDbArc
 50
270.0
 51
0.0
  0
ARC
  5
307
330
1F
100
AcDbEntity
  8
0
  6
CONTINUOUS
 62
     3
100
AcDbCircle
 10
332.25
 20
148.25
 30
0.0
 40
0.5
100
AcDbArc
 50
0.0
 51
90.0
  0
ARC
  5
308
330
1F
100
AcDbEntity
  8
0
  6
CONTINUOUS
 62
     3
100
AcDbCircle
 10
340.25
 20
143.25
 30
0.0
 40
0.5
100
AcDbArc
 50
90.0
 51
180.0
  0
ARC
  5
309
330
1F
100
AcDbEntity
  8
0
  6
CONTINUOUS
 62
     3
100
AcDbCircle
 10
340.25
 20
137.25
 30
0.0
 40
0.5
100
AcDbArc
 50
180.0
 51
270.0
  0
ARC
  5
30A
330
1F
100
AcDbEntity
  8
0
  6
CONTINUOUS
 62
     3
100
AcDbCircle
 10
344.75
 20
137.25
 30
0.0
 40
0.5
100
AcDbArc
 50
270.0
 51
0.0
  0
ARC
  5
30B
330
1F
100
AcDbEntity
  8
0
  6
CONTINUOUS
 62
     3
100
AcDbCircle
 10
344.75
 20
143.25
 30
0.0
 40
0.5
100
AcDbArc
 50
0.0
 51
90.0
  0
LINE
  5
30C
330
1F
100
AcDbEntity
  8
0
  6
CONTINUOUS
 62
     3
100
AcDbLine
 10
327.75
 20
148.75
 30
0.0
 11
332.25
 21
148.75
 31
0.0
  0
LINE
  5
30D
330
1F
100
AcDbEntity
  8
0
  6
CONTINUOUS
 62
     3
100
AcDbLine
 10
327.25
 20
148.25
 30
0.0
 11
327.25
 21
137.25
 31
0.0
  0
LINE
  5
30E
330
1F
100
AcDbEntity
  8
0
  6
CONTINUOUS
 62
     3
100
AcDbLine
 10
327.75
 20
136.75
 30
0.0
 11
332.25
 21
136.75
 31
0.0
  0
LINE
  5
30F
330
1F
100
AcDbEntity
  8
0
  6
CONTINUOUS
 62
     3
100
AcDbLine
 10
332.75
 20
137.25
 30
0.0
 11
332.75
 21
148.25
 31
0.0
  0
LINE
  5
310
330
1F
100
AcDbEntity
  8
0
  6
CONTINUOUS
 62
     3
100
AcDbLine
 10
339.75
 20
143.25
 30
0.0
 11
339.75
 21
137.25
 31
0.0
  0
LINE
  5
311
330
1F
100
AcDbEntity
  8
0
  6
CONTINUOUS
 62
     3
100
AcDbLine
 10
340.25
 20
136.75
 30
0.0
 11
344.75
 21
136.75
 31
0.0
  0
LINE
  5
312
330
1F
100
AcDbEntity
  8
0
  6
CONTINUOUS
 62
     3
100
AcDbLine
 10
345.25
 20
137.25
 30
0.0
 11
345.25
 21
143.25
 31
0.0
  0
LINE
  5
313
330
1F
100
AcDbEntity
  8
0
  6
CONTINUOUS
 62
     3
100
AcDbLine
 10
344.75
 20
143.75
 30
0.0
 11
340.25
 21
143.75
 31
0.0
  0
ARC
  5
314
330
1F
100
AcDbEntity
  8
6
  6
CONTINUOUS
 62
     3
100
AcDbCircle
 10
354.6375
 20
177.35
 30
0.0
 40
1.0
100
AcDbArc
 50
0.0
 51
90.0
  0
ARC
  5
315
330
1F
100
AcDbEntity
  8
6
  6
CONTINUOUS
 62
     3
100
AcDbCircle
 10
354.6375
 20
160.35
 30
0.0
 40
1.0
100
AcDbArc
 50
270.0
 51
0.0
  0
ARC
  5
316
330
1F
100
AcDbEntity
  8
6
  6
CONTINUOUS
 62
     3
100
AcDbCircle
 10
316.6375
 20
160.35
 30
0.0
 40
1.0
100
AcDbArc
 50
180.0
 51
270.0
  0
ARC
  5
317
330
1F
100
AcDbEntity
  8
6
  6
CONTINUOUS
 62
     3
100
AcDbCircle
 10
316.6375
 20
177.35
 30
0.0
 40
1.0
100
AcDbArc
 50
90.0
 51
180.0
  0
LINE
  5
318
330
1F
100
AcDbEntity
  8
6
  6
CONTINUOUS
 62
     3
100
AcDbLine
 10
315.6375
 20
177.35
 30
0.0
 11
315.6375
 21
160.35
 31
0.0
  0
LINE
  5
319
330
1F
100
AcDbEntity
  8
6
  6
CONTINUOUS
 62
     3
100
AcDbLine
 10
316.6375
 20
159.35
 30
0.0
 11
354.6375
 21
159.35
 31
0.0
  0
LINE
  5
31A
330
1F
100
AcDbEntity
  8
6
  6
CONTINUOUS
 62
     3
100
AcDbLine
 10
355.6375
 20
160.35
 30
0.0
 11
355.6375
 21
177.35
 31
0.0
  0
LINE
  5
31B
330
1F
100
AcDbEntity
  8
6
  6
CONTINUOUS
 62
     3
100
AcDbLine
 10
354.6375
 20
178.35
 30
0.0
 11
316.6375
 21
178.35
 31
0.0
  0
POLYLINE
  5
31C
330
1F
100
AcDbEntity
  8
0
  6
CONTINUOUS
 62
     3
100
AcDb2dPolyline
 66
     1
 10
0.0
 20
0.0
 30
0.0
  0
VERTEX
  5
31D
330
31C
100
AcDbEntity
  8
0
100
AcDbVertex
100
AcDb2dVertex
 10
256.0
 20
95.75
 30
0.0
  0
VERTEX
  5
31E
330
31C
100
AcDbEntity
  8
0
100
AcDbVertex
100
AcDb2dVertex
 10
260.0
 20
95.75
 30
0.0
  0
VERTEX
  5
31F
330
31C
100
AcDbEntity
  8
0
100
AcDbVertex
100
AcDb2dVertex
 10
260.0
 20
96.25
 30
0.0
  0
VERTEX
  5
320
330
31C
100
AcDbEntity
  8
0
100
AcDbVertex
100
AcDb2dVertex
 10
261.0
 20
96.25
 30
0.0
  0
SEQEND
  5
321
330
31C
100
AcDbEntity
  8
0
  6
CONTINUOUS
 62
     3
  0
LINE
  5
322
330
1F
100
AcDbEntity
  8
0
  6
CONTINUOUS
 62
     3
100
AcDbLine
 10
256.0
 20
95.75
 30
0.0
 11
252.0
 21
95.75
 31
0.0
  0
LINE
  5
323
330
1F
100
AcDbEntity
  8
0
  6
CONTINUOUS
 62
     3
100
AcDbLine
 10
252.0
 20
95.75
 30
0.0
 11
252.0
 21
96.25
 31
0.0
  0
LINE
  5
324
330
1F
100
AcDbEntity
  8
0
  6
CONTINUOUS
 62
     3
100
AcDbLine
 10
252.0
 20
96.25
 30
0.0
 11
251.0
 21
96.25
 31
0.0
  0
LINE
  5
325
330
1F
100
AcDbEntity
  8
0
  6
CONTINUOUS
 62
     3
100
AcDbLine
 10
256.0
 20
114.25
 30
0.0
 11
260.0
 21
114.25
 31
0.0
  0
LINE
  5
326
330
1F
100
AcDbEntity
  8
0
  6
CONTINUOUS
 62
     3
100
AcDbLine
 10
260.0
 20
114.25
 30
0.0
 11
260.0
 21
114.75
 31
0.0
  0
LINE
  5
327
330
1F
100
AcDbEntity
  8
0
  6
CONTINUOUS
 62
     3
100
AcDbLine
 10
260.0
 20
114.75
 30
0.0
 11
261.0
 21
114.75
 31
0.0
  0
LINE
  5
328
330
1F
100
AcDbEntity
  8
0
  6
CONTINUOUS
 62
     3
100
AcDbLine
 10
256.0
 20
114.25
 30
0.0
 11
252.0
 21
114.25
 31
0.0
  0
LINE
  5
329
330
1F
100
AcDbEntity
  8
0
  6
CONTINUOUS
 62
     3
100
AcDbLine
 10
252.0
 20
114.25
 30
0.0
 11
252.0
 21
114.75
 31
0.0
  0
LINE
  5
32A
330
1F
100
AcDbEntity
  8
0
  6
CONTINUOUS
 62
     3
100
AcDbLine
 10
252.0
 20
114.75
 30
0.0
 11
251.0
 21
114.75
 31
0.0
  0
LINE
  5
32B
330
1F
100
AcDbEntity
  8
0
  6
CONTINUOUS
 62
     3
100
AcDbLine
 10
251.06
 20
79.25
 30
0.0
 11
261.0
 21
79.25
 31
0.0
  0
LINE
  5
32C
330
1F
100
AcDbEntity
  8
0
  6
CONTINUOUS
 62
     3
100
AcDbLine
 10
249.75
 20
116.25
 30
0.0
 11
254.05
 21
116.25
 31
0.0
  0
LINE
  5
32D
330
1F
100
AcDbEntity
  8
0
  6
CONTINUOUS
 62
     3
100
AcDbLine
 10
249.75
 20
97.75
 30
0.0
 11
262.25
 21
97.75
 31
0.0
  0
LINE
  5
32E
330
1F
100
AcDbEntity
  8
0
  6
CONTINUOUS
 62
     3
100
AcDbLine
 10
251.0
 20
116.25
 30
0.0
 11
251.0
 21
97.75
 31
0.0
  0
LINE
  5
32F
330
1F
100
AcDbEntity
  8
0
  6
CONTINUOUS
 62
     3
100
AcDbLine
 10
262.25
 20
116.25
 30
0.0
 11
251.0
 21
116.25
 31
0.0
  0
LINE
  5
330
330
1F
100
AcDbEntity
  8
0
  6
CONTINUOUS
 62
     3
100
AcDbLine
 10
251.0
 20
117.75
 30
0.0
 11
251.0
 21
116.25
 31
0.0
  0
LINE
  5
331
330
1F
100
AcDbEntity
  8
0
  6
CONTINUOUS
 62
     3
100
AcDbLine
 10
261.0
 20
117.75
 30
0.0
 11
261.0
 21
116.25
 31
0.0
  0
LINE
  5
332
330
1F
100
AcDbEntity
  8
0
  6
CONTINUOUS
 62
     3
100
AcDbLine
 10
259.15
 20
120.0
 30
0.0
 11
252.85
 21
120.0
 31
0.0
  0
LINE
  5
333
330
1F
100
AcDbEntity
  8
0
  6
CONTINUOUS
 62
     3
100
AcDbLine
 10
252.85
 20
120.0
 30
0.0
 11
252.85
 21
116.25
 31
0.0
  0
LINE
  5
334
330
1F
100
AcDbEntity
  8
0
  6
CONTINUOUS
 62
     3
100
AcDbLine
 10
253.25
 20
73.0
 30
0.0
 11
253.25
 21
76.349462366
 31
0.0
  0
LINE
  5
335
330
1F
100
AcDbEntity
  8
0
  6
CONTINUOUS
 62
     3
100
AcDbLine
 10
253.25
 20
74.75
 30
0.0
 11
258.75
 21
74.75
 31
0.0
  0
LINE
  5
336
330
1F
100
AcDbEntity
  8
0
  6
CONTINUOUS
 62
     3
100
AcDbLine
 10
258.75
 20
73.0
 30
0.0
 11
258.75
 21
76.349462366
 31
0.0
  0
LINE
  5
337
330
1F
100
AcDbEntity
  8
0
  6
CONTINUOUS
 62
     3
100
AcDbLine
 10
253.25
 20
76.349462366
 30
0.0
 11
258.75
 21
76.349462366
 31
0.0
  0
LINE
  5
338
330
1F
100
AcDbEntity
  8
0
  6
CONTINUOUS
 62
     3
100
AcDbLine
 10
253.25
 20
73.0
 30
0.0
 11
249.75
 21
73.0
 31
0.0
  0
LINE
  5
339
330
1F
100
AcDbEntity
  8
0
  6
CONTINUOUS
 62
     3
100
AcDbLine
 10
262.25
 20
73.0
 30
0.0
 11
258.75
 21
73.0
 31
0.0
  0
LINE
  5
33A
330
1F
100
AcDbEntity
  8
0
  6
CONTINUOUS
 62
     3
100
AcDbLine
 10
261.0
 20
79.25
 30
0.0
 11
261.0
 21
77.75
 31
0.0
  0
LINE
  5
33B
330
1F
100
AcDbEntity
  8
0
  6
CONTINUOUS
 62
     3
100
AcDbLine
 10
251.0
 20
97.54
 30
0.0
 11
251.0
 21
77.75
 31
0.0
  0
LINE
  5
33C
330
1F
100
AcDbEntity
  8
0
  6
CONTINUOUS
 62
     3
100
AcDbLine
 10
256.0
 20
77.75
 30
0.0
 11
251.0
 21
77.75
 31
0.0
  0
LINE
  5
33D
330
1F
100
AcDbEntity
  8
0
  6
CONTINUOUS
 62
     3
100
AcDbLine
 10
256.0
 20
77.75
 30
0.0
 11
261.0
 21
77.75
 31
0.0
  0
LINE
  5
33E
330
1F
100
AcDbEntity
  8
0
  6
CONTINUOUS
 62
     3
100
AcDbLine
 10
261.0
 20
116.25
 30
0.0
 11
261.0
 21
77.75
 31
0.0
  0
POINT
  5
33F
330
1F
100
AcDbEntity
  8
0
  6
CONTINUOUS
 62
     3
100
AcDbPoint
 10
256.0
 20
182.75
 30
0.0
  0
POINT
  5
340
330
1F
100
AcDbEntity
  8
0
  6
CONTINUOUS
 62
     3
100
AcDbPoint
 10
256.0
 20
182.75
 30
0.0
  0
POINT
  5
341
330
1F
100
AcDbEntity
  8
0
  6
LTYPE1
 62
     1
100
AcDbPoint
 10
256.0
 20
178.5
 30
0.0
  0
LINE
  5
342
330
1F
100
AcDbEntity
  8
0
  6
CONTINUOUS
 62
     1
100
AcDbLine
 10
256.0
 20
183.495057685
 30
0.0
 11
256.004942315
 21
183.5
 31
0.0
  0
LINE
  5
343
330
1F
100
AcDbEntity
  8
0
  6
CONTINUOUS
 62
     1
100
AcDbLine
 10
262.25
 20
134.590728753
 30
0.0
 11
262.159271247
 21
134.5
 31
0.0
  0
LINE
  5
344
330
1F
100
AcDbEntity
  8
0
  6
CONTINUOUS
 62
     3
100
AcDbLine
 10
256.0
 20
184.0
 30
0.0
 11
256.0
 21
182.5
 31
0.0
  0
LINE
  5
345
330
1F
100
AcDbEntity
  8
0
  6
CONTINUOUS
 62
     3
100
AcDbLine
 10
256.0
 20
134.5
 30
0.0
 11
262.25
 21
134.5
 31
0.0
  0
LINE
  5
346
330
1F
100
AcDbEntity
  8
0
  6
CONTINUOUS
 62
     3
100
AcDbLine
 10
256.0
 20
130.5
 30
0.0
 11
256.0
 21
134.5
 31
0.0
  0
LINE
  5
347
330
1F
100
AcDbEntity
  8
0
  6
CONTINUOUS
 62
     3
100
AcDbLine
 10
262.25
 20
130.5
 30
0.0
 11
256.0
 21
130.5
 31
0.0
  0
LINE
  5
348
330
1F
100
AcDbEntity
  8
0
  6
CONTINUOUS
 62
     3
100
AcDbLine
 10
259.0
 20
134.5
 30
0.0
 11
259.0
 21
130.5
 31
0.0
  0
LINE
  5
349
330
1F
100
AcDbEntity
  8
0
  6
CONTINUOUS
 62
     3
100
AcDbLine
 10
260.75
 20
116.25
 30
0.0
 11
262.25
 21
116.25
 31
0.0
  0
LINE
  5
34A
330
1F
100
AcDbEntity
  8
0
  6
CONTINUOUS
 62
     3
100
AcDbLine
 10
256.0
 20
137.85
 30
0.0
 11
256.0
 21
145.1
 31
0.0
  0
LINE
  5
34B
330
1F
100
AcDbEntity
  8
0
  6
CONTINUOUS
 62
     3
100
AcDbLine
 10
262.25
 20
143.1
 30
0.0
 11
262.25
 21
116.25
 31
0.0
  0
LINE
  5
34C
330
1F
100
AcDbEntity
  8
0
  6
CONTINUOUS
 62
     3
100
AcDbLine
 10
261.75
 20
184.0
 30
0.0
 11
256.0
 21
184.0
 31
0.0
  0
LINE
  5
34D
330
1F
100
AcDbEntity
  8
0
  6
CONTINUOUS
 62
     3
100
AcDbLine
 10
256.0
 20
144.55
 30
0.0
 11
256.0
 21
182.5
 31
0.0
  0
POLYLINE
  5
34E
330
1F
100
AcDbEntity
  8
0
  6
CONTINUOUS
 62
     3
100
AcDb2dPolyline
 66
     1
 10
0.0
 20
0.0
 30
0.0
  0
VERTEX
  5
34F
330
34E
100
AcDbEntity
  8
0
100
AcDbVertex
100
AcDb2dVertex
 10
256.0
 20
183.5
 30
0.0
  0
VERTEX
  5
350
330
34E
100
AcDbEntity
  8
0
100
AcDbVertex
100
AcDb2dVertex
 10
256.0
 20
182.75
 30
0.0
  0
SEQEND
  5
351
330
34E
100
AcDbEntity
  8
0
  6
CONTINUOUS
 62
     3
  0
POINT
  5
352
330
1F
100
AcDbEntity
  8
0
  6
LTYPE1
 62
     1
100
AcDbPoint
 10
256.0
 20
178.5
 30
0.0
  0
LINE
  5
353
330
1F
100
AcDbEntity
  8
0
  6
LTYPE1
 62
     1
100
AcDbLine
 10
253.0
 20
120.0
 30
0.0
 11
253.0
 21
122.672
 31
0.0
  0
LINE
  5
354
330
1F
100
AcDbEntity
  8
0
  6
LTYPE1
 62
     1
100
AcDbLine
 10
253.0
 20
123.5
 30
0.0
 11
253.0
 21
122.672
 31
0.0
  0
LINE
  5
355
330
1F
100
AcDbEntity
  8
0
  6
CONTINUOUS
 62
     3
100
AcDbLine
 10
258.5
 20
134.25
 30
0.0
 11
258.5
 21
130.75
 31
0.0
  0
LINE
  5
356
330
1F
100
AcDbEntity
  8
0
  6
CONTINUOUS
 62
     3
100
AcDbLine
 10
258.5
 20
134.25
 30
0.0
 11
256.0
 21
134.25
 31
0.0
  0
LINE
  5
357
330
1F
100
AcDbEntity
  8
0
  6
CONTINUOUS
 62
     3
100
AcDbLine
 10
258.5
 20
130.75
 30
0.0
 11
256.0
 21
130.75
 31
0.0
  0
LINE
  5
358
330
1F
100
AcDbEntity
  8
0
  6
CONTINUOUS
 62
     3
100
AcDbLine
 10
256.0
 20
130.75
 30
0.0
 11
256.0
 21
134.25
 31
0.0
  0
LINE
  5
359
330
1F
100
AcDbEntity
  8
0
  6
CONTINUOUS
 62
     3
100
AcDbLine
 10
259.0
 20
120.0
 30
0.0
 11
259.0
 21
116.75
 31
0.0
  0
LINE
  5
35A
330
1F
100
AcDbEntity
  8
0
  6
CONTINUOUS
 62
     3
100
AcDbLine
 10
256.0
 20
149.342
 30
0.0
 11
256.0
 21
184.0
 31
0.0
  0
LINE
  5
35B
330
1F
100
AcDbEntity
  8
0
  6
CONTINUOUS
 62
     3
100
AcDbLine
 10
259.0
 20
118.5
 30
0.0
 11
253.0
 21
118.5
 31
0.0
  0
LINE
  5
35C
330
1F
100
AcDbEntity
  8
0
  6
CONTINUOUS
 62
     3
100
AcDbLine
 10
259.0
 20
116.75
 30
0.0
 11
253.0
 21
116.75
 31
0.0
  0
LINE
  5
35D
330
1F
100
AcDbEntity
  8
0
  6
CONTINUOUS
 62
     3
100
AcDbLine
 10
253.0
 20
116.75
 30
0.0
 11
253.0
 21
129.75
 31
0.0
  0
LINE
  5
35E
330
1F
100
AcDbEntity
  8
0
  6
CONTINUOUS
 62
     3
100
AcDbLine
 10
253.0
 20
129.75
 30
0.0
 11
253.0
 21
130.75
 31
0.0
  0
LINE
  5
35F
330
1F
100
AcDbEntity
  8
0
  6
CONTINUOUS
 62
     3
100
AcDbLine
 10
253.0
 20
134.25
 30
0.0
 11
253.0
 21
135.25
 31
0.0
  0
LINE
  5
360
330
1F
100
AcDbEntity
  8
0
  6
CONTINUOUS
 62
     3
100
AcDbLine
 10
259.0
 20
120.0
 30
0.0
 11
257.0
 21
120.0
 31
0.0
  0
LINE
  5
361
330
1F
100
AcDbEntity
  8
0
  6
CONTINUOUS
 62
     3
100
AcDbLine
 10
257.0
 20
120.0
 30
0.0
 11
252.85
 21
120.0
 31
0.0
  0
LINE
  5
362
330
1F
100
AcDbEntity
  8
0
  6
CONTINUOUS
 62
     3
100
AcDbLine
 10
250.25
 20
184.0
 30
0.0
 11
256.0
 21
184.0
 31
0.0
  0
LINE
  5
363
330
1F
100
AcDbEntity
  8
0
  6
CONTINUOUS
 62
     3
100
AcDbLine
 10
249.75
 20
183.0
 30
0.0
 11
249.75
 21
149.342
 31
0.0
  0
LINE
  5
364
330
1F
100
AcDbEntity
  8
0
  6
CONTINUOUS
 62
     3
100
AcDbLine
 10
250.25
 20
184.0
 30
0.0
 11
249.75
 21
183.0
 31
0.0
  0
LINE
  5
365
330
1F
100
AcDbEntity
  8
0
  6
CONTINUOUS
 62
     3
100
AcDbLine
 10
249.75
 20
149.765
 30
0.0
 11
249.75
 21
122.672
 31
0.0
  0
LINE
  5
366
330
1F
100
AcDbEntity
  8
0
  6
CONTINUOUS
 62
     3
100
AcDbLine
 10
249.75
 20
122.672
 30
0.0
 11
249.75
 21
116.25
 31
0.0
  0
LINE
  5
367
330
1F
100
AcDbEntity
  8
0
  6
CONTINUOUS
 62
     3
100
AcDbLine
 10
251.25
 20
116.25
 30
0.0
 11
249.75
 21
116.25
 31
0.0
  0
LINE
  5
368
330
1F
100
AcDbEntity
  8
0
  6
CONTINUOUS
 62
     3
100
AcDbLine
 10
256.0
 20
137.85
 30
0.0
 11
249.75
 21
137.85
 31
0.0
  0
LINE
  5
369
330
1F
100
AcDbEntity
  8
0
  6
CONTINUOUS
 62
     3
100
AcDbLine
 10
253.0
 20
130.25
 30
0.0
 11
249.7
 21
130.25
 31
0.0
  0
LINE
  5
36A
330
1F
100
AcDbEntity
  8
0
  6
CONTINUOUS
 62
     6
100
AcDbLine
 10
250.25
 20
139.25
 30
0.0
 11
250.25
 21
137.85
 31
0.0
  0
LINE
  5
36B
330
1F
100
AcDbEntity
  8
0
  6
CONTINUOUS
 62
     3
100
AcDbLine
 10
262.25
 20
156.75
 30
0.0
 11
258.8
 21
156.75
 31
0.0
  0
LINE
  5
36C
330
1F
100
AcDbEntity
  8
0
  6
CONTINUOUS
 62
     3
100
AcDbLine
 10
260.75
 20
172.75
 30
0.0
 11
260.75
 21
170.75
 31
0.0
  0
LINE
  5
36D
330
1F
100
AcDbEntity
  8
0
  6
CONTINUOUS
 62
     3
100
AcDbLine
 10
260.75
 20
176.25
 30
0.0
 11
260.75
 21
174.25
 31
0.0
  0
LINE
  5
36E
330
1F
100
AcDbEntity
  8
0
  6
CONTINUOUS
 62
     6
100
AcDbLine
 10
261.75
 20
172.75
 30
0.0
 11
261.75
 21
174.25
 31
0.0
  0
LINE
  5
36F
330
1F
100
AcDbEntity
  8
0
  6
CONTINUOUS
 62
     3
100
AcDbLine
 10
260.75
 20
169.25
 30
0.0
 11
260.75
 21
167.75
 31
0.0
  0
LINE
  5
370
330
1F
100
AcDbEntity
  8
0
  6
CONTINUOUS
 62
     3
100
AcDbLine
 10
260.75
 20
167.75
 30
0.0
 11
260.75
 21
167.25
 31
0.0
  0
LINE
  5
371
330
1F
100
AcDbEntity
  8
0
  6
CONTINUOUS
 62
     3
100
AcDbLine
 10
260.75
 20
165.75
 30
0.0
 11
260.75
 21
163.75
 31
0.0
  0
LINE
  5
372
330
1F
100
AcDbEntity
  8
0
  6
CONTINUOUS
 62
     3
100
AcDbLine
 10
260.75
 20
162.25
 30
0.0
 11
260.75
 21
160.25
 31
0.0
  0
LINE
  5
373
330
1F
100
AcDbEntity
  8
0
  6
CONTINUOUS
 62
     3
100
AcDbLine
 10
260.75
 20
158.718
 30
0.0
 11
260.75
 21
156.75
 31
0.0
  0
LINE
  5
374
330
1F
100
AcDbEntity
  8
0
  6
CONTINUOUS
 62
     3
100
AcDbLine
 10
260.75
 20
155.25
 30
0.0
 11
260.75
 21
153.25
 31
0.0
  0
LINE
  5
375
330
1F
100
AcDbEntity
  8
0
  6
CONTINUOUS
 62
     3
100
AcDbLine
 10
260.75
 20
151.75
 30
0.0
 11
260.75
 21
149.75
 31
0.0
  0
LINE
  5
376
330
1F
100
AcDbEntity
  8
0
  6
CONTINUOUS
 62
     3
100
AcDbLine
 10
260.75
 20
148.25
 30
0.0
 11
260.75
 21
146.25
 31
0.0
  0
LINE
  5
377
330
1F
100
AcDbEntity
  8
0
  6
CONTINUOUS
 62
     3
100
AcDbLine
 10
260.75
 20
144.75
 30
0.0
 11
260.75
 21
142.75
 31
0.0
  0
LINE
  5
378
330
1F
100
AcDbEntity
  8
0
  6
CONTINUOUS
 62
     3
100
AcDbLine
 10
260.75
 20
141.25
 30
0.0
 11
260.75
 21
139.25
 31
0.0
  0
LINE
  5
379
330
1F
100
AcDbEntity
  8
0
  6
CONTINUOUS
 62
     3
100
AcDbLine
 10
258.8
 20
139.25
 30
0.0
 11
262.25
 21
139.25
 31
0.0
  0
LINE
  5
37A
330
1F
100
AcDbEntity
  8
0
  6
CONTINUOUS
 62
     3
100
AcDbLine
 10
249.75
 20
156.75
 30
0.0
 11
253.2
 21
156.75
 31
0.0
  0
LINE
  5
37B
330
1F
100
AcDbEntity
  8
0
  6
CONTINUOUS
 62
     3
100
AcDbLine
 10
251.25
 20
172.75
 30
0.0
 11
251.25
 21
170.75
 31
0.0
  0
LINE
  5
37C
330
1F
100
AcDbEntity
  8
0
  6
CONTINUOUS
 62
     3
100
AcDbLine
 10
251.25
 20
176.25
 30
0.0
 11
251.25
 21
174.25
 31
0.0
  0
LINE
  5
37D
330
1F
100
AcDbEntity
  8
0
  6
CONTINUOUS
 62
     6
100
AcDbLine
 10
250.25
 20
172.75
 30
0.0
 11
250.25
 21
174.25
 31
0.0
  0
LINE
  5
37E
330
1F
100
AcDbEntity
  8
0
  6
CONTINUOUS
 62
     3
100
AcDbLine
 10
251.25
 20
169.25
 30
0.0
 11
251.25
 21
167.75
 31
0.0
  0
LINE
  5
37F
330
1F
100
AcDbEntity
  8
0
  6
CONTINUOUS
 62
     3
100
AcDbLine
 10
251.25
 20
167.75
 30
0.0
 11
251.25
 21
167.25
 31
0.0
  0
LINE
  5
380
330
1F
100
AcDbEntity
  8
0
  6
CONTINUOUS
 62
     3
100
AcDbLine
 10
251.25
 20
165.75
 30
0.0
 11
251.25
 21
163.75
 31
0.0
  0
LINE
  5
381
330
1F
100
AcDbEntity
  8
0
  6
CONTINUOUS
 62
     3
100
AcDbLine
 10
251.25
 20
162.25
 30
0.0
 11
251.25
 21
160.25
 31
0.0
  0
LINE
  5
382
330
1F
100
AcDbEntity
  8
0
  6
CONTINUOUS
 62
     3
100
AcDbLine
 10
251.25
 20
158.718
 30
0.0
 11
251.25
 21
156.75
 31
0.0
  0
LINE
  5
383
330
1F
100
AcDbEntity
  8
0
  6
CONTINUOUS
 62
     3
100
AcDbLine
 10
251.25
 20
155.25
 30
0.0
 11
251.25
 21
153.25
 31
0.0
  0
LINE
  5
384
330
1F
100
AcDbEntity
  8
0
  6
CONTINUOUS
 62
     3
100
AcDbLine
 10
251.25
 20
151.75
 30
0.0
 11
251.25
 21
149.75
 31
0.0
  0
LINE
  5
385
330
1F
100
AcDbEntity
  8
0
  6
CONTINUOUS
 62
     3
100
AcDbLine
 10
251.25
 20
148.25
 30
0.0
 11
251.25
 21
146.25
 31
0.0
  0
LINE
  5
386
330
1F
100
AcDbEntity
  8
0
  6
CONTINUOUS
 62
     3
100
AcDbLine
 10
251.25
 20
144.75
 30
0.0
 11
251.25
 21
142.75
 31
0.0
  0
LINE
  5
387
330
1F
100
AcDbEntity
  8
0
  6
CONTINUOUS
 62
     3
100
AcDbLine
 10
251.25
 20
141.25
 30
0.0
 11
251.25
 21
139.25
 31
0.0
  0
LINE
  5
388
330
1F
100
AcDbEntity
  8
0
  6
CONTINUOUS
 62
     3
100
AcDbLine
 10
253.2
 20
139.25
 30
0.0
 11
249.75
 21
139.25
 31
0.0
  0
LINE
  5
389
330
1F
100
AcDbEntity
  8
0
  6
CONTINUOUS
 62
     6
100
AcDbLine
 10
250.25
 20
174.25
 30
0.0
 11
250.25
 21
172.75
 31
0.0
  0
LINE
  5
38A
330
1F
100
AcDbEntity
  8
0
  6
CONTINUOUS
 62
     6
100
AcDbLine
 10
250.25
 20
170.75
 30
0.0
 11
250.25
 21
169.25
 31
0.0
  0
LINE
  5
38B
330
1F
100
AcDbEntity
  8
0
  6
CONTINUOUS
 62
     6
100
AcDbLine
 10
250.25
 20
167.25
 30
0.0
 11
250.25
 21
165.75
 31
0.0
  0
LINE
  5
38C
330
1F
100
AcDbEntity
  8
0
  6
CONTINUOUS
 62
     6
100
AcDbLine
 10
250.25
 20
141.25
 30
0.0
 11
250.25
 21
142.75
 31
0.0
  0
LINE
  5
38D
330
1F
100
AcDbEntity
  8
0
  6
CONTINUOUS
 62
     6
100
AcDbLine
 10
250.25
 20
144.75
 30
0.0
 11
250.25
 21
146.25
 31
0.0
  0
LINE
  5
38E
330
1F
100
AcDbEntity
  8
0
  6
CONTINUOUS
 62
     6
100
AcDbLine
 10
250.25
 20
148.25
 30
0.0
 11
250.25
 21
149.75
 31
0.0
  0
LINE
  5
38F
330
1F
100
AcDbEntity
  8
0
  6
CONTINUOUS
 62
     6
100
AcDbLine
 10
250.25
 20
151.75
 30
0.0
 11
250.25
 21
153.25
 31
0.0
  0
LINE
  5
390
330
1F
100
AcDbEntity
  8
0
  6
CONTINUOUS
 62
     6
100
AcDbLine
 10
250.25
 20
162.25
 30
0.0
 11
250.25
 21
163.75
 31
0.0
  0
LINE
  5
391
330
1F
100
AcDbEntity
  8
0
  6
CONTINUOUS
 62
     6
100
AcDbLine
 10
250.25
 20
158.75
 30
0.0
 11
250.25
 21
160.25
 31
0.0
  0
LINE
  5
392
330
1F
100
AcDbEntity
  8
0
  6
CONTINUOUS
 62
     6
100
AcDbLine
 10
250.25
 20
155.25
 30
0.0
 11
250.25
 21
156.75
 31
0.0
  0
LINE
  5
393
330
1F
100
AcDbEntity
  8
0
  6
CONTINUOUS
 62
     6
100
AcDbLine
 10
261.75
 20
170.75
 30
0.0
 11
261.75
 21
169.25
 31
0.0
  0
LINE
  5
394
330
1F
100
AcDbEntity
  8
0
  6
CONTINUOUS
 62
     6
100
AcDbLine
 10
261.75
 20
167.25
 30
0.0
 11
261.75
 21
165.75
 31
0.0
  0
LINE
  5
395
330
1F
100
AcDbEntity
  8
0
  6
CONTINUOUS
 62
     6
100
AcDbLine
 10
261.75
 20
163.75
 30
0.0
 11
261.75
 21
162.25
 31
0.0
  0
LINE
  5
396
330
1F
100
AcDbEntity
  8
0
  6
CONTINUOUS
 62
     6
100
AcDbLine
 10
261.75
 20
160.25
 30
0.0
 11
261.75
 21
158.75
 31
0.0
  0
LINE
  5
397
330
1F
100
AcDbEntity
  8
0
  6
CONTINUOUS
 62
     6
100
AcDbLine
 10
261.75
 20
156.75
 30
0.0
 11
261.75
 21
155.25
 31
0.0
  0
LINE
  5
398
330
1F
100
AcDbEntity
  8
0
  6
CONTINUOUS
 62
     6
100
AcDbLine
 10
261.75
 20
153.25
 30
0.0
 11
261.75
 21
151.75
 31
0.0
  0
LINE
  5
399
330
1F
100
AcDbEntity
  8
0
  6
CONTINUOUS
 62
     6
100
AcDbLine
 10
261.75
 20
149.75
 30
0.0
 11
261.75
 21
148.25
 31
0.0
  0
LINE
  5
39A
330
1F
100
AcDbEntity
  8
0
  6
CONTINUOUS
 62
     6
100
AcDbLine
 10
261.75
 20
146.25
 30
0.0
 11
261.75
 21
144.75
 31
0.0
  0
LINE
  5
39B
330
1F
100
AcDbEntity
  8
0
  6
CONTINUOUS
 62
     6
100
AcDbLine
 10
261.75
 20
142.75
 30
0.0
 11
261.75
 21
141.25
 31
0.0
  0
LINE
  5
39C
330
1F
100
AcDbEntity
  8
0
  6
CONTINUOUS
 62
     3
100
AcDbLine
 10
262.25
 20
183.0
 30
0.0
 11
262.25
 21
142.55
 31
0.0
  0
LINE
  5
39D
330
1F
100
AcDbEntity
  8
0
  6
CONTINUOUS
 62
     3
100
AcDbLine
 10
261.75
 20
184.0
 30
0.0
 11
262.25
 21
183.0
 31
0.0
  0
LINE
  5
39E
330
1F
100
AcDbEntity
  8
0
  6
CONTINUOUS
 62
     3
100
AcDbLine
 10
256.0
 20
137.85
 30
0.0
 11
253.5
 21
137.85
 31
0.0
  0
LINE
  5
39F
330
1F
100
AcDbEntity
  8
0
  6
CONTINUOUS
 62
     3
100
AcDbLine
 10
253.0
 20
123.75
 30
0.0
 11
253.0
 21
137.35
 31
0.0
  0
ARC
  5
3A0
330
1F
100
AcDbEntity
  8
0
  6
CONTINUOUS
 62
     3
100
AcDbCircle
 10
253.5
 20
137.35
 30
0.0
 40
0.5
100
AcDbArc
 50
90.0
 51
180.0
  0
LINE
  5
3A1
330
1F
100
AcDbEntity
  8
0
  6
CONTINUOUS
 62
     3
100
AcDbLine
 10
258.5
 20
165.75
 30
0.0
 11
258.5
 21
163.75
 31
0.0
  0
LINE
  5
3A2
330
1F
100
AcDbEntity
  8
0
  6
CONTINUOUS
 62
     3
100
AcDbLine
 10
258.5
 20
169.25
 30
0.0
 11
258.5
 21
167.25
 31
0.0
  0
LINE
  5
3A3
330
1F
100
AcDbEntity
  8
0
  6
CONTINUOUS
 62
     3
100
AcDbLine
 10
258.5
 20
172.75
 30
0.0
 11
258.5
 21
170.75
 31
0.0
  0
LINE
  5
3A4
330
1F
100
AcDbEntity
  8
0
  6
CONTINUOUS
 62
     3
100
AcDbLine
 10
258.5
 20
176.25
 30
0.0
 11
258.5
 21
174.25
 31
0.0
  0
LINE
  5
3A5
330
1F
100
AcDbEntity
  8
0
  6
CONTINUOUS
 62
     3
100
AcDbLine
 10
258.5
 20
158.75
 30
0.0
 11
258.5
 21
156.75
 31
0.0
  0
LINE
  5
3A6
330
1F
100
AcDbEntity
  8
0
  6
CONTINUOUS
 62
     3
100
AcDbLine
 10
258.5
 20
156.75
 30
0.0
 11
260.5
 21
156.75
 31
0.0
  0
LINE
  5
3A7
330
1F
100
AcDbEntity
  8
0
  6
CONTINUOUS
 62
     3
100
AcDbLine
 10
258.5
 20
162.25
 30
0.0
 11
258.5
 21
160.25
 31
0.0
  0
LINE
  5
3A8
330
1F
100
AcDbEntity
  8
0
  6
CONTINUOUS
 62
     3
100
AcDbLine
 10
258.5
 20
155.25
 30
0.0
 11
258.5
 21
153.25
 31
0.0
  0
LINE
  5
3A9
330
1F
100
AcDbEntity
  8
0
  6
CONTINUOUS
 62
     3
100
AcDbLine
 10
258.5
 20
151.75
 30
0.0
 11
258.5
 21
149.75
 31
0.0
  0
LINE
  5
3AA
330
1F
100
AcDbEntity
  8
0
  6
CONTINUOUS
 62
     3
100
AcDbLine
 10
258.5
 20
148.25
 30
0.0
 11
258.5
 21
146.25
 31
0.0
  0
LINE
  5
3AB
330
1F
100
AcDbEntity
  8
0
  6
CONTINUOUS
 62
     3
100
AcDbLine
 10
258.5
 20
144.75
 30
0.0
 11
258.5
 21
142.75
 31
0.0
  0
LINE
  5
3AC
330
1F
100
AcDbEntity
  8
0
  6
CONTINUOUS
 62
     3
100
AcDbLine
 10
258.5
 20
141.25
 30
0.0
 11
258.5
 21
139.25
 31
0.0
  0
LINE
  5
3AD
330
1F
100
AcDbEntity
  8
0
  6
CONTINUOUS
 62
     3
100
AcDbLine
 10
258.5
 20
139.25
 30
0.0
 11
260.5
 21
139.25
 31
0.0
  0
LINE
  5
3AE
330
1F
100
AcDbEntity
  8
0
  6
CONTINUOUS
 62
     3
100
AcDbLine
 10
258.5
 20
176.25
 30
0.0
 11
262.25
 21
176.25
 31
0.0
  0
LINE
  5
3AF
330
1F
100
AcDbEntity
  8
0
  6
CONTINUOUS
 62
     3
100
AcDbLine
 10
258.5
 20
174.25
 30
0.0
 11
262.25
 21
174.25
 31
0.0
  0
LINE
  5
3B0
330
1F
100
AcDbEntity
  8
0
  6
CONTINUOUS
 62
     3
100
AcDbLine
 10
258.5
 20
170.75
 30
0.0
 11
262.25
 21
170.75
 31
0.0
  0
LINE
  5
3B1
330
1F
100
AcDbEntity
  8
0
  6
CONTINUOUS
 62
     3
100
AcDbLine
 10
258.5
 20
169.25
 30
0.0
 11
262.25
 21
169.25
 31
0.0
  0
LINE
  5
3B2
330
1F
100
AcDbEntity
  8
0
  6
CONTINUOUS
 62
     3
100
AcDbLine
 10
258.5
 20
167.25
 30
0.0
 11
262.25
 21
167.25
 31
0.0
  0
LINE
  5
3B3
330
1F
100
AcDbEntity
  8
0
  6
CONTINUOUS
 62
     3
100
AcDbLine
 10
258.5
 20
165.75
 30
0.0
 11
262.25
 21
165.75
 31
0.0
  0
LINE
  5
3B4
330
1F
100
AcDbEntity
  8
0
  6
CONTINUOUS
 62
     3
100
AcDbLine
 10
258.5
 20
163.75
 30
0.0
 11
262.25
 21
163.75
 31
0.0
  0
LINE
  5
3B5
330
1F
100
AcDbEntity
  8
0
  6
CONTINUOUS
 62
     3
100
AcDbLine
 10
258.5
 20
162.25
 30
0.0
 11
262.25
 21
162.25
 31
0.0
  0
LINE
  5
3B6
330
1F
100
AcDbEntity
  8
0
  6
CONTINUOUS
 62
     3
100
AcDbLine
 10
258.5
 20
160.25
 30
0.0
 11
262.25
 21
160.25
 31
0.0
  0
LINE
  5
3B7
330
1F
100
AcDbEntity
  8
0
  6
CONTINUOUS
 62
     3
100
AcDbLine
 10
258.5
 20
158.75
 30
0.0
 11
262.25
 21
158.75
 31
0.0
  0
LINE
  5
3B8
330
1F
100
AcDbEntity
  8
0
  6
CONTINUOUS
 62
     3
100
AcDbLine
 10
258.5
 20
155.25
 30
0.0
 11
262.25
 21
155.25
 31
0.0
  0
LINE
  5
3B9
330
1F
100
AcDbEntity
  8
0
  6
CONTINUOUS
 62
     3
100
AcDbLine
 10
258.5
 20
153.25
 30
0.0
 11
262.25
 21
153.25
 31
0.0
  0
LINE
  5
3BA
330
1F
100
AcDbEntity
  8
0
  6
CONTINUOUS
 62
     3
100
AcDbLine
 10
258.5
 20
151.75
 30
0.0
 11
262.25
 21
151.75
 31
0.0
  0
LINE
  5
3BB
330
1F
100
AcDbEntity
  8
0
  6
CONTINUOUS
 62
     3
100
AcDbLine
 10
258.5
 20
149.75
 30
0.0
 11
262.25
 21
149.75
 31
0.0
  0
LINE
  5
3BC
330
1F
100
AcDbEntity
  8
0
  6
CONTINUOUS
 62
     3
100
AcDbLine
 10
258.5
 20
148.25
 30
0.0
 11
262.25
 21
148.25
 31
0.0
  0
LINE
  5
3BD
330
1F
100
AcDbEntity
  8
0
  6
CONTINUOUS
 62
     3
100
AcDbLine
 10
258.5
 20
146.25
 30
0.0
 11
262.25
 21
146.25
 31
0.0
  0
LINE
  5
3BE
330
1F
100
AcDbEntity
  8
0
  6
CONTINUOUS
 62
     3
100
AcDbLine
 10
258.5
 20
144.75
 30
0.0
 11
262.25
 21
144.75
 31
0.0
  0
LINE
  5
3BF
330
1F
100
AcDbEntity
  8
0
  6
CONTINUOUS
 62
     3
100
AcDbLine
 10
258.5
 20
142.75
 30
0.0
 11
262.25
 21
142.75
 31
0.0
  0
LINE
  5
3C0
330
1F
100
AcDbEntity
  8
0
  6
CONTINUOUS
 62
     3
100
AcDbLine
 10
258.5
 20
141.25
 30
0.0
 11
262.25
 21
141.25
 31
0.0
  0
LINE
  5
3C1
330
1F
100
AcDbEntity
  8
0
  6
CONTINUOUS
 62
     3
100
AcDbLine
 10
258.5
 20
172.75
 30
0.0
 11
262.25
 21
172.75
 31
0.0
  0
LINE
  5
3C2
330
1F
100
AcDbEntity
  8
0
  6
CONTINUOUS
 62
     3
100
AcDbLine
 10
253.5
 20
165.75
 30
0.0
 11
253.5
 21
163.75
 31
0.0
  0
LINE
  5
3C3
330
1F
100
AcDbEntity
  8
0
  6
CONTINUOUS
 62
     3
100
AcDbLine
 10
253.5
 20
169.25
 30
0.0
 11
253.5
 21
167.25
 31
0.0
  0
LINE
  5
3C4
330
1F
100
AcDbEntity
  8
0
  6
CONTINUOUS
 62
     3
100
AcDbLine
 10
253.5
 20
172.75
 30
0.0
 11
253.5
 21
170.75
 31
0.0
  0
LINE
  5
3C5
330
1F
100
AcDbEntity
  8
0
  6
CONTINUOUS
 62
     3
100
AcDbLine
 10
253.5
 20
176.25
 30
0.0
 11
253.5
 21
174.25
 31
0.0
  0
LINE
  5
3C6
330
1F
100
AcDbEntity
  8
0
  6
CONTINUOUS
 62
     3
100
AcDbLine
 10
253.5
 20
158.75
 30
0.0
 11
253.5
 21
156.75
 31
0.0
  0
LINE
  5
3C7
330
1F
100
AcDbEntity
  8
0
  6
CONTINUOUS
 62
     3
100
AcDbLine
 10
253.5
 20
156.75
 30
0.0
 11
251.5
 21
156.75
 31
0.0
  0
LINE
  5
3C8
330
1F
100
AcDbEntity
  8
0
  6
CONTINUOUS
 62
     3
100
AcDbLine
 10
253.5
 20
162.25
 30
0.0
 11
253.5
 21
160.25
 31
0.0
  0
LINE
  5
3C9
330
1F
100
AcDbEntity
  8
0
  6
CONTINUOUS
 62
     3
100
AcDbLine
 10
253.5
 20
155.25
 30
0.0
 11
253.5
 21
153.25
 31
0.0
  0
LINE
  5
3CA
330
1F
100
AcDbEntity
  8
0
  6
CONTINUOUS
 62
     3
100
AcDbLine
 10
253.5
 20
151.75
 30
0.0
 11
253.5
 21
149.75
 31
0.0
  0
LINE
  5
3CB
330
1F
100
AcDbEntity
  8
0
  6
CONTINUOUS
 62
     3
100
AcDbLine
 10
253.5
 20
148.25
 30
0.0
 11
253.5
 21
146.25
 31
0.0
  0
LINE
  5
3CC
330
1F
100
AcDbEntity
  8
0
  6
CONTINUOUS
 62
     3
100
AcDbLine
 10
253.5
 20
144.75
 30
0.0
 11
253.5
 21
142.75
 31
0.0
  0
LINE
  5
3CD
330
1F
100
AcDbEntity
  8
0
  6
CONTINUOUS
 62
     3
100
AcDbLine
 10
253.5
 20
141.25
 30
0.0
 11
253.5
 21
139.25
 31
0.0
  0
LINE
  5
3CE
330
1F
100
AcDbEntity
  8
0
  6
CONTINUOUS
 62
     3
100
AcDbLine
 10
253.5
 20
139.25
 30
0.0
 11
251.5
 21
139.25
 31
0.0
  0
LINE
  5
3CF
330
1F
100
AcDbEntity
  8
0
  6
CONTINUOUS
 62
     3
100
AcDbLine
 10
253.5
 20
176.25
 30
0.0
 11
249.75
 21
176.25
 31
0.0
  0
LINE
  5
3D0
330
1F
100
AcDbEntity
  8
0
  6
CONTINUOUS
 62
     3
100
AcDbLine
 10
253.5
 20
174.25
 30
0.0
 11
249.75
 21
174.25
 31
0.0
  0
LINE
  5
3D1
330
1F
100
AcDbEntity
  8
0
  6
CONTINUOUS
 62
     3
100
AcDbLine
 10
253.5
 20
170.75
 30
0.0
 11
249.75
 21
170.75
 31
0.0
  0
LINE
  5
3D2
330
1F
100
AcDbEntity
  8
0
  6
CONTINUOUS
 62
     3
100
AcDbLine
 10
253.5
 20
169.25
 30
0.0
 11
249.75
 21
169.25
 31
0.0
  0
LINE
  5
3D3
330
1F
100
AcDbEntity
  8
0
  6
CONTINUOUS
 62
     3
100
AcDbLine
 10
253.5
 20
167.25
 30
0.0
 11
249.75
 21
167.25
 31
0.0
  0
LINE
  5
3D4
330
1F
100
AcDbEntity
  8
0
  6
CONTINUOUS
 62
     3
100
AcDbLine
 10
253.5
 20
165.75
 30
0.0
 11
249.75
 21
165.75
 31
0.0
  0
LINE
  5
3D5
330
1F
100
AcDbEntity
  8
0
  6
CONTINUOUS
 62
     3
100
AcDbLine
 10
253.5
 20
163.75
 30
0.0
 11
249.75
 21
163.75
 31
0.0
  0
LINE
  5
3D6
330
1F
100
AcDbEntity
  8
0
  6
CONTINUOUS
 62
     3
100
AcDbLine
 10
253.5
 20
162.25
 30
0.0
 11
249.75
 21
162.25
 31
0.0
  0
LINE
  5
3D7
330
1F
100
AcDbEntity
  8
0
  6
CONTINUOUS
 62
     3
100
AcDbLine
 10
253.5
 20
160.25
 30
0.0
 11
249.75
 21
160.25
 31
0.0
  0
LINE
  5
3D8
330
1F
100
AcDbEntity
  8
0
  6
CONTINUOUS
 62
     3
100
AcDbLine
 10
253.5
 20
158.75
 30
0.0
 11
249.75
 21
158.75
 31
0.0
  0
LINE
  5
3D9
330
1F
100
AcDbEntity
  8
0
  6
CONTINUOUS
 62
     3
100
AcDbLine
 10
253.5
 20
155.25
 30
0.0
 11
249.75
 21
155.25
 31
0.0
  0
LINE
  5
3DA
330
1F
100
AcDbEntity
  8
0
  6
CONTINUOUS
 62
     3
100
AcDbLine
 10
253.5
 20
153.25
 30
0.0
 11
249.75
 21
153.25
 31
0.0
  0
LINE
  5
3DB
330
1F
100
AcDbEntity
  8
0
  6
CONTINUOUS
 62
     3
100
AcDbLine
 10
253.5
 20
151.75
 30
0.0
 11
249.75
 21
151.75
 31
0.0
  0
LINE
  5
3DC
330
1F
100
AcDbEntity
  8
0
  6
CONTINUOUS
 62
     3
100
AcDbLine
 10
253.5
 20
149.75
 30
0.0
 11
249.75
 21
149.75
 31
0.0
  0
LINE
  5
3DD
330
1F
100
AcDbEntity
  8
0
  6
CONTINUOUS
 62
     3
100
AcDbLine
 10
253.5
 20
148.25
 30
0.0
 11
249.75
 21
148.25
 31
0.0
  0
LINE
  5
3DE
330
1F
100
AcDbEntity
  8
0
  6
CONTINUOUS
 62
     3
100
AcDbLine
 10
253.5
 20
146.25
 30
0.0
 11
249.75
 21
146.25
 31
0.0
  0
LINE
  5
3DF
330
1F
100
AcDbEntity
  8
0
  6
CONTINUOUS
 62
     3
100
AcDbLine
 10
253.5
 20
144.75
 30
0.0
 11
249.75
 21
144.75
 31
0.0
  0
LINE
  5
3E0
330
1F
100
AcDbEntity
  8
0
  6
CONTINUOUS
 62
     3
100
AcDbLine
 10
253.5
 20
142.75
 30
0.0
 11
249.75
 21
142.75
 31
0.0
  0
LINE
  5
3E1
330
1F
100
AcDbEntity
  8
0
  6
CONTINUOUS
 62
     3
100
AcDbLine
 10
253.5
 20
141.25
 30
0.0
 11
249.75
 21
141.25
 31
0.0
  0
LINE
  5
3E2
330
1F
100
AcDbEntity
  8
0
  6
CONTINUOUS
 62
     3
100
AcDbLine
 10
253.5
 20
172.75
 30
0.0
 11
249.75
 21
172.75
 31
0.0
  0
LINE
  5
3E3
330
1F
100
AcDbEntity
  8
0
  6
CONTINUOUS
 62
     3
100
AcDbLine
 10
259.15
 20
120.0
 30
0.0
 11
259.15
 21
116.25
 31
0.0
  0
LINE
  5
3E4
330
1F
100
AcDbEntity
  8
0
  6
CONTINUOUS
 62
     3
100
AcDbLine
 10
249.7
 20
117.75
 30
0.0
 11
251.0
 21
117.75
 31
0.0
  0
LINE
  5
3E5
330
1F
100
AcDbEntity
  8
0
  6
CONTINUOUS
 62
     3
100
AcDbLine
 10
262.25
 20
117.75
 30
0.0
 11
261.0
 21
117.75
 31
0.0
  0
LINE
  5
3E6
330
1F
100
AcDbEntity
  8
0
  6
CONTINUOUS
 62
     3
100
AcDbLine
 10
261.4219745
 20
67.147066671
 30
0.0
 11
261.4219745
 21
72.147066671
 31
0.0
  0
ARC
  5
3E7
330
1F
100
AcDbEntity
  8
0
  6
CONTINUOUS
 62
     3
100
AcDbCircle
 10
261.7719745
 20
72.597066671
 30
0.0
 40
0.45
100
AcDbArc
 50
0.0
 51
90.0
  0
ARC
  5
3E8
330
1F
100
AcDbEntity
  8
0
  6
CONTINUOUS
 62
     3
100
AcDbCircle
 10
261.7719745
 20
66.697066671
 30
0.0
 40
0.45
100
AcDbArc
 50
270.0
 51
0.0
  0
LINE
  5
3E9
330
1F
100
AcDbEntity
  8
0
  6
CONTINUOUS
 62
     3
100
AcDbLine
 10
261.4219745
 20
72.147066671
 30
0.0
 11
259.9719745
 21
72.147066671
 31
0.0
  0
LINE
  5
3EA
330
1F
100
AcDbEntity
  8
0
  6
CONTINUOUS
 62
     3
100
AcDbLine
 10
259.9719745
 20
73.047066671
 30
0.0
 11
261.7719745
 21
73.047066671
 31
0.0
  0
LINE
  5
3EB
330
1F
100
AcDbEntity
  8
0
  6
CONTINUOUS
 62
     3
100
AcDbLine
 10
259.9719745
 20
72.147066671
 30
0.0
 11
259.9719745
 21
73.047066671
 31
0.0
  0
ARC
  5
3EC
330
1F
100
AcDbEntity
  8
0
  6
CONTINUOUS
 62
     3
100
AcDbCircle
 10
250.1719745
 20
72.597066671
 30
0.0
 40
0.45
100
AcDbArc
 50
90.0
 51
180.0
  0
ARC
  5
3ED
330
1F
100
AcDbEntity
  8
0
  6
CONTINUOUS
 62
     3
100
AcDbCircle
 10
250.1719745
 20
66.697066671
 30
0.0
 40
0.45
100
AcDbArc
 50
180.0
 51
270.0
  0
LINE
  5
3EE
330
1F
100
AcDbEntity
  8
0
  6
CONTINUOUS
 62
     3
100
AcDbLine
 10
250.5219745
 20
72.147066671
 30
0.0
 11
251.9719745
 21
72.147066671
 31
0.0
  0
LINE
  5
3EF
330
1F
100
AcDbEntity
  8
0
  6
CONTINUOUS
 62
     3
100
AcDbLine
 10
251.9719745
 20
73.047066671
 30
0.0
 11
250.1719745
 21
73.047066671
 31
0.0
  0
LINE
  5
3F0
330
1F
100
AcDbEntity
  8
0
  6
CONTINUOUS
 62
     3
100
AcDbLine
 10
251.9719745
 20
72.147066671
 30
0.0
 11
251.9719745
 21
73.047066671
 31
0.0
  0
LINE
  5
3F1
330
1F
100
AcDbEntity
  8
0
  6
CONTINUOUS
 62
     3
100
AcDbLine
 10
250.5219745
 20
67.147066671
 30
0.0
 11
250.5219745
 21
72.147066671
 31
0.0
  0
LINE
  5
3F2
330
1F
100
AcDbEntity
  8
0
  6
CONTINUOUS
 62
     3
100
AcDbLine
 10
250.5219745
 20
67.147066671
 30
0.0
 11
261.4219745
 21
67.147066671
 31
0.0
  0
LINE
  5
3F3
330
1F
100
AcDbEntity
  8
0
  6
CONTINUOUS
 62
     3
100
AcDbLine
 10
261.7719745
 20
66.247066671
 30
0.0
 11
250.1719745
 21
66.247066671
 31
0.0
  0
LINE
  5
3F4
330
1F
100
AcDbEntity
  8
0
  6
CONTINUOUS
 62
     3
100
AcDbLine
 10
250.9719745
 20
67.147066671
 30
0.0
 11
250.9719745
 21
66.247066671
 31
0.0
  0
LINE
  5
3F5
330
1F
100
AcDbEntity
  8
0
  6
CONTINUOUS
 62
     3
100
AcDbLine
 10
260.9719745
 20
67.147066671
 30
0.0
 11
260.9719745
 21
66.247066671
 31
0.0
  0
LINE
  5
3F6
330
1F
100
AcDbEntity
  8
0
  6
CONTINUOUS
 62
     3
100
AcDbLine
 10
249.75
 20
116.25
 30
0.0
 11
249.75
 21
66.697066671
 31
0.0
  0
LINE
  5
3F7
330
1F
100
AcDbEntity
  8
0
  6
CONTINUOUS
 62
     3
100
AcDbLine
 10
262.25
 20
116.25
 30
0.0
 11
262.25
 21
66.697066671
 31
0.0
  0
LINE
  5
3F8
330
1F
100
AcDbEntity
  8
0
  6
CONTINUOUS
 62
     3
100
AcDbLine
 10
251.0
 20
113.25
 30
0.0
 11
261.0
 21
113.25
 31
0.0
  0
LINE
  5
3F9
330
1F
100
AcDbEntity
  8
0
  6
CONTINUOUS
 62
     3
100
AcDbLine
 10
261.0
 20
113.25
 30
0.0
 11
261.0
 21
98.25
 31
0.0
  0
LINE
  5
3FA
330
1F
100
AcDbEntity
  8
0
  6
CONTINUOUS
 62
     3
100
AcDbLine
 10
261.0
 20
98.25
 30
0.0
 11
251.0
 21
98.25
 31
0.0
  0
LINE
  5
3FB
330
1F
100
AcDbEntity
  8
0
  6
CONTINUOUS
 62
     3
100
AcDbLine
 10
251.0
 20
98.25
 30
0.0
 11
251.0
 21
113.25
 31
0.0
  0
LINE
  5
3FC
330
1F
100
AcDbEntity
  8
0
  6
CONTINUOUS
 62
     3
100
AcDbLine
 10
251.0
 20
112.25
 30
0.0
 11
261.0
 21
112.25
 31
0.0
  0
LINE
  5
3FD
330
1F
100
AcDbEntity
  8
0
  6
CONTINUOUS
 62
     3
100
AcDbLine
 10
251.0
 20
98.75
 30
0.0
 11
261.0
 21
98.75
 31
0.0
  0
LINE
  5
3FE
330
1F
100
AcDbEntity
  8
0
  6
CONTINUOUS
 62
     3
100
AcDbLine
 10
261.0
 20
99.25
 30
0.0
 11
251.0
 21
99.25
 31
0.0
  0
LINE
  5
3FF
330
1F
100
AcDbEntity
  8
0
  6
CONTINUOUS
 62
     3
100
AcDbLine
 10
251.0
 20
105.25
 30
0.0
 11
261.0
 21
105.25
 31
0.0
  0
LINE
  5
400
330
1F
100
AcDbEntity
  8
0
  6
CONTINUOUS
 62
     3
100
AcDbLine
 10
251.0
 20
105.75
 30
0.0
 11
261.0
 21
105.75
 31
0.0
  0
LINE
  5
401
330
1F
100
AcDbEntity
  8
0
  6
CONTINUOUS
 62
     3
100
AcDbLine
 10
261.0
 20
105.75
 30
0.0
 11
261.0
 21
109.75
 31
0.0
  0
LINE
  5
402
330
1F
100
AcDbEntity
  8
0
  6
CONTINUOUS
 62
     3
100
AcDbLine
 10
251.0
 20
111.25
 30
0.0
 11
261.0
 21
111.25
 31
0.0
  0
LINE
  5
403
330
1F
100
AcDbEntity
  8
0
  6
CONTINUOUS
 62
     3
100
AcDbLine
 10
257.5
 20
100.75
 30
0.0
 11
259.5
 21
100.75
 31
0.0
  0
LINE
  5
404
330
1F
100
AcDbEntity
  8
0
  6
CONTINUOUS
 62
     3
100
AcDbLine
 10
257.5
 20
104.25
 30
0.0
 11
259.5
 21
104.25
 31
0.0
  0
LINE
  5
405
330
1F
100
AcDbEntity
  8
0
  6
CONTINUOUS
 62
     3
100
AcDbLine
 10
257.0
 20
99.75
 30
0.0
 11
256.5
 21
99.75
 31
0.0
  0
LINE
  5
406
330
1F
100
AcDbEntity
  8
0
  6
CONTINUOUS
 62
     3
100
AcDbLine
 10
257.0
 20
99.75
 30
0.0
 11
260.5
 21
99.75
 31
0.0
  0
LINE
  5
407
330
1F
100
AcDbEntity
  8
0
  6
CONTINUOUS
 62
     3
100
AcDbLine
 10
260.0
 20
104.75
 30
0.0
 11
257.0
 21
104.75
 31
0.0
  0
LINE
  5
408
330
1F
100
AcDbEntity
  8
0
  6
CONTINUOUS
 62
     3
100
AcDbLine
 10
257.0
 20
104.75
 30
0.0
 11
256.5
 21
99.75
 31
0.0
  0
LINE
  5
409
330
1F
100
AcDbEntity
  8
0
  6
CONTINUOUS
 62
     3
100
AcDbLine
 10
260.0
 20
104.75
 30
0.0
 11
260.5
 21
99.75
 31
0.0
  0
LINE
  5
40A
330
1F
100
AcDbEntity
  8
0
  6
CONTINUOUS
 62
     3
100
AcDbLine
 10
257.5
 20
100.75
 30
0.0
 11
256.5
 21
99.75
 31
0.0
  0
LINE
  5
40B
330
1F
100
AcDbEntity
  8
0
  6
CONTINUOUS
 62
     3
100
AcDbLine
 10
259.5
 20
100.75
 30
0.0
 11
260.5
 21
99.75
 31
0.0
  0
LINE
  5
40C
330
1F
100
AcDbEntity
  8
0
  6
CONTINUOUS
 62
     3
100
AcDbLine
 10
259.5
 20
100.75
 30
0.0
 11
259.5
 21
104.25
 31
0.0
  0
LINE
  5
40D
330
1F
100
AcDbEntity
  8
0
  6
CONTINUOUS
 62
     3
100
AcDbLine
 10
257.5
 20
104.25
 30
0.0
 11
257.5
 21
100.75
 31
0.0
  0
LINE
  5
40E
330
1F
100
AcDbEntity
  8
0
  6
CONTINUOUS
 62
     3
100
AcDbLine
 10
257.5
 20
104.25
 30
0.0
 11
257.0
 21
104.85
 31
0.0
  0
LINE
  5
40F
330
1F
100
AcDbEntity
  8
0
  6
CONTINUOUS
 62
     3
100
AcDbLine
 10
259.5
 20
104.25
 30
0.0
 11
260.0
 21
104.75
 31
0.0
  0
LINE
  5
410
330
1F
100
AcDbEntity
  8
0
  6
CONTINUOUS
 62
     3
100
AcDbLine
 10
252.5
 20
100.75
 30
0.0
 11
254.5
 21
100.75
 31
0.0
  0
LINE
  5
411
330
1F
100
AcDbEntity
  8
0
  6
CONTINUOUS
 62
     3
100
AcDbLine
 10
252.5
 20
104.25
 30
0.0
 11
254.5
 21
104.25
 31
0.0
  0
LINE
  5
412
330
1F
100
AcDbEntity
  8
0
  6
CONTINUOUS
 62
     3
100
AcDbLine
 10
252.0
 20
99.75
 30
0.0
 11
251.5
 21
99.75
 31
0.0
  0
LINE
  5
413
330
1F
100
AcDbEntity
  8
0
  6
CONTINUOUS
 62
     3
100
AcDbLine
 10
252.0
 20
99.75
 30
0.0
 11
255.5
 21
99.75
 31
0.0
  0
LINE
  5
414
330
1F
100
AcDbEntity
  8
0
  6
CONTINUOUS
 62
     3
100
AcDbLine
 10
255.0
 20
104.75
 30
0.0
 11
252.0
 21
104.75
 31
0.0
  0
LINE
  5
415
330
1F
100
AcDbEntity
  8
0
  6
CONTINUOUS
 62
     3
100
AcDbLine
 10
252.0
 20
104.75
 30
0.0
 11
251.5
 21
99.75
 31
0.0
  0
LINE
  5
416
330
1F
100
AcDbEntity
  8
0
  6
CONTINUOUS
 62
     3
100
AcDbLine
 10
255.0
 20
104.75
 30
0.0
 11
255.5
 21
99.75
 31
0.0
  0
LINE
  5
417
330
1F
100
AcDbEntity
  8
0
  6
CONTINUOUS
 62
     3
100
AcDbLine
 10
252.5
 20
100.75
 30
0.0
 11
251.5
 21
99.75
 31
0.0
  0
LINE
  5
418
330
1F
100
AcDbEntity
  8
0
  6
CONTINUOUS
 62
     3
100
AcDbLine
 10
254.5
 20
100.75
 30
0.0
 11
255.5
 21
99.75
 31
0.0
  0
LINE
  5
419
330
1F
100
AcDbEntity
  8
0
  6
CONTINUOUS
 62
     3
100
AcDbLine
 10
254.5
 20
100.75
 30
0.0
 11
254.5
 21
104.25
 31
0.0
  0
LINE
  5
41A
330
1F
100
AcDbEntity
  8
0
  6
CONTINUOUS
 62
     3
100
AcDbLine
 10
252.5
 20
104.25
 30
0.0
 11
252.5
 21
100.75
 31
0.0
  0
LINE
  5
41B
330
1F
100
AcDbEntity
  8
0
  6
CONTINUOUS
 62
     3
100
AcDbLine
 10
252.5
 20
104.25
 30
0.0
 11
252.0
 21
104.85
 31
0.0
  0
LINE
  5
41C
330
1F
100
AcDbEntity
  8
0
  6
CONTINUOUS
 62
     3
100
AcDbLine
 10
254.5
 20
104.25
 30
0.0
 11
255.0
 21
104.75
 31
0.0
  0
LINE
  5
41D
330
1F
100
AcDbEntity
  8
0
  6
CONTINUOUS
 62
     3
100
AcDbLine
 10
254.5
 20
113.25
 30
0.0
 11
254.5
 21
114.25
 31
0.0
  0
LINE
  5
41E
330
1F
100
AcDbEntity
  8
0
  6
CONTINUOUS
 62
     3
100
AcDbLine
 10
256.0
 20
114.25
 30
0.0
 11
256.0
 21
113.25
 31
0.0
  0
LINE
  5
41F
330
1F
100
AcDbEntity
  8
0
  6
CONTINUOUS
 62
     3
100
AcDbLine
 10
251.0
 20
94.75
 30
0.0
 11
261.0
 21
94.75
 31
0.0
  0
LINE
  5
420
330
1F
100
AcDbEntity
  8
0
  6
CONTINUOUS
 62
     3
100
AcDbLine
 10
261.0
 20
94.75
 30
0.0
 11
261.0
 21
79.75
 31
0.0
  0
LINE
  5
421
330
1F
100
AcDbEntity
  8
0
  6
CONTINUOUS
 62
     3
100
AcDbLine
 10
261.0
 20
79.75
 30
0.0
 11
251.0
 21
79.75
 31
0.0
  0
LINE
  5
422
330
1F
100
AcDbEntity
  8
0
  6
CONTINUOUS
 62
     3
100
AcDbLine
 10
251.0
 20
79.75
 30
0.0
 11
251.0
 21
94.75
 31
0.0
  0
LINE
  5
423
330
1F
100
AcDbEntity
  8
0
  6
CONTINUOUS
 62
     3
100
AcDbLine
 10
251.0
 20
93.75
 30
0.0
 11
261.0
 21
93.75
 31
0.0
  0
LINE
  5
424
330
1F
100
AcDbEntity
  8
0
  6
CONTINUOUS
 62
     3
100
AcDbLine
 10
251.0
 20
80.25
 30
0.0
 11
261.0
 21
80.25
 31
0.0
  0
LINE
  5
425
330
1F
100
AcDbEntity
  8
0
  6
CONTINUOUS
 62
     3
100
AcDbLine
 10
261.0
 20
80.75
 30
0.0
 11
251.0
 21
80.75
 31
0.0
  0
LINE
  5
426
330
1F
100
AcDbEntity
  8
0
  6
CONTINUOUS
 62
     3
100
AcDbLine
 10
251.0
 20
86.75
 30
0.0
 11
261.0
 21
86.75
 31
0.0
  0
LINE
  5
427
330
1F
100
AcDbEntity
  8
0
  6
CONTINUOUS
 62
     3
100
AcDbLine
 10
251.0
 20
87.25
 30
0.0
 11
261.0
 21
87.25
 31
0.0
  0
LINE
  5
428
330
1F
100
AcDbEntity
  8
0
  6
CONTINUOUS
 62
     3
100
AcDbLine
 10
261.0
 20
87.25
 30
0.0
 11
261.0
 21
91.25
 31
0.0
  0
LINE
  5
429
330
1F
100
AcDbEntity
  8
0
  6
CONTINUOUS
 62
     3
100
AcDbLine
 10
251.0
 20
92.75
 30
0.0
 11
261.0
 21
92.75
 31
0.0
  0
LINE
  5
42A
330
1F
100
AcDbEntity
  8
0
  6
CONTINUOUS
 62
     3
100
AcDbLine
 10
257.5
 20
82.25
 30
0.0
 11
259.5
 21
82.25
 31
0.0
  0
LINE
  5
42B
330
1F
100
AcDbEntity
  8
0
  6
CONTINUOUS
 62
     3
100
AcDbLine
 10
257.5
 20
85.75
 30
0.0
 11
259.5
 21
85.75
 31
0.0
  0
LINE
  5
42C
330
1F
100
AcDbEntity
  8
0
  6
CONTINUOUS
 62
     3
100
AcDbLine
 10
257.0
 20
81.25
 30
0.0
 11
256.5
 21
81.25
 31
0.0
  0
LINE
  5
42D
330
1F
100
AcDbEntity
  8
0
  6
CONTINUOUS
 62
     3
100
AcDbLine
 10
257.0
 20
81.25
 30
0.0
 11
260.5
 21
81.25
 31
0.0
  0
LINE
  5
42E
330
1F
100
AcDbEntity
  8
0
  6
CONTINUOUS
 62
     3
100
AcDbLine
 10
260.0
 20
86.25
 30
0.0
 11
257.0
 21
86.25
 31
0.0
  0
LINE
  5
42F
330
1F
100
AcDbEntity
  8
0
  6
CONTINUOUS
 62
     3
100
AcDbLine
 10
257.0
 20
86.25
 30
0.0
 11
256.5
 21
81.25
 31
0.0
  0
LINE
  5
430
330
1F
100
AcDbEntity
  8
0
  6
CONTINUOUS
 62
     3
100
AcDbLine
 10
260.0
 20
86.25
 30
0.0
 11
260.5
 21
81.25
 31
0.0
  0
LINE
  5
431
330
1F
100
AcDbEntity
  8
0
  6
CONTINUOUS
 62
     3
100
AcDbLine
 10
257.5
 20
82.25
 30
0.0
 11
256.5
 21
81.25
 31
0.0
  0
LINE
  5
432
330
1F
100
AcDbEntity
  8
0
  6
CONTINUOUS
 62
     3
100
AcDbLine
 10
259.5
 20
82.25
 30
0.0
 11
260.5
 21
81.25
 31
0.0
  0
LINE
  5
433
330
1F
100
AcDbEntity
  8
0
  6
CONTINUOUS
 62
     3
100
AcDbLine
 10
259.5
 20
82.25
 30
0.0
 11
259.5
 21
85.75
 31
0.0
  0
LINE
  5
434
330
1F
100
AcDbEntity
  8
0
  6
CONTINUOUS
 62
     3
100
AcDbLine
 10
257.5
 20
85.75
 30
0.0
 11
257.5
 21
82.25
 31
0.0
  0
LINE
  5
435
330
1F
100
AcDbEntity
  8
0
  6
CONTINUOUS
 62
     3
100
AcDbLine
 10
257.5
 20
85.75
 30
0.0
 11
257.0
 21
86.35
 31
0.0
  0
LINE
  5
436
330
1F
100
AcDbEntity
  8
0
  6
CONTINUOUS
 62
     3
100
AcDbLine
 10
259.5
 20
85.75
 30
0.0
 11
260.0
 21
86.25
 31
0.0
  0
LINE
  5
437
330
1F
100
AcDbEntity
  8
0
  6
CONTINUOUS
 62
     3
100
AcDbLine
 10
252.5
 20
82.25
 30
0.0
 11
254.5
 21
82.25
 31
0.0
  0
LINE
  5
438
330
1F
100
AcDbEntity
  8
0
  6
CONTINUOUS
 62
     3
100
AcDbLine
 10
252.5
 20
85.75
 30
0.0
 11
254.5
 21
85.75
 31
0.0
  0
LINE
  5
439
330
1F
100
AcDbEntity
  8
0
  6
CONTINUOUS
 62
     3
100
AcDbLine
 10
252.0
 20
81.25
 30
0.0
 11
251.5
 21
81.25
 31
0.0
  0
LINE
  5
43A
330
1F
100
AcDbEntity
  8
0
  6
CONTINUOUS
 62
     3
100
AcDbLine
 10
252.0
 20
81.25
 30
0.0
 11
255.5
 21
81.25
 31
0.0
  0
LINE
  5
43B
330
1F
100
AcDbEntity
  8
0
  6
CONTINUOUS
 62
     3
100
AcDbLine
 10
255.0
 20
86.25
 30
0.0
 11
252.0
 21
86.25
 31
0.0
  0
LINE
  5
43C
330
1F
100
AcDbEntity
  8
0
  6
CONTINUOUS
 62
     3
100
AcDbLine
 10
252.0
 20
86.25
 30
0.0
 11
251.5
 21
81.25
 31
0.0
  0
LINE
  5
43D
330
1F
100
AcDbEntity
  8
0
  6
CONTINUOUS
 62
     3
100
AcDbLine
 10
255.0
 20
86.25
 30
0.0
 11
255.5
 21
81.25
 31
0.0
  0
LINE
  5
43E
330
1F
100
AcDbEntity
  8
0
  6
CONTINUOUS
 62
     3
100
AcDbLine
 10
252.5
 20
82.25
 30
0.0
 11
251.5
 21
81.25
 31
0.0
  0
LINE
  5
43F
330
1F
100
AcDbEntity
  8
0
  6
CONTINUOUS
 62
     3
100
AcDbLine
 10
254.5
 20
82.25
 30
0.0
 11
255.5
 21
81.25
 31
0.0
  0
LINE
  5
440
330
1F
100
AcDbEntity
  8
0
  6
CONTINUOUS
 62
     3
100
AcDbLine
 10
254.5
 20
82.25
 30
0.0
 11
254.5
 21
85.75
 31
0.0
  0
LINE
  5
441
330
1F
100
AcDbEntity
  8
0
  6
CONTINUOUS
 62
     3
100
AcDbLine
 10
252.5
 20
85.75
 30
0.0
 11
252.5
 21
82.25
 31
0.0
  0
LINE
  5
442
330
1F
100
AcDbEntity
  8
0
  6
CONTINUOUS
 62
     3
100
AcDbLine
 10
252.5
 20
85.75
 30
0.0
 11
252.0
 21
86.35
 31
0.0
  0
LINE
  5
443
330
1F
100
AcDbEntity
  8
0
  6
CONTINUOUS
 62
     3
100
AcDbLine
 10
254.5
 20
85.75
 30
0.0
 11
255.0
 21
86.25
 31
0.0
  0
LINE
  5
444
330
1F
100
AcDbEntity
  8
0
  6
CONTINUOUS
 62
     3
100
AcDbLine
 10
256.0
 20
95.75
 30
0.0
 11
256.0
 21
94.75
 31
0.0
  0
LINE
  5
445
330
1F
100
AcDbEntity
  8
0
  6
CONTINUOUS
 62
     3
100
AcDbLine
 10
254.5
 20
94.75
 30
0.0
 11
254.5
 21
95.75
 31
0.0
  0
LINE
  5
446
330
1F
100
AcDbEntity
  8
0
  6
CONTINUOUS
 62
     3
100
AcDbLine
 10
251.0
 20
105.75
 30
0.0
 11
261.0
 21
105.75
 31
0.0
  0
LINE
  5
447
330
1F
100
AcDbEntity
  8
0
  6
CONTINUOUS
 62
     3
100
AcDbLine
 10
261.0
 20
105.75
 30
0.0
 11
261.0
 21
109.75
 31
0.0
  0
LINE
  5
448
330
1F
100
AcDbEntity
  8
0
  6
CONTINUOUS
 62
     3
100
AcDbLine
 10
251.0
 20
111.25
 30
0.0
 11
261.0
 21
111.25
 31
0.0
  0
LINE
  5
449
330
1F
100
AcDbEntity
  8
0
  6
CONTINUOUS
 62
     5
100
AcDbLine
 10
249.75
 20
184.0
 30
0.0
 11
249.75
 21
201.0
 31
0.0
  0
LINE
  5
44A
330
1F
100
AcDbEntity
  8
0
  6
CONTINUOUS
 62
     5
100
AcDbLine
 10
249.75
 20
199.0
 30
0.0
 11
252.164814566
 21
198.352952387
 31
0.0
  0
LINE
  5
44B
330
1F
100
AcDbEntity
  8
0
  6
CONTINUOUS
 62
     5
100
AcDbLine
 10
249.75
 20
199.0
 30
0.0
 11
252.164814566
 21
199.647047613
 31
0.0
  0
LINE
  5
44C
330
1F
100
AcDbEntity
  8
0
  6
CONTINUOUS
 62
     5
100
AcDbLine
 10
262.25
 20
199.0
 30
0.0
 11
259.835185434
 21
199.647047613
 31
0.0
  0
LINE
  5
44D
330
1F
100
AcDbEntity
  8
0
  6
CONTINUOUS
 62
     5
100
AcDbLine
 10
262.25
 20
199.0
 30
0.0
 11
259.835185434
 21
198.352952387
 31
0.0
  0
LINE
  5
44E
330
1F
100
AcDbEntity
  8
0
  6
CONTINUOUS
 62
     5
100
AcDbLine
 10
262.25
 20
184.0
 30
0.0
 11
262.25
 21
201.0
 31
0.0
  0
TEXT
  5
44F
330
1F
100
AcDbEntity
  8
0
  6
CONTINUOUS
 62
     3
100
AcDbText
 10
252.5
 20
88.25021402905479
 30
0.0
 40
2.377641017957764
  1
７
 41
0.666666667
  7
MS_PGOTHIC
 11
252.5
 21
87.76406074216423
 31
0.0
100
AcDbText
 73
     1
  0
TEXT
  5
450
330
1F
100
AcDbEntity
  8
0
  6
CONTINUOUS
 62
     3
100
AcDbText
 10
257.5
 20
88.25004552344313
 30
0.0
 40
2.252666457224111
  1
８
 41
0.666666667
  7
MS_PGOTHIC
 11
257.5
 21
87.7894456287676
 31
0.0
100
AcDbText
 73
     1
  0
TEXT
  5
451
330
1F
100
AcDbEntity
  8
0
  6
CONTINUOUS
 62
     3
100
AcDbText
 10
252.5
 20
106.7502554299765
 30
0.0
 40
2.220568878170399
  1
５
 41
0.666666667
  7
MS_PGOTHIC
 11
252.5
 21
106.2962184871681
 31
0.0
100
AcDbText
 73
     1
  0
TEXT
  5
452
330
1F
100
AcDbEntity
  8
0
  6
CONTINUOUS
 62
     3
100
AcDbText
 10
257.5
 20
106.7502554299765
 30
0.0
 40
2.220568878170399
  1
６
 41
0.666666667
  7
MS_PGOTHIC
 11
257.5
 21
106.2962184871681
 31
0.0
100
AcDbText
 73
     1
  0
TEXT
  5
453
330
1F
100
AcDbEntity
  8
0
  6
CONTINUOUS
 62
     3
100
AcDbText
 10
245.6
 20
201.9999128583574
 30
0.0
 40
2.390286536344863
  1
１２．５＋０．５，－０
 41
0.6
  7
MS_PGOTHIC
 11
245.6
 21
201.5111739581291
 31
0.0
100
AcDbText
 73
     1
  0
LINE
  5
454
330
1F
100
AcDbEntity
  8
0
  6
CONTINUOUS
 62
     5
100
AcDbLine
 10
249.75
 20
199.0
 30
0.0
 11
262.25
 21
199.0
 31
0.0
  0
LINE
  5
455
330
1F
100
AcDbEntity
  8
0
  6
CONTINUOUS
 62
     3
100
AcDbLine
 10
222.4119745
 20
235.597066671
 30
0.0
 11
125.4119745
 21
235.597066671
 31
0.0
  0
LINE
  5
456
330
1F
100
AcDbEntity
  8
0
  6
CONTINUOUS
 62
     3
100
AcDbLine
 10
125.4119745
 20
223.097066671
 30
0.0
 11
222.4119745
 21
223.097066671
 31
0.0
  0
LINE
  5
457
330
1F
100
AcDbEntity
  8
0
  6
CONTINUOUS
 62
     3
100
AcDbLine
 10
202.9119745
 20
223.597066671
 30
0.0
 11
144.9119745
 21
223.597066671
 31
0.0
  0
LINE
  5
458
330
1F
100
AcDbEntity
  8
0
  6
CONTINUOUS
 62
     3
100
AcDbLine
 10
144.9119745
 20
235.097066671
 30
0.0
 11
202.9119745
 21
235.097066671
 31
0.0
  0
LINE
  5
459
330
1F
100
AcDbEntity
  8
0
  6
CONTINUOUS
 62
     3
100
AcDbLine
 10
203.4119745
 20
235.597066671
 30
0.0
 11
203.4119745
 21
222.972066671
 31
0.0
  0
LINE
  5
45A
330
1F
100
AcDbEntity
  8
0
  6
CONTINUOUS
 62
     3
100
AcDbLine
 10
223.4119745
 20
234.347066671
 30
0.0
 11
203.4119745
 21
234.347066671
 31
0.0
  0
LINE
  5
45B
330
1F
100
AcDbEntity
  8
0
  6
CONTINUOUS
 62
     3
100
AcDbLine
 10
223.4119745
 20
224.347066671
 30
0.0
 11
203.4119745
 21
224.347066671
 31
0.0
  0
LINE
  5
45C
330
1F
100
AcDbEntity
  8
0
  6
CONTINUOUS
 62
     3
100
AcDbLine
 10
222.4119745
 20
235.597066671
 30
0.0
 11
223.4119745
 21
235.097066671
 31
0.0
  0
LINE
  5
45D
330
1F
100
AcDbEntity
  8
0
  6
CONTINUOUS
 62
     3
100
AcDbLine
 10
223.4119745
 20
223.597066671
 30
0.0
 11
223.4119745
 21
235.097066671
 31
0.0
  0
LINE
  5
45E
330
1F
100
AcDbEntity
  8
0
  6
CONTINUOUS
 62
     3
100
AcDbLine
 10
222.4119745
 20
223.097066671
 30
0.0
 11
223.4119745
 21
223.597066671
 31
0.0
  0
LINE
  5
45F
330
1F
100
AcDbEntity
  8
0
  6
CONTINUOUS
 62
     3
100
AcDbLine
 10
223.4119745
 20
235.097066671
 30
0.0
 11
203.4119745
 21
235.097066671
 31
0.0
  0
LINE
  5
460
330
1F
100
AcDbEntity
  8
0
  6
CONTINUOUS
 62
     3
100
AcDbLine
 10
212.9119745
 20
235.097066671
 30
0.0
 11
211.9119745
 21
235.597066671
 31
0.0
  0
LINE
  5
461
330
1F
100
AcDbEntity
  8
0
  6
CONTINUOUS
 62
     3
100
AcDbLine
 10
223.4119745
 20
223.597066671
 30
0.0
 11
203.4119745
 21
223.597066671
 31
0.0
  0
LINE
  5
462
330
1F
100
AcDbEntity
  8
0
  6
CONTINUOUS
 62
     3
100
AcDbLine
 10
212.9119745
 20
223.597066671
 30
0.0
 11
211.9119745
 21
223.097066671
 31
0.0
  0
LINE
  5
463
330
1F
100
AcDbEntity
  8
0
  6
CONTINUOUS
 62
     3
100
AcDbLine
 10
212.9119745
 20
223.597066671
 30
0.0
 11
212.9119745
 21
235.097066671
 31
0.0
  0
LINE
  5
464
330
1F
100
AcDbEntity
  8
0
  6
CONTINUOUS
 62
     3
100
AcDbLine
 10
202.9119745
 20
235.097066671
 30
0.0
 11
202.9119745
 21
223.597066671
 31
0.0
  0
LINE
  5
465
330
1F
100
AcDbEntity
  8
0
  6
CONTINUOUS
 62
     3
100
AcDbLine
 10
222.4119745
 20
234.347066671
 30
0.0
 11
222.4119745
 21
224.347066671
 31
0.0
  0
CIRCLE
  5
466
330
1F
100
AcDbEntity
  8
0
  6
CONTINUOUS
 62
     3
100
AcDbCircle
 10
207.9119745
 20
231.847066671
 30
0.0
 40
2.0
  0
CIRCLE
  5
467
330
1F
100
AcDbEntity
  8
0
  6
CONTINUOUS
 62
     3
100
AcDbCircle
 10
207.9119745
 20
226.847066671
 30
0.0
 40
2.0
  0
CIRCLE
  5
468
330
1F
100
AcDbEntity
  8
0
  6
CONTINUOUS
 62
     3
100
AcDbCircle
 10
217.4119745
 20
231.847066671
 30
0.0
 40
2.0
  0
CIRCLE
  5
469
330
1F
100
AcDbEntity
  8
0
  6
CONTINUOUS
 62
     3
100
AcDbCircle
 10
217.4119745
 20
226.847066671
 30
0.0
 40
2.0
  0
POLYLINE
  5
46A
330
1F
100
AcDbEntity
  8
0
  6
CONTINUOUS
 62
     3
100
AcDb2dPolyline
 66
     1
 10
0.0
 20
0.0
 30
0.0
  0
VERTEX
  5
46B
330
46A
100
AcDbEntity
  8
0
100
AcDbVertex
100
AcDb2dVertex
 10
210.9119745
 20
230.347066671
 30
0.0
  0
VERTEX
  5
46C
330
46A
100
AcDbEntity
  8
0
100
AcDbVertex
100
AcDb2dVertex
 10
211.9119745
 20
230.347066671
 30
0.0
  0
VERTEX
  5
46D
330
46A
100
AcDbEntity
  8
0
100
AcDbVertex
100
AcDb2dVertex
 10
211.9119745
 20
233.347066671
 30
0.0
  0
VERTEX
  5
46E
330
46A
100
AcDbEntity
  8
0
100
AcDbVertex
100
AcDb2dVertex
 10
210.9119745
 20
233.347066671
 30
0.0
  0
VERTEX
  5
46F
330
46A
100
AcDbEntity
  8
0
100
AcDbVertex
100
AcDb2dVertex
 10
210.9119745
 20
230.347066671
 30
0.0
  0
SEQEND
  5
470
330
46A
100
AcDbEntity
  8
0
  6
CONTINUOUS
 62
     3
  0
POLYLINE
  5
471
330
1F
100
AcDbEntity
  8
0
  6
CONTINUOUS
 62
     3
100
AcDb2dPolyline
 66
     1
 10
0.0
 20
0.0
 30
0.0
  0
VERTEX
  5
472
330
471
100
AcDbEntity
  8
0
100
AcDbVertex
100
AcDb2dVertex
 10
210.9119745
 20
225.347066671
 30
0.0
  0
VERTEX
  5
473
330
471
100
AcDbEntity
  8
0
100
AcDbVertex
100
AcDb2dVertex
 10
211.9119745
 20
225.347066671
 30
0.0
  0
VERTEX
  5
474
330
471
100
AcDbEntity
  8
0
100
AcDbVertex
100
AcDb2dVertex
 10
211.9119745
 20
228.347066671
 30
0.0
  0
VERTEX
  5
475
330
471
100
AcDbEntity
  8
0
100
AcDbVertex
100
AcDb2dVertex
 10
210.9119745
 20
228.347066671
 30
0.0
  0
VERTEX
  5
476
330
471
100
AcDbEntity
  8
0
100
AcDbVertex
100
AcDb2dVertex
 10
210.9119745
 20
225.347066671
 30
0.0
  0
SEQEND
  5
477
330
471
100
AcDbEntity
  8
0
  6
CONTINUOUS
 62
     3
  0
LINE
  5
478
330
1F
100
AcDbEntity
  8
0
  6
CONTINUOUS
 62
     3
100
AcDbLine
 10
222.4119745
 20
235.097066671
 30
0.0
 11
221.4119745
 21
235.597066671
 31
0.0
  0
LINE
  5
479
330
1F
100
AcDbEntity
  8
0
  6
CONTINUOUS
 62
     3
100
AcDbLine
 10
222.4119745
 20
223.597066671
 30
0.0
 11
221.4119745
 21
223.097066671
 31
0.0
  0
LINE
  5
47A
330
1F
100
AcDbEntity
  8
0
  6
CONTINUOUS
 62
     3
100
AcDbLine
 10
222.4119745
 20
223.597066671
 30
0.0
 11
222.4119745
 21
235.097066671
 31
0.0
  0
POLYLINE
  5
47B
330
1F
100
AcDbEntity
  8
0
  6
CONTINUOUS
 62
     3
100
AcDb2dPolyline
 66
     1
 10
0.0
 20
0.0
 30
0.0
  0
VERTEX
  5
47C
330
47B
100
AcDbEntity
  8
0
100
AcDbVertex
100
AcDb2dVertex
 10
220.4119745
 20
230.347066671
 30
0.0
  0
VERTEX
  5
47D
330
47B
100
AcDbEntity
  8
0
100
AcDbVertex
100
AcDb2dVertex
 10
221.4119745
 20
230.347066671
 30
0.0
  0
VERTEX
  5
47E
330
47B
100
AcDbEntity
  8
0
100
AcDbVertex
100
AcDb2dVertex
 10
221.4119745
 20
233.347066671
 30
0.0
  0
VERTEX
  5
47F
330
47B
100
AcDbEntity
  8
0
100
AcDbVertex
100
AcDb2dVertex
 10
220.4119745
 20
233.347066671
 30
0.0
  0
VERTEX
  5
480
330
47B
100
AcDbEntity
  8
0
100
AcDbVertex
100
AcDb2dVertex
 10
220.4119745
 20
230.347066671
 30
0.0
  0
SEQEND
  5
481
330
47B
100
AcDbEntity
  8
0
  6
CONTINUOUS
 62
     3
  0
POLYLINE
  5
482
330
1F
100
AcDbEntity
  8
0
  6
CONTINUOUS
 62
     3
100
AcDb2dPolyline
 66
     1
 10
0.0
 20
0.0
 30
0.0
  0
VERTEX
  5
483
330
482
100
AcDbEntity
  8
0
100
AcDbVertex
100
AcDb2dVertex
 10
220.4119745
 20
225.347066671
 30
0.0
  0
VERTEX
  5
484
330
482
100
AcDbEntity
  8
0
100
AcDbVertex
100
AcDb2dVertex
 10
221.4119745
 20
225.347066671
 30
0.0
  0
VERTEX
  5
485
330
482
100
AcDbEntity
  8
0
100
AcDbVertex
100
AcDb2dVertex
 10
221.4119745
 20
228.347066671
 30
0.0
  0
VERTEX
  5
486
330
482
100
AcDbEntity
  8
0
100
AcDbVertex
100
AcDb2dVertex
 10
220.4119745
 20
228.347066671
 30
0.0
  0
VERTEX
  5
487
330
482
100
AcDbEntity
  8
0
100
AcDbVertex
100
AcDb2dVertex
 10
220.4119745
 20
225.347066671
 30
0.0
  0
SEQEND
  5
488
330
482
100
AcDbEntity
  8
0
  6
CONTINUOUS
 62
     3
  0
LINE
  5
489
330
1F
100
AcDbEntity
  8
0
  6
CONTINUOUS
 62
     3
100
AcDbLine
 10
203.9119745
 20
234.347066671
 30
0.0
 11
203.9119745
 21
229.347066671
 31
0.0
  0
LINE
  5
48A
330
1F
100
AcDbEntity
  8
0
  6
CONTINUOUS
 62
     3
100
AcDbLine
 10
203.9119745
 20
229.347066671
 30
0.0
 11
203.4119745
 21
229.347066671
 31
0.0
  0
LINE
  5
48B
330
1F
100
AcDbEntity
  8
0
  6
CONTINUOUS
 62
     3
100
AcDbLine
 10
203.4119745
 20
228.347066671
 30
0.0
 11
203.9119745
 21
228.347066671
 31
0.0
  0
LINE
  5
48C
330
1F
100
AcDbEntity
  8
0
  6
CONTINUOUS
 62
     3
100
AcDbLine
 10
203.9119745
 20
228.347066671
 30
0.0
 11
203.9119745
 21
224.347066671
 31
0.0
  0
LINE
  5
48D
330
1F
100
AcDbEntity
  8
0
  6
CONTINUOUS
 62
     3
100
AcDbLine
 10
213.4119745
 20
224.347066671
 30
0.0
 11
213.4119745
 21
228.347066671
 31
0.0
  0
LINE
  5
48E
330
1F
100
AcDbEntity
  8
0
  6
CONTINUOUS
 62
     3
100
AcDbLine
 10
213.4119745
 20
228.347066671
 30
0.0
 11
212.9119745
 21
228.347066671
 31
0.0
  0
LINE
  5
48F
330
1F
100
AcDbEntity
  8
0
  6
CONTINUOUS
 62
     3
100
AcDbLine
 10
212.9119745
 20
229.347066671
 30
0.0
 11
213.4119745
 21
229.347066671
 31
0.0
  0
LINE
  5
490
330
1F
100
AcDbEntity
  8
0
  6
CONTINUOUS
 62
     3
100
AcDbLine
 10
213.4119745
 20
229.347066671
 30
0.0
 11
213.4119745
 21
234.347066671
 31
0.0
  0
LINE
  5
491
330
1F
100
AcDbEntity
  8
0
  6
CONTINUOUS
 62
     3
100
AcDbLine
 10
216.9119745
 20
233.747066671
 30
0.0
 11
216.9119745
 21
230.047066671
 31
0.0
  0
LINE
  5
492
330
1F
100
AcDbEntity
  8
0
  6
CONTINUOUS
 62
     3
100
AcDbLine
 10
217.9119745
 20
230.047066671
 30
0.0
 11
217.9119745
 21
233.847066671
 31
0.0
  0
LINE
  5
493
330
1F
100
AcDbEntity
  8
0
  6
CONTINUOUS
 62
     3
100
AcDbLine
 10
217.9119745
 20
224.947066671
 30
0.0
 11
217.9119745
 21
228.847066671
 31
0.0
  0
LINE
  5
494
330
1F
100
AcDbEntity
  8
0
  6
CONTINUOUS
 62
     3
100
AcDbLine
 10
216.9119745
 20
228.747066671
 30
0.0
 11
216.9119745
 21
224.947066671
 31
0.0
  0
LINE
  5
495
330
1F
100
AcDbEntity
  8
0
  6
CONTINUOUS
 62
     3
100
AcDbLine
 10
207.4119745
 20
225.047066671
 30
0.0
 11
207.4119745
 21
228.647066671
 31
0.0
  0
LINE
  5
496
330
1F
100
AcDbEntity
  8
0
  6
CONTINUOUS
 62
     3
100
AcDbLine
 10
208.4119745
 20
228.847066671
 30
0.0
 11
208.4119745
 21
224.947066671
 31
0.0
  0
LINE
  5
497
330
1F
100
AcDbEntity
  8
0
  6
CONTINUOUS
 62
     3
100
AcDbLine
 10
207.4119745
 20
233.747066671
 30
0.0
 11
207.4119745
 21
229.947066671
 31
0.0
  0
LINE
  5
498
330
1F
100
AcDbEntity
  8
0
  6
CONTINUOUS
 62
     3
100
AcDbLine
 10
208.4119745
 20
229.947066671
 30
0.0
 11
208.4119745
 21
233.847066671
 31
0.0
  0
LINE
  5
499
330
1F
100
AcDbEntity
  8
0
  6
CONTINUOUS
 62
     3
100
AcDbLine
 10
124.4119745
 20
234.347066671
 30
0.0
 11
144.4119745
 21
234.347066671
 31
0.0
  0
LINE
  5
49A
330
1F
100
AcDbEntity
  8
0
  6
CONTINUOUS
 62
     3
100
AcDbLine
 10
124.4119745
 20
224.347066671
 30
0.0
 11
144.4119745
 21
224.347066671
 31
0.0
  0
LINE
  5
49B
330
1F
100
AcDbEntity
  8
0
  6
CONTINUOUS
 62
     3
100
AcDbLine
 10
124.4119745
 20
235.097066671
 30
0.0
 11
125.4119745
 21
235.597066671
 31
0.0
  0
LINE
  5
49C
330
1F
100
AcDbEntity
  8
0
  6
CONTINUOUS
 62
     3
100
AcDbLine
 10
124.4119745
 20
235.097066671
 30
0.0
 11
124.4119745
 21
223.597066671
 31
0.0
  0
LINE
  5
49D
330
1F
100
AcDbEntity
  8
0
  6
CONTINUOUS
 62
     3
100
AcDbLine
 10
124.4119745
 20
223.597066671
 30
0.0
 11
125.4119745
 21
223.097066671
 31
0.0
  0
LINE
  5
49E
330
1F
100
AcDbEntity
  8
0
  6
CONTINUOUS
 62
     3
100
AcDbLine
 10
134.9119745
 20
223.097066671
 30
0.0
 11
134.9119745
 21
235.097066671
 31
0.0
  0
LINE
  5
49F
330
1F
100
AcDbEntity
  8
0
  6
CONTINUOUS
 62
     3
100
AcDbLine
 10
144.4119745
 20
235.597066671
 30
0.0
 11
144.4119745
 21
222.972066671
 31
0.0
  0
LINE
  5
4A0
330
1F
100
AcDbEntity
  8
0
  6
CONTINUOUS
 62
     3
100
AcDbLine
 10
124.4119745
 20
235.097066671
 30
0.0
 11
144.4119745
 21
235.097066671
 31
0.0
  0
LINE
  5
4A1
330
1F
100
AcDbEntity
  8
0
  6
CONTINUOUS
 62
     3
100
AcDbLine
 10
134.9119745
 20
235.097066671
 30
0.0
 11
135.9119745
 21
235.597066671
 31
0.0
  0
LINE
  5
4A2
330
1F
100
AcDbEntity
  8
0
  6
CONTINUOUS
 62
     3
100
AcDbLine
 10
124.4119745
 20
223.597066671
 30
0.0
 11
144.4119745
 21
223.597066671
 31
0.0
  0
LINE
  5
4A3
330
1F
100
AcDbEntity
  8
0
  6
CONTINUOUS
 62
     3
100
AcDbLine
 10
134.9119745
 20
223.597066671
 30
0.0
 11
135.9119745
 21
223.097066671
 31
0.0
  0
LINE
  5
4A4
330
1F
100
AcDbEntity
  8
0
  6
CONTINUOUS
 62
     3
100
AcDbLine
 10
144.9119745
 20
235.097066671
 30
0.0
 11
144.9119745
 21
223.472066671
 31
0.0
  0
LINE
  5
4A5
330
1F
100
AcDbEntity
  8
0
  6
CONTINUOUS
 62
     3
100
AcDbLine
 10
134.9119745
 20
223.597066671
 30
0.0
 11
135.9119745
 21
223.097066671
 31
0.0
  0
LINE
  5
4A6
330
1F
100
AcDbEntity
  8
0
  6
CONTINUOUS
 62
     3
100
AcDbLine
 10
134.9119745
 20
235.097066671
 30
0.0
 11
135.9119745
 21
235.597066671
 31
0.0
  0
LINE
  5
4A7
330
1F
100
AcDbEntity
  8
0
  6
CONTINUOUS
 62
     3
100
AcDbLine
 10
134.9119745
 20
235.097066671
 30
0.0
 11
134.9119745
 21
223.597066671
 31
0.0
  0
CIRCLE
  5
4A8
330
1F
100
AcDbEntity
  8
0
  6
CONTINUOUS
 62
     3
100
AcDbCircle
 10
139.9119745
 20
226.847066671
 30
0.0
 40
2.0
  0
CIRCLE
  5
4A9
330
1F
100
AcDbEntity
  8
0
  6
CONTINUOUS
 62
     3
100
AcDbCircle
 10
139.9119745
 20
231.847066671
 30
0.0
 40
2.0
  0
POLYLINE
  5
4AA
330
1F
100
AcDbEntity
  8
0
  6
CONTINUOUS
 62
     3
100
AcDb2dPolyline
 66
     1
 10
0.0
 20
0.0
 30
0.0
  0
VERTEX
  5
4AB
330
4AA
100
AcDbEntity
  8
0
100
AcDbVertex
100
AcDb2dVertex
 10
136.9119745
 20
228.347066671
 30
0.0
  0
VERTEX
  5
4AC
330
4AA
100
AcDbEntity
  8
0
100
AcDbVertex
100
AcDb2dVertex
 10
135.9119745
 20
228.347066671
 30
0.0
  0
VERTEX
  5
4AD
330
4AA
100
AcDbEntity
  8
0
100
AcDbVertex
100
AcDb2dVertex
 10
135.9119745
 20
225.347066671
 30
0.0
  0
VERTEX
  5
4AE
330
4AA
100
AcDbEntity
  8
0
100
AcDbVertex
100
AcDb2dVertex
 10
136.9119745
 20
225.347066671
 30
0.0
  0
VERTEX
  5
4AF
330
4AA
100
AcDbEntity
  8
0
100
AcDbVertex
100
AcDb2dVertex
 10
136.9119745
 20
228.347066671
 30
0.0
  0
SEQEND
  5
4B0
330
4AA
100
AcDbEntity
  8
0
  6
CONTINUOUS
 62
     3
  0
POLYLINE
  5
4B1
330
1F
100
AcDbEntity
  8
0
  6
CONTINUOUS
 62
     3
100
AcDb2dPolyline
 66
     1
 10
0.0
 20
0.0
 30
0.0
  0
VERTEX
  5
4B2
330
4B1
100
AcDbEntity
  8
0
100
AcDbVertex
100
AcDb2dVertex
 10
136.9119745
 20
233.347066671
 30
0.0
  0
VERTEX
  5
4B3
330
4B1
100
AcDbEntity
  8
0
100
AcDbVertex
100
AcDb2dVertex
 10
135.9119745
 20
233.347066671
 30
0.0
  0
VERTEX
  5
4B4
330
4B1
100
AcDbEntity
  8
0
100
AcDbVertex
100
AcDb2dVertex
 10
135.9119745
 20
230.347066671
 30
0.0
  0
VERTEX
  5
4B5
330
4B1
100
AcDbEntity
  8
0
100
AcDbVertex
100
AcDb2dVertex
 10
136.9119745
 20
230.347066671
 30
0.0
  0
VERTEX
  5
4B6
330
4B1
100
AcDbEntity
  8
0
100
AcDbVertex
100
AcDb2dVertex
 10
136.9119745
 20
233.347066671
 30
0.0
  0
SEQEND
  5
4B7
330
4B1
100
AcDbEntity
  8
0
  6
CONTINUOUS
 62
     3
  0
LINE
  5
4B8
330
1F
100
AcDbEntity
  8
0
  6
CONTINUOUS
 62
     3
100
AcDbLine
 10
139.4119745
 20
229.847066671
 30
0.0
 11
139.4119745
 21
233.647066671
 31
0.0
  0
LINE
  5
4B9
330
1F
100
AcDbEntity
  8
0
  6
CONTINUOUS
 62
     3
100
AcDbLine
 10
140.4119745
 20
233.747066671
 30
0.0
 11
140.4119745
 21
229.847066671
 31
0.0
  0
LINE
  5
4BA
330
1F
100
AcDbEntity
  8
0
  6
CONTINUOUS
 62
     3
100
AcDbLine
 10
140.4119745
 20
224.847066671
 30
0.0
 11
140.4119745
 21
228.647066671
 31
0.0
  0
LINE
  5
4BB
330
1F
100
AcDbEntity
  8
0
  6
CONTINUOUS
 62
     3
100
AcDbLine
 10
139.4119745
 20
228.647066671
 30
0.0
 11
139.4119745
 21
224.847066671
 31
0.0
  0
LINE
  5
4BC
330
1F
100
AcDbEntity
  8
0
  6
CONTINUOUS
 62
     5
100
AcDbLine
 10
124.4119745
 20
236.097066671
 30
0.0
 11
124.4119745
 21
255.5
 31
0.0
  0
LINE
  5
4BD
330
1F
100
AcDbEntity
  8
0
  6
CONTINUOUS
 62
     5
100
AcDbLine
 10
124.4119745
 20
253.5
 30
0.0
 11
126.826789066
 21
252.852952387
 31
0.0
  0
LINE
  5
4BE
330
1F
100
AcDbEntity
  8
0
  6
CONTINUOUS
 62
     5
100
AcDbLine
 10
124.4119745
 20
253.5
 30
0.0
 11
126.826789066
 21
254.147047613
 31
0.0
  0
LINE
  5
4BF
330
1F
100
AcDbEntity
  8
0
  6
CONTINUOUS
 62
     5
100
AcDbLine
 10
124.4119745
 20
253.5
 30
0.0
 11
223.4119745
 21
253.5
 31
0.0
  0
LINE
  5
4C0
330
1F
100
AcDbEntity
  8
0
  6
CONTINUOUS
 62
     5
100
AcDbLine
 10
223.4119745
 20
253.5
 30
0.0
 11
220.997159934
 21
254.147047613
 31
0.0
  0
LINE
  5
4C1
330
1F
100
AcDbEntity
  8
0
  6
CONTINUOUS
 62
     5
100
AcDbLine
 10
223.4119745
 20
253.5
 30
0.0
 11
220.997159934
 21
252.852952387
 31
0.0
  0
LINE
  5
4C2
330
1F
100
AcDbEntity
  8
0
  6
CONTINUOUS
 62
     5
100
AcDbLine
 10
223.4119745
 20
236.097066671
 30
0.0
 11
223.4119745
 21
255.5
 31
0.0
  0
TEXT
  5
4C3
330
1F
100
AcDbEntity
  8
0
  6
CONTINUOUS
 62
     3
100
AcDbText
 10
167.7619745
 20
254.4999580102705
 30
0.0
 40
2.542765266558371
  1
９９±０．５
 41
0.6
  7
MS_PGOTHIC
 11
167.7619745
 21
253.9800419746739
 31
0.0
100
AcDbText
 73
     1
  0
POLYLINE
  5
4C4
330
1F
100
AcDbEntity
  8
6
  6
CONTINUOUS
 62
     3
100
AcDb2dPolyline
 66
     1
 10
0.0
 20
0.0
 30
0.0
  0
VERTEX
  5
4C5
330
4C4
100
AcDbEntity
  8
0
100
AcDbVertex
100
AcDb2dVertex
 10
201.9119745
 20
224.347066671
 30
0.0
  0
VERTEX
  5
4C6
330
4C4
100
AcDbEntity
  8
0
100
AcDbVertex
100
AcDb2dVertex
 10
201.9119745
 20
234.347066671
 30
0.0
  0
VERTEX
  5
4C7
330
4C4
100
AcDbEntity
  8
0
100
AcDbVertex
100
AcDb2dVertex
 10
145.9119745
 20
234.347066671
 30
0.0
  0
SEQEND
  5
4C8
330
4C4
100
AcDbEntity
  8
6
  6
CONTINUOUS
 62
     3
  0
LINE
  5
4C9
330
1F
100
AcDbEntity
  8
6
  6
CONTINUOUS
 62
     3
100
AcDbLine
 10
145.9119745
 20
224.347066671
 30
0.0
 11
201.9119745
 21
224.347066671
 31
0.0
  0
LINE
  5
4CA
330
1F
100
AcDbEntity
  8
6
  6
CONTINUOUS
 62
     1
100
AcDbLine
 10
149.9119745
 20
224.347066671
 30
0.0
 11
149.9119745
 21
234.347066671
 31
0.0
  0
LINE
  5
4CB
330
1F
100
AcDbEntity
  8
6
  6
CONTINUOUS
 62
     1
100
AcDbLine
 10
153.9119745
 20
234.347066671
 30
0.0
 11
153.9119745
 21
224.347066671
 31
0.0
  0
LINE
  5
4CC
330
1F
100
AcDbEntity
  8
6
  6
CONTINUOUS
 62
     1
100
AcDbLine
 10
154.9119745
 20
224.347066671
 30
0.0
 11
154.9119745
 21
234.347066671
 31
0.0
  0
LINE
  5
4CD
330
1F
100
AcDbEntity
  8
6
  6
CONTINUOUS
 62
     1
100
AcDbLine
 10
158.9119745
 20
234.347066671
 30
0.0
 11
158.9119745
 21
224.347066671
 31
0.0
  0
LINE
  5
4CE
330
1F
100
AcDbEntity
  8
6
  6
CONTINUOUS
 62
     1
100
AcDbLine
 10
166.9119745
 20
224.347066671
 30
0.0
 11
166.9119745
 21
234.347066671
 31
0.0
  0
LINE
  5
4CF
330
1F
100
AcDbEntity
  8
6
  6
CONTINUOUS
 62
     1
100
AcDbLine
 10
197.9119745
 20
234.347066671
 30
0.0
 11
197.9119745
 21
224.347066671
 31
0.0
  0
LINE
  5
4D0
330
1F
100
AcDbEntity
  8
6
  6
CONTINUOUS
 62
     1
100
AcDbLine
 10
193.9119745
 20
224.347066671
 30
0.0
 11
193.9119745
 21
234.347066671
 31
0.0
  0
LINE
  5
4D1
330
1F
100
AcDbEntity
  8
6
  6
CONTINUOUS
 62
     1
100
AcDbLine
 10
193.9119745
 20
229.347066671
 30
0.0
 11
201.9119745
 21
229.347066671
 31
0.0
  0
LINE
  5
4D2
330
1F
100
AcDbEntity
  8
6
  6
CONTINUOUS
 62
     1
100
AcDbLine
 10
153.9119745
 20
229.347066671
 30
0.0
 11
145.9119745
 21
229.347066671
 31
0.0
  0
TEXT
  5
4D3
330
1F
100
AcDbEntity
  8
6
  6
CONTINUOUS
 62
     3
100
AcDbText
 10
153.4619289765569
 20
224.697066671
 30
0.0
 40
2.252666457224111
  1
　３
 50
90.0
 41
0.666666667
  7
MS_PGOTHIC
 11
153.9225288712325
 21
224.697066671
 31
0.0
100
AcDbText
 73
     1
  0
TEXT
  5
4D4
330
1F
100
AcDbEntity
  8
6
  6
CONTINUOUS
 62
     3
100
AcDbText
 10
153.4618723408383
 20
229.447066671
 30
0.0
 40
2.111181248703877
  1
　４
 50
90.0
 41
0.666666667
  7
MS_PGOTHIC
 11
153.8935429317843
 21
229.447066671
 31
0.0
100
AcDbText
 73
     1
  0
POINT
  5
4D5
330
1F
100
AcDbEntity
  8
6
  6
CONTINUOUS
 62
     3
100
AcDbPoint
 10
193.9119745
 20
229.347066671
 30
0.0
  0
TEXT
  5
4D6
330
1F
100
AcDbEntity
  8
6
  6
CONTINUOUS
 62
     3
100
AcDbText
 10
197.4617130079533
 20
224.697066671
 30
0.0
 40
2.220598526076594
  1
　５
 50
90.0
 41
0.666666667
  7
MS_PGOTHIC
 11
197.915756012832
 21
224.697066671
 31
0.0
100
AcDbText
 73
     1
  0
TEXT
  5
4D7
330
1F
100
AcDbEntity
  8
6
  6
CONTINUOUS
 62
     3
100
AcDbText
 10
197.4617130079533
 20
229.447066671
 30
0.0
 40
2.220598526076594
  1
　６
 50
90.0
 41
0.666666667
  7
MS_PGOTHIC
 11
197.915756012832
 21
229.447066671
 31
0.0
100
AcDbText
 73
     1
  0
TEXT
  5
4D8
330
1F
100
AcDbEntity
  8
6
  6
CONTINUOUS
 62
     3
100
AcDbText
 10
201.4617539800738
 20
224.697066671
 30
0.0
 40
2.377672763011276
  1
　７
 50
90.0
 41
0.666666667
  7
MS_PGOTHIC
 11
201.9479137578358
 21
224.697066671
 31
0.0
100
AcDbText
 73
     1
  0
TEXT
  5
4D9
330
1F
100
AcDbEntity
  8
6
  6
CONTINUOUS
 62
     3
100
AcDbText
 10
201.4619289765569
 20
229.447066671
 30
0.0
 40
2.252666457224111
  1
　８
 50
90.0
 41
0.666666667
  7
MS_PGOTHIC
 11
201.9225288712325
 21
229.447066671
 31
0.0
100
AcDbText
 73
     1
  0
ARC
  5
4DA
330
1F
100
AcDbEntity
  8
6
  6
CONTINUOUS
 62
     1
100
AcDbCircle
 10
177.703641167
 20
228.083177782
 30
0.0
 40
3.050817033
100
AcDbArc
 50
115.048409305
 51
184.438716368
  0
LINE
  5
4DB
330
1F
100
AcDbEntity
  8
6
  6
CONTINUOUS
 62
     1
100
AcDbLine
 10
176.4119745
 20
230.847066671
 30
0.0
 11
176.4119745
 21
229.597066671
 31
0.0
  0
LINE
  5
4DC
330
1F
100
AcDbEntity
  8
6
  6
CONTINUOUS
 62
     1
100
AcDbLine
 10
174.665100733
 20
227.95162307
 30
0.0
 11
174.655252733
 21
227.961471069
 31
0.0
  0
LINE
  5
4DD
330
1F
100
AcDbEntity
  8
6
  6
CONTINUOUS
 62
     1
100
AcDbLine
 10
174.652903916
 20
228.105241242
 30
0.0
 11
174.677617052
 21
228.080528107
 31
0.0
  0
LINE
  5
4DE
330
1F
100
AcDbEntity
  8
6
  6
CONTINUOUS
 62
     1
100
AcDbLine
 10
174.698212431
 20
228.201354084
 30
0.0
 11
174.656991048
 21
228.242575467
 31
0.0
  0
LINE
  5
4DF
330
1F
100
AcDbEntity
  8
6
  6
CONTINUOUS
 62
     1
100
AcDbLine
 10
174.66674089
 20
228.374246981
 30
0.0
 11
174.725758665
 21
228.315229206
 31
0.0
  0
LINE
  5
4E0
330
1F
100
AcDbEntity
  8
6
  6
CONTINUOUS
 62
     1
100
AcDbLine
 10
174.759447635
 20
228.422961592
 30
0.0
 11
174.681551198
 21
228.500858029
 31
0.0
  0
LINE
  5
4E1
330
1F
100
AcDbEntity
  8
6
  6
CONTINUOUS
 62
     1
100
AcDbLine
 10
174.700942772
 20
228.622887812
 30
0.0
 11
174.798683696
 21
228.525146888
 31
0.0
  0
LINE
  5
4E2
330
1F
100
AcDbEntity
  8
6
  6
CONTINUOUS
 62
     1
100
AcDbLine
 10
174.843019876
 20
228.622232064
 30
0.0
 11
174.724527676
 21
228.740724264
 31
0.0
  0
LINE
  5
4E3
330
1F
100
AcDbEntity
  8
6
  6
CONTINUOUS
 62
     1
100
AcDbLine
 10
174.751987422
 20
228.854685874
 30
0.0
 11
174.892118062
 21
228.714555234
 31
0.0
  0
LINE
  5
4E4
330
1F
100
AcDbEntity
  8
6
  6
CONTINUOUS
 62
     1
100
AcDbLine
 10
174.945723221
 20
228.802371431
 30
0.0
 11
174.783057544
 21
228.965037108
 31
0.0
  0
LINE
  5
4E5
330
1F
100
AcDbEntity
  8
6
  6
CONTINUOUS
 62
     1
100
AcDbLine
 10
174.817516426
 20
229.071999582
 30
0.0
 11
175.003646314
 21
228.885869694
 31
0.0
  0
LINE
  5
4E6
330
1F
100
AcDbEntity
  8
6
  6
CONTINUOUS
 62
     1
100
AcDbLine
 10
175.065752899
 20
228.965184465
 30
0.0
 11
174.855177031
 21
229.175760334
 31
0.0
  0
LINE
  5
4E7
330
1F
100
AcDbEntity
  8
6
  6
CONTINUOUS
 62
     1
100
AcDbLine
 10
174.895880666
 20
229.276478054
 30
0.0
 11
175.131955654
 21
229.040403067
 31
0.0
  0
LINE
  5
4E8
330
1F
100
AcDbEntity
  8
6
  6
CONTINUOUS
 62
     1
100
AcDbLine
 10
175.2022098
 20
229.111570277
 30
0.0
 11
174.939492227
 21
229.37428785
 31
0.0
  0
LINE
  5
4E9
330
1F
100
AcDbEntity
  8
6
  6
CONTINUOUS
 62
     1
100
AcDbLine
 10
174.985896498
 20
229.469304935
 30
0.0
 11
175.276510839
 21
229.178690595
 31
0.0
  0
LINE
  5
4EA
330
1F
100
AcDbEntity
  8
6
  6
CONTINUOUS
 62
     1
100
AcDbLine
 10
175.354894328
 20
229.241728462
 30
0.0
 11
175.034995268
 21
229.561627522
 31
0.0
  0
LINE
  5
4EB
330
1F
100
AcDbEntity
  8
6
  6
CONTINUOUS
 62
     1
100
AcDbLine
 10
175.086705047
 20
229.651339099
 30
0.0
 11
175.437437669
 21
229.300606476
 31
0.0
  0
LINE
  5
4EC
330
1F
100
AcDbEntity
  8
6
  6
CONTINUOUS
 62
     1
100
AcDbLine
 10
175.524264125
 20
229.355201377
 30
0.0
 11
175.140955265
 21
229.738510237
 31
0.0
  0
LINE
  5
4ED
330
1F
100
AcDbEntity
  8
6
  6
CONTINUOUS
 62
     1
100
AcDbLine
 10
175.197686828
 20
229.82320003
 30
0.0
 11
175.615549567
 21
229.405337291
 31
0.0
  0
LINE
  5
4EE
330
1F
100
AcDbEntity
  8
6
  6
CONTINUOUS
 62
     1
100
AcDbLine
 10
175.711532867
 20
229.450775347
 30
0.0
 11
175.256850986
 21
229.905457228
 31
0.0
  0
LINE
  5
4EF
330
1F
100
AcDbEntity
  8
6
  6
CONTINUOUS
 62
     1
100
AcDbLine
 10
175.31840843
 20
229.985321141
 30
0.0
 11
175.812531493
 21
229.491198077
 31
0.0
  0
LINE
  5
4F0
330
1F
100
AcDbEntity
  8
6
  6
CONTINUOUS
 62
     1
100
AcDbLine
 10
175.918964964
 20
229.526185963
 30
0.0
 11
175.382328599
 21
230.062822328
 31
0.0
  0
LINE
  5
4F1
330
1F
100
AcDbEntity
  8
6
  6
CONTINUOUS
 62
     1
100
AcDbLine
 10
175.448589157
 20
230.137983126
 30
0.0
 11
176.031390839
 21
229.555181444
 31
0.0
  0
LINE
  5
4F2
330
1F
100
AcDbEntity
  8
6
  6
CONTINUOUS
 62
     1
100
AcDbLine
 10
176.150561854
 20
229.577431785
 30
0.0
 11
175.51717562
 21
230.21081802
 31
0.0
  0
LINE
  5
4F3
330
1F
100
AcDbEntity
  8
6
  6
CONTINUOUS
 62
     1
100
AcDbLine
 10
175.588081115
 20
230.281333881
 30
0.0
 11
176.277521036
 21
229.591893959
 31
0.0
  0
LINE
  5
4F4
330
1F
100
AcDbEntity
  8
6
  6
CONTINUOUS
 62
     1
100
AcDbLine
 10
176.4119745
 20
229.598861852
 30
0.0
 11
175.661306271
 21
230.349530081
 31
0.0
  0
LINE
  5
4F5
330
1F
100
AcDbEntity
  8
6
  6
CONTINUOUS
 62
     1
100
AcDbLine
 10
175.736859229
 20
230.415398479
 30
0.0
 11
176.4119745
 21
229.740283208
 31
0.0
  0
LINE
  5
4F6
330
1F
100
AcDbEntity
  8
6
  6
CONTINUOUS
 62
     1
100
AcDbLine
 10
176.4119745
 20
229.881704564
 30
0.0
 11
175.814755774
 21
230.47892329
 31
0.0
  0
LINE
  5
4F7
330
1F
100
AcDbEntity
  8
6
  6
CONTINUOUS
 62
     1
100
AcDbLine
 10
175.895019593
 20
230.540080827
 30
0.0
 11
176.4119745
 21
230.02312592
 31
0.0
  0
LINE
  5
4F8
330
1F
100
AcDbEntity
  8
6
  6
CONTINUOUS
 62
     1
100
AcDbLine
 10
176.4119745
 20
230.164547277
 30
0.0
 11
175.977682678
 21
230.598839099
 31
0.0
  0
LINE
  5
4F9
330
1F
100
AcDbEntity
  8
6
  6
CONTINUOUS
 62
     1
100
AcDbLine
 10
176.062785868
 20
230.655157265
 30
0.0
 11
176.4119745
 21
230.305968633
 31
0.0
  0
LINE
  5
4FA
330
1F
100
AcDbEntity
  8
6
  6
CONTINUOUS
 62
     1
100
AcDbLine
 10
176.4119745
 20
230.447389989
 30
0.0
 11
176.150379587
 21
230.708984902
 31
0.0
  0
LINE
  5
4FB
330
1F
100
AcDbEntity
  8
6
  6
CONTINUOUS
 62
     1
100
AcDbLine
 10
176.240524768
 20
230.760261078
 30
0.0
 11
176.4119745
 21
230.588811345
 31
0.0
  0
LINE
  5
4FC
330
1F
100
AcDbEntity
  8
6
  6
CONTINUOUS
 62
     1
100
AcDbLine
 10
176.4119745
 20
230.730232702
 30
0.0
 11
176.333294045
 21
230.808913157
 31
0.0
  0
ARC
  5
4FD
330
1F
100
AcDbEntity
  8
6
  6
CONTINUOUS
 62
     1
100
AcDbCircle
 10
184.703641167
 20
228.083177782
 30
0.0
 40
3.050817033
100
AcDbArc
 50
115.048409305
 51
184.438716368
  0
LINE
  5
4FE
330
1F
100
AcDbEntity
  8
6
  6
CONTINUOUS
 62
     1
100
AcDbLine
 10
183.4119745
 20
230.847066671
 30
0.0
 11
183.4119745
 21
229.597066671
 31
0.0
  0
LINE
  5
4FF
330
1F
100
AcDbEntity
  8
6
  6
CONTINUOUS
 62
     1
100
AcDbLine
 10
181.665100733
 20
227.95162307
 30
0.0
 11
181.655252733
 21
227.961471069
 31
0.0
  0
LINE
  5
500
330
1F
100
AcDbEntity
  8
6
  6
CONTINUOUS
 62
     1
100
AcDbLine
 10
181.652903916
 20
228.105241242
 30
0.0
 11
181.677617052
 21
228.080528107
 31
0.0
  0
LINE
  5
501
330
1F
100
AcDbEntity
  8
6
  6
CONTINUOUS
 62
     1
100
AcDbLine
 10
181.698212431
 20
228.201354084
 30
0.0
 11
181.656991048
 21
228.242575467
 31
0.0
  0
LINE
  5
502
330
1F
100
AcDbEntity
  8
6
  6
CONTINUOUS
 62
     1
100
AcDbLine
 10
181.66674089
 20
228.374246981
 30
0.0
 11
181.725758665
 21
228.315229206
 31
0.0
  0
LINE
  5
503
330
1F
100
AcDbEntity
  8
6
  6
CONTINUOUS
 62
     1
100
AcDbLine
 10
181.759447635
 20
228.422961592
 30
0.0
 11
181.681551198
 21
228.500858029
 31
0.0
  0
LINE
  5
504
330
1F
100
AcDbEntity
  8
6
  6
CONTINUOUS
 62
     1
100
AcDbLine
 10
181.700942772
 20
228.622887812
 30
0.0
 11
181.798683696
 21
228.525146888
 31
0.0
  0
LINE
  5
505
330
1F
100
AcDbEntity
  8
6
  6
CONTINUOUS
 62
     1
100
AcDbLine
 10
181.843019876
 20
228.622232064
 30
0.0
 11
181.724527676
 21
228.740724264
 31
0.0
  0
LINE
  5
506
330
1F
100
AcDbEntity
  8
6
  6
CONTINUOUS
 62
     1
100
AcDbLine
 10
181.751987422
 20
228.854685874
 30
0.0
 11
181.892118062
 21
228.714555234
 31
0.0
  0
LINE
  5
507
330
1F
100
AcDbEntity
  8
6
  6
CONTINUOUS
 62
     1
100
AcDbLine
 10
181.945723221
 20
228.802371431
 30
0.0
 11
181.783057544
 21
228.965037108
 31
0.0
  0
LINE
  5
508
330
1F
100
AcDbEntity
  8
6
  6
CONTINUOUS
 62
     1
100
AcDbLine
 10
181.817516426
 20
229.071999582
 30
0.0
 11
182.003646314
 21
228.885869694
 31
0.0
  0
LINE
  5
509
330
1F
100
AcDbEntity
  8
6
  6
CONTINUOUS
 62
     1
100
AcDbLine
 10
182.065752899
 20
228.965184465
 30
0.0
 11
181.855177031
 21
229.175760334
 31
0.0
  0
LINE
  5
50A
330
1F
100
AcDbEntity
  8
6
  6
CONTINUOUS
 62
     1
100
AcDbLine
 10
181.895880666
 20
229.276478054
 30
0.0
 11
182.131955654
 21
229.040403067
 31
0.0
  0
LINE
  5
50B
330
1F
100
AcDbEntity
  8
6
  6
CONTINUOUS
 62
     1
100
AcDbLine
 10
182.2022098
 20
229.111570277
 30
0.0
 11
181.939492227
 21
229.37428785
 31
0.0
  0
LINE
  5
50C
330
1F
100
AcDbEntity
  8
6
  6
CONTINUOUS
 62
     1
100
AcDbLine
 10
181.985896498
 20
229.469304935
 30
0.0
 11
182.276510839
 21
229.178690595
 31
0.0
  0
LINE
  5
50D
330
1F
100
AcDbEntity
  8
6
  6
CONTINUOUS
 62
     1
100
AcDbLine
 10
182.354894328
 20
229.241728462
 30
0.0
 11
182.034995268
 21
229.561627522
 31
0.0
  0
LINE
  5
50E
330
1F
100
AcDbEntity
  8
6
  6
CONTINUOUS
 62
     1
100
AcDbLine
 10
182.086705047
 20
229.651339099
 30
0.0
 11
182.437437669
 21
229.300606476
 31
0.0
  0
LINE
  5
50F
330
1F
100
AcDbEntity
  8
6
  6
CONTINUOUS
 62
     1
100
AcDbLine
 10
182.524264125
 20
229.355201377
 30
0.0
 11
182.140955265
 21
229.738510237
 31
0.0
  0
LINE
  5
510
330
1F
100
AcDbEntity
  8
6
  6
CONTINUOUS
 62
     1
100
AcDbLine
 10
182.197686828
 20
229.82320003
 30
0.0
 11
182.615549567
 21
229.405337291
 31
0.0
  0
LINE
  5
511
330
1F
100
AcDbEntity
  8
6
  6
CONTINUOUS
 62
     1
100
AcDbLine
 10
182.711532867
 20
229.450775347
 30
0.0
 11
182.256850986
 21
229.905457228
 31
0.0
  0
LINE
  5
512
330
1F
100
AcDbEntity
  8
6
  6
CONTINUOUS
 62
     1
100
AcDbLine
 10
182.31840843
 20
229.985321141
 30
0.0
 11
182.812531493
 21
229.491198077
 31
0.0
  0
LINE
  5
513
330
1F
100
AcDbEntity
  8
6
  6
CONTINUOUS
 62
     1
100
AcDbLine
 10
182.918964964
 20
229.526185963
 30
0.0
 11
182.382328599
 21
230.062822328
 31
0.0
  0
LINE
  5
514
330
1F
100
AcDbEntity
  8
6
  6
CONTINUOUS
 62
     1
100
AcDbLine
 10
182.448589157
 20
230.137983126
 30
0.0
 11
183.031390839
 21
229.555181444
 31
0.0
  0
LINE
  5
515
330
1F
100
AcDbEntity
  8
6
  6
CONTINUOUS
 62
     1
100
AcDbLine
 10
183.150561854
 20
229.577431785
 30
0.0
 11
182.51717562
 21
230.21081802
 31
0.0
  0
LINE
  5
516
330
1F
100
AcDbEntity
  8
6
  6
CONTINUOUS
 62
     1
100
AcDbLine
 10
182.588081115
 20
230.281333881
 30
0.0
 11
183.277521036
 21
229.591893959
 31
0.0
  0
LINE
  5
517
330
1F
100
AcDbEntity
  8
6
  6
CONTINUOUS
 62
     1
100
AcDbLine
 10
183.4119745
 20
229.598861852
 30
0.0
 11
182.661306271
 21
230.349530081
 31
0.0
  0
LINE
  5
518
330
1F
100
AcDbEntity
  8
6
  6
CONTINUOUS
 62
     1
100
AcDbLine
 10
182.736859229
 20
230.415398479
 30
0.0
 11
183.4119745
 21
229.740283208
 31
0.0
  0
LINE
  5
519
330
1F
100
AcDbEntity
  8
6
  6
CONTINUOUS
 62
     1
100
AcDbLine
 10
183.4119745
 20
229.881704564
 30
0.0
 11
182.814755774
 21
230.47892329
 31
0.0
  0
LINE
  5
51A
330
1F
100
AcDbEntity
  8
6
  6
CONTINUOUS
 62
     1
100
AcDbLine
 10
182.895019593
 20
230.540080827
 30
0.0
 11
183.4119745
 21
230.02312592
 31
0.0
  0
LINE
  5
51B
330
1F
100
AcDbEntity
  8
6
  6
CONTINUOUS
 62
     1
100
AcDbLine
 10
183.4119745
 20
230.164547277
 30
0.0
 11
182.977682678
 21
230.598839099
 31
0.0
  0
LINE
  5
51C
330
1F
100
AcDbEntity
  8
6
  6
CONTINUOUS
 62
     1
100
AcDbLine
 10
183.062785868
 20
230.655157265
 30
0.0
 11
183.4119745
 21
230.305968633
 31
0.0
  0
LINE
  5
51D
330
1F
100
AcDbEntity
  8
6
  6
CONTINUOUS
 62
     1
100
AcDbLine
 10
183.4119745
 20
230.447389989
 30
0.0
 11
183.150379587
 21
230.708984902
 31
0.0
  0
LINE
  5
51E
330
1F
100
AcDbEntity
  8
6
  6
CONTINUOUS
 62
     1
100
AcDbLine
 10
183.240524768
 20
230.760261078
 30
0.0
 11
183.4119745
 21
230.588811345
 31
0.0
  0
LINE
  5
51F
330
1F
100
AcDbEntity
  8
6
  6
CONTINUOUS
 62
     1
100
AcDbLine
 10
183.4119745
 20
230.730232702
 30
0.0
 11
183.333294045
 21
230.808913157
 31
0.0
  0
TEXT
  5
520
330
1F
100
AcDbEntity
  8
6
  6
CONTINUOUS
 62
     3
100
AcDbText
 10
180.0546569851366
 20
225.763733562
 30
0.0
 40
1.168926152354959
  1
ＳＰＡＮ
 50
90.0
 41
0.666666667
  7
MS_PGOTHIC
 11
180.2936658543509
 21
225.763733562
 31
0.0
100
AcDbText
 73
     1
  0
TEXT
  5
521
330
1F
100
AcDbEntity
  8
6
  6
CONTINUOUS
 62
     3
100
AcDbText
 10
187.054680990016
 20
225.763733562
 30
0.0
 40
1.141471954587784
  1
ＺＥＲＯ
 50
90.0
 41
0.666666667
  7
MS_PGOTHIC
 11
187.2880763337306
 21
225.763733562
 31
0.0
100
AcDbText
 73
     1
  0
TEXT
  5
522
330
1F
100
AcDbEntity
  8
6
  6
CONTINUOUS
 62
     3
100
AcDbText
 10
161.8045845593238
 20
225.013733562
 30
0.0
 40
1.548063487255192
  1
ＴＡＧ
 50
90.0
 41
0.75
  7
MS_PGOTHIC
 11
162.1211151654835
 21
225.013733562
 31
0.0
100
AcDbText
 73
     1
  0
LINE
  5
523
330
1F
100
AcDbEntity
  8
6
  6
CONTINUOUS
 62
     3
100
AcDbLine
 10
162.054631649
 20
225.263733562
 30
0.0
 11
162.054631649
 21
229.513733562
 31
0.0
  0
LINE
  5
524
330
1F
100
AcDbEntity
  8
6
  6
CONTINUOUS
 62
     1
100
AcDbLine
 10
149.9119745
 20
234.347066671
 30
0.0
 11
149.9119745
 21
224.347066671
 31
0.0
  0
LINE
  5
525
330
1F
100
AcDbEntity
  8
6
  6
CONTINUOUS
 62
     3
100
AcDbLine
 10
145.9119745
 20
224.347066671
 30
0.0
 11
197.9119745
 21
224.347066671
 31
0.0
  0
LINE
  5
526
330
1F
100
AcDbEntity
  8
6
  6
CONTINUOUS
 62
     3
100
AcDbLine
 10
197.9119745
 20
234.347066671
 30
0.0
 11
145.9119745
 21
234.347066671
 31
0.0
  0
LINE
  5
527
330
1F
100
AcDbEntity
  8
6
  6
CONTINUOUS
 62
     3
100
AcDbLine
 10
145.9119745
 20
224.347066671
 30
0.0
 11
145.9119745
 21
234.347066671
 31
0.0
  0
CIRCLE
  5
528
330
1F
100
AcDbEntity
  8
6
  6
CONTINUOUS
 62
     3
100
AcDbCircle
 10
176.4119745
 20
227.847066671
 30
0.0
 40
1.75
  0
CIRCLE
  5
529
330
1F
100
AcDbEntity
  8
6
  6
CONTINUOUS
 62
     3
100
AcDbCircle
 10
183.4119745
 20
227.847066671
 30
0.0
 40
1.75
  0
LINE
  5
52A
330
1F
100
AcDbEntity
  8
0
  6
CONTINUOUS
 62
     3
100
AcDbLine
 10
124.9119745
 20
234.347066671
 30
0.0
 11
124.9119745
 21
224.347066671
 31
0.0
  0
LINE
  5
52B
330
1F
100
AcDbEntity
  8
0
  6
CONTINUOUS
 62
     3
100
AcDbLine
 10
160.25
 20
73.0
 30
0.0
 11
156.25
 21
73.0
 31
0.0
  0
LINE
  5
52C
330
1F
100
AcDbEntity
  8
0
  6
CONTINUOUS
 62
     3
100
AcDbLine
 10
160.25
 20
73.0
 30
0.0
 11
156.25
 21
73.0
 31
0.0
  0
LINE
  5
52D
330
1F
100
AcDbEntity
  8
0
  6
CONTINUOUS
 62
     3
100
AcDbLine
 10
124.25
 20
73.0
 30
0.0
 11
131.75
 21
69.0
 31
0.0
  0
LINE
  5
52E
330
1F
100
AcDbEntity
  8
0
  6
CONTINUOUS
 62
     3
100
AcDbLine
 10
173.75
 20
73.0
 30
0.0
 11
156.15
 21
73.0
 31
0.0
  0
LINE
  5
52F
330
1F
100
AcDbEntity
  8
0
  6
CONTINUOUS
 62
     3
100
AcDbLine
 10
172.85
 20
73.0
 30
0.0
 11
191.75
 21
73.0
 31
0.0
  0
POINT
  5
530
330
1F
100
AcDbEntity
  8
0
  6
CONTINUOUS
 62
     3
100
AcDbPoint
 10
144.75
 20
71.5
 30
0.0
  0
POINT
  5
531
330
1F
100
AcDbEntity
  8
0
  6
CONTINUOUS
 62
     3
100
AcDbPoint
 10
144.75
 20
73.5
 30
0.0
  0
LINE
  5
532
330
1F
100
AcDbEntity
  8
0
  6
CONTINUOUS
 62
     3
100
AcDbLine
 10
144.75
 20
71.5
 30
0.0
 11
144.75
 21
73.5
 31
0.0
  0
LINE
  5
533
330
1F
100
AcDbEntity
  8
0
  6
CONTINUOUS
 62
     3
100
AcDbLine
 10
144.75
 20
73.5
 30
0.0
 11
140.75
 21
73.5
 31
0.0
  0
LINE
  5
534
330
1F
100
AcDbEntity
  8
0
  6
CONTINUOUS
 62
     3
100
AcDbLine
 10
140.75
 20
71.5
 30
0.0
 11
144.75
 21
71.5
 31
0.0
  0
LINE
  5
535
330
1F
100
AcDbEntity
  8
0
  6
CONTINUOUS
 62
     3
100
AcDbLine
 10
140.75
 20
73.5
 30
0.0
 11
140.75
 21
71.5
 31
0.0
  0
LINE
  5
536
330
1F
100
AcDbEntity
  8
0
  6
CONTINUOUS
 62
     3
100
AcDbLine
 10
144.75
 20
73.5
 30
0.0
 11
140.75
 21
73.5
 31
0.0
  0
LINE
  5
537
330
1F
100
AcDbEntity
  8
0
  6
CONTINUOUS
 62
     3
100
AcDbLine
 10
131.75
 20
69.0
 30
0.0
 11
156.15
 21
69.0
 31
0.0
  0
LINE
  5
538
330
1F
100
AcDbEntity
  8
0
  6
CONTINUOUS
 62
     3
100
AcDbLine
 10
202.75
 20
116.25
 30
0.0
 11
185.475169889
 21
116.25
 31
0.0
  0
LINE
  5
539
330
1F
100
AcDbEntity
  8
0
  6
CONTINUOUS
 62
     3
100
AcDbLine
 10
163.621604304
 20
118.5
 30
0.0
 11
183.878395696
 21
118.5
 31
0.0
  0
LINE
  5
53A
330
1F
100
AcDbEntity
  8
0
  6
CONTINUOUS
 62
     3
100
AcDbLine
 10
163.621604304
 20
118.5
 30
0.0
 11
162.024830111
 21
116.25
 31
0.0
  0
POINT
  5
53B
330
1F
100
AcDbEntity
  8
0
  6
CONTINUOUS
 62
     3
100
AcDbPoint
 10
202.75
 20
75.5
 30
0.0
  0
POINT
  5
53C
330
1F
100
AcDbEntity
  8
0
  6
CONTINUOUS
 62
     3
100
AcDbPoint
 10
202.75
 20
77.5
 30
0.0
  0
LINE
  5
53D
330
1F
100
AcDbEntity
  8
0
  6
CONTINUOUS
 62
     3
100
AcDbLine
 10
202.75
 20
75.5
 30
0.0
 11
202.75
 21
77.5
 31
0.0
  0
LINE
  5
53E
330
1F
100
AcDbEntity
  8
0
  6
CONTINUOUS
 62
     3
100
AcDbLine
 10
202.75
 20
77.5
 30
0.0
 11
206.75
 21
77.5
 31
0.0
  0
LINE
  5
53F
330
1F
100
AcDbEntity
  8
0
  6
CONTINUOUS
 62
     3
100
AcDbLine
 10
206.75
 20
75.5
 30
0.0
 11
202.75
 21
75.5
 31
0.0
  0
LINE
  5
540
330
1F
100
AcDbEntity
  8
0
  6
CONTINUOUS
 62
     3
100
AcDbLine
 10
206.75
 20
77.5
 30
0.0
 11
206.75
 21
75.5
 31
0.0
  0
LINE
  5
541
330
1F
100
AcDbEntity
  8
0
  6
CONTINUOUS
 62
     3
100
AcDbLine
 10
183.878395696
 20
118.5
 30
0.0
 11
185.475169889
 21
116.25
 31
0.0
  0
POINT
  5
542
330
1F
100
AcDbEntity
  8
0
  6
CONTINUOUS
 62
     3
100
AcDbPoint
 10
196.0
 20
74.0
 30
0.0
  0
LINE
  5
543
330
1F
100
AcDbEntity
  8
0
  6
CONTINUOUS
 62
     3
100
AcDbLine
 10
151.5
 20
74.0
 30
0.0
 11
196.0
 21
74.0
 31
0.0
  0
LINE
  5
544
330
1F
100
AcDbEntity
  8
0
  6
CONTINUOUS
 62
     3
100
AcDbLine
 10
196.0
 20
74.0
 30
0.0
 11
196.0
 21
115.5
 31
0.0
  0
LINE
  5
545
330
1F
100
AcDbEntity
  8
0
  6
CONTINUOUS
 62
     3
100
AcDbLine
 10
151.5
 20
115.5
 30
0.0
 11
151.5
 21
74.0
 31
0.0
  0
LINE
  5
546
330
1F
100
AcDbEntity
  8
0
  6
CONTINUOUS
 62
     3
100
AcDbLine
 10
151.5
 20
115.5
 30
0.0
 11
196.0
 21
115.5
 31
0.0
  0
LINE
  5
547
330
1F
100
AcDbEntity
  8
0
  6
CONTINUOUS
 62
     3
100
AcDbLine
 10
162.024830111
 20
116.25
 30
0.0
 11
144.25
 21
116.25
 31
0.0
  0
POINT
  5
548
330
1F
100
AcDbEntity
  8
0
  6
CONTINUOUS
 62
     3
100
AcDbPoint
 10
153.0
 20
134.0
 30
0.0
  0
LINE
  5
549
330
1F
100
AcDbEntity
  8
0
  6
CONTINUOUS
 62
     3
100
AcDbLine
 10
153.0
 20
178.5
 30
0.0
 11
153.0
 21
134.0
 31
0.0
  0
POINT
  5
54A
330
1F
100
AcDbEntity
  8
0
  6
CONTINUOUS
 62
     3
100
AcDbPoint
 10
194.5
 20
134.0
 30
0.0
  0
LINE
  5
54B
330
1F
100
AcDbEntity
  8
0
  6
CONTINUOUS
 62
     3
100
AcDbLine
 10
194.5
 20
178.5
 30
0.0
 11
153.0
 21
178.5
 31
0.0
  0
LINE
  5
54C
330
1F
100
AcDbEntity
  8
0
  6
CONTINUOUS
 62
     3
100
AcDbLine
 10
194.5
 20
178.5
 30
0.0
 11
194.5
 21
134.0
 31
0.0
  0
LINE
  5
54D
330
1F
100
AcDbEntity
  8
0
  6
CONTINUOUS
 62
     3
100
AcDbLine
 10
153.0
 20
134.0
 30
0.0
 11
194.5
 21
134.0
 31
0.0
  0
LINE
  5
54E
330
1F
100
AcDbEntity
  8
0
  6
CONTINUOUS
 62
     3
100
AcDbLine
 10
144.25
 20
173.91
 30
0.0
 11
144.25
 21
137.85
 31
0.0
  0
LINE
  5
54F
330
1F
100
AcDbEntity
  8
0
  6
CONTINUOUS
 62
     3
100
AcDbLine
 10
144.25
 20
136.0
 30
0.0
 11
144.25
 21
133.6
 31
0.0
  0
LINE
  5
550
330
1F
100
AcDbEntity
  8
0
  6
CONTINUOUS
 62
     3
100
AcDbLine
 10
144.25
 20
137.85
 30
0.0
 11
144.25
 21
136.0
 31
0.0
  0
LINE
  5
551
330
1F
100
AcDbEntity
  8
0
  6
CONTINUOUS
 62
     3
100
AcDbLine
 10
203.25
 20
130.25
 30
0.0
 11
202.25
 21
130.25
 31
0.0
  0
LINE
  5
552
330
1F
100
AcDbEntity
  8
0
  6
CONTINUOUS
 62
     3
100
AcDbLine
 10
202.25
 20
130.25
 30
0.0
 11
202.25
 21
137.85
 31
0.0
  0
LINE
  5
553
330
1F
100
AcDbEntity
  8
0
  6
CONTINUOUS
 62
     3
100
AcDbLine
 10
145.25
 20
184.0
 30
0.0
 11
173.75
 21
184.0
 31
0.0
  0
LINE
  5
554
330
1F
100
AcDbEntity
  8
0
  6
CONTINUOUS
 62
     3
100
AcDbLine
 10
202.25
 20
184.0
 30
0.0
 11
173.75
 21
184.0
 31
0.0
  0
LINE
  5
555
330
1F
100
AcDbEntity
  8
0
  6
CONTINUOUS
 62
     3
100
AcDbLine
 10
144.25
 20
136.0
 30
0.0
 11
144.25
 21
116.25
 31
0.0
  0
LINE
  5
556
330
1F
100
AcDbEntity
  8
0
  6
CONTINUOUS
 62
     3
100
AcDbLine
 10
163.621604304
 20
118.5
 30
0.0
 11
183.878395696
 21
118.5
 31
0.0
  0
LINE
  5
557
330
1F
100
AcDbEntity
  8
0
  6
CONTINUOUS
 62
     3
100
AcDbLine
 10
185.475169889
 20
116.25
 30
0.0
 11
203.25
 21
116.25
 31
0.0
  0
LINE
  5
558
330
1F
100
AcDbEntity
  8
0
  6
CONTINUOUS
 62
     3
100
AcDbLine
 10
183.878395696
 20
118.5
 30
0.0
 11
185.475169889
 21
116.25
 31
0.0
  0
LINE
  5
559
330
1F
100
AcDbEntity
  8
0
  6
CONTINUOUS
 62
     3
100
AcDbLine
 10
163.621604304
 20
118.5
 30
0.0
 11
162.024830111
 21
116.25
 31
0.0
  0
LINE
  5
55A
330
1F
100
AcDbEntity
  8
0
  6
CONTINUOUS
 62
     3
100
AcDbLine
 10
144.25
 20
116.25
 30
0.0
 11
162.024830111
 21
116.25
 31
0.0
  0
CIRCLE
  5
55B
330
1F
100
AcDbEntity
  8
0
  6
CONTINUOUS
 62
     3
100
AcDbCircle
 10
200.75
 20
181.0
 30
0.0
 40
1.5
  0
LINE
  5
55C
330
1F
100
AcDbEntity
  8
0
  6
CONTINUOUS
 62
     3
100
AcDbLine
 10
144.25
 20
134.5
 30
0.0
 11
145.25
 21
134.5
 31
0.0
  0
LINE
  5
55D
330
1F
100
AcDbEntity
  8
0
  6
CONTINUOUS
 62
     3
100
AcDbLine
 10
145.25
 20
130.5
 30
0.0
 11
144.25
 21
130.5
 31
0.0
  0
LINE
  5
55E
330
1F
100
AcDbEntity
  8
0
  6
CONTINUOUS
 62
     3
100
AcDbLine
 10
145.25
 20
134.5
 30
0.0
 11
145.25
 21
130.5
 31
0.0
  0
ARC
  5
55F
330
1F
100
AcDbEntity
  8
0
  6
CONTINUOUS
 62
     3
100
AcDbCircle
 10
202.25
 20
183.0
 30
0.0
 40
1.0
100
AcDbArc
 50
0.0
 51
90.0
  0
LINE
  5
560
330
1F
100
AcDbEntity
  8
0
  6
CONTINUOUS
 62
     3
100
AcDbLine
 10
203.25
 20
183.0
 30
0.0
 11
203.25
 21
137.85
 31
0.0
  0
LINE
  5
561
330
1F
100
AcDbEntity
  8
0
  6
CONTINUOUS
 62
     3
100
AcDbLine
 10
145.75
 20
163.75
 30
0.0
 11
145.75
 21
165.75
 31
0.0
  0
LINE
  5
562
330
1F
100
AcDbEntity
  8
0
  6
CONTINUOUS
 62
     3
100
AcDbLine
 10
198.5
 20
139.25
 30
0.0
 11
198.25
 21
139.25
 31
0.0
  0
LINE
  5
563
330
1F
100
AcDbEntity
  8
0
  6
CONTINUOUS
 62
     3
100
AcDbLine
 10
203.25
 20
139.25
 30
0.0
 11
200.75
 21
139.25
 31
0.0
  0
LINE
  5
564
330
1F
100
AcDbEntity
  8
0
  6
CONTINUOUS
 62
     3
100
AcDbLine
 10
200.75
 20
139.25
 30
0.0
 11
203.25
 21
139.25
 31
0.0
  0
LINE
  5
565
330
1F
100
AcDbEntity
  8
0
  6
CONTINUOUS
 62
     3
100
AcDbLine
 10
198.25
 20
139.25
 30
0.0
 11
201.75
 21
139.25
 31
0.0
  0
LINE
  5
566
330
1F
100
AcDbEntity
  8
0
  6
CONTINUOUS
 62
     3
100
AcDbLine
 10
199.75
 20
144.75
 30
0.0
 11
203.25
 21
144.75
 31
0.0
  0
LINE
  5
567
330
1F
100
AcDbEntity
  8
0
  6
CONTINUOUS
 62
     3
100
AcDbLine
 10
198.25
 20
144.75
 30
0.0
 11
199.75
 21
144.75
 31
0.0
  0
LINE
  5
568
330
1F
100
AcDbEntity
  8
0
  6
CONTINUOUS
 62
     3
100
AcDbLine
 10
203.25
 20
142.75
 30
0.0
 11
199.75
 21
142.75
 31
0.0
  0
LINE
  5
569
330
1F
100
AcDbEntity
  8
0
  6
CONTINUOUS
 62
     3
100
AcDbLine
 10
199.75
 20
141.25
 30
0.0
 11
203.25
 21
141.25
 31
0.0
  0
LINE
  5
56A
330
1F
100
AcDbEntity
  8
0
  6
CONTINUOUS
 62
     3
100
AcDbLine
 10
199.75
 20
142.75
 30
0.0
 11
199.75
 21
141.25
 31
0.0
  0
LINE
  5
56B
330
1F
100
AcDbEntity
  8
0
  6
CONTINUOUS
 62
     3
100
AcDbLine
 10
199.75
 20
148.25
 30
0.0
 11
203.25
 21
148.25
 31
0.0
  0
LINE
  5
56C
330
1F
100
AcDbEntity
  8
0
  6
CONTINUOUS
 62
     3
100
AcDbLine
 10
203.25
 20
146.25
 30
0.0
 11
199.75
 21
146.25
 31
0.0
  0
LINE
  5
56D
330
1F
100
AcDbEntity
  8
0
  6
CONTINUOUS
 62
     3
100
AcDbLine
 10
199.75
 20
148.25
 30
0.0
 11
199.75
 21
146.25
 31
0.0
  0
LINE
  5
56E
330
1F
100
AcDbEntity
  8
0
  6
CONTINUOUS
 62
     3
100
AcDbLine
 10
199.75
 20
151.75
 30
0.0
 11
203.25
 21
151.75
 31
0.0
  0
LINE
  5
56F
330
1F
100
AcDbEntity
  8
0
  6
CONTINUOUS
 62
     3
100
AcDbLine
 10
203.25
 20
149.75
 30
0.0
 11
199.75
 21
149.75
 31
0.0
  0
LINE
  5
570
330
1F
100
AcDbEntity
  8
0
  6
CONTINUOUS
 62
     3
100
AcDbLine
 10
199.75
 20
151.75
 30
0.0
 11
199.75
 21
149.75
 31
0.0
  0
LINE
  5
571
330
1F
100
AcDbEntity
  8
0
  6
CONTINUOUS
 62
     3
100
AcDbLine
 10
199.75
 20
155.25
 30
0.0
 11
203.25
 21
155.25
 31
0.0
  0
LINE
  5
572
330
1F
100
AcDbEntity
  8
0
  6
CONTINUOUS
 62
     3
100
AcDbLine
 10
203.25
 20
153.25
 30
0.0
 11
199.75
 21
153.25
 31
0.0
  0
LINE
  5
573
330
1F
100
AcDbEntity
  8
0
  6
CONTINUOUS
 62
     3
100
AcDbLine
 10
199.75
 20
155.25
 30
0.0
 11
199.75
 21
153.25
 31
0.0
  0
LINE
  5
574
330
1F
100
AcDbEntity
  8
0
  6
CONTINUOUS
 62
     3
100
AcDbLine
 10
199.75
 20
158.75
 30
0.0
 11
203.25
 21
158.75
 31
0.0
  0
LINE
  5
575
330
1F
100
AcDbEntity
  8
0
  6
CONTINUOUS
 62
     3
100
AcDbLine
 10
203.25
 20
156.75
 30
0.0
 11
199.75
 21
156.75
 31
0.0
  0
LINE
  5
576
330
1F
100
AcDbEntity
  8
0
  6
CONTINUOUS
 62
     3
100
AcDbLine
 10
199.75
 20
158.75
 30
0.0
 11
199.75
 21
156.75
 31
0.0
  0
LINE
  5
577
330
1F
100
AcDbEntity
  8
0
  6
CONTINUOUS
 62
     3
100
AcDbLine
 10
199.75
 20
162.25
 30
0.0
 11
203.25
 21
162.25
 31
0.0
  0
LINE
  5
578
330
1F
100
AcDbEntity
  8
0
  6
CONTINUOUS
 62
     3
100
AcDbLine
 10
203.25
 20
160.25
 30
0.0
 11
199.75
 21
160.25
 31
0.0
  0
LINE
  5
579
330
1F
100
AcDbEntity
  8
0
  6
CONTINUOUS
 62
     3
100
AcDbLine
 10
199.75
 20
162.25
 30
0.0
 11
199.75
 21
160.25
 31
0.0
  0
LINE
  5
57A
330
1F
100
AcDbEntity
  8
0
  6
CONTINUOUS
 62
     3
100
AcDbLine
 10
201.75
 20
163.75
 30
0.0
 11
201.75
 21
165.75
 31
0.0
  0
LINE
  5
57B
330
1F
100
AcDbEntity
  8
0
  6
CONTINUOUS
 62
     3
100
AcDbLine
 10
198.25
 20
169.25
 30
0.0
 11
203.25
 21
169.25
 31
0.0
  0
LINE
  5
57C
330
1F
100
AcDbEntity
  8
0
  6
CONTINUOUS
 62
     3
100
AcDbLine
 10
198.25
 20
166.75
 30
0.0
 11
198.25
 21
169.25
 31
0.0
  0
LINE
  5
57D
330
1F
100
AcDbEntity
  8
0
  6
CONTINUOUS
 62
     3
100
AcDbLine
 10
203.25
 20
163.75
 30
0.0
 11
198.25
 21
163.75
 31
0.0
  0
LINE
  5
57E
330
1F
100
AcDbEntity
  8
0
  6
CONTINUOUS
 62
     3
100
AcDbLine
 10
198.25
 20
166.75
 30
0.0
 11
198.25
 21
163.75
 31
0.0
  0
LINE
  5
57F
330
1F
100
AcDbEntity
  8
0
  6
CONTINUOUS
 62
     3
100
AcDbLine
 10
198.25
 20
144.75
 30
0.0
 11
198.25
 21
139.25
 31
0.0
  0
LINE
  5
580
330
1F
100
AcDbEntity
  8
0
  6
CONTINUOUS
 62
     3
100
AcDbLine
 10
149.25
 20
169.25
 30
0.0
 11
149.25
 21
163.75
 31
0.0
  0
LINE
  5
581
330
1F
100
AcDbEntity
  8
0
  6
CONTINUOUS
 62
     3
100
AcDbLine
 10
203.25
 20
137.85
 30
0.0
 11
203.25
 21
116.25
 31
0.0
  0
LINE
  5
582
330
1F
100
AcDbEntity
  8
0
  6
CONTINUOUS
 62
     3
100
AcDbLine
 10
156.15
 20
69.0
 30
0.0
 11
158.15
 21
69.0
 31
0.0
  0
LINE
  5
583
330
1F
100
AcDbEntity
  8
0
  6
CONTINUOUS
 62
     3
100
AcDbLine
 10
156.05
 20
71.8
 30
0.0
 11
158.15
 21
71.0
 31
0.0
  0
LINE
  5
584
330
1F
100
AcDbEntity
  8
0
  6
CONTINUOUS
 62
     3
100
AcDbLine
 10
158.15
 20
69.0
 30
0.0
 11
158.15
 21
71.0
 31
0.0
  0
LINE
  5
585
330
1F
100
AcDbEntity
  8
0
  6
CONTINUOUS
 62
     3
100
AcDbLine
 10
131.65
 20
69.0
 30
0.0
 11
156.05
 21
69.0
 31
0.0
  0
LINE
  5
586
330
1F
100
AcDbEntity
  8
0
  6
CONTINUOUS
 62
     3
100
AcDbLine
 10
156.05
 20
73.0
 30
0.0
 11
156.05
 21
69.0
 31
0.0
  0
LINE
  5
587
330
1F
100
AcDbEntity
  8
0
  6
CONTINUOUS
 62
     3
100
AcDbLine
 10
172.75
 20
73.0
 30
0.0
 11
191.65
 21
73.0
 31
0.0
  0
LINE
  5
588
330
1F
100
AcDbEntity
  8
0
  6
CONTINUOUS
 62
     3
100
AcDbLine
 10
208.4
 20
73.0
 30
0.0
 11
208.4
 21
71.8
 31
0.0
  0
LINE
  5
589
330
1F
100
AcDbEntity
  8
0
  6
CONTINUOUS
 62
     3
100
AcDbLine
 10
125.65
 20
72.2
 30
0.0
 11
131.65
 21
69.0
 31
0.0
  0
LINE
  5
58A
330
1F
100
AcDbEntity
  8
0
  6
CONTINUOUS
 62
     3
100
AcDbLine
 10
191.7
 20
73.0
 30
0.0
 11
206.9
 21
73.0
 31
0.0
  0
LINE
  5
58B
330
1F
100
AcDbEntity
  8
0
  6
CONTINUOUS
 62
     3
100
AcDbLine
 10
173.65
 20
73.0
 30
0.0
 11
156.05
 21
73.0
 31
0.0
  0
LINE
  5
58C
330
1F
100
AcDbEntity
  8
0
  6
CONTINUOUS
 62
     3
100
AcDbLine
 10
160.15
 20
73.0
 30
0.0
 11
156.15
 21
73.0
 31
0.0
  0
LINE
  5
58D
330
1F
100
AcDbEntity
  8
0
  6
CONTINUOUS
 62
     3
100
AcDbLine
 10
160.15
 20
73.0
 30
0.0
 11
156.05
 21
73.0
 31
0.0
  0
LINE
  5
58E
330
1F
100
AcDbEntity
  8
0
  6
CONTINUOUS
 62
     3
100
AcDbLine
 10
206.9
 20
73.0
 30
0.0
 11
221.65
 21
73.0
 31
0.0
  0
LINE
  5
58F
330
1F
100
AcDbEntity
  8
0
  6
CONTINUOUS
 62
     3
100
AcDbLine
 10
221.65
 20
73.0
 30
0.0
 11
216.65
 21
67.75
 31
0.0
  0
ARC
  5
590
330
1F
100
AcDbEntity
  8
0
  6
CONTINUOUS
 62
     3
100
AcDbCircle
 10
159.55
 20
73.0
 30
0.0
 40
0.5
100
AcDbArc
 50
180.0
 51
0.0
  0
LINE
  5
591
330
1F
100
AcDbEntity
  8
0
  6
CONTINUOUS
 62
     3
100
AcDbLine
 10
190.4
 20
72.2
 30
0.0
 11
190.4
 21
73.0
 31
0.0
  0
LINE
  5
592
330
1F
100
AcDbEntity
  8
0
  6
CONTINUOUS
 62
     3
100
AcDbLine
 10
193.15
 20
66.35
 30
0.0
 11
193.15
 21
68.4
 31
0.0
  0
LINE
  5
593
330
1F
100
AcDbEntity
  8
0
  6
CONTINUOUS
 62
     3
100
AcDbLine
 10
193.4
 20
73.0
 30
0.0
 11
193.4
 21
72.0
 31
0.0
  0
LINE
  5
594
330
1F
100
AcDbEntity
  8
0
  6
CONTINUOUS
 62
     3
100
AcDbLine
 10
193.4
 20
72.0
 30
0.0
 11
194.4
 21
72.0
 31
0.0
  0
LINE
  5
595
330
1F
100
AcDbEntity
  8
0
  6
CONTINUOUS
 62
     3
100
AcDbLine
 10
194.4
 20
73.0
 30
0.0
 11
199.4
 21
73.0
 31
0.0
  0
LINE
  5
596
330
1F
100
AcDbEntity
  8
0
  6
CONTINUOUS
 62
     3
100
AcDbLine
 10
190.4
 20
73.0
 30
0.0
 11
193.4
 21
73.0
 31
0.0
  0
LINE
  5
597
330
1F
100
AcDbEntity
  8
0
  6
CONTINUOUS
 62
     3
100
AcDbLine
 10
196.15
 20
66.35
 30
0.0
 11
196.15
 21
67.15
 31
0.0
  0
LINE
  5
598
330
1F
100
AcDbEntity
  8
0
  6
CONTINUOUS
 62
     3
100
AcDbLine
 10
193.15
 20
66.35
 30
0.0
 11
196.15
 21
66.35
 31
0.0
  0
LINE
  5
599
330
1F
100
AcDbEntity
  8
0
  6
CONTINUOUS
 62
     3
100
AcDbLine
 10
199.4
 20
71.75
 30
0.0
 11
208.65
 21
71.75
 31
0.0
  0
LINE
  5
59A
330
1F
100
AcDbEntity
  8
0
  6
CONTINUOUS
 62
     3
100
AcDbLine
 10
199.4
 20
73.0
 30
0.0
 11
199.4
 21
71.75
 31
0.0
  0
ARC
  5
59B
330
1F
100
AcDbEntity
  8
0
  6
CONTINUOUS
 62
     3
100
AcDbCircle
 10
202.15
 20
67.15
 30
0.0
 40
0.8
100
AcDbArc
 50
180.0
 51
270.000273208
  0
LINE
  5
59C
330
1F
100
AcDbEntity
  8
0
  6
CONTINUOUS
 62
     3
100
AcDbLine
 10
208.65
 20
71.75
 30
0.0
 11
208.65
 21
73.0
 31
0.0
  0
LINE
  5
59D
330
1F
100
AcDbEntity
  8
0
  6
CONTINUOUS
 62
     3
100
AcDbLine
 10
216.65
 20
66.35
 30
0.0
 11
216.65
 21
73.0
 31
0.0
  0
LINE
  5
59E
330
1F
100
AcDbEntity
  8
0
  6
CONTINUOUS
 62
     3
100
AcDbLine
 10
208.65
 20
73.0
 30
0.0
 11
216.65
 21
73.0
 31
0.0
  0
LINE
  5
59F
330
1F
100
AcDbEntity
  8
0
  6
CONTINUOUS
 62
     3
100
AcDbLine
 10
196.15
 20
67.15
 30
0.0
 11
202.15
 21
67.15
 31
0.0
  0
LINE
  5
5A0
330
1F
100
AcDbEntity
  8
0
  6
CONTINUOUS
 62
     3
100
AcDbLine
 10
194.4
 20
72.0
 30
0.0
 11
194.4
 21
73.0
 31
0.0
  0
LINE
  5
5A1
330
1F
100
AcDbEntity
  8
0
  6
CONTINUOUS
 62
     3
100
AcDbLine
 10
190.4
 20
72.2
 30
0.0
 11
188.2
 21
71.85
 31
0.0
  0
LINE
  5
5A2
330
1F
100
AcDbEntity
  8
0
  6
CONTINUOUS
 62
     3
100
AcDbLine
 10
193.15
 20
68.4
 30
0.0
 11
191.672392443
 21
68.4
 31
0.0
  0
LINE
  5
5A3
330
1F
100
AcDbEntity
  8
0
  6
CONTINUOUS
 62
     3
100
AcDbLine
 10
188.2
 20
71.85
 30
0.0
 11
191.308805187
 21
68.55677368
 31
0.0
  0
ARC
  5
5A4
330
1F
100
AcDbEntity
  8
0
  6
CONTINUOUS
 62
     3
100
AcDbCircle
 10
191.672392443
 20
68.9
 30
0.0
 40
0.5
100
AcDbArc
 50
223.349956379
 51
270.0
  0
LINE
  5
5A5
330
1F
100
AcDbEntity
  8
0
  6
CONTINUOUS
 62
     3
100
AcDbLine
 10
202.15
 20
66.35
 30
0.0
 11
202.15
 21
67.15
 31
0.0
  0
LINE
  5
5A6
330
1F
100
AcDbEntity
  8
0
  6
CONTINUOUS
 62
     3
100
AcDbLine
 10
222.65
 20
66.35
 30
0.0
 11
222.65
 21
67.15
 31
0.0
  0
LINE
  5
5A7
330
1F
100
AcDbEntity
  8
0
  6
CONTINUOUS
 62
     3
100
AcDbLine
 10
216.65
 20
67.15
 30
0.0
 11
222.65
 21
67.15
 31
0.0
  0
LINE
  5
5A8
330
1F
100
AcDbEntity
  8
0
  6
CONTINUOUS
 62
     3
100
AcDbLine
 10
202.15
 20
66.35
 30
0.0
 11
222.65
 21
66.35
 31
0.0
  0
LINE
  5
5A9
330
1F
100
AcDbEntity
  8
0
  6
CONTINUOUS
 62
     5
100
AcDbLine
 10
144.25
 20
184.0
 30
0.0
 11
107.25
 21
184.0
 31
0.0
  0
LINE
  5
5AA
330
1F
100
AcDbEntity
  8
0
  6
CONTINUOUS
 62
     5
100
AcDbLine
 10
130.75
 20
69.0
 30
0.0
 11
107.25
 21
69.0
 31
0.0
  0
LINE
  5
5AB
330
1F
100
AcDbEntity
  8
0
  6
CONTINUOUS
 62
     3
100
AcDbLine
 10
135.401427906
 20
112.959245036
 30
0.0
 11
144.25
 21
116.25
 31
0.0
  0
LINE
  5
5AC
330
1F
100
AcDbEntity
  8
0
  6
CONTINUOUS
 62
     3
100
AcDbLine
 10
134.75
 20
97.716981132
 30
0.0
 11
134.75
 21
112.021964971
 31
0.0
  0
ARC
  5
5AD
330
1F
100
AcDbEntity
  8
0
  6
CONTINUOUS
 62
     3
100
AcDbCircle
 10
135.75
 20
112.021963063
 30
0.0
 40
1.0
100
AcDbArc
 50
110.400002848
 51
179.999890717
  0
LINE
  5
5AE
330
1F
100
AcDbEntity
  8
0
  6
CONTINUOUS
 62
     3
100
AcDbLine
 10
135.75
 20
97.716981132
 30
0.0
 11
135.75
 21
112.021963063
 31
0.0
  0
LINE
  5
5AF
330
1F
100
AcDbEntity
  8
0
  6
CONTINUOUS
 62
     3
100
AcDbLine
 10
135.75
 20
112.021963063
 30
0.0
 11
135.05
 21
112.511963063
 31
0.0
  0
LINE
  5
5B0
330
1F
100
AcDbEntity
  8
0
  6
CONTINUOUS
 62
     3
100
AcDbLine
 10
135.75
 20
112.021963063
 30
0.0
 11
144.25
 21
115.183085208
 31
0.0
  0
LINE
  5
5B1
330
1F
100
AcDbEntity
  8
0
  6
CONTINUOUS
 62
     3
100
AcDbLine
 10
144.25
 20
115.183085208
 30
0.0
 11
144.25
 21
116.403636364
 31
0.0
  0
LINE
  5
5B2
330
1F
100
AcDbEntity
  8
0
  6
CONTINUOUS
 62
     3
100
AcDbLine
 10
124.93646098
 20
94.476661644
 30
0.0
 11
134.75
 21
97.716981132
 31
0.0
  0
ARC
  5
5B3
330
1F
100
AcDbEntity
  8
0
  6
CONTINUOUS
 62
     3
100
AcDbCircle
 10
125.25
 20
93.527086327
 30
0.0
 40
1.0
100
AcDbArc
 50
108.272638267
 51
180.0
  0
LINE
  5
5B4
330
1F
100
AcDbEntity
  8
0
  6
CONTINUOUS
 62
     3
100
AcDbLine
 10
124.25
 20
73.0
 30
0.0
 11
124.25
 21
93.527086327
 31
0.0
  0
LINE
  5
5B5
330
1F
100
AcDbEntity
  8
0
  6
CONTINUOUS
 62
     3
100
AcDbLine
 10
125.25
 20
93.527086327
 30
0.0
 11
135.06353902
 21
96.767405815
 31
0.0
  0
LINE
  5
5B6
330
1F
100
AcDbEntity
  8
0
  6
CONTINUOUS
 62
     3
100
AcDbLine
 10
125.25
 20
93.527086327
 30
0.0
 11
124.47
 21
94.017086327
 31
0.0
  0
LINE
  5
5B7
330
1F
100
AcDbEntity
  8
0
  6
CONTINUOUS
 62
     3
100
AcDbLine
 10
125.25
 20
93.527086327
 30
0.0
 11
125.25
 21
72.5
 31
0.0
  0
POINT
  5
5B8
330
1F
100
AcDbEntity
  8
0
  6
CONTINUOUS
 62
     3
100
AcDbPoint
 10
135.75
 20
98.75
 30
0.0
  0
ARC
  5
5B9
330
1F
100
AcDbEntity
  8
0
  6
CONTINUOUS
 62
     3
100
AcDbCircle
 10
134.75
 20
97.716981132
 30
0.0
 40
1.0
100
AcDbArc
 50
288.2726382669999
 51
0.0
  0
LINE
  5
5BA
330
1F
100
AcDbEntity
  8
0
  6
CONTINUOUS
 62
     3
100
AcDbLine
 10
134.75
 20
97.716981132
 30
0.0
 11
135.38
 21
97.226981132
 31
0.0
  0
LINE
  5
5BB
330
1F
100
AcDbEntity
  8
0
  6
CONTINUOUS
 62
     3
100
AcDbLine
 10
211.75
 20
112.021963063
 30
0.0
 11
203.25
 21
115.183085208
 31
0.0
  0
LINE
  5
5BC
330
1F
100
AcDbEntity
  8
0
  6
CONTINUOUS
 62
     3
100
AcDbLine
 10
203.25
 20
115.183085208
 30
0.0
 11
203.25
 21
116.403636364
 31
0.0
  0
LINE
  5
5BD
330
1F
100
AcDbEntity
  8
0
  6
CONTINUOUS
 62
     3
100
AcDbLine
 10
212.098574464
 20
112.959244154
 30
0.0
 11
203.25
 21
116.25
 31
0.0
  0
POINT
  5
5BE
330
1F
100
AcDbEntity
  8
0
  6
CONTINUOUS
 62
     3
100
AcDbPoint
 10
211.75
 20
98.75
 30
0.0
  0
LINE
  5
5BF
330
1F
100
AcDbEntity
  8
0
  6
CONTINUOUS
 62
     3
100
AcDbLine
 10
222.25
 20
93.560105195
 30
0.0
 11
212.43646098
 21
96.800424683
 31
0.0
  0
LINE
  5
5C0
330
1F
100
AcDbEntity
  8
0
  6
CONTINUOUS
 62
     3
100
AcDbLine
 10
212.75
 20
97.716981132
 30
0.0
 11
212.13
 21
97.196981132
 31
0.0
  0
LINE
  5
5C1
330
1F
100
AcDbEntity
  8
0
  6
CONTINUOUS
 62
     3
100
AcDbLine
 10
211.75
 20
97.75
 30
0.0
 11
211.75
 21
112.021963063
 31
0.0
  0
ARC
  5
5C2
330
1F
100
AcDbEntity
  8
0
  6
CONTINUOUS
 62
     3
100
AcDbCircle
 10
212.75
 20
97.75
 30
0.0
 40
1.0
100
AcDbArc
 50
180.0
 51
251.727361733
  0
LINE
  5
5C3
330
1F
100
AcDbEntity
  8
0
  6
CONTINUOUS
 62
     3
100
AcDbLine
 10
222.56353902
 20
94.509680512
 30
0.0
 11
212.75
 21
97.75
 31
0.0
  0
LINE
  5
5C4
330
1F
100
AcDbEntity
  8
0
  6
CONTINUOUS
 62
     3
100
AcDbLine
 10
212.75
 20
97.75
 30
0.0
 11
212.75
 21
112.021964971
 31
0.0
  0
LINE
  5
5C5
330
1F
100
AcDbEntity
  8
0
  6
CONTINUOUS
 62
     3
100
AcDbLine
 10
211.75
 20
112.021963063
 30
0.0
 11
212.38
 21
112.451963063
 31
0.0
  0
ARC
  5
5C6
330
1F
100
AcDbEntity
  8
0
  6
CONTINUOUS
 62
     3
100
AcDbCircle
 10
211.75
 20
112.021963063
 30
0.0
 40
1.0
100
AcDbArc
 50
0.000109283
 51
69.599852295
  0
LINE
  5
5C7
330
1F
100
AcDbEntity
  8
0
  6
CONTINUOUS
 62
     3
100
AcDbLine
 10
223.25
 20
73.0
 30
0.0
 11
223.25
 21
93.527086327
 31
0.0
  0
LINE
  5
5C8
330
1F
100
AcDbEntity
  8
0
  6
CONTINUOUS
 62
     3
100
AcDbLine
 10
222.25
 20
93.527086327
 30
0.0
 11
222.25
 21
73.0
 31
0.0
  0
ARC
  5
5C9
330
1F
100
AcDbEntity
  8
0
  6
CONTINUOUS
 62
     3
100
AcDbCircle
 10
222.25
 20
93.527086327
 30
0.0
 40
1.0
100
AcDbArc
 50
0.0
 51
71.727361733
  0
LINE
  5
5CA
330
1F
100
AcDbEntity
  8
0
  6
CONTINUOUS
 62
     3
100
AcDbLine
 10
222.25
 20
93.527086327
 30
0.0
 11
222.93
 21
94.007086327
 31
0.0
  0
LINE
  5
5CB
330
1F
100
AcDbEntity
  8
0
  6
CONTINUOUS
 62
     3
100
AcDbLine
 10
144.25
 20
183.0
 30
0.0
 11
144.25
 21
173.85
 31
0.0
  0
ARC
  5
5CC
330
1F
100
AcDbEntity
  8
0
  6
CONTINUOUS
 62
     3
100
AcDbCircle
 10
145.25
 20
183.0
 30
0.0
 40
1.0
100
AcDbArc
 50
90.0
 51
180.0
  0
CIRCLE
  5
5CD
330
1F
100
AcDbEntity
  8
0
  6
CONTINUOUS
 62
     3
100
AcDbCircle
 10
146.75
 20
181.0
 30
0.0
 40
1.5
  0
LINE
  5
5CE
330
1F
100
AcDbEntity
  8
0
  6
CONTINUOUS
 62
     3
100
AcDbLine
 10
145.25
 20
172.85
 30
0.0
 11
145.25
 21
174.25
 31
0.0
  0
LINE
  5
5CF
330
1F
100
AcDbEntity
  8
0
  6
CONTINUOUS
 62
     3
100
AcDbLine
 10
145.75
 20
167.25
 30
0.0
 11
145.75
 21
169.25
 31
0.0
  0
LINE
  5
5D0
330
1F
100
AcDbEntity
  8
0
  6
CONTINUOUS
 62
     3
100
AcDbLine
 10
145.75
 20
170.75
 30
0.0
 11
145.75
 21
172.75
 31
0.0
  0
LINE
  5
5D1
330
1F
100
AcDbEntity
  8
0
  6
CONTINUOUS
 62
     3
100
AcDbLine
 10
147.75
 20
172.75
 30
0.0
 11
144.25
 21
172.75
 31
0.0
  0
LINE
  5
5D2
330
1F
100
AcDbEntity
  8
0
  6
CONTINUOUS
 62
     3
100
AcDbLine
 10
144.25
 20
170.75
 30
0.0
 11
147.75
 21
170.75
 31
0.0
  0
LINE
  5
5D3
330
1F
100
AcDbEntity
  8
0
  6
CONTINUOUS
 62
     3
100
AcDbLine
 10
147.75
 20
172.75
 30
0.0
 11
147.75
 21
170.75
 31
0.0
  0
LINE
  5
5D4
330
1F
100
AcDbEntity
  8
0
  6
CONTINUOUS
 62
     3
100
AcDbLine
 10
145.75
 20
174.25
 30
0.0
 11
145.75
 21
176.25
 31
0.0
  0
LINE
  5
5D5
330
1F
100
AcDbEntity
  8
0
  6
CONTINUOUS
 62
     3
100
AcDbLine
 10
147.75
 20
176.25
 30
0.0
 11
144.25
 21
176.25
 31
0.0
  0
LINE
  5
5D6
330
1F
100
AcDbEntity
  8
0
  6
CONTINUOUS
 62
     3
100
AcDbLine
 10
144.25
 20
174.25
 30
0.0
 11
147.75
 21
174.25
 31
0.0
  0
LINE
  5
5D7
330
1F
100
AcDbEntity
  8
0
  6
CONTINUOUS
 62
     3
100
AcDbLine
 10
147.75
 20
176.25
 30
0.0
 11
147.75
 21
174.25
 31
0.0
  0
LINE
  5
5D8
330
1F
100
AcDbEntity
  8
0
  6
CONTINUOUS
 62
     3
100
AcDbLine
 10
144.25
 20
167.25
 30
0.0
 11
147.75
 21
167.25
 31
0.0
  0
LINE
  5
5D9
330
1F
100
AcDbEntity
  8
0
  6
CONTINUOUS
 62
     3
100
AcDbLine
 10
147.75
 20
165.75
 30
0.0
 11
144.25
 21
165.75
 31
0.0
  0
LINE
  5
5DA
330
1F
100
AcDbEntity
  8
0
  6
CONTINUOUS
 62
     3
100
AcDbLine
 10
147.75
 20
167.25
 30
0.0
 11
147.75
 21
165.75
 31
0.0
  0
LINE
  5
5DB
330
1F
100
AcDbEntity
  8
0
  6
CONTINUOUS
 62
     3
100
AcDbLine
 10
147.75
 20
170.75
 30
0.0
 11
147.75
 21
169.25
 31
0.0
  0
LINE
  5
5DC
330
1F
100
AcDbEntity
  8
0
  6
CONTINUOUS
 62
     3
100
AcDbLine
 10
149.25
 20
169.25
 30
0.0
 11
144.25
 21
169.25
 31
0.0
  0
LINE
  5
5DD
330
1F
100
AcDbEntity
  8
0
  6
CONTINUOUS
 62
     3
100
AcDbLine
 10
145.25
 20
165.75
 30
0.0
 11
145.25
 21
167.25
 31
0.0
  0
LINE
  5
5DE
330
1F
100
AcDbEntity
  8
0
  6
CONTINUOUS
 62
     3
100
AcDbLine
 10
145.25
 20
169.25
 30
0.0
 11
145.25
 21
170.75
 31
0.0
  0
LINE
  5
5DF
330
1F
100
AcDbEntity
  8
0
  6
CONTINUOUS
 62
     3
100
AcDbLine
 10
144.25
 20
138.35
 30
0.0
 11
144.25
 21
137.85
 31
0.0
  0
LINE
  5
5E0
330
1F
100
AcDbEntity
  8
0
  6
CONTINUOUS
 62
     3
100
AcDbLine
 10
144.25
 20
141.65
 30
0.0
 11
144.25
 21
137.85
 31
0.0
  0
LINE
  5
5E1
330
1F
100
AcDbEntity
  8
0
  6
CONTINUOUS
 62
     3
100
AcDbLine
 10
145.25
 20
144.75
 30
0.0
 11
144.25
 21
144.75
 31
0.0
  0
LINE
  5
5E2
330
1F
100
AcDbEntity
  8
0
  6
CONTINUOUS
 62
     3
100
AcDbLine
 10
145.25
 20
139.33
 30
0.0
 11
145.25
 21
139.25
 31
0.0
  0
LINE
  5
5E3
330
1F
100
AcDbEntity
  8
0
  6
CONTINUOUS
 62
     3
100
AcDbLine
 10
146.75
 20
139.25
 30
0.0
 11
144.25
 21
139.25
 31
0.0
  0
LINE
  5
5E4
330
1F
100
AcDbEntity
  8
0
  6
CONTINUOUS
 62
     3
100
AcDbLine
 10
149.25
 20
139.25
 30
0.0
 11
145.75
 21
139.25
 31
0.0
  0
LINE
  5
5E5
330
1F
100
AcDbEntity
  8
0
  6
CONTINUOUS
 62
     3
100
AcDbLine
 10
144.25
 20
142.75
 30
0.0
 11
147.75
 21
142.75
 31
0.0
  0
LINE
  5
5E6
330
1F
100
AcDbEntity
  8
0
  6
CONTINUOUS
 62
     3
100
AcDbLine
 10
147.75
 20
141.25
 30
0.0
 11
144.25
 21
141.25
 31
0.0
  0
LINE
  5
5E7
330
1F
100
AcDbEntity
  8
0
  6
CONTINUOUS
 62
     3
100
AcDbLine
 10
145.75
 20
142.75
 30
0.0
 11
145.75
 21
144.75
 31
0.0
  0
LINE
  5
5E8
330
1F
100
AcDbEntity
  8
0
  6
CONTINUOUS
 62
     3
100
AcDbLine
 10
145.75
 20
139.25
 30
0.0
 11
145.75
 21
141.25
 31
0.0
  0
LINE
  5
5E9
330
1F
100
AcDbEntity
  8
0
  6
CONTINUOUS
 62
     3
100
AcDbLine
 10
145.25
 20
148.25
 30
0.0
 11
144.25
 21
148.25
 31
0.0
  0
LINE
  5
5EA
330
1F
100
AcDbEntity
  8
0
  6
CONTINUOUS
 62
     3
100
AcDbLine
 10
145.75
 20
146.25
 30
0.0
 11
145.75
 21
148.25
 31
0.0
  0
LINE
  5
5EB
330
1F
100
AcDbEntity
  8
0
  6
CONTINUOUS
 62
     3
100
AcDbLine
 10
147.75
 20
148.25
 30
0.0
 11
144.25
 21
148.25
 31
0.0
  0
LINE
  5
5EC
330
1F
100
AcDbEntity
  8
0
  6
CONTINUOUS
 62
     3
100
AcDbLine
 10
144.25
 20
146.25
 30
0.0
 11
147.75
 21
146.25
 31
0.0
  0
LINE
  5
5ED
330
1F
100
AcDbEntity
  8
0
  6
CONTINUOUS
 62
     3
100
AcDbLine
 10
147.75
 20
148.25
 30
0.0
 11
147.75
 21
146.25
 31
0.0
  0
LINE
  5
5EE
330
1F
100
AcDbEntity
  8
0
  6
CONTINUOUS
 62
     3
100
AcDbLine
 10
145.25
 20
151.75
 30
0.0
 11
144.25
 21
151.75
 31
0.0
  0
LINE
  5
5EF
330
1F
100
AcDbEntity
  8
0
  6
CONTINUOUS
 62
     3
100
AcDbLine
 10
145.75
 20
149.75
 30
0.0
 11
145.75
 21
151.75
 31
0.0
  0
LINE
  5
5F0
330
1F
100
AcDbEntity
  8
0
  6
CONTINUOUS
 62
     3
100
AcDbLine
 10
147.75
 20
151.75
 30
0.0
 11
144.25
 21
151.75
 31
0.0
  0
LINE
  5
5F1
330
1F
100
AcDbEntity
  8
0
  6
CONTINUOUS
 62
     3
100
AcDbLine
 10
144.25
 20
149.75
 30
0.0
 11
147.75
 21
149.75
 31
0.0
  0
LINE
  5
5F2
330
1F
100
AcDbEntity
  8
0
  6
CONTINUOUS
 62
     3
100
AcDbLine
 10
147.75
 20
151.75
 30
0.0
 11
147.75
 21
149.75
 31
0.0
  0
LINE
  5
5F3
330
1F
100
AcDbEntity
  8
0
  6
CONTINUOUS
 62
     3
100
AcDbLine
 10
145.25
 20
155.25
 30
0.0
 11
144.25
 21
155.25
 31
0.0
  0
LINE
  5
5F4
330
1F
100
AcDbEntity
  8
0
  6
CONTINUOUS
 62
     3
100
AcDbLine
 10
145.75
 20
153.25
 30
0.0
 11
145.75
 21
155.25
 31
0.0
  0
LINE
  5
5F5
330
1F
100
AcDbEntity
  8
0
  6
CONTINUOUS
 62
     3
100
AcDbLine
 10
147.75
 20
155.25
 30
0.0
 11
144.25
 21
155.25
 31
0.0
  0
LINE
  5
5F6
330
1F
100
AcDbEntity
  8
0
  6
CONTINUOUS
 62
     3
100
AcDbLine
 10
144.25
 20
153.25
 30
0.0
 11
147.75
 21
153.25
 31
0.0
  0
LINE
  5
5F7
330
1F
100
AcDbEntity
  8
0
  6
CONTINUOUS
 62
     3
100
AcDbLine
 10
147.75
 20
155.25
 30
0.0
 11
147.75
 21
153.25
 31
0.0
  0
LINE
  5
5F8
330
1F
100
AcDbEntity
  8
0
  6
CONTINUOUS
 62
     3
100
AcDbLine
 10
145.25
 20
158.75
 30
0.0
 11
144.25
 21
158.75
 31
0.0
  0
LINE
  5
5F9
330
1F
100
AcDbEntity
  8
0
  6
CONTINUOUS
 62
     3
100
AcDbLine
 10
145.75
 20
156.75
 30
0.0
 11
145.75
 21
158.75
 31
0.0
  0
LINE
  5
5FA
330
1F
100
AcDbEntity
  8
0
  6
CONTINUOUS
 62
     3
100
AcDbLine
 10
147.75
 20
158.75
 30
0.0
 11
144.25
 21
158.75
 31
0.0
  0
LINE
  5
5FB
330
1F
100
AcDbEntity
  8
0
  6
CONTINUOUS
 62
     3
100
AcDbLine
 10
144.25
 20
156.75
 30
0.0
 11
147.75
 21
156.75
 31
0.0
  0
LINE
  5
5FC
330
1F
100
AcDbEntity
  8
0
  6
CONTINUOUS
 62
     3
100
AcDbLine
 10
147.75
 20
158.75
 30
0.0
 11
147.75
 21
156.75
 31
0.0
  0
LINE
  5
5FD
330
1F
100
AcDbEntity
  8
0
  6
CONTINUOUS
 62
     3
100
AcDbLine
 10
145.75
 20
160.25
 30
0.0
 11
145.75
 21
162.25
 31
0.0
  0
LINE
  5
5FE
330
1F
100
AcDbEntity
  8
0
  6
CONTINUOUS
 62
     3
100
AcDbLine
 10
147.75
 20
162.25
 30
0.0
 11
144.25
 21
162.25
 31
0.0
  0
LINE
  5
5FF
330
1F
100
AcDbEntity
  8
0
  6
CONTINUOUS
 62
     3
100
AcDbLine
 10
144.25
 20
160.25
 30
0.0
 11
147.75
 21
160.25
 31
0.0
  0
LINE
  5
600
330
1F
100
AcDbEntity
  8
0
  6
CONTINUOUS
 62
     3
100
AcDbLine
 10
147.75
 20
162.25
 30
0.0
 11
147.75
 21
160.25
 31
0.0
  0
LINE
  5
601
330
1F
100
AcDbEntity
  8
0
  6
CONTINUOUS
 62
     3
100
AcDbLine
 10
144.25
 20
163.75
 30
0.0
 11
149.25
 21
163.75
 31
0.0
  0
LINE
  5
602
330
1F
100
AcDbEntity
  8
0
  6
CONTINUOUS
 62
     3
100
AcDbLine
 10
144.25
 20
139.25
 30
0.0
 11
147.75
 21
139.25
 31
0.0
  0
LINE
  5
603
330
1F
100
AcDbEntity
  8
0
  6
CONTINUOUS
 62
     3
100
AcDbLine
 10
145.25
 20
142.75
 30
0.0
 11
145.25
 21
141.25
 31
0.0
  0
LINE
  5
604
330
1F
100
AcDbEntity
  8
0
  6
CONTINUOUS
 62
     3
100
AcDbLine
 10
145.25
 20
144.75
 30
0.0
 11
145.25
 21
146.25
 31
0.0
  0
LINE
  5
605
330
1F
100
AcDbEntity
  8
0
  6
CONTINUOUS
 62
     3
100
AcDbLine
 10
145.25
 20
148.25
 30
0.0
 11
145.25
 21
149.75
 31
0.0
  0
LINE
  5
606
330
1F
100
AcDbEntity
  8
0
  6
CONTINUOUS
 62
     3
100
AcDbLine
 10
145.25
 20
151.75
 30
0.0
 11
145.25
 21
153.25
 31
0.0
  0
LINE
  5
607
330
1F
100
AcDbEntity
  8
0
  6
CONTINUOUS
 62
     3
100
AcDbLine
 10
145.25
 20
155.25
 30
0.0
 11
145.25
 21
156.75
 31
0.0
  0
LINE
  5
608
330
1F
100
AcDbEntity
  8
0
  6
CONTINUOUS
 62
     3
100
AcDbLine
 10
145.25
 20
158.75
 30
0.0
 11
145.25
 21
160.25
 31
0.0
  0
LINE
  5
609
330
1F
100
AcDbEntity
  8
0
  6
CONTINUOUS
 62
     3
100
AcDbLine
 10
145.25
 20
162.25
 30
0.0
 11
145.25
 21
163.75
 31
0.0
  0
LINE
  5
60A
330
1F
100
AcDbEntity
  8
0
  6
CONTINUOUS
 62
     3
100
AcDbLine
 10
149.25
 20
139.25
 30
0.0
 11
149.25
 21
144.75
 31
0.0
  0
LINE
  5
60B
330
1F
100
AcDbEntity
  8
0
  6
CONTINUOUS
 62
     3
100
AcDbLine
 10
149.25
 20
144.75
 30
0.0
 11
144.25
 21
144.75
 31
0.0
  0
LINE
  5
60C
330
1F
100
AcDbEntity
  8
0
  6
CONTINUOUS
 62
     3
100
AcDbLine
 10
147.75
 20
142.75
 30
0.0
 11
147.75
 21
141.25
 31
0.0
  0
LINE
  5
60D
330
1F
100
AcDbEntity
  8
0
  6
CONTINUOUS
 62
     3
100
AcDbLine
 10
202.25
 20
172.85
 30
0.0
 11
202.25
 21
174.25
 31
0.0
  0
LINE
  5
60E
330
1F
100
AcDbEntity
  8
0
  6
CONTINUOUS
 62
     3
100
AcDbLine
 10
201.75
 20
167.25
 30
0.0
 11
201.75
 21
169.25
 31
0.0
  0
LINE
  5
60F
330
1F
100
AcDbEntity
  8
0
  6
CONTINUOUS
 62
     3
100
AcDbLine
 10
201.75
 20
170.75
 30
0.0
 11
201.75
 21
172.75
 31
0.0
  0
LINE
  5
610
330
1F
100
AcDbEntity
  8
0
  6
CONTINUOUS
 62
     3
100
AcDbLine
 10
199.75
 20
172.75
 30
0.0
 11
203.25
 21
172.75
 31
0.0
  0
LINE
  5
611
330
1F
100
AcDbEntity
  8
0
  6
CONTINUOUS
 62
     3
100
AcDbLine
 10
203.25
 20
170.75
 30
0.0
 11
199.75
 21
170.75
 31
0.0
  0
LINE
  5
612
330
1F
100
AcDbEntity
  8
0
  6
CONTINUOUS
 62
     3
100
AcDbLine
 10
199.75
 20
172.75
 30
0.0
 11
199.75
 21
170.75
 31
0.0
  0
LINE
  5
613
330
1F
100
AcDbEntity
  8
0
  6
CONTINUOUS
 62
     3
100
AcDbLine
 10
201.75
 20
174.25
 30
0.0
 11
201.75
 21
176.25
 31
0.0
  0
LINE
  5
614
330
1F
100
AcDbEntity
  8
0
  6
CONTINUOUS
 62
     3
100
AcDbLine
 10
199.75
 20
176.25
 30
0.0
 11
203.25
 21
176.25
 31
0.0
  0
LINE
  5
615
330
1F
100
AcDbEntity
  8
0
  6
CONTINUOUS
 62
     3
100
AcDbLine
 10
203.25
 20
174.25
 30
0.0
 11
199.75
 21
174.25
 31
0.0
  0
LINE
  5
616
330
1F
100
AcDbEntity
  8
0
  6
CONTINUOUS
 62
     3
100
AcDbLine
 10
199.75
 20
176.25
 30
0.0
 11
199.75
 21
174.25
 31
0.0
  0
LINE
  5
617
330
1F
100
AcDbEntity
  8
0
  6
CONTINUOUS
 62
     3
100
AcDbLine
 10
203.25
 20
167.25
 30
0.0
 11
199.75
 21
167.25
 31
0.0
  0
LINE
  5
618
330
1F
100
AcDbEntity
  8
0
  6
CONTINUOUS
 62
     3
100
AcDbLine
 10
199.75
 20
165.75
 30
0.0
 11
203.25
 21
165.75
 31
0.0
  0
LINE
  5
619
330
1F
100
AcDbEntity
  8
0
  6
CONTINUOUS
 62
     3
100
AcDbLine
 10
202.25
 20
170.75
 30
0.0
 11
202.25
 21
169.25
 31
0.0
  0
LINE
  5
61A
330
1F
100
AcDbEntity
  8
0
  6
CONTINUOUS
 62
     3
100
AcDbLine
 10
202.25
 20
167.25
 30
0.0
 11
202.25
 21
165.75
 31
0.0
  0
LINE
  5
61B
330
1F
100
AcDbEntity
  8
0
  6
CONTINUOUS
 62
     3
100
AcDbLine
 10
199.75
 20
167.25
 30
0.0
 11
199.75
 21
165.75
 31
0.0
  0
LINE
  5
61C
330
1F
100
AcDbEntity
  8
0
  6
CONTINUOUS
 62
     3
100
AcDbLine
 10
202.25
 20
144.75
 30
0.0
 11
203.25
 21
144.75
 31
0.0
  0
LINE
  5
61D
330
1F
100
AcDbEntity
  8
0
  6
CONTINUOUS
 62
     3
100
AcDbLine
 10
202.25
 20
139.33
 30
0.0
 11
202.25
 21
139.25
 31
0.0
  0
LINE
  5
61E
330
1F
100
AcDbEntity
  8
0
  6
CONTINUOUS
 62
     3
100
AcDbLine
 10
201.75
 20
142.75
 30
0.0
 11
201.75
 21
144.75
 31
0.0
  0
LINE
  5
61F
330
1F
100
AcDbEntity
  8
0
  6
CONTINUOUS
 62
     3
100
AcDbLine
 10
201.75
 20
139.25
 30
0.0
 11
201.75
 21
141.25
 31
0.0
  0
LINE
  5
620
330
1F
100
AcDbEntity
  8
0
  6
CONTINUOUS
 62
     3
100
AcDbLine
 10
202.25
 20
148.25
 30
0.0
 11
203.25
 21
148.25
 31
0.0
  0
LINE
  5
621
330
1F
100
AcDbEntity
  8
0
  6
CONTINUOUS
 62
     3
100
AcDbLine
 10
201.75
 20
146.25
 30
0.0
 11
201.75
 21
148.25
 31
0.0
  0
LINE
  5
622
330
1F
100
AcDbEntity
  8
0
  6
CONTINUOUS
 62
     3
100
AcDbLine
 10
202.25
 20
151.75
 30
0.0
 11
203.25
 21
151.75
 31
0.0
  0
LINE
  5
623
330
1F
100
AcDbEntity
  8
0
  6
CONTINUOUS
 62
     3
100
AcDbLine
 10
201.75
 20
149.75
 30
0.0
 11
201.75
 21
151.75
 31
0.0
  0
LINE
  5
624
330
1F
100
AcDbEntity
  8
0
  6
CONTINUOUS
 62
     3
100
AcDbLine
 10
202.25
 20
155.25
 30
0.0
 11
203.25
 21
155.25
 31
0.0
  0
LINE
  5
625
330
1F
100
AcDbEntity
  8
0
  6
CONTINUOUS
 62
     3
100
AcDbLine
 10
201.75
 20
153.25
 30
0.0
 11
201.75
 21
155.25
 31
0.0
  0
LINE
  5
626
330
1F
100
AcDbEntity
  8
0
  6
CONTINUOUS
 62
     3
100
AcDbLine
 10
202.25
 20
158.75
 30
0.0
 11
203.25
 21
158.75
 31
0.0
  0
LINE
  5
627
330
1F
100
AcDbEntity
  8
0
  6
CONTINUOUS
 62
     3
100
AcDbLine
 10
201.75
 20
156.75
 30
0.0
 11
201.75
 21
158.75
 31
0.0
  0
LINE
  5
628
330
1F
100
AcDbEntity
  8
0
  6
CONTINUOUS
 62
     3
100
AcDbLine
 10
201.75
 20
160.25
 30
0.0
 11
201.75
 21
162.25
 31
0.0
  0
LINE
  5
629
330
1F
100
AcDbEntity
  8
0
  6
CONTINUOUS
 62
     3
100
AcDbLine
 10
203.25
 20
137.85
 30
0.0
 11
202.25
 21
137.85
 31
0.0
  0
LINE
  5
62A
330
1F
100
AcDbEntity
  8
0
  6
CONTINUOUS
 62
     3
100
AcDbLine
 10
202.25
 20
163.75
 30
0.0
 11
202.25
 21
162.25
 31
0.0
  0
LINE
  5
62B
330
1F
100
AcDbEntity
  8
0
  6
CONTINUOUS
 62
     3
100
AcDbLine
 10
202.25
 20
160.25
 30
0.0
 11
202.25
 21
158.75
 31
0.0
  0
LINE
  5
62C
330
1F
100
AcDbEntity
  8
0
  6
CONTINUOUS
 62
     3
100
AcDbLine
 10
202.25
 20
156.75
 30
0.0
 11
202.25
 21
155.25
 31
0.0
  0
LINE
  5
62D
330
1F
100
AcDbEntity
  8
0
  6
CONTINUOUS
 62
     3
100
AcDbLine
 10
202.25
 20
153.25
 30
0.0
 11
202.25
 21
151.75
 31
0.0
  0
LINE
  5
62E
330
1F
100
AcDbEntity
  8
0
  6
CONTINUOUS
 62
     3
100
AcDbLine
 10
202.25
 20
149.75
 30
0.0
 11
202.25
 21
148.25
 31
0.0
  0
LINE
  5
62F
330
1F
100
AcDbEntity
  8
0
  6
CONTINUOUS
 62
     3
100
AcDbLine
 10
202.25
 20
146.25
 30
0.0
 11
202.25
 21
144.75
 31
0.0
  0
LINE
  5
630
330
1F
100
AcDbEntity
  8
0
  6
CONTINUOUS
 62
     3
100
AcDbLine
 10
202.25
 20
142.75
 30
0.0
 11
202.25
 21
141.25
 31
0.0
  0
LINE
  5
631
330
1F
100
AcDbEntity
  8
0
  6
CONTINUOUS
 62
     3
100
AcDbLine
 10
202.25
 20
139.33
 30
0.0
 11
202.25
 21
137.85
 31
0.0
  0
LINE
  5
632
330
1F
100
AcDbEntity
  8
0
  6
CONTINUOUS
 62
     5
100
AcDbLine
 10
144.25
 20
185.0
 30
0.0
 11
144.25
 21
203.87
 31
0.0
  0
LINE
  5
633
330
1F
100
AcDbEntity
  8
0
  6
CONTINUOUS
 62
     5
100
AcDbLine
 10
144.25
 20
201.87
 30
0.0
 11
146.664814566
 21
201.222952387
 31
0.0
  0
LINE
  5
634
330
1F
100
AcDbEntity
  8
0
  6
CONTINUOUS
 62
     5
100
AcDbLine
 10
144.25
 20
201.87
 30
0.0
 11
146.664814566
 21
202.517047613
 31
0.0
  0
LINE
  5
635
330
1F
100
AcDbEntity
  8
0
  6
CONTINUOUS
 62
     5
100
AcDbLine
 10
144.25
 20
201.87
 30
0.0
 11
203.25
 21
201.87
 31
0.0
  0
LINE
  5
636
330
1F
100
AcDbEntity
  8
0
  6
CONTINUOUS
 62
     5
100
AcDbLine
 10
203.25
 20
201.87
 30
0.0
 11
200.835185434
 21
202.517047613
 31
0.0
  0
LINE
  5
637
330
1F
100
AcDbEntity
  8
0
  6
CONTINUOUS
 62
     5
100
AcDbLine
 10
203.25
 20
201.87
 30
0.0
 11
200.835185434
 21
201.222952387
 31
0.0
  0
LINE
  5
638
330
1F
100
AcDbEntity
  8
0
  6
CONTINUOUS
 62
     5
100
AcDbLine
 10
203.25
 20
184.0
 30
0.0
 11
203.25
 21
203.87
 31
0.0
  0
TEXT
  5
639
330
1F
100
AcDbEntity
  8
0
  6
CONTINUOUS
 62
     3
100
AcDbText
 10
167.6
 20
202.8699849995652
 30
0.0
 40
2.54523636983005
  1
５９±０．５
 41
0.6
  7
MS_PGOTHIC
 11
167.6
 21
202.3495637005715
 31
0.0
100
AcDbText
 73
     1
  0
LINE
  5
63A
330
1F
100
AcDbEntity
  8
0
  6
CONTINUOUS
 62
     2
100
AcDbLine
 10
173.55
 20
66.5
 30
0.0
 11
161.05
 21
66.5
 31
0.0
  0
LINE
  5
63B
330
1F
100
AcDbEntity
  8
0
  6
CONTINUOUS
 62
     2
100
AcDbLine
 10
161.05
 20
65.5
 30
0.0
 11
173.55
 21
65.5
 31
0.0
  0
ARC
  5
63C
330
1F
100
AcDbEntity
  8
0
  6
CONTINUOUS
 62
     2
100
AcDbCircle
 10
161.05
 20
66.5
 30
0.0
 40
1.0
100
AcDbArc
 50
180.0
 51
270.0
  0
LINE
  5
63D
330
1F
100
AcDbEntity
  8
0
  6
CONTINUOUS
 62
     2
100
AcDbLine
 10
173.55
 20
66.5
 30
0.0
 11
186.05
 21
66.5
 31
0.0
  0
LINE
  5
63E
330
1F
100
AcDbEntity
  8
0
  6
CONTINUOUS
 62
     2
100
AcDbLine
 10
186.05
 20
65.5
 30
0.0
 11
173.55
 21
65.5
 31
0.0
  0
ARC
  5
63F
330
1F
100
AcDbEntity
  8
0
  6
CONTINUOUS
 62
     2
100
AcDbCircle
 10
186.05
 20
66.5
 30
0.0
 40
1.0
100
AcDbArc
 50
270.0
 51
0.0
  0
ARC
  5
640
330
1F
100
AcDbEntity
  8
0
  6
CONTINUOUS
 62
     2
100
AcDbCircle
 10
187.05
 20
71.8
 30
0.0
 40
1.0
100
AcDbArc
 50
90.0
 51
180.0
  0
LINE
  5
641
330
1F
100
AcDbEntity
  8
0
  6
CONTINUOUS
 62
     2
100
AcDbLine
 10
186.05
 20
66.5
 30
0.0
 11
186.05
 21
71.8
 31
0.0
  0
LINE
  5
642
330
1F
100
AcDbEntity
  8
0
  6
CONTINUOUS
 62
     2
100
AcDbLine
 10
187.05
 20
71.8
 30
0.0
 11
187.05
 21
66.5
 31
0.0
  0
LINE
  5
643
330
1F
100
AcDbEntity
  8
0
  6
CONTINUOUS
 62
     2
100
AcDbLine
 10
156.05
 20
71.8
 30
0.0
 11
160.05
 21
71.8
 31
0.0
  0
LINE
  5
644
330
1F
100
AcDbEntity
  8
0
  6
CONTINUOUS
 62
     2
100
AcDbLine
 10
156.05
 20
72.8
 30
0.0
 11
156.05
 21
71.8
 31
0.0
  0
LINE
  5
645
330
1F
100
AcDbEntity
  8
0
  6
CONTINUOUS
 62
     2
100
AcDbLine
 10
156.05
 20
71.8
 30
0.0
 11
160.05
 21
71.8
 31
0.0
  0
LINE
  5
646
330
1F
100
AcDbEntity
  8
0
  6
CONTINUOUS
 62
     2
100
AcDbLine
 10
161.05
 20
66.5
 30
0.0
 11
161.05
 21
71.8
 31
0.0
  0
LINE
  5
647
330
1F
100
AcDbEntity
  8
0
  6
CONTINUOUS
 62
     2
100
AcDbLine
 10
160.05
 20
71.8
 30
0.0
 11
160.05
 21
66.5
 31
0.0
  0
ARC
  5
648
330
1F
100
AcDbEntity
  8
0
  6
CONTINUOUS
 62
     2
100
AcDbCircle
 10
160.05
 20
71.8
 30
0.0
 40
1.0
100
AcDbArc
 50
0.0
 51
90.0
  0
ARC
  5
649
330
1F
100
AcDbEntity
  8
0
  6
CONTINUOUS
 62
     2
100
AcDbCircle
 10
160.05
 20
71.8
 30
0.0
 40
1.0
100
AcDbArc
 50
0.0
 51
90.0
  0
LINE
  5
64A
330
1F
100
AcDbEntity
  8
0
  6
CONTINUOUS
 62
     2
100
AcDbLine
 10
156.05
 20
72.8
 30
0.0
 11
156.05
 21
71.8
 31
0.0
  0
LINE
  5
64B
330
1F
100
AcDbEntity
  8
0
  6
CONTINUOUS
 62
     2
100
AcDbLine
 10
156.05
 20
72.8
 30
0.0
 11
160.05
 21
72.8
 31
0.0
  0
LINE
  5
64C
330
1F
100
AcDbEntity
  8
0
  6
CONTINUOUS
 62
     2
100
AcDbLine
 10
187.05
 20
71.8
 30
0.0
 11
188.2
 21
71.8
 31
0.0
  0
LINE
  5
64D
330
1F
100
AcDbEntity
  8
0
  6
CONTINUOUS
 62
     3
100
AcDbLine
 10
191.15
 20
73.0
 30
0.0
 11
223.25
 21
73.0
 31
0.0
  0
LINE
  5
64E
330
1F
100
AcDbEntity
  8
0
  6
CONTINUOUS
 62
     2
100
AcDbLine
 10
187.05
 20
72.8
 30
0.0
 11
190.4
 21
72.8
 31
0.0
  0
LINE
  5
64F
330
1F
100
AcDbEntity
  8
0
  6
CONTINUOUS
 62
     5
100
AcDbLine
 10
172.35
 20
65.9
 30
0.0
 11
173.211015224
 21
63.552948065
 31
0.0
  0
LINE
  5
650
330
1F
100
AcDbEntity
  8
0
  6
CONTINUOUS
 62
     5
100
AcDbLine
 10
172.35
 20
65.9
 30
0.0
 11
174.269187025
 21
64.297901013
 31
0.0
  0
LINE
  5
651
330
1F
100
AcDbEntity
  8
0
  6
CONTINUOUS
 62
     5
100
AcDbLine
 10
172.35
 20
65.9
 30
0.0
 11
181.15
 21
53.4
 31
0.0
  0
LINE
  5
652
330
1F
100
AcDbEntity
  8
0
  6
CONTINUOUS
 62
     5
100
AcDbLine
 10
181.15
 20
53.4
 30
0.0
 11
207.25
 21
53.4
 31
0.0
  0
TEXT
  5
653
330
1F
100
AcDbEntity
  8
0
  6
CONTINUOUS
 62
     3
100
AcDbText
 10
181.15
 20
54.39986662331284
 30
0.0
 40
3.808418656390358
  1
ＤＩＮ　ＲＡＩＬ
 41
0.75
  7
MS_PGOTHIC
 11
181.15
 21
53.62116402116402
 31
0.0
100
AcDbText
 73
     1
  0
LINE
  5
654
330
1F
100
AcDbEntity
  8
0
  6
CONTINUOUS
 62
     2
100
AcDbLine
 10
190.4
 20
72.8
 30
0.0
 11
190.4
 21
72.2
 31
0.0
  0
LINE
  5
655
330
1F
100
AcDbEntity
  8
0
  6
CONTINUOUS
 62
     2
100
AcDbLine
 10
190.4
 20
72.2
 30
0.0
 11
188.2
 21
71.85
 31
0.0
  0
LINE
  5
656
330
1F
100
AcDbEntity
  8
0
  6
CONTINUOUS
 62
     1
100
AcDbLine
 10
154.5
 20
157.0
 30
0.0
 11
154.5
 21
136.0
 31
0.0
  0
LINE
  5
657
330
1F
100
AcDbEntity
  8
0
  6
CONTINUOUS
 62
     1
100
AcDbLine
 10
154.5
 20
177.0
 30
0.0
 11
154.5
 21
157.0
 31
0.0
  0
LINE
  5
658
330
1F
100
AcDbEntity
  8
0
  6
CONTINUOUS
 62
     1
100
AcDbLine
 10
192.5
 20
177.0
 30
0.0
 11
154.5
 21
177.0
 31
0.0
  0
LINE
  5
659
330
1F
100
AcDbEntity
  8
0
  6
CONTINUOUS
 62
     1
100
AcDbLine
 10
192.5
 20
157.0
 30
0.0
 11
192.5
 21
177.0
 31
0.0
  0
LINE
  5
65A
330
1F
100
AcDbEntity
  8
0
  6
CONTINUOUS
 62
     1
100
AcDbLine
 10
192.5
 20
136.0
 30
0.0
 11
192.5
 21
157.0
 31
0.0
  0
LINE
  5
65B
330
1F
100
AcDbEntity
  8
0
  6
CONTINUOUS
 62
     1
100
AcDbLine
 10
154.5
 20
136.0
 30
0.0
 11
192.5
 21
136.0
 31
0.0
  0
LINE
  5
65C
330
1F
100
AcDbEntity
  8
0
  6
CONTINUOUS
 62
     5
100
AcDbLine
 10
155.0
 20
73.0
 30
0.0
 11
146.0
 21
73.0
 31
0.0
  0
LINE
  5
65D
330
1F
100
AcDbEntity
  8
0
  6
CONTINUOUS
 62
     5
100
AcDbLine
 10
147.0
 20
73.0
 30
0.0
 11
147.647047613
 21
75.414814566
 31
0.0
  0
LINE
  5
65E
330
1F
100
AcDbEntity
  8
0
  6
CONTINUOUS
 62
     5
100
AcDbLine
 10
147.0
 20
73.0
 30
0.0
 11
146.352952387
 21
75.414814566
 31
0.0
  0
LINE
  5
65F
330
1F
100
AcDbEntity
  8
0
  6
CONTINUOUS
 62
     5
100
AcDbLine
 10
147.0
 20
76.75
 30
0.0
 11
147.0
 21
73.0
 31
0.0
  0
LINE
  5
660
330
1F
100
AcDbEntity
  8
0
  6
CONTINUOUS
 62
     5
100
AcDbLine
 10
147.0
 20
73.0
 30
0.0
 11
147.0
 21
69.0
 31
0.0
  0
LINE
  5
661
330
1F
100
AcDbEntity
  8
0
  6
CONTINUOUS
 62
     5
100
AcDbLine
 10
147.0
 20
69.0
 30
0.0
 11
147.0
 21
65.25
 31
0.0
  0
LINE
  5
662
330
1F
100
AcDbEntity
  8
0
  6
CONTINUOUS
 62
     5
100
AcDbLine
 10
147.0
 20
69.0
 30
0.0
 11
146.352952387
 21
66.585185434
 31
0.0
  0
LINE
  5
663
330
1F
100
AcDbEntity
  8
0
  6
CONTINUOUS
 62
     5
100
AcDbLine
 10
147.0
 20
69.0
 30
0.0
 11
147.647047613
 21
66.585185434
 31
0.0
  0
LINE
  5
664
330
1F
100
AcDbEntity
  8
0
  6
CONTINUOUS
 62
     5
100
AcDbLine
 10
147.0
 20
65.25
 30
0.0
 11
147.0
 21
60.25
 31
0.0
  0
TEXT
  5
665
330
1F
100
AcDbEntity
  8
0
  6
CONTINUOUS
 62
     3
100
AcDbText
 10
146.000100547201
 20
61.09999999999999
 30
0.0
 40
3.571430842081706
  1
（４）
 50
90.0
 41
0.6
  7
MS_PGOTHIC
 11
146.7303465471929
 21
61.09999999999999
 31
0.0
100
AcDbText
 73
     1
  0
CIRCLE
  5
666
330
1F
100
AcDbEntity
  8
0
  6
CONTINUOUS
 62
     3
100
AcDbCircle
 10
130.4119745
 20
226.847066671
 30
0.0
 40
2.0
  0
CIRCLE
  5
667
330
1F
100
AcDbEntity
  8
0
  6
CONTINUOUS
 62
     3
100
AcDbCircle
 10
130.4119745
 20
231.847066671
 30
0.0
 40
2.0
  0
POLYLINE
  5
668
330
1F
100
AcDbEntity
  8
0
  6
CONTINUOUS
 62
     3
100
AcDb2dPolyline
 66
     1
 10
0.0
 20
0.0
 30
0.0
  0
VERTEX
  5
669
330
668
100
AcDbEntity
  8
0
100
AcDbVertex
100
AcDb2dVertex
 10
127.4119745
 20
228.347066671
 30
0.0
  0
VERTEX
  5
66A
330
668
100
AcDbEntity
  8
0
100
AcDbVertex
100
AcDb2dVertex
 10
126.4119745
 20
228.347066671
 30
0.0
  0
VERTEX
  5
66B
330
668
100
AcDbEntity
  8
0
100
AcDbVertex
100
AcDb2dVertex
 10
126.4119745
 20
225.347066671
 30
0.0
  0
VERTEX
  5
66C
330
668
100
AcDbEntity
  8
0
100
AcDbVertex
100
AcDb2dVertex
 10
127.4119745
 20
225.347066671
 30
0.0
  0
VERTEX
  5
66D
330
668
100
AcDbEntity
  8
0
100
AcDbVertex
100
AcDb2dVertex
 10
127.4119745
 20
228.347066671
 30
0.0
  0
SEQEND
  5
66E
330
668
100
AcDbEntity
  8
0
  6
CONTINUOUS
 62
     3
  0
POLYLINE
  5
66F
330
1F
100
AcDbEntity
  8
0
  6
CONTINUOUS
 62
     3
100
AcDb2dPolyline
 66
     1
 10
0.0
 20
0.0
 30
0.0
  0
VERTEX
  5
670
330
66F
100
AcDbEntity
  8
0
100
AcDbVertex
100
AcDb2dVertex
 10
127.4119745
 20
233.347066671
 30
0.0
  0
VERTEX
  5
671
330
66F
100
AcDbEntity
  8
0
100
AcDbVertex
100
AcDb2dVertex
 10
126.4119745
 20
233.347066671
 30
0.0
  0
VERTEX
  5
672
330
66F
100
AcDbEntity
  8
0
100
AcDbVertex
100
AcDb2dVertex
 10
126.4119745
 20
230.347066671
 30
0.0
  0
VERTEX
  5
673
330
66F
100
AcDbEntity
  8
0
100
AcDbVertex
100
AcDb2dVertex
 10
127.4119745
 20
230.347066671
 30
0.0
  0
VERTEX
  5
674
330
66F
100
AcDbEntity
  8
0
100
AcDbVertex
100
AcDb2dVertex
 10
127.4119745
 20
233.347066671
 30
0.0
  0
SEQEND
  5
675
330
66F
100
AcDbEntity
  8
0
  6
CONTINUOUS
 62
     3
  0
LINE
  5
676
330
1F
100
AcDbEntity
  8
0
  6
CONTINUOUS
 62
     3
100
AcDbLine
 10
129.9119745
 20
229.847066671
 30
0.0
 11
129.9119745
 21
233.647066671
 31
0.0
  0
LINE
  5
677
330
1F
100
AcDbEntity
  8
0
  6
CONTINUOUS
 62
     3
100
AcDbLine
 10
130.9119745
 20
233.747066671
 30
0.0
 11
130.9119745
 21
229.847066671
 31
0.0
  0
LINE
  5
678
330
1F
100
AcDbEntity
  8
0
  6
CONTINUOUS
 62
     3
100
AcDbLine
 10
130.9119745
 20
224.847066671
 30
0.0
 11
130.9119745
 21
228.647066671
 31
0.0
  0
LINE
  5
679
330
1F
100
AcDbEntity
  8
0
  6
CONTINUOUS
 62
     3
100
AcDbLine
 10
129.9119745
 20
228.647066671
 30
0.0
 11
129.9119745
 21
224.847066671
 31
0.0
  0
LINE
  5
67A
330
1F
100
AcDbEntity
  8
0
  6
CONTINUOUS
 62
     1
100
AcDbLine
 10
192.4999392
 20
156.9999664
 30
0.0
 11
154.5
 21
156.9999664
 31
0.0
  0
LINE
  5
67B
330
1F
100
AcDbEntity
  8
0
  6
CONTINUOUS
 62
     1
100
AcDbLine
 10
154.5
 20
156.9999664
 30
0.0
 11
192.4999392
 21
156.9999664
 31
0.0
  0
LINE
  5
67C
330
1F
100
AcDbEntity
  8
0
  6
CONTINUOUS
 62
     3
100
AcDbLine
 10
118.25
 20
86.23229031
 30
0.0
 11
118.25
 21
83.23229031
 31
0.0
  0
LINE
  5
67D
330
1F
100
AcDbEntity
  8
0
  6
CONTINUOUS
 62
     3
100
AcDbLine
 10
124.25
 20
85.73229031
 30
0.0
 11
124.25
 21
83.73229031
 31
0.0
  0
LINE
  5
67E
330
1F
100
AcDbEntity
  8
0
  6
CONTINUOUS
 62
     3
100
AcDbLine
 10
118.25
 20
86.73229031
 30
0.0
 11
118.25
 21
82.73229031
 31
0.0
  0
LINE
  5
67F
330
1F
100
AcDbEntity
  8
0
  6
CONTINUOUS
 62
     3
100
AcDbLine
 10
118.25
 20
82.73229031
 30
0.0
 11
122.25
 21
82.73229031
 31
0.0
  0
LINE
  5
680
330
1F
100
AcDbEntity
  8
0
  6
CONTINUOUS
 62
     3
100
AcDbLine
 10
122.25
 20
82.73229031
 30
0.0
 11
124.25
 21
83.73229031
 31
0.0
  0
LINE
  5
681
330
1F
100
AcDbEntity
  8
0
  6
CONTINUOUS
 62
     3
100
AcDbLine
 10
124.25
 20
85.73229031
 30
0.0
 11
122.25
 21
86.73229031
 31
0.0
  0
LINE
  5
682
330
1F
100
AcDbEntity
  8
0
  6
CONTINUOUS
 62
     3
100
AcDbLine
 10
122.25
 20
86.73229031
 30
0.0
 11
118.25
 21
86.73229031
 31
0.0
  0
LINE
  5
683
330
1F
100
AcDbEntity
  8
0
  6
CONTINUOUS
 62
     3
100
AcDbLine
 10
122.25
 20
86.73229031
 30
0.0
 11
122.25
 21
82.73229031
 31
0.0
  0
ARC
  5
684
330
1F
100
AcDbEntity
  8
0
  6
CONTINUOUS
 62
     3
100
AcDbCircle
 10
101.9175
 20
92.399635721
 30
0.0
 40
6.1675
100
AcDbArc
 50
90.0
 51
270.0
  0
LINE
  5
685
330
1F
100
AcDbEntity
  8
0
  6
CONTINUOUS
 62
     3
100
AcDbLine
 10
101.9175
 20
86.232135721
 30
0.0
 11
118.25
 21
86.232376652
 31
0.0
  0
ARC
  5
686
330
1F
100
AcDbEntity
  8
0
  6
CONTINUOUS
 62
     3
100
AcDbCircle
 10
101.9175
 20
92.399635721
 30
0.0
 40
7.6675
100
AcDbArc
 50
90.0
 51
270.0
  0
LINE
  5
687
330
1F
100
AcDbEntity
  8
0
  6
CONTINUOUS
 62
     3
100
AcDbLine
 10
101.9175
 20
84.732135721
 30
0.0
 11
118.25
 21
84.732376652
 31
0.0
  0
ARC
  5
688
330
1F
100
AcDbEntity
  8
0
  6
CONTINUOUS
 62
     3
100
AcDbCircle
 10
117.4119745
 20
98.066981132
 30
0.0
 40
0.5
100
AcDbArc
 50
180.0
 51
270.0
  0
LINE
  5
689
330
1F
100
AcDbEntity
  8
0
  6
CONTINUOUS
 62
     3
100
AcDbLine
 10
117.4119745
 20
97.566981132
 30
0.0
 11
120.4119745
 21
97.566981132
 31
0.0
  0
LINE
  5
68A
330
1F
100
AcDbEntity
  8
0
  6
CONTINUOUS
 62
     3
100
AcDbLine
 10
116.9119745
 20
100.566981132
 30
0.0
 11
116.9119745
 21
98.066981132
 31
0.0
  0
LINE
  5
68B
330
1F
100
AcDbEntity
  8
0
  6
CONTINUOUS
 62
     3
100
AcDbLine
 10
120.9119745
 20
105.016981132
 30
0.0
 11
120.9119745
 21
100.016981132
 31
0.0
  0
ARC
  5
68C
330
1F
100
AcDbEntity
  8
0
  6
CONTINUOUS
 62
     3
100
AcDbCircle
 10
117.4119745
 20
100.566981132
 30
0.0
 40
0.5
100
AcDbArc
 50
90.0
 51
180.0
  0
ARC
  5
68D
330
1F
100
AcDbEntity
  8
0
  6
CONTINUOUS
 62
     3
100
AcDbCircle
 10
120.4119745
 20
101.566981132
 30
0.0
 40
0.5
100
AcDbArc
 50
270.0
 51
0.0
  0
LINE
  5
68E
330
1F
100
AcDbEntity
  8
0
  6
CONTINUOUS
 62
     3
100
AcDbLine
 10
117.4119745
 20
101.066981132
 30
0.0
 11
120.4119745
 21
101.066981132
 31
0.0
  0
ARC
  5
68F
330
1F
100
AcDbEntity
  8
0
  6
CONTINUOUS
 62
     3
100
AcDbCircle
 10
121.4119745
 20
105.016981132
 30
0.0
 40
0.5
100
AcDbArc
 50
90.0
 51
180.0
  0
LINE
  5
690
330
1F
100
AcDbEntity
  8
0
  6
CONTINUOUS
 62
     3
100
AcDbLine
 10
121.4119745
 20
105.516981132
 30
0.0
 11
131.9119745
 21
105.516981132
 31
0.0
  0
ARC
  5
691
330
1F
100
AcDbEntity
  8
0
  6
CONTINUOUS
 62
     3
100
AcDbCircle
 10
121.4119745
 20
100.016981132
 30
0.0
 40
0.5
100
AcDbArc
 50
180.0
 51
270.0
  0
LINE
  5
692
330
1F
100
AcDbEntity
  8
0
  6
CONTINUOUS
 62
     3
100
AcDbLine
 10
131.9119745
 20
104.716981132
 30
0.0
 11
131.9119745
 21
105.516981132
 31
0.0
  0
LINE
  5
693
330
1F
100
AcDbEntity
  8
0
  6
CONTINUOUS
 62
     3
100
AcDbLine
 10
134.75
 20
103.716981132
 30
0.0
 11
131.9119745
 21
103.716981132
 31
0.0
  0
LINE
  5
694
330
1F
100
AcDbEntity
  8
0
  6
CONTINUOUS
 62
     3
100
AcDbLine
 10
134.75
 20
104.716981132
 30
0.0
 11
131.9119745
 21
104.716981132
 31
0.0
  0
LINE
  5
695
330
1F
100
AcDbEntity
  8
0
  6
CONTINUOUS
 62
     3
100
AcDbLine
 10
121.4119745
 20
99.516981132
 30
0.0
 11
131.9119745
 21
99.516981132
 31
0.0
  0
LINE
  5
696
330
1F
100
AcDbEntity
  8
0
  6
CONTINUOUS
 62
     3
100
AcDbLine
 10
120.9119745
 20
98.266981132
 30
0.0
 11
120.9119745
 21
98.066981132
 31
0.0
  0
ARC
  5
697
330
1F
100
AcDbEntity
  8
0
  6
CONTINUOUS
 62
     3
100
AcDbCircle
 10
121.1619745
 20
98.266981132
 30
0.0
 40
0.25
100
AcDbArc
 50
90.0
 51
180.0
  0
ARC
  5
698
330
1F
100
AcDbEntity
  8
0
  6
CONTINUOUS
 62
     3
100
AcDbCircle
 10
131.4119745
 20
99.016981132
 30
0.0
 40
0.5
100
AcDbArc
 50
270.0
 51
0.0
  0
LINE
  5
699
330
1F
100
AcDbEntity
  8
0
  6
CONTINUOUS
 62
     3
100
AcDbLine
 10
131.4119745
 20
98.516981132
 30
0.0
 11
121.1619745
 21
98.516981132
 31
0.0
  0
ARC
  5
69A
330
1F
100
AcDbEntity
  8
0
  6
CONTINUOUS
 62
     3
100
AcDbCircle
 10
120.4119745
 20
98.066981132
 30
0.0
 40
0.5
100
AcDbArc
 50
270.0
 51
0.0
  0
LINE
  5
69B
330
1F
100
AcDbEntity
  8
0
  6
CONTINUOUS
 62
     3
100
AcDbLine
 10
131.9119745
 20
99.016981132
 30
0.0
 11
131.9119745
 21
104.716981132
 31
0.0
  0
LINE
  5
69C
330
1F
100
AcDbEntity
  8
0
  6
CONTINUOUS
 62
     3
100
AcDbLine
 10
116.9119745
 20
98.566981132
 30
0.0
 11
101.9175
 21
98.567135721
 31
0.0
  0
LINE
  5
69D
330
1F
100
AcDbEntity
  8
0
  6
CONTINUOUS
 62
     3
100
AcDbLine
 10
116.9119745
 20
100.066981132
 30
0.0
 11
101.9175
 21
100.067135721
 31
0.0
  0
LINE
  5
69E
330
1F
100
AcDbEntity
  8
0
  6
CONTINUOUS
 62
     5
100
AcDbLine
 10
79.25
 20
184.0
 30
0.0
 11
78.602952387
 21
181.585185434
 31
0.0
  0
LINE
  5
69F
330
1F
100
AcDbEntity
  8
0
  6
CONTINUOUS
 62
     5
100
AcDbLine
 10
79.25
 20
184.0
 30
0.0
 11
79.897047613
 21
181.585185434
 31
0.0
  0
LINE
  5
6A0
330
1F
100
AcDbEntity
  8
0
  6
CONTINUOUS
 62
     5
100
AcDbLine
 10
79.25
 20
184.0
 30
0.0
 11
79.25
 21
69.0
 31
0.0
  0
LINE
  5
6A1
330
1F
100
AcDbEntity
  8
0
  6
CONTINUOUS
 62
     5
100
AcDbLine
 10
79.25
 20
69.0
 30
0.0
 11
79.897047613
 21
71.414814566
 31
0.0
  0
LINE
  5
6A2
330
1F
100
AcDbEntity
  8
0
  6
CONTINUOUS
 62
     5
100
AcDbLine
 10
79.25
 20
69.0
 30
0.0
 11
78.602952387
 21
71.414814566
 31
0.0
  0
TEXT
  5
6A3
330
1F
100
AcDbEntity
  8
0
  6
CONTINUOUS
 62
     3
100
AcDbText
 10
78.2500590551811
 20
119.3
 30
0.0
 40
2.585649490356445
  1
１１５±０．５
 50
90.0
 41
0.6
  7
MS_PGOTHIC
 11
78.77874357441242
 21
119.3
 31
0.0
100
AcDbText
 73
     1
  0
LINE
  5
6A4
330
1F
100
AcDbEntity
  8
0
  6
CONTINUOUS
 62
     5
100
AcDbLine
 10
107.25
 20
69.0
 30
0.0
 11
78.25
 21
69.0
 31
0.0
  0
LINE
  5
6A5
330
1F
100
AcDbEntity
  8
0
  6
CONTINUOUS
 62
     5
100
AcDbLine
 10
78.25
 20
184.0
 30
0.0
 11
107.25
 21
184.0
 31
0.0
  0
LINE
  5
6A6
330
1F
100
AcDbEntity
  8
0
  6
CONTINUOUS
 62
     5
100
AcDbLine
 10
94.25
 20
88.35
 30
0.0
 11
94.25
 21
73.35
 31
0.0
  0
LINE
  5
6A7
330
1F
100
AcDbEntity
  8
0
  6
CONTINUOUS
 62
     5
100
AcDbLine
 10
94.25
 20
74.35
 30
0.0
 11
96.664814566
 21
73.702952387
 31
0.0
  0
LINE
  5
6A8
330
1F
100
AcDbEntity
  8
0
  6
CONTINUOUS
 62
     5
100
AcDbLine
 10
94.25
 20
74.35
 30
0.0
 11
96.664814566
 21
74.997047613
 31
0.0
  0
LINE
  5
6A9
330
1F
100
AcDbEntity
  8
0
  6
CONTINUOUS
 62
     5
100
AcDbLine
 10
124.25
 20
74.37
 30
0.0
 11
121.835185434
 21
75.017047613
 31
0.0
  0
LINE
  5
6AA
330
1F
100
AcDbEntity
  8
0
  6
CONTINUOUS
 62
     5
100
AcDbLine
 10
124.25
 20
74.37
 30
0.0
 11
121.835185434
 21
73.722952387
 31
0.0
  0
LINE
  5
6AB
330
1F
100
AcDbEntity
  8
0
  6
CONTINUOUS
 62
     5
100
AcDbLine
 10
94.25
 20
74.35
 30
0.0
 11
124.25
 21
74.37
 31
0.0
  0
TEXT
  5
6AC
330
1F
100
AcDbEntity
  8
0
  6
CONTINUOUS
 62
     3
100
AcDbText
 10
103.1
 20
75.36993417243582
 30
0.0
 40
2.491178665018587
  1
３５ｍａｘ
 41
0.6
  7
MS_PGOTHIC
 11
103.1
 21
74.8605659847728
 31
0.0
100
AcDbText
 73
     1
  0
LINE
  5
6AD
330
1F
100
AcDbEntity
  8
0
  6
CONTINUOUS
 62
     3
100
AcDbLine
 10
46.25
 20
79.25
 30
0.0
 11
58.75
 21
79.25
 31
0.0
  0
LINE
  5
6AE
330
1F
100
AcDbEntity
  8
0
  6
CONTINUOUS
 62
     3
100
AcDbLine
 10
57.5
 20
79.75
 30
0.0
 11
47.5
 21
79.75
 31
0.0
  0
LINE
  5
6AF
330
1F
100
AcDbEntity
  8
0
  6
CONTINUOUS
 62
     3
100
AcDbLine
 10
47.5
 20
80.25
 30
0.0
 11
57.5
 21
80.25
 31
0.0
  0
LINE
  5
6B0
330
1F
100
AcDbEntity
  8
0
  6
CONTINUOUS
 62
     3
100
AcDbLine
 10
57.5
 20
80.75
 30
0.0
 11
47.5
 21
80.75
 31
0.0
  0
LINE
  5
6B1
330
1F
100
AcDbEntity
  8
0
  6
CONTINUOUS
 62
     3
100
AcDbLine
 10
47.5
 20
86.75
 30
0.0
 11
57.5
 21
86.75
 31
0.0
  0
LINE
  5
6B2
330
1F
100
AcDbEntity
  8
0
  6
CONTINUOUS
 62
     3
100
AcDbLine
 10
47.5
 20
87.25
 30
0.0
 11
57.5
 21
87.25
 31
0.0
  0
LINE
  5
6B3
330
1F
100
AcDbEntity
  8
0
  6
CONTINUOUS
 62
     3
100
AcDbLine
 10
57.5
 20
87.25
 30
0.0
 11
57.5
 21
91.25
 31
0.0
  0
LINE
  5
6B4
330
1F
100
AcDbEntity
  8
0
  6
CONTINUOUS
 62
     3
100
AcDbLine
 10
54.0
 20
82.25
 30
0.0
 11
56.0
 21
82.25
 31
0.0
  0
LINE
  5
6B5
330
1F
100
AcDbEntity
  8
0
  6
CONTINUOUS
 62
     3
100
AcDbLine
 10
54.0
 20
85.75
 30
0.0
 11
56.0
 21
85.75
 31
0.0
  0
LINE
  5
6B6
330
1F
100
AcDbEntity
  8
0
  6
CONTINUOUS
 62
     3
100
AcDbLine
 10
53.5
 20
81.25
 30
0.0
 11
53.0
 21
81.25
 31
0.0
  0
LINE
  5
6B7
330
1F
100
AcDbEntity
  8
0
  6
CONTINUOUS
 62
     3
100
AcDbLine
 10
53.5
 20
81.25
 30
0.0
 11
57.0
 21
81.25
 31
0.0
  0
LINE
  5
6B8
330
1F
100
AcDbEntity
  8
0
  6
CONTINUOUS
 62
     3
100
AcDbLine
 10
56.5
 20
86.25
 30
0.0
 11
53.5
 21
86.25
 31
0.0
  0
LINE
  5
6B9
330
1F
100
AcDbEntity
  8
0
  6
CONTINUOUS
 62
     3
100
AcDbLine
 10
53.5
 20
86.25
 30
0.0
 11
53.0
 21
81.25
 31
0.0
  0
LINE
  5
6BA
330
1F
100
AcDbEntity
  8
0
  6
CONTINUOUS
 62
     3
100
AcDbLine
 10
56.5
 20
86.25
 30
0.0
 11
57.0
 21
81.25
 31
0.0
  0
LINE
  5
6BB
330
1F
100
AcDbEntity
  8
0
  6
CONTINUOUS
 62
     3
100
AcDbLine
 10
54.0
 20
82.25
 30
0.0
 11
53.0
 21
81.25
 31
0.0
  0
LINE
  5
6BC
330
1F
100
AcDbEntity
  8
0
  6
CONTINUOUS
 62
     3
100
AcDbLine
 10
56.0
 20
82.25
 30
0.0
 11
57.0
 21
81.25
 31
0.0
  0
LINE
  5
6BD
330
1F
100
AcDbEntity
  8
0
  6
CONTINUOUS
 62
     3
100
AcDbLine
 10
56.0
 20
82.25
 30
0.0
 11
56.0
 21
85.75
 31
0.0
  0
LINE
  5
6BE
330
1F
100
AcDbEntity
  8
0
  6
CONTINUOUS
 62
     3
100
AcDbLine
 10
54.0
 20
85.75
 30
0.0
 11
54.0
 21
82.25
 31
0.0
  0
LINE
  5
6BF
330
1F
100
AcDbEntity
  8
0
  6
CONTINUOUS
 62
     3
100
AcDbLine
 10
54.0
 20
85.75
 30
0.0
 11
53.5
 21
86.35
 31
0.0
  0
LINE
  5
6C0
330
1F
100
AcDbEntity
  8
0
  6
CONTINUOUS
 62
     3
100
AcDbLine
 10
56.0
 20
85.75
 30
0.0
 11
56.5
 21
86.25
 31
0.0
  0
LINE
  5
6C1
330
1F
100
AcDbEntity
  8
0
  6
CONTINUOUS
 62
     3
100
AcDbLine
 10
49.0
 20
82.25
 30
0.0
 11
51.0
 21
82.25
 31
0.0
  0
LINE
  5
6C2
330
1F
100
AcDbEntity
  8
0
  6
CONTINUOUS
 62
     3
100
AcDbLine
 10
49.0
 20
85.75
 30
0.0
 11
51.0
 21
85.75
 31
0.0
  0
LINE
  5
6C3
330
1F
100
AcDbEntity
  8
0
  6
CONTINUOUS
 62
     3
100
AcDbLine
 10
48.5
 20
81.25
 30
0.0
 11
48.0
 21
81.25
 31
0.0
  0
LINE
  5
6C4
330
1F
100
AcDbEntity
  8
0
  6
CONTINUOUS
 62
     3
100
AcDbLine
 10
48.5
 20
81.25
 30
0.0
 11
52.0
 21
81.25
 31
0.0
  0
LINE
  5
6C5
330
1F
100
AcDbEntity
  8
0
  6
CONTINUOUS
 62
     3
100
AcDbLine
 10
51.5
 20
86.25
 30
0.0
 11
48.5
 21
86.25
 31
0.0
  0
LINE
  5
6C6
330
1F
100
AcDbEntity
  8
0
  6
CONTINUOUS
 62
     3
100
AcDbLine
 10
48.5
 20
86.25
 30
0.0
 11
48.0
 21
81.25
 31
0.0
  0
LINE
  5
6C7
330
1F
100
AcDbEntity
  8
0
  6
CONTINUOUS
 62
     3
100
AcDbLine
 10
51.5
 20
86.25
 30
0.0
 11
52.0
 21
81.25
 31
0.0
  0
LINE
  5
6C8
330
1F
100
AcDbEntity
  8
0
  6
CONTINUOUS
 62
     3
100
AcDbLine
 10
49.0
 20
82.25
 30
0.0
 11
48.0
 21
81.25
 31
0.0
  0
LINE
  5
6C9
330
1F
100
AcDbEntity
  8
0
  6
CONTINUOUS
 62
     3
100
AcDbLine
 10
51.0
 20
82.25
 30
0.0
 11
52.0
 21
81.25
 31
0.0
  0
LINE
  5
6CA
330
1F
100
AcDbEntity
  8
0
  6
CONTINUOUS
 62
     3
100
AcDbLine
 10
51.0
 20
82.25
 30
0.0
 11
51.0
 21
85.75
 31
0.0
  0
LINE
  5
6CB
330
1F
100
AcDbEntity
  8
0
  6
CONTINUOUS
 62
     3
100
AcDbLine
 10
49.0
 20
85.75
 30
0.0
 11
49.0
 21
82.25
 31
0.0
  0
LINE
  5
6CC
330
1F
100
AcDbEntity
  8
0
  6
CONTINUOUS
 62
     3
100
AcDbLine
 10
49.0
 20
85.75
 30
0.0
 11
48.5
 21
86.35
 31
0.0
  0
LINE
  5
6CD
330
1F
100
AcDbEntity
  8
0
  6
CONTINUOUS
 62
     3
100
AcDbLine
 10
51.0
 20
85.75
 30
0.0
 11
51.5
 21
86.25
 31
0.0
  0
LINE
  5
6CE
330
1F
100
AcDbEntity
  8
0
  6
CONTINUOUS
 62
     3
100
AcDbLine
 10
47.5
 20
87.25
 30
0.0
 11
57.5
 21
87.25
 31
0.0
  0
LINE
  5
6CF
330
1F
100
AcDbEntity
  8
0
  6
CONTINUOUS
 62
     3
100
AcDbLine
 10
57.5
 20
87.25
 30
0.0
 11
57.5
 21
91.25
 31
0.0
  0
LINE
  5
6D0
330
1F
100
AcDbEntity
  8
0
  6
CONTINUOUS
 62
     3
100
AcDbLine
 10
47.5
 20
87.25
 30
0.0
 11
57.5
 21
87.25
 31
0.0
  0
LINE
  5
6D1
330
1F
100
AcDbEntity
  8
0
  6
CONTINUOUS
 62
     3
100
AcDbLine
 10
57.5
 20
87.25
 30
0.0
 11
57.5
 21
91.25
 31
0.0
  0
LINE
  5
6D2
330
1F
100
AcDbEntity
  8
0
  6
CONTINUOUS
 62
     3
100
AcDbLine
 10
47.5
 20
73.0
 30
0.0
 11
57.5
 21
73.0
 31
0.0
  0
LINE
  5
6D3
330
1F
100
AcDbEntity
  8
0
  6
CONTINUOUS
 62
     5
100
AcDbLine
 10
124.4119745
 20
102.316981132
 30
0.0
 11
112.8119745
 21
116.416981132
 31
0.0
  0
TEXT
  5
6D4
330
1F
100
AcDbEntity
  8
0
  6
CONTINUOUS
 62
     3
100
AcDbText
 10
99.2
 20
117.3700219968185
 30
0.0
 40
1.978714426900591
  1
ＴＣＪセンサは□Ｃのみ取り付け
 41
0.6
  7
MS_PGOTHIC
 11
99.2
 21
116.9654367313432
 31
0.0
100
AcDbText
 73
     1
  0
LINE
  5
6D5
330
1F
100
AcDbEntity
  8
0
  6
CONTINUOUS
 62
     5
100
AcDbLine
 10
330.3375
 20
176.15
 30
0.0
 11
339.8375
 21
193.55
 31
0.0
  0
LINE
  5
6D6
330
1F
100
AcDbEntity
  8
0
  6
CONTINUOUS
 62
     5
100
AcDbLine
 10
343.0375
 20
141.35
 30
0.0
 11
376.5375
 21
158.35
 31
0.0
  0
TEXT
  5
6D7
330
1F
100
AcDbEntity
  8
0
  6
CONTINUOUS
 62
     3
100
AcDbText
 10
333.7
 20
194.5000259675002
 30
0.0
 40
1.928832085118429
  1
スイッチラベルは、□Ｂおよび□Ｍのみ貼り付け
 41
0.6
  7
MS_PGOTHIC
 11
333.7
 21
194.1056400820961
 31
0.0
100
AcDbText
 73
     1
  0
TEXT
  5
6D8
330
1F
100
AcDbEntity
  8
0
  6
CONTINUOUS
 62
     3
100
AcDbText
 10
374.8375
 20
159.05004244157
 30
0.0
 40
1.815321311872201
  1
角穴は□Ｂおよび□Ｍのみ
 41
0.6
  7
MS_PGOTHIC
 11
374.8375
 21
158.6788659620831
 31
0.0
100
AcDbText
 73
     1
  0
TEXT
  5
6D9
330
1F
100
AcDbEntity
  8
0
  6
CONTINUOUS
 62
     3
100
AcDbText
 10
49.0
 20
88.21136393865437
 30
0.0
 40
2.063485544303342
  1
２
 41
0.666666667
  7
MS_PGOTHIC
 11
49.0
 21
87.7894456287676
 31
0.0
100
AcDbText
 73
     1
  0
TEXT
  5
6DA
330
1F
100
AcDbEntity
  8
0
  6
CONTINUOUS
 62
     3
100
AcDbText
 10
54.0
 20
88.21093147428351
 30
0.0
 40
2.061370480897026
  1
１
 41
0.666666667
  7
MS_PGOTHIC
 11
54.0
 21
87.7894456287676
 31
0.0
100
AcDbText
 73
     1
  0
LINE
  5
6DB
330
1F
100
AcDbEntity
  8
0
  6
CONTINUOUS
 62
     5
100
AcDbLine
 10
52.4
 20
84.25
 30
0.0
 11
66.0
 21
58.25
 31
0.0
  0
TEXT
  5
6DC
330
1F
100
AcDbEntity
  8
0
  6
CONTINUOUS
 62
     3
100
AcDbText
 10
58.1
 20
54.36996076569662
 30
0.0
 40
2.122533347558425
  1
□Ｘ、□Ｆ、□Ｍ、□Ｅはコネクタなし
 41
0.6
  7
MS_PGOTHIC
 11
58.1
 21
53.93596902528803
 31
0.0
100
AcDbText
 73
     1
  0
TEXT
  5
6DD
330
1F
100
AcDbEntity
  8
6
  6
CONTINUOUS
 62
     3
100
AcDbText
 10
149.4623970498876
 20
224.697066671
 30
0.0
 40
2.250377240262236
  1
　１
 50
90.0
 41
0.666666667
  7
MS_PGOTHIC
 11
149.9225288712325
 21
224.697066671
 31
0.0
100
AcDbText
 73
     1
  0
TEXT
  5
6DE
330
1F
100
AcDbEntity
  8
6
  6
CONTINUOUS
 62
     3
100
AcDbText
 10
149.4619265520705
 20
229.447066671
 30
0.0
 40
2.110916116588883
  1
　２
 50
90.0
 41
0.666666667
  7
MS_PGOTHIC
 11
149.8935429317843
 21
229.447066671
 31
0.0
100
AcDbText
 73
     1
  0
VIEWPORT
  5
6DF
330
1B
100
AcDbEntity
 67
     1
  8
0
100
AcDbViewport
 68
     1
 10
0.0
 20
0.0
 30
0.0
 40
362.6128396006532
 41
213.5721484383546
 68
     1
 69
     1
1001
ACAD
1000
MVIEW
1002
{
1070
    16
1010
0.0
1020
0.0
1030
0.0
1010
0.0
1020
0.0
1030
1.0
1040
0.0
1040
213.5721484383546
1040
183.4159921571751
1040
112.1387606113604
1040
50.0
1040
0.0
1040
0.0
1070
     0
1070
   100
1070
     0
1070
     3
1070
     0
1070
     0
1070
     0
1070
     0
1040
0.0
1040
0.0
1040
0.0
1040
0.5
1040
0.5
1040
0.5
1040
0.5
1070
     0
1002
{
1002
}
1002
}
  0
POLYLINE
  5
6E1
102
{ACAD_REACTORS
102
}
330
1B
100
AcDbEntity
 67
     1
  8
RCVIEWPORTFRAME
100
AcDb2dPolyline
 66
     1
 10
0.0
 20
0.0
 30
0.0
 70
     1
  0
VERTEX
  5
6E2
330
6E1
100
AcDbEntity
 67
     1
  8
RCVIEWPORTFRAME
100
AcDbVertex
100
AcDb2dVertex
 10
5.664600196070666
 20
7.446530984715999
 30
0.0
  0
VERTEX
  5
6E3
330
6E1
100
AcDbEntity
 67
     1
  8
RCVIEWPORTFRAME
100
AcDbVertex
100
AcDb2dVertex
 10
361.1673841182796
 20
7.446530984715999
 30
0.0
  0
VERTEX
  5
6E4
330
6E1
100
AcDbEntity
 67
     1
  8
RCVIEWPORTFRAME
100
AcDbVertex
100
AcDb2dVertex
 10
361.1673841182796
 20
216.8309902380048
 30
0.0
  0
VERTEX
  5
6E5
330
6E1
100
AcDbEntity
 67
     1
  8
RCVIEWPORTFRAME
100
AcDbVertex
100
AcDb2dVertex
 10
5.664600196070666
 20
216.8309902380048
 30
0.0
  0
SEQEND
  5
6E6
330
6E1
100
AcDbEntity
 67
     1
  8
RCVIEWPORTFRAME
  0
VIEWPORT
  5
6E7
330
1B
100
AcDbEntity
 67
     1
  8
0
100
AcDbViewport
 68
     2
 10
183.4159921571751
 20
112.1387606113604
 30
0.0
 40
355.502783922209
 41
209.3844592532888
 68
     2
 69
     2
1001
ACAD
1000
MVIEW
1002
{
1070
    16
1010
0.0
1020
0.0
1030
0.0
1010
0.0
1020
0.0
1030
1.0
1040
0.0
1040
209.3844592532888
1040
219.6008901670436
1040
155.5387606113604
1040
50.0
1040
0.0
1040
0.0
1070
     0
1070
   100
1070
     0
1070
     3
1070
     0
1070
     0
1070
     0
1070
     0
1040
0.0
1040
0.0
1040
0.0
1040
0.5
1040
0.5
1040
0.5
1040
0.5
1070
     0
1002
{
1002
}
1002
}
  0
ENDSEC
  0
SECTION
  2
OBJECTS
  0
DICTIONARY
  5
C
330
0
100
AcDbDictionary
  3
ACAD_GROUP
350
D
  3
ACAD_IMAGE_VARS
350
6B
  3
ACAD_LAYOUT
350
1A
  3
ACAD_MATERIAL
350
43
  3
ACAD_MLEADERSTYLE
350
6EB
  3
ACAD_MLINESTYLE
350
17
  3
ACAD_PLOTSETTINGS
350
19
  3
ACAD_SCALELIST
350
47
  3
ACAD_VISUALSTYLE
350
2A
  3
ACDBVARIABLEDICTIONARY
350
6E9
1001
ACAD
1000
TREAT_AS_HARD
1070
     0
  0
DICTIONARY
  5
D
102
{ACAD_REACTORS
330
C
102
}
330
C
100
AcDbDictionary
1001
ACAD
1000
TREAT_AS_HARD
1070
     0
  0
RASTERVARIABLES
  5
6B
102
{ACAD_REACTORS
330
C
102
}
330
C
100
AcDbRasterVariables
 90
        0
 70
     0
 71
     1
 72
     0
  0
DICTIONARY
  5
1A
102
{ACAD_REACTORS
330
C
102
}
330
C
100
AcDbDictionary
1001
ACAD
1000
TREAT_AS_HARD
1070
     0
  0
DICTIONARY
  5
43
102
{ACAD_REACTORS
330
C
102
}
330
C
100
AcDbDictionary
  3
BYBLOCK
350
45
  3
BYLAYER
350
44
  3
GLOBAL
350
46
1001
ACAD
1000
TREAT_AS_HARD
1070
     0
  0
DICTIONARY
  5
6EB
102
{ACAD_REACTORS
330
C
102
}
330
C
100
AcDbDictionary
1001
ACAD
1000
TREAT_AS_HARD
1070
     0
  0
DICTIONARY
  5
17
102
{ACAD_REACTORS
330
C
102
}
330
C
100
AcDbDictionary
  3
STANDARD
350
18
1001
ACAD
1000
TREAT_AS_HARD
1070
     0
  0
DICTIONARY
  5
19
102
{ACAD_REACTORS
330
C
102
}
330
C
100
AcDbDictionary
1001
ACAD
1000
TREAT_AS_HARD
1070
     0
  0
DICTIONARY
  5
47
102
{ACAD_REACTORS
330
C
102
}
330
C
100
AcDbDictionary
  3
A0
350
48
  3
A1
350
49
  3
A2
350
4A
  3
A3
350
4B
  3
A4
350
4C
  3
A5
350
4D
  3
A6
350
4E
  3
A7
350
4F
  3
A8
350
50
  3
A9
350
51
  3
B0
350
52
  3
B1
350
53
  3
B2
350
54
  3
B3
350
55
  3
B4
350
56
  3
B5
350
57
  3
B6
350
58
  3
B7
350
59
  3
B8
350
5A
  3
B9
350
5B
  3
C0
350
5C
  3
C1
350
5D
  3
C2
350
5E
  3
C3
350
5F
  3
C4
350
60
  3
C5
350
61
  3
C6
350
62
  3
C7
350
63
  3
C8
350
64
  3
C9
350
65
  3
D0
350
66
  3
D1
350
67
  3
D2
350
68
1001
ACAD
1000
TREAT_AS_HARD
1070
     0
  0
DICTIONARY
  5
2A
102
{ACAD_REACTORS
330
C
102
}
330
C
100
AcDbDictionary
  3
2DWIREFRAME
350
2F
  3
BASIC
350
32
  3
BRIGHTEN
350
36
  3
COLORCHANGE
350
3A
  3
CONCEPTUAL
350
34
  3
DIM
350
35
  3
EDGECOLOROFF
350
3D
  3
FACEPATTERN
350
39
  3
FLAT
350
2B
  3
FLATWITHEDGES
350
2C
  3
GOURAUD
350
2D
  3
GOURAUDWITHEDGES
350
2E
  3
HIDDEN
350
31
  3
JITTEROFF
350
3B
  3
LINEPATTERN
350
38
  3
OVERHANGOFF
350
3C
  3
REALISTIC
350
33
  3
SHADED
350
42
  3
SHADED_WITH_EDGES
350
41
  3
SHADES_OF_GRAY
350
3E
  3
SKETCHY
350
3F
  3
THICKEN
350
37
  3
WIREFRAME
350
30
  3
X-RAY
350
40
1001
ACAD
1000
TREAT_AS_HARD
1070
     0
  0
DICTIONARY
  5
6E9
102
{ACAD_REACTORS
330
C
102
}
330
C
100
AcDbDictionary
  3
CANNOSCALE
350
6F0
  3
DIMASSOC
350
6EE
  3
HIDETEXT
350
6EF
  3
MSLTSCALE
350
6F1
1001
ACAD
1000
TREAT_AS_HARD
1070
     0
  0
MATERIAL
  5
45
102
{ACAD_REACTORS
330
43
102
}
102
{ACAD_XDICTIONARY
360
6F4
102
}
330
43
100
AcDbMaterial
  1
BYBLOCK
  0
MATERIAL
  5
44
102
{ACAD_REACTORS
330
43
102
}
102
{ACAD_XDICTIONARY
360
6F2
102
}
330
43
100
AcDbMaterial
  1
BYLAYER
  0
MATERIAL
  5
46
102
{ACAD_REACTORS
330
43
102
}
102
{ACAD_XDICTIONARY
360
6F6
102
}
330
43
100
AcDbMaterial
  1
GLOBAL
  0
MLINESTYLE
  5
18
102
{ACAD_REACTORS
330
17
102
}
330
17
100
AcDbMlineStyle
  2
Standard
 70
     0
  3

 62
   256
 51
90.0
 52
90.0
 71
     2
 49
0.5
 62
   256
  6
BYLAYER
 49
-0.5
 62
   256
  6
BYLAYER
  0
ACAD_PROXY_OBJECT
  5
48
102
{ACAD_REACTORS
330
47
102
}
330
47
100
AcDbZombieObject
 90
      499
 91
      503
 93
       41
310
903313A31580
  0
ACAD_PROXY_OBJECT
  5
49
102
{ACAD_REACTORS
330
47
102
}
330
47
100
AcDbZombieObject
 90
      499
 91
      503
 93
      105
310
903313A324000000000000004000
  0
ACAD_PROXY_OBJECT
  5
4A
102
{ACAD_REACTORS
330
47
102
}
330
47
100
AcDbZombieObject
 90
      499
 91
      503
 93
      105
310
903313A344000000000000104000
  0
ACAD_PROXY_OBJECT
  5
4B
102
{ACAD_REACTORS
330
47
102
}
330
47
100
AcDbZombieObject
 90
      499
 91
      503
 93
      105
310
903313A354000000000000144000
  0
ACAD_PROXY_OBJECT
  5
4C
102
{ACAD_REACTORS
330
47
102
}
330
47
100
AcDbZombieObject
 90
      499
 91
      503
 93
      105
310
903313A384000000000000204000
  0
ACAD_PROXY_OBJECT
  5
4D
102
{ACAD_REACTORS
330
47
102
}
330
47
100
AcDbZombieObject
 90
      499
 91
      503
 93
      113
310
904313A31304000000000000244000
  0
ACAD_PROXY_OBJECT
  5
4E
102
{ACAD_REACTORS
330
47
102
}
330
47
100
AcDbZombieObject
 90
      499
 91
      503
 93
      113
310
904313A31364000000000000304000
  0
ACAD_PROXY_OBJECT
  5
4F
102
{ACAD_REACTORS
330
47
102
}
330
47
100
AcDbZombieObject
 90
      499
 91
      503
 93
      113
310
904313A32304000000000000344000
  0
ACAD_PROXY_OBJECT
  5
50
102
{ACAD_REACTORS
330
47
102
}
330
47
100
AcDbZombieObject
 90
      499
 91
      503
 93
      113
310
904313A333040000000000003E4000
  0
ACAD_PROXY_OBJECT
  5
51
102
{ACAD_REACTORS
330
47
102
}
330
47
100
AcDbZombieObject
 90
      499
 91
      503
 93
      113
310
904313A34304000000000000444000
  0
ACAD_PROXY_OBJECT
  5
52
102
{ACAD_REACTORS
330
47
102
}
330
47
100
AcDbZombieObject
 90
      499
 91
      503
 93
      113
310
904313A35304000000000000494000
  0
ACAD_PROXY_OBJECT
  5
53
102
{ACAD_REACTORS
330
47
102
}
330
47
100
AcDbZombieObject
 90
      499
 91
      503
 93
      121
310
905313A3130304000000000000594000
  0
ACAD_PROXY_OBJECT
  5
54
102
{ACAD_REACTORS
330
47
102
}
330
47
100
AcDbZombieObject
 90
      499
 91
      503
 93
      105
310
903323A310000000000000010100
  0
ACAD_PROXY_OBJECT
  5
55
102
{ACAD_REACTORS
330
47
102
}
330
47
100
AcDbZombieObject
 90
      499
 91
      503
 93
      105
310
903343A310000000000000410100
  0
ACAD_PROXY_OBJECT
  5
56
102
{ACAD_REACTORS
330
47
102
}
330
47
100
AcDbZombieObject
 90
      499
 91
      503
 93
      105
310
903383A310000000000000810100
  0
ACAD_PROXY_OBJECT
  5
57
102
{ACAD_REACTORS
330
47
102
}
330
47
100
AcDbZombieObject
 90
      499
 91
      503
 93
      113
310
90431303A310000000000000910100
  0
ACAD_PROXY_OBJECT
  5
58
102
{ACAD_REACTORS
330
47
102
}
330
47
100
AcDbZombieObject
 90
      499
 91
      503
 93
      121
310
9053130303A310000000000001650100
  0
ACAD_PROXY_OBJECT
  5
59
102
{ACAD_REACTORS
330
47
102
}
330
47
100
AcDbZombieObject
 90
      499
 91
      503
 93
      257
310
90E312F31323822203D2031272D3022000000000000200FC000000000000284000
  0
ACAD_PROXY_OBJECT
  5
5A
102
{ACAD_REACTORS
330
47
102
}
330
47
100
AcDbZombieObject
 90
      499
 91
      503
 93
      249
310
90D312F363422203D2031272D3022000000000000240FC000000000000284000
  0
ACAD_PROXY_OBJECT
  5
5B
102
{ACAD_REACTORS
330
47
102
}
330
47
100
AcDbZombieObject
 90
      499
 91
      503
 93
      249
310
90D312F333222203D2031272D3022000000000000280FC000000000000284000
  0
ACAD_PROXY_OBJECT
  5
5C
102
{ACAD_REACTORS
330
47
102
}
330
47
100
AcDbZombieObject
 90
      499
 91
      503
 93
      249
310
90D312F313622203D2031272D30220000000000002C0FC000000000000284000
  0
ACAD_PROXY_OBJECT
  5
5D
102
{ACAD_REACTORS
330
47
102
}
330
47
100
AcDbZombieObject
 90
      499
 91
      503
 93
      249
310
90D332F333222203D2031272D30220000000000002E0FC000000000000284000
  0
ACAD_PROXY_OBJECT
  5
5E
102
{ACAD_REACTORS
330
47
102
}
330
47
100
AcDbZombieObject
 90
      499
 91
      503
 93
      241
310
90C312F3822203D2031272D3022000000000000300FC000000000000284000
  0
ACAD_PROXY_OBJECT
  5
5F
102
{ACAD_REACTORS
330
47
102
}
330
47
100
AcDbZombieObject
 90
      499
 91
      503
 93
      249
310
90D332F313622203D2031272D3022000000000000320FC000000000000284000
  0
ACAD_PROXY_OBJECT
  5
60
102
{ACAD_REACTORS
330
47
102
}
330
47
100
AcDbZombieObject
 90
      499
 91
      503
 93
      241
310
90C312F3422203D2031272D3022000000000000340FC000000000000284000
  0
ACAD_PROXY_OBJECT
  5
61
102
{ACAD_REACTORS
330
47
102
}
330
47
100
AcDbZombieObject
 90
      499
 91
      503
 93
      241
310
90C332F3822203D2031272D3022000000000000360FC000000000000284000
  0
ACAD_PROXY_OBJECT
  5
62
102
{ACAD_REACTORS
330
47
102
}
330
47
100
AcDbZombieObject
 90
      499
 91
      503
 93
      241
310
90C312F3222203D2031272D3022000000000000380FC000000000000284000
  0
ACAD_PROXY_OBJECT
  5
63
102
{ACAD_REACTORS
330
47
102
}
330
47
100
AcDbZombieObject
 90
      499
 91
      503
 93
      241
310
90C332F3422203D2031272D30220000000000003A0FC000000000000284000
  0
ACAD_PROXY_OBJECT
  5
64
102
{ACAD_REACTORS
330
47
102
}
330
47
100
AcDbZombieObject
 90
      499
 91
      503
 93
      161
310
90A3122203D2031272D30224000000000000284000
  0
ACAD_PROXY_OBJECT
  5
65
102
{ACAD_REACTORS
330
47
102
}
330
47
100
AcDbZombieObject
 90
      499
 91
      503
 93
      257
310
90E312D312F3222203D2031272D30220000000000003E0FC000000000000284000
  0
ACAD_PROXY_OBJECT
  5
66
102
{ACAD_REACTORS
330
47
102
}
330
47
100
AcDbZombieObject
 90
      499
 91
      503
 93
      225
310
90A3322203D2031272D302200000000000002100000000000000284000
  0
ACAD_PROXY_OBJECT
  5
67
102
{ACAD_REACTORS
330
47
102
}
330
47
100
AcDbZombieObject
 90
      499
 91
      503
 93
      225
310
90A3622203D2031272D302200000000000006100000000000000284000
  0
ACAD_PROXY_OBJECT
  5
68
102
{ACAD_REACTORS
330
47
102
}
330
47
100
AcDbZombieObject
 90
      499
 91
      503
 93
      249
310
90D31272D3022203D2031272D30220000000000000A100000000000000284000
  0
ACAD_PROXY_OBJECT
  5
2F
102
{ACAD_REACTORS
330
2A
102
}
330
2A
100
AcDbZombieObject
 90
      499
 91
      501
 93
      436
310
42CC9915DA5C99599C985B595049028333333333333E33F0000000000000F90107901411070040501600405405064090741402480A0340
1001
ACAD
1000
AcDbSavedByObjectVersion
1070
     0
  0
ACAD_PROXY_OBJECT
  5
32
102
{ACAD_REACTORS
330
2A
102
}
330
2A
100
AcDbZombieObject
 90
      499
 91
      501
 93
      388
310
4150985CDA58D07406404333333333333E33F0000000000000F90107A41107004050150841D405064090741402480A0350
1001
ACAD
1000
AcDbSavedByObjectVersion
1070
     0
  0
ACAD_PROXY_OBJECT
  5
36
102
{ACAD_REACTORS
330
2A
102
}
330
2A
100
AcDbZombieObject
 90
      499
 91
      501
 93
      428
310
42109C9A59DA1D195B90C409028333333333333E33F0000000000000F9010790141107004050150841D405064090741402480A029950
1001
ACAD
1000
AcDbSavedByObjectVersion
1070
     0
  0
ACAD_PROXY_OBJECT
  5
3A
102
{ACAD_REACTORS
330
2A
102
}
330
2A
100
AcDbZombieObject
 90
      499
 91
      501
 93
      452
310
42D0DBDB1BDC90DA185B99D95104090240C333333333333E33F0000000000000F90108901411070040501508421405064090741402480A0350
1001
ACAD
1000
AcDbSavedByObjectVersion
1070
     0
  0
ACAD_PROXY_OBJECT
  5
34
102
{ACAD_REACTORS
330
2A
102
}
330
2A
100
AcDbZombieObject
 90
      499
 91
      501
 93
      500
310
4290DBDB98D95C1D1D585B10940D028333333333333E33F0000000000000F90107902409070040501000000000018199010841D405064090740C02480A0340
1001
ACAD
1000
AcDbSavedByObjectVersion
1070
     0
  0
ACAD_PROXY_OBJECT
  5
35
102
{ACAD_REACTORS
330
2A
102
}
330
2A
100
AcDbZombieObject
 90
      499
 91
      501
 93
      412
310
40D11A5B50B409028333333333333E33F0000000000000F9010790141107004050150841D405064090741402480A02677FFFFFD0
1001
ACAD
1000
AcDbSavedByObjectVersion
1070
     0
  0
ACAD_PROXY_OBJECT
  5
3D
102
{ACAD_REACTORS
330
2A
102
}
330
2A
100
AcDbZombieObject
 90
      499
 91
      501
 93
      452
310
43115919D950DBDB1BDC93D999916409028333333333333E33F0000000000000F9010790141107004050150841D405064090741402480A0350
1001
ACAD
1000
AcDbSavedByObjectVersion
1070
     0
  0
ACAD_PROXY_OBJECT
  5
39
102
{ACAD_REACTORS
330
2A
102
}
330
2A
100
AcDbZombieObject
 90
      499
 91
      501
 93
      444
310
42D19858D95C185D1D195C9B90F409028333333333333E33F0000000000000F9010790141107004050150841D405064090741402480A0350
1001
ACAD
1000
AcDbSavedByObjectVersion
1070
     0
  0
ACAD_PROXY_OBJECT
  5
2B
102
{ACAD_REACTORS
330
2A
102
}
330
2A
100
AcDbZombieObject
 90
      499
 91
      501
 93
      380
310
41119B185D240901404333333333333E33F0000000000000F9010740A907004050150841D405064090741402480A1B50
1001
ACAD
1000
AcDbSavedByObjectVersion
1070
     0
  0
ACAD_PROXY_OBJECT
  5
2C
102
{ACAD_REACTORS
330
2A
102
}
330
2A
100
AcDbZombieObject
 90
      499
 91
      501
 93
      468
310
43519B185D15DA5D1A115919D95CD0140901404333333333333E33F0000000000000F90107409019070040501600405405064090741402480A1B50
1001
ACAD
1000
AcDbSavedByObjectVersion
1070
     0
  0
ACAD_PROXY_OBJECT
  5
2D
102
{ACAD_REACTORS
330
2A
102
}
330
2A
100
AcDbZombieObject
 90
      499
 91
      501
 93
      404
310
41D1DBDD5C985D5910240902404333333333333E33F0000000000000F9010740A9070040501641D405064090741402480A1B50
1001
ACAD
1000
AcDbSavedByObjectVersion
1070
     0
  0
ACAD_PROXY_OBJECT
  5
2E
102
{ACAD_REACTORS
330
2A
102
}
330
2A
100
AcDbZombieObject
 90
      499
 91
      501
 93
      492
310
4411DBDD5C985D5915DA5D1A115919D95CD0340902404333333333333E33F0000000000000F90107409019070040501600405405064090741402480A1B50
1001
ACAD
1000
AcDbSavedByObjectVersion
1070
     0
  0
ACAD_PROXY_OBJECT
  5
31
102
{ACAD_REACTORS
330
2A
102
}
330
2A
100
AcDbZombieObject
 90
      499
 91
      501
 93
      476
310
41921A5919195B90640502408333333333333E33F0000000000000F901079024090700405020000000000001110200405405064090740C02480A0340
1001
ACAD
1000
AcDbSavedByObjectVersion
1070
     0
  0
ACAD_PROXY_OBJECT
  5
3B
102
{ACAD_REACTORS
330
2A
102
}
330
2A
100
AcDbZombieObject
 90
      499
 91
      501
 93
      428
310
42529A5D1D195C93D999914409028333333333333E33F0000000000000F9010790141107004050150A41D405064090741402480A0350
1001
ACAD
1000
AcDbSavedByObjectVersion
1070
     0
  0
ACAD_PROXY_OBJECT
  5
38
102
{ACAD_REACTORS
330
2A
102
}
330
2A
100
AcDbZombieObject
 90
      499
 91
      501
 93
      444
310
42D31A5B995C185D1D195C9B90E409028333333333333E33F0000000000000F9010790141107004050750841D405064090741402483A0350
1001
ACAD
1000
AcDbSavedByObjectVersion
1070
     0
  0
ACAD_PROXY_OBJECT
  5
3C
102
{ACAD_REACTORS
330
2A
102
}
330
2A
100
AcDbZombieObject
 90
      499
 91
      501
 93
      444
310
42D3DD995C9A185B99D3D999915409028333333333333E33F0000000000000F9010790141107004050150941D405064090741402480A0350
1001
ACAD
1000
AcDbSavedByObjectVersion
1070
     0
  0
ACAD_PROXY_OBJECT
  5
33
102
{ACAD_REACTORS
330
2A
102
}
330
2A
100
AcDbZombieObject
 90
      499
 91
      501
 93
      428
310
425499585B1A5CDD1A58D08409038333333333333E33F0000000000000F9010740A907004050150800405405064090740C02480A1B40
1001
ACAD
1000
AcDbSavedByObjectVersion
1070
     0
  0
ACAD_PROXY_OBJECT
  5
42
102
{ACAD_REACTORS
330
2A
102
}
330
2A
100
AcDbZombieObject
 90
      499
 91
      501
 93
      420
310
4194DA1859195911B40902404333333333333E33F0000000000000F9010740A41107004050150800405405064090840C02480A0B40
1001
ACAD
1000
AcDbSavedByObjectVersion
1070
     0
  0
ACAD_PROXY_OBJECT
  5
41
102
{ACAD_REACTORS
330
2A
102
}
330
2A
100
AcDbZombieObject
 90
      499
 91
      501
 93
      516
310
4454DA18591959081DDA5D1A08195919D95CD1A40902404333333333333E33F0000000000000F901074090142907004050250800405405064090740C02480A0B40
1001
ACAD
1000
AcDbSavedByObjectVersion
1070
     0
  0
ACAD_PROXY_OBJECT
  5
3E
102
{ACAD_REACTORS
330
2A
102
}
330
2A
100
AcDbZombieObject
 90
      499
 91
      501
 93
      532
310
4394DA1859195CC81BD98811DC985E5174090240C333333333333E33F0000000000000F901079024090741D01000000000000111010841D405064090740C02480A0340
1001
ACAD
1000
AcDbSavedByObjectVersion
1070
     0
  0
ACAD_PROXY_OBJECT
  5
3F
102
{ACAD_REACTORS
330
2A
102
}
330
2A
100
AcDbZombieObject
 90
      499
 91
      501
 93
      476
310
41D4DAD95D18DA1E51840502408333333333333E33F0000000000000F901079024090741D01000000000000111010B41D405064090741802480A0340
1001
ACAD
1000
AcDbSavedByObjectVersion
1070
     0
  0
ACAD_PROXY_OBJECT
  5
37
102
{ACAD_REACTORS
330
2A
102
}
330
2A
100
AcDbZombieObject
 90
      499
 91
      501
 93
      412
310
41D51A1A58DAD95B90D409028333333333333E33F0000000000000F9010790141107004050150C41D405064090741402480A0350
1001
ACAD
1000
AcDbSavedByObjectVersion
1070
     0
  0
ACAD_PROXY_OBJECT
  5
30
102
{ACAD_REACTORS
330
2A
102
}
330
2A
100
AcDbZombieObject
 90
      499
 91
      501
 93
      420
310
4255DA5C99599C985B595059028333333333333E33F0000000000000F90107901411070040501600405405064090740C02480A0340
1001
ACAD
1000
AcDbSavedByObjectVersion
1070
     0
  0
ACAD_PROXY_OBJECT
  5
40
102
{ACAD_REACTORS
330
2A
102
}
330
2A
100
AcDbZombieObject
 90
      499
 91
      501
 93
      404
310
41560B54985E51940902404000000000000E03F0000000000000F9010740501907004050150841D405064090740C02480A1B40
1001
ACAD
1000
AcDbSavedByObjectVersion
1070
     0
  0
DICTIONARYVAR
  5
6F0
102
{ACAD_REACTORS
330
6E9
102
}
330
6E9
100
DictionaryVariables
280
     0
  1
1:1
  0
DICTIONARYVAR
  5
6EE
102
{ACAD_REACTORS
330
6E9
102
}
330
6E9
100
DictionaryVariables
280
     0
  1
2
  0
DICTIONARYVAR
  5
6EF
102
{ACAD_REACTORS
330
6E9
102
}
330
6E9
100
DictionaryVariables
280
     0
  1
1
  0
DICTIONARYVAR
  5
6F1
102
{ACAD_REACTORS
330
6E9
102
}
330
6E9
100
DictionaryVariables
280
     0
  1
1
  0
DICTIONARY
  5
6F4
330
45
100
AcDbDictionary
  3
ACAD_XREC_ROUNDTRIP
360
6F5
1001
ACAD
1000
TREAT_AS_HARD
1070
     1
  0
DICTIONARY
  5
6F2
330
44
100
AcDbDictionary
  3
ACAD_XREC_ROUNDTRIP
360
6F3
1001
ACAD
1000
TREAT_AS_HARD
1070
     1
  0
DICTIONARY
  5
6F6
330
46
100
AcDbDictionary
  3
ACAD_XREC_ROUNDTRIP
360
6F7
1001
ACAD
1000
TREAT_AS_HARD
1070
     1
  0
XRECORD
  5
6F5
102
{ACAD_REACTORS
330
6F4
102
}
330
6F4
100
AcDbXrecord
102
MATERIAL
148
0.0
149
0.0
149
0.0
 93
        0
 94
      127
282
     0
 72
     1
 77
     1
171
     1
175
     1
179
     1
273
     0
  0
XRECORD
  5
6F3
102
{ACAD_REACTORS
330
6F2
102
}
330
6F2
100
AcDbXrecord
102
MATERIAL
148
0.0
149
0.0
149
0.0
 93
        0
 94
      127
282
     0
 72
     1
 77
     1
171
     1
175
     1
179
     1
273
     0
  0
XRECORD
  5
6F7
102
{ACAD_REACTORS
330
6F6
102
}
330
6F6
100
AcDbXrecord
102
MATERIAL
148
0.0
149
0.0
149
0.0
 93
        0
 94
      127
282
     0
 72
     1
 77
     1
171
     1
175
     1
179
     1
273
     0
  0
ENDSEC
  0
EOF
