  0
SECTION
  2
HEADER
  9
$ACADVER
  1
AC1015
  9
$ACADMAINTVER
 70
     6
  9
$DWGCODEPAGE
  3
ANSI_932
  9
$INSBASE
 10
0.0
 20
0.0
 30
0.0
  9
$EXTMIN
 10
-1.470580238991736E+63
 20
-5.941616374145985E+73
 30
0.0
  9
$EXTMAX
 10
3.141492651413534E+99
 20
1.269263905633295E+99
 30
0.3
  9
$LIMMIN
 10
0.0
 20
0.0
  9
$LIMMAX
 10
420.0
 20
297.0
  9
$ORTHOMODE
 70
     0
  9
$REGENMODE
 70
     1
  9
$FILLMODE
 70
     1
  9
$QTEXTMODE
 70
     0
  9
$MIRRTEXT
 70
     1
  9
$LTSCALE
 40
1.0
  9
$ATTMODE
 70
     1
  9
$TEXTSIZE
 40
0.2
  9
$TRACEWID
 40
0.05
  9
$TEXTSTYLE
  7
STANDARD
  9
$CLAYER
  8
0
  9
$CELTYPE
  6
CONTINUOUS
  9
$CECOLOR
 62
   256
  9
$CELTSCALE
 40
1.0
  9
$DISPSILH
 70
     0
  9
$DIMSCALE
 40
1.0
  9
$DIMASZ
 40
0.18
  9
$DIMEXO
 40
0.0625
  9
$DIMDLI
 40
0.38
  9
$DIMRND
 40
0.0
  9
$DIMDLE
 40
0.0
  9
$DIMEXE
 40
0.18
  9
$DIMTP
 40
0.0
  9
$DIMTM
 40
0.0
  9
$DIMTXT
 40
0.18
  9
$DIMCEN
 40
0.09
  9
$DIMTSZ
 40
0.0
  9
$DIMTOL
 70
     0
  9
$DIMLIM
 70
     0
  9
$DIMTIH
 70
     1
  9
$DIMTOH
 70
     1
  9
$DIMSE1
 70
     0
  9
$DIMSE2
 70
     0
  9
$DIMTAD
 70
     0
  9
$DIMZIN
 70
     0
  9
$DIMBLK
  1

  9
$DIMASO
 70
     1
  9
$DIMSHO
 70
     1
  9
$DIMPOST
  1

  9
$DIMAPOST
  1

  9
$DIMALT
 70
     0
  9
$DIMALTD
 70
     2
  9
$DIMALTF
 40
25.4
  9
$DIMLFAC
 40
1.0
  9
$DIMTOFL
 70
     0
  9
$DIMTVP
 40
0.0
  9
$DIMTIX
 70
     0
  9
$DIMSOXD
 70
     0
  9
$DIMSAH
 70
     0
  9
$DIMBLK1
  1

  9
$DIMBLK2
  1

  9
$DIMSTYLE
  2
Standard
  9
$DIMCLRD
 70
     0
  9
$DIMCLRE
 70
     0
  9
$DIMCLRT
 70
     0
  9
$DIMTFAC
 40
1.0
  9
$DIMGAP
 40
0.09
  9
$DIMJUST
 70
     0
  9
$DIMSD1
 70
     0
  9
$DIMSD2
 70
     0
  9
$DIMTOLJ
 70
     1
  9
$DIMTZIN
 70
     0
  9
$DIMALTZ
 70
     0
  9
$DIMALTTZ
 70
     0
  9
$DIMUPT
 70
     0
  9
$DIMDEC
 70
     4
  9
$DIMTDEC
 70
     4
  9
$DIMALTU
 70
     2
  9
$DIMALTTD
 70
     2
  9
$DIMTXSTY
  7
STANDARD
  9
$DIMAUNIT
 70
     0
  9
$DIMADEC
 70
     0
  9
$DIMALTRND
 40
0.0
  9
$DIMAZIN
 70
     0
  9
$DIMDSEP
 70
    46
  9
$DIMATFIT
 70
     3
  9
$DIMFRAC
 70
     0
  9
$DIMLDRBLK
  1

  9
$DIMLUNIT
 70
     2
  9
$DIMLWD
 70
    -2
  9
$DIMLWE
 70
    -2
  9
$DIMTMOVE
 70
     0
  9
$LUNITS
 70
     2
  9
$LUPREC
 70
     4
  9
$SKETCHINC
 40
0.1
  9
$FILLETRAD
 40
0.0
  9
$AUNITS
 70
     0
  9
$AUPREC
 70
     0
  9
$MENU
  1
.
  9
$ELEVATION
 40
0.0
  9
$PELEVATION
 40
0.0
  9
$THICKNESS
 40
0.0
  9
$LIMCHECK
 70
     0
  9
$CHAMFERA
 40
0.0
  9
$CHAMFERB
 40
0.0
  9
$CHAMFERC
 40
0.0
  9
$CHAMFERD
 40
0.0
  9
$SKPOLY
 70
     0
  9
$TDCREATE
 40
2452699.475570139
  9
$TDUCREATE
 40
2452699.100570139
  9
$TDUPDATE
 40
2452705.785652546
  9
$TDUUPDATE
 40
2452705.410652546
  9
$TDINDWG
 40
0.0195105324
  9
$TDUSRTIMER
 40
0.0195105324
  9
$USRTIMER
 70
     1
  9
$ANGBASE
 50
0.0
  9
$ANGDIR
 70
     0
  9
$PDMODE
 70
     0
  9
$PDSIZE
 40
0.0
  9
$PLINEWID
 40
0.0
  9
$SPLFRAME
 70
     0
  9
$SPLINETYPE
 70
     6
  9
$SPLINESEGS
 70
     8
  9
$HANDSEED
  5
4A3
  9
$SURFTAB1
 70
     6
  9
$SURFTAB2
 70
     6
  9
$SURFTYPE
 70
     6
  9
$SURFU
 70
     6
  9
$SURFV
 70
     6
  9
$UCSBASE
  2

  9
$UCSNAME
  2

  9
$UCSORG
 10
0.0
 20
0.0
 30
0.0
  9
$UCSXDIR
 10
1.0
 20
0.0
 30
0.0
  9
$UCSYDIR
 10
0.0
 20
1.0
 30
0.0
  9
$UCSORTHOREF
  2

  9
$UCSORTHOVIEW
 70
     0
  9
$UCSORGTOP
 10
0.0
 20
0.0
 30
0.0
  9
$UCSORGBOTTOM
 10
0.0
 20
0.0
 30
0.0
  9
$UCSORGLEFT
 10
0.0
 20
0.0
 30
0.0
  9
$UCSORGRIGHT
 10
0.0
 20
0.0
 30
0.0
  9
$UCSORGFRONT
 10
0.0
 20
0.0
 30
0.0
  9
$UCSORGBACK
 10
0.0
 20
0.0
 30
0.0
  9
$PUCSBASE
  2

  9
$PUCSNAME
  2

  9
$PUCSORG
 10
0.0
 20
0.0
 30
0.0
  9
$PUCSXDIR
 10
1.0
 20
0.0
 30
0.0
  9
$PUCSYDIR
 10
0.0
 20
1.0
 30
0.0
  9
$PUCSORTHOREF
  2

  9
$PUCSORTHOVIEW
 70
     0
  9
$PUCSORGTOP
 10
0.0
 20
0.0
 30
0.0
  9
$PUCSORGBOTTOM
 10
0.0
 20
0.0
 30
0.0
  9
$PUCSORGLEFT
 10
0.0
 20
0.0
 30
0.0
  9
$PUCSORGRIGHT
 10
0.0
 20
0.0
 30
0.0
  9
$PUCSORGFRONT
 10
0.0
 20
0.0
 30
0.0
  9
$PUCSORGBACK
 10
0.0
 20
0.0
 30
0.0
  9
$USERI1
 70
     0
  9
$USERI2
 70
     0
  9
$USERI3
 70
     0
  9
$USERI4
 70
     0
  9
$USERI5
 70
     0
  9
$USERR1
 40
0.0
  9
$USERR2
 40
0.0
  9
$USERR3
 40
0.0
  9
$USERR4
 40
0.0
  9
$USERR5
 40
0.0
  9
$WORLDVIEW
 70
     1
  9
$SHADEDGE
 70
     3
  9
$SHADEDIF
 70
    70
  9
$TILEMODE
 70
     1
  9
$MAXACTVP
 70
    64
  9
$PINSBASE
 10
0.0
 20
0.0
 30
0.0
  9
$PLIMCHECK
 70
     0
  9
$PEXTMIN
 10
1.000000000000000E+20
 20
1.000000000000000E+20
 30
1.000000000000000E+20
  9
$PEXTMAX
 10
-1.000000000000000E+20
 20
-1.000000000000000E+20
 30
-1.000000000000000E+20
  9
$PLIMMIN
 10
0.0
 20
0.0
  9
$PLIMMAX
 10
12.0
 20
9.0
  9
$UNITMODE
 70
     0
  9
$VISRETAIN
 70
     1
  9
$PLINEGEN
 70
     0
  9
$PSLTSCALE
 70
     1
  9
$TREEDEPTH
 70
  3020
  9
$CMLSTYLE
  2
Standard
  9
$CMLJUST
 70
     0
  9
$CMLSCALE
 40
1.0
  9
$PROXYGRAPHICS
 70
     1
  9
$MEASUREMENT
 70
     0
  9
$CELWEIGHT
370
    -1
  9
$ENDCAPS
280
     0
  9
$JOINSTYLE
280
     0
  9
$LWDISPLAY
290
     0
  9
$INSUNITS
 70
     0
  9
$HYPERLINKBASE
  1

  9
$STYLESHEET
  1

  9
$XEDIT
290
     1
  9
$CEPSNTYPE
380
     0
  9
$PSTYLEMODE
290
     1
  9
$FINGERPRINTGUID
  2
{F304ED37-8D25-4425-9860-0B5D63BC8A13}
  9
$VERSIONGUID
  2
{254EA06D-ADB3-4758-AE73-DD083C856BF3}
  9
$EXTNAMES
290
     1
  9
$PSVPSCALE
 40
0.0
  9
$OLESTARTUP
290
     0
  0
ENDSEC
  0
SECTION
  2
CLASSES
  0
CLASS
  1
ACDBDICTIONARYWDFLT
  2
AcDbDictionaryWithDefault
  3
AutoCAD 2000
 90
        0
280
     0
281
     0
  0
CLASS
  1
ACDBPLACEHOLDER
  2
AcDbPlaceHolder
  3
AutoCAD 2000
 90
        0
280
     0
281
     0
  0
CLASS
  1
LAYOUT
  2
AcDbLayout
  3
AutoCAD 2000
 90
        0
280
     0
281
     0
  0
ENDSEC
  0
SECTION
  2
TABLES
  0
TABLE
  2
VPORT
  5
8
330
0
100
AcDbSymbolTable
 70
     2
  0
VPORT
  5
4A2
330
8
100
AcDbSymbolTableRecord
100
AcDbViewportTableRecord
  2
*Active
 70
     0
 10
0.0
 20
0.0
 11
1.0
 21
1.0
 12
-217.7996195590805
 22
-84.05998294218798
 13
0.0
 23
0.0
 14
1.0
 24
1.0
 15
0.0
 25
0.0
 16
0.0
 26
0.0
 36
1.0
 17
0.0
 27
0.0
 37
0.0
 40
287.9999998937742
 41
1.761278195488721
 42
50.0
 43
0.0
 44
0.0
 50
0.0
 51
0.0
 71
     0
 72
   100
 73
     1
 74
     1
 75
     0
 76
     0
 77
     0
 78
     0
281
     0
 65
     1
110
0.0
120
0.0
130
0.0
111
1.0
121
0.0
131
0.0
112
0.0
122
1.0
132
0.0
 79
     0
146
0.0
  0
ENDTAB
  0
TABLE
  2
LTYPE
  5
5
330
0
100
AcDbSymbolTable
 70
     2
  0
LTYPE
  5
13
330
5
100
AcDbSymbolTableRecord
100
AcDbLinetypeTableRecord
  2
ByBlock
 70
     0
  3

 72
    65
 73
     0
 40
0.0
  0
LTYPE
  5
14
330
5
100
AcDbSymbolTableRecord
100
AcDbLinetypeTableRecord
  2
ByLayer
 70
     0
  3

 72
    65
 73
     0
 40
0.0
  0
LTYPE
  5
15
330
5
100
AcDbSymbolTableRecord
100
AcDbLinetypeTableRecord
  2
CONTINUOUS
 70
     0
  3
Solid line
 72
    65
 73
     0
 40
0.0
  0
LTYPE
  5
22
330
5
100
AcDbSymbolTableRecord
100
AcDbLinetypeTableRecord
  2
LTYPE1
 70
     0
  3
HIDDEN
 72
    65
 73
     2
 40
3.0
 49
1.8
 74
     0
 49
-1.199999999999999
 74
     0
  0
ENDTAB
  0
TABLE
  2
LAYER
  5
2
330
0
100
AcDbSymbolTable
 70
   128
  0
LAYER
  5
10
330
2
100
AcDbSymbolTableRecord
100
AcDbLayerTableRecord
  2
0
 70
     0
 62
     7
  6
CONTINUOUS
370
    -3
390
F
  0
LAYER
  5
23
330
2
100
AcDbSymbolTableRecord
100
AcDbLayerTableRecord
  2
1
 70
     0
 62
     7
  6
CONTINUOUS
370
    -3
390
F
  0
LAYER
  5
24
330
2
100
AcDbSymbolTableRecord
100
AcDbLayerTableRecord
  2
2
 70
     0
 62
     7
  6
CONTINUOUS
370
    -3
390
F
  0
LAYER
  5
25
330
2
100
AcDbSymbolTableRecord
100
AcDbLayerTableRecord
  2
3
 70
     0
 62
     7
  6
CONTINUOUS
370
    -3
390
F
  0
LAYER
  5
26
330
2
100
AcDbSymbolTableRecord
100
AcDbLayerTableRecord
  2
4
 70
     0
 62
     7
  6
CONTINUOUS
370
    -3
390
F
  0
LAYER
  5
27
330
2
100
AcDbSymbolTableRecord
100
AcDbLayerTableRecord
  2
5
 70
     0
 62
     7
  6
CONTINUOUS
370
    -3
390
F
  0
LAYER
  5
28
330
2
100
AcDbSymbolTableRecord
100
AcDbLayerTableRecord
  2
6
 70
     0
 62
     7
  6
CONTINUOUS
370
    -3
390
F
  0
LAYER
  5
29
330
2
100
AcDbSymbolTableRecord
100
AcDbLayerTableRecord
  2
7
 70
     0
 62
     7
  6
CONTINUOUS
370
    -3
390
F
  0
LAYER
  5
2A
330
2
100
AcDbSymbolTableRecord
100
AcDbLayerTableRecord
  2
8
 70
     0
 62
     7
  6
CONTINUOUS
370
    -3
390
F
  0
LAYER
  5
2B
330
2
100
AcDbSymbolTableRecord
100
AcDbLayerTableRecord
  2
9
 70
     0
 62
     7
  6
CONTINUOUS
370
    -3
390
F
  0
LAYER
  5
2C
330
2
100
AcDbSymbolTableRecord
100
AcDbLayerTableRecord
  2
10
 70
     0
 62
     7
  6
CONTINUOUS
370
    -3
390
F
  0
LAYER
  5
2D
330
2
100
AcDbSymbolTableRecord
100
AcDbLayerTableRecord
  2
11
 70
     0
 62
     7
  6
CONTINUOUS
370
    -3
390
F
  0
LAYER
  5
2E
330
2
100
AcDbSymbolTableRecord
100
AcDbLayerTableRecord
  2
12
 70
     0
 62
     7
  6
CONTINUOUS
370
    -3
390
F
  0
LAYER
  5
2F
330
2
100
AcDbSymbolTableRecord
100
AcDbLayerTableRecord
  2
13
 70
     0
 62
     7
  6
CONTINUOUS
370
    -3
390
F
  0
LAYER
  5
30
330
2
100
AcDbSymbolTableRecord
100
AcDbLayerTableRecord
  2
14
 70
     0
 62
     7
  6
CONTINUOUS
370
    -3
390
F
  0
LAYER
  5
31
330
2
100
AcDbSymbolTableRecord
100
AcDbLayerTableRecord
  2
15
 70
     0
 62
     7
  6
CONTINUOUS
370
    -3
390
F
  0
LAYER
  5
32
330
2
100
AcDbSymbolTableRecord
100
AcDbLayerTableRecord
  2
16
 70
     0
 62
     7
  6
CONTINUOUS
370
    -3
390
F
  0
LAYER
  5
33
330
2
100
AcDbSymbolTableRecord
100
AcDbLayerTableRecord
  2
17
 70
     0
 62
     7
  6
CONTINUOUS
370
    -3
390
F
  0
LAYER
  5
34
330
2
100
AcDbSymbolTableRecord
100
AcDbLayerTableRecord
  2
18
 70
     0
 62
     7
  6
CONTINUOUS
370
    -3
390
F
  0
LAYER
  5
35
330
2
100
AcDbSymbolTableRecord
100
AcDbLayerTableRecord
  2
19
 70
     0
 62
     7
  6
CONTINUOUS
370
    -3
390
F
  0
LAYER
  5
36
330
2
100
AcDbSymbolTableRecord
100
AcDbLayerTableRecord
  2
20
 70
     0
 62
     7
  6
CONTINUOUS
370
    -3
390
F
  0
LAYER
  5
37
330
2
100
AcDbSymbolTableRecord
100
AcDbLayerTableRecord
  2
21
 70
     0
 62
     7
  6
CONTINUOUS
370
    -3
390
F
  0
LAYER
  5
38
330
2
100
AcDbSymbolTableRecord
100
AcDbLayerTableRecord
  2
22
 70
     0
 62
     7
  6
CONTINUOUS
370
    -3
390
F
  0
LAYER
  5
39
330
2
100
AcDbSymbolTableRecord
100
AcDbLayerTableRecord
  2
23
 70
     0
 62
     7
  6
CONTINUOUS
370
    -3
390
F
  0
LAYER
  5
3A
330
2
100
AcDbSymbolTableRecord
100
AcDbLayerTableRecord
  2
24
 70
     0
 62
     7
  6
CONTINUOUS
370
    -3
390
F
  0
LAYER
  5
3B
330
2
100
AcDbSymbolTableRecord
100
AcDbLayerTableRecord
  2
25
 70
     0
 62
     7
  6
CONTINUOUS
370
    -3
390
F
  0
LAYER
  5
3C
330
2
100
AcDbSymbolTableRecord
100
AcDbLayerTableRecord
  2
26
 70
     0
 62
     7
  6
CONTINUOUS
370
    -3
390
F
  0
LAYER
  5
3D
330
2
100
AcDbSymbolTableRecord
100
AcDbLayerTableRecord
  2
27
 70
     0
 62
     7
  6
CONTINUOUS
370
    -3
390
F
  0
LAYER
  5
3E
330
2
100
AcDbSymbolTableRecord
100
AcDbLayerTableRecord
  2
28
 70
     0
 62
     7
  6
CONTINUOUS
370
    -3
390
F
  0
LAYER
  5
3F
330
2
100
AcDbSymbolTableRecord
100
AcDbLayerTableRecord
  2
29
 70
     0
 62
     7
  6
CONTINUOUS
370
    -3
390
F
  0
LAYER
  5
40
330
2
100
AcDbSymbolTableRecord
100
AcDbLayerTableRecord
  2
30
 70
     0
 62
     7
  6
CONTINUOUS
370
    -3
390
F
  0
LAYER
  5
41
330
2
100
AcDbSymbolTableRecord
100
AcDbLayerTableRecord
  2
31
 70
     0
 62
     7
  6
CONTINUOUS
370
    -3
390
F
  0
LAYER
  5
42
330
2
100
AcDbSymbolTableRecord
100
AcDbLayerTableRecord
  2
32
 70
     0
 62
     7
  6
CONTINUOUS
370
    -3
390
F
  0
LAYER
  5
43
330
2
100
AcDbSymbolTableRecord
100
AcDbLayerTableRecord
  2
33
 70
     0
 62
     7
  6
CONTINUOUS
370
    -3
390
F
  0
LAYER
  5
44
330
2
100
AcDbSymbolTableRecord
100
AcDbLayerTableRecord
  2
34
 70
     0
 62
     7
  6
CONTINUOUS
370
    -3
390
F
  0
LAYER
  5
45
330
2
100
AcDbSymbolTableRecord
100
AcDbLayerTableRecord
  2
35
 70
     0
 62
     7
  6
CONTINUOUS
370
    -3
390
F
  0
LAYER
  5
46
330
2
100
AcDbSymbolTableRecord
100
AcDbLayerTableRecord
  2
36
 70
     0
 62
     7
  6
CONTINUOUS
370
    -3
390
F
  0
LAYER
  5
47
330
2
100
AcDbSymbolTableRecord
100
AcDbLayerTableRecord
  2
37
 70
     0
 62
     7
  6
CONTINUOUS
370
    -3
390
F
  0
LAYER
  5
48
330
2
100
AcDbSymbolTableRecord
100
AcDbLayerTableRecord
  2
38
 70
     0
 62
     7
  6
CONTINUOUS
370
    -3
390
F
  0
LAYER
  5
49
330
2
100
AcDbSymbolTableRecord
100
AcDbLayerTableRecord
  2
39
 70
     0
 62
     7
  6
CONTINUOUS
370
    -3
390
F
  0
LAYER
  5
4A
330
2
100
AcDbSymbolTableRecord
100
AcDbLayerTableRecord
  2
40
 70
     0
 62
     7
  6
CONTINUOUS
370
    -3
390
F
  0
LAYER
  5
4B
330
2
100
AcDbSymbolTableRecord
100
AcDbLayerTableRecord
  2
41
 70
     0
 62
     7
  6
CONTINUOUS
370
    -3
390
F
  0
LAYER
  5
4C
330
2
100
AcDbSymbolTableRecord
100
AcDbLayerTableRecord
  2
42
 70
     0
 62
     7
  6
CONTINUOUS
370
    -3
390
F
  0
LAYER
  5
4D
330
2
100
AcDbSymbolTableRecord
100
AcDbLayerTableRecord
  2
43
 70
     0
 62
     7
  6
CONTINUOUS
370
    -3
390
F
  0
LAYER
  5
4E
330
2
100
AcDbSymbolTableRecord
100
AcDbLayerTableRecord
  2
44
 70
     0
 62
     7
  6
CONTINUOUS
370
    -3
390
F
  0
LAYER
  5
4F
330
2
100
AcDbSymbolTableRecord
100
AcDbLayerTableRecord
  2
45
 70
     0
 62
     7
  6
CONTINUOUS
370
    -3
390
F
  0
LAYER
  5
50
330
2
100
AcDbSymbolTableRecord
100
AcDbLayerTableRecord
  2
46
 70
     0
 62
     7
  6
CONTINUOUS
370
    -3
390
F
  0
LAYER
  5
51
330
2
100
AcDbSymbolTableRecord
100
AcDbLayerTableRecord
  2
47
 70
     0
 62
     7
  6
CONTINUOUS
370
    -3
390
F
  0
LAYER
  5
52
330
2
100
AcDbSymbolTableRecord
100
AcDbLayerTableRecord
  2
48
 70
     0
 62
     7
  6
CONTINUOUS
370
    -3
390
F
  0
LAYER
  5
53
330
2
100
AcDbSymbolTableRecord
100
AcDbLayerTableRecord
  2
49
 70
     0
 62
     7
  6
CONTINUOUS
370
    -3
390
F
  0
LAYER
  5
54
330
2
100
AcDbSymbolTableRecord
100
AcDbLayerTableRecord
  2
50
 70
     0
 62
     7
  6
CONTINUOUS
370
    -3
390
F
  0
LAYER
  5
55
330
2
100
AcDbSymbolTableRecord
100
AcDbLayerTableRecord
  2
51
 70
     0
 62
     7
  6
CONTINUOUS
370
    -3
390
F
  0
LAYER
  5
56
330
2
100
AcDbSymbolTableRecord
100
AcDbLayerTableRecord
  2
52
 70
     0
 62
     7
  6
CONTINUOUS
370
    -3
390
F
  0
LAYER
  5
57
330
2
100
AcDbSymbolTableRecord
100
AcDbLayerTableRecord
  2
53
 70
     0
 62
     7
  6
CONTINUOUS
370
    -3
390
F
  0
LAYER
  5
58
330
2
100
AcDbSymbolTableRecord
100
AcDbLayerTableRecord
  2
54
 70
     0
 62
     7
  6
CONTINUOUS
370
    -3
390
F
  0
LAYER
  5
59
330
2
100
AcDbSymbolTableRecord
100
AcDbLayerTableRecord
  2
55
 70
     0
 62
     7
  6
CONTINUOUS
370
    -3
390
F
  0
LAYER
  5
5A
330
2
100
AcDbSymbolTableRecord
100
AcDbLayerTableRecord
  2
56
 70
     0
 62
     7
  6
CONTINUOUS
370
    -3
390
F
  0
LAYER
  5
5B
330
2
100
AcDbSymbolTableRecord
100
AcDbLayerTableRecord
  2
57
 70
     0
 62
     7
  6
CONTINUOUS
370
    -3
390
F
  0
LAYER
  5
5C
330
2
100
AcDbSymbolTableRecord
100
AcDbLayerTableRecord
  2
58
 70
     0
 62
     7
  6
CONTINUOUS
370
    -3
390
F
  0
LAYER
  5
5D
330
2
100
AcDbSymbolTableRecord
100
AcDbLayerTableRecord
  2
59
 70
     0
 62
     7
  6
CONTINUOUS
370
    -3
390
F
  0
LAYER
  5
5E
330
2
100
AcDbSymbolTableRecord
100
AcDbLayerTableRecord
  2
60
 70
     0
 62
     7
  6
CONTINUOUS
370
    -3
390
F
  0
LAYER
  5
5F
330
2
100
AcDbSymbolTableRecord
100
AcDbLayerTableRecord
  2
61
 70
     0
 62
     7
  6
CONTINUOUS
370
    -3
390
F
  0
LAYER
  5
60
330
2
100
AcDbSymbolTableRecord
100
AcDbLayerTableRecord
  2
62
 70
     0
 62
     7
  6
CONTINUOUS
370
    -3
390
F
  0
LAYER
  5
61
330
2
100
AcDbSymbolTableRecord
100
AcDbLayerTableRecord
  2
63
 70
     0
 62
     7
  6
CONTINUOUS
370
    -3
390
F
  0
LAYER
  5
62
330
2
100
AcDbSymbolTableRecord
100
AcDbLayerTableRecord
  2
64
 70
     0
 62
     7
  6
CONTINUOUS
370
    -3
390
F
  0
LAYER
  5
63
330
2
100
AcDbSymbolTableRecord
100
AcDbLayerTableRecord
  2
65
 70
     0
 62
     7
  6
CONTINUOUS
370
    -3
390
F
  0
LAYER
  5
64
330
2
100
AcDbSymbolTableRecord
100
AcDbLayerTableRecord
  2
66
 70
     0
 62
     7
  6
CONTINUOUS
370
    -3
390
F
  0
LAYER
  5
65
330
2
100
AcDbSymbolTableRecord
100
AcDbLayerTableRecord
  2
67
 70
     0
 62
     7
  6
CONTINUOUS
370
    -3
390
F
  0
LAYER
  5
66
330
2
100
AcDbSymbolTableRecord
100
AcDbLayerTableRecord
  2
68
 70
     0
 62
     7
  6
CONTINUOUS
370
    -3
390
F
  0
LAYER
  5
67
330
2
100
AcDbSymbolTableRecord
100
AcDbLayerTableRecord
  2
69
 70
     0
 62
     7
  6
CONTINUOUS
370
    -3
390
F
  0
LAYER
  5
68
330
2
100
AcDbSymbolTableRecord
100
AcDbLayerTableRecord
  2
70
 70
     0
 62
     7
  6
CONTINUOUS
370
    -3
390
F
  0
LAYER
  5
69
330
2
100
AcDbSymbolTableRecord
100
AcDbLayerTableRecord
  2
71
 70
     0
 62
     7
  6
CONTINUOUS
370
    -3
390
F
  0
LAYER
  5
6A
330
2
100
AcDbSymbolTableRecord
100
AcDbLayerTableRecord
  2
72
 70
     0
 62
     7
  6
CONTINUOUS
370
    -3
390
F
  0
LAYER
  5
6B
330
2
100
AcDbSymbolTableRecord
100
AcDbLayerTableRecord
  2
73
 70
     0
 62
     7
  6
CONTINUOUS
370
    -3
390
F
  0
LAYER
  5
6C
330
2
100
AcDbSymbolTableRecord
100
AcDbLayerTableRecord
  2
74
 70
     0
 62
     7
  6
CONTINUOUS
370
    -3
390
F
  0
LAYER
  5
6D
330
2
100
AcDbSymbolTableRecord
100
AcDbLayerTableRecord
  2
75
 70
     0
 62
     7
  6
CONTINUOUS
370
    -3
390
F
  0
LAYER
  5
6E
330
2
100
AcDbSymbolTableRecord
100
AcDbLayerTableRecord
  2
76
 70
     0
 62
     7
  6
CONTINUOUS
370
    -3
390
F
  0
LAYER
  5
6F
330
2
100
AcDbSymbolTableRecord
100
AcDbLayerTableRecord
  2
77
 70
     0
 62
     7
  6
CONTINUOUS
370
    -3
390
F
  0
LAYER
  5
70
330
2
100
AcDbSymbolTableRecord
100
AcDbLayerTableRecord
  2
78
 70
     0
 62
     7
  6
CONTINUOUS
370
    -3
390
F
  0
LAYER
  5
71
330
2
100
AcDbSymbolTableRecord
100
AcDbLayerTableRecord
  2
79
 70
     0
 62
     7
  6
CONTINUOUS
370
    -3
390
F
  0
LAYER
  5
72
330
2
100
AcDbSymbolTableRecord
100
AcDbLayerTableRecord
  2
80
 70
     0
 62
     7
  6
CONTINUOUS
370
    -3
390
F
  0
LAYER
  5
73
330
2
100
AcDbSymbolTableRecord
100
AcDbLayerTableRecord
  2
81
 70
     0
 62
     7
  6
CONTINUOUS
370
    -3
390
F
  0
LAYER
  5
74
330
2
100
AcDbSymbolTableRecord
100
AcDbLayerTableRecord
  2
82
 70
     0
 62
     7
  6
CONTINUOUS
370
    -3
390
F
  0
LAYER
  5
75
330
2
100
AcDbSymbolTableRecord
100
AcDbLayerTableRecord
  2
83
 70
     0
 62
     7
  6
CONTINUOUS
370
    -3
390
F
  0
LAYER
  5
76
330
2
100
AcDbSymbolTableRecord
100
AcDbLayerTableRecord
  2
84
 70
     0
 62
     7
  6
CONTINUOUS
370
    -3
390
F
  0
LAYER
  5
77
330
2
100
AcDbSymbolTableRecord
100
AcDbLayerTableRecord
  2
85
 70
     0
 62
     7
  6
CONTINUOUS
370
    -3
390
F
  0
LAYER
  5
78
330
2
100
AcDbSymbolTableRecord
100
AcDbLayerTableRecord
  2
86
 70
     0
 62
     7
  6
CONTINUOUS
370
    -3
390
F
  0
LAYER
  5
79
330
2
100
AcDbSymbolTableRecord
100
AcDbLayerTableRecord
  2
87
 70
     0
 62
     7
  6
CONTINUOUS
370
    -3
390
F
  0
LAYER
  5
7A
330
2
100
AcDbSymbolTableRecord
100
AcDbLayerTableRecord
  2
88
 70
     0
 62
     7
  6
CONTINUOUS
370
    -3
390
F
  0
LAYER
  5
7B
330
2
100
AcDbSymbolTableRecord
100
AcDbLayerTableRecord
  2
89
 70
     0
 62
     7
  6
CONTINUOUS
370
    -3
390
F
  0
LAYER
  5
7C
330
2
100
AcDbSymbolTableRecord
100
AcDbLayerTableRecord
  2
90
 70
     0
 62
     7
  6
CONTINUOUS
370
    -3
390
F
  0
LAYER
  5
7D
330
2
100
AcDbSymbolTableRecord
100
AcDbLayerTableRecord
  2
91
 70
     0
 62
     7
  6
CONTINUOUS
370
    -3
390
F
  0
LAYER
  5
7E
330
2
100
AcDbSymbolTableRecord
100
AcDbLayerTableRecord
  2
92
 70
     0
 62
     7
  6
CONTINUOUS
370
    -3
390
F
  0
LAYER
  5
7F
330
2
100
AcDbSymbolTableRecord
100
AcDbLayerTableRecord
  2
93
 70
     0
 62
     7
  6
CONTINUOUS
370
    -3
390
F
  0
LAYER
  5
80
330
2
100
AcDbSymbolTableRecord
100
AcDbLayerTableRecord
  2
94
 70
     0
 62
     7
  6
CONTINUOUS
370
    -3
390
F
  0
LAYER
  5
81
330
2
100
AcDbSymbolTableRecord
100
AcDbLayerTableRecord
  2
95
 70
     0
 62
     7
  6
CONTINUOUS
370
    -3
390
F
  0
LAYER
  5
82
330
2
100
AcDbSymbolTableRecord
100
AcDbLayerTableRecord
  2
96
 70
     0
 62
     7
  6
CONTINUOUS
370
    -3
390
F
  0
LAYER
  5
83
330
2
100
AcDbSymbolTableRecord
100
AcDbLayerTableRecord
  2
97
 70
     0
 62
     7
  6
CONTINUOUS
370
    -3
390
F
  0
LAYER
  5
84
330
2
100
AcDbSymbolTableRecord
100
AcDbLayerTableRecord
  2
98
 70
     0
 62
     7
  6
CONTINUOUS
370
    -3
390
F
  0
LAYER
  5
85
330
2
100
AcDbSymbolTableRecord
100
AcDbLayerTableRecord
  2
99
 70
     0
 62
     7
  6
CONTINUOUS
370
    -3
390
F
  0
LAYER
  5
86
330
2
100
AcDbSymbolTableRecord
100
AcDbLayerTableRecord
  2
100
 70
     0
 62
     7
  6
CONTINUOUS
370
    -3
390
F
  0
LAYER
  5
87
330
2
100
AcDbSymbolTableRecord
100
AcDbLayerTableRecord
  2
101
 70
     0
 62
     7
  6
CONTINUOUS
370
    -3
390
F
  0
LAYER
  5
88
330
2
100
AcDbSymbolTableRecord
100
AcDbLayerTableRecord
  2
102
 70
     0
 62
     7
  6
CONTINUOUS
370
    -3
390
F
  0
LAYER
  5
89
330
2
100
AcDbSymbolTableRecord
100
AcDbLayerTableRecord
  2
103
 70
     0
 62
     7
  6
CONTINUOUS
370
    -3
390
F
  0
LAYER
  5
8A
330
2
100
AcDbSymbolTableRecord
100
AcDbLayerTableRecord
  2
104
 70
     0
 62
     7
  6
CONTINUOUS
370
    -3
390
F
  0
LAYER
  5
8B
330
2
100
AcDbSymbolTableRecord
100
AcDbLayerTableRecord
  2
105
 70
     0
 62
     7
  6
CONTINUOUS
370
    -3
390
F
  0
LAYER
  5
8C
330
2
100
AcDbSymbolTableRecord
100
AcDbLayerTableRecord
  2
106
 70
     0
 62
     7
  6
CONTINUOUS
370
    -3
390
F
  0
LAYER
  5
8D
330
2
100
AcDbSymbolTableRecord
100
AcDbLayerTableRecord
  2
107
 70
     0
 62
     7
  6
CONTINUOUS
370
    -3
390
F
  0
LAYER
  5
8E
330
2
100
AcDbSymbolTableRecord
100
AcDbLayerTableRecord
  2
108
 70
     0
 62
     7
  6
CONTINUOUS
370
    -3
390
F
  0
LAYER
  5
8F
330
2
100
AcDbSymbolTableRecord
100
AcDbLayerTableRecord
  2
109
 70
     0
 62
     7
  6
CONTINUOUS
370
    -3
390
F
  0
LAYER
  5
90
330
2
100
AcDbSymbolTableRecord
100
AcDbLayerTableRecord
  2
110
 70
     0
 62
     7
  6
CONTINUOUS
370
    -3
390
F
  0
LAYER
  5
91
330
2
100
AcDbSymbolTableRecord
100
AcDbLayerTableRecord
  2
111
 70
     0
 62
     7
  6
CONTINUOUS
370
    -3
390
F
  0
LAYER
  5
92
330
2
100
AcDbSymbolTableRecord
100
AcDbLayerTableRecord
  2
112
 70
     0
 62
     7
  6
CONTINUOUS
370
    -3
390
F
  0
LAYER
  5
93
330
2
100
AcDbSymbolTableRecord
100
AcDbLayerTableRecord
  2
113
 70
     0
 62
     7
  6
CONTINUOUS
370
    -3
390
F
  0
LAYER
  5
94
330
2
100
AcDbSymbolTableRecord
100
AcDbLayerTableRecord
  2
114
 70
     0
 62
     7
  6
CONTINUOUS
370
    -3
390
F
  0
LAYER
  5
95
330
2
100
AcDbSymbolTableRecord
100
AcDbLayerTableRecord
  2
115
 70
     0
 62
     7
  6
CONTINUOUS
370
    -3
390
F
  0
LAYER
  5
96
330
2
100
AcDbSymbolTableRecord
100
AcDbLayerTableRecord
  2
116
 70
     0
 62
     7
  6
CONTINUOUS
370
    -3
390
F
  0
LAYER
  5
97
330
2
100
AcDbSymbolTableRecord
100
AcDbLayerTableRecord
  2
117
 70
     0
 62
     7
  6
CONTINUOUS
370
    -3
390
F
  0
LAYER
  5
98
330
2
100
AcDbSymbolTableRecord
100
AcDbLayerTableRecord
  2
118
 70
     0
 62
     7
  6
CONTINUOUS
370
    -3
390
F
  0
LAYER
  5
99
330
2
100
AcDbSymbolTableRecord
100
AcDbLayerTableRecord
  2
119
 70
     0
 62
     7
  6
CONTINUOUS
370
    -3
390
F
  0
LAYER
  5
9A
330
2
100
AcDbSymbolTableRecord
100
AcDbLayerTableRecord
  2
120
 70
     0
 62
     7
  6
CONTINUOUS
370
    -3
390
F
  0
LAYER
  5
9B
330
2
100
AcDbSymbolTableRecord
100
AcDbLayerTableRecord
  2
121
 70
     0
 62
     7
  6
CONTINUOUS
370
    -3
390
F
  0
LAYER
  5
9C
330
2
100
AcDbSymbolTableRecord
100
AcDbLayerTableRecord
  2
122
 70
     0
 62
     7
  6
CONTINUOUS
370
    -3
390
F
  0
LAYER
  5
9D
330
2
100
AcDbSymbolTableRecord
100
AcDbLayerTableRecord
  2
123
 70
     0
 62
     7
  6
CONTINUOUS
370
    -3
390
F
  0
LAYER
  5
9E
330
2
100
AcDbSymbolTableRecord
100
AcDbLayerTableRecord
  2
124
 70
     0
 62
     7
  6
CONTINUOUS
370
    -3
390
F
  0
LAYER
  5
9F
330
2
100
AcDbSymbolTableRecord
100
AcDbLayerTableRecord
  2
125
 70
     0
 62
     7
  6
CONTINUOUS
370
    -3
390
F
  0
LAYER
  5
A0
330
2
100
AcDbSymbolTableRecord
100
AcDbLayerTableRecord
  2
126
 70
     0
 62
     7
  6
CONTINUOUS
370
    -3
390
F
  0
LAYER
  5
A1
330
2
100
AcDbSymbolTableRecord
100
AcDbLayerTableRecord
  2
127
 70
     0
 62
     7
  6
CONTINUOUS
370
    -3
390
F
  0
ENDTAB
  0
TABLE
  2
STYLE
  5
3
330
0
100
AcDbSymbolTable
 70
     7
  0
STYLE
  5
11
330
3
100
AcDbSymbolTableRecord
100
AcDbTextStyleTableRecord
  2
STANDARD
 70
     0
 40
0.0
 41
1.0
 50
0.0
 71
     0
 42
0.2
  3
txt
  4

  0
STYLE
  5
A2
330
3
100
AcDbSymbolTableRecord
100
AcDbTextStyleTableRecord
  2
KANJI0
 70
     0
 40
3.0
 41
0.6
 50
0.0
 71
     0
 42
3.0
  3

  4
bigfont
  0
STYLE
  5
A3
330
3
100
AcDbSymbolTableRecord
100
AcDbTextStyleTableRecord
  2
KANJI1
 70
     0
 40
3.0
 41
0.666666667
 50
0.0
 71
     0
 42
3.0
  3

  4
bigfont
  0
STYLE
  5
A4
330
3
100
AcDbSymbolTableRecord
100
AcDbTextStyleTableRecord
  2
KANJI2
 70
     0
 40
1.5
 41
0.666666667
 50
0.0
 71
     0
 42
1.5
  3

  4
bigfont
  0
STYLE
  5
A5
330
3
100
AcDbSymbolTableRecord
100
AcDbTextStyleTableRecord
  2
KANJI3
 70
     0
 40
2.0
 41
0.75
 50
0.0
 71
     0
 42
2.0
  3

  4
bigfont
  0
STYLE
  5
A6
330
3
100
AcDbSymbolTableRecord
100
AcDbTextStyleTableRecord
  2
KANJI4
 70
     0
 40
2.7
 41
0.666666667
 50
0.0
 71
     0
 42
2.7
  3

  4
bigfont
  0
STYLE
  5
A7
330
3
100
AcDbSymbolTableRecord
100
AcDbTextStyleTableRecord
  2
KANJI5
 70
     0
 40
4.0
 41
0.75
 50
0.0
 71
     0
 42
4.0
  3

  4
bigfont
  0
ENDTAB
  0
TABLE
  2
VIEW
  5
6
330
0
100
AcDbSymbolTable
 70
     0
  0
ENDTAB
  0
TABLE
  2
UCS
  5
7
330
0
100
AcDbSymbolTable
 70
     0
  0
ENDTAB
  0
TABLE
  2
APPID
  5
9
330
0
100
AcDbSymbolTable
 70
     1
  0
APPID
  5
12
330
9
100
AcDbSymbolTableRecord
100
AcDbRegAppTableRecord
  2
ACAD
 70
     0
  0
ENDTAB
  0
TABLE
  2
DIMSTYLE
  5
A
330
0
100
AcDbSymbolTable
 70
     1
100
AcDbDimStyleTable
 71
     0
  0
DIMSTYLE
105
487
330
A
100
AcDbSymbolTableRecord
100
AcDbDimStyleTableRecord
  2
Standard
 70
     0
340
11
  0
ENDTAB
  0
TABLE
  2
BLOCK_RECORD
  5
1
330
0
100
AcDbSymbolTable
 70
     0
  0
BLOCK_RECORD
  5
1E
330
1
100
AcDbSymbolTableRecord
100
AcDbBlockTableRecord
  2
*Model_Space
340
21
  0
BLOCK_RECORD
  5
1A
330
1
100
AcDbSymbolTableRecord
100
AcDbBlockTableRecord
  2
*Paper_Space
340
1D
  0
ENDTAB
  0
ENDSEC
  0
SECTION
  2
BLOCKS
  0
BLOCK
  5
1F
330
1E
100
AcDbEntity
  8
0
100
AcDbBlockBegin
  2
*Model_Space
 70
     0
 10
0.0
 20
0.0
 30
0.0
  3
*Model_Space
  1

  0
ENDBLK
  5
20
330
1E
100
AcDbEntity
  8
0
100
AcDbBlockEnd
  0
BLOCK
  5
1B
330
1A
100
AcDbEntity
 67
     1
  8
0
100
AcDbBlockBegin
  2
*Paper_Space
 70
     0
 10
0.0
 20
0.0
 30
0.0
  3
*Paper_Space
  1

  0
ENDBLK
  5
1C
330
1A
100
AcDbEntity
 67
     1
  8
0
100
AcDbBlockEnd
  0
ENDSEC
  0
SECTION
  2
ENTITIES
  0
LWPOLYLINE
  5
AB
330
1E
100
AcDbEntity
  8
0
 62
     1
100
AcDbPolyline
 90
        2
 70
     1
 43
0.0
 10
3.141492651413534E+99
 20
1.269263905633295E+99
 10
3.141492651413534E+99
 20
1.269263905633295E+99
  0
POINT
  5
AF
330
1E
100
AcDbEntity
  8
0
  6
Continuous
 62
     1
100
AcDbPoint
 10
-1.470580238991736E+63
 20
-5.941616374145985E+73
 30
0.0
  0
POINT
  5
B0
330
1E
100
AcDbEntity
  8
0
  6
Continuous
 62
     1
100
AcDbPoint
 10
-1.470580238991736E+63
 20
-5.941616374145985E+73
 30
0.0
  0
POINT
  5
B1
330
1E
100
AcDbEntity
  8
0
  6
Continuous
 62
     1
100
AcDbPoint
 10
3.141492651413534E+99
 20
1.269263905633295E+99
 30
0.0
  0
POINT
  5
B2
330
1E
100
AcDbEntity
  8
0
  6
Continuous
 62
     1
100
AcDbPoint
 10
3.141492651413534E+99
 20
1.269263905633295E+99
 30
0.0
  0
POINT
  5
B3
330
1E
100
AcDbEntity
  8
0
  6
Continuous
 62
     1
100
AcDbPoint
 10
-1.470580238991736E+63
 20
-5.941616374145985E+73
 30
0.0
  0
POINT
  5
B4
330
1E
100
AcDbEntity
  8
0
  6
Continuous
 62
     1
100
AcDbPoint
 10
-1.470580238991736E+63
 20
-5.941616374145985E+73
 30
0.0
  0
POINT
  5
B5
330
1E
100
AcDbEntity
  8
0
  6
Continuous
 62
     1
100
AcDbPoint
 10
3.141492651413534E+99
 20
1.269263905633295E+99
 30
0.0
  0
POINT
  5
B6
330
1E
100
AcDbEntity
  8
0
  6
Continuous
 62
     1
100
AcDbPoint
 10
3.141492651413534E+99
 20
1.269263905633295E+99
 30
0.0
  0
POINT
  5
B7
330
1E
100
AcDbEntity
  8
0
  6
Continuous
 62
     1
100
AcDbPoint
 10
-1.470580238991736E+63
 20
-5.941616374145985E+73
 30
0.0
  0
POINT
  5
B8
330
1E
100
AcDbEntity
  8
0
  6
Continuous
 62
     1
100
AcDbPoint
 10
-1.470580238991736E+63
 20
-5.941616374145985E+73
 30
0.0
  0
POINT
  5
B9
330
1E
100
AcDbEntity
  8
0
  6
Continuous
 62
     1
100
AcDbPoint
 10
3.141492651413534E+99
 20
1.269263905633295E+99
 30
0.0
  0
POINT
  5
BA
330
1E
100
AcDbEntity
  8
0
  6
Continuous
 62
     1
100
AcDbPoint
 10
3.141492651413534E+99
 20
1.269263905633295E+99
 30
0.0
  0
POINT
  5
BB
330
1E
100
AcDbEntity
  8
0
  6
Continuous
 62
     1
100
AcDbPoint
 10
-1.470580238991736E+63
 20
-5.941616374145985E+73
 30
0.0
  0
POINT
  5
BC
330
1E
100
AcDbEntity
  8
0
  6
Continuous
 62
     1
100
AcDbPoint
 10
-1.470580238991736E+63
 20
-5.941616374145985E+73
 30
0.0
  0
POINT
  5
BD
330
1E
100
AcDbEntity
  8
0
  6
Continuous
 62
     1
100
AcDbPoint
 10
3.141492651413534E+99
 20
1.269263905633295E+99
 30
0.0
  0
POINT
  5
BE
330
1E
100
AcDbEntity
  8
0
  6
Continuous
 62
     1
100
AcDbPoint
 10
3.141492651413534E+99
 20
1.269263905633295E+99
 30
0.0
  0
POINT
  5
BF
330
1E
100
AcDbEntity
  8
0
  6
Continuous
 62
     1
100
AcDbPoint
 10
-1.470580238991736E+63
 20
-5.941616374145985E+73
 30
0.0
  0
POINT
  5
C0
330
1E
100
AcDbEntity
  8
0
  6
Continuous
 62
     1
100
AcDbPoint
 10
-1.470580238991736E+63
 20
-5.941616374145985E+73
 30
0.0
  0
POINT
  5
C1
330
1E
100
AcDbEntity
  8
0
  6
Continuous
 62
     1
100
AcDbPoint
 10
3.141492651413534E+99
 20
1.269263905633295E+99
 30
0.0
  0
POINT
  5
C2
330
1E
100
AcDbEntity
  8
0
  6
Continuous
 62
     1
100
AcDbPoint
 10
3.141492651413534E+99
 20
1.269263905633295E+99
 30
0.0
  0
POINT
  5
C3
330
1E
100
AcDbEntity
  8
0
  6
Continuous
 62
     1
100
AcDbPoint
 10
-1.470580238991736E+63
 20
-5.941616374145985E+73
 30
0.0
  0
POINT
  5
C4
330
1E
100
AcDbEntity
  8
0
  6
Continuous
 62
     1
100
AcDbPoint
 10
-1.470580238991736E+63
 20
-5.941616374145985E+73
 30
0.0
  0
LINE
  5
C5
330
1E
100
AcDbEntity
  8
0
  6
Continuous
 62
     3
100
AcDbLine
 10
-283.6340200054674
 20
-128.0351147952354
 30
0.0
 11
-276.1340200054675
 21
-132.0351147952354
 31
0.0
  0
POINT
  5
C6
330
1E
100
AcDbEntity
  8
0
  6
Continuous
 62
     3
100
AcDbPoint
 10
-263.1340200054675
 20
-129.5351147952354
 30
0.0
  0
POINT
  5
C7
330
1E
100
AcDbEntity
  8
0
  6
Continuous
 62
     3
100
AcDbPoint
 10
-263.1340200054675
 20
-127.5351147952354
 30
0.0
  0
LINE
  5
C8
330
1E
100
AcDbEntity
  8
0
  6
Continuous
 62
     3
100
AcDbLine
 10
-263.1340200054675
 20
-129.5351147952354
 30
0.0
 11
-263.1340200054675
 21
-127.5351147952354
 31
0.0
  0
LINE
  5
C9
330
1E
100
AcDbEntity
  8
0
  6
Continuous
 62
     3
100
AcDbLine
 10
-263.1340200054675
 20
-127.5351147952354
 30
0.0
 11
-267.1340200054675
 21
-127.5351147952354
 31
0.0
  0
LINE
  5
CA
330
1E
100
AcDbEntity
  8
0
  6
Continuous
 62
     3
100
AcDbLine
 10
-267.1340200054675
 20
-129.5351147952354
 30
0.0
 11
-263.1340200054675
 21
-129.5351147952354
 31
0.0
  0
LINE
  5
CB
330
1E
100
AcDbEntity
  8
0
  6
Continuous
 62
     3
100
AcDbLine
 10
-267.1340200054675
 20
-127.5351147952354
 30
0.0
 11
-267.1340200054675
 21
-129.5351147952354
 31
0.0
  0
LINE
  5
CC
330
1E
100
AcDbEntity
  8
0
  6
Continuous
 62
     3
100
AcDbLine
 10
-263.1340200054675
 20
-127.5351147952354
 30
0.0
 11
-267.1340200054675
 21
-127.5351147952354
 31
0.0
  0
LINE
  5
CD
330
1E
100
AcDbEntity
  8
0
  6
Continuous
 62
     3
100
AcDbLine
 10
-276.1340200054675
 20
-132.0351147952354
 30
0.0
 11
-251.7340200054674
 21
-132.0351147952354
 31
0.0
  0
LINE
  5
CE
330
1E
100
AcDbEntity
  8
0
  6
Continuous
 62
     3
100
AcDbLine
 10
-205.1340200054675
 20
-84.78511479523547
 30
0.0
 11
-222.4088501164675
 21
-84.78511479523547
 31
0.0
  0
LINE
  5
CF
330
1E
100
AcDbEntity
  8
0
  6
Continuous
 62
     3
100
AcDbLine
 10
-244.2624157014675
 20
-82.53511479523547
 30
0.0
 11
-224.0056243094675
 21
-82.53511479523547
 31
0.0
  0
LINE
  5
D0
330
1E
100
AcDbEntity
  8
0
  6
Continuous
 62
     3
100
AcDbLine
 10
-244.2624157014675
 20
-82.53511479523547
 30
0.0
 11
-245.8591898944674
 21
-84.78511479523547
 31
0.0
  0
POINT
  5
D1
330
1E
100
AcDbEntity
  8
0
  6
Continuous
 62
     3
100
AcDbPoint
 10
-205.1340200054675
 20
-125.5351147952354
 30
0.0
  0
POINT
  5
D2
330
1E
100
AcDbEntity
  8
0
  6
Continuous
 62
     3
100
AcDbPoint
 10
-205.1340200054675
 20
-123.5351147952354
 30
0.0
  0
LWPOLYLINE
  5
D3
330
1E
100
AcDbEntity
  8
0
 62
     3
100
AcDbPolyline
 90
        3
 70
     0
 43
0.0
 10
-205.1340200054675
 20
-125.5351147952354
 10
-205.1340200054675
 20
-123.5351147952354
 10
-201.1340200054675
 20
-123.5351147952354
  0
LINE
  5
D8
330
1E
100
AcDbEntity
  8
0
  6
Continuous
 62
     3
100
AcDbLine
 10
-201.1340200054675
 20
-125.5351147952354
 30
0.0
 11
-205.1340200054675
 21
-125.5351147952354
 31
0.0
  0
LINE
  5
D9
330
1E
100
AcDbEntity
  8
0
  6
Continuous
 62
     3
100
AcDbLine
 10
-201.1340200054675
 20
-123.5351147952354
 30
0.0
 11
-201.1340200054675
 21
-125.5351147952354
 31
0.0
  0
LINE
  5
DA
330
1E
100
AcDbEntity
  8
0
  6
Continuous
 62
     3
100
AcDbLine
 10
-224.0056243094675
 20
-82.53511479523547
 30
0.0
 11
-222.4088501164675
 21
-84.78511479523547
 31
0.0
  0
POINT
  5
DC
330
1E
100
AcDbEntity
  8
0
  6
Continuous
 62
     3
100
AcDbPoint
 10
-211.8840200054675
 20
-127.0351147952352
 30
0.0
  0
LWPOLYLINE
  5
DD
330
1E
100
AcDbEntity
  8
0
 62
     3
100
AcDbPolyline
 90
        3
 70
     0
 43
0.0
 10
-256.3840200054674
 20
-127.0351147952352
 10
-211.8840200054675
 20
-127.0351147952352
 10
-211.8840200054675
 20
-85.53511479523548
  0
LINE
  5
E2
330
1E
100
AcDbEntity
  8
0
  6
Continuous
 62
     3
100
AcDbLine
 10
-256.3840200054674
 20
-85.53511479523548
 30
0.0
 11
-256.3840200054674
 21
-127.0351147952352
 31
0.0
  0
LINE
  5
E3
330
1E
100
AcDbEntity
  8
0
  6
Continuous
 62
     3
100
AcDbLine
 10
-256.3840200054674
 20
-85.53511479523548
 30
0.0
 11
-211.8840200054675
 21
-85.53511479523548
 31
0.0
  0
LINE
  5
E4
330
1E
100
AcDbEntity
  8
0
  6
Continuous
 62
     3
100
AcDbLine
 10
-245.8591898944674
 20
-84.78511479523547
 30
0.0
 11
-263.6340200054675
 21
-84.78511479523547
 31
0.0
  0
LINE
  5
E5
330
1E
100
AcDbEntity
  8
0
  6
Continuous
 62
     3
100
AcDbLine
 10
-263.6340200054675
 20
-27.12511479523547
 30
0.0
 11
-263.6340200054675
 21
-63.18511479523547
 31
0.0
  0
LINE
  5
E6
330
1E
100
AcDbEntity
  8
0
  6
Continuous
 62
     3
100
AcDbLine
 10
-263.6340200054675
 20
-65.03511479523547
 30
0.0
 11
-263.6340200054675
 21
-67.43511479523547
 31
0.0
  0
LINE
  5
E7
330
1E
100
AcDbEntity
  8
0
  6
Continuous
 62
     3
100
AcDbLine
 10
-263.6340200054675
 20
-63.18511479523547
 30
0.0
 11
-263.6340200054675
 21
-65.03511479523547
 31
0.0
  0
LINE
  5
E8
330
1E
100
AcDbEntity
  8
0
  6
Continuous
 62
     3
100
AcDbLine
 10
-204.6340200054674
 20
-70.78511479523547
 30
0.0
 11
-205.6340200054675
 21
-70.78511479523547
 31
0.0
  0
LINE
  5
E9
330
1E
100
AcDbEntity
  8
0
  6
Continuous
 62
     3
100
AcDbLine
 10
-205.6340200054675
 20
-70.78511479523547
 30
0.0
 11
-205.6340200054675
 21
-63.18511479523547
 31
0.0
  0
LINE
  5
EA
330
1E
100
AcDbEntity
  8
0
  6
Continuous
 62
     3
100
AcDbLine
 10
-262.6340200054674
 20
-17.03511479523547
 30
0.0
 11
-234.1340200054675
 21
-17.03511479523547
 31
0.0
  0
LINE
  5
EB
330
1E
100
AcDbEntity
  8
0
  6
Continuous
 62
     3
100
AcDbLine
 10
-205.6340200054675
 20
-17.03511479523547
 30
0.0
 11
-234.1340200054675
 21
-17.03511479523547
 31
0.0
  0
LINE
  5
EC
330
1E
100
AcDbEntity
  8
0
  6
Continuous
 62
     3
100
AcDbLine
 10
-263.6340200054675
 20
-65.03511479523547
 30
0.0
 11
-263.6340200054675
 21
-84.78511479523547
 31
0.0
  0
LINE
  5
ED
330
1E
100
AcDbEntity
  8
0
  6
Continuous
 62
     3
100
AcDbLine
 10
-244.2624157014675
 20
-82.53511479523547
 30
0.0
 11
-224.0056243094675
 21
-82.53511479523547
 31
0.0
  0
LINE
  5
EE
330
1E
100
AcDbEntity
  8
0
  6
Continuous
 62
     3
100
AcDbLine
 10
-222.4088501164675
 20
-84.78511479523547
 30
0.0
 11
-204.6340200054674
 21
-84.78511479523547
 31
0.0
  0
LINE
  5
EF
330
1E
100
AcDbEntity
  8
0
  6
Continuous
 62
     3
100
AcDbLine
 10
-224.0056243094675
 20
-82.53511479523547
 30
0.0
 11
-222.4088501164675
 21
-84.78511479523547
 31
0.0
  0
LINE
  5
F0
330
1E
100
AcDbEntity
  8
0
  6
Continuous
 62
     3
100
AcDbLine
 10
-244.2624157014675
 20
-82.53511479523547
 30
0.0
 11
-245.8591898944674
 21
-84.78511479523547
 31
0.0
  0
LINE
  5
F1
330
1E
100
AcDbEntity
  8
0
  6
Continuous
 62
     3
100
AcDbLine
 10
-263.6340200054675
 20
-84.78511479523547
 30
0.0
 11
-245.8591898944674
 21
-84.78511479523547
 31
0.0
  0
CIRCLE
  5
F2
330
1E
100
AcDbEntity
  8
0
  6
Continuous
 62
     3
100
AcDbCircle
 10
-207.1340200054675
 20
-20.03511479523547
 30
0.0
 40
1.5
  0
LINE
  5
F3
330
1E
100
AcDbEntity
  8
0
  6
Continuous
 62
     3
100
AcDbLine
 10
-263.6340200054675
 20
-66.53511479523547
 30
0.0
 11
-262.6340200054674
 21
-66.53511479523547
 31
0.0
  0
LINE
  5
F4
330
1E
100
AcDbEntity
  8
0
  6
Continuous
 62
     3
100
AcDbLine
 10
-262.6340200054674
 20
-70.53511479523547
 30
0.0
 11
-263.6340200054675
 21
-70.53511479523547
 31
0.0
  0
LINE
  5
F5
330
1E
100
AcDbEntity
  8
0
  6
Continuous
 62
     3
100
AcDbLine
 10
-262.6340200054674
 20
-66.53511479523547
 30
0.0
 11
-262.6340200054674
 21
-70.53511479523547
 31
0.0
  0
ARC
  5
F6
330
1E
100
AcDbEntity
  8
0
  6
Continuous
 62
     3
100
AcDbCircle
 10
-205.6340200054675
 20
-18.03511479523546
 30
0.0
 40
1.0
100
AcDbArc
 50
0.0
 51
90.0
  0
LINE
  5
F7
330
1E
100
AcDbEntity
  8
0
  6
Continuous
 62
     3
100
AcDbLine
 10
-204.6340200054674
 20
-18.03511479523546
 30
0.0
 11
-204.6340200054674
 21
-63.18511479523547
 31
0.0
  0
LINE
  5
F8
330
1E
100
AcDbEntity
  8
0
  6
Continuous
 62
     3
100
AcDbLine
 10
-262.1340200054675
 20
-37.28511479523546
 30
0.0
 11
-262.1340200054675
 21
-35.28511479523546
 31
0.0
  0
LINE
  5
F9
330
1E
100
AcDbEntity
  8
0
  6
Continuous
 62
     3
100
AcDbLine
 10
-209.3840200054675
 20
-61.78511479523547
 30
0.0
 11
-209.6340200054675
 21
-61.78511479523547
 31
0.0
  0
LINE
  5
FA
330
1E
100
AcDbEntity
  8
0
  6
Continuous
 62
     3
100
AcDbLine
 10
-204.6340200054674
 20
-61.78511479523547
 30
0.0
 11
-207.1340200054675
 21
-61.78511479523547
 31
0.0
  0
LINE
  5
FB
330
1E
100
AcDbEntity
  8
0
  6
Continuous
 62
     3
100
AcDbLine
 10
-207.1340200054675
 20
-61.78511479523547
 30
0.0
 11
-204.6340200054674
 21
-61.78511479523547
 31
0.0
  0
LINE
  5
FC
330
1E
100
AcDbEntity
  8
0
  6
Continuous
 62
     3
100
AcDbLine
 10
-209.6340200054675
 20
-61.78511479523547
 30
0.0
 11
-206.1340200054674
 21
-61.78511479523547
 31
0.0
  0
LINE
  5
FD
330
1E
100
AcDbEntity
  8
0
  6
Continuous
 62
     3
100
AcDbLine
 10
-208.1340200054675
 20
-56.28511479523547
 30
0.0
 11
-204.6340200054674
 21
-56.28511479523547
 31
0.0
  0
LINE
  5
FE
330
1E
100
AcDbEntity
  8
0
  6
Continuous
 62
     3
100
AcDbLine
 10
-209.6340200054675
 20
-56.28511479523547
 30
0.0
 11
-208.1340200054675
 21
-56.28511479523547
 31
0.0
  0
LINE
  5
FF
330
1E
100
AcDbEntity
  8
0
  6
Continuous
 62
     3
100
AcDbLine
 10
-204.6340200054674
 20
-58.28511479523547
 30
0.0
 11
-208.1340200054675
 21
-58.28511479523547
 31
0.0
  0
LINE
  5
100
330
1E
100
AcDbEntity
  8
0
  6
Continuous
 62
     3
100
AcDbLine
 10
-208.1340200054675
 20
-59.78511479523547
 30
0.0
 11
-204.6340200054674
 21
-59.78511479523547
 31
0.0
  0
LINE
  5
101
330
1E
100
AcDbEntity
  8
0
  6
Continuous
 62
     3
100
AcDbLine
 10
-208.1340200054675
 20
-58.28511479523547
 30
0.0
 11
-208.1340200054675
 21
-59.78511479523547
 31
0.0
  0
LINE
  5
102
330
1E
100
AcDbEntity
  8
0
  6
Continuous
 62
     3
100
AcDbLine
 10
-208.1340200054675
 20
-52.78511479523547
 30
0.0
 11
-204.6340200054674
 21
-52.78511479523547
 31
0.0
  0
LINE
  5
103
330
1E
100
AcDbEntity
  8
0
  6
Continuous
 62
     3
100
AcDbLine
 10
-204.6340200054674
 20
-54.78511479523547
 30
0.0
 11
-208.1340200054675
 21
-54.78511479523547
 31
0.0
  0
LINE
  5
104
330
1E
100
AcDbEntity
  8
0
  6
Continuous
 62
     3
100
AcDbLine
 10
-208.1340200054675
 20
-52.78511479523547
 30
0.0
 11
-208.1340200054675
 21
-54.78511479523547
 31
0.0
  0
LINE
  5
105
330
1E
100
AcDbEntity
  8
0
  6
Continuous
 62
     3
100
AcDbLine
 10
-208.1340200054675
 20
-49.28511479523547
 30
0.0
 11
-204.6340200054674
 21
-49.28511479523547
 31
0.0
  0
LINE
  5
106
330
1E
100
AcDbEntity
  8
0
  6
Continuous
 62
     3
100
AcDbLine
 10
-204.6340200054674
 20
-51.28511479523547
 30
0.0
 11
-208.1340200054675
 21
-51.28511479523547
 31
0.0
  0
LINE
  5
107
330
1E
100
AcDbEntity
  8
0
  6
Continuous
 62
     3
100
AcDbLine
 10
-208.1340200054675
 20
-49.28511479523547
 30
0.0
 11
-208.1340200054675
 21
-51.28511479523547
 31
0.0
  0
LINE
  5
108
330
1E
100
AcDbEntity
  8
0
  6
Continuous
 62
     3
100
AcDbLine
 10
-208.1340200054675
 20
-45.78511479523547
 30
0.0
 11
-204.6340200054674
 21
-45.78511479523547
 31
0.0
  0
LINE
  5
109
330
1E
100
AcDbEntity
  8
0
  6
Continuous
 62
     3
100
AcDbLine
 10
-204.6340200054674
 20
-47.78511479523547
 30
0.0
 11
-208.1340200054675
 21
-47.78511479523547
 31
0.0
  0
LINE
  5
10A
330
1E
100
AcDbEntity
  8
0
  6
Continuous
 62
     3
100
AcDbLine
 10
-208.1340200054675
 20
-45.78511479523547
 30
0.0
 11
-208.1340200054675
 21
-47.78511479523547
 31
0.0
  0
LINE
  5
10B
330
1E
100
AcDbEntity
  8
0
  6
Continuous
 62
     3
100
AcDbLine
 10
-208.1340200054675
 20
-42.28511479523546
 30
0.0
 11
-204.6340200054674
 21
-42.28511479523546
 31
0.0
  0
LINE
  5
10C
330
1E
100
AcDbEntity
  8
0
  6
Continuous
 62
     3
100
AcDbLine
 10
-204.6340200054674
 20
-44.28511479523547
 30
0.0
 11
-208.1340200054675
 21
-44.28511479523547
 31
0.0
  0
LINE
  5
10D
330
1E
100
AcDbEntity
  8
0
  6
Continuous
 62
     3
100
AcDbLine
 10
-208.1340200054675
 20
-42.28511479523546
 30
0.0
 11
-208.1340200054675
 21
-44.28511479523547
 31
0.0
  0
LINE
  5
10E
330
1E
100
AcDbEntity
  8
0
  6
Continuous
 62
     3
100
AcDbLine
 10
-208.1340200054675
 20
-38.78511479523546
 30
0.0
 11
-204.6340200054674
 21
-38.78511479523546
 31
0.0
  0
LINE
  5
10F
330
1E
100
AcDbEntity
  8
0
  6
Continuous
 62
     3
100
AcDbLine
 10
-204.6340200054674
 20
-40.78511479523546
 30
0.0
 11
-208.1340200054675
 21
-40.78511479523546
 31
0.0
  0
LINE
  5
110
330
1E
100
AcDbEntity
  8
0
  6
Continuous
 62
     3
100
AcDbLine
 10
-208.1340200054675
 20
-38.78511479523546
 30
0.0
 11
-208.1340200054675
 21
-40.78511479523546
 31
0.0
  0
LINE
  5
111
330
1E
100
AcDbEntity
  8
0
  6
Continuous
 62
     3
100
AcDbLine
 10
-206.1340200054674
 20
-37.28511479523546
 30
0.0
 11
-206.1340200054674
 21
-35.28511479523546
 31
0.0
  0
LINE
  5
112
330
1E
100
AcDbEntity
  8
0
  6
Continuous
 62
     3
100
AcDbLine
 10
-209.6340200054675
 20
-31.78511479523546
 30
0.0
 11
-204.6340200054674
 21
-31.78511479523546
 31
0.0
  0
LINE
  5
113
330
1E
100
AcDbEntity
  8
0
  6
Continuous
 62
     3
100
AcDbLine
 10
-209.6340200054675
 20
-34.28511479523546
 30
0.0
 11
-209.6340200054675
 21
-31.78511479523546
 31
0.0
  0
LINE
  5
114
330
1E
100
AcDbEntity
  8
0
  6
Continuous
 62
     3
100
AcDbLine
 10
-204.6340200054674
 20
-37.28511479523546
 30
0.0
 11
-209.6340200054675
 21
-37.28511479523546
 31
0.0
  0
LINE
  5
115
330
1E
100
AcDbEntity
  8
0
  6
Continuous
 62
     3
100
AcDbLine
 10
-209.6340200054675
 20
-34.28511479523546
 30
0.0
 11
-209.6340200054675
 21
-37.28511479523546
 31
0.0
  0
LINE
  5
116
330
1E
100
AcDbEntity
  8
0
  6
Continuous
 62
     3
100
AcDbLine
 10
-209.6340200054675
 20
-56.28511479523547
 30
0.0
 11
-209.6340200054675
 21
-61.78511479523547
 31
0.0
  0
LINE
  5
117
330
1E
100
AcDbEntity
  8
0
  6
Continuous
 62
     3
100
AcDbLine
 10
-258.6340200054674
 20
-31.78511479523546
 30
0.0
 11
-258.6340200054674
 21
-37.28511479523546
 31
0.0
  0
LINE
  5
118
330
1E
100
AcDbEntity
  8
0
  6
Continuous
 62
     3
100
AcDbLine
 10
-204.6340200054674
 20
-63.18511479523547
 30
0.0
 11
-204.6340200054674
 21
-84.78511479523547
 31
0.0
  0
LINE
  5
119
330
1E
100
AcDbEntity
  8
0
  6
Continuous
 62
     3
100
AcDbLine
 10
-276.2340200054674
 20
-132.0351147952354
 30
0.0
 11
-251.8340200054673
 21
-132.0351147952354
 31
0.0
  0
LINE
  5
11A
330
1E
100
AcDbEntity
  8
0
  6
Continuous
 62
     3
100
AcDbLine
 10
-199.4840200054674
 20
-128.0351147952354
 30
0.0
 11
-199.4840200054674
 21
-129.2351147952354
 31
0.0
  0
LINE
  5
11B
330
1E
100
AcDbEntity
  8
0
  6
Continuous
 62
     3
100
AcDbLine
 10
-282.2340200054673
 20
-128.8351147952352
 30
0.0
 11
-276.2340200054674
 21
-132.0351147952354
 31
0.0
  0
LINE
  5
11C
330
1E
100
AcDbEntity
  8
0
  6
Continuous
 62
     3
100
AcDbLine
 10
-216.1840200054673
 20
-128.0351147952354
 30
0.0
 11
-200.9840200054675
 21
-128.0351147952354
 31
0.0
  0
LWPOLYLINE
  5
11D
330
1E
100
AcDbEntity
  8
0
 62
     3
100
AcDbPolyline
 90
        3
 70
     0
 43
0.0
 10
-200.9840200054675
 20
-128.0351147952354
 10
-186.2340200054674
 20
-128.0351147952354
 10
-191.2340200054675
 20
-133.2851147952354
  0
LINE
  5
122
330
1E
100
AcDbEntity
  8
0
  6
Continuous
 62
     3
100
AcDbLine
 10
-214.7340200054674
 20
-134.6851147952352
 30
0.0
 11
-214.7340200054674
 21
-132.6351147952354
 31
0.0
  0
LINE
  5
123
330
1E
100
AcDbEntity
  8
0
  6
Continuous
 62
     3
100
AcDbLine
 10
-214.4840200054674
 20
-128.0351147952354
 30
0.0
 11
-214.4840200054674
 21
-129.0351147952354
 31
0.0
  0
LINE
  5
124
330
1E
100
AcDbEntity
  8
0
  6
Continuous
 62
     3
100
AcDbLine
 10
-214.4840200054674
 20
-129.0351147952354
 30
0.0
 11
-213.4840200054675
 21
-129.0351147952354
 31
0.0
  0
LINE
  5
125
330
1E
100
AcDbEntity
  8
0
  6
Continuous
 62
     3
100
AcDbLine
 10
-213.4840200054675
 20
-128.0351147952354
 30
0.0
 11
-208.4840200054673
 21
-128.0351147952354
 31
0.0
  0
LINE
  5
126
330
1E
100
AcDbEntity
  8
0
  6
Continuous
 62
     3
100
AcDbLine
 10
-217.4840200054675
 20
-128.0351147952354
 30
0.0
 11
-214.4840200054674
 21
-128.0351147952354
 31
0.0
  0
LINE
  5
127
330
1E
100
AcDbEntity
  8
0
  6
Continuous
 62
     3
100
AcDbLine
 10
-211.7340200054675
 20
-134.6851147952352
 30
0.0
 11
-211.7340200054675
 21
-133.8851147952354
 31
0.0
  0
LINE
  5
128
330
1E
100
AcDbEntity
  8
0
  6
Continuous
 62
     3
100
AcDbLine
 10
-214.7340200054674
 20
-134.6851147952352
 30
0.0
 11
-211.7340200054675
 21
-134.6851147952352
 31
0.0
  0
LINE
  5
129
330
1E
100
AcDbEntity
  8
0
  6
Continuous
 62
     3
100
AcDbLine
 10
-208.4840200054673
 20
-129.2851147952354
 30
0.0
 11
-199.2340200054675
 21
-129.2851147952354
 31
0.0
  0
LINE
  5
12A
330
1E
100
AcDbEntity
  8
0
  6
Continuous
 62
     3
100
AcDbLine
 10
-208.4840200054673
 20
-128.0351147952354
 30
0.0
 11
-208.4840200054673
 21
-129.2851147952354
 31
0.0
  0
ARC
  5
12B
330
1E
100
AcDbEntity
  8
0
  6
Continuous
 62
     3
100
AcDbCircle
 10
-205.7340200054674
 20
-133.8851147952354
 30
0.0
 40
0.8
100
AcDbArc
 50
180.0
 51
270.000273208
  0
LINE
  5
12C
330
1E
100
AcDbEntity
  8
0
  6
Continuous
 62
     3
100
AcDbLine
 10
-199.2340200054675
 20
-129.2851147952354
 30
0.0
 11
-199.2340200054675
 21
-128.0351147952354
 31
0.0
  0
LINE
  5
12D
330
1E
100
AcDbEntity
  8
0
  6
Continuous
 62
     3
100
AcDbLine
 10
-191.2340200054675
 20
-134.6851147952352
 30
0.0
 11
-191.2340200054675
 21
-128.0351147952354
 31
0.0
  0
LINE
  5
12E
330
1E
100
AcDbEntity
  8
0
  6
Continuous
 62
     3
100
AcDbLine
 10
-199.2340200054675
 20
-128.0351147952354
 30
0.0
 11
-191.2340200054675
 21
-128.0351147952354
 31
0.0
  0
LINE
  5
12F
330
1E
100
AcDbEntity
  8
0
  6
Continuous
 62
     3
100
AcDbLine
 10
-211.7340200054675
 20
-133.8851147952354
 30
0.0
 11
-205.7340200054674
 21
-133.8851147952354
 31
0.0
  0
LINE
  5
130
330
1E
100
AcDbEntity
  8
0
  6
Continuous
 62
     3
100
AcDbLine
 10
-213.4840200054675
 20
-129.0351147952354
 30
0.0
 11
-213.4840200054675
 21
-128.0351147952354
 31
0.0
  0
LINE
  5
131
330
1E
100
AcDbEntity
  8
0
  6
Continuous
 62
     3
100
AcDbLine
 10
-214.7340200054674
 20
-132.6351147952354
 30
0.0
 11
-216.2116275624675
 21
-132.6351147952354
 31
0.0
  0
LINE
  5
132
330
1E
100
AcDbEntity
  8
0
  6
Continuous
 62
     3
100
AcDbLine
 10
-205.7340200054674
 20
-134.6851147952352
 30
0.0
 11
-205.7340200054674
 21
-133.8851147952354
 31
0.0
  0
LINE
  5
133
330
1E
100
AcDbEntity
  8
0
  6
Continuous
 62
     3
100
AcDbLine
 10
-185.2340200054674
 20
-134.6851147952352
 30
0.0
 11
-185.2340200054674
 21
-133.8851147952354
 31
0.0
  0
LINE
  5
134
330
1E
100
AcDbEntity
  8
0
  6
Continuous
 62
     3
100
AcDbLine
 10
-191.2340200054675
 20
-133.8851147952354
 30
0.0
 11
-185.2340200054674
 21
-133.8851147952354
 31
0.0
  0
LINE
  5
135
330
1E
100
AcDbEntity
  8
0
  6
Continuous
 62
     3
100
AcDbLine
 10
-205.7340200054674
 20
-134.6851147952352
 30
0.0
 11
-185.2340200054674
 21
-134.6851147952352
 31
0.0
  0
LINE
  5
136
330
1E
100
AcDbEntity
  8
0
  6
Continuous
 62
     4
100
AcDbLine
 10
-186.7340200054675
 20
-133.8851147952354
 30
0.0
 11
-186.3610866764673
 21
-133.8851147952354
 31
0.0
  0
LINE
  5
137
330
1E
100
AcDbEntity
  8
0
  6
Continuous
 62
     3
100
AcDbLine
 10
-185.4720455054675
 20
28.56195187576451
 30
0.0
 11
-282.4720455054673
 21
28.56195187576451
 31
0.0
  0
LINE
  5
138
330
1E
100
AcDbEntity
  8
0
  6
Continuous
 62
     3
100
AcDbLine
 10
-282.4720455054673
 20
16.06195187576452
 30
0.0
 11
-185.4720455054675
 21
16.06195187576452
 31
0.0
  0
LWPOLYLINE
  5
139
330
1E
100
AcDbEntity
  8
0
 62
     3
100
AcDbPolyline
 90
        4
 70
     0
 43
0.0
 10
-131.8840200054675
 20
-105.2851147952354
 10
-127.8840200054675
 20
-105.2851147952354
 10
-127.8840200054675
 20
-104.7851147952354
 10
-126.8840200054675
 20
-104.7851147952354
  0
LINE
  5
13F
330
1E
100
AcDbEntity
  8
0
  6
Continuous
 62
     3
100
AcDbLine
 10
-131.8840200054675
 20
-105.2851147952354
 30
0.0
 11
-135.8840200054675
 21
-105.2851147952354
 31
0.0
  0
LWPOLYLINE
  5
140
330
1E
100
AcDbEntity
  8
0
 62
     3
100
AcDbPolyline
 90
        3
 70
     0
 43
0.0
 10
-135.8840200054675
 20
-105.2851147952354
 10
-135.8840200054675
 20
-104.7851147952354
 10
-136.8840200054675
 20
-104.7851147952354
  0
LINE
  5
151
330
1E
100
AcDbEntity
  8
0
  6
Continuous
 62
     3
100
AcDbLine
 10
-136.8240200054674
 20
-121.7851147952352
 30
0.0
 11
-126.8840200054675
 21
-121.7851147952352
 31
0.0
  0
LINE
  5
152
330
1E
100
AcDbEntity
  8
0
  6
Continuous
 62
     3
100
AcDbLine
 10
-138.1340200054675
 20
-84.78511479523547
 30
0.0
 11
-133.8340200054674
 21
-84.78511479523547
 31
0.0
  0
LINE
  5
153
330
1E
100
AcDbEntity
  8
0
  6
Continuous
 62
     3
100
AcDbLine
 10
-138.1340200054675
 20
-103.2851147952354
 30
0.0
 11
-125.6340200054674
 21
-103.2851147952354
 31
0.0
  0
LINE
  5
154
330
1E
100
AcDbEntity
  8
0
  6
Continuous
 62
     3
100
AcDbLine
 10
-136.8840200054675
 20
-84.78511479523547
 30
0.0
 11
-136.8840200054675
 21
-103.2851147952354
 31
0.0
  0
LINE
  5
155
330
1E
100
AcDbEntity
  8
0
  6
Continuous
 62
     3
100
AcDbLine
 10
-125.6340200054674
 20
-84.78511479523547
 30
0.0
 11
-136.8840200054675
 21
-84.78511479523547
 31
0.0
  0
LINE
  5
156
330
1E
100
AcDbEntity
  8
0
  6
Continuous
 62
     3
100
AcDbLine
 10
-136.8840200054675
 20
-83.28511479523546
 30
0.0
 11
-136.8840200054675
 21
-84.78511479523547
 31
0.0
  0
LINE
  5
157
330
1E
100
AcDbEntity
  8
0
  6
Continuous
 62
     3
100
AcDbLine
 10
-126.8840200054675
 20
-83.28511479523546
 30
0.0
 11
-126.8840200054675
 21
-84.78511479523547
 31
0.0
  0
LINE
  5
158
330
1E
100
AcDbEntity
  8
0
  6
Continuous
 62
     3
100
AcDbLine
 10
-128.7340200054674
 20
-81.03511479523547
 30
0.0
 11
-135.0340200054674
 21
-81.03511479523547
 31
0.0
  0
LINE
  5
159
330
1E
100
AcDbEntity
  8
0
  6
Continuous
 62
     3
100
AcDbLine
 10
-135.0340200054674
 20
-81.03511479523547
 30
0.0
 11
-135.0340200054674
 21
-84.78511479523547
 31
0.0
  0
LINE
  5
15A
330
1E
100
AcDbEntity
  8
0
  6
Continuous
 62
     3
100
AcDbLine
 10
-134.6340200054675
 20
-128.0351147952354
 30
0.0
 11
-134.6340200054675
 21
-124.6856524292354
 31
0.0
  0
LINE
  5
15B
330
1E
100
AcDbEntity
  8
0
  6
Continuous
 62
     3
100
AcDbLine
 10
-134.6340200054675
 20
-126.2851147952354
 30
0.0
 11
-129.1340200054674
 21
-126.2851147952354
 31
0.0
  0
LINE
  5
15C
330
1E
100
AcDbEntity
  8
0
  6
Continuous
 62
     3
100
AcDbLine
 10
-129.1340200054674
 20
-128.0351147952354
 30
0.0
 11
-129.1340200054674
 21
-124.6856524292354
 31
0.0
  0
LINE
  5
15D
330
1E
100
AcDbEntity
  8
0
  6
Continuous
 62
     3
100
AcDbLine
 10
-134.6340200054675
 20
-124.6856524292354
 30
0.0
 11
-129.1340200054674
 21
-124.6856524292354
 31
0.0
  0
LINE
  5
15E
330
1E
100
AcDbEntity
  8
0
  6
Continuous
 62
     3
100
AcDbLine
 10
-134.6340200054675
 20
-128.0351147952354
 30
0.0
 11
-138.1340200054675
 21
-128.0351147952354
 31
0.0
  0
LINE
  5
15F
330
1E
100
AcDbEntity
  8
0
  6
Continuous
 62
     3
100
AcDbLine
 10
-125.6340200054674
 20
-128.0351147952354
 30
0.0
 11
-129.1340200054674
 21
-128.0351147952354
 31
0.0
  0
LINE
  5
160
330
1E
100
AcDbEntity
  8
0
  6
Continuous
 62
     3
100
AcDbLine
 10
-126.8840200054675
 20
-121.7851147952352
 30
0.0
 11
-126.8840200054675
 21
-123.2851147952354
 31
0.0
  0
LINE
  5
161
330
1E
100
AcDbEntity
  8
0
  6
Continuous
 62
     3
100
AcDbLine
 10
-136.8840200054675
 20
-103.4951147952354
 30
0.0
 11
-136.8840200054675
 21
-123.2851147952354
 31
0.0
  0
LINE
  5
162
330
1E
100
AcDbEntity
  8
0
  6
Continuous
 62
     3
100
AcDbLine
 10
-131.8840200054675
 20
-123.2851147952354
 30
0.0
 11
-136.8840200054675
 21
-123.2851147952354
 31
0.0
  0
LINE
  5
163
330
1E
100
AcDbEntity
  8
0
  6
Continuous
 62
     3
100
AcDbLine
 10
-131.8840200054675
 20
-123.2851147952354
 30
0.0
 11
-126.8840200054675
 21
-123.2851147952354
 31
0.0
  0
LINE
  5
164
330
1E
100
AcDbEntity
  8
0
  6
Continuous
 62
     3
100
AcDbLine
 10
-126.8840200054675
 20
-84.78511479523547
 30
0.0
 11
-126.8840200054675
 21
-123.2851147952354
 31
0.0
  0
POINT
  5
165
330
1E
100
AcDbEntity
  8
0
  6
Continuous
 62
     3
100
AcDbPoint
 10
-131.8840200054675
 20
-18.28511479523546
 30
0.0
  0
POINT
  5
166
330
1E
100
AcDbEntity
  8
0
  6
Continuous
 62
     3
100
AcDbPoint
 10
-131.8840200054675
 20
-18.28511479523546
 30
0.0
  0
POINT
  5
167
330
1E
100
AcDbEntity
  8
0
  6
LTYPE1
 62
     1
100
AcDbPoint
 10
-131.8840200054675
 20
-22.53511479523547
 30
0.0
  0
LINE
  5
168
330
1E
100
AcDbEntity
  8
0
  6
Continuous
 62
     1
100
AcDbLine
 10
-131.8840200054675
 20
-17.54005711023546
 30
0.0
 11
-131.8790776904674
 21
-17.53511479523547
 31
0.0
  0
LINE
  5
169
330
1E
100
AcDbEntity
  8
0
  6
Continuous
 62
     1
100
AcDbLine
 10
-125.6340200054674
 20
-66.44438604223548
 30
0.0
 11
-125.7247487584675
 21
-66.53511479523547
 31
0.0
  0
LINE
  5
16A
330
1E
100
AcDbEntity
  8
0
  6
Continuous
 62
     3
100
AcDbLine
 10
-131.8840200054675
 20
-17.03511479523547
 30
0.0
 11
-131.8840200054675
 21
-18.53511479523547
 31
0.0
  0
LINE
  5
16B
330
1E
100
AcDbEntity
  8
0
  6
Continuous
 62
     3
100
AcDbLine
 10
-131.8840200054675
 20
-66.53511479523547
 30
0.0
 11
-125.6340200054674
 21
-66.53511479523547
 31
0.0
  0
LINE
  5
16C
330
1E
100
AcDbEntity
  8
0
  6
Continuous
 62
     3
100
AcDbLine
 10
-131.8840200054675
 20
-70.53511479523547
 30
0.0
 11
-131.8840200054675
 21
-66.53511479523547
 31
0.0
  0
LINE
  5
16D
330
1E
100
AcDbEntity
  8
0
  6
Continuous
 62
     3
100
AcDbLine
 10
-125.6340200054674
 20
-70.53511479523547
 30
0.0
 11
-131.8840200054675
 21
-70.53511479523547
 31
0.0
  0
LINE
  5
16E
330
1E
100
AcDbEntity
  8
0
  6
Continuous
 62
     3
100
AcDbLine
 10
-128.8840200054675
 20
-66.53511479523547
 30
0.0
 11
-128.8840200054675
 21
-70.53511479523547
 31
0.0
  0
LINE
  5
16F
330
1E
100
AcDbEntity
  8
0
  6
Continuous
 62
     3
100
AcDbLine
 10
-127.1340200054674
 20
-84.78511479523547
 30
0.0
 11
-125.6340200054674
 21
-84.78511479523547
 31
0.0
  0
LINE
  5
170
330
1E
100
AcDbEntity
  8
0
  6
Continuous
 62
     3
100
AcDbLine
 10
-131.8840200054675
 20
-63.18511479523547
 30
0.0
 11
-131.8840200054675
 21
-55.93511479523548
 31
0.0
  0
LINE
  5
171
330
1E
100
AcDbEntity
  8
0
  6
Continuous
 62
     3
100
AcDbLine
 10
-125.6340200054674
 20
-57.93511479523548
 30
0.0
 11
-125.6340200054674
 21
-84.78511479523547
 31
0.0
  0
LINE
  5
172
330
1E
100
AcDbEntity
  8
0
  6
Continuous
 62
     3
100
AcDbLine
 10
-126.1340200054674
 20
-17.03511479523547
 30
0.0
 11
-131.8840200054675
 21
-17.03511479523547
 31
0.0
  0
LINE
  5
173
330
1E
100
AcDbEntity
  8
0
  6
Continuous
 62
     3
100
AcDbLine
 10
-131.8840200054675
 20
-56.48511479523548
 30
0.0
 11
-131.8840200054675
 21
-18.53511479523547
 31
0.0
  0
LWPOLYLINE
  5
174
330
1E
100
AcDbEntity
  8
0
 62
     3
100
AcDbPolyline
 90
        4
 70
     0
 43
0.0
 10
-131.8840200054675
 20
-17.53511479523547
 10
-131.8840200054675
 20
-18.28511479523546
 10
-131.8840200054675
 20
-18.28511479523546
 10
-131.8840200054675
 20
-18.28511479523546
  0
POINT
  5
17A
330
1E
100
AcDbEntity
  8
0
  6
LTYPE1
 62
     1
100
AcDbPoint
 10
-131.8840200054675
 20
-22.53511479523547
 30
0.0
  0
LINE
  5
17B
330
1E
100
AcDbEntity
  8
0
  6
LTYPE1
 62
     1
100
AcDbLine
 10
-134.8840200054675
 20
-81.03511479523547
 30
0.0
 11
-134.8840200054675
 21
-78.36311479523548
 31
0.0
  0
LINE
  5
17D
330
1E
100
AcDbEntity
  8
0
  6
Continuous
 62
     3
100
AcDbLine
 10
-129.3840200054675
 20
-66.78511479523547
 30
0.0
 11
-129.3840200054675
 21
-70.28511479523547
 31
0.0
  0
LINE
  5
17E
330
1E
100
AcDbEntity
  8
0
  6
Continuous
 62
     3
100
AcDbLine
 10
-129.3840200054675
 20
-66.78511479523547
 30
0.0
 11
-131.8840200054675
 21
-66.78511479523547
 31
0.0
  0
LWPOLYLINE
  5
17F
330
1E
100
AcDbEntity
  8
0
 62
     3
100
AcDbPolyline
 90
        3
 70
     0
 43
0.0
 10
-129.3840200054675
 20
-70.28511479523547
 10
-131.8840200054675
 20
-70.28511479523547
 10
-131.8840200054675
 20
-66.78511479523547
  0
LINE
  5
184
330
1E
100
AcDbEntity
  8
0
  6
Continuous
 62
     3
100
AcDbLine
 10
-128.8840200054675
 20
-81.03511479523547
 30
0.0
 11
-128.8840200054675
 21
-84.28511479523548
 31
0.0
  0
LINE
  5
185
330
1E
100
AcDbEntity
  8
0
  6
Continuous
 62
     3
100
AcDbLine
 10
-131.8840200054675
 20
-51.69311479523546
 30
0.0
 11
-131.8840200054675
 21
-17.03511479523547
 31
0.0
  0
LINE
  5
186
330
1E
100
AcDbEntity
  8
0
  6
Continuous
 62
     3
100
AcDbLine
 10
-128.8840200054675
 20
-82.53511479523547
 30
0.0
 11
-134.8840200054675
 21
-82.53511479523547
 31
0.0
  0
LWPOLYLINE
  5
187
330
1E
100
AcDbEntity
  8
0
 62
     3
100
AcDbPolyline
 90
        3
 70
     0
 43
0.0
 10
-128.8840200054675
 20
-84.28511479523548
 10
-134.8840200054675
 20
-84.28511479523548
 10
-134.8840200054675
 20
-71.28511479523547
  0
LINE
  5
18C
330
1E
100
AcDbEntity
  8
0
  6
Continuous
 62
     3
100
AcDbLine
 10
-134.8840200054675
 20
-71.28511479523547
 30
0.0
 11
-134.8840200054675
 21
-70.28511479523547
 31
0.0
  0
LINE
  5
18D
330
1E
100
AcDbEntity
  8
0
  6
Continuous
 62
     3
100
AcDbLine
 10
-134.8840200054675
 20
-66.78511479523547
 30
0.0
 11
-134.8840200054675
 21
-65.78511479523547
 31
0.0
  0
LINE
  5
18E
330
1E
100
AcDbEntity
  8
0
  6
Continuous
 62
     3
100
AcDbLine
 10
-128.8840200054675
 20
-81.03511479523547
 30
0.0
 11
-130.8840200054675
 21
-81.03511479523547
 31
0.0
  0
LINE
  5
18F
330
1E
100
AcDbEntity
  8
0
  6
Continuous
 62
     3
100
AcDbLine
 10
-130.8840200054675
 20
-81.03511479523547
 30
0.0
 11
-135.0340200054674
 21
-81.03511479523547
 31
0.0
  0
LINE
  5
190
330
1E
100
AcDbEntity
  8
0
  6
Continuous
 62
     3
100
AcDbLine
 10
-137.6340200054675
 20
-17.03511479523547
 30
0.0
 11
-131.8840200054675
 21
-17.03511479523547
 31
0.0
  0
LINE
  5
191
330
1E
100
AcDbEntity
  8
0
  6
Continuous
 62
     3
100
AcDbLine
 10
-138.1340200054675
 20
-18.03511479523546
 30
0.0
 11
-138.1340200054675
 21
-51.69311479523546
 31
0.0
  0
LINE
  5
192
330
1E
100
AcDbEntity
  8
0
  6
Continuous
 62
     3
100
AcDbLine
 10
-137.6340200054675
 20
-17.03511479523547
 30
0.0
 11
-138.1340200054675
 21
-18.03511479523546
 31
0.0
  0
LINE
  5
193
330
1E
100
AcDbEntity
  8
0
  6
Continuous
 62
     3
100
AcDbLine
 10
-138.1340200054675
 20
-51.27011479523547
 30
0.0
 11
-138.1340200054675
 21
-78.36311479523548
 31
0.0
  0
LINE
  5
194
330
1E
100
AcDbEntity
  8
0
  6
Continuous
 62
     3
100
AcDbLine
 10
-138.1340200054675
 20
-78.36311479523548
 30
0.0
 11
-138.1340200054675
 21
-84.78511479523547
 31
0.0
  0
LINE
  5
195
330
1E
100
AcDbEntity
  8
0
  6
Continuous
 62
     3
100
AcDbLine
 10
-136.6340200054675
 20
-84.78511479523547
 30
0.0
 11
-138.1340200054675
 21
-84.78511479523547
 31
0.0
  0
LINE
  5
196
330
1E
100
AcDbEntity
  8
0
  6
Continuous
 62
     3
100
AcDbLine
 10
-131.8840200054675
 20
-63.18511479523547
 30
0.0
 11
-138.1340200054675
 21
-63.18511479523547
 31
0.0
  0
LINE
  5
197
330
1E
100
AcDbEntity
  8
0
  6
Continuous
 62
     3
100
AcDbLine
 10
-134.8840200054675
 20
-70.78511479523547
 30
0.0
 11
-138.1840200054675
 21
-70.78511479523547
 31
0.0
  0
LINE
  5
198
330
1E
100
AcDbEntity
  8
0
  6
Continuous
 62
     6
100
AcDbLine
 10
-137.6340200054675
 20
-61.78511479523547
 30
0.0
 11
-137.6340200054675
 21
-63.18511479523547
 31
0.0
  0
LINE
  5
199
330
1E
100
AcDbEntity
  8
0
  6
Continuous
 62
     3
100
AcDbLine
 10
-125.6340200054674
 20
-44.28511479523547
 30
0.0
 11
-129.0840200054675
 21
-44.28511479523547
 31
0.0
  0
LINE
  5
19A
330
1E
100
AcDbEntity
  8
0
  6
Continuous
 62
     3
100
AcDbLine
 10
-127.1340200054674
 20
-28.28511479523546
 30
0.0
 11
-127.1340200054674
 21
-30.28511479523547
 31
0.0
  0
LINE
  5
19B
330
1E
100
AcDbEntity
  8
0
  6
Continuous
 62
     3
100
AcDbLine
 10
-127.1340200054674
 20
-24.78511479523547
 30
0.0
 11
-127.1340200054674
 21
-26.78511479523546
 31
0.0
  0
LINE
  5
19C
330
1E
100
AcDbEntity
  8
0
  6
Continuous
 62
     6
100
AcDbLine
 10
-126.1340200054674
 20
-28.28511479523546
 30
0.0
 11
-126.1340200054674
 21
-26.78511479523546
 31
0.0
  0
LINE
  5
19D
330
1E
100
AcDbEntity
  8
0
  6
Continuous
 62
     3
100
AcDbLine
 10
-127.1340200054674
 20
-31.78511479523546
 30
0.0
 11
-127.1340200054674
 21
-33.28511479523546
 31
0.0
  0
LINE
  5
19E
330
1E
100
AcDbEntity
  8
0
  6
Continuous
 62
     3
100
AcDbLine
 10
-127.1340200054674
 20
-33.28511479523546
 30
0.0
 11
-127.1340200054674
 21
-33.78511479523546
 31
0.0
  0
LINE
  5
19F
330
1E
100
AcDbEntity
  8
0
  6
Continuous
 62
     3
100
AcDbLine
 10
-127.1340200054674
 20
-35.28511479523546
 30
0.0
 11
-127.1340200054674
 21
-37.28511479523546
 31
0.0
  0
LINE
  5
1A0
330
1E
100
AcDbEntity
  8
0
  6
Continuous
 62
     3
100
AcDbLine
 10
-127.1340200054674
 20
-38.78511479523546
 30
0.0
 11
-127.1340200054674
 21
-40.78511479523546
 31
0.0
  0
LINE
  5
1A1
330
1E
100
AcDbEntity
  8
0
  6
Continuous
 62
     3
100
AcDbLine
 10
-127.1340200054674
 20
-42.31711479523546
 30
0.0
 11
-127.1340200054674
 21
-44.28511479523547
 31
0.0
  0
LINE
  5
1A2
330
1E
100
AcDbEntity
  8
0
  6
Continuous
 62
     3
100
AcDbLine
 10
-127.1340200054674
 20
-45.78511479523547
 30
0.0
 11
-127.1340200054674
 21
-47.78511479523547
 31
0.0
  0
LINE
  5
1A3
330
1E
100
AcDbEntity
  8
0
  6
Continuous
 62
     3
100
AcDbLine
 10
-127.1340200054674
 20
-49.28511479523547
 30
0.0
 11
-127.1340200054674
 21
-51.28511479523547
 31
0.0
  0
LINE
  5
1A4
330
1E
100
AcDbEntity
  8
0
  6
Continuous
 62
     3
100
AcDbLine
 10
-127.1340200054674
 20
-52.78511479523547
 30
0.0
 11
-127.1340200054674
 21
-54.78511479523547
 31
0.0
  0
LINE
  5
1A5
330
1E
100
AcDbEntity
  8
0
  6
Continuous
 62
     3
100
AcDbLine
 10
-127.1340200054674
 20
-56.28511479523547
 30
0.0
 11
-127.1340200054674
 21
-58.28511479523547
 31
0.0
  0
LINE
  5
1A6
330
1E
100
AcDbEntity
  8
0
  6
Continuous
 62
     3
100
AcDbLine
 10
-127.1340200054674
 20
-59.78511479523547
 30
0.0
 11
-127.1340200054674
 21
-61.78511479523547
 31
0.0
  0
LINE
  5
1A7
330
1E
100
AcDbEntity
  8
0
  6
Continuous
 62
     3
100
AcDbLine
 10
-129.0840200054675
 20
-61.78511479523547
 30
0.0
 11
-125.6340200054674
 21
-61.78511479523547
 31
0.0
  0
LINE
  5
1A8
330
1E
100
AcDbEntity
  8
0
  6
Continuous
 62
     3
100
AcDbLine
 10
-138.1340200054675
 20
-44.28511479523547
 30
0.0
 11
-134.6840200054673
 21
-44.28511479523547
 31
0.0
  0
LINE
  5
1A9
330
1E
100
AcDbEntity
  8
0
  6
Continuous
 62
     3
100
AcDbLine
 10
-136.6340200054675
 20
-28.28511479523546
 30
0.0
 11
-136.6340200054675
 21
-30.28511479523547
 31
0.0
  0
LINE
  5
1AA
330
1E
100
AcDbEntity
  8
0
  6
Continuous
 62
     3
100
AcDbLine
 10
-136.6340200054675
 20
-24.78511479523547
 30
0.0
 11
-136.6340200054675
 21
-26.78511479523546
 31
0.0
  0
LINE
  5
1AB
330
1E
100
AcDbEntity
  8
0
  6
Continuous
 62
     6
100
AcDbLine
 10
-137.6340200054675
 20
-28.28511479523546
 30
0.0
 11
-137.6340200054675
 21
-26.78511479523546
 31
0.0
  0
LINE
  5
1AC
330
1E
100
AcDbEntity
  8
0
  6
Continuous
 62
     3
100
AcDbLine
 10
-136.6340200054675
 20
-31.78511479523546
 30
0.0
 11
-136.6340200054675
 21
-33.28511479523546
 31
0.0
  0
LINE
  5
1AD
330
1E
100
AcDbEntity
  8
0
  6
Continuous
 62
     3
100
AcDbLine
 10
-136.6340200054675
 20
-33.28511479523546
 30
0.0
 11
-136.6340200054675
 21
-33.78511479523546
 31
0.0
  0
LINE
  5
1AE
330
1E
100
AcDbEntity
  8
0
  6
Continuous
 62
     3
100
AcDbLine
 10
-136.6340200054675
 20
-35.28511479523546
 30
0.0
 11
-136.6340200054675
 21
-37.28511479523546
 31
0.0
  0
LINE
  5
1AF
330
1E
100
AcDbEntity
  8
0
  6
Continuous
 62
     3
100
AcDbLine
 10
-136.6340200054675
 20
-38.78511479523546
 30
0.0
 11
-136.6340200054675
 21
-40.78511479523546
 31
0.0
  0
LINE
  5
1B0
330
1E
100
AcDbEntity
  8
0
  6
Continuous
 62
     3
100
AcDbLine
 10
-136.6340200054675
 20
-42.31711479523546
 30
0.0
 11
-136.6340200054675
 21
-44.28511479523547
 31
0.0
  0
LINE
  5
1B1
330
1E
100
AcDbEntity
  8
0
  6
Continuous
 62
     3
100
AcDbLine
 10
-136.6340200054675
 20
-45.78511479523547
 30
0.0
 11
-136.6340200054675
 21
-47.78511479523547
 31
0.0
  0
LINE
  5
1B2
330
1E
100
AcDbEntity
  8
0
  6
Continuous
 62
     3
100
AcDbLine
 10
-136.6340200054675
 20
-49.28511479523547
 30
0.0
 11
-136.6340200054675
 21
-51.28511479523547
 31
0.0
  0
LINE
  5
1B3
330
1E
100
AcDbEntity
  8
0
  6
Continuous
 62
     3
100
AcDbLine
 10
-136.6340200054675
 20
-52.78511479523547
 30
0.0
 11
-136.6340200054675
 21
-54.78511479523547
 31
0.0
  0
LINE
  5
1B4
330
1E
100
AcDbEntity
  8
0
  6
Continuous
 62
     3
100
AcDbLine
 10
-136.6340200054675
 20
-56.28511479523547
 30
0.0
 11
-136.6340200054675
 21
-58.28511479523547
 31
0.0
  0
LINE
  5
1B5
330
1E
100
AcDbEntity
  8
0
  6
Continuous
 62
     3
100
AcDbLine
 10
-136.6340200054675
 20
-59.78511479523547
 30
0.0
 11
-136.6340200054675
 21
-61.78511479523547
 31
0.0
  0
LINE
  5
1B6
330
1E
100
AcDbEntity
  8
0
  6
Continuous
 62
     3
100
AcDbLine
 10
-134.6840200054673
 20
-61.78511479523547
 30
0.0
 11
-138.1340200054675
 21
-61.78511479523547
 31
0.0
  0
LINE
  5
1B7
330
1E
100
AcDbEntity
  8
0
  6
Continuous
 62
     6
100
AcDbLine
 10
-137.6340200054675
 20
-26.78511479523546
 30
0.0
 11
-137.6340200054675
 21
-28.28511479523546
 31
0.0
  0
LINE
  5
1B8
330
1E
100
AcDbEntity
  8
0
  6
Continuous
 62
     6
100
AcDbLine
 10
-137.6340200054675
 20
-30.28511479523547
 30
0.0
 11
-137.6340200054675
 21
-31.78511479523546
 31
0.0
  0
LINE
  5
1B9
330
1E
100
AcDbEntity
  8
0
  6
Continuous
 62
     6
100
AcDbLine
 10
-137.6340200054675
 20
-33.78511479523546
 30
0.0
 11
-137.6340200054675
 21
-35.28511479523546
 31
0.0
  0
LINE
  5
1BA
330
1E
100
AcDbEntity
  8
0
  6
Continuous
 62
     6
100
AcDbLine
 10
-137.6340200054675
 20
-59.78511479523547
 30
0.0
 11
-137.6340200054675
 21
-58.28511479523547
 31
0.0
  0
LINE
  5
1BB
330
1E
100
AcDbEntity
  8
0
  6
Continuous
 62
     6
100
AcDbLine
 10
-137.6340200054675
 20
-56.28511479523547
 30
0.0
 11
-137.6340200054675
 21
-54.78511479523547
 31
0.0
  0
LINE
  5
1BC
330
1E
100
AcDbEntity
  8
0
  6
Continuous
 62
     6
100
AcDbLine
 10
-137.6340200054675
 20
-52.78511479523547
 30
0.0
 11
-137.6340200054675
 21
-51.28511479523547
 31
0.0
  0
LINE
  5
1BD
330
1E
100
AcDbEntity
  8
0
  6
Continuous
 62
     6
100
AcDbLine
 10
-137.6340200054675
 20
-49.28511479523547
 30
0.0
 11
-137.6340200054675
 21
-47.78511479523547
 31
0.0
  0
LINE
  5
1BE
330
1E
100
AcDbEntity
  8
0
  6
Continuous
 62
     6
100
AcDbLine
 10
-137.6340200054675
 20
-38.78511479523546
 30
0.0
 11
-137.6340200054675
 21
-37.28511479523546
 31
0.0
  0
LINE
  5
1BF
330
1E
100
AcDbEntity
  8
0
  6
Continuous
 62
     6
100
AcDbLine
 10
-137.6340200054675
 20
-42.28511479523546
 30
0.0
 11
-137.6340200054675
 21
-40.78511479523546
 31
0.0
  0
LINE
  5
1C0
330
1E
100
AcDbEntity
  8
0
  6
Continuous
 62
     6
100
AcDbLine
 10
-137.6340200054675
 20
-45.78511479523547
 30
0.0
 11
-137.6340200054675
 21
-44.28511479523547
 31
0.0
  0
LINE
  5
1C1
330
1E
100
AcDbEntity
  8
0
  6
Continuous
 62
     6
100
AcDbLine
 10
-126.1340200054674
 20
-30.28511479523547
 30
0.0
 11
-126.1340200054674
 21
-31.78511479523546
 31
0.0
  0
LINE
  5
1C2
330
1E
100
AcDbEntity
  8
0
  6
Continuous
 62
     6
100
AcDbLine
 10
-126.1340200054674
 20
-33.78511479523546
 30
0.0
 11
-126.1340200054674
 21
-35.28511479523546
 31
0.0
  0
LINE
  5
1C3
330
1E
100
AcDbEntity
  8
0
  6
Continuous
 62
     6
100
AcDbLine
 10
-126.1340200054674
 20
-37.28511479523546
 30
0.0
 11
-126.1340200054674
 21
-38.78511479523546
 31
0.0
  0
LINE
  5
1C4
330
1E
100
AcDbEntity
  8
0
  6
Continuous
 62
     6
100
AcDbLine
 10
-126.1340200054674
 20
-40.78511479523546
 30
0.0
 11
-126.1340200054674
 21
-42.28511479523546
 31
0.0
  0
LINE
  5
1C5
330
1E
100
AcDbEntity
  8
0
  6
Continuous
 62
     6
100
AcDbLine
 10
-126.1340200054674
 20
-44.28511479523547
 30
0.0
 11
-126.1340200054674
 21
-45.78511479523547
 31
0.0
  0
LINE
  5
1C6
330
1E
100
AcDbEntity
  8
0
  6
Continuous
 62
     6
100
AcDbLine
 10
-126.1340200054674
 20
-47.78511479523547
 30
0.0
 11
-126.1340200054674
 21
-49.28511479523547
 31
0.0
  0
LINE
  5
1C7
330
1E
100
AcDbEntity
  8
0
  6
Continuous
 62
     6
100
AcDbLine
 10
-126.1340200054674
 20
-51.28511479523547
 30
0.0
 11
-126.1340200054674
 21
-52.78511479523547
 31
0.0
  0
LINE
  5
1C8
330
1E
100
AcDbEntity
  8
0
  6
Continuous
 62
     6
100
AcDbLine
 10
-126.1340200054674
 20
-54.78511479523547
 30
0.0
 11
-126.1340200054674
 21
-56.28511479523547
 31
0.0
  0
LINE
  5
1C9
330
1E
100
AcDbEntity
  8
0
  6
Continuous
 62
     6
100
AcDbLine
 10
-126.1340200054674
 20
-58.28511479523547
 30
0.0
 11
-126.1340200054674
 21
-59.78511479523547
 31
0.0
  0
LINE
  5
1CA
330
1E
100
AcDbEntity
  8
0
  6
Continuous
 62
     3
100
AcDbLine
 10
-125.6340200054674
 20
-18.03511479523546
 30
0.0
 11
-125.6340200054674
 21
-58.48511479523548
 31
0.0
  0
LINE
  5
1CB
330
1E
100
AcDbEntity
  8
0
  6
Continuous
 62
     3
100
AcDbLine
 10
-126.1340200054674
 20
-17.03511479523547
 30
0.0
 11
-125.6340200054674
 21
-18.03511479523546
 31
0.0
  0
LINE
  5
1CC
330
1E
100
AcDbEntity
  8
0
  6
Continuous
 62
     3
100
AcDbLine
 10
-131.8840200054675
 20
-63.18511479523547
 30
0.0
 11
-134.3840200054674
 21
-63.18511479523547
 31
0.0
  0
LINE
  5
1CD
330
1E
100
AcDbEntity
  8
0
  6
Continuous
 62
     3
100
AcDbLine
 10
-134.8840200054675
 20
-77.28511479523547
 30
0.0
 11
-134.8840200054675
 21
-63.68511479523547
 31
0.0
  0
ARC
  5
1CE
330
1E
100
AcDbEntity
  8
0
  6
Continuous
 62
     3
100
AcDbCircle
 10
-134.3840200054674
 20
-63.68511479523547
 30
0.0
 40
0.5
100
AcDbArc
 50
90.0
 51
180.0
  0
LINE
  5
1CF
330
1E
100
AcDbEntity
  8
0
  6
Continuous
 62
     3
100
AcDbLine
 10
-129.3840200054675
 20
-35.28511479523546
 30
0.0
 11
-129.3840200054675
 21
-37.28511479523546
 31
0.0
  0
LINE
  5
1D0
330
1E
100
AcDbEntity
  8
0
  6
Continuous
 62
     3
100
AcDbLine
 10
-129.3840200054675
 20
-31.78511479523546
 30
0.0
 11
-129.3840200054675
 21
-33.78511479523546
 31
0.0
  0
LINE
  5
1D1
330
1E
100
AcDbEntity
  8
0
  6
Continuous
 62
     3
100
AcDbLine
 10
-129.3840200054675
 20
-28.28511479523546
 30
0.0
 11
-129.3840200054675
 21
-30.28511479523547
 31
0.0
  0
LINE
  5
1D2
330
1E
100
AcDbEntity
  8
0
  6
Continuous
 62
     3
100
AcDbLine
 10
-129.3840200054675
 20
-24.78511479523547
 30
0.0
 11
-129.3840200054675
 21
-26.78511479523546
 31
0.0
  0
LINE
  5
1D3
330
1E
100
AcDbEntity
  8
0
  6
Continuous
 62
     3
100
AcDbLine
 10
-129.3840200054675
 20
-42.28511479523546
 30
0.0
 11
-129.3840200054675
 21
-44.28511479523547
 31
0.0
  0
LINE
  5
1D4
330
1E
100
AcDbEntity
  8
0
  6
Continuous
 62
     3
100
AcDbLine
 10
-129.3840200054675
 20
-44.28511479523547
 30
0.0
 11
-127.3840200054674
 21
-44.28511479523547
 31
0.0
  0
LINE
  5
1D5
330
1E
100
AcDbEntity
  8
0
  6
Continuous
 62
     3
100
AcDbLine
 10
-129.3840200054675
 20
-38.78511479523546
 30
0.0
 11
-129.3840200054675
 21
-40.78511479523546
 31
0.0
  0
LINE
  5
1D6
330
1E
100
AcDbEntity
  8
0
  6
Continuous
 62
     3
100
AcDbLine
 10
-129.3840200054675
 20
-45.78511479523547
 30
0.0
 11
-129.3840200054675
 21
-47.78511479523547
 31
0.0
  0
LINE
  5
1D7
330
1E
100
AcDbEntity
  8
0
  6
Continuous
 62
     3
100
AcDbLine
 10
-129.3840200054675
 20
-49.28511479523547
 30
0.0
 11
-129.3840200054675
 21
-51.28511479523547
 31
0.0
  0
LINE
  5
1D8
330
1E
100
AcDbEntity
  8
0
  6
Continuous
 62
     3
100
AcDbLine
 10
-129.3840200054675
 20
-52.78511479523547
 30
0.0
 11
-129.3840200054675
 21
-54.78511479523547
 31
0.0
  0
LINE
  5
1D9
330
1E
100
AcDbEntity
  8
0
  6
Continuous
 62
     3
100
AcDbLine
 10
-129.3840200054675
 20
-56.28511479523547
 30
0.0
 11
-129.3840200054675
 21
-58.28511479523547
 31
0.0
  0
LINE
  5
1DA
330
1E
100
AcDbEntity
  8
0
  6
Continuous
 62
     3
100
AcDbLine
 10
-129.3840200054675
 20
-59.78511479523547
 30
0.0
 11
-129.3840200054675
 21
-61.78511479523547
 31
0.0
  0
LINE
  5
1DB
330
1E
100
AcDbEntity
  8
0
  6
Continuous
 62
     3
100
AcDbLine
 10
-129.3840200054675
 20
-61.78511479523547
 30
0.0
 11
-127.3840200054674
 21
-61.78511479523547
 31
0.0
  0
LINE
  5
1DC
330
1E
100
AcDbEntity
  8
0
  6
Continuous
 62
     3
100
AcDbLine
 10
-129.3840200054675
 20
-24.78511479523547
 30
0.0
 11
-125.6340200054674
 21
-24.78511479523547
 31
0.0
  0
LINE
  5
1DD
330
1E
100
AcDbEntity
  8
0
  6
Continuous
 62
     3
100
AcDbLine
 10
-129.3840200054675
 20
-26.78511479523546
 30
0.0
 11
-125.6340200054674
 21
-26.78511479523546
 31
0.0
  0
LINE
  5
1DE
330
1E
100
AcDbEntity
  8
0
  6
Continuous
 62
     3
100
AcDbLine
 10
-129.3840200054675
 20
-30.28511479523547
 30
0.0
 11
-125.6340200054674
 21
-30.28511479523547
 31
0.0
  0
LINE
  5
1DF
330
1E
100
AcDbEntity
  8
0
  6
Continuous
 62
     3
100
AcDbLine
 10
-129.3840200054675
 20
-31.78511479523546
 30
0.0
 11
-125.6340200054674
 21
-31.78511479523546
 31
0.0
  0
LINE
  5
1E0
330
1E
100
AcDbEntity
  8
0
  6
Continuous
 62
     3
100
AcDbLine
 10
-129.3840200054675
 20
-33.78511479523546
 30
0.0
 11
-125.6340200054674
 21
-33.78511479523546
 31
0.0
  0
LINE
  5
1E1
330
1E
100
AcDbEntity
  8
0
  6
Continuous
 62
     3
100
AcDbLine
 10
-129.3840200054675
 20
-35.28511479523546
 30
0.0
 11
-125.6340200054674
 21
-35.28511479523546
 31
0.0
  0
LINE
  5
1E2
330
1E
100
AcDbEntity
  8
0
  6
Continuous
 62
     3
100
AcDbLine
 10
-129.3840200054675
 20
-37.28511479523546
 30
0.0
 11
-125.6340200054674
 21
-37.28511479523546
 31
0.0
  0
LINE
  5
1E3
330
1E
100
AcDbEntity
  8
0
  6
Continuous
 62
     3
100
AcDbLine
 10
-129.3840200054675
 20
-38.78511479523546
 30
0.0
 11
-125.6340200054674
 21
-38.78511479523546
 31
0.0
  0
LINE
  5
1E4
330
1E
100
AcDbEntity
  8
0
  6
Continuous
 62
     3
100
AcDbLine
 10
-129.3840200054675
 20
-40.78511479523546
 30
0.0
 11
-125.6340200054674
 21
-40.78511479523546
 31
0.0
  0
LINE
  5
1E5
330
1E
100
AcDbEntity
  8
0
  6
Continuous
 62
     3
100
AcDbLine
 10
-129.3840200054675
 20
-42.28511479523546
 30
0.0
 11
-125.6340200054674
 21
-42.28511479523546
 31
0.0
  0
LINE
  5
1E6
330
1E
100
AcDbEntity
  8
0
  6
Continuous
 62
     3
100
AcDbLine
 10
-129.3840200054675
 20
-45.78511479523547
 30
0.0
 11
-125.6340200054674
 21
-45.78511479523547
 31
0.0
  0
LINE
  5
1E7
330
1E
100
AcDbEntity
  8
0
  6
Continuous
 62
     3
100
AcDbLine
 10
-129.3840200054675
 20
-47.78511479523547
 30
0.0
 11
-125.6340200054674
 21
-47.78511479523547
 31
0.0
  0
LINE
  5
1E8
330
1E
100
AcDbEntity
  8
0
  6
Continuous
 62
     3
100
AcDbLine
 10
-129.3840200054675
 20
-49.28511479523547
 30
0.0
 11
-125.6340200054674
 21
-49.28511479523547
 31
0.0
  0
LINE
  5
1E9
330
1E
100
AcDbEntity
  8
0
  6
Continuous
 62
     3
100
AcDbLine
 10
-129.3840200054675
 20
-51.28511479523547
 30
0.0
 11
-125.6340200054674
 21
-51.28511479523547
 31
0.0
  0
LINE
  5
1EA
330
1E
100
AcDbEntity
  8
0
  6
Continuous
 62
     3
100
AcDbLine
 10
-129.3840200054675
 20
-52.78511479523547
 30
0.0
 11
-125.6340200054674
 21
-52.78511479523547
 31
0.0
  0
LINE
  5
1EB
330
1E
100
AcDbEntity
  8
0
  6
Continuous
 62
     3
100
AcDbLine
 10
-129.3840200054675
 20
-54.78511479523547
 30
0.0
 11
-125.6340200054674
 21
-54.78511479523547
 31
0.0
  0
LINE
  5
1EC
330
1E
100
AcDbEntity
  8
0
  6
Continuous
 62
     3
100
AcDbLine
 10
-129.3840200054675
 20
-56.28511479523547
 30
0.0
 11
-125.6340200054674
 21
-56.28511479523547
 31
0.0
  0
LINE
  5
1ED
330
1E
100
AcDbEntity
  8
0
  6
Continuous
 62
     3
100
AcDbLine
 10
-129.3840200054675
 20
-58.28511479523547
 30
0.0
 11
-125.6340200054674
 21
-58.28511479523547
 31
0.0
  0
LINE
  5
1EE
330
1E
100
AcDbEntity
  8
0
  6
Continuous
 62
     3
100
AcDbLine
 10
-129.3840200054675
 20
-59.78511479523547
 30
0.0
 11
-125.6340200054674
 21
-59.78511479523547
 31
0.0
  0
LINE
  5
1EF
330
1E
100
AcDbEntity
  8
0
  6
Continuous
 62
     3
100
AcDbLine
 10
-129.3840200054675
 20
-28.28511479523546
 30
0.0
 11
-125.6340200054674
 21
-28.28511479523546
 31
0.0
  0
LINE
  5
1F0
330
1E
100
AcDbEntity
  8
0
  6
Continuous
 62
     3
100
AcDbLine
 10
-134.3840200054674
 20
-35.28511479523546
 30
0.0
 11
-134.3840200054674
 21
-37.28511479523546
 31
0.0
  0
LINE
  5
1F1
330
1E
100
AcDbEntity
  8
0
  6
Continuous
 62
     3
100
AcDbLine
 10
-134.3840200054674
 20
-31.78511479523546
 30
0.0
 11
-134.3840200054674
 21
-33.78511479523546
 31
0.0
  0
LINE
  5
1F2
330
1E
100
AcDbEntity
  8
0
  6
Continuous
 62
     3
100
AcDbLine
 10
-134.3840200054674
 20
-28.28511479523546
 30
0.0
 11
-134.3840200054674
 21
-30.28511479523547
 31
0.0
  0
LINE
  5
1F3
330
1E
100
AcDbEntity
  8
0
  6
Continuous
 62
     3
100
AcDbLine
 10
-134.3840200054674
 20
-24.78511479523547
 30
0.0
 11
-134.3840200054674
 21
-26.78511479523546
 31
0.0
  0
LINE
  5
1F4
330
1E
100
AcDbEntity
  8
0
  6
Continuous
 62
     3
100
AcDbLine
 10
-134.3840200054674
 20
-42.28511479523546
 30
0.0
 11
-134.3840200054674
 21
-44.28511479523547
 31
0.0
  0
LINE
  5
1F5
330
1E
100
AcDbEntity
  8
0
  6
Continuous
 62
     3
100
AcDbLine
 10
-134.3840200054674
 20
-44.28511479523547
 30
0.0
 11
-136.3840200054674
 21
-44.28511479523547
 31
0.0
  0
LINE
  5
1F6
330
1E
100
AcDbEntity
  8
0
  6
Continuous
 62
     3
100
AcDbLine
 10
-134.3840200054674
 20
-38.78511479523546
 30
0.0
 11
-134.3840200054674
 21
-40.78511479523546
 31
0.0
  0
LINE
  5
1F7
330
1E
100
AcDbEntity
  8
0
  6
Continuous
 62
     3
100
AcDbLine
 10
-134.3840200054674
 20
-45.78511479523547
 30
0.0
 11
-134.3840200054674
 21
-47.78511479523547
 31
0.0
  0
LINE
  5
1F8
330
1E
100
AcDbEntity
  8
0
  6
Continuous
 62
     3
100
AcDbLine
 10
-134.3840200054674
 20
-49.28511479523547
 30
0.0
 11
-134.3840200054674
 21
-51.28511479523547
 31
0.0
  0
LINE
  5
1F9
330
1E
100
AcDbEntity
  8
0
  6
Continuous
 62
     3
100
AcDbLine
 10
-134.3840200054674
 20
-52.78511479523547
 30
0.0
 11
-134.3840200054674
 21
-54.78511479523547
 31
0.0
  0
LINE
  5
1FA
330
1E
100
AcDbEntity
  8
0
  6
Continuous
 62
     3
100
AcDbLine
 10
-134.3840200054674
 20
-56.28511479523547
 30
0.0
 11
-134.3840200054674
 21
-58.28511479523547
 31
0.0
  0
LINE
  5
1FB
330
1E
100
AcDbEntity
  8
0
  6
Continuous
 62
     3
100
AcDbLine
 10
-134.3840200054674
 20
-59.78511479523547
 30
0.0
 11
-134.3840200054674
 21
-61.78511479523547
 31
0.0
  0
LINE
  5
1FC
330
1E
100
AcDbEntity
  8
0
  6
Continuous
 62
     3
100
AcDbLine
 10
-134.3840200054674
 20
-61.78511479523547
 30
0.0
 11
-136.3840200054674
 21
-61.78511479523547
 31
0.0
  0
LINE
  5
1FD
330
1E
100
AcDbEntity
  8
0
  6
Continuous
 62
     3
100
AcDbLine
 10
-134.3840200054674
 20
-24.78511479523547
 30
0.0
 11
-138.1340200054675
 21
-24.78511479523547
 31
0.0
  0
LINE
  5
1FE
330
1E
100
AcDbEntity
  8
0
  6
Continuous
 62
     3
100
AcDbLine
 10
-134.3840200054674
 20
-26.78511479523546
 30
0.0
 11
-138.1340200054675
 21
-26.78511479523546
 31
0.0
  0
LINE
  5
1FF
330
1E
100
AcDbEntity
  8
0
  6
Continuous
 62
     3
100
AcDbLine
 10
-134.3840200054674
 20
-30.28511479523547
 30
0.0
 11
-138.1340200054675
 21
-30.28511479523547
 31
0.0
  0
LINE
  5
200
330
1E
100
AcDbEntity
  8
0
  6
Continuous
 62
     3
100
AcDbLine
 10
-134.3840200054674
 20
-31.78511479523546
 30
0.0
 11
-138.1340200054675
 21
-31.78511479523546
 31
0.0
  0
LINE
  5
201
330
1E
100
AcDbEntity
  8
0
  6
Continuous
 62
     3
100
AcDbLine
 10
-134.3840200054674
 20
-33.78511479523546
 30
0.0
 11
-138.1340200054675
 21
-33.78511479523546
 31
0.0
  0
LINE
  5
202
330
1E
100
AcDbEntity
  8
0
  6
Continuous
 62
     3
100
AcDbLine
 10
-134.3840200054674
 20
-35.28511479523546
 30
0.0
 11
-138.1340200054675
 21
-35.28511479523546
 31
0.0
  0
LINE
  5
203
330
1E
100
AcDbEntity
  8
0
  6
Continuous
 62
     3
100
AcDbLine
 10
-134.3840200054674
 20
-37.28511479523546
 30
0.0
 11
-138.1340200054675
 21
-37.28511479523546
 31
0.0
  0
LINE
  5
204
330
1E
100
AcDbEntity
  8
0
  6
Continuous
 62
     3
100
AcDbLine
 10
-134.3840200054674
 20
-38.78511479523546
 30
0.0
 11
-138.1340200054675
 21
-38.78511479523546
 31
0.0
  0
LINE
  5
205
330
1E
100
AcDbEntity
  8
0
  6
Continuous
 62
     3
100
AcDbLine
 10
-134.3840200054674
 20
-40.78511479523546
 30
0.0
 11
-138.1340200054675
 21
-40.78511479523546
 31
0.0
  0
LINE
  5
206
330
1E
100
AcDbEntity
  8
0
  6
Continuous
 62
     3
100
AcDbLine
 10
-134.3840200054674
 20
-42.28511479523546
 30
0.0
 11
-138.1340200054675
 21
-42.28511479523546
 31
0.0
  0
LINE
  5
207
330
1E
100
AcDbEntity
  8
0
  6
Continuous
 62
     3
100
AcDbLine
 10
-134.3840200054674
 20
-45.78511479523547
 30
0.0
 11
-138.1340200054675
 21
-45.78511479523547
 31
0.0
  0
LINE
  5
208
330
1E
100
AcDbEntity
  8
0
  6
Continuous
 62
     3
100
AcDbLine
 10
-134.3840200054674
 20
-47.78511479523547
 30
0.0
 11
-138.1340200054675
 21
-47.78511479523547
 31
0.0
  0
LINE
  5
209
330
1E
100
AcDbEntity
  8
0
  6
Continuous
 62
     3
100
AcDbLine
 10
-134.3840200054674
 20
-49.28511479523547
 30
0.0
 11
-138.1340200054675
 21
-49.28511479523547
 31
0.0
  0
LINE
  5
20A
330
1E
100
AcDbEntity
  8
0
  6
Continuous
 62
     3
100
AcDbLine
 10
-134.3840200054674
 20
-51.28511479523547
 30
0.0
 11
-138.1340200054675
 21
-51.28511479523547
 31
0.0
  0
LINE
  5
20B
330
1E
100
AcDbEntity
  8
0
  6
Continuous
 62
     3
100
AcDbLine
 10
-134.3840200054674
 20
-52.78511479523547
 30
0.0
 11
-138.1340200054675
 21
-52.78511479523547
 31
0.0
  0
LINE
  5
20C
330
1E
100
AcDbEntity
  8
0
  6
Continuous
 62
     3
100
AcDbLine
 10
-134.3840200054674
 20
-54.78511479523547
 30
0.0
 11
-138.1340200054675
 21
-54.78511479523547
 31
0.0
  0
LINE
  5
20D
330
1E
100
AcDbEntity
  8
0
  6
Continuous
 62
     3
100
AcDbLine
 10
-134.3840200054674
 20
-56.28511479523547
 30
0.0
 11
-138.1340200054675
 21
-56.28511479523547
 31
0.0
  0
LINE
  5
20E
330
1E
100
AcDbEntity
  8
0
  6
Continuous
 62
     3
100
AcDbLine
 10
-134.3840200054674
 20
-58.28511479523547
 30
0.0
 11
-138.1340200054675
 21
-58.28511479523547
 31
0.0
  0
LINE
  5
20F
330
1E
100
AcDbEntity
  8
0
  6
Continuous
 62
     3
100
AcDbLine
 10
-134.3840200054674
 20
-59.78511479523547
 30
0.0
 11
-138.1340200054675
 21
-59.78511479523547
 31
0.0
  0
LINE
  5
210
330
1E
100
AcDbEntity
  8
0
  6
Continuous
 62
     3
100
AcDbLine
 10
-134.3840200054674
 20
-28.28511479523546
 30
0.0
 11
-138.1340200054675
 21
-28.28511479523546
 31
0.0
  0
LINE
  5
211
330
1E
100
AcDbEntity
  8
0
  6
Continuous
 62
     3
100
AcDbLine
 10
-128.7340200054674
 20
-81.03511479523547
 30
0.0
 11
-128.7340200054674
 21
-84.78511479523547
 31
0.0
  0
LINE
  5
212
330
1E
100
AcDbEntity
  8
0
  6
Continuous
 62
     3
100
AcDbLine
 10
-138.1840200054675
 20
-83.28511479523546
 30
0.0
 11
-136.8840200054675
 21
-83.28511479523546
 31
0.0
  0
LINE
  5
213
330
1E
100
AcDbEntity
  8
0
  6
Continuous
 62
     3
100
AcDbLine
 10
-125.6340200054674
 20
-83.28511479523546
 30
0.0
 11
-126.8840200054675
 21
-83.28511479523546
 31
0.0
  0
LINE
  5
214
330
1E
100
AcDbEntity
  8
0
  6
Continuous
 62
     3
100
AcDbLine
 10
-126.4620455054674
 20
-133.8880481242354
 30
0.0
 11
-126.4620455054674
 21
-128.8880481242354
 31
0.0
  0
ARC
  5
215
330
1E
100
AcDbEntity
  8
0
  6
Continuous
 62
     3
100
AcDbCircle
 10
-126.1120455054674
 20
-128.4380481242354
 30
0.0
 40
0.45
100
AcDbArc
 50
0.0
 51
90.0
  0
ARC
  5
216
330
1E
100
AcDbEntity
  8
0
  6
Continuous
 62
     3
100
AcDbCircle
 10
-126.1120455054674
 20
-134.3380481242353
 30
0.0
 40
0.45
100
AcDbArc
 50
270.0
 51
0.0
  0
LINE
  5
217
330
1E
100
AcDbEntity
  8
0
  6
Continuous
 62
     3
100
AcDbLine
 10
-126.4620455054674
 20
-128.8880481242354
 30
0.0
 11
-127.9120455054674
 21
-128.8880481242354
 31
0.0
  0
LINE
  5
218
330
1E
100
AcDbEntity
  8
0
  6
Continuous
 62
     3
100
AcDbLine
 10
-127.9120455054674
 20
-127.9880481242354
 30
0.0
 11
-126.1120455054674
 21
-127.9880481242354
 31
0.0
  0
LINE
  5
219
330
1E
100
AcDbEntity
  8
0
  6
Continuous
 62
     3
100
AcDbLine
 10
-127.9120455054674
 20
-128.8880481242354
 30
0.0
 11
-127.9120455054674
 21
-127.9880481242354
 31
0.0
  0
ARC
  5
21A
330
1E
100
AcDbEntity
  8
0
  6
Continuous
 62
     3
100
AcDbCircle
 10
-137.7120455054674
 20
-128.4380481242354
 30
0.0
 40
0.45
100
AcDbArc
 50
90.0
 51
180.0
  0
ARC
  5
21B
330
1E
100
AcDbEntity
  8
0
  6
Continuous
 62
     3
100
AcDbCircle
 10
-137.7120455054674
 20
-134.3380481242353
 30
0.0
 40
0.45
100
AcDbArc
 50
180.0
 51
270.0
  0
LINE
  5
21C
330
1E
100
AcDbEntity
  8
0
  6
Continuous
 62
     3
100
AcDbLine
 10
-137.3620455054674
 20
-128.8880481242354
 30
0.0
 11
-135.9120455054674
 21
-128.8880481242354
 31
0.0
  0
LINE
  5
21D
330
1E
100
AcDbEntity
  8
0
  6
Continuous
 62
     3
100
AcDbLine
 10
-135.9120455054674
 20
-127.9880481242354
 30
0.0
 11
-137.7120455054674
 21
-127.9880481242354
 31
0.0
  0
LINE
  5
21E
330
1E
100
AcDbEntity
  8
0
  6
Continuous
 62
     3
100
AcDbLine
 10
-135.9120455054674
 20
-128.8880481242354
 30
0.0
 11
-135.9120455054674
 21
-127.9880481242354
 31
0.0
  0
LINE
  5
21F
330
1E
100
AcDbEntity
  8
0
  6
Continuous
 62
     3
100
AcDbLine
 10
-137.3620455054674
 20
-133.8880481242354
 30
0.0
 11
-137.3620455054674
 21
-128.8880481242354
 31
0.0
  0
LINE
  5
220
330
1E
100
AcDbEntity
  8
0
  6
Continuous
 62
     3
100
AcDbLine
 10
-137.3620455054674
 20
-133.8880481242354
 30
0.0
 11
-126.4620455054674
 21
-133.8880481242354
 31
0.0
  0
LINE
  5
221
330
1E
100
AcDbEntity
  8
0
  6
Continuous
 62
     3
100
AcDbLine
 10
-126.1120455054674
 20
-134.7880481242353
 30
0.0
 11
-137.7120455054674
 21
-134.7880481242353
 31
0.0
  0
LINE
  5
222
330
1E
100
AcDbEntity
  8
0
  6
Continuous
 62
     3
100
AcDbLine
 10
-136.9120455054674
 20
-133.8880481242354
 30
0.0
 11
-136.9120455054674
 21
-134.7880481242353
 31
0.0
  0
LINE
  5
223
330
1E
100
AcDbEntity
  8
0
  6
Continuous
 62
     3
100
AcDbLine
 10
-126.9120455054674
 20
-133.8880481242354
 30
0.0
 11
-126.9120455054674
 21
-134.7880481242353
 31
0.0
  0
LINE
  5
224
330
1E
100
AcDbEntity
  8
0
  6
Continuous
 62
     3
100
AcDbLine
 10
-138.1340200054675
 20
-84.78511479523547
 30
0.0
 11
-138.1340200054675
 21
-134.3380481242353
 31
0.0
  0
LINE
  5
225
330
1E
100
AcDbEntity
  8
0
  6
Continuous
 62
     3
100
AcDbLine
 10
-125.6340200054674
 20
-84.78511479523547
 30
0.0
 11
-125.6340200054674
 21
-134.3380481242353
 31
0.0
  0
LINE
  5
227
330
1E
100
AcDbEntity
  8
0
  6
Continuous
 62
     3
100
AcDbLine
 10
-126.8840200054675
 20
-87.78511479523546
 30
0.0
 11
-126.8840200054675
 21
-102.7851147952352
 31
0.0
  0
LINE
  5
229
330
1E
100
AcDbEntity
  8
0
  6
Continuous
 62
     3
100
AcDbLine
 10
-136.8840200054675
 20
-102.7851147952352
 30
0.0
 11
-136.8840200054675
 21
-87.78511479523546
 31
0.0
  0
LINE
  5
24D
330
1E
100
AcDbEntity
  8
0
  6
Continuous
 62
     3
100
AcDbLine
 10
-136.8840200054675
 20
-106.2851147952354
 30
0.0
 11
-126.8840200054675
 21
-106.2851147952354
 31
0.0
  0
LINE
  5
24E
330
1E
100
AcDbEntity
  8
0
  6
Continuous
 62
     3
100
AcDbLine
 10
-126.8840200054675
 20
-106.2851147952354
 30
0.0
 11
-126.8840200054675
 21
-121.2851147952354
 31
0.0
  0
LINE
  5
24F
330
1E
100
AcDbEntity
  8
0
  6
Continuous
 62
     3
100
AcDbLine
 10
-126.8840200054675
 20
-121.2851147952354
 30
0.0
 11
-136.8840200054675
 21
-121.2851147952354
 31
0.0
  0
LINE
  5
250
330
1E
100
AcDbEntity
  8
0
  6
Continuous
 62
     3
100
AcDbLine
 10
-136.8840200054675
 20
-121.2851147952354
 30
0.0
 11
-136.8840200054675
 21
-106.2851147952354
 31
0.0
  0
LINE
  5
251
330
1E
100
AcDbEntity
  8
0
  6
Continuous
 62
     3
100
AcDbLine
 10
-136.8840200054675
 20
-107.2851147952354
 30
0.0
 11
-126.8840200054675
 21
-107.2851147952354
 31
0.0
  0
LINE
  5
252
330
1E
100
AcDbEntity
  8
0
  6
Continuous
 62
     3
100
AcDbLine
 10
-136.8840200054675
 20
-120.7851147952352
 30
0.0
 11
-126.8840200054675
 21
-120.7851147952352
 31
0.0
  0
LINE
  5
253
330
1E
100
AcDbEntity
  8
0
  6
Continuous
 62
     3
100
AcDbLine
 10
-126.8840200054675
 20
-120.2851147952354
 30
0.0
 11
-136.8840200054675
 21
-120.2851147952354
 31
0.0
  0
LINE
  5
254
330
1E
100
AcDbEntity
  8
0
  6
Continuous
 62
     3
100
AcDbLine
 10
-136.8840200054675
 20
-114.2851147952352
 30
0.0
 11
-126.8840200054675
 21
-114.2851147952352
 31
0.0
  0
LINE
  5
255
330
1E
100
AcDbEntity
  8
0
  6
Continuous
 62
     3
100
AcDbLine
 10
-136.8840200054675
 20
-113.7851147952354
 30
0.0
 11
-126.8840200054675
 21
-113.7851147952354
 31
0.0
  0
LINE
  5
256
330
1E
100
AcDbEntity
  8
0
  6
Continuous
 62
     3
100
AcDbLine
 10
-126.8840200054675
 20
-113.7851147952354
 30
0.0
 11
-126.8840200054675
 21
-109.7851147952354
 31
0.0
  0
LINE
  5
257
330
1E
100
AcDbEntity
  8
0
  6
Continuous
 62
     3
100
AcDbLine
 10
-136.8840200054675
 20
-108.2851147952352
 30
0.0
 11
-126.8840200054675
 21
-108.2851147952352
 31
0.0
  0
LINE
  5
258
330
1E
100
AcDbEntity
  8
0
  6
Continuous
 62
     3
100
AcDbLine
 10
-130.3840200054675
 20
-118.7851147952354
 30
0.0
 11
-128.3840200054675
 21
-118.7851147952354
 31
0.0
  0
LINE
  5
259
330
1E
100
AcDbEntity
  8
0
  6
Continuous
 62
     3
100
AcDbLine
 10
-130.3840200054675
 20
-115.2851147952352
 30
0.0
 11
-128.3840200054675
 21
-115.2851147952352
 31
0.0
  0
LINE
  5
25A
330
1E
100
AcDbEntity
  8
0
  6
Continuous
 62
     3
100
AcDbLine
 10
-130.8840200054675
 20
-119.7851147952354
 30
0.0
 11
-131.3840200054675
 21
-119.7851147952354
 31
0.0
  0
LINE
  5
25B
330
1E
100
AcDbEntity
  8
0
  6
Continuous
 62
     3
100
AcDbLine
 10
-130.8840200054675
 20
-119.7851147952354
 30
0.0
 11
-127.3840200054674
 21
-119.7851147952354
 31
0.0
  0
LINE
  5
25C
330
1E
100
AcDbEntity
  8
0
  6
Continuous
 62
     3
100
AcDbLine
 10
-127.8840200054675
 20
-114.7851147952354
 30
0.0
 11
-130.8840200054675
 21
-114.7851147952354
 31
0.0
  0
LINE
  5
25D
330
1E
100
AcDbEntity
  8
0
  6
Continuous
 62
     3
100
AcDbLine
 10
-130.8840200054675
 20
-114.7851147952354
 30
0.0
 11
-131.3840200054675
 21
-119.7851147952354
 31
0.0
  0
LINE
  5
25E
330
1E
100
AcDbEntity
  8
0
  6
Continuous
 62
     3
100
AcDbLine
 10
-127.8840200054675
 20
-114.7851147952354
 30
0.0
 11
-127.3840200054674
 21
-119.7851147952354
 31
0.0
  0
LINE
  5
25F
330
1E
100
AcDbEntity
  8
0
  6
Continuous
 62
     3
100
AcDbLine
 10
-130.3840200054675
 20
-118.7851147952354
 30
0.0
 11
-131.3840200054675
 21
-119.7851147952354
 31
0.0
  0
LINE
  5
260
330
1E
100
AcDbEntity
  8
0
  6
Continuous
 62
     3
100
AcDbLine
 10
-128.3840200054675
 20
-118.7851147952354
 30
0.0
 11
-127.3840200054674
 21
-119.7851147952354
 31
0.0
  0
LINE
  5
261
330
1E
100
AcDbEntity
  8
0
  6
Continuous
 62
     3
100
AcDbLine
 10
-128.3840200054675
 20
-118.7851147952354
 30
0.0
 11
-128.3840200054675
 21
-115.2851147952352
 31
0.0
  0
LINE
  5
262
330
1E
100
AcDbEntity
  8
0
  6
Continuous
 62
     3
100
AcDbLine
 10
-130.3840200054675
 20
-115.2851147952352
 30
0.0
 11
-130.3840200054675
 21
-118.7851147952354
 31
0.0
  0
LINE
  5
263
330
1E
100
AcDbEntity
  8
0
  6
Continuous
 62
     3
100
AcDbLine
 10
-130.3840200054675
 20
-115.2851147952352
 30
0.0
 11
-130.8840200054675
 21
-114.6851147952352
 31
0.0
  0
LINE
  5
264
330
1E
100
AcDbEntity
  8
0
  6
Continuous
 62
     3
100
AcDbLine
 10
-128.3840200054675
 20
-115.2851147952352
 30
0.0
 11
-127.8840200054675
 21
-114.7851147952354
 31
0.0
  0
LINE
  5
265
330
1E
100
AcDbEntity
  8
0
  6
Continuous
 62
     3
100
AcDbLine
 10
-135.3840200054674
 20
-118.7851147952354
 30
0.0
 11
-133.3840200054675
 21
-118.7851147952354
 31
0.0
  0
LINE
  5
266
330
1E
100
AcDbEntity
  8
0
  6
Continuous
 62
     3
100
AcDbLine
 10
-135.3840200054674
 20
-115.2851147952352
 30
0.0
 11
-133.3840200054675
 21
-115.2851147952352
 31
0.0
  0
LINE
  5
267
330
1E
100
AcDbEntity
  8
0
  6
Continuous
 62
     3
100
AcDbLine
 10
-135.8840200054675
 20
-119.7851147952354
 30
0.0
 11
-136.3840200054674
 21
-119.7851147952354
 31
0.0
  0
LINE
  5
268
330
1E
100
AcDbEntity
  8
0
  6
Continuous
 62
     3
100
AcDbLine
 10
-135.8840200054675
 20
-119.7851147952354
 30
0.0
 11
-132.3840200054675
 21
-119.7851147952354
 31
0.0
  0
LINE
  5
269
330
1E
100
AcDbEntity
  8
0
  6
Continuous
 62
     3
100
AcDbLine
 10
-132.8840200054675
 20
-114.7851147952354
 30
0.0
 11
-135.8840200054675
 21
-114.7851147952354
 31
0.0
  0
LINE
  5
26A
330
1E
100
AcDbEntity
  8
0
  6
Continuous
 62
     3
100
AcDbLine
 10
-135.8840200054675
 20
-114.7851147952354
 30
0.0
 11
-136.3840200054674
 21
-119.7851147952354
 31
0.0
  0
LINE
  5
26B
330
1E
100
AcDbEntity
  8
0
  6
Continuous
 62
     3
100
AcDbLine
 10
-132.8840200054675
 20
-114.7851147952354
 30
0.0
 11
-132.3840200054675
 21
-119.7851147952354
 31
0.0
  0
LINE
  5
26C
330
1E
100
AcDbEntity
  8
0
  6
Continuous
 62
     3
100
AcDbLine
 10
-135.3840200054674
 20
-118.7851147952354
 30
0.0
 11
-136.3840200054674
 21
-119.7851147952354
 31
0.0
  0
LINE
  5
26D
330
1E
100
AcDbEntity
  8
0
  6
Continuous
 62
     3
100
AcDbLine
 10
-133.3840200054675
 20
-118.7851147952354
 30
0.0
 11
-132.3840200054675
 21
-119.7851147952354
 31
0.0
  0
LINE
  5
26E
330
1E
100
AcDbEntity
  8
0
  6
Continuous
 62
     3
100
AcDbLine
 10
-133.3840200054675
 20
-118.7851147952354
 30
0.0
 11
-133.3840200054675
 21
-115.2851147952352
 31
0.0
  0
LINE
  5
26F
330
1E
100
AcDbEntity
  8
0
  6
Continuous
 62
     3
100
AcDbLine
 10
-135.3840200054674
 20
-115.2851147952352
 30
0.0
 11
-135.3840200054674
 21
-118.7851147952354
 31
0.0
  0
LINE
  5
270
330
1E
100
AcDbEntity
  8
0
  6
Continuous
 62
     3
100
AcDbLine
 10
-135.3840200054674
 20
-115.2851147952352
 30
0.0
 11
-135.8840200054675
 21
-114.6851147952352
 31
0.0
  0
LINE
  5
271
330
1E
100
AcDbEntity
  8
0
  6
Continuous
 62
     3
100
AcDbLine
 10
-133.3840200054675
 20
-115.2851147952352
 30
0.0
 11
-132.8840200054675
 21
-114.7851147952354
 31
0.0
  0
LINE
  5
272
330
1E
100
AcDbEntity
  8
0
  6
Continuous
 62
     3
100
AcDbLine
 10
-131.8840200054675
 20
-105.2851147952354
 30
0.0
 11
-131.8840200054675
 21
-106.2851147952354
 31
0.0
  0
LINE
  5
273
330
1E
100
AcDbEntity
  8
0
  6
Continuous
 62
     3
100
AcDbLine
 10
-133.3840200054675
 20
-106.2851147952354
 30
0.0
 11
-133.3840200054675
 21
-105.2851147952354
 31
0.0
  0
LINE
  5
277
330
1E
100
AcDbEntity
  8
0
  6
Continuous
 62
     5
100
AcDbLine
 10
-263.6340200054675
 20
-17.03511479523547
 30
0.0
 11
-300.6340200054675
 21
-17.03511479523547
 31
0.0
  0
LINE
  5
278
330
1E
100
AcDbEntity
  8
0
  6
Continuous
 62
     5
100
AcDbLine
 10
-298.6340200054675
 20
-17.03511479523547
 30
0.0
 11
-299.2810676184674
 21
-19.44992936123546
 31
0.0
  0
LINE
  5
279
330
1E
100
AcDbEntity
  8
0
  6
Continuous
 62
     5
100
AcDbLine
 10
-298.6340200054675
 20
-17.03511479523547
 30
0.0
 11
-297.9869723924675
 21
-19.44992936123546
 31
0.0
  0
LINE
  5
27A
330
1E
100
AcDbEntity
  8
0
  6
Continuous
 62
     5
100
AcDbLine
 10
-298.6340200054675
 20
-17.03511479523547
 30
0.0
 11
-298.6340200054675
 21
-132.0351147952354
 31
0.0
  0
LINE
  5
27B
330
1E
100
AcDbEntity
  8
0
  6
Continuous
 62
     5
100
AcDbLine
 10
-298.6340200054675
 20
-132.0351147952354
 30
0.0
 11
-297.9869723924675
 21
-129.6203002292354
 31
0.0
  0
LINE
  5
27C
330
1E
100
AcDbEntity
  8
0
  6
Continuous
 62
     5
100
AcDbLine
 10
-298.6340200054675
 20
-132.0351147952354
 30
0.0
 11
-299.2810676184674
 21
-129.6203002292354
 31
0.0
  0
LINE
  5
27D
330
1E
100
AcDbEntity
  8
0
  6
Continuous
 62
     5
100
AcDbLine
 10
-277.1340200054674
 20
-132.0351147952354
 30
0.0
 11
-300.6340200054675
 21
-132.0351147952354
 31
0.0
  0
TEXT
  5
27E
330
1E
100
AcDbEntity
  8
0
  6
Continuous
 62
     3
100
AcDbText
 10
-299.6340200054675
 20
-81.73511479523547
 30
0.3
 40
3.0
  1
１１５±０.５
 50
90.0
 41
0.6
  7
KANJI0
100
AcDbText
  0
LINE
  5
27F
330
1E
100
AcDbEntity
  8
0
  6
Continuous
 62
     3
100
AcDbLine
 10
-272.4825920994675
 20
-88.07586975923547
 30
0.3
 11
-263.6340200054675
 21
-84.78511479523547
 31
0.3
  0
LINE
  5
280
330
1E
100
AcDbEntity
  8
0
  6
Continuous
 62
     3
100
AcDbLine
 10
-273.1340200054674
 20
-103.3181336632354
 30
0.0
 11
-273.1340200054674
 21
-89.01314982423548
 31
0.0
  0
ARC
  5
281
330
1E
100
AcDbEntity
  8
0
  6
Continuous
 62
     3
100
AcDbCircle
 10
-272.1340200054675
 20
-89.01315173223547
 30
0.0
 40
1.0
100
AcDbArc
 50
110.4000028479999
 51
179.9998907169998
  0
LINE
  5
282
330
1E
100
AcDbEntity
  8
0
  6
Continuous
 62
     3
100
AcDbLine
 10
-272.1340200054675
 20
-103.3181336632354
 30
0.0
 11
-272.1340200054675
 21
-89.01315173223547
 31
0.0
  0
LINE
  5
283
330
1E
100
AcDbEntity
  8
0
  6
Continuous
 62
     3
100
AcDbLine
 10
-272.1340200054675
 20
-89.01315173223547
 30
0.0
 11
-272.8340200054674
 21
-88.5231517322355
 31
0.0
  0
LINE
  5
284
330
1E
100
AcDbEntity
  8
0
  6
Continuous
 62
     3
100
AcDbLine
 10
-272.1340200054675
 20
-89.01315173223547
 30
0.0
 11
-263.6340200054675
 21
-85.85202958723547
 31
0.0
  0
LINE
  5
285
330
1E
100
AcDbEntity
  8
0
  6
Continuous
 62
     3
100
AcDbLine
 10
-263.6340200054675
 20
-85.85202958723547
 30
0.0
 11
-263.6340200054675
 21
-84.63147843123548
 31
0.0
  0
LINE
  5
286
330
1E
100
AcDbEntity
  8
0
  6
Continuous
 62
     3
100
AcDbLine
 10
-282.9475590254675
 20
-106.5584531512354
 30
0.0
 11
-273.1340200054674
 21
-103.3181336632354
 31
0.0
  0
ARC
  5
287
330
1E
100
AcDbEntity
  8
0
  6
Continuous
 62
     3
100
AcDbCircle
 10
-282.6340200054675
 20
-107.5080284682353
 30
0.0
 40
1.0
100
AcDbArc
 50
108.2726382669999
 51
180.0
  0
LINE
  5
288
330
1E
100
AcDbEntity
  8
0
  6
Continuous
 62
     3
100
AcDbLine
 10
-283.6340200054674
 20
-128.0351147952354
 30
0.0
 11
-283.6340200054674
 21
-107.5080284682353
 31
0.0
  0
LINE
  5
289
330
1E
100
AcDbEntity
  8
0
  6
Continuous
 62
     3
100
AcDbLine
 10
-282.6340200054675
 20
-107.5080284682353
 30
0.0
 11
-272.8204809854675
 21
-104.2677089802354
 31
0.0
  0
LINE
  5
28A
330
1E
100
AcDbEntity
  8
0
  6
Continuous
 62
     3
100
AcDbLine
 10
-282.6340200054675
 20
-107.5080284682353
 30
0.0
 11
-283.4140200054672
 21
-107.0180284682354
 31
0.0
  0
LINE
  5
28B
330
1E
100
AcDbEntity
  8
0
  6
Continuous
 62
     3
100
AcDbLine
 10
-282.6340200054675
 20
-107.5080284682353
 30
0.0
 11
-282.6340200054675
 21
-128.5351147952354
 31
0.0
  0
POINT
  5
28C
330
1E
100
AcDbEntity
  8
0
  6
Continuous
 62
     3
100
AcDbPoint
 10
-272.1340200054675
 20
-102.2851147952354
 30
0.0
  0
ARC
  5
28D
330
1E
100
AcDbEntity
  8
0
  6
Continuous
 62
     3
100
AcDbCircle
 10
-273.1340200054674
 20
-103.3181336632354
 30
0.0
 40
1.0
100
AcDbArc
 50
288.272638267
 51
0.0
  0
LINE
  5
28E
330
1E
100
AcDbEntity
  8
0
  6
Continuous
 62
     3
100
AcDbLine
 10
-273.1340200054674
 20
-103.3181336632354
 30
0.0
 11
-272.5040200054674
 21
-103.8081336632354
 31
0.0
  0
LINE
  5
28F
330
1E
100
AcDbEntity
  8
0
  6
Continuous
 62
     3
100
AcDbLine
 10
-196.1340200054675
 20
-89.01315173223547
 30
0.0
 11
-204.6340200054674
 21
-85.85202958723547
 31
0.0
  0
LINE
  5
290
330
1E
100
AcDbEntity
  8
0
  6
Continuous
 62
     3
100
AcDbLine
 10
-204.6340200054674
 20
-85.85202958723547
 30
0.0
 11
-204.6340200054674
 21
-84.63147843123548
 31
0.0
  0
LINE
  5
291
330
1E
100
AcDbEntity
  8
0
  6
Continuous
 62
     3
100
AcDbLine
 10
-195.7854455414673
 20
-88.07587064123548
 30
0.0
 11
-204.6340200054674
 21
-84.78511479523547
 31
0.0
  0
POINT
  5
292
330
1E
100
AcDbEntity
  8
0
  6
Continuous
 62
     3
100
AcDbPoint
 10
-196.1340200054675
 20
-102.2851147952354
 30
0.0
  0
LINE
  5
293
330
1E
100
AcDbEntity
  8
0
  6
Continuous
 62
     3
100
AcDbLine
 10
-185.6340200054675
 20
-107.4750096002354
 30
0.0
 11
-195.4475590254674
 21
-104.2346901122354
 31
0.0
  0
LINE
  5
294
330
1E
100
AcDbEntity
  8
0
  6
Continuous
 62
     3
100
AcDbLine
 10
-195.1340200054675
 20
-103.3181336632354
 30
0.0
 11
-195.7540200054674
 21
-103.8381336632352
 31
0.0
  0
LINE
  5
295
330
1E
100
AcDbEntity
  8
0
  6
Continuous
 62
     3
100
AcDbLine
 10
-196.1340200054675
 20
-103.2851147952354
 30
0.0
 11
-196.1340200054675
 21
-89.01315173223547
 31
0.0
  0
ARC
  5
296
330
1E
100
AcDbEntity
  8
0
  6
Continuous
 62
     3
100
AcDbCircle
 10
-195.1340200054675
 20
-103.2851147952354
 30
0.0
 40
1.0
100
AcDbArc
 50
180.0
 51
251.7273617329999
  0
LINE
  5
297
330
1E
100
AcDbEntity
  8
0
  6
Continuous
 62
     3
100
AcDbLine
 10
-185.3204809854674
 20
-106.5254342832353
 30
0.0
 11
-195.1340200054675
 21
-103.2851147952354
 31
0.0
  0
LINE
  5
298
330
1E
100
AcDbEntity
  8
0
  6
Continuous
 62
     3
100
AcDbLine
 10
-195.1340200054675
 20
-103.2851147952354
 30
0.0
 11
-195.1340200054675
 21
-89.01314982423548
 31
0.0
  0
LINE
  5
299
330
1E
100
AcDbEntity
  8
0
  6
Continuous
 62
     3
100
AcDbLine
 10
-196.1340200054675
 20
-89.01315173223547
 30
0.0
 11
-195.5040200054675
 21
-88.58315173223545
 31
0.0
  0
ARC
  5
29A
330
1E
100
AcDbEntity
  8
0
  6
Continuous
 62
     3
100
AcDbCircle
 10
-196.1340200054675
 20
-89.01315173223547
 30
0.0
 40
1.0
100
AcDbArc
 50
0.000109283
 51
69.599852295
  0
LINE
  5
29B
330
1E
100
AcDbEntity
  8
0
  6
Continuous
 62
     3
100
AcDbLine
 10
-184.6340200054675
 20
-128.0351147952354
 30
0.0
 11
-184.6340200054675
 21
-107.5080284682353
 31
0.0
  0
LINE
  5
29C
330
1E
100
AcDbEntity
  8
0
  6
Continuous
 62
     3
100
AcDbLine
 10
-185.6340200054675
 20
-107.5080284682353
 30
0.0
 11
-185.6340200054675
 21
-128.0351147952354
 31
0.0
  0
ARC
  5
29D
330
1E
100
AcDbEntity
  8
0
  6
Continuous
 62
     3
100
AcDbCircle
 10
-185.6340200054675
 20
-107.5080284682353
 30
0.0
 40
1.0
100
AcDbArc
 50
0.0
 51
71.72736173299998
  0
LINE
  5
29E
330
1E
100
AcDbEntity
  8
0
  6
Continuous
 62
     3
100
AcDbLine
 10
-185.6340200054675
 20
-107.5080284682353
 30
0.0
 11
-184.9540200054675
 21
-107.0280284682354
 31
0.0
  0
LINE
  5
29F
330
1E
100
AcDbEntity
  8
0
  6
Continuous
 62
     3
100
AcDbLine
 10
-263.6340200054675
 20
-18.03511479523546
 30
0.0
 11
-263.6340200054675
 21
-27.18511479523546
 31
0.0
  0
ARC
  5
2A0
330
1E
100
AcDbEntity
  8
0
  6
Continuous
 62
     3
100
AcDbCircle
 10
-262.6340200054674
 20
-18.03511479523546
 30
0.0
 40
1.0
100
AcDbArc
 50
90.0
 51
180.0
  0
CIRCLE
  5
2A1
330
1E
100
AcDbEntity
  8
0
  6
Continuous
 62
     3
100
AcDbCircle
 10
-261.1340200054675
 20
-20.03511479523547
 30
0.0
 40
1.5
  0
LINE
  5
2A2
330
1E
100
AcDbEntity
  8
0
  6
Continuous
 62
     3
100
AcDbLine
 10
-262.6340200054674
 20
-28.18511479523547
 30
0.0
 11
-262.6340200054674
 21
-26.78511479523546
 31
0.0
  0
LINE
  5
2A3
330
1E
100
AcDbEntity
  8
0
  6
Continuous
 62
     3
100
AcDbLine
 10
-262.1340200054675
 20
-33.78511479523546
 30
0.0
 11
-262.1340200054675
 21
-31.78511479523546
 31
0.0
  0
LINE
  5
2A4
330
1E
100
AcDbEntity
  8
0
  6
Continuous
 62
     3
100
AcDbLine
 10
-262.1340200054675
 20
-30.28511479523547
 30
0.0
 11
-262.1340200054675
 21
-28.28511479523546
 31
0.0
  0
LINE
  5
2A5
330
1E
100
AcDbEntity
  8
0
  6
Continuous
 62
     3
100
AcDbLine
 10
-260.1340200054675
 20
-28.28511479523546
 30
0.0
 11
-263.6340200054675
 21
-28.28511479523546
 31
0.0
  0
LINE
  5
2A6
330
1E
100
AcDbEntity
  8
0
  6
Continuous
 62
     3
100
AcDbLine
 10
-263.6340200054675
 20
-30.28511479523547
 30
0.0
 11
-260.1340200054675
 21
-30.28511479523547
 31
0.0
  0
LINE
  5
2A7
330
1E
100
AcDbEntity
  8
0
  6
Continuous
 62
     3
100
AcDbLine
 10
-260.1340200054675
 20
-28.28511479523546
 30
0.0
 11
-260.1340200054675
 21
-30.28511479523547
 31
0.0
  0
LINE
  5
2A8
330
1E
100
AcDbEntity
  8
0
  6
Continuous
 62
     3
100
AcDbLine
 10
-262.1340200054675
 20
-26.78511479523546
 30
0.0
 11
-262.1340200054675
 21
-24.78511479523547
 31
0.0
  0
LINE
  5
2A9
330
1E
100
AcDbEntity
  8
0
  6
Continuous
 62
     3
100
AcDbLine
 10
-260.1340200054675
 20
-24.78511479523547
 30
0.0
 11
-263.6340200054675
 21
-24.78511479523547
 31
0.0
  0
LINE
  5
2AA
330
1E
100
AcDbEntity
  8
0
  6
Continuous
 62
     3
100
AcDbLine
 10
-263.6340200054675
 20
-26.78511479523546
 30
0.0
 11
-260.1340200054675
 21
-26.78511479523546
 31
0.0
  0
LINE
  5
2AB
330
1E
100
AcDbEntity
  8
0
  6
Continuous
 62
     3
100
AcDbLine
 10
-260.1340200054675
 20
-24.78511479523547
 30
0.0
 11
-260.1340200054675
 21
-26.78511479523546
 31
0.0
  0
LINE
  5
2AC
330
1E
100
AcDbEntity
  8
0
  6
Continuous
 62
     3
100
AcDbLine
 10
-263.6340200054675
 20
-33.78511479523546
 30
0.0
 11
-260.1340200054675
 21
-33.78511479523546
 31
0.0
  0
LINE
  5
2AD
330
1E
100
AcDbEntity
  8
0
  6
Continuous
 62
     3
100
AcDbLine
 10
-260.1340200054675
 20
-35.28511479523546
 30
0.0
 11
-263.6340200054675
 21
-35.28511479523546
 31
0.0
  0
LINE
  5
2AE
330
1E
100
AcDbEntity
  8
0
  6
Continuous
 62
     3
100
AcDbLine
 10
-260.1340200054675
 20
-33.78511479523546
 30
0.0
 11
-260.1340200054675
 21
-35.28511479523546
 31
0.0
  0
LINE
  5
2AF
330
1E
100
AcDbEntity
  8
0
  6
Continuous
 62
     3
100
AcDbLine
 10
-260.1340200054675
 20
-30.28511479523547
 30
0.0
 11
-260.1340200054675
 21
-31.78511479523546
 31
0.0
  0
LINE
  5
2B0
330
1E
100
AcDbEntity
  8
0
  6
Continuous
 62
     3
100
AcDbLine
 10
-258.6340200054674
 20
-31.78511479523546
 30
0.0
 11
-263.6340200054675
 21
-31.78511479523546
 31
0.0
  0
LINE
  5
2B1
330
1E
100
AcDbEntity
  8
0
  6
Continuous
 62
     3
100
AcDbLine
 10
-262.6340200054674
 20
-35.28511479523546
 30
0.0
 11
-262.6340200054674
 21
-33.78511479523546
 31
0.0
  0
LINE
  5
2B2
330
1E
100
AcDbEntity
  8
0
  6
Continuous
 62
     3
100
AcDbLine
 10
-262.6340200054674
 20
-31.78511479523546
 30
0.0
 11
-262.6340200054674
 21
-30.28511479523547
 31
0.0
  0
LINE
  5
2B3
330
1E
100
AcDbEntity
  8
0
  6
Continuous
 62
     3
100
AcDbLine
 10
-263.6340200054675
 20
-62.68511479523548
 30
0.0
 11
-263.6340200054675
 21
-63.18511479523547
 31
0.0
  0
LINE
  5
2B4
330
1E
100
AcDbEntity
  8
0
  6
Continuous
 62
     3
100
AcDbLine
 10
-263.6340200054675
 20
-59.38511479523548
 30
0.0
 11
-263.6340200054675
 21
-63.18511479523547
 31
0.0
  0
LINE
  5
2B5
330
1E
100
AcDbEntity
  8
0
  6
Continuous
 62
     3
100
AcDbLine
 10
-262.6340200054674
 20
-56.28511479523547
 30
0.0
 11
-263.6340200054675
 21
-56.28511479523547
 31
0.0
  0
LINE
  5
2B6
330
1E
100
AcDbEntity
  8
0
  6
Continuous
 62
     3
100
AcDbLine
 10
-262.6340200054674
 20
-61.70511479523547
 30
0.0
 11
-262.6340200054674
 21
-61.78511479523547
 31
0.0
  0
LINE
  5
2B7
330
1E
100
AcDbEntity
  8
0
  6
Continuous
 62
     3
100
AcDbLine
 10
-261.1340200054675
 20
-61.78511479523547
 30
0.0
 11
-263.6340200054675
 21
-61.78511479523547
 31
0.0
  0
LINE
  5
2B8
330
1E
100
AcDbEntity
  8
0
  6
Continuous
 62
     3
100
AcDbLine
 10
-258.6340200054674
 20
-61.78511479523547
 30
0.0
 11
-262.1340200054675
 21
-61.78511479523547
 31
0.0
  0
LINE
  5
2B9
330
1E
100
AcDbEntity
  8
0
  6
Continuous
 62
     3
100
AcDbLine
 10
-263.6340200054675
 20
-58.28511479523547
 30
0.0
 11
-260.1340200054675
 21
-58.28511479523547
 31
0.0
  0
LINE
  5
2BA
330
1E
100
AcDbEntity
  8
0
  6
Continuous
 62
     3
100
AcDbLine
 10
-260.1340200054675
 20
-59.78511479523547
 30
0.0
 11
-263.6340200054675
 21
-59.78511479523547
 31
0.0
  0
LINE
  5
2BB
330
1E
100
AcDbEntity
  8
0
  6
Continuous
 62
     3
100
AcDbLine
 10
-262.1340200054675
 20
-58.28511479523547
 30
0.0
 11
-262.1340200054675
 21
-56.28511479523547
 31
0.0
  0
LINE
  5
2BC
330
1E
100
AcDbEntity
  8
0
  6
Continuous
 62
     3
100
AcDbLine
 10
-262.1340200054675
 20
-61.78511479523547
 30
0.0
 11
-262.1340200054675
 21
-59.78511479523547
 31
0.0
  0
LINE
  5
2BD
330
1E
100
AcDbEntity
  8
0
  6
Continuous
 62
     3
100
AcDbLine
 10
-262.6340200054674
 20
-52.78511479523547
 30
0.0
 11
-263.6340200054675
 21
-52.78511479523547
 31
0.0
  0
LINE
  5
2BE
330
1E
100
AcDbEntity
  8
0
  6
Continuous
 62
     3
100
AcDbLine
 10
-262.1340200054675
 20
-54.78511479523547
 30
0.0
 11
-262.1340200054675
 21
-52.78511479523547
 31
0.0
  0
LINE
  5
2BF
330
1E
100
AcDbEntity
  8
0
  6
Continuous
 62
     3
100
AcDbLine
 10
-260.1340200054675
 20
-52.78511479523547
 30
0.0
 11
-263.6340200054675
 21
-52.78511479523547
 31
0.0
  0
LINE
  5
2C0
330
1E
100
AcDbEntity
  8
0
  6
Continuous
 62
     3
100
AcDbLine
 10
-263.6340200054675
 20
-54.78511479523547
 30
0.0
 11
-260.1340200054675
 21
-54.78511479523547
 31
0.0
  0
LINE
  5
2C1
330
1E
100
AcDbEntity
  8
0
  6
Continuous
 62
     3
100
AcDbLine
 10
-260.1340200054675
 20
-52.78511479523547
 30
0.0
 11
-260.1340200054675
 21
-54.78511479523547
 31
0.0
  0
LINE
  5
2C2
330
1E
100
AcDbEntity
  8
0
  6
Continuous
 62
     3
100
AcDbLine
 10
-262.6340200054674
 20
-49.28511479523547
 30
0.0
 11
-263.6340200054675
 21
-49.28511479523547
 31
0.0
  0
LINE
  5
2C3
330
1E
100
AcDbEntity
  8
0
  6
Continuous
 62
     3
100
AcDbLine
 10
-262.1340200054675
 20
-51.28511479523547
 30
0.0
 11
-262.1340200054675
 21
-49.28511479523547
 31
0.0
  0
LINE
  5
2C4
330
1E
100
AcDbEntity
  8
0
  6
Continuous
 62
     3
100
AcDbLine
 10
-260.1340200054675
 20
-49.28511479523547
 30
0.0
 11
-263.6340200054675
 21
-49.28511479523547
 31
0.0
  0
LINE
  5
2C5
330
1E
100
AcDbEntity
  8
0
  6
Continuous
 62
     3
100
AcDbLine
 10
-263.6340200054675
 20
-51.28511479523547
 30
0.0
 11
-260.1340200054675
 21
-51.28511479523547
 31
0.0
  0
LINE
  5
2C6
330
1E
100
AcDbEntity
  8
0
  6
Continuous
 62
     3
100
AcDbLine
 10
-260.1340200054675
 20
-49.28511479523547
 30
0.0
 11
-260.1340200054675
 21
-51.28511479523547
 31
0.0
  0
LINE
  5
2C7
330
1E
100
AcDbEntity
  8
0
  6
Continuous
 62
     3
100
AcDbLine
 10
-262.6340200054674
 20
-45.78511479523547
 30
0.0
 11
-263.6340200054675
 21
-45.78511479523547
 31
0.0
  0
LINE
  5
2C8
330
1E
100
AcDbEntity
  8
0
  6
Continuous
 62
     3
100
AcDbLine
 10
-262.1340200054675
 20
-47.78511479523547
 30
0.0
 11
-262.1340200054675
 21
-45.78511479523547
 31
0.0
  0
LINE
  5
2C9
330
1E
100
AcDbEntity
  8
0
  6
Continuous
 62
     3
100
AcDbLine
 10
-260.1340200054675
 20
-45.78511479523547
 30
0.0
 11
-263.6340200054675
 21
-45.78511479523547
 31
0.0
  0
LINE
  5
2CA
330
1E
100
AcDbEntity
  8
0
  6
Continuous
 62
     3
100
AcDbLine
 10
-263.6340200054675
 20
-47.78511479523547
 30
0.0
 11
-260.1340200054675
 21
-47.78511479523547
 31
0.0
  0
LINE
  5
2CB
330
1E
100
AcDbEntity
  8
0
  6
Continuous
 62
     3
100
AcDbLine
 10
-260.1340200054675
 20
-45.78511479523547
 30
0.0
 11
-260.1340200054675
 21
-47.78511479523547
 31
0.0
  0
LINE
  5
2CC
330
1E
100
AcDbEntity
  8
0
  6
Continuous
 62
     3
100
AcDbLine
 10
-262.6340200054674
 20
-42.28511479523546
 30
0.0
 11
-263.6340200054675
 21
-42.28511479523546
 31
0.0
  0
LINE
  5
2CD
330
1E
100
AcDbEntity
  8
0
  6
Continuous
 62
     3
100
AcDbLine
 10
-262.1340200054675
 20
-44.28511479523547
 30
0.0
 11
-262.1340200054675
 21
-42.28511479523546
 31
0.0
  0
LINE
  5
2CE
330
1E
100
AcDbEntity
  8
0
  6
Continuous
 62
     3
100
AcDbLine
 10
-260.1340200054675
 20
-42.28511479523546
 30
0.0
 11
-263.6340200054675
 21
-42.28511479523546
 31
0.0
  0
LINE
  5
2CF
330
1E
100
AcDbEntity
  8
0
  6
Continuous
 62
     3
100
AcDbLine
 10
-263.6340200054675
 20
-44.28511479523547
 30
0.0
 11
-260.1340200054675
 21
-44.28511479523547
 31
0.0
  0
LINE
  5
2D0
330
1E
100
AcDbEntity
  8
0
  6
Continuous
 62
     3
100
AcDbLine
 10
-260.1340200054675
 20
-42.28511479523546
 30
0.0
 11
-260.1340200054675
 21
-44.28511479523547
 31
0.0
  0
LINE
  5
2D1
330
1E
100
AcDbEntity
  8
0
  6
Continuous
 62
     3
100
AcDbLine
 10
-262.1340200054675
 20
-40.78511479523546
 30
0.0
 11
-262.1340200054675
 21
-38.78511479523546
 31
0.0
  0
LINE
  5
2D2
330
1E
100
AcDbEntity
  8
0
  6
Continuous
 62
     3
100
AcDbLine
 10
-260.1340200054675
 20
-38.78511479523546
 30
0.0
 11
-263.6340200054675
 21
-38.78511479523546
 31
0.0
  0
LINE
  5
2D3
330
1E
100
AcDbEntity
  8
0
  6
Continuous
 62
     3
100
AcDbLine
 10
-263.6340200054675
 20
-40.78511479523546
 30
0.0
 11
-260.1340200054675
 21
-40.78511479523546
 31
0.0
  0
LINE
  5
2D4
330
1E
100
AcDbEntity
  8
0
  6
Continuous
 62
     3
100
AcDbLine
 10
-260.1340200054675
 20
-38.78511479523546
 30
0.0
 11
-260.1340200054675
 21
-40.78511479523546
 31
0.0
  0
LINE
  5
2D5
330
1E
100
AcDbEntity
  8
0
  6
Continuous
 62
     3
100
AcDbLine
 10
-263.6340200054675
 20
-37.28511479523546
 30
0.0
 11
-258.6340200054674
 21
-37.28511479523546
 31
0.0
  0
LINE
  5
2D6
330
1E
100
AcDbEntity
  8
0
  6
Continuous
 62
     3
100
AcDbLine
 10
-263.6340200054675
 20
-61.78511479523547
 30
0.0
 11
-260.1340200054675
 21
-61.78511479523547
 31
0.0
  0
LINE
  5
2D7
330
1E
100
AcDbEntity
  8
0
  6
Continuous
 62
     3
100
AcDbLine
 10
-262.6340200054674
 20
-58.28511479523547
 30
0.0
 11
-262.6340200054674
 21
-59.78511479523547
 31
0.0
  0
LINE
  5
2D8
330
1E
100
AcDbEntity
  8
0
  6
Continuous
 62
     3
100
AcDbLine
 10
-262.6340200054674
 20
-56.28511479523547
 30
0.0
 11
-262.6340200054674
 21
-54.78511479523547
 31
0.0
  0
LINE
  5
2D9
330
1E
100
AcDbEntity
  8
0
  6
Continuous
 62
     3
100
AcDbLine
 10
-262.6340200054674
 20
-52.78511479523547
 30
0.0
 11
-262.6340200054674
 21
-51.28511479523547
 31
0.0
  0
LINE
  5
2DA
330
1E
100
AcDbEntity
  8
0
  6
Continuous
 62
     3
100
AcDbLine
 10
-262.6340200054674
 20
-49.28511479523547
 30
0.0
 11
-262.6340200054674
 21
-47.78511479523547
 31
0.0
  0
LINE
  5
2DB
330
1E
100
AcDbEntity
  8
0
  6
Continuous
 62
     3
100
AcDbLine
 10
-262.6340200054674
 20
-45.78511479523547
 30
0.0
 11
-262.6340200054674
 21
-44.28511479523547
 31
0.0
  0
LINE
  5
2DC
330
1E
100
AcDbEntity
  8
0
  6
Continuous
 62
     3
100
AcDbLine
 10
-262.6340200054674
 20
-42.28511479523546
 30
0.0
 11
-262.6340200054674
 21
-40.78511479523546
 31
0.0
  0
LINE
  5
2DD
330
1E
100
AcDbEntity
  8
0
  6
Continuous
 62
     3
100
AcDbLine
 10
-262.6340200054674
 20
-38.78511479523546
 30
0.0
 11
-262.6340200054674
 21
-37.28511479523546
 31
0.0
  0
LINE
  5
2DE
330
1E
100
AcDbEntity
  8
0
  6
Continuous
 62
     3
100
AcDbLine
 10
-258.6340200054674
 20
-61.78511479523547
 30
0.0
 11
-258.6340200054674
 21
-56.28511479523547
 31
0.0
  0
LINE
  5
2DF
330
1E
100
AcDbEntity
  8
0
  6
Continuous
 62
     3
100
AcDbLine
 10
-258.6340200054674
 20
-56.28511479523547
 30
0.0
 11
-263.6340200054675
 21
-56.28511479523547
 31
0.0
  0
LINE
  5
2E0
330
1E
100
AcDbEntity
  8
0
  6
Continuous
 62
     3
100
AcDbLine
 10
-260.1340200054675
 20
-58.28511479523547
 30
0.0
 11
-260.1340200054675
 21
-59.78511479523547
 31
0.0
  0
LINE
  5
2E1
330
1E
100
AcDbEntity
  8
0
  6
Continuous
 62
     3
100
AcDbLine
 10
-205.6340200054675
 20
-28.18511479523547
 30
0.0
 11
-205.6340200054675
 21
-26.78511479523546
 31
0.0
  0
LINE
  5
2E2
330
1E
100
AcDbEntity
  8
0
  6
Continuous
 62
     3
100
AcDbLine
 10
-206.1340200054674
 20
-33.78511479523546
 30
0.0
 11
-206.1340200054674
 21
-31.78511479523546
 31
0.0
  0
LINE
  5
2E3
330
1E
100
AcDbEntity
  8
0
  6
Continuous
 62
     3
100
AcDbLine
 10
-206.1340200054674
 20
-30.28511479523547
 30
0.0
 11
-206.1340200054674
 21
-28.28511479523546
 31
0.0
  0
LINE
  5
2E4
330
1E
100
AcDbEntity
  8
0
  6
Continuous
 62
     3
100
AcDbLine
 10
-208.1340200054675
 20
-28.28511479523546
 30
0.0
 11
-204.6340200054674
 21
-28.28511479523546
 31
0.0
  0
LINE
  5
2E5
330
1E
100
AcDbEntity
  8
0
  6
Continuous
 62
     3
100
AcDbLine
 10
-204.6340200054674
 20
-30.28511479523547
 30
0.0
 11
-208.1340200054675
 21
-30.28511479523547
 31
0.0
  0
LINE
  5
2E6
330
1E
100
AcDbEntity
  8
0
  6
Continuous
 62
     3
100
AcDbLine
 10
-208.1340200054675
 20
-28.28511479523546
 30
0.0
 11
-208.1340200054675
 21
-30.28511479523547
 31
0.0
  0
LINE
  5
2E7
330
1E
100
AcDbEntity
  8
0
  6
Continuous
 62
     3
100
AcDbLine
 10
-206.1340200054674
 20
-26.78511479523546
 30
0.0
 11
-206.1340200054674
 21
-24.78511479523547
 31
0.0
  0
LINE
  5
2E8
330
1E
100
AcDbEntity
  8
0
  6
Continuous
 62
     3
100
AcDbLine
 10
-208.1340200054675
 20
-24.78511479523547
 30
0.0
 11
-204.6340200054674
 21
-24.78511479523547
 31
0.0
  0
LINE
  5
2E9
330
1E
100
AcDbEntity
  8
0
  6
Continuous
 62
     3
100
AcDbLine
 10
-204.6340200054674
 20
-26.78511479523546
 30
0.0
 11
-208.1340200054675
 21
-26.78511479523546
 31
0.0
  0
LINE
  5
2EA
330
1E
100
AcDbEntity
  8
0
  6
Continuous
 62
     3
100
AcDbLine
 10
-208.1340200054675
 20
-24.78511479523547
 30
0.0
 11
-208.1340200054675
 21
-26.78511479523546
 31
0.0
  0
LINE
  5
2EB
330
1E
100
AcDbEntity
  8
0
  6
Continuous
 62
     3
100
AcDbLine
 10
-204.6340200054674
 20
-33.78511479523546
 30
0.0
 11
-208.1340200054675
 21
-33.78511479523546
 31
0.0
  0
LINE
  5
2EC
330
1E
100
AcDbEntity
  8
0
  6
Continuous
 62
     3
100
AcDbLine
 10
-208.1340200054675
 20
-35.28511479523546
 30
0.0
 11
-204.6340200054674
 21
-35.28511479523546
 31
0.0
  0
LINE
  5
2ED
330
1E
100
AcDbEntity
  8
0
  6
Continuous
 62
     3
100
AcDbLine
 10
-205.6340200054675
 20
-30.28511479523547
 30
0.0
 11
-205.6340200054675
 21
-31.78511479523546
 31
0.0
  0
LINE
  5
2EE
330
1E
100
AcDbEntity
  8
0
  6
Continuous
 62
     3
100
AcDbLine
 10
-205.6340200054675
 20
-33.78511479523546
 30
0.0
 11
-205.6340200054675
 21
-35.28511479523546
 31
0.0
  0
LINE
  5
2EF
330
1E
100
AcDbEntity
  8
0
  6
Continuous
 62
     3
100
AcDbLine
 10
-208.1340200054675
 20
-33.78511479523546
 30
0.0
 11
-208.1340200054675
 21
-35.28511479523546
 31
0.0
  0
LINE
  5
2F0
330
1E
100
AcDbEntity
  8
0
  6
Continuous
 62
     3
100
AcDbLine
 10
-205.6340200054675
 20
-56.28511479523547
 30
0.0
 11
-204.6340200054674
 21
-56.28511479523547
 31
0.0
  0
LINE
  5
2F1
330
1E
100
AcDbEntity
  8
0
  6
Continuous
 62
     3
100
AcDbLine
 10
-205.6340200054675
 20
-61.70511479523547
 30
0.0
 11
-205.6340200054675
 21
-61.78511479523547
 31
0.0
  0
LINE
  5
2F2
330
1E
100
AcDbEntity
  8
0
  6
Continuous
 62
     3
100
AcDbLine
 10
-206.1340200054674
 20
-58.28511479523547
 30
0.0
 11
-206.1340200054674
 21
-56.28511479523547
 31
0.0
  0
LINE
  5
2F3
330
1E
100
AcDbEntity
  8
0
  6
Continuous
 62
     3
100
AcDbLine
 10
-206.1340200054674
 20
-61.78511479523547
 30
0.0
 11
-206.1340200054674
 21
-59.78511479523547
 31
0.0
  0
LINE
  5
2F4
330
1E
100
AcDbEntity
  8
0
  6
Continuous
 62
     3
100
AcDbLine
 10
-205.6340200054675
 20
-52.78511479523547
 30
0.0
 11
-204.6340200054674
 21
-52.78511479523547
 31
0.0
  0
LINE
  5
2F5
330
1E
100
AcDbEntity
  8
0
  6
Continuous
 62
     3
100
AcDbLine
 10
-206.1340200054674
 20
-54.78511479523547
 30
0.0
 11
-206.1340200054674
 21
-52.78511479523547
 31
0.0
  0
LINE
  5
2F6
330
1E
100
AcDbEntity
  8
0
  6
Continuous
 62
     3
100
AcDbLine
 10
-205.6340200054675
 20
-49.28511479523547
 30
0.0
 11
-204.6340200054674
 21
-49.28511479523547
 31
0.0
  0
LINE
  5
2F7
330
1E
100
AcDbEntity
  8
0
  6
Continuous
 62
     3
100
AcDbLine
 10
-206.1340200054674
 20
-51.28511479523547
 30
0.0
 11
-206.1340200054674
 21
-49.28511479523547
 31
0.0
  0
LINE
  5
2F8
330
1E
100
AcDbEntity
  8
0
  6
Continuous
 62
     3
100
AcDbLine
 10
-205.6340200054675
 20
-45.78511479523547
 30
0.0
 11
-204.6340200054674
 21
-45.78511479523547
 31
0.0
  0
LINE
  5
2F9
330
1E
100
AcDbEntity
  8
0
  6
Continuous
 62
     3
100
AcDbLine
 10
-206.1340200054674
 20
-47.78511479523547
 30
0.0
 11
-206.1340200054674
 21
-45.78511479523547
 31
0.0
  0
LINE
  5
2FA
330
1E
100
AcDbEntity
  8
0
  6
Continuous
 62
     3
100
AcDbLine
 10
-205.6340200054675
 20
-42.28511479523546
 30
0.0
 11
-204.6340200054674
 21
-42.28511479523546
 31
0.0
  0
LINE
  5
2FB
330
1E
100
AcDbEntity
  8
0
  6
Continuous
 62
     3
100
AcDbLine
 10
-206.1340200054674
 20
-44.28511479523547
 30
0.0
 11
-206.1340200054674
 21
-42.28511479523546
 31
0.0
  0
LINE
  5
2FC
330
1E
100
AcDbEntity
  8
0
  6
Continuous
 62
     3
100
AcDbLine
 10
-206.1340200054674
 20
-40.78511479523546
 30
0.0
 11
-206.1340200054674
 21
-38.78511479523546
 31
0.0
  0
LINE
  5
2FD
330
1E
100
AcDbEntity
  8
0
  6
Continuous
 62
     3
100
AcDbLine
 10
-204.6340200054674
 20
-63.18511479523547
 30
0.0
 11
-205.6340200054675
 21
-63.18511479523547
 31
0.0
  0
LINE
  5
2FE
330
1E
100
AcDbEntity
  8
0
  6
Continuous
 62
     3
100
AcDbLine
 10
-205.6340200054675
 20
-37.28511479523546
 30
0.0
 11
-205.6340200054675
 21
-38.78511479523546
 31
0.0
  0
LINE
  5
2FF
330
1E
100
AcDbEntity
  8
0
  6
Continuous
 62
     3
100
AcDbLine
 10
-205.6340200054675
 20
-40.78511479523546
 30
0.0
 11
-205.6340200054675
 21
-42.28511479523546
 31
0.0
  0
LINE
  5
300
330
1E
100
AcDbEntity
  8
0
  6
Continuous
 62
     3
100
AcDbLine
 10
-205.6340200054675
 20
-44.28511479523547
 30
0.0
 11
-205.6340200054675
 21
-45.78511479523547
 31
0.0
  0
LINE
  5
301
330
1E
100
AcDbEntity
  8
0
  6
Continuous
 62
     3
100
AcDbLine
 10
-205.6340200054675
 20
-47.78511479523547
 30
0.0
 11
-205.6340200054675
 21
-49.28511479523547
 31
0.0
  0
LINE
  5
302
330
1E
100
AcDbEntity
  8
0
  6
Continuous
 62
     3
100
AcDbLine
 10
-205.6340200054675
 20
-51.28511479523547
 30
0.0
 11
-205.6340200054675
 21
-52.78511479523547
 31
0.0
  0
LINE
  5
303
330
1E
100
AcDbEntity
  8
0
  6
Continuous
 62
     3
100
AcDbLine
 10
-205.6340200054675
 20
-54.78511479523547
 30
0.0
 11
-205.6340200054675
 21
-56.28511479523547
 31
0.0
  0
LINE
  5
304
330
1E
100
AcDbEntity
  8
0
  6
Continuous
 62
     3
100
AcDbLine
 10
-205.6340200054675
 20
-58.28511479523547
 30
0.0
 11
-205.6340200054675
 21
-59.78511479523547
 31
0.0
  0
LINE
  5
305
330
1E
100
AcDbEntity
  8
0
  6
Continuous
 62
     3
100
AcDbLine
 10
-205.6340200054675
 20
-61.70511479523547
 30
0.0
 11
-205.6340200054675
 21
-63.18511479523547
 31
0.0
  0
LINE
  5
306
330
1E
100
AcDbEntity
  8
0
  6
Continuous
 62
     3
100
AcDbLine
 10
-184.4720455054675
 20
27.31195187576451
 30
0.0
 11
-204.4720455054675
 21
27.31195187576451
 31
0.0
  0
LINE
  5
307
330
1E
100
AcDbEntity
  8
0
  6
Continuous
 62
     3
100
AcDbLine
 10
-184.4720455054675
 20
17.31195187576452
 30
0.0
 11
-204.4720455054675
 21
17.31195187576452
 31
0.0
  0
LINE
  5
308
330
1E
100
AcDbEntity
  8
0
  6
Continuous
 62
     3
100
AcDbLine
 10
-185.4720455054675
 20
28.56195187576451
 30
0.0
 11
-184.4720455054675
 21
28.06195187576451
 31
0.0
  0
LINE
  5
309
330
1E
100
AcDbEntity
  8
0
  6
Continuous
 62
     3
100
AcDbLine
 10
-184.4720455054675
 20
16.56195187576452
 30
0.0
 11
-184.4720455054675
 21
28.06195187576451
 31
0.0
  0
LINE
  5
30A
330
1E
100
AcDbEntity
  8
0
  6
Continuous
 62
     3
100
AcDbLine
 10
-185.4720455054675
 20
16.06195187576452
 30
0.0
 11
-184.4720455054675
 21
16.56195187576452
 31
0.0
  0
LINE
  5
30B
330
1E
100
AcDbEntity
  8
0
  6
Continuous
 62
     3
100
AcDbLine
 10
-184.4720455054675
 20
28.06195187576451
 30
0.0
 11
-204.4720455054675
 21
28.06195187576451
 31
0.0
  0
LINE
  5
30C
330
1E
100
AcDbEntity
  8
0
  6
Continuous
 62
     3
100
AcDbLine
 10
-194.9720455054674
 20
28.06195187576451
 30
0.0
 11
-195.9720455054674
 21
28.56195187576451
 31
0.0
  0
LINE
  5
30D
330
1E
100
AcDbEntity
  8
0
  6
Continuous
 62
     3
100
AcDbLine
 10
-184.4720455054675
 20
16.56195187576452
 30
0.0
 11
-204.4720455054675
 21
16.56195187576452
 31
0.0
  0
LINE
  5
30E
330
1E
100
AcDbEntity
  8
0
  6
Continuous
 62
     3
100
AcDbLine
 10
-194.9720455054674
 20
16.56195187576452
 30
0.0
 11
-195.9720455054674
 21
16.06195187576452
 31
0.0
  0
LINE
  5
30F
330
1E
100
AcDbEntity
  8
0
  6
Continuous
 62
     3
100
AcDbLine
 10
-194.9720455054674
 20
16.56195187576452
 30
0.0
 11
-194.9720455054674
 21
28.06195187576451
 31
0.0
  0
LINE
  5
310
330
1E
100
AcDbEntity
  8
0
  6
Continuous
 62
     3
100
AcDbLine
 10
-185.4720455054675
 20
27.31195187576451
 30
0.0
 11
-185.4720455054675
 21
17.31195187576452
 31
0.0
  0
CIRCLE
  5
313
330
1E
100
AcDbEntity
  8
0
  6
Continuous
 62
     3
100
AcDbCircle
 10
-190.4720455054675
 20
24.81195187576451
 30
0.0
 40
2.0
  0
CIRCLE
  5
314
330
1E
100
AcDbEntity
  8
0
  6
Continuous
 62
     3
100
AcDbCircle
 10
-190.4720455054675
 20
19.81195187576452
 30
0.0
 40
2.0
  0
LINE
  5
321
330
1E
100
AcDbEntity
  8
0
  6
Continuous
 62
     3
100
AcDbLine
 10
-185.4720455054675
 20
28.06195187576451
 30
0.0
 11
-186.4720455054674
 21
28.56195187576451
 31
0.0
  0
LINE
  5
322
330
1E
100
AcDbEntity
  8
0
  6
Continuous
 62
     3
100
AcDbLine
 10
-185.4720455054675
 20
16.56195187576452
 30
0.0
 11
-186.4720455054674
 21
16.06195187576452
 31
0.0
  0
LINE
  5
323
330
1E
100
AcDbEntity
  8
0
  6
Continuous
 62
     3
100
AcDbLine
 10
-185.4720455054675
 20
16.56195187576452
 30
0.0
 11
-185.4720455054675
 21
28.06195187576451
 31
0.0
  0
LWPOLYLINE
  5
324
330
1E
100
AcDbEntity
  8
0
 62
     3
100
AcDbPolyline
 90
        4
 70
     1
 43
0.0
 10
-187.4720455054674
 20
23.31195187576451
 10
-186.4720455054674
 20
23.31195187576451
 10
-186.4720455054674
 20
26.31195187576452
 10
-187.4720455054674
 20
26.31195187576452
  0
LWPOLYLINE
  5
32A
330
1E
100
AcDbEntity
  8
0
 62
     3
100
AcDbPolyline
 90
        4
 70
     1
 43
0.0
 10
-187.4720455054674
 20
18.31195187576452
 10
-186.4720455054674
 20
18.31195187576452
 10
-186.4720455054674
 20
21.31195187576452
 10
-187.4720455054674
 20
21.31195187576452
  0
LINE
  5
330
330
1E
100
AcDbEntity
  8
0
  6
Continuous
 62
     3
100
AcDbLine
 10
-194.4720455054675
 20
17.31195187576452
 30
0.0
 11
-194.4720455054675
 21
21.31195187576452
 31
0.0
  0
LINE
  5
331
330
1E
100
AcDbEntity
  8
0
  6
Continuous
 62
     3
100
AcDbLine
 10
-194.4720455054675
 20
21.31195187576452
 30
0.0
 11
-194.9720455054674
 21
21.31195187576452
 31
0.0
  0
LINE
  5
332
330
1E
100
AcDbEntity
  8
0
  6
Continuous
 62
     3
100
AcDbLine
 10
-194.9720455054674
 20
22.31195187576451
 30
0.0
 11
-194.4720455054675
 21
22.31195187576451
 31
0.0
  0
LINE
  5
333
330
1E
100
AcDbEntity
  8
0
  6
Continuous
 62
     3
100
AcDbLine
 10
-194.4720455054675
 20
22.31195187576451
 30
0.0
 11
-194.4720455054675
 21
27.31195187576451
 31
0.0
  0
LINE
  5
334
330
1E
100
AcDbEntity
  8
0
  6
Continuous
 62
     3
100
AcDbLine
 10
-190.9720455054674
 20
26.71195187576453
 30
0.0
 11
-190.9720455054674
 21
23.01195187576451
 31
0.0
  0
LINE
  5
335
330
1E
100
AcDbEntity
  8
0
  6
Continuous
 62
     3
100
AcDbLine
 10
-189.9720455054674
 20
23.01195187576451
 30
0.0
 11
-189.9720455054674
 21
26.81195187576451
 31
0.0
  0
LINE
  5
336
330
1E
100
AcDbEntity
  8
0
  6
Continuous
 62
     3
100
AcDbLine
 10
-189.9720455054674
 20
17.91195187576451
 30
0.0
 11
-189.9720455054674
 21
21.81195187576451
 31
0.0
  0
LINE
  5
337
330
1E
100
AcDbEntity
  8
0
  6
Continuous
 62
     3
100
AcDbLine
 10
-190.9720455054674
 20
21.71195187576451
 30
0.0
 11
-190.9720455054674
 21
17.91195187576451
 31
0.0
  0
LINE
  5
33C
330
1E
100
AcDbEntity
  8
0
  6
Continuous
 62
     3
100
AcDbLine
 10
-283.4720455054673
 20
27.31195187576451
 30
0.0
 11
-263.4720455054674
 21
27.31195187576451
 31
0.0
  0
LINE
  5
33D
330
1E
100
AcDbEntity
  8
0
  6
Continuous
 62
     3
100
AcDbLine
 10
-283.4720455054673
 20
17.31195187576452
 30
0.0
 11
-263.4720455054674
 21
17.31195187576452
 31
0.0
  0
LINE
  5
33E
330
1E
100
AcDbEntity
  8
0
  6
Continuous
 62
     3
100
AcDbLine
 10
-283.4720455054673
 20
28.06195187576451
 30
0.0
 11
-282.4720455054673
 21
28.56195187576451
 31
0.0
  0
LINE
  5
33F
330
1E
100
AcDbEntity
  8
0
  6
Continuous
 62
     3
100
AcDbLine
 10
-283.4720455054673
 20
28.06195187576451
 30
0.0
 11
-283.4720455054673
 21
16.56195187576452
 31
0.0
  0
LINE
  5
340
330
1E
100
AcDbEntity
  8
0
  6
Continuous
 62
     3
100
AcDbLine
 10
-283.4720455054673
 20
16.56195187576452
 30
0.0
 11
-282.4720455054673
 21
16.06195187576452
 31
0.0
  0
LINE
  5
341
330
1E
100
AcDbEntity
  8
0
  6
Continuous
 62
     3
100
AcDbLine
 10
-283.4720455054673
 20
28.06195187576451
 30
0.0
 11
-263.4720455054674
 21
28.06195187576451
 31
0.0
  0
LINE
  5
342
330
1E
100
AcDbEntity
  8
0
  6
Continuous
 62
     3
100
AcDbLine
 10
-283.4720455054673
 20
16.56195187576452
 30
0.0
 11
-263.4720455054674
 21
16.56195187576452
 31
0.0
  0
CIRCLE
  5
343
330
1E
100
AcDbEntity
  8
0
  6
Continuous
 62
     3
100
AcDbCircle
 10
-277.4720455054674
 20
19.81195187576452
 30
0.0
 40
2.0
  0
CIRCLE
  5
344
330
1E
100
AcDbEntity
  8
0
  6
Continuous
 62
     3
100
AcDbCircle
 10
-277.4720455054674
 20
24.81195187576451
 30
0.0
 40
2.0
  0
LWPOLYLINE
  5
345
330
1E
100
AcDbEntity
  8
0
 62
     3
100
AcDbPolyline
 90
        4
 70
     1
 43
0.0
 10
-280.4720455054674
 20
21.31195187576452
 10
-281.4720455054674
 20
21.31195187576452
 10
-281.4720455054674
 20
18.31195187576452
 10
-280.4720455054674
 20
18.31195187576452
  0
LWPOLYLINE
  5
34B
330
1E
100
AcDbEntity
  8
0
 62
     3
100
AcDbPolyline
 90
        4
 70
     1
 43
0.0
 10
-280.4720455054674
 20
26.31195187576452
 10
-281.4720455054674
 20
26.31195187576452
 10
-281.4720455054674
 20
23.31195187576451
 10
-280.4720455054674
 20
23.31195187576451
  0
LINE
  5
351
330
1E
100
AcDbEntity
  8
0
  6
Continuous
 62
     3
100
AcDbLine
 10
-277.9720455054674
 20
21.71195187576451
 30
0.0
 11
-277.9720455054674
 21
17.81195187576452
 31
0.0
  0
LINE
  5
352
330
1E
100
AcDbEntity
  8
0
  6
Continuous
 62
     3
100
AcDbLine
 10
-276.9720455054673
 20
17.81195187576452
 30
0.0
 11
-276.9720455054673
 21
21.6119518757645
 31
0.0
  0
LINE
  5
353
330
1E
100
AcDbEntity
  8
0
  6
Continuous
 62
     3
100
AcDbLine
 10
-277.9720455054674
 20
26.6119518757645
 30
0.0
 11
-277.9720455054674
 21
22.81195187576452
 31
0.0
  0
LINE
  5
354
330
1E
100
AcDbEntity
  8
0
  6
Continuous
 62
     3
100
AcDbLine
 10
-276.9720455054673
 20
23.01195187576451
 30
0.0
 11
-276.9720455054673
 21
26.71195187576453
 31
0.0
  0
LINE
  5
355
330
1E
100
AcDbEntity
  8
0
  6
Continuous
 62
     5
100
AcDbLine
 10
-138.1340200054675
 20
-17.03511479523547
 30
0.0
 11
-138.1340200054675
 21
-0.0351147952354722
 31
0.0
  0
LINE
  5
356
330
1E
100
AcDbEntity
  8
0
  6
Continuous
 62
     5
100
AcDbLine
 10
-138.1340200054675
 20
-2.035114795235472
 30
0.0
 11
-135.7192054394675
 21
-2.682162408235456
 31
0.0
  0
LINE
  5
357
330
1E
100
AcDbEntity
  8
0
  6
Continuous
 62
     5
100
AcDbLine
 10
-138.1340200054675
 20
-2.035114795235472
 30
0.0
 11
-135.7192054394675
 21
-1.388067182235487
 31
0.0
  0
LINE
  5
358
330
1E
100
AcDbEntity
  8
0
  6
Continuous
 62
     5
100
AcDbLine
 10
-125.6340200054674
 20
-2.035114795235472
 30
0.0
 11
-128.0488345714674
 21
-1.388067182235487
 31
0.0
  0
LINE
  5
359
330
1E
100
AcDbEntity
  8
0
  6
Continuous
 62
     5
100
AcDbLine
 10
-125.6340200054674
 20
-2.035114795235472
 30
0.0
 11
-128.0488345714674
 21
-2.682162408235456
 31
0.0
  0
LINE
  5
35A
330
1E
100
AcDbEntity
  8
0
  6
Continuous
 62
     5
100
AcDbLine
 10
-125.6340200054674
 20
-17.03511479523547
 30
0.0
 11
-125.6340200054674
 21
-0.0351147952354722
 31
0.0
  0
TEXT
  5
35B
330
1E
100
AcDbEntity
  8
0
  6
Continuous
 62
     3
100
AcDbText
 10
-123.2840200054674
 20
-1.035114795235472
 30
0.3
 40
3.0
  1
１２.５＋０.５，－０
 41
0.6
  7
KANJI0
100
AcDbText
  0
LINE
  5
35C
330
1E
100
AcDbEntity
  8
0
  6
Continuous
 62
     5
100
AcDbLine
 10
-138.1340200054675
 20
-2.035114795235472
 30
0.3
 11
-100.7840200054674
 21
-2.035114795235472
 31
0.3
  0
LINE
  5
35D
330
1E
100
AcDbEntity
  8
0
  6
Continuous
 62
     5
100
AcDbLine
 10
-125.6340200054674
 20
-2.035114795235472
 30
0.0
 11
-123.2192054394674
 21
-2.682162408235456
 31
0.0
  0
LINE
  5
35E
330
1E
100
AcDbEntity
  8
0
  6
Continuous
 62
     5
100
AcDbLine
 10
-125.6340200054674
 20
-2.035114795235472
 30
0.0
 11
-123.2192054394674
 21
-1.388067182235487
 31
0.0
  0
LINE
  5
35F
330
1E
100
AcDbEntity
  8
0
  6
Continuous
 62
     5
100
AcDbLine
 10
-283.4720455054673
 20
29.06195187576452
 30
0.0
 11
-283.4720455054673
 21
48.46488520476452
 31
0.0
  0
LINE
  5
360
330
1E
100
AcDbEntity
  8
0
  6
Continuous
 62
     5
100
AcDbLine
 10
-283.4720455054673
 20
46.46488520476451
 30
0.0
 11
-281.0572309394675
 21
45.81783759176453
 31
0.0
  0
LINE
  5
361
330
1E
100
AcDbEntity
  8
0
  6
Continuous
 62
     5
100
AcDbLine
 10
-283.4720455054673
 20
46.46488520476451
 30
0.0
 11
-281.0572309394675
 21
47.11193281776451
 31
0.0
  0
LINE
  5
362
330
1E
100
AcDbEntity
  8
0
  6
Continuous
 62
     5
100
AcDbLine
 10
-283.4720455054673
 20
46.46488520476451
 30
0.0
 11
-184.4720455054675
 21
46.46488520476451
 31
0.0
  0
LINE
  5
363
330
1E
100
AcDbEntity
  8
0
  6
Continuous
 62
     5
100
AcDbLine
 10
-184.4720455054675
 20
46.46488520476451
 30
0.0
 11
-186.8868600714673
 21
47.11193281776451
 31
0.0
  0
LINE
  5
364
330
1E
100
AcDbEntity
  8
0
  6
Continuous
 62
     5
100
AcDbLine
 10
-184.4720455054675
 20
46.46488520476451
 30
0.0
 11
-186.8868600714673
 21
45.81783759176453
 31
0.0
  0
LINE
  5
365
330
1E
100
AcDbEntity
  8
0
  6
Continuous
 62
     5
100
AcDbLine
 10
-184.4720455054675
 20
29.06195187576452
 30
0.0
 11
-184.4720455054675
 21
48.46488520476452
 31
0.0
  0
TEXT
  5
366
330
1E
100
AcDbEntity
  8
0
  6
Continuous
 62
     3
100
AcDbText
 10
-240.1220455054675
 20
47.46488520476453
 30
0.3
 40
3.0
  1
９９±０.５
 41
0.6
  7
KANJI0
100
AcDbText
  0
LINE
  5
367
330
1E
100
AcDbEntity
  8
0
  6
Continuous
 62
     5
100
AcDbLine
 10
-263.6340200054675
 20
-16.03511479523547
 30
0.3
 11
-263.6340200054675
 21
2.834885204764531
 31
0.3
  0
LINE
  5
368
330
1E
100
AcDbEntity
  8
0
  6
Continuous
 62
     5
100
AcDbLine
 10
-263.6340200054675
 20
0.8348852047645323
 30
0.0
 11
-261.2192054394673
 21
0.1878375917645485
 31
0.0
  0
LINE
  5
369
330
1E
100
AcDbEntity
  8
0
  6
Continuous
 62
     5
100
AcDbLine
 10
-263.6340200054675
 20
0.8348852047645323
 30
0.0
 11
-261.2192054394673
 21
1.481932817764515
 31
0.0
  0
LINE
  5
36A
330
1E
100
AcDbEntity
  8
0
  6
Continuous
 62
     5
100
AcDbLine
 10
-263.6340200054675
 20
0.8348852047645323
 30
0.0
 11
-204.6340200054674
 21
0.8348852047645323
 31
0.0
  0
LINE
  5
36B
330
1E
100
AcDbEntity
  8
0
  6
Continuous
 62
     5
100
AcDbLine
 10
-204.6340200054674
 20
0.8348852047645323
 30
0.0
 11
-207.0488345714674
 21
1.481932817764515
 31
0.0
  0
LINE
  5
36C
330
1E
100
AcDbEntity
  8
0
  6
Continuous
 62
     5
100
AcDbLine
 10
-204.6340200054674
 20
0.8348852047645323
 30
0.0
 11
-207.0488345714674
 21
0.1878375917645485
 31
0.0
  0
LINE
  5
36D
330
1E
100
AcDbEntity
  8
0
  6
Continuous
 62
     5
100
AcDbLine
 10
-204.6340200054674
 20
-17.03511479523547
 30
0.0
 11
-204.6340200054674
 21
2.834885204764531
 31
0.0
  0
TEXT
  5
36E
330
1E
100
AcDbEntity
  8
0
  6
Continuous
 62
     3
100
AcDbText
 10
-240.2840200054674
 20
1.83488520476453
 30
0.3
 40
3.0
  1
５９±０.５
 41
0.6
  7
KANJI0
100
AcDbText
  0
LINE
  5
36F
330
1E
100
AcDbEntity
  8
0
  6
Continuous
 62
     3
100
AcDbLine
 10
-216.7340200054673
 20
-128.0351147952354
 30
0.3
 11
-184.6340200054675
 21
-128.0351147952354
 31
0.3
  0
LINE
  5
370
330
1E
100
AcDbEntity
  8
0
  6
Continuous
 62
     5
100
AcDbLine
 10
-235.5340200054675
 20
-135.1351147952354
 30
0.0
 11
-226.7340200054674
 21
-147.6351147952354
 31
0.0
  0
LINE
  5
371
330
1E
100
AcDbEntity
  8
0
  6
Continuous
 62
     5
100
AcDbLine
 10
-226.7340200054674
 20
-147.6351147952354
 30
0.0
 11
-200.6340200054675
 21
-147.6351147952354
 31
0.0
  0
TEXT
  5
374
330
1E
100
AcDbEntity
  8
0
  6
Continuous
 62
     3
100
AcDbText
 10
-135.3840200054674
 20
-112.7851147952354
 30
0.3
 40
3.0
  1
７
 41
0.666666667
  7
KANJI1
100
AcDbText
  0
TEXT
  5
375
330
1E
100
AcDbEntity
  8
0
  6
Continuous
 62
     3
100
AcDbText
 10
-130.3840200054675
 20
-112.7851147952354
 30
0.3
 40
3.0
  1
８
 41
0.666666667
  7
KANJI1
100
AcDbText
  0
POINT
  5
376
330
1E
100
AcDbEntity
  8
0
  6
Continuous
 62
     3
100
AcDbPoint
 10
-263.1340200054675
 20
-129.5351147952354
 30
0.3
  0
POINT
  5
377
330
1E
100
AcDbEntity
  8
0
  6
Continuous
 62
     3
100
AcDbPoint
 10
-263.1340200054675
 20
-127.5351147952354
 30
0.0
  0
LWPOLYLINE
  5
378
330
1E
100
AcDbEntity
  8
0
 62
     3
100
AcDbPolyline
 90
        3
 70
     0
 43
0.0
 10
-263.1340200054675
 20
-129.5351147952354
 10
-263.1340200054675
 20
-127.5351147952354
 10
-267.1340200054675
 20
-127.5351147952354
  0
LINE
  5
37D
330
1E
100
AcDbEntity
  8
0
  6
Continuous
 62
     3
100
AcDbLine
 10
-267.1340200054675
 20
-129.5351147952354
 30
0.0
 11
-263.1340200054675
 21
-129.5351147952354
 31
0.0
  0
LINE
  5
37E
330
1E
100
AcDbEntity
  8
0
  6
Continuous
 62
     3
100
AcDbLine
 10
-267.1340200054675
 20
-127.5351147952354
 30
0.0
 11
-267.1340200054675
 21
-129.5351147952354
 31
0.0
  0
LINE
  5
37F
330
1E
100
AcDbEntity
  8
0
  6
Continuous
 62
     3
100
AcDbLine
 10
-263.1340200054675
 20
-127.5351147952354
 30
0.0
 11
-267.1340200054675
 21
-127.5351147952354
 31
0.0
  0
POINT
  5
380
330
1E
100
AcDbEntity
  8
0
  6
Continuous
 62
     3
100
AcDbPoint
 10
-263.1340200054675
 20
-129.5351147952354
 30
0.0
  0
POINT
  5
381
330
1E
100
AcDbEntity
  8
0
  6
Continuous
 62
     3
100
AcDbPoint
 10
-263.1340200054675
 20
-127.5351147952354
 30
0.0
  0
LINE
  5
382
330
1E
100
AcDbEntity
  8
0
  6
Continuous
 62
     3
100
AcDbLine
 10
-263.1340200054675
 20
-129.5351147952354
 30
0.0
 11
-263.1340200054675
 21
-127.5351147952354
 31
0.0
  0
LINE
  5
383
330
1E
100
AcDbEntity
  8
0
  6
Continuous
 62
     5
100
AcDbLine
 10
-260.8840200054675
 20
-128.0351147952354
 30
0.0
 11
-260.2369723924675
 21
-125.6203002292354
 31
0.0
  0
LINE
  5
384
330
1E
100
AcDbEntity
  8
0
  6
Continuous
 62
     5
100
AcDbLine
 10
-260.8840200054675
 20
-128.0351147952354
 30
0.0
 11
-261.5310676184674
 21
-125.6203002292354
 31
0.0
  0
LWPOLYLINE
  5
385
330
1E
100
AcDbEntity
  8
0
 62
     5
100
AcDbPolyline
 90
        4
 70
     0
 43
0.0
 10
-260.8840200054675
 20
-124.2851147952354
 10
-260.8840200054675
 20
-128.0351147952354
 10
-260.8840200054675
 20
-132.0351147952354
 10
-260.8840200054675
 20
-135.7851147952354
  0
LINE
  5
38B
330
1E
100
AcDbEntity
  8
0
  6
Continuous
 62
     5
100
AcDbLine
 10
-260.8840200054675
 20
-132.0351147952354
 30
0.0
 11
-261.5310676184674
 21
-134.4499293612354
 31
0.0
  0
LINE
  5
38C
330
1E
100
AcDbEntity
  8
0
  6
Continuous
 62
     5
100
AcDbLine
 10
-260.8840200054675
 20
-132.0351147952354
 30
0.0
 11
-260.2369723924675
 21
-134.4499293612354
 31
0.0
  0
LINE
  5
38D
330
1E
100
AcDbEntity
  8
0
  6
Continuous
 62
     5
100
AcDbLine
 10
-260.8840200054675
 20
-135.7851147952354
 30
0.0
 11
-260.8840200054675
 21
-140.7851147952354
 31
0.0
  0
TEXT
  5
38E
330
1E
100
AcDbEntity
  8
0
  6
Continuous
 62
     3
100
AcDbText
 10
-261.8840200054675
 20
-139.9351147952352
 30
0.3
 40
3.0
  1
（４）
 50
90.0
 41
0.6
  7
KANJI0
100
AcDbText
  0
LINE
  5
38F
330
1E
100
AcDbEntity
  8
0
  6
Continuous
 62
     5
100
AcDbLine
 10
-252.6840200054675
 20
-128.0351147952354
 30
0.3
 11
-261.6840200054675
 21
-128.0351147952354
 31
0.3
  0
LINE
  5
390
330
1E
100
AcDbEntity
  8
0
  6
Continuous
 62
     3
100
AcDbLine
 10
-204.9720455054675
 20
16.56195187576452
 30
0.0
 11
-262.9720455054674
 21
16.56195187576452
 31
0.0
  0
LINE
  5
391
330
1E
100
AcDbEntity
  8
0
  6
Continuous
 62
     3
100
AcDbLine
 10
-262.9720455054674
 20
28.06195187576451
 30
0.0
 11
-204.9720455054675
 21
28.06195187576451
 31
0.0
  0
LINE
  5
392
330
1E
100
AcDbEntity
  8
0
  6
Continuous
 62
     3
100
AcDbLine
 10
-204.4720455054675
 20
28.56195187576451
 30
0.0
 11
-204.4720455054675
 21
15.93695187576452
 31
0.0
  0
LINE
  5
393
330
1E
100
AcDbEntity
  8
0
  6
Continuous
 62
     3
100
AcDbLine
 10
-204.9720455054675
 20
28.06195187576451
 30
0.0
 11
-204.9720455054675
 21
16.56195187576452
 31
0.0
  0
LINE
  5
394
330
1E
100
AcDbEntity
  8
0
  6
Continuous
 62
     3
100
AcDbLine
 10
-203.9720455054673
 20
27.31195187576451
 30
0.0
 11
-203.9720455054673
 21
22.31195187576451
 31
0.0
  0
LINE
  5
395
330
1E
100
AcDbEntity
  8
0
  6
Continuous
 62
     3
100
AcDbLine
 10
-203.9720455054673
 20
22.31195187576451
 30
0.0
 11
-204.4720455054675
 21
22.31195187576451
 31
0.0
  0
LINE
  5
396
330
1E
100
AcDbEntity
  8
0
  6
Continuous
 62
     3
100
AcDbLine
 10
-204.4720455054675
 20
21.31195187576452
 30
0.0
 11
-203.9720455054673
 21
21.31195187576452
 31
0.0
  0
LINE
  5
397
330
1E
100
AcDbEntity
  8
0
  6
Continuous
 62
     3
100
AcDbLine
 10
-203.9720455054673
 20
21.31195187576452
 30
0.0
 11
-203.9720455054673
 21
17.31195187576452
 31
0.0
  0
LINE
  5
398
330
1E
100
AcDbEntity
  8
0
  6
Continuous
 62
     3
100
AcDbLine
 10
-272.9720455054674
 20
16.06195187576452
 30
0.0
 11
-272.9720455054674
 21
28.06195187576451
 31
0.0
  0
LINE
  5
399
330
1E
100
AcDbEntity
  8
0
  6
Continuous
 62
     3
100
AcDbLine
 10
-263.4720455054674
 20
28.56195187576451
 30
0.0
 11
-263.4720455054674
 21
15.93695187576452
 31
0.0
  0
LINE
  5
39A
330
1E
100
AcDbEntity
  8
0
  6
Continuous
 62
     3
100
AcDbLine
 10
-272.9720455054674
 20
28.06195187576451
 30
0.0
 11
-271.9720455054674
 21
28.56195187576451
 31
0.0
  0
LINE
  5
39B
330
1E
100
AcDbEntity
  8
0
  6
Continuous
 62
     3
100
AcDbLine
 10
-272.9720455054674
 20
16.56195187576452
 30
0.0
 11
-271.9720455054674
 21
16.06195187576452
 31
0.0
  0
LINE
  5
39C
330
1E
100
AcDbEntity
  8
0
  6
Continuous
 62
     3
100
AcDbLine
 10
-262.9720455054674
 20
28.06195187576451
 30
0.0
 11
-262.9720455054674
 21
16.43695187576452
 31
0.0
  0
LINE
  5
39D
330
1E
100
AcDbEntity
  8
0
  6
Continuous
 62
     3
100
AcDbLine
 10
-272.9720455054674
 20
16.56195187576452
 30
0.0
 11
-271.9720455054674
 21
16.06195187576452
 31
0.0
  0
LINE
  5
39E
330
1E
100
AcDbEntity
  8
0
  6
Continuous
 62
     3
100
AcDbLine
 10
-272.9720455054674
 20
28.06195187576451
 30
0.0
 11
-271.9720455054674
 21
28.56195187576451
 31
0.0
  0
LINE
  5
39F
330
1E
100
AcDbEntity
  8
0
  6
Continuous
 62
     3
100
AcDbLine
 10
-272.9720455054674
 20
28.06195187576451
 30
0.0
 11
-272.9720455054674
 21
16.56195187576452
 31
0.0
  0
LINE
  5
3AE
330
1E
100
AcDbEntity
  8
0
  6
Continuous
 62
     3
100
AcDbLine
 10
-273.4720455054674
 20
27.31195187576451
 30
0.0
 11
-273.4720455054674
 21
23.31195187576451
 31
0.0
  0
LINE
  5
3AF
330
1E
100
AcDbEntity
  8
0
  6
Continuous
 62
     3
100
AcDbLine
 10
-273.4720455054674
 20
23.31195187576451
 30
0.0
 11
-272.9720455054674
 21
23.31195187576451
 31
0.0
  0
LINE
  5
3B0
330
1E
100
AcDbEntity
  8
0
  6
Continuous
 62
     3
100
AcDbLine
 10
-272.9720455054674
 20
22.31195187576451
 30
0.0
 11
-273.4720455054674
 21
22.31195187576451
 31
0.0
  0
LINE
  5
3B1
330
1E
100
AcDbEntity
  8
0
  6
Continuous
 62
     3
100
AcDbLine
 10
-273.4720455054674
 20
22.31195187576451
 30
0.0
 11
-273.4720455054674
 21
17.31195187576452
 31
0.0
  0
LWPOLYLINE
  5
3B6
330
1E
100
AcDbEntity
  8
1
 62
     3
100
AcDbPolyline
 90
        3
 70
     0
 43
0.0
 10
-205.9720455054673
 20
17.31195187576452
 10
-205.9720455054673
 20
27.31195187576451
 10
-261.9720455054673
 20
27.31195187576451
  0
LINE
  5
3BB
330
1E
100
AcDbEntity
  8
1
  6
Continuous
 62
     3
100
AcDbLine
 10
-261.9720455054673
 20
17.31195187576452
 30
0.0
 11
-205.9720455054673
 21
17.31195187576452
 31
0.0
  0
LINE
  5
3BC
330
1E
100
AcDbEntity
  8
1
  6
Continuous
 62
     3
100
AcDbLine
 10
-257.9720455054673
 20
17.31195187576452
 30
0.0
 11
-257.9720455054673
 21
27.31195187576451
 31
0.0
  0
LINE
  5
3BD
330
1E
100
AcDbEntity
  8
1
  6
Continuous
 62
     3
100
AcDbLine
 10
-253.9720455054673
 20
27.31195187576451
 30
0.0
 11
-253.9720455054673
 21
17.31195187576452
 31
0.0
  0
LINE
  5
3BE
330
1E
100
AcDbEntity
  8
1
  6
Continuous
 62
     3
100
AcDbLine
 10
-252.9720455054675
 20
17.31195187576452
 30
0.0
 11
-252.9720455054675
 21
27.31195187576451
 31
0.0
  0
LINE
  5
3BF
330
1E
100
AcDbEntity
  8
1
  6
Continuous
 62
     3
100
AcDbLine
 10
-248.9720455054674
 20
27.31195187576451
 30
0.0
 11
-248.9720455054674
 21
17.31195187576452
 31
0.0
  0
LINE
  5
3C0
330
1E
100
AcDbEntity
  8
1
  6
Continuous
 62
     3
100
AcDbLine
 10
-240.9720455054674
 20
17.31195187576452
 30
0.0
 11
-240.9720455054674
 21
27.31195187576451
 31
0.0
  0
LINE
  5
3C1
330
1E
100
AcDbEntity
  8
1
  6
Continuous
 62
     3
100
AcDbLine
 10
-209.9720455054673
 20
27.31195187576451
 30
0.0
 11
-209.9720455054673
 21
17.31195187576452
 31
0.0
  0
LINE
  5
3C2
330
1E
100
AcDbEntity
  8
1
  6
Continuous
 62
     3
100
AcDbLine
 10
-213.9720455054674
 20
17.31195187576452
 30
0.0
 11
-213.9720455054674
 21
27.31195187576451
 31
0.0
  0
LINE
  5
3C3
330
1E
100
AcDbEntity
  8
1
  6
Continuous
 62
     3
100
AcDbLine
 10
-213.9720455054674
 20
22.31195187576451
 30
0.0
 11
-205.9720455054673
 21
22.31195187576451
 31
0.0
  0
LINE
  5
3C4
330
1E
100
AcDbEntity
  8
1
  6
Continuous
 62
     3
100
AcDbLine
 10
-253.9720455054673
 20
22.31195187576451
 30
0.0
 11
-261.9720455054673
 21
22.31195187576451
 31
0.0
  0
POINT
  5
3E9
330
1E
100
AcDbEntity
  8
1
  6
Continuous
 62
     3
100
AcDbPoint
 10
-245.7220455054673
 20
22.06195187576451
 30
0.1
  0
TEXT
  5
3EA
330
1E
100
AcDbEntity
  8
1
  6
Continuous
 62
     3
100
AcDbText
 10
-246.0793883564675
 20
17.97861876676452
 30
0.1
 40
2.0
  1
ＴＡＧ
 50
90.0
 41
0.75
  7
KANJI3
100
AcDbText
  0
LINE
  5
3EB
330
1E
100
AcDbEntity
  8
1
  6
Continuous
 62
     3
100
AcDbLine
 10
-245.8293883564675
 20
18.22861876676451
 30
0.1
 11
-245.8293883564675
 21
22.47861876676452
 31
0.1
  0
LINE
  5
3EC
330
1E
100
AcDbEntity
  8
1
  6
Continuous
 62
     3
100
AcDbLine
 10
-257.9720455054673
 20
27.31195187576451
 30
0.0
 11
-257.9720455054673
 21
17.31195187576452
 31
0.0
  0
LINE
  5
3ED
330
1E
100
AcDbEntity
  8
1
  6
Continuous
 62
     3
100
AcDbLine
 10
-261.9720455054673
 20
17.31195187576452
 30
0.0
 11
-209.9720455054673
 21
17.31195187576452
 31
0.0
  0
LINE
  5
3EE
330
1E
100
AcDbEntity
  8
1
  6
Continuous
 62
     3
100
AcDbLine
 10
-209.9720455054673
 20
27.31195187576451
 30
0.0
 11
-261.9720455054673
 21
27.31195187576451
 31
0.0
  0
LINE
  5
3EF
330
1E
100
AcDbEntity
  8
1
  6
Continuous
 62
     3
100
AcDbLine
 10
-261.9720455054673
 20
17.31195187576452
 30
0.0
 11
-261.9720455054673
 21
27.31195187576451
 31
0.0
  0
LINE
  5
446
330
1E
100
AcDbEntity
  8
0
  6
Continuous
 62
     3
100
AcDbLine
 10
-247.6340200054675
 20
-128.0351147952354
 30
0.0
 11
-251.6340200054675
 21
-128.0351147952354
 31
0.0
  0
LINE
  5
447
330
1E
100
AcDbEntity
  8
0
  6
Continuous
 62
     3
100
AcDbLine
 10
-247.6340200054675
 20
-128.0351147952354
 30
0.0
 11
-251.6340200054675
 21
-128.0351147952354
 31
0.0
  0
LINE
  5
448
330
1E
100
AcDbEntity
  8
0
  6
Continuous
 62
     3
100
AcDbLine
 10
-234.1340200054675
 20
-128.0351147952354
 30
0.0
 11
-251.7340200054674
 21
-128.0351147952354
 31
0.0
  0
LINE
  5
449
330
1E
100
AcDbEntity
  8
0
  6
Continuous
 62
     3
100
AcDbLine
 10
-235.0340200054674
 20
-128.0351147952354
 30
0.0
 11
-216.1340200054675
 21
-128.0351147952354
 31
0.0
  0
LINE
  5
44A
330
1E
100
AcDbEntity
  8
0
  6
Continuous
 62
     3
100
AcDbLine
 10
-251.7340200054674
 20
-132.0351147952354
 30
0.0
 11
-249.7340200054674
 21
-132.0351147952354
 31
0.0
  0
LINE
  5
44B
330
1E
100
AcDbEntity
  8
0
  6
Continuous
 62
     3
100
AcDbLine
 10
-251.8340200054673
 20
-129.2351147952354
 30
0.0
 11
-249.7340200054674
 21
-130.0351147952354
 31
0.0
  0
LINE
  5
44C
330
1E
100
AcDbEntity
  8
0
  6
Continuous
 62
     3
100
AcDbLine
 10
-249.7340200054674
 20
-132.0351147952354
 30
0.0
 11
-249.7340200054674
 21
-130.0351147952354
 31
0.0
  0
LINE
  5
44D
330
1E
100
AcDbEntity
  8
0
  6
Continuous
 62
     3
100
AcDbLine
 10
-251.8340200054673
 20
-128.0351147952354
 30
0.0
 11
-251.8340200054673
 21
-132.0351147952354
 31
0.0
  0
LINE
  5
44E
330
1E
100
AcDbEntity
  8
0
  6
Continuous
 62
     3
100
AcDbLine
 10
-235.1340200054675
 20
-128.0351147952354
 30
0.0
 11
-216.2340200054674
 21
-128.0351147952354
 31
0.0
  0
LINE
  5
44F
330
1E
100
AcDbEntity
  8
0
  6
Continuous
 62
     3
100
AcDbLine
 10
-234.2340200054675
 20
-128.0351147952354
 30
0.0
 11
-251.8340200054673
 21
-128.0351147952354
 31
0.0
  0
LINE
  5
450
330
1E
100
AcDbEntity
  8
0
  6
Continuous
 62
     3
100
AcDbLine
 10
-247.7340200054674
 20
-128.0351147952354
 30
0.0
 11
-251.7340200054674
 21
-128.0351147952354
 31
0.0
  0
LINE
  5
451
330
1E
100
AcDbEntity
  8
0
  6
Continuous
 62
     3
100
AcDbLine
 10
-247.7340200054674
 20
-128.0351147952354
 30
0.0
 11
-251.8340200054673
 21
-128.0351147952354
 31
0.0
  0
LINE
  5
452
330
1E
100
AcDbEntity
  8
0
  6
Continuous
 62
     3
100
AcDbLine
 10
-226.0340200054674
 20
-128.0351147952354
 30
0.0
 11
-225.2340200054674
 21
-128.0351147952354
 31
0.0
  0
ARC
  5
453
330
1E
100
AcDbEntity
  8
0
  6
Continuous
 62
     3
100
AcDbCircle
 10
-248.3340200054675
 20
-128.0351147952354
 30
0.0
 40
0.5
100
AcDbArc
 50
180.0
 51
0.0
  0
LINE
  5
454
330
1E
100
AcDbEntity
  8
0
  6
Continuous
 62
     3
100
AcDbLine
 10
-217.4840200054675
 20
-128.8351147952352
 30
0.0
 11
-217.4840200054675
 21
-128.0351147952354
 31
0.0
  0
LINE
  5
455
330
1E
100
AcDbEntity
  8
0
  6
Continuous
 62
     3
100
AcDbLine
 10
-217.4840200054675
 20
-128.8351147952352
 30
0.0
 11
-219.6840200054674
 21
-129.1851147952352
 31
0.0
  0
LINE
  5
456
330
1E
100
AcDbEntity
  8
0
  6
Continuous
 62
     3
100
AcDbLine
 10
-219.6840200054674
 20
-129.1851147952352
 30
0.0
 11
-216.5752148184675
 21
-132.4783411152352
 31
0.0
  0
ARC
  5
457
330
1E
100
AcDbEntity
  8
0
  6
Continuous
 62
     3
100
AcDbCircle
 10
-216.2116275624675
 20
-132.1351147952354
 30
0.0
 40
0.5
100
AcDbArc
 50
223.349956379
 51
270.0
  0
LINE
  5
458
330
1E
100
AcDbEntity
  8
0
  6
Continuous
 62
     3
100
AcDbLine
 10
-234.3340200054675
 20
-134.5351147952354
 30
0.0
 11
-246.8340200054675
 21
-134.5351147952354
 31
0.0
  0
LINE
  5
459
330
1E
100
AcDbEntity
  8
0
  6
Continuous
 62
     3
100
AcDbLine
 10
-246.8340200054675
 20
-135.5351147952354
 30
0.0
 11
-234.3340200054675
 21
-135.5351147952354
 31
0.0
  0
ARC
  5
45A
330
1E
100
AcDbEntity
  8
0
  6
Continuous
 62
     3
100
AcDbCircle
 10
-246.8340200054675
 20
-134.5351147952354
 30
0.0
 40
1.0
100
AcDbArc
 50
180.0
 51
270.0
  0
LINE
  5
45B
330
1E
100
AcDbEntity
  8
0
  6
Continuous
 62
     3
100
AcDbLine
 10
-234.3340200054675
 20
-134.5351147952354
 30
0.0
 11
-221.8340200054675
 21
-134.5351147952354
 31
0.0
  0
LINE
  5
45C
330
1E
100
AcDbEntity
  8
0
  6
Continuous
 62
     3
100
AcDbLine
 10
-221.8340200054675
 20
-135.5351147952354
 30
0.0
 11
-234.3340200054675
 21
-135.5351147952354
 31
0.0
  0
ARC
  5
45D
330
1E
100
AcDbEntity
  8
0
  6
Continuous
 62
     3
100
AcDbCircle
 10
-221.8340200054675
 20
-134.5351147952354
 30
0.0
 40
1.0
100
AcDbArc
 50
270.0
 51
0.0
  0
ARC
  5
45E
330
1E
100
AcDbEntity
  8
0
  6
Continuous
 62
     3
100
AcDbCircle
 10
-220.8340200054674
 20
-129.2351147952354
 30
0.0
 40
1.0
100
AcDbArc
 50
90.0
 51
180.0
  0
LINE
  5
45F
330
1E
100
AcDbEntity
  8
0
  6
Continuous
 62
     3
100
AcDbLine
 10
-221.8340200054675
 20
-134.5351147952354
 30
0.0
 11
-221.8340200054675
 21
-129.2351147952354
 31
0.0
  0
LINE
  5
460
330
1E
100
AcDbEntity
  8
0
  6
Continuous
 62
     3
100
AcDbLine
 10
-220.8340200054674
 20
-129.2351147952354
 30
0.0
 11
-220.8340200054674
 21
-134.5351147952354
 31
0.0
  0
LINE
  5
461
330
1E
100
AcDbEntity
  8
0
  6
Continuous
 62
     3
100
AcDbLine
 10
-251.8340200054673
 20
-129.2351147952354
 30
0.0
 11
-247.8340200054673
 21
-129.2351147952354
 31
0.0
  0
LINE
  5
462
330
1E
100
AcDbEntity
  8
0
  6
Continuous
 62
     3
100
AcDbLine
 10
-251.8340200054673
 20
-128.2351147952354
 30
0.0
 11
-251.8340200054673
 21
-129.2351147952354
 31
0.0
  0
LINE
  5
463
330
1E
100
AcDbEntity
  8
0
  6
Continuous
 62
     3
100
AcDbLine
 10
-251.8340200054673
 20
-129.2351147952354
 30
0.0
 11
-247.8340200054673
 21
-129.2351147952354
 31
0.0
  0
LINE
  5
464
330
1E
100
AcDbEntity
  8
0
  6
Continuous
 62
     3
100
AcDbLine
 10
-246.8340200054675
 20
-134.5351147952354
 30
0.0
 11
-246.8340200054675
 21
-129.2351147952354
 31
0.0
  0
LINE
  5
465
330
1E
100
AcDbEntity
  8
0
  6
Continuous
 62
     3
100
AcDbLine
 10
-247.8340200054673
 20
-129.2351147952354
 30
0.0
 11
-247.8340200054673
 21
-134.5351147952354
 31
0.0
  0
ARC
  5
466
330
1E
100
AcDbEntity
  8
0
  6
Continuous
 62
     3
100
AcDbCircle
 10
-247.8340200054673
 20
-129.2351147952354
 30
0.0
 40
1.0
100
AcDbArc
 50
0.0
 51
90.0
  0
ARC
  5
467
330
1E
100
AcDbEntity
  8
0
  6
Continuous
 62
     3
100
AcDbCircle
 10
-247.8340200054673
 20
-129.2351147952354
 30
0.0
 40
1.0
100
AcDbArc
 50
0.0
 51
90.0
  0
LINE
  5
468
330
1E
100
AcDbEntity
  8
0
  6
Continuous
 62
     3
100
AcDbLine
 10
-251.8340200054673
 20
-128.2351147952354
 30
0.0
 11
-251.8340200054673
 21
-129.2351147952354
 31
0.0
  0
LINE
  5
469
330
1E
100
AcDbEntity
  8
0
  6
Continuous
 62
     3
100
AcDbLine
 10
-251.8340200054673
 20
-128.2351147952354
 30
0.0
 11
-247.8340200054673
 21
-128.2351147952354
 31
0.0
  0
LINE
  5
46A
330
1E
100
AcDbEntity
  8
0
  6
Continuous
 62
     3
100
AcDbLine
 10
-220.8340200054674
 20
-129.2351147952354
 30
0.0
 11
-219.6840200054674
 21
-129.2351147952354
 31
0.0
  0
LINE
  5
46B
330
1E
100
AcDbEntity
  8
0
  6
Continuous
 62
     3
100
AcDbLine
 10
-220.8340200054674
 20
-128.2351147952354
 30
0.0
 11
-217.4840200054675
 21
-128.2351147952354
 31
0.0
  0
LINE
  5
46C
330
1E
100
AcDbEntity
  8
0
  6
Continuous
 62
     3
100
AcDbLine
 10
-235.5340200054675
 20
-135.1351147952354
 30
0.0
 11
-234.6730047814675
 21
-137.4821667302354
 31
0.0
  0
LINE
  5
46D
330
1E
100
AcDbEntity
  8
0
  6
Continuous
 62
     3
100
AcDbLine
 10
-235.5340200054675
 20
-135.1351147952354
 30
0.0
 11
-233.6148329804675
 21
-136.7372137822354
 31
0.0
  0
POINT
  5
46E
330
1E
100
AcDbEntity
  8
0
  6
Continuous
 62
     3
100
AcDbPoint
 10
-213.3840200054675
 20
-67.03511479523547
 30
0.0
  0
LINE
  5
46F
330
1E
100
AcDbEntity
  8
0
  6
Continuous
 62
     3
100
AcDbLine
 10
-213.3840200054675
 20
-22.53511479523547
 30
0.0
 11
-254.8840200054675
 21
-22.53511479523547
 31
0.0
  0
LINE
  5
470
330
1E
100
AcDbEntity
  8
0
  6
Continuous
 62
     3
100
AcDbLine
 10
-213.3840200054675
 20
-22.53511479523547
 30
0.0
 11
-213.3840200054675
 21
-67.03511479523547
 31
0.0
  0
LINE
  5
471
330
1E
100
AcDbEntity
  8
0
  6
Continuous
 62
     3
100
AcDbLine
 10
-254.8840200054675
 20
-67.03511479523547
 30
0.0
 11
-213.3840200054675
 21
-67.03511479523547
 31
0.0
  0
LINE
  5
472
330
1E
100
AcDbEntity
  8
0
  6
Continuous
 62
     3
100
AcDbLine
 10
-214.8840200054674
 20
-44.03511479523547
 30
0.0
 11
-252.8840200054675
 21
-44.03511479523547
 31
0.0
  0
LINE
  5
473
330
1E
100
AcDbEntity
  8
0
  6
Continuous
 62
     3
100
AcDbLine
 10
-252.8840200054675
 20
-44.03511479523547
 30
0.0
 11
-214.8840200054674
 21
-44.03511479523547
 31
0.0
  0
LINE
  5
474
330
1E
100
AcDbEntity
  8
0
  6
Continuous
 62
     3
100
AcDbLine
 10
-214.8840200054674
 20
-24.03511479523547
 30
0.0
 11
-252.8840200054675
 21
-24.03511479523547
 31
0.0
  0
LINE
  5
475
330
1E
100
AcDbEntity
  8
0
  6
Continuous
 62
     3
100
AcDbLine
 10
-214.8840200054674
 20
-44.03511479523547
 30
0.0
 11
-214.8840200054674
 21
-24.03511479523547
 31
0.0
  0
LINE
  5
476
330
1E
100
AcDbEntity
  8
0
  6
Continuous
 62
     3
100
AcDbLine
 10
-214.8840200054674
 20
-65.03511479523547
 30
0.0
 11
-214.8840200054674
 21
-44.03511479523547
 31
0.0
  0
LINE
  5
477
330
1E
100
AcDbEntity
  8
0
  6
Continuous
 62
     3
100
AcDbLine
 10
-252.8840200054675
 20
-65.03511479523547
 30
0.0
 11
-214.8840200054674
 21
-65.03511479523547
 31
0.0
  0
POINT
  5
478
330
1E
100
AcDbEntity
  8
0
  6
Continuous
 62
     3
100
AcDbPoint
 10
-254.8840200054675
 20
-67.03511479523547
 30
0.0
  0
LINE
  5
479
330
1E
100
AcDbEntity
  8
0
  6
Continuous
 62
     3
100
AcDbLine
 10
-254.8840200054675
 20
-22.53511479523547
 30
0.0
 11
-254.8840200054675
 21
-67.03511479523547
 31
0.0
  0
LINE
  5
47A
330
1E
100
AcDbEntity
  8
0
  6
Continuous
 62
     3
100
AcDbLine
 10
-252.8840200054675
 20
-44.03511479523547
 30
0.0
 11
-252.8840200054675
 21
-65.03511479523547
 31
0.0
  0
LINE
  5
47B
330
1E
100
AcDbEntity
  8
0
  6
Continuous
 62
     3
100
AcDbLine
 10
-252.8840200054675
 20
-24.03511479523547
 30
0.0
 11
-252.8840200054675
 21
-44.03511479523547
 31
0.0
  0
TEXT
  5
47D
330
1E
100
AcDbEntity
  8
1
  6
Continuous
 62
     3
100
AcDbText
 10
-258.557238862069
 20
21.37161451991946
 30
0.3
 40
3.0
  1
　２
 50
90.0
 41
0.666666667
  7
KANJI1
100
AcDbText
  0
TEXT
  5
47F
330
1E
100
AcDbEntity
  8
1
  6
Continuous
 62
     3
100
AcDbText
 10
-258.4220455054675
 20
16.66195187576454
 30
0.3
 40
3.0
  1
　１
 50
90.0
 41
0.666666667
  7
KANJI1
100
AcDbText
  0
TEXT
  5
481
330
1E
100
AcDbEntity
  8
1
  6
Continuous
 62
     3
100
AcDbText
 10
-206.557238862069
 20
21.37161451991957
 30
0.3
 40
3.0
  1
　８
 50
90.0
 41
0.666666667
  7
KANJI1
100
AcDbText
  0
POINT
  5
482
330
1E
100
AcDbEntity
  8
1
  6
Continuous
 62
     3
100
AcDbPoint
 10
-213.9720455054674
 20
21.81195187576451
 30
0.3
  0
TEXT
  5
484
330
1E
100
AcDbEntity
  8
1
  6
Continuous
 62
     3
100
AcDbText
 10
-206.4220455054674
 20
16.66195187576454
 30
0.3
 40
3.0
  1
　７
 50
90.0
 41
0.666666667
  7
KANJI1
100
AcDbText
  0
TEXT
  5
485
330
1E
100
AcDbEntity
  8
1
  6
Continuous
 62
     3
100
AcDbText
 10
-249.5793883564675
 20
18.60929416996152
 30
0.18
 40
2.7
  1
TH-41
 50
90.0
 41
0.666666667
  7
KANJI4
100
AcDbText
  0
TEXT
  5
486
330
1E
100
AcDbEntity
  8
0
  6
Continuous
 62
     3
100
AcDbText
 10
-226.7340200054674
 20
-146.6351147952354
 30
0.3
 40
4.0
  1
ＤＩＮ　ＲＡＩＬ
 41
0.75
  7
KANJI5
100
AcDbText
  0
ENDSEC
  0
SECTION
  2
OBJECTS
  0
DICTIONARY
  5
C
330
0
100
AcDbDictionary
281
     1
  3
ACAD_GROUP
350
D
  3
ACAD_PLOTSTYLENAME
350
E
  3
ACAD_MLINESTYLE
350
16
  3
ACAD_PLOTSETTINGS
350
18
  3
ACAD_LAYOUT
350
19
  0
DICTIONARY
  5
D
102
{ACAD_REACTORS
330
C
102
}
330
C
100
AcDbDictionary
281
     1
  0
ACDBDICTIONARYWDFLT
  5
E
102
{ACAD_REACTORS
330
C
102
}
330
C
100
AcDbDictionary
281
     1
  3
Normal
350
F
100
AcDbDictionaryWithDefault
340
F
  0
DICTIONARY
  5
16
102
{ACAD_REACTORS
330
C
102
}
330
C
100
AcDbDictionary
281
     1
  3
Standard
350
17
  0
DICTIONARY
  5
18
102
{ACAD_REACTORS
330
C
102
}
330
C
100
AcDbDictionary
281
     1
  0
DICTIONARY
  5
19
102
{ACAD_REACTORS
330
C
102
}
330
C
100
AcDbDictionary
281
     1
  3
ﾚｲｱｳﾄ1
350
1D
  3
Model
350
21
  0
ACDBPLACEHOLDER
  5
F
102
{ACAD_REACTORS
330
E
102
}
330
E
  0
MLINESTYLE
  5
17
102
{ACAD_REACTORS
330
16
102
}
330
16
100
AcDbMlineStyle
  2
STANDARD
 70
     0
  3

 62
   256
 51
90.0
 52
90.0
 71
     2
 49
0.5
 62
   256
  6
BYLAYER
 49
-0.5
 62
   256
  6
BYLAYER
  0
LAYOUT
  5
1D
102
{ACAD_REACTORS
330
19
102
}
330
19
100
AcDbPlotSettings
  1

  2
Canon LASER SHOT LBP-880
  4

  6

 40
0.0
 41
0.0
 42
0.0
 43
0.0
 44
0.0
 45
0.0
 46
0.0
 47
0.0
 48
0.0
 49
0.0
140
0.0
141
0.0
142
1.0
143
1.0
 70
   688
 72
     0
 73
     0
 74
     5
  7

 75
    16
147
1.0
148
0.0
149
0.0
100
AcDbLayout
  1
ﾚｲｱｳﾄ1
 70
     1
 71
     1
 10
0.0
 20
0.0
 11
12.0
 21
9.0
 12
0.0
 22
0.0
 32
0.0
 14
1.000000000000000E+20
 24
1.000000000000000E+20
 34
1.000000000000000E+20
 15
-1.000000000000000E+20
 25
-1.000000000000000E+20
 35
-1.000000000000000E+20
146
0.0
 13
0.0
 23
0.0
 33
0.0
 16
1.0
 26
0.0
 36
0.0
 17
0.0
 27
1.0
 37
0.0
 76
     0
330
1A
  0
LAYOUT
  5
21
102
{ACAD_REACTORS
330
19
102
}
330
19
100
AcDbPlotSettings
  1

  2
Canon LASER SHOT LBP-880
  4
A4
  6

 40
5.873749732971191
 41
5.873747825622557
 42
5.958419799804687
 43
5.873748779296875
 44
210.0579986572264
 45
296.9259948730469
 46
0.0
 47
0.0
 48
0.0
 49
0.0
140
0.0
141
0.0
142
1.0
143
22.58953996753592
 70
 11952
 72
     0
 73
     1
 74
     0
  7

 75
     0
147
0.0442682764428638
148
6498.418401236981
149
3049.523734498373
100
AcDbLayout
  1
Model
 70
     1
 71
     0
 10
0.0
 20
0.0
 11
12.0
 21
9.0
 12
0.0
 22
0.0
 32
0.0
 14
0.0
 24
0.0
 34
0.0
 15
0.0
 25
0.0
 35
0.0
146
0.0
 13
0.0
 23
0.0
 33
0.0
 16
1.0
 26
0.0
 36
0.0
 17
0.0
 27
1.0
 37
0.0
 76
     0
330
1E
  0
ENDSEC
  0
EOF
