  0
SECTION
  2
HEADER
  9
$ACADVER
  1
AC1015
  9
$ACADMAINTVER
 70
     6
  9
$DWGCODEPAGE
  3
ANSI_932
  9
$INSBASE
 10
0.0
 20
0.0
 30
0.0
  9
$EXTMIN
 10
-5.941616374145985E+73
 20
-5.941616374145985E+73
 30
0.0
  9
$EXTMAX
 10
1.269263905633295E+99
 20
1.269263905633295E+99
 30
0.3
  9
$LIMMIN
 10
0.0
 20
0.0
  9
$LIMMAX
 10
420.0
 20
297.0
  9
$ORTHOMODE
 70
     0
  9
$REGENMODE
 70
     1
  9
$FILLMODE
 70
     1
  9
$QTEXTMODE
 70
     0
  9
$MIRRTEXT
 70
     1
  9
$LTSCALE
 40
1.0
  9
$ATTMODE
 70
     1
  9
$TEXTSIZE
 40
0.2
  9
$TRACEWID
 40
0.05
  9
$TEXTSTYLE
  7
STANDARD
  9
$CLAYER
  8
0
  9
$CELTYPE
  6
CONTINUOUS
  9
$CECOLOR
 62
   256
  9
$CELTSCALE
 40
1.0
  9
$DISPSILH
 70
     0
  9
$DIMSCALE
 40
1.0
  9
$DIMASZ
 40
0.18
  9
$DIMEXO
 40
0.0625
  9
$DIMDLI
 40
0.38
  9
$DIMRND
 40
0.0
  9
$DIMDLE
 40
0.0
  9
$DIMEXE
 40
0.18
  9
$DIMTP
 40
0.0
  9
$DIMTM
 40
0.0
  9
$DIMTXT
 40
0.18
  9
$DIMCEN
 40
0.09
  9
$DIMTSZ
 40
0.0
  9
$DIMTOL
 70
     0
  9
$DIMLIM
 70
     0
  9
$DIMTIH
 70
     1
  9
$DIMTOH
 70
     1
  9
$DIMSE1
 70
     0
  9
$DIMSE2
 70
     0
  9
$DIMTAD
 70
     0
  9
$DIMZIN
 70
     0
  9
$DIMBLK
  1

  9
$DIMASO
 70
     1
  9
$DIMSHO
 70
     1
  9
$DIMPOST
  1

  9
$DIMAPOST
  1

  9
$DIMALT
 70
     0
  9
$DIMALTD
 70
     2
  9
$DIMALTF
 40
25.4
  9
$DIMLFAC
 40
1.0
  9
$DIMTOFL
 70
     0
  9
$DIMTVP
 40
0.0
  9
$DIMTIX
 70
     0
  9
$DIMSOXD
 70
     0
  9
$DIMSAH
 70
     0
  9
$DIMBLK1
  1

  9
$DIMBLK2
  1

  9
$DIMSTYLE
  2
Standard
  9
$DIMCLRD
 70
     0
  9
$DIMCLRE
 70
     0
  9
$DIMCLRT
 70
     0
  9
$DIMTFAC
 40
1.0
  9
$DIMGAP
 40
0.09
  9
$DIMJUST
 70
     0
  9
$DIMSD1
 70
     0
  9
$DIMSD2
 70
     0
  9
$DIMTOLJ
 70
     1
  9
$DIMTZIN
 70
     0
  9
$DIMALTZ
 70
     0
  9
$DIMALTTZ
 70
     0
  9
$DIMUPT
 70
     0
  9
$DIMDEC
 70
     4
  9
$DIMTDEC
 70
     4
  9
$DIMALTU
 70
     2
  9
$DIMALTTD
 70
     2
  9
$DIMTXSTY
  7
STANDARD
  9
$DIMAUNIT
 70
     0
  9
$DIMADEC
 70
     0
  9
$DIMALTRND
 40
0.0
  9
$DIMAZIN
 70
     0
  9
$DIMDSEP
 70
    46
  9
$DIMATFIT
 70
     3
  9
$DIMFRAC
 70
     0
  9
$DIMLDRBLK
  1

  9
$DIMLUNIT
 70
     2
  9
$DIMLWD
 70
    -2
  9
$DIMLWE
 70
    -2
  9
$DIMTMOVE
 70
     0
  9
$LUNITS
 70
     2
  9
$LUPREC
 70
     4
  9
$SKETCHINC
 40
0.1
  9
$FILLETRAD
 40
0.0
  9
$AUNITS
 70
     0
  9
$AUPREC
 70
     0
  9
$MENU
  1
.
  9
$ELEVATION
 40
0.0
  9
$PELEVATION
 40
0.0
  9
$THICKNESS
 40
0.0
  9
$LIMCHECK
 70
     0
  9
$CHAMFERA
 40
0.0
  9
$CHAMFERB
 40
0.0
  9
$CHAMFERC
 40
0.0
  9
$CHAMFERD
 40
0.0
  9
$SKPOLY
 70
     0
  9
$TDCREATE
 40
2452699.750265046
  9
$TDUCREATE
 40
2452699.375265046
  9
$TDUPDATE
 40
2452699.754716319
  9
$TDUUPDATE
 40
2452699.379716319
  9
$TDINDWG
 40
0.0044512731
  9
$TDUSRTIMER
 40
0.0044512731
  9
$USRTIMER
 70
     1
  9
$ANGBASE
 50
0.0
  9
$ANGDIR
 70
     0
  9
$PDMODE
 70
     0
  9
$PDSIZE
 40
0.0
  9
$PLINEWID
 40
0.0
  9
$SPLFRAME
 70
     0
  9
$SPLINETYPE
 70
     6
  9
$SPLINESEGS
 70
     8
  9
$HANDSEED
  5
77C
  9
$SURFTAB1
 70
     6
  9
$SURFTAB2
 70
     6
  9
$SURFTYPE
 70
     6
  9
$SURFU
 70
     6
  9
$SURFV
 70
     6
  9
$UCSBASE
  2

  9
$UCSNAME
  2

  9
$UCSORG
 10
0.0
 20
0.0
 30
0.0
  9
$UCSXDIR
 10
1.0
 20
0.0
 30
0.0
  9
$UCSYDIR
 10
0.0
 20
1.0
 30
0.0
  9
$UCSORTHOREF
  2

  9
$UCSORTHOVIEW
 70
     0
  9
$UCSORGTOP
 10
0.0
 20
0.0
 30
0.0
  9
$UCSORGBOTTOM
 10
0.0
 20
0.0
 30
0.0
  9
$UCSORGLEFT
 10
0.0
 20
0.0
 30
0.0
  9
$UCSORGRIGHT
 10
0.0
 20
0.0
 30
0.0
  9
$UCSORGFRONT
 10
0.0
 20
0.0
 30
0.0
  9
$UCSORGBACK
 10
0.0
 20
0.0
 30
0.0
  9
$PUCSBASE
  2

  9
$PUCSNAME
  2

  9
$PUCSORG
 10
0.0
 20
0.0
 30
0.0
  9
$PUCSXDIR
 10
1.0
 20
0.0
 30
0.0
  9
$PUCSYDIR
 10
0.0
 20
1.0
 30
0.0
  9
$PUCSORTHOREF
  2

  9
$PUCSORTHOVIEW
 70
     0
  9
$PUCSORGTOP
 10
0.0
 20
0.0
 30
0.0
  9
$PUCSORGBOTTOM
 10
0.0
 20
0.0
 30
0.0
  9
$PUCSORGLEFT
 10
0.0
 20
0.0
 30
0.0
  9
$PUCSORGRIGHT
 10
0.0
 20
0.0
 30
0.0
  9
$PUCSORGFRONT
 10
0.0
 20
0.0
 30
0.0
  9
$PUCSORGBACK
 10
0.0
 20
0.0
 30
0.0
  9
$USERI1
 70
     0
  9
$USERI2
 70
     0
  9
$USERI3
 70
     0
  9
$USERI4
 70
     0
  9
$USERI5
 70
     0
  9
$USERR1
 40
0.0
  9
$USERR2
 40
0.0
  9
$USERR3
 40
0.0
  9
$USERR4
 40
0.0
  9
$USERR5
 40
0.0
  9
$WORLDVIEW
 70
     1
  9
$SHADEDGE
 70
     3
  9
$SHADEDIF
 70
    70
  9
$TILEMODE
 70
     1
  9
$MAXACTVP
 70
    64
  9
$PINSBASE
 10
0.0
 20
0.0
 30
0.0
  9
$PLIMCHECK
 70
     0
  9
$PEXTMIN
 10
1.000000000000000E+20
 20
1.000000000000000E+20
 30
1.000000000000000E+20
  9
$PEXTMAX
 10
-1.000000000000000E+20
 20
-1.000000000000000E+20
 30
-1.000000000000000E+20
  9
$PLIMMIN
 10
0.0
 20
0.0
  9
$PLIMMAX
 10
12.0
 20
9.0
  9
$UNITMODE
 70
     0
  9
$VISRETAIN
 70
     1
  9
$PLINEGEN
 70
     0
  9
$PSLTSCALE
 70
     1
  9
$TREEDEPTH
 70
  3020
  9
$CMLSTYLE
  2
Standard
  9
$CMLJUST
 70
     0
  9
$CMLSCALE
 40
1.0
  9
$PROXYGRAPHICS
 70
     1
  9
$MEASUREMENT
 70
     0
  9
$CELWEIGHT
370
    -1
  9
$ENDCAPS
280
     0
  9
$JOINSTYLE
280
     0
  9
$LWDISPLAY
290
     0
  9
$INSUNITS
 70
     0
  9
$HYPERLINKBASE
  1

  9
$STYLESHEET
  1

  9
$XEDIT
290
     1
  9
$CEPSNTYPE
380
     0
  9
$PSTYLEMODE
290
     1
  9
$FINGERPRINTGUID
  2
{E1F6F32D-6773-410B-94D1-B8E815F88085}
  9
$VERSIONGUID
  2
{9C890241-A20A-4EA9-A752-FBE54D4405C3}
  9
$EXTNAMES
290
     1
  9
$PSVPSCALE
 40
0.0
  9
$OLESTARTUP
290
     0
  0
ENDSEC
  0
SECTION
  2
CLASSES
  0
CLASS
  1
ACDBDICTIONARYWDFLT
  2
AcDbDictionaryWithDefault
  3
AutoCAD 2000
 90
        0
280
     0
281
     0
  0
CLASS
  1
ACDBPLACEHOLDER
  2
AcDbPlaceHolder
  3
AutoCAD 2000
 90
        0
280
     0
281
     0
  0
CLASS
  1
LAYOUT
  2
AcDbLayout
  3
AutoCAD 2000
 90
        0
280
     0
281
     0
  0
ENDSEC
  0
SECTION
  2
TABLES
  0
TABLE
  2
VPORT
  5
8
330
0
100
AcDbSymbolTable
 70
     3
  0
VPORT
  5
77B
330
8
100
AcDbSymbolTableRecord
100
AcDbViewportTableRecord
  2
*Active
 70
     0
 10
0.0
 20
0.0
 11
1.0
 21
1.0
 12
-783.2551891671039
 22
-390.9599838491623
 13
0.0
 23
0.0
 14
1.0
 24
1.0
 15
0.0
 25
0.0
 16
0.0
 26
0.0
 36
1.0
 17
0.0
 27
0.0
 37
0.0
 40
288.0000022128224
 41
1.761278195488721
 42
50.0
 43
0.0
 44
0.0
 50
0.0
 51
0.0
 71
     0
 72
   100
 73
     1
 74
     1
 75
     0
 76
     0
 77
     0
 78
     0
281
     0
 65
     1
110
0.0
120
0.0
130
0.0
111
1.0
121
0.0
131
0.0
112
0.0
122
1.0
132
0.0
 79
     0
146
0.0
  0
ENDTAB
  0
TABLE
  2
LTYPE
  5
5
330
0
100
AcDbSymbolTable
 70
     2
  0
LTYPE
  5
13
330
5
100
AcDbSymbolTableRecord
100
AcDbLinetypeTableRecord
  2
ByBlock
 70
     0
  3

 72
    65
 73
     0
 40
0.0
  0
LTYPE
  5
14
330
5
100
AcDbSymbolTableRecord
100
AcDbLinetypeTableRecord
  2
ByLayer
 70
     0
  3

 72
    65
 73
     0
 40
0.0
  0
LTYPE
  5
15
330
5
100
AcDbSymbolTableRecord
100
AcDbLinetypeTableRecord
  2
CONTINUOUS
 70
     0
  3
Solid line
 72
    65
 73
     0
 40
0.0
  0
LTYPE
  5
22
330
5
100
AcDbSymbolTableRecord
100
AcDbLinetypeTableRecord
  2
LTYPE1
 70
     0
  3
CENTER
 72
    65
 73
     4
 40
15.0
 49
10.5
 74
     0
 49
-1.5
 74
     0
 49
1.5
 74
     0
 49
-1.5
 74
     0
  0
ENDTAB
  0
TABLE
  2
LAYER
  5
2
330
0
100
AcDbSymbolTable
 70
   128
  0
LAYER
  5
10
330
2
100
AcDbSymbolTableRecord
100
AcDbLayerTableRecord
  2
0
 70
     0
 62
     7
  6
CONTINUOUS
370
    -3
390
F
  0
LAYER
  5
23
330
2
100
AcDbSymbolTableRecord
100
AcDbLayerTableRecord
  2
1
 70
     0
 62
     7
  6
CONTINUOUS
370
    -3
390
F
  0
LAYER
  5
24
330
2
100
AcDbSymbolTableRecord
100
AcDbLayerTableRecord
  2
2
 70
     0
 62
     7
  6
CONTINUOUS
370
    -3
390
F
  0
LAYER
  5
25
330
2
100
AcDbSymbolTableRecord
100
AcDbLayerTableRecord
  2
3
 70
     0
 62
     7
  6
CONTINUOUS
370
    -3
390
F
  0
LAYER
  5
26
330
2
100
AcDbSymbolTableRecord
100
AcDbLayerTableRecord
  2
4
 70
     0
 62
     7
  6
CONTINUOUS
370
    -3
390
F
  0
LAYER
  5
27
330
2
100
AcDbSymbolTableRecord
100
AcDbLayerTableRecord
  2
5
 70
     0
 62
     7
  6
CONTINUOUS
370
    -3
390
F
  0
LAYER
  5
28
330
2
100
AcDbSymbolTableRecord
100
AcDbLayerTableRecord
  2
6
 70
     0
 62
     7
  6
CONTINUOUS
370
    -3
390
F
  0
LAYER
  5
29
330
2
100
AcDbSymbolTableRecord
100
AcDbLayerTableRecord
  2
7
 70
     0
 62
     7
  6
CONTINUOUS
370
    -3
390
F
  0
LAYER
  5
2A
330
2
100
AcDbSymbolTableRecord
100
AcDbLayerTableRecord
  2
8
 70
     0
 62
     7
  6
CONTINUOUS
370
    -3
390
F
  0
LAYER
  5
2B
330
2
100
AcDbSymbolTableRecord
100
AcDbLayerTableRecord
  2
9
 70
     0
 62
     7
  6
CONTINUOUS
370
    -3
390
F
  0
LAYER
  5
2C
330
2
100
AcDbSymbolTableRecord
100
AcDbLayerTableRecord
  2
10
 70
     0
 62
     7
  6
CONTINUOUS
370
    -3
390
F
  0
LAYER
  5
2D
330
2
100
AcDbSymbolTableRecord
100
AcDbLayerTableRecord
  2
11
 70
     0
 62
     7
  6
CONTINUOUS
370
    -3
390
F
  0
LAYER
  5
2E
330
2
100
AcDbSymbolTableRecord
100
AcDbLayerTableRecord
  2
12
 70
     0
 62
     7
  6
CONTINUOUS
370
    -3
390
F
  0
LAYER
  5
2F
330
2
100
AcDbSymbolTableRecord
100
AcDbLayerTableRecord
  2
13
 70
     0
 62
     7
  6
CONTINUOUS
370
    -3
390
F
  0
LAYER
  5
30
330
2
100
AcDbSymbolTableRecord
100
AcDbLayerTableRecord
  2
14
 70
     0
 62
     7
  6
CONTINUOUS
370
    -3
390
F
  0
LAYER
  5
31
330
2
100
AcDbSymbolTableRecord
100
AcDbLayerTableRecord
  2
15
 70
     0
 62
     7
  6
CONTINUOUS
370
    -3
390
F
  0
LAYER
  5
32
330
2
100
AcDbSymbolTableRecord
100
AcDbLayerTableRecord
  2
16
 70
     0
 62
     7
  6
CONTINUOUS
370
    -3
390
F
  0
LAYER
  5
33
330
2
100
AcDbSymbolTableRecord
100
AcDbLayerTableRecord
  2
17
 70
     0
 62
     7
  6
CONTINUOUS
370
    -3
390
F
  0
LAYER
  5
34
330
2
100
AcDbSymbolTableRecord
100
AcDbLayerTableRecord
  2
18
 70
     0
 62
     7
  6
CONTINUOUS
370
    -3
390
F
  0
LAYER
  5
35
330
2
100
AcDbSymbolTableRecord
100
AcDbLayerTableRecord
  2
19
 70
     0
 62
     7
  6
CONTINUOUS
370
    -3
390
F
  0
LAYER
  5
36
330
2
100
AcDbSymbolTableRecord
100
AcDbLayerTableRecord
  2
20
 70
     0
 62
     7
  6
CONTINUOUS
370
    -3
390
F
  0
LAYER
  5
37
330
2
100
AcDbSymbolTableRecord
100
AcDbLayerTableRecord
  2
21
 70
     0
 62
     7
  6
CONTINUOUS
370
    -3
390
F
  0
LAYER
  5
38
330
2
100
AcDbSymbolTableRecord
100
AcDbLayerTableRecord
  2
22
 70
     0
 62
     7
  6
CONTINUOUS
370
    -3
390
F
  0
LAYER
  5
39
330
2
100
AcDbSymbolTableRecord
100
AcDbLayerTableRecord
  2
23
 70
     0
 62
     7
  6
CONTINUOUS
370
    -3
390
F
  0
LAYER
  5
3A
330
2
100
AcDbSymbolTableRecord
100
AcDbLayerTableRecord
  2
24
 70
     0
 62
     7
  6
CONTINUOUS
370
    -3
390
F
  0
LAYER
  5
3B
330
2
100
AcDbSymbolTableRecord
100
AcDbLayerTableRecord
  2
25
 70
     0
 62
     7
  6
CONTINUOUS
370
    -3
390
F
  0
LAYER
  5
3C
330
2
100
AcDbSymbolTableRecord
100
AcDbLayerTableRecord
  2
26
 70
     0
 62
     7
  6
CONTINUOUS
370
    -3
390
F
  0
LAYER
  5
3D
330
2
100
AcDbSymbolTableRecord
100
AcDbLayerTableRecord
  2
27
 70
     0
 62
     7
  6
CONTINUOUS
370
    -3
390
F
  0
LAYER
  5
3E
330
2
100
AcDbSymbolTableRecord
100
AcDbLayerTableRecord
  2
28
 70
     0
 62
     7
  6
CONTINUOUS
370
    -3
390
F
  0
LAYER
  5
3F
330
2
100
AcDbSymbolTableRecord
100
AcDbLayerTableRecord
  2
29
 70
     0
 62
     7
  6
CONTINUOUS
370
    -3
390
F
  0
LAYER
  5
40
330
2
100
AcDbSymbolTableRecord
100
AcDbLayerTableRecord
  2
30
 70
     0
 62
     7
  6
CONTINUOUS
370
    -3
390
F
  0
LAYER
  5
41
330
2
100
AcDbSymbolTableRecord
100
AcDbLayerTableRecord
  2
31
 70
     0
 62
     7
  6
CONTINUOUS
370
    -3
390
F
  0
LAYER
  5
42
330
2
100
AcDbSymbolTableRecord
100
AcDbLayerTableRecord
  2
32
 70
     0
 62
     7
  6
CONTINUOUS
370
    -3
390
F
  0
LAYER
  5
43
330
2
100
AcDbSymbolTableRecord
100
AcDbLayerTableRecord
  2
33
 70
     0
 62
     7
  6
CONTINUOUS
370
    -3
390
F
  0
LAYER
  5
44
330
2
100
AcDbSymbolTableRecord
100
AcDbLayerTableRecord
  2
34
 70
     0
 62
     7
  6
CONTINUOUS
370
    -3
390
F
  0
LAYER
  5
45
330
2
100
AcDbSymbolTableRecord
100
AcDbLayerTableRecord
  2
35
 70
     0
 62
     7
  6
CONTINUOUS
370
    -3
390
F
  0
LAYER
  5
46
330
2
100
AcDbSymbolTableRecord
100
AcDbLayerTableRecord
  2
36
 70
     0
 62
     7
  6
CONTINUOUS
370
    -3
390
F
  0
LAYER
  5
47
330
2
100
AcDbSymbolTableRecord
100
AcDbLayerTableRecord
  2
37
 70
     0
 62
     7
  6
CONTINUOUS
370
    -3
390
F
  0
LAYER
  5
48
330
2
100
AcDbSymbolTableRecord
100
AcDbLayerTableRecord
  2
38
 70
     0
 62
     7
  6
CONTINUOUS
370
    -3
390
F
  0
LAYER
  5
49
330
2
100
AcDbSymbolTableRecord
100
AcDbLayerTableRecord
  2
39
 70
     0
 62
     7
  6
CONTINUOUS
370
    -3
390
F
  0
LAYER
  5
4A
330
2
100
AcDbSymbolTableRecord
100
AcDbLayerTableRecord
  2
40
 70
     0
 62
     7
  6
CONTINUOUS
370
    -3
390
F
  0
LAYER
  5
4B
330
2
100
AcDbSymbolTableRecord
100
AcDbLayerTableRecord
  2
41
 70
     0
 62
     7
  6
CONTINUOUS
370
    -3
390
F
  0
LAYER
  5
4C
330
2
100
AcDbSymbolTableRecord
100
AcDbLayerTableRecord
  2
42
 70
     0
 62
     7
  6
CONTINUOUS
370
    -3
390
F
  0
LAYER
  5
4D
330
2
100
AcDbSymbolTableRecord
100
AcDbLayerTableRecord
  2
43
 70
     0
 62
     7
  6
CONTINUOUS
370
    -3
390
F
  0
LAYER
  5
4E
330
2
100
AcDbSymbolTableRecord
100
AcDbLayerTableRecord
  2
44
 70
     0
 62
     7
  6
CONTINUOUS
370
    -3
390
F
  0
LAYER
  5
4F
330
2
100
AcDbSymbolTableRecord
100
AcDbLayerTableRecord
  2
45
 70
     0
 62
     7
  6
CONTINUOUS
370
    -3
390
F
  0
LAYER
  5
50
330
2
100
AcDbSymbolTableRecord
100
AcDbLayerTableRecord
  2
46
 70
     0
 62
     7
  6
CONTINUOUS
370
    -3
390
F
  0
LAYER
  5
51
330
2
100
AcDbSymbolTableRecord
100
AcDbLayerTableRecord
  2
47
 70
     0
 62
     7
  6
CONTINUOUS
370
    -3
390
F
  0
LAYER
  5
52
330
2
100
AcDbSymbolTableRecord
100
AcDbLayerTableRecord
  2
48
 70
     0
 62
     7
  6
CONTINUOUS
370
    -3
390
F
  0
LAYER
  5
53
330
2
100
AcDbSymbolTableRecord
100
AcDbLayerTableRecord
  2
49
 70
     0
 62
     7
  6
CONTINUOUS
370
    -3
390
F
  0
LAYER
  5
54
330
2
100
AcDbSymbolTableRecord
100
AcDbLayerTableRecord
  2
50
 70
     0
 62
     7
  6
CONTINUOUS
370
    -3
390
F
  0
LAYER
  5
55
330
2
100
AcDbSymbolTableRecord
100
AcDbLayerTableRecord
  2
51
 70
     0
 62
     7
  6
CONTINUOUS
370
    -3
390
F
  0
LAYER
  5
56
330
2
100
AcDbSymbolTableRecord
100
AcDbLayerTableRecord
  2
52
 70
     0
 62
     7
  6
CONTINUOUS
370
    -3
390
F
  0
LAYER
  5
57
330
2
100
AcDbSymbolTableRecord
100
AcDbLayerTableRecord
  2
53
 70
     0
 62
     7
  6
CONTINUOUS
370
    -3
390
F
  0
LAYER
  5
58
330
2
100
AcDbSymbolTableRecord
100
AcDbLayerTableRecord
  2
54
 70
     0
 62
     7
  6
CONTINUOUS
370
    -3
390
F
  0
LAYER
  5
59
330
2
100
AcDbSymbolTableRecord
100
AcDbLayerTableRecord
  2
55
 70
     0
 62
     7
  6
CONTINUOUS
370
    -3
390
F
  0
LAYER
  5
5A
330
2
100
AcDbSymbolTableRecord
100
AcDbLayerTableRecord
  2
56
 70
     0
 62
     7
  6
CONTINUOUS
370
    -3
390
F
  0
LAYER
  5
5B
330
2
100
AcDbSymbolTableRecord
100
AcDbLayerTableRecord
  2
57
 70
     0
 62
     7
  6
CONTINUOUS
370
    -3
390
F
  0
LAYER
  5
5C
330
2
100
AcDbSymbolTableRecord
100
AcDbLayerTableRecord
  2
58
 70
     0
 62
     7
  6
CONTINUOUS
370
    -3
390
F
  0
LAYER
  5
5D
330
2
100
AcDbSymbolTableRecord
100
AcDbLayerTableRecord
  2
59
 70
     0
 62
     7
  6
CONTINUOUS
370
    -3
390
F
  0
LAYER
  5
5E
330
2
100
AcDbSymbolTableRecord
100
AcDbLayerTableRecord
  2
60
 70
     0
 62
     7
  6
CONTINUOUS
370
    -3
390
F
  0
LAYER
  5
5F
330
2
100
AcDbSymbolTableRecord
100
AcDbLayerTableRecord
  2
61
 70
     0
 62
     7
  6
CONTINUOUS
370
    -3
390
F
  0
LAYER
  5
60
330
2
100
AcDbSymbolTableRecord
100
AcDbLayerTableRecord
  2
62
 70
     0
 62
     7
  6
CONTINUOUS
370
    -3
390
F
  0
LAYER
  5
61
330
2
100
AcDbSymbolTableRecord
100
AcDbLayerTableRecord
  2
63
 70
     0
 62
     7
  6
CONTINUOUS
370
    -3
390
F
  0
LAYER
  5
62
330
2
100
AcDbSymbolTableRecord
100
AcDbLayerTableRecord
  2
64
 70
     0
 62
     7
  6
CONTINUOUS
370
    -3
390
F
  0
LAYER
  5
63
330
2
100
AcDbSymbolTableRecord
100
AcDbLayerTableRecord
  2
65
 70
     0
 62
     7
  6
CONTINUOUS
370
    -3
390
F
  0
LAYER
  5
64
330
2
100
AcDbSymbolTableRecord
100
AcDbLayerTableRecord
  2
66
 70
     0
 62
     7
  6
CONTINUOUS
370
    -3
390
F
  0
LAYER
  5
65
330
2
100
AcDbSymbolTableRecord
100
AcDbLayerTableRecord
  2
67
 70
     0
 62
     7
  6
CONTINUOUS
370
    -3
390
F
  0
LAYER
  5
66
330
2
100
AcDbSymbolTableRecord
100
AcDbLayerTableRecord
  2
68
 70
     0
 62
     7
  6
CONTINUOUS
370
    -3
390
F
  0
LAYER
  5
67
330
2
100
AcDbSymbolTableRecord
100
AcDbLayerTableRecord
  2
69
 70
     0
 62
     7
  6
CONTINUOUS
370
    -3
390
F
  0
LAYER
  5
68
330
2
100
AcDbSymbolTableRecord
100
AcDbLayerTableRecord
  2
70
 70
     0
 62
     7
  6
CONTINUOUS
370
    -3
390
F
  0
LAYER
  5
69
330
2
100
AcDbSymbolTableRecord
100
AcDbLayerTableRecord
  2
71
 70
     0
 62
     7
  6
CONTINUOUS
370
    -3
390
F
  0
LAYER
  5
6A
330
2
100
AcDbSymbolTableRecord
100
AcDbLayerTableRecord
  2
72
 70
     0
 62
     7
  6
CONTINUOUS
370
    -3
390
F
  0
LAYER
  5
6B
330
2
100
AcDbSymbolTableRecord
100
AcDbLayerTableRecord
  2
73
 70
     0
 62
     7
  6
CONTINUOUS
370
    -3
390
F
  0
LAYER
  5
6C
330
2
100
AcDbSymbolTableRecord
100
AcDbLayerTableRecord
  2
74
 70
     0
 62
     7
  6
CONTINUOUS
370
    -3
390
F
  0
LAYER
  5
6D
330
2
100
AcDbSymbolTableRecord
100
AcDbLayerTableRecord
  2
75
 70
     0
 62
     7
  6
CONTINUOUS
370
    -3
390
F
  0
LAYER
  5
6E
330
2
100
AcDbSymbolTableRecord
100
AcDbLayerTableRecord
  2
76
 70
     0
 62
     7
  6
CONTINUOUS
370
    -3
390
F
  0
LAYER
  5
6F
330
2
100
AcDbSymbolTableRecord
100
AcDbLayerTableRecord
  2
77
 70
     0
 62
     7
  6
CONTINUOUS
370
    -3
390
F
  0
LAYER
  5
70
330
2
100
AcDbSymbolTableRecord
100
AcDbLayerTableRecord
  2
78
 70
     0
 62
     7
  6
CONTINUOUS
370
    -3
390
F
  0
LAYER
  5
71
330
2
100
AcDbSymbolTableRecord
100
AcDbLayerTableRecord
  2
79
 70
     0
 62
     7
  6
CONTINUOUS
370
    -3
390
F
  0
LAYER
  5
72
330
2
100
AcDbSymbolTableRecord
100
AcDbLayerTableRecord
  2
80
 70
     0
 62
     7
  6
CONTINUOUS
370
    -3
390
F
  0
LAYER
  5
73
330
2
100
AcDbSymbolTableRecord
100
AcDbLayerTableRecord
  2
81
 70
     0
 62
     7
  6
CONTINUOUS
370
    -3
390
F
  0
LAYER
  5
74
330
2
100
AcDbSymbolTableRecord
100
AcDbLayerTableRecord
  2
82
 70
     0
 62
     7
  6
CONTINUOUS
370
    -3
390
F
  0
LAYER
  5
75
330
2
100
AcDbSymbolTableRecord
100
AcDbLayerTableRecord
  2
83
 70
     0
 62
     7
  6
CONTINUOUS
370
    -3
390
F
  0
LAYER
  5
76
330
2
100
AcDbSymbolTableRecord
100
AcDbLayerTableRecord
  2
84
 70
     0
 62
     7
  6
CONTINUOUS
370
    -3
390
F
  0
LAYER
  5
77
330
2
100
AcDbSymbolTableRecord
100
AcDbLayerTableRecord
  2
85
 70
     0
 62
     7
  6
CONTINUOUS
370
    -3
390
F
  0
LAYER
  5
78
330
2
100
AcDbSymbolTableRecord
100
AcDbLayerTableRecord
  2
86
 70
     0
 62
     7
  6
CONTINUOUS
370
    -3
390
F
  0
LAYER
  5
79
330
2
100
AcDbSymbolTableRecord
100
AcDbLayerTableRecord
  2
87
 70
     0
 62
     7
  6
CONTINUOUS
370
    -3
390
F
  0
LAYER
  5
7A
330
2
100
AcDbSymbolTableRecord
100
AcDbLayerTableRecord
  2
88
 70
     0
 62
     7
  6
CONTINUOUS
370
    -3
390
F
  0
LAYER
  5
7B
330
2
100
AcDbSymbolTableRecord
100
AcDbLayerTableRecord
  2
89
 70
     0
 62
     7
  6
CONTINUOUS
370
    -3
390
F
  0
LAYER
  5
7C
330
2
100
AcDbSymbolTableRecord
100
AcDbLayerTableRecord
  2
90
 70
     0
 62
     7
  6
CONTINUOUS
370
    -3
390
F
  0
LAYER
  5
7D
330
2
100
AcDbSymbolTableRecord
100
AcDbLayerTableRecord
  2
91
 70
     0
 62
     7
  6
CONTINUOUS
370
    -3
390
F
  0
LAYER
  5
7E
330
2
100
AcDbSymbolTableRecord
100
AcDbLayerTableRecord
  2
92
 70
     0
 62
     7
  6
CONTINUOUS
370
    -3
390
F
  0
LAYER
  5
7F
330
2
100
AcDbSymbolTableRecord
100
AcDbLayerTableRecord
  2
93
 70
     0
 62
     7
  6
CONTINUOUS
370
    -3
390
F
  0
LAYER
  5
80
330
2
100
AcDbSymbolTableRecord
100
AcDbLayerTableRecord
  2
94
 70
     0
 62
     7
  6
CONTINUOUS
370
    -3
390
F
  0
LAYER
  5
81
330
2
100
AcDbSymbolTableRecord
100
AcDbLayerTableRecord
  2
95
 70
     0
 62
     7
  6
CONTINUOUS
370
    -3
390
F
  0
LAYER
  5
82
330
2
100
AcDbSymbolTableRecord
100
AcDbLayerTableRecord
  2
96
 70
     0
 62
     7
  6
CONTINUOUS
370
    -3
390
F
  0
LAYER
  5
83
330
2
100
AcDbSymbolTableRecord
100
AcDbLayerTableRecord
  2
97
 70
     0
 62
     7
  6
CONTINUOUS
370
    -3
390
F
  0
LAYER
  5
84
330
2
100
AcDbSymbolTableRecord
100
AcDbLayerTableRecord
  2
98
 70
     0
 62
     7
  6
CONTINUOUS
370
    -3
390
F
  0
LAYER
  5
85
330
2
100
AcDbSymbolTableRecord
100
AcDbLayerTableRecord
  2
99
 70
     0
 62
     7
  6
CONTINUOUS
370
    -3
390
F
  0
LAYER
  5
86
330
2
100
AcDbSymbolTableRecord
100
AcDbLayerTableRecord
  2
100
 70
     0
 62
     7
  6
CONTINUOUS
370
    -3
390
F
  0
LAYER
  5
87
330
2
100
AcDbSymbolTableRecord
100
AcDbLayerTableRecord
  2
101
 70
     0
 62
     7
  6
CONTINUOUS
370
    -3
390
F
  0
LAYER
  5
88
330
2
100
AcDbSymbolTableRecord
100
AcDbLayerTableRecord
  2
102
 70
     0
 62
     7
  6
CONTINUOUS
370
    -3
390
F
  0
LAYER
  5
89
330
2
100
AcDbSymbolTableRecord
100
AcDbLayerTableRecord
  2
103
 70
     0
 62
     7
  6
CONTINUOUS
370
    -3
390
F
  0
LAYER
  5
8A
330
2
100
AcDbSymbolTableRecord
100
AcDbLayerTableRecord
  2
104
 70
     0
 62
     7
  6
CONTINUOUS
370
    -3
390
F
  0
LAYER
  5
8B
330
2
100
AcDbSymbolTableRecord
100
AcDbLayerTableRecord
  2
105
 70
     0
 62
     7
  6
CONTINUOUS
370
    -3
390
F
  0
LAYER
  5
8C
330
2
100
AcDbSymbolTableRecord
100
AcDbLayerTableRecord
  2
106
 70
     0
 62
     7
  6
CONTINUOUS
370
    -3
390
F
  0
LAYER
  5
8D
330
2
100
AcDbSymbolTableRecord
100
AcDbLayerTableRecord
  2
107
 70
     0
 62
     7
  6
CONTINUOUS
370
    -3
390
F
  0
LAYER
  5
8E
330
2
100
AcDbSymbolTableRecord
100
AcDbLayerTableRecord
  2
108
 70
     0
 62
     7
  6
CONTINUOUS
370
    -3
390
F
  0
LAYER
  5
8F
330
2
100
AcDbSymbolTableRecord
100
AcDbLayerTableRecord
  2
109
 70
     0
 62
     7
  6
CONTINUOUS
370
    -3
390
F
  0
LAYER
  5
90
330
2
100
AcDbSymbolTableRecord
100
AcDbLayerTableRecord
  2
110
 70
     0
 62
     7
  6
CONTINUOUS
370
    -3
390
F
  0
LAYER
  5
91
330
2
100
AcDbSymbolTableRecord
100
AcDbLayerTableRecord
  2
111
 70
     0
 62
     7
  6
CONTINUOUS
370
    -3
390
F
  0
LAYER
  5
92
330
2
100
AcDbSymbolTableRecord
100
AcDbLayerTableRecord
  2
112
 70
     0
 62
     7
  6
CONTINUOUS
370
    -3
390
F
  0
LAYER
  5
93
330
2
100
AcDbSymbolTableRecord
100
AcDbLayerTableRecord
  2
113
 70
     0
 62
     7
  6
CONTINUOUS
370
    -3
390
F
  0
LAYER
  5
94
330
2
100
AcDbSymbolTableRecord
100
AcDbLayerTableRecord
  2
114
 70
     0
 62
     7
  6
CONTINUOUS
370
    -3
390
F
  0
LAYER
  5
95
330
2
100
AcDbSymbolTableRecord
100
AcDbLayerTableRecord
  2
115
 70
     0
 62
     7
  6
CONTINUOUS
370
    -3
390
F
  0
LAYER
  5
96
330
2
100
AcDbSymbolTableRecord
100
AcDbLayerTableRecord
  2
116
 70
     0
 62
     7
  6
CONTINUOUS
370
    -3
390
F
  0
LAYER
  5
97
330
2
100
AcDbSymbolTableRecord
100
AcDbLayerTableRecord
  2
117
 70
     0
 62
     7
  6
CONTINUOUS
370
    -3
390
F
  0
LAYER
  5
98
330
2
100
AcDbSymbolTableRecord
100
AcDbLayerTableRecord
  2
118
 70
     0
 62
     7
  6
CONTINUOUS
370
    -3
390
F
  0
LAYER
  5
99
330
2
100
AcDbSymbolTableRecord
100
AcDbLayerTableRecord
  2
119
 70
     0
 62
     7
  6
CONTINUOUS
370
    -3
390
F
  0
LAYER
  5
9A
330
2
100
AcDbSymbolTableRecord
100
AcDbLayerTableRecord
  2
120
 70
     0
 62
     7
  6
CONTINUOUS
370
    -3
390
F
  0
LAYER
  5
9B
330
2
100
AcDbSymbolTableRecord
100
AcDbLayerTableRecord
  2
121
 70
     0
 62
     7
  6
CONTINUOUS
370
    -3
390
F
  0
LAYER
  5
9C
330
2
100
AcDbSymbolTableRecord
100
AcDbLayerTableRecord
  2
122
 70
     0
 62
     7
  6
CONTINUOUS
370
    -3
390
F
  0
LAYER
  5
9D
330
2
100
AcDbSymbolTableRecord
100
AcDbLayerTableRecord
  2
123
 70
     0
 62
     7
  6
CONTINUOUS
370
    -3
390
F
  0
LAYER
  5
9E
330
2
100
AcDbSymbolTableRecord
100
AcDbLayerTableRecord
  2
124
 70
     0
 62
     7
  6
CONTINUOUS
370
    -3
390
F
  0
LAYER
  5
9F
330
2
100
AcDbSymbolTableRecord
100
AcDbLayerTableRecord
  2
125
 70
     0
 62
     7
  6
CONTINUOUS
370
    -3
390
F
  0
LAYER
  5
A0
330
2
100
AcDbSymbolTableRecord
100
AcDbLayerTableRecord
  2
126
 70
     0
 62
     7
  6
CONTINUOUS
370
    -3
390
F
  0
LAYER
  5
A1
330
2
100
AcDbSymbolTableRecord
100
AcDbLayerTableRecord
  2
127
 70
     0
 62
     7
  6
CONTINUOUS
370
    -3
390
F
  0
ENDTAB
  0
TABLE
  2
STYLE
  5
3
330
0
100
AcDbSymbolTable
 70
     3
  0
STYLE
  5
11
330
3
100
AcDbSymbolTableRecord
100
AcDbTextStyleTableRecord
  2
STANDARD
 70
     0
 40
0.0
 41
1.0
 50
0.0
 71
     0
 42
0.2
  3
txt
  4

  0
STYLE
  5
A2
330
3
100
AcDbSymbolTableRecord
100
AcDbTextStyleTableRecord
  2
KANJI0
 70
     0
 40
3.0
 41
0.6
 50
0.0
 71
     0
 42
3.0
  3

  4
bigfont
  0
STYLE
  5
A3
330
3
100
AcDbSymbolTableRecord
100
AcDbTextStyleTableRecord
  2
KANJI1
 70
     0
 40
2.0
 41
0.8
 50
0.0
 71
     0
 42
2.0
  3

  4
bigfont
  0
ENDTAB
  0
TABLE
  2
VIEW
  5
6
330
0
100
AcDbSymbolTable
 70
     0
  0
ENDTAB
  0
TABLE
  2
UCS
  5
7
330
0
100
AcDbSymbolTable
 70
     0
  0
ENDTAB
  0
TABLE
  2
APPID
  5
9
330
0
100
AcDbSymbolTable
 70
     1
  0
APPID
  5
12
330
9
100
AcDbSymbolTableRecord
100
AcDbRegAppTableRecord
  2
ACAD
 70
     0
  0
ENDTAB
  0
TABLE
  2
DIMSTYLE
  5
A
330
0
100
AcDbSymbolTable
 70
     1
100
AcDbDimStyleTable
 71
     0
  0
DIMSTYLE
105
778
330
A
100
AcDbSymbolTableRecord
100
AcDbDimStyleTableRecord
  2
Standard
 70
     0
340
11
  0
ENDTAB
  0
TABLE
  2
BLOCK_RECORD
  5
1
330
0
100
AcDbSymbolTable
 70
     0
  0
BLOCK_RECORD
  5
1E
330
1
100
AcDbSymbolTableRecord
100
AcDbBlockTableRecord
  2
*Model_Space
340
21
  0
BLOCK_RECORD
  5
1A
330
1
100
AcDbSymbolTableRecord
100
AcDbBlockTableRecord
  2
*Paper_Space
340
1D
  0
ENDTAB
  0
ENDSEC
  0
SECTION
  2
BLOCKS
  0
BLOCK
  5
1F
330
1E
100
AcDbEntity
  8
0
100
AcDbBlockBegin
  2
*Model_Space
 70
     0
 10
0.0
 20
0.0
 30
0.0
  3
*Model_Space
  1

  0
ENDBLK
  5
20
330
1E
100
AcDbEntity
  8
0
100
AcDbBlockEnd
  0
BLOCK
  5
1B
330
1A
100
AcDbEntity
 67
     1
  8
0
100
AcDbBlockBegin
  2
*Paper_Space
 70
     0
 10
0.0
 20
0.0
 30
0.0
  3
*Paper_Space
  1

  0
ENDBLK
  5
1C
330
1A
100
AcDbEntity
 67
     1
  8
0
100
AcDbBlockEnd
  0
ENDSEC
  0
SECTION
  2
ENTITIES
  0
LWPOLYLINE
  5
A7
330
1E
100
AcDbEntity
  8
0
 62
     1
100
AcDbPolyline
 90
        3
 70
     0
 43
0.0
 10
3.141492651413534E+99
 20
1.269263905633295E+99
 10
3.141492651413534E+99
 20
1.269263905633295E+99
 10
3.141492651413534E+99
 20
1.269263905633295E+99
  0
POINT
  5
AC
330
1E
100
AcDbEntity
  8
0
  6
Continuous
 62
     1
100
AcDbPoint
 10
-1.470580238991736E+63
 20
-5.941616374145985E+73
 30
0.0
  0
POINT
  5
AD
330
1E
100
AcDbEntity
  8
0
  6
Continuous
 62
     1
100
AcDbPoint
 10
-1.470580238991736E+63
 20
-5.941616374145985E+73
 30
0.0
  0
POINT
  5
AE
330
1E
100
AcDbEntity
  8
0
  6
Continuous
 62
     1
100
AcDbPoint
 10
3.141492651413534E+99
 20
1.269263905633295E+99
 30
0.0
  0
POINT
  5
AF
330
1E
100
AcDbEntity
  8
0
  6
Continuous
 62
     1
100
AcDbPoint
 10
3.141492651413534E+99
 20
1.269263905633295E+99
 30
0.0
  0
POINT
  5
B0
330
1E
100
AcDbEntity
  8
0
  6
Continuous
 62
     1
100
AcDbPoint
 10
-1.470580238991736E+63
 20
-5.941616374145985E+73
 30
0.0
  0
POINT
  5
B1
330
1E
100
AcDbEntity
  8
0
  6
Continuous
 62
     1
100
AcDbPoint
 10
-1.470580238991736E+63
 20
-5.941616374145985E+73
 30
0.0
  0
POINT
  5
B2
330
1E
100
AcDbEntity
  8
0
  6
Continuous
 62
     1
100
AcDbPoint
 10
3.141492651413534E+99
 20
1.269263905633295E+99
 30
0.0
  0
POINT
  5
B3
330
1E
100
AcDbEntity
  8
0
  6
Continuous
 62
     1
100
AcDbPoint
 10
3.141492651413534E+99
 20
1.269263905633295E+99
 30
0.0
  0
POINT
  5
B4
330
1E
100
AcDbEntity
  8
0
  6
Continuous
 62
     1
100
AcDbPoint
 10
-1.470580238991736E+63
 20
-5.941616374145985E+73
 30
0.0
  0
POINT
  5
B5
330
1E
100
AcDbEntity
  8
0
  6
Continuous
 62
     1
100
AcDbPoint
 10
-1.470580238991736E+63
 20
-5.941616374145985E+73
 30
0.0
  0
POINT
  5
B6
330
1E
100
AcDbEntity
  8
0
  6
Continuous
 62
     1
100
AcDbPoint
 10
3.141492651413534E+99
 20
1.269263905633295E+99
 30
0.0
  0
POINT
  5
B7
330
1E
100
AcDbEntity
  8
0
  6
Continuous
 62
     1
100
AcDbPoint
 10
3.141492651413534E+99
 20
1.269263905633295E+99
 30
0.0
  0
POINT
  5
B8
330
1E
100
AcDbEntity
  8
0
  6
Continuous
 62
     1
100
AcDbPoint
 10
-1.470580238991736E+63
 20
-5.941616374145985E+73
 30
0.0
  0
POINT
  5
B9
330
1E
100
AcDbEntity
  8
0
  6
Continuous
 62
     1
100
AcDbPoint
 10
-1.470580238991736E+63
 20
-5.941616374145985E+73
 30
0.0
  0
POINT
  5
BA
330
1E
100
AcDbEntity
  8
0
  6
Continuous
 62
     1
100
AcDbPoint
 10
3.141492651413534E+99
 20
1.269263905633295E+99
 30
0.0
  0
POINT
  5
BB
330
1E
100
AcDbEntity
  8
0
  6
Continuous
 62
     1
100
AcDbPoint
 10
3.141492651413534E+99
 20
1.269263905633295E+99
 30
0.0
  0
POINT
  5
BC
330
1E
100
AcDbEntity
  8
0
  6
Continuous
 62
     1
100
AcDbPoint
 10
-1.470580238991736E+63
 20
-5.941616374145985E+73
 30
0.0
  0
POINT
  5
BD
330
1E
100
AcDbEntity
  8
0
  6
Continuous
 62
     1
100
AcDbPoint
 10
-1.470580238991736E+63
 20
-5.941616374145985E+73
 30
0.0
  0
POINT
  5
BE
330
1E
100
AcDbEntity
  8
0
  6
Continuous
 62
     1
100
AcDbPoint
 10
3.141492651413534E+99
 20
1.269263905633295E+99
 30
0.0
  0
POINT
  5
BF
330
1E
100
AcDbEntity
  8
0
  6
Continuous
 62
     1
100
AcDbPoint
 10
3.141492651413534E+99
 20
1.269263905633295E+99
 30
0.0
  0
POINT
  5
C0
330
1E
100
AcDbEntity
  8
0
  6
Continuous
 62
     1
100
AcDbPoint
 10
-1.470580238991736E+63
 20
-5.941616374145985E+73
 30
0.0
  0
POINT
  5
C1
330
1E
100
AcDbEntity
  8
0
  6
Continuous
 62
     1
100
AcDbPoint
 10
-1.470580238991736E+63
 20
-5.941616374145985E+73
 30
0.0
  0
LWPOLYLINE
  5
C2
330
1E
100
AcDbEntity
  8
0
 62
     1
100
AcDbPolyline
 90
        3
 70
     0
 43
0.0
 10
3.141492651413534E+99
 20
1.269263905633295E+99
 10
3.141492651413534E+99
 20
1.269263905633295E+99
 10
3.141492651413534E+99
 20
1.269263905633295E+99
  0
POINT
  5
C7
330
1E
100
AcDbEntity
  8
0
  6
Continuous
 62
     1
100
AcDbPoint
 10
-1.470580238991736E+63
 20
-5.941616374145985E+73
 30
0.0
  0
POINT
  5
C8
330
1E
100
AcDbEntity
  8
0
  6
Continuous
 62
     1
100
AcDbPoint
 10
-1.470580238991736E+63
 20
-5.941616374145985E+73
 30
0.0
  0
POINT
  5
C9
330
1E
100
AcDbEntity
  8
0
  6
Continuous
 62
     1
100
AcDbPoint
 10
3.141492651413534E+99
 20
1.269263905633295E+99
 30
0.0
  0
POINT
  5
CA
330
1E
100
AcDbEntity
  8
0
  6
Continuous
 62
     1
100
AcDbPoint
 10
3.141492651413534E+99
 20
1.269263905633295E+99
 30
0.0
  0
POINT
  5
CB
330
1E
100
AcDbEntity
  8
0
  6
Continuous
 62
     1
100
AcDbPoint
 10
-1.470580238991736E+63
 20
-5.941616374145985E+73
 30
0.0
  0
POINT
  5
CC
330
1E
100
AcDbEntity
  8
0
  6
Continuous
 62
     1
100
AcDbPoint
 10
-1.470580238991736E+63
 20
-5.941616374145985E+73
 30
0.0
  0
POINT
  5
CD
330
1E
100
AcDbEntity
  8
0
  6
Continuous
 62
     1
100
AcDbPoint
 10
3.141492651413534E+99
 20
1.269263905633295E+99
 30
0.0
  0
POINT
  5
CE
330
1E
100
AcDbEntity
  8
0
  6
Continuous
 62
     1
100
AcDbPoint
 10
3.141492651413534E+99
 20
1.269263905633295E+99
 30
0.0
  0
POINT
  5
CF
330
1E
100
AcDbEntity
  8
0
  6
Continuous
 62
     1
100
AcDbPoint
 10
-1.470580238991736E+63
 20
-5.941616374145985E+73
 30
0.0
  0
POINT
  5
D0
330
1E
100
AcDbEntity
  8
0
  6
Continuous
 62
     1
100
AcDbPoint
 10
-1.470580238991736E+63
 20
-5.941616374145985E+73
 30
0.0
  0
POINT
  5
D1
330
1E
100
AcDbEntity
  8
0
  6
Continuous
 62
     1
100
AcDbPoint
 10
3.141492651413534E+99
 20
1.269263905633295E+99
 30
0.0
  0
POINT
  5
D2
330
1E
100
AcDbEntity
  8
0
  6
Continuous
 62
     1
100
AcDbPoint
 10
3.141492651413534E+99
 20
1.269263905633295E+99
 30
0.0
  0
POINT
  5
D3
330
1E
100
AcDbEntity
  8
0
  6
Continuous
 62
     1
100
AcDbPoint
 10
-1.470580238991736E+63
 20
-5.941616374145985E+73
 30
0.0
  0
POINT
  5
D4
330
1E
100
AcDbEntity
  8
0
  6
Continuous
 62
     1
100
AcDbPoint
 10
-1.470580238991736E+63
 20
-5.941616374145985E+73
 30
0.0
  0
POINT
  5
D5
330
1E
100
AcDbEntity
  8
0
  6
Continuous
 62
     1
100
AcDbPoint
 10
3.141492651413534E+99
 20
1.269263905633295E+99
 30
0.0
  0
POINT
  5
D6
330
1E
100
AcDbEntity
  8
0
  6
Continuous
 62
     1
100
AcDbPoint
 10
3.141492651413534E+99
 20
1.269263905633295E+99
 30
0.0
  0
POINT
  5
D7
330
1E
100
AcDbEntity
  8
0
  6
Continuous
 62
     1
100
AcDbPoint
 10
-1.470580238991736E+63
 20
-5.941616374145985E+73
 30
0.0
  0
POINT
  5
D8
330
1E
100
AcDbEntity
  8
0
  6
Continuous
 62
     1
100
AcDbPoint
 10
-1.470580238991736E+63
 20
-5.941616374145985E+73
 30
0.0
  0
POINT
  5
D9
330
1E
100
AcDbEntity
  8
0
  6
Continuous
 62
     1
100
AcDbPoint
 10
3.141492651413534E+99
 20
1.269263905633295E+99
 30
0.0
  0
POINT
  5
DA
330
1E
100
AcDbEntity
  8
0
  6
Continuous
 62
     1
100
AcDbPoint
 10
3.141492651413534E+99
 20
1.269263905633295E+99
 30
0.0
  0
POINT
  5
DB
330
1E
100
AcDbEntity
  8
0
  6
Continuous
 62
     1
100
AcDbPoint
 10
-1.470580238991736E+63
 20
-5.941616374145985E+73
 30
0.0
  0
POINT
  5
DC
330
1E
100
AcDbEntity
  8
0
  6
Continuous
 62
     1
100
AcDbPoint
 10
-1.470580238991736E+63
 20
-5.941616374145985E+73
 30
0.0
  0
LINE
  5
DD
330
1E
100
AcDbEntity
  8
0
  6
Continuous
 62
     1
100
AcDbLine
 10
-788.050684659119
 20
-448.5776549779381
 30
0.0
 11
-790.635684659119
 21
-448.577654978938
 31
0.0
  0
LINE
  5
DE
330
1E
100
AcDbEntity
  8
0
  6
Continuous
 62
     1
100
AcDbLine
 10
-790.635684659119
 20
-444.2776549789381
 30
0.0
 11
-788.050684659119
 21
-444.2776549779381
 31
0.0
  0
LINE
  5
DF
330
1E
100
AcDbEntity
  8
0
  6
Continuous
 62
     1
100
AcDbLine
 10
-788.050684659119
 20
-448.5776549779381
 30
0.0
 11
-788.050684659119
 21
-444.2776549779381
 31
0.0
  0
ARC
  5
E0
330
1E
100
AcDbEntity
  8
0
  6
Continuous
 62
     1
100
AcDbCircle
 10
-883.6356846581191
 20
-477.5776549819381
 30
0.0
 40
1.0
100
AcDbArc
 50
90.000000001
 51
180.0
  0
LINE
  5
E1
330
1E
100
AcDbEntity
  8
0
  6
Continuous
 62
     1
100
AcDbLine
 10
-884.6356846581191
 20
-477.5776549819381
 30
0.0
 11
-884.6356846561191
 21
-523.5776549819381
 31
0.0
  0
ARC
  5
E2
330
1E
100
AcDbEntity
  8
0
  6
Continuous
 62
     1
100
AcDbCircle
 10
-883.6356846561191
 20
-523.5776549819381
 30
0.0
 40
1.0
100
AcDbArc
 50
179.9999999989999
 51
270.0
  0
LINE
  5
E3
330
1E
100
AcDbEntity
  8
0
  6
Continuous
 62
     1
100
AcDbLine
 10
-863.1356846561191
 20
-523.0276549809381
 30
0.0
 11
-863.1356846561191
 21
-522.0276549809381
 31
0.0
  0
LINE
  5
E4
330
1E
100
AcDbEntity
  8
0
  6
Continuous
 62
     1
100
AcDbLine
 10
-863.1356846561191
 20
-522.0276549809381
 30
0.0
 11
-869.1356846561191
 21
-522.0276549809381
 31
0.0
  0
LINE
  5
E5
330
1E
100
AcDbEntity
  8
0
  6
Continuous
 62
     1
100
AcDbLine
 10
-869.1356846561191
 20
-522.0276549809381
 30
0.0
 11
-869.1356846561191
 21
-523.0276549809381
 31
0.0
  0
ARC
  5
E6
330
1E
100
AcDbEntity
  8
0
  6
Continuous
 62
     1
100
AcDbCircle
 10
-881.970684656119
 20
-522.0276549819381
 30
0.0
 40
1.0
100
AcDbArc
 50
180.0
 51
270.0
  0
LINE
  5
E7
330
1E
100
AcDbEntity
  8
0
  6
Continuous
 62
     1
100
AcDbLine
 10
-882.970684658119
 20
-479.1276549819381
 30
0.0
 11
-882.9706846561192
 21
-522.0276549819381
 31
0.0
  0
LINE
  5
E8
330
1E
100
AcDbEntity
  8
0
  6
Continuous
 62
     1
100
AcDbLine
 10
-883.135684656119
 20
-523.0776549819381
 30
0.0
 11
-883.135684658119
 21
-478.0776549819381
 31
0.0
  0
LINE
  5
E9
330
1E
100
AcDbEntity
  8
0
  6
Continuous
 62
     1
100
AcDbLine
 10
-793.300684658119
 20
-478.1276549779382
 30
0.0
 11
-881.970684658119
 21
-478.1276549819381
 31
0.0
  0
ARC
  5
EA
330
1E
100
AcDbEntity
  8
0
  6
Continuous
 62
     1
100
AcDbCircle
 10
-881.970684658119
 20
-479.1276549819381
 30
0.0
 40
1.0
100
AcDbArc
 50
90.0
 51
179.9999999989999
  0
LINE
  5
EB
330
1E
100
AcDbEntity
  8
0
  6
Continuous
 62
     1
100
AcDbLine
 10
-883.135684658119
 20
-478.0776549819381
 30
0.0
 11
-792.1356846581191
 21
-478.0776549779381
 31
0.0
  0
LINE
  5
EC
330
1E
100
AcDbEntity
  8
0
  6
Continuous
 62
     1
100
AcDbLine
 10
-869.1356846581191
 20
-478.1276549809381
 30
0.0
 11
-869.1356846581191
 21
-479.1276549809381
 31
0.0
  0
LINE
  5
ED
330
1E
100
AcDbEntity
  8
0
  6
Continuous
 62
     1
100
AcDbLine
 10
-869.1356846581191
 20
-479.1276549809381
 30
0.0
 11
-863.1356846581191
 21
-479.1276549809381
 31
0.0
  0
LINE
  5
EE
330
1E
100
AcDbEntity
  8
0
  6
Continuous
 62
     1
100
AcDbLine
 10
-863.1356846581191
 20
-479.1276549809381
 30
0.0
 11
-863.1356846581191
 21
-478.1276549809381
 31
0.0
  0
LINE
  5
EF
330
1E
100
AcDbEntity
  8
0
  6
Continuous
 62
     1
100
AcDbLine
 10
-855.220684658119
 20
-480.8776549809381
 30
0.0
 11
-853.620684658119
 21
-480.8776549809381
 31
0.0
  0
LINE
  5
F0
330
1E
100
AcDbEntity
  8
0
  6
Continuous
 62
     1
100
AcDbLine
 10
-853.620684658119
 20
-488.8776549809381
 30
0.0
 11
-855.220684658119
 21
-488.8776549809381
 31
0.0
  0
LINE
  5
F1
330
1E
100
AcDbEntity
  8
0
  6
Continuous
 62
     1
100
AcDbLine
 10
-853.1206846581191
 20
-480.3776549809381
 30
0.0
 11
-855.220684658119
 21
-480.3776549809381
 31
0.0
  0
LINE
  5
F2
330
1E
100
AcDbEntity
  8
0
  6
Continuous
 62
     1
100
AcDbLine
 10
-853.1206846581191
 20
-489.3776549809381
 30
0.0
 11
-855.220684658119
 21
-489.3776549809381
 31
0.0
  0
LINE
  5
F3
330
1E
100
AcDbEntity
  8
0
  6
Continuous
 62
     1
100
AcDbLine
 10
-853.620684658119
 20
-480.8776549809381
 30
0.0
 11
-853.620684658119
 21
-488.8776549809381
 31
0.0
  0
LINE
  5
F4
330
1E
100
AcDbEntity
  8
0
  6
Continuous
 62
     1
100
AcDbLine
 10
-853.1206846581191
 20
-489.3776549809381
 30
0.0
 11
-853.1206846581191
 21
-480.3776549809381
 31
0.0
  0
LINE
  5
F5
330
1E
100
AcDbEntity
  8
0
  6
Continuous
 62
     1
100
AcDbLine
 10
-853.120684657119
 20
-494.8276549809381
 30
0.0
 11
-853.1206846581191
 21
-491.3276549809381
 31
0.0
  0
LINE
  5
F6
330
1E
100
AcDbEntity
  8
0
  6
Continuous
 62
     1
100
AcDbLine
 10
-853.1206846581191
 20
-491.3276549809381
 30
0.0
 11
-851.2206846581191
 21
-491.3276549809381
 31
0.0
  0
LINE
  5
F7
330
1E
100
AcDbEntity
  8
0
  6
Continuous
 62
     1
100
AcDbLine
 10
-851.2206846581191
 20
-491.3276549809381
 30
0.0
 11
-851.220684657119
 21
-494.8276549809381
 31
0.0
  0
LINE
  5
F8
330
1E
100
AcDbEntity
  8
0
  6
Continuous
 62
     1
100
AcDbLine
 10
-851.220684657119
 20
-494.8276549809381
 30
0.0
 11
-853.120684657119
 21
-494.8276549809381
 31
0.0
  0
LINE
  5
F9
330
1E
100
AcDbEntity
  8
0
  6
Continuous
 62
     1
100
AcDbLine
 10
-853.120684657119
 20
-506.3276549809382
 30
0.0
 11
-853.120684657119
 21
-509.8276549809382
 31
0.0
  0
LINE
  5
FA
330
1E
100
AcDbEntity
  8
0
  6
Continuous
 62
     1
100
AcDbLine
 10
-853.120684657119
 20
-509.8276549809382
 30
0.0
 11
-851.220684657119
 21
-509.8276549809382
 31
0.0
  0
LINE
  5
FB
330
1E
100
AcDbEntity
  8
0
  6
Continuous
 62
     1
100
AcDbLine
 10
-851.220684657119
 20
-509.8276549809382
 30
0.0
 11
-851.220684657119
 21
-506.3276549809382
 31
0.0
  0
LINE
  5
FC
330
1E
100
AcDbEntity
  8
0
  6
Continuous
 62
     1
100
AcDbLine
 10
-851.220684657119
 20
-506.3276549809382
 30
0.0
 11
-853.120684657119
 21
-506.3276549809382
 31
0.0
  0
LINE
  5
FD
330
1E
100
AcDbEntity
  8
0
  6
Continuous
 62
     1
100
AcDbLine
 10
-853.620684656119
 20
-520.2776549809381
 30
0.0
 11
-853.6206846571191
 21
-512.2776549809381
 31
0.0
  0
LINE
  5
FE
330
1E
100
AcDbEntity
  8
0
  6
Continuous
 62
     1
100
AcDbLine
 10
-853.6206846571191
 20
-512.2776549809381
 30
0.0
 11
-855.2206846571191
 21
-512.2776549809381
 31
0.0
  0
LINE
  5
FF
330
1E
100
AcDbEntity
  8
0
  6
Continuous
 62
     1
100
AcDbLine
 10
-853.1206846561191
 20
-520.7776549809381
 30
0.0
 11
-853.120684657119
 21
-511.7776549809381
 31
0.0
  0
LINE
  5
100
330
1E
100
AcDbEntity
  8
0
  6
Continuous
 62
     1
100
AcDbLine
 10
-853.120684657119
 20
-511.7776549809381
 30
0.0
 11
-855.2206846571191
 21
-511.7776549809381
 31
0.0
  0
LINE
  5
101
330
1E
100
AcDbEntity
  8
0
  6
Continuous
 62
     1
100
AcDbLine
 10
-855.220684656119
 20
-520.2776549809381
 30
0.0
 11
-853.620684656119
 21
-520.2776549809381
 31
0.0
  0
LINE
  5
102
330
1E
100
AcDbEntity
  8
0
  6
Continuous
 62
     1
100
AcDbLine
 10
-853.1206846561191
 20
-520.7776549809381
 30
0.0
 11
-855.220684656119
 21
-520.7776549809381
 31
0.0
  0
LINE
  5
103
330
1E
100
AcDbEntity
  8
0
  6
Continuous
 62
     1
100
AcDbLine
 10
-855.220684658119
 20
-478.1276549809381
 30
0.0
 11
-855.220684656119
 21
-523.0276549809381
 31
0.0
  0
LINE
  5
104
330
1E
100
AcDbEntity
  8
0
  6
Continuous
 62
     1
100
AcDbLine
 10
-806.135684656119
 20
-523.0276549779381
 30
0.0
 11
-806.135684656119
 21
-522.0276549779381
 31
0.0
  0
LINE
  5
105
330
1E
100
AcDbEntity
  8
0
  6
Continuous
 62
     1
100
AcDbLine
 10
-806.135684656119
 20
-522.0276549779381
 30
0.0
 11
-812.1356846561191
 21
-522.0276549789381
 31
0.0
  0
LINE
  5
106
330
1E
100
AcDbEntity
  8
0
  6
Continuous
 62
     1
100
AcDbLine
 10
-812.1356846561191
 20
-522.0276549789381
 30
0.0
 11
-812.1356846561191
 21
-523.0276549789381
 31
0.0
  0
ARC
  5
107
330
1E
100
AcDbEntity
  8
0
  6
Continuous
 62
     1
100
AcDbCircle
 10
-793.300684656119
 20
-522.0276549779381
 30
0.0
 40
1.0
100
AcDbArc
 50
270.0
 51
0.0
  0
ARC
  5
108
330
1E
100
AcDbEntity
  8
0
  6
Continuous
 62
     1
100
AcDbCircle
 10
-791.6356846561191
 20
-523.577654977938
 30
0.0
 40
1.0
100
AcDbArc
 50
270.0
 51
0.0
  0
LINE
  5
109
330
1E
100
AcDbEntity
  8
0
  6
Continuous
 62
     1
100
AcDbLine
 10
-792.300684656119
 20
-522.0276549779381
 30
0.0
 11
-792.300684657119
 21
-510.577654977938
 31
0.0
  0
LINE
  5
10A
330
1E
100
AcDbEntity
  8
0
  6
Continuous
 62
     1
100
AcDbLine
 10
-792.1356846571191
 20
-510.577654977938
 30
0.0
 11
-792.1356846561191
 21
-523.077654977938
 31
0.0
  0
LINE
  5
10B
330
1E
100
AcDbEntity
  8
0
  6
Continuous
 62
     1
100
AcDbLine
 10
-790.6356846561191
 20
-523.577654977938
 30
0.0
 11
-790.6356846571191
 21
-510.577654977938
 31
0.0
  0
LINE
  5
10C
330
1E
100
AcDbEntity
  8
0
  6
Continuous
 62
     1
100
AcDbLine
 10
-883.6356846561191
 20
-524.5776549819381
 30
0.0
 11
-791.6356846561191
 21
-524.5776549779381
 31
0.0
  0
LINE
  5
10D
330
1E
100
AcDbEntity
  8
0
  6
Continuous
 62
     1
100
AcDbLine
 10
-881.970684656119
 20
-523.0276549819381
 30
0.0
 11
-793.300684656119
 21
-523.0276549779381
 31
0.0
  0
LINE
  5
10E
330
1E
100
AcDbEntity
  8
0
  6
Continuous
 62
     1
100
AcDbLine
 10
-792.1356846561191
 20
-523.077654977938
 30
0.0
 11
-883.135684656119
 21
-523.0776549819381
 31
0.0
  0
LINE
  5
10F
330
1E
100
AcDbEntity
  8
0
  6
Continuous
 62
     1
100
AcDbLine
 10
-821.5506846571191
 20
-511.827654978938
 30
0.0
 11
-821.550684658119
 21
-489.3276549789381
 31
0.0
  0
LINE
  5
110
330
1E
100
AcDbEntity
  8
0
  6
Continuous
 62
     1
100
AcDbLine
 10
-820.050684657119
 20
-511.9276549789381
 30
0.0
 11
-819.050684657119
 21
-511.9276549789381
 31
0.0
  0
LINE
  5
111
330
1E
100
AcDbEntity
  8
0
  6
Continuous
 62
     1
100
AcDbLine
 10
-821.5506846571191
 20
-511.827654978938
 30
0.0
 11
-819.050684657119
 21
-511.827654978938
 31
0.0
  0
LINE
  5
112
330
1E
100
AcDbEntity
  8
0
  6
Continuous
 62
     1
100
AcDbLine
 10
-820.050684657119
 20
-511.9276549789381
 30
0.0
 11
-820.0506846561191
 21
-523.0276549789381
 31
0.0
  0
LINE
  5
113
330
1E
100
AcDbEntity
  8
0
  6
Continuous
 62
     1
100
AcDbLine
 10
-819.050684657119
 20
-511.9276549789381
 30
0.0
 11
-819.050684657119
 21
-510.6776549789381
 31
0.0
  0
LINE
  5
114
330
1E
100
AcDbEntity
  8
0
  6
Continuous
 62
     1
100
AcDbLine
 10
-820.0506846581189
 20
-478.1276549789381
 30
0.0
 11
-820.0506846581189
 21
-489.227654978938
 31
0.0
  0
LINE
  5
115
330
1E
100
AcDbEntity
  8
0
  6
Continuous
 62
     1
100
AcDbLine
 10
-800.150684658119
 20
-490.4776549779382
 30
0.0
 11
-819.050684658119
 21
-490.4776549789381
 31
0.0
  0
LINE
  5
116
330
1E
100
AcDbEntity
  8
0
  6
Continuous
 62
     1
100
AcDbLine
 10
-820.0506846581189
 20
-489.227654978938
 30
0.0
 11
-819.050684658119
 21
-489.227654978938
 31
0.0
  0
LINE
  5
117
330
1E
100
AcDbEntity
  8
0
  6
Continuous
 62
     1
100
AcDbLine
 10
-821.550684658119
 20
-489.3276549789381
 30
0.0
 11
-819.050684658119
 21
-489.3276549789381
 31
0.0
  0
LINE
  5
118
330
1E
100
AcDbEntity
  8
0
  6
Continuous
 62
     1
100
AcDbLine
 10
-819.050684658119
 20
-489.227654978938
 30
0.0
 11
-819.050684658119
 21
-490.4776549789381
 31
0.0
  0
LINE
  5
119
330
1E
100
AcDbEntity
  8
0
  6
Continuous
 62
     1
100
AcDbLine
 10
-806.135684658119
 20
-478.1276549779382
 30
0.0
 11
-806.135684658119
 21
-479.1276549779381
 31
0.0
  0
LINE
  5
11A
330
1E
100
AcDbEntity
  8
0
  6
Continuous
 62
     1
100
AcDbLine
 10
-806.135684658119
 20
-479.1276549779381
 30
0.0
 11
-812.1356846581191
 21
-479.1276549789381
 31
0.0
  0
LINE
  5
11B
330
1E
100
AcDbEntity
  8
0
  6
Continuous
 62
     1
100
AcDbLine
 10
-812.1356846581191
 20
-479.1276549789381
 30
0.0
 11
-812.1356846581191
 21
-478.1276549789381
 31
0.0
  0
ARC
  5
11C
330
1E
100
AcDbEntity
  8
0
  6
Continuous
 62
     1
100
AcDbCircle
 10
-793.300684658119
 20
-479.1276549779381
 30
0.0
 40
1.0
100
AcDbArc
 50
0.0
 51
90.0
  0
LINE
  5
11D
330
1E
100
AcDbEntity
  8
0
  6
Continuous
 62
     1
100
AcDbLine
 10
-792.300684658119
 20
-490.5776549779381
 30
0.0
 11
-792.300684658119
 21
-479.1276549779381
 31
0.0
  0
LINE
  5
11E
330
1E
100
AcDbEntity
  8
0
  6
Continuous
 62
     1
100
AcDbLine
 10
-792.1356846581191
 20
-478.0776549779381
 30
0.0
 11
-792.1356846581191
 21
-490.5776549779381
 31
0.0
  0
LINE
  5
11F
330
1E
100
AcDbEntity
  8
0
  6
Continuous
 62
     1
100
AcDbLine
 10
-796.150684658119
 20
-489.2276549779381
 30
0.0
 11
-794.900684661119
 21
-490.4776549779382
 31
0.0
  0
LINE
  5
120
330
1E
100
AcDbEntity
  8
0
  6
Continuous
 62
     1
100
AcDbLine
 10
-800.150684658119
 20
-489.2276549779381
 30
0.0
 11
-796.150684658119
 21
-489.2276549779381
 31
0.0
  0
LINE
  5
121
330
1E
100
AcDbEntity
  8
0
  6
Continuous
 62
     1
100
AcDbLine
 10
-800.150684658119
 20
-489.2276549779381
 30
0.0
 11
-800.150684658119
 21
-490.4776549779382
 31
0.0
  0
LINE
  5
122
330
1E
100
AcDbEntity
  8
0
  6
Continuous
 62
     1
100
AcDbLine
 10
-792.300684658119
 20
-490.4776549779382
 30
0.0
 11
-794.900684661119
 21
-490.4776549779382
 31
0.0
  0
LINE
  5
123
330
1E
100
AcDbEntity
  8
0
  6
Continuous
 62
     1
100
AcDbLine
 10
-821.168065700119
 20
-490.577654978938
 30
0.0
 11
-790.635684658119
 21
-490.5776549779381
 31
0.0
  0
LINE
  5
124
330
1E
100
AcDbEntity
  8
0
  6
Continuous
 62
     1
100
AcDbLine
 10
-796.150684657119
 20
-511.9276549779381
 30
0.0
 11
-794.9006846601191
 21
-510.6776549779381
 31
0.0
  0
LINE
  5
125
330
1E
100
AcDbEntity
  8
0
  6
Continuous
 62
     1
100
AcDbLine
 10
-792.300684657119
 20
-510.6776549779381
 30
0.0
 11
-794.9006846601191
 21
-510.6776549779381
 31
0.0
  0
LINE
  5
126
330
1E
100
AcDbEntity
  8
0
  6
Continuous
 62
     1
100
AcDbLine
 10
-800.150684657119
 20
-511.9276549779381
 30
0.0
 11
-796.150684657119
 21
-511.9276549779381
 31
0.0
  0
LINE
  5
127
330
1E
100
AcDbEntity
  8
0
  6
Continuous
 62
     1
100
AcDbLine
 10
-800.150684657119
 20
-511.9276549779381
 30
0.0
 11
-800.150684657119
 21
-510.6776549779381
 31
0.0
  0
LINE
  5
128
330
1E
100
AcDbEntity
  8
0
  6
Continuous
 62
     1
100
AcDbLine
 10
-800.150684657119
 20
-510.6776549779381
 30
0.0
 11
-819.050684657119
 21
-510.6776549789381
 31
0.0
  0
LINE
  5
129
330
1E
100
AcDbEntity
  8
0
  6
Continuous
 62
     1
100
AcDbLine
 10
-790.6356846571191
 20
-510.577654977938
 30
0.0
 11
-821.1680656991191
 21
-510.577654978938
 31
0.0
  0
ARC
  5
12A
330
1E
100
AcDbEntity
  8
0
  6
Continuous
 62
     1
100
AcDbCircle
 10
-789.0506846571191
 20
-509.577654977938
 30
0.0
 40
1.0
100
AcDbArc
 50
270.0
 51
0.0
  0
LINE
  5
12B
330
1E
100
AcDbEntity
  8
0
  6
Continuous
 62
     1
100
AcDbLine
 10
-788.050684658119
 20
-491.5776549769381
 30
0.0
 11
-788.050684657119
 21
-509.577654976938
 31
0.0
  0
ARC
  5
12C
330
1E
100
AcDbEntity
  8
0
  6
Continuous
 62
     1
100
AcDbCircle
 10
-789.050684658119
 20
-491.5776549779381
 30
0.0
 40
1.0
100
AcDbArc
 50
0.0
 51
90.0
  0
LINE
  5
12D
330
1E
100
AcDbEntity
  8
0
  6
Continuous
 62
     1
100
AcDbLine
 10
-790.635684658119
 20
-490.5776549779381
 30
0.0
 11
-789.050684658119
 21
-490.5776549779381
 31
0.0
  0
LINE
  5
12E
330
1E
100
AcDbEntity
  8
0
  6
Continuous
 62
     1
100
AcDbLine
 10
-789.0506846571191
 20
-510.577654977938
 30
0.0
 11
-790.6356846571191
 21
-510.577654977938
 31
0.0
  0
LINE
  5
12F
330
1E
100
AcDbEntity
  8
0
  6
Continuous
 62
     1
100
AcDbLine
 10
-790.635684658119
 20
-490.5776549779381
 30
0.0
 11
-790.635684658119
 21
-477.577654977938
 31
0.0
  0
ARC
  5
130
330
1E
100
AcDbEntity
  8
0
  6
Continuous
 62
     1
100
AcDbCircle
 10
-791.6356846581191
 20
-477.577654977938
 30
0.0
 40
1.0
100
AcDbArc
 50
0.0
 51
90.0
  0
LINE
  5
131
330
1E
100
AcDbEntity
  8
0
  6
Continuous
 62
     1
100
AcDbLine
 10
-791.6356846581191
 20
-476.577654977938
 30
0.0
 11
-883.6356846581191
 21
-476.5776549819381
 31
0.0
  0
LINE
  5
132
330
1E
100
AcDbEntity
  8
0
  6
Continuous
 62
     3
100
AcDbLine
 10
-800.150684658119
 20
-489.3276549779381
 30
0.0
 11
-798.900684658119
 21
-490.5776549779381
 31
0.0
  0
ARC
  5
133
330
1E
100
AcDbEntity
  8
0
  6
Continuous
 62
     1
100
AcDbCircle
 10
-812.800684657119
 20
-499.5776549829381
 30
0.0
 40
2.0
100
AcDbArc
 50
359.999999999
 51
90.0
  0
LINE
  5
134
330
1E
100
AcDbEntity
  8
0
  6
Continuous
 62
     1
100
AcDbLine
 10
-812.800684657119
 20
-497.5776549829381
 30
0.0
 11
-815.550684657119
 21
-497.5776549819381
 31
0.0
  0
ARC
  5
135
330
1E
100
AcDbEntity
  8
0
  6
Continuous
 62
     1
100
AcDbCircle
 10
-815.550684657119
 20
-499.5776549819381
 30
0.0
 40
2.0
100
AcDbArc
 50
90.0
 51
156.1533112489999
  0
LINE
  5
136
330
1E
100
AcDbEntity
  8
0
  6
Continuous
 62
     1
100
AcDbLine
 10
-817.550684657119
 20
-500.0776549819382
 30
0.0
 11
-817.550684657119
 21
-501.0776549819381
 31
0.0
  0
ARC
  5
137
330
1E
100
AcDbEntity
  8
0
  6
Continuous
 62
     1
100
AcDbCircle
 10
-812.4506846571192
 20
-500.0776549829381
 30
0.0
 40
5.099999999999999
100
AcDbArc
 50
90.0
 51
180.0
  0
ARC
  5
138
330
1E
100
AcDbEntity
  8
0
  6
Continuous
 62
     1
100
AcDbCircle
 10
-812.4506846571192
 20
-501.0776549819381
 30
0.0
 40
5.099999999999999
100
AcDbArc
 50
180.0
 51
270.0
  0
ARC
  5
139
330
1E
100
AcDbEntity
  8
0
  6
Continuous
 62
     1
100
AcDbCircle
 10
-807.650684657119
 20
-500.0776549829381
 30
0.0
 40
5.099999999999999
100
AcDbArc
 50
0.0
 51
90.0
  0
ARC
  5
13A
330
1E
100
AcDbEntity
  8
0
  6
Continuous
 62
     1
100
AcDbCircle
 10
-807.3006846571191
 20
-499.5776549829381
 30
0.0
 40
2.0
100
AcDbArc
 50
90.0
 51
180.0
  0
LINE
  5
13B
330
1E
100
AcDbEntity
  8
0
  6
Continuous
 62
     1
100
AcDbLine
 10
-807.3006846571191
 20
-497.5776549829381
 30
0.0
 11
-804.5506846571191
 21
-497.5776549829381
 31
0.0
  0
ARC
  5
13C
330
1E
100
AcDbEntity
  8
0
  6
Continuous
 62
     1
100
AcDbCircle
 10
-804.5506846571191
 20
-499.5776549829381
 30
0.0
 40
2.0
100
AcDbArc
 50
23.846688751
 51
90.0
  0
LINE
  5
13D
330
1E
100
AcDbEntity
  8
0
  6
Continuous
 62
     1
100
AcDbLine
 10
-807.650684657119
 20
-494.9776549829381
 30
0.0
 11
-812.4506846571192
 21
-494.9776549829381
 31
0.0
  0
LINE
  5
13E
330
1E
100
AcDbEntity
  8
0
  6
Continuous
 62
     1
100
AcDbLine
 10
-802.550684657119
 20
-500.0776549829381
 30
0.0
 11
-802.550684657119
 21
-501.0776549829381
 31
0.0
  0
ARC
  5
13F
330
1E
100
AcDbEntity
  8
0
  6
Continuous
 62
     1
100
AcDbCircle
 10
-807.650684657119
 20
-501.0776549829381
 30
0.0
 40
5.099999999999999
100
AcDbArc
 50
270.0
 51
0.0
  0
LINE
  5
140
330
1E
100
AcDbEntity
  8
0
  6
Continuous
 62
     1
100
AcDbLine
 10
-811.200684657119
 20
-504.627654982938
 30
0.0
 11
-811.200684657119
 21
-503.6276549829381
 31
0.0
  0
LINE
  5
141
330
1E
100
AcDbEntity
  8
0
  6
Continuous
 62
     1
100
AcDbLine
 10
-808.9006846571191
 20
-504.627654982938
 30
0.0
 11
-808.9006846571191
 21
-503.6276549829381
 31
0.0
  0
ARC
  5
142
330
1E
100
AcDbEntity
  8
0
  6
Continuous
 62
     1
100
AcDbCircle
 10
-810.0506846571191
 20
-504.1276549829381
 30
0.0
 40
1.1
100
AcDbArc
 50
132.9858860799999
 51
47.01411391999999
  0
ARC
  5
143
330
1E
100
AcDbEntity
  8
0
  6
Continuous
 62
     1
100
AcDbCircle
 10
-810.0506846571191
 20
-503.6276549829381
 30
0.0
 40
1.149999999999999
100
AcDbArc
 50
130.705706831
 51
180.0
  0
ARC
  5
144
330
1E
100
AcDbEntity
  8
0
  6
Continuous
 62
     1
100
AcDbCircle
 10
-810.0506846571191
 20
-503.6276549829381
 30
0.0
 40
1.149999999999999
100
AcDbArc
 50
0.0
 51
49.294293169
  0
LINE
  5
145
330
1E
100
AcDbEntity
  8
0
  6
Continuous
 62
     1
100
AcDbLine
 10
-810.8006846571191
 20
-499.5776549829381
 30
0.0
 11
-810.8006846571191
 21
-503.322981135938
 31
0.0
  0
LINE
  5
146
330
1E
100
AcDbEntity
  8
0
  6
Continuous
 62
     1
100
AcDbLine
 10
-809.300684657119
 20
-503.322981135938
 30
0.0
 11
-809.300684657119
 21
-499.5776549829381
 31
0.0
  0
LINE
  5
147
330
1E
100
AcDbEntity
  8
0
  6
Continuous
 62
     1
100
AcDbLine
 10
-812.4506846571192
 20
-506.1776549819381
 30
0.0
 11
-807.650684657119
 21
-506.1776549829381
 31
0.0
  0
ARC
  5
148
330
1E
100
AcDbEntity
  8
0
  6
Continuous
 62
     1
100
AcDbCircle
 10
-810.0506846571191
 20
-504.627654982938
 30
0.0
 40
1.149999999999999
100
AcDbArc
 50
180.0
 51
0.0
  0
LINE
  5
149
330
1E
100
AcDbEntity
  8
0
  6
Continuous
 62
     5
100
AcDbLine
 10
-884.6356846581191
 20
-376.5776549819381
 30
0.0
 11
-884.635684659119
 21
-389.5776549819381
 31
0.0
  0
LINE
  5
14A
330
1E
100
AcDbEntity
  8
0
  6
Continuous
 62
     5
100
AcDbLine
 10
-884.635684659119
 20
-388.5776549819381
 30
0.0
 11
-882.703833006119
 21
-389.0952930729381
 31
0.0
  0
LINE
  5
14B
330
1E
100
AcDbEntity
  8
0
  6
Continuous
 62
     5
100
AcDbLine
 10
-884.635684659119
 20
-388.5776549819381
 30
0.0
 11
-882.703833006119
 21
-388.0600168919381
 31
0.0
  0
LINE
  5
14C
330
1E
100
AcDbEntity
  8
0
  6
Continuous
 62
     5
100
AcDbLine
 10
-788.050684659119
 20
-389.5776549859381
 30
0.0
 11
-788.050684659119
 21
-361.5776549859381
 31
0.0
  0
LINE
  5
14D
330
1E
100
AcDbEntity
  8
0
  6
Continuous
 62
     5
100
AcDbLine
 10
-787.050684659119
 20
-448.5776549779381
 30
0.0
 11
-781.635684659119
 21
-448.5776549779381
 31
0.0
  0
LINE
  5
14E
330
1E
100
AcDbEntity
  8
0
  6
Continuous
 62
     5
100
AcDbLine
 10
-782.635684659119
 20
-448.5776549779381
 30
0.0
 11
-783.153322749119
 21
-450.509506630938
 31
0.0
  0
LINE
  5
14F
330
1E
100
AcDbEntity
  8
0
  6
Continuous
 62
     5
100
AcDbLine
 10
-782.635684659119
 20
-448.5776549779381
 30
0.0
 11
-782.1180465691191
 21
-450.509506630938
 31
0.0
  0
LINE
  5
150
330
1E
100
AcDbEntity
  8
0
  6
Continuous
 62
     5
100
AcDbLine
 10
-782.635684659119
 20
-451.5776549779381
 30
0.0
 11
-782.635684659119
 21
-448.5776549779381
 31
0.0
  0
LINE
  5
151
330
1E
100
AcDbEntity
  8
0
  6
Continuous
 62
     5
100
AcDbLine
 10
-782.635684659119
 20
-448.5776549779381
 30
0.0
 11
-782.635684659119
 21
-444.2776549779381
 31
0.0
  0
LINE
  5
152
330
1E
100
AcDbEntity
  8
0
  6
Continuous
 62
     5
100
AcDbLine
 10
-782.635684659119
 20
-444.2776549779381
 30
0.0
 11
-782.635684659119
 21
-435.2776549779381
 31
0.0
  0
LINE
  5
153
330
1E
100
AcDbEntity
  8
0
  6
Continuous
 62
     5
100
AcDbLine
 10
-782.635684659119
 20
-444.2776549779381
 30
0.0
 11
-782.1180465691191
 21
-442.3458033259382
 31
0.0
  0
LINE
  5
154
330
1E
100
AcDbEntity
  8
0
  6
Continuous
 62
     5
100
AcDbLine
 10
-782.635684659119
 20
-444.2776549779381
 30
0.0
 11
-783.153322749119
 21
-442.3458033259382
 31
0.0
  0
LINE
  5
155
330
1E
100
AcDbEntity
  8
0
  6
Continuous
 62
     5
100
AcDbLine
 10
-787.050684659119
 20
-444.2776549779381
 30
0.0
 11
-781.635684659119
 21
-444.2776549779381
 31
0.0
  0
LINE
  5
156
330
1E
100
AcDbEntity
  8
0
  6
Continuous
 62
     5
100
AcDbLine
 10
-787.050684659119
 20
-448.5776549779381
 30
0.0
 11
-776.635684659119
 21
-448.5776549779381
 31
0.0
  0
LINE
  5
157
330
1E
100
AcDbEntity
  8
0
  6
Continuous
 62
     5
100
AcDbLine
 10
-787.050684659119
 20
-448.5776549779381
 30
0.0
 11
-771.6356846591191
 21
-448.5776549779381
 31
0.0
  0
LINE
  5
158
330
1E
100
AcDbEntity
  8
0
  6
Continuous
 62
     5
100
AcDbLine
 10
-772.635684659119
 20
-448.5776549779381
 30
0.0
 11
-772.118046569119
 21
-446.6458033259381
 31
0.0
  0
LINE
  5
159
330
1E
100
AcDbEntity
  8
0
  6
Continuous
 62
     5
100
AcDbLine
 10
-772.635684659119
 20
-448.5776549779381
 30
0.0
 11
-773.153322749119
 21
-446.6458033259381
 31
0.0
  0
LINE
  5
15A
330
1E
100
AcDbEntity
  8
0
  6
Continuous
 62
     5
100
AcDbLine
 10
-772.635684659119
 20
-448.5776549779381
 30
0.0
 11
-772.635684659119
 21
-407.7776549789381
 31
0.0
  0
LINE
  5
15B
330
1E
100
AcDbEntity
  8
0
  6
Continuous
 62
     5
100
AcDbLine
 10
-772.635684659119
 20
-407.7776549789381
 30
0.0
 11
-773.153322749119
 21
-409.7095066319381
 31
0.0
  0
LINE
  5
15C
330
1E
100
AcDbEntity
  8
0
  6
Continuous
 62
     5
100
AcDbLine
 10
-772.635684659119
 20
-407.7776549789381
 30
0.0
 11
-772.118046569119
 21
-409.7095066319381
 31
0.0
  0
LINE
  5
15D
330
1E
100
AcDbEntity
  8
0
  6
Continuous
 62
     5
100
AcDbLine
 10
-805.980036959119
 20
-407.7776549789381
 30
0.0
 11
-771.6356846591191
 21
-407.7776549789381
 31
0.0
  0
LINE
  5
15E
330
1E
100
AcDbEntity
  8
0
  6
Continuous
 62
     5
100
AcDbLine
 10
-788.050684657119
 20
-510.577654977938
 30
0.0
 11
-776.635684659119
 21
-510.577654977938
 31
0.0
  0
LINE
  5
15F
330
1E
100
AcDbEntity
  8
0
  6
Continuous
 62
     5
100
AcDbLine
 10
-777.635684659119
 20
-510.577654977938
 30
0.0
 11
-777.118046569119
 21
-508.6458033249381
 31
0.0
  0
LINE
  5
160
330
1E
100
AcDbEntity
  8
0
  6
Continuous
 62
     5
100
AcDbLine
 10
-777.635684659119
 20
-510.577654977938
 30
0.0
 11
-778.153322749119
 21
-508.6458033249381
 31
0.0
  0
LINE
  5
161
330
1E
100
AcDbEntity
  8
0
  6
Continuous
 62
     5
100
AcDbLine
 10
-777.635684659119
 20
-510.577654977938
 30
0.0
 11
-777.635684659119
 21
-490.5776549779381
 31
0.0
  0
LINE
  5
162
330
1E
100
AcDbEntity
  8
0
  6
Continuous
 62
     5
100
AcDbLine
 10
-777.635684659119
 20
-490.5776549779381
 30
0.0
 11
-778.153322749119
 21
-492.5095066299381
 31
0.0
  0
LINE
  5
163
330
1E
100
AcDbEntity
  8
0
  6
Continuous
 62
     5
100
AcDbLine
 10
-777.635684659119
 20
-490.5776549779381
 30
0.0
 11
-777.118046569119
 21
-492.5095066299381
 31
0.0
  0
LINE
  5
164
330
1E
100
AcDbEntity
  8
0
  6
Continuous
 62
     5
100
AcDbLine
 10
-788.050684658119
 20
-490.5776549779381
 30
0.0
 11
-776.635684659119
 21
-490.5776549779381
 31
0.0
  0
LINE
  5
165
330
1E
100
AcDbEntity
  8
0
  6
Continuous
 62
     5
100
AcDbLine
 10
-790.6356846561191
 20
-524.5776549779381
 30
0.0
 11
-771.6356846591191
 21
-524.5776549779381
 31
0.0
  0
LINE
  5
166
330
1E
100
AcDbEntity
  8
0
  6
Continuous
 62
     5
100
AcDbLine
 10
-772.635684659119
 20
-524.5776549779381
 30
0.0
 11
-772.118046569119
 21
-522.6458033249381
 31
0.0
  0
LINE
  5
167
330
1E
100
AcDbEntity
  8
0
  6
Continuous
 62
     5
100
AcDbLine
 10
-772.635684659119
 20
-524.5776549779381
 30
0.0
 11
-773.153322749119
 21
-522.6458033249381
 31
0.0
  0
LINE
  5
168
330
1E
100
AcDbEntity
  8
0
  6
Continuous
 62
     5
100
AcDbLine
 10
-772.635684659119
 20
-524.5776549779381
 30
0.0
 11
-772.635684659119
 21
-476.577654977938
 31
0.0
  0
LINE
  5
169
330
1E
100
AcDbEntity
  8
0
  6
Continuous
 62
     5
100
AcDbLine
 10
-772.635684659119
 20
-476.577654977938
 30
0.0
 11
-773.153322749119
 21
-478.5095066299381
 31
0.0
  0
LINE
  5
16A
330
1E
100
AcDbEntity
  8
0
  6
Continuous
 62
     5
100
AcDbLine
 10
-772.635684659119
 20
-476.577654977938
 30
0.0
 11
-772.118046569119
 21
-478.5095066299381
 31
0.0
  0
LINE
  5
16B
330
1E
100
AcDbEntity
  8
0
  6
Continuous
 62
     5
100
AcDbLine
 10
-790.635684658119
 20
-476.577654977938
 30
0.0
 11
-771.6356846591191
 21
-476.577654977938
 31
0.0
  0
TEXT
  5
16C
330
1E
100
AcDbEntity
  8
0
  6
Continuous
 62
     5
100
AcDbText
 10
-773.635684659119
 20
-502.5276549779381
 30
0.3
 40
3.0
  1
４８
 50
90.0
 41
0.6
  7
KANJI0
100
AcDbText
  0
LINE
  5
16D
330
1E
100
AcDbEntity
  8
0
  6
Continuous
 62
     3
100
AcDbLine
 10
-754.620684660119
 20
-352.3628401709381
 30
0.3
 11
-754.620684660119
 21
-350.7924698009381
 31
0.3
  0
LINE
  5
16E
330
1E
100
AcDbEntity
  8
0
  6
Continuous
 62
     3
100
AcDbLine
 10
-754.620684660119
 20
-348.8628401709381
 30
0.0
 11
-754.620684660119
 21
-347.2924698009381
 31
0.0
  0
LINE
  5
16F
330
1E
100
AcDbEntity
  8
0
  6
Continuous
 62
     3
100
AcDbLine
 10
-754.620684660119
 20
-345.3628401709381
 30
0.0
 11
-754.620684660119
 21
-343.7924698009381
 31
0.0
  0
LINE
  5
170
330
1E
100
AcDbEntity
  8
0
  6
Continuous
 62
     3
100
AcDbLine
 10
-754.620684660119
 20
-341.8628401709381
 30
0.0
 11
-754.620684660119
 21
-340.2924698009381
 31
0.0
  0
LINE
  5
171
330
1E
100
AcDbEntity
  8
0
  6
Continuous
 62
     3
100
AcDbLine
 10
-754.620684660119
 20
-338.3628401709381
 30
0.0
 11
-754.620684660119
 21
-336.7924698009381
 31
0.0
  0
LINE
  5
172
330
1E
100
AcDbEntity
  8
0
  6
Continuous
 62
     3
100
AcDbLine
 10
-754.620684660119
 20
-334.8628401709381
 30
0.0
 11
-754.620684660119
 21
-333.2924698009381
 31
0.0
  0
LINE
  5
173
330
1E
100
AcDbEntity
  8
0
  6
Continuous
 62
     3
100
AcDbLine
 10
-744.8206846601191
 20
-333.3276549859381
 30
0.0
 11
-756.6206846601191
 21
-333.227654985938
 31
0.0
  0
LINE
  5
174
330
1E
100
AcDbEntity
  8
0
  6
Continuous
 62
     3
100
AcDbLine
 10
-754.620684660119
 20
-331.3628401709381
 30
0.0
 11
-754.620684660119
 21
-329.7924698009381
 31
0.0
  0
LINE
  5
175
330
1E
100
AcDbEntity
  8
0
  6
Continuous
 62
     3
100
AcDbLine
 10
-744.8206846601191
 20
-330.5776549859381
 30
0.0
 11
-744.8206846601191
 21
-331.3276549859381
 31
0.0
  0
LINE
  5
176
330
1E
100
AcDbEntity
  8
0
  6
Continuous
 62
     3
100
AcDbLine
 10
-744.8206846601191
 20
-331.3276549859381
 30
0.0
 11
-756.6206846601191
 21
-331.4276549859381
 31
0.0
  0
LINE
  5
177
330
1E
100
AcDbEntity
  8
0
  6
Continuous
 62
     3
100
AcDbLine
 10
-744.8206846601191
 20
-330.5776549859381
 30
0.0
 11
-744.8206846601191
 21
-329.8276549859381
 31
0.0
  0
LINE
  5
178
330
1E
100
AcDbEntity
  8
0
  6
Continuous
 62
     3
100
AcDbLine
 10
-744.8206846601191
 20
-329.8276549859381
 30
0.0
 11
-756.6206846601191
 21
-329.7276549859381
 31
0.0
  0
LINE
  5
179
330
1E
100
AcDbEntity
  8
0
  6
Continuous
 62
     3
100
AcDbLine
 10
-754.620684660119
 20
-354.2924698009381
 30
0.0
 11
-754.620684660119
 21
-355.8628401709381
 31
0.0
  0
LINE
  5
17A
330
1E
100
AcDbEntity
  8
0
  6
Continuous
 62
     3
100
AcDbLine
 10
-754.620684660119
 20
-357.7924698009381
 30
0.0
 11
-754.620684660119
 21
-359.3628401709381
 31
0.0
  0
LINE
  5
17B
330
1E
100
AcDbEntity
  8
0
  6
Continuous
 62
     3
100
AcDbLine
 10
-754.620684660119
 20
-361.2924698009381
 30
0.0
 11
-754.620684660119
 21
-362.8628401709381
 31
0.0
  0
LINE
  5
17C
330
1E
100
AcDbEntity
  8
0
  6
Continuous
 62
     3
100
AcDbLine
 10
-754.620684660119
 20
-364.7924698009381
 30
0.0
 11
-754.620684660119
 21
-366.3628401709381
 31
0.0
  0
LINE
  5
17D
330
1E
100
AcDbEntity
  8
0
  6
Continuous
 62
     3
100
AcDbLine
 10
-754.620684660119
 20
-368.2924698009381
 30
0.0
 11
-754.620684660119
 21
-369.8628401709381
 31
0.0
  0
LINE
  5
17E
330
1E
100
AcDbEntity
  8
0
  6
Continuous
 62
     3
100
AcDbLine
 10
-744.8206846601191
 20
-369.8276549859381
 30
0.0
 11
-756.6206846601191
 21
-369.9276549859381
 31
0.0
  0
LINE
  5
17F
330
1E
100
AcDbEntity
  8
0
  6
Continuous
 62
     3
100
AcDbLine
 10
-754.620684660119
 20
-371.7924698009381
 30
0.0
 11
-754.620684660119
 21
-373.3628401709381
 31
0.0
  0
LINE
  5
180
330
1E
100
AcDbEntity
  8
0
  6
Continuous
 62
     3
100
AcDbLine
 10
-744.8206846601191
 20
-372.5776549859381
 30
0.0
 11
-744.8206846601191
 21
-371.8276549859381
 31
0.0
  0
LINE
  5
181
330
1E
100
AcDbEntity
  8
0
  6
Continuous
 62
     3
100
AcDbLine
 10
-744.8206846601191
 20
-371.8276549859381
 30
0.0
 11
-756.6206846601191
 21
-371.7276549859381
 31
0.0
  0
LINE
  5
182
330
1E
100
AcDbEntity
  8
0
  6
Continuous
 62
     3
100
AcDbLine
 10
-744.8206846601191
 20
-372.5776549859381
 30
0.0
 11
-744.8206846601191
 21
-373.3276549859381
 31
0.0
  0
LINE
  5
183
330
1E
100
AcDbEntity
  8
0
  6
Continuous
 62
     3
100
AcDbLine
 10
-744.8206846601191
 20
-373.3276549859381
 30
0.0
 11
-756.6206846601191
 21
-373.4276549859381
 31
0.0
  0
LINE
  5
184
330
1E
100
AcDbEntity
  8
0
  6
Continuous
 62
     1
100
AcDbLine
 10
-734.4206846601191
 20
-351.5776549859381
 30
0.0
 11
-734.4206846601191
 21
-354.0776549859381
 31
0.0
  0
LINE
  5
185
330
1E
100
AcDbEntity
  8
0
  6
Continuous
 62
     1
100
AcDbLine
 10
-734.4206846601191
 20
-354.0776549859381
 30
0.0
 11
-735.2206846601191
 21
-354.0776549859381
 31
0.0
  0
LINE
  5
186
330
1E
100
AcDbEntity
  8
0
  6
Continuous
 62
     1
100
AcDbLine
 10
-715.8206846601191
 20
-375.5776549859381
 30
0.0
 11
-715.8206846601191
 21
-351.5776549859381
 31
0.0
  0
LINE
  5
187
330
1E
100
AcDbEntity
  8
0
  6
Continuous
 62
     1
100
AcDbLine
 10
-734.720684660119
 20
-361.6776549859381
 30
0.0
 11
-733.2206846601191
 21
-361.6776549859381
 31
0.0
  0
ARC
  5
188
330
1E
100
AcDbEntity
  8
0
  6
Continuous
 62
     1
100
AcDbCircle
 10
-734.720684660119
 20
-361.1776549859381
 30
0.0
 40
0.5
100
AcDbArc
 50
180.0
 51
270.0
  0
LINE
  5
189
330
1E
100
AcDbEntity
  8
0
  6
Continuous
 62
     1
100
AcDbLine
 10
-734.720684660119
 20
-363.4776549859381
 30
0.0
 11
-733.2206846601191
 21
-363.4776549859381
 31
0.0
  0
ARC
  5
18A
330
1E
100
AcDbEntity
  8
0
  6
Continuous
 62
     1
100
AcDbCircle
 10
-734.720684660119
 20
-363.9776549859381
 30
0.0
 40
0.5
100
AcDbArc
 50
90.0
 51
180.0
  0
LINE
  5
18B
330
1E
100
AcDbEntity
  8
0
  6
Continuous
 62
     1
100
AcDbLine
 10
-735.2206846601191
 20
-354.0776549859381
 30
0.0
 11
-735.2206846601191
 21
-361.1776549859381
 31
0.0
  0
LINE
  5
18C
330
1E
100
AcDbEntity
  8
0
  6
Continuous
 62
     1
100
AcDbLine
 10
-733.2206846601191
 20
-351.5776549859381
 30
0.0
 11
-733.2206846601191
 21
-374.5776549859381
 31
0.0
  0
LINE
  5
18D
330
1E
100
AcDbEntity
  8
0
  6
Continuous
 62
     1
100
AcDbLine
 10
-732.2206846601191
 20
-375.5776549859381
 30
0.0
 11
-715.8206846601191
 21
-375.5776549859381
 31
0.0
  0
ARC
  5
18E
330
1E
100
AcDbEntity
  8
0
  6
Continuous
 62
     1
100
AcDbCircle
 10
-732.2206846601191
 20
-374.5776549859381
 30
0.0
 40
1.0
100
AcDbArc
 50
180.0
 51
270.0
  0
LINE
  5
18F
330
1E
100
AcDbEntity
  8
0
  6
Continuous
 62
     1
100
AcDbLine
 10
-755.6206846601191
 20
-375.5776549859381
 30
0.0
 11
-732.020684660119
 21
-375.5776549859381
 31
0.0
  0
LWPOLYLINE
  5
190
330
1E
100
AcDbEntity
  8
0
 62
     1
100
AcDbPolyline
 90
        3
 70
     0
 43
0.0
 10
-734.4206846601191
 20
-351.5776549859381
 10
-734.4206846601191
 20
-349.0776549859381
 10
-735.2206846601191
 20
-349.0776549859381
  0
LINE
  5
195
330
1E
100
AcDbEntity
  8
0
  6
Continuous
 62
     1
100
AcDbLine
 10
-734.720684660119
 20
-341.477654985938
 30
0.0
 11
-733.2206846601191
 21
-341.477654985938
 31
0.0
  0
ARC
  5
196
330
1E
100
AcDbEntity
  8
0
  6
Continuous
 62
     1
100
AcDbCircle
 10
-734.720684660119
 20
-341.9776549859381
 30
0.0
 40
0.5
100
AcDbArc
 50
90.0
 51
180.0
  0
LINE
  5
197
330
1E
100
AcDbEntity
  8
0
  6
Continuous
 62
     1
100
AcDbLine
 10
-734.720684660119
 20
-339.6776549859381
 30
0.0
 11
-733.2206846601191
 21
-339.6776549859381
 31
0.0
  0
ARC
  5
198
330
1E
100
AcDbEntity
  8
0
  6
Continuous
 62
     1
100
AcDbCircle
 10
-734.720684660119
 20
-339.1776549859381
 30
0.0
 40
0.5
100
AcDbArc
 50
180.0
 51
270.0
  0
LINE
  5
199
330
1E
100
AcDbEntity
  8
0
  6
Continuous
 62
     1
100
AcDbLine
 10
-735.2206846601191
 20
-349.0776549859381
 30
0.0
 11
-735.2206846601191
 21
-341.9776549859381
 31
0.0
  0
LINE
  5
19A
330
1E
100
AcDbEntity
  8
0
  6
Continuous
 62
     1
100
AcDbLine
 10
-733.2206846601191
 20
-351.5776549859381
 30
0.0
 11
-733.2206846601191
 21
-328.5776549859381
 31
0.0
  0
ARC
  5
19B
330
1E
100
AcDbEntity
  8
0
  6
Continuous
 62
     1
100
AcDbCircle
 10
-732.2206846601191
 20
-328.5776549859381
 30
0.0
 40
1.0
100
AcDbArc
 50
90.0
 51
180.0
  0
LINE
  5
19C
330
1E
100
AcDbEntity
  8
0
  6
Continuous
 62
     1
100
AcDbLine
 10
-755.6206846601191
 20
-327.5776549859381
 30
0.0
 11
-732.020684660119
 21
-327.5776549859381
 31
0.0
  0
LINE
  5
19D
330
1E
100
AcDbEntity
  8
0
  6
Continuous
 62
     1
100
AcDbLine
 10
-715.8206846601191
 20
-361.7776549859381
 30
0.0
 11
-720.3206846601191
 21
-361.7776549859381
 31
0.0
  0
LINE
  5
19E
330
1E
100
AcDbEntity
  8
0
  6
Continuous
 62
     1
100
AcDbLine
 10
-720.3206846601191
 20
-361.7776549859381
 30
0.0
 11
-720.3206846601191
 21
-351.5776549859381
 31
0.0
  0
LINE
  5
19F
330
1E
100
AcDbEntity
  8
0
  6
Continuous
 62
     1
100
AcDbLine
 10
-715.8206846601191
 20
-341.3776549859381
 30
0.0
 11
-720.3206846601191
 21
-341.3776549859381
 31
0.0
  0
LINE
  5
1A0
330
1E
100
AcDbEntity
  8
0
  6
Continuous
 62
     1
100
AcDbLine
 10
-720.3206846601191
 20
-341.3776549859381
 30
0.0
 11
-720.3206846601191
 21
-351.5776549859381
 31
0.0
  0
LINE
  5
1A1
330
1E
100
AcDbEntity
  8
0
  6
Continuous
 62
     1
100
AcDbLine
 10
-715.8206846601191
 20
-327.5776549859381
 30
0.0
 11
-715.8206846601191
 21
-351.5776549859381
 31
0.0
  0
LINE
  5
1A2
330
1E
100
AcDbEntity
  8
0
  6
Continuous
 62
     1
100
AcDbLine
 10
-732.2206846601191
 20
-327.5776549859381
 30
0.0
 11
-715.8206846601191
 21
-327.5776549859381
 31
0.0
  0
LINE
  5
1A3
330
1E
100
AcDbEntity
  8
0
  6
Continuous
 62
     1
100
AcDbLine
 10
-735.2206846601191
 20
-339.1776549859381
 30
0.0
 11
-735.2206846601191
 21
-335.0776549859381
 31
0.0
  0
LINE
  5
1A4
330
1E
100
AcDbEntity
  8
0
  6
Continuous
 62
     1
100
AcDbLine
 10
-735.2206846601191
 20
-363.9776549859381
 30
0.0
 11
-735.2206846601191
 21
-368.0776549859381
 31
0.0
  0
LINE
  5
1A5
330
1E
100
AcDbEntity
  8
0
  6
Continuous
 62
     1
100
AcDbLine
 10
-734.790684660119
 20
-371.6276549859381
 30
0.0
 11
-737.6687953951191
 21
-371.6276549859381
 31
0.0
  0
LINE
  5
1A6
330
1E
100
AcDbEntity
  8
0
  6
Continuous
 62
     1
100
AcDbLine
 10
-733.2206846601191
 20
-371.6276549859381
 30
0.0
 11
-734.720684660119
 21
-371.6276549859381
 31
0.0
  0
ARC
  5
1A7
330
1E
100
AcDbEntity
  8
0
  6
Continuous
 62
     1
100
AcDbCircle
 10
-734.720684660119
 20
-371.1276549859381
 30
0.0
 40
0.5
100
AcDbArc
 50
180.0
 51
270.0
  0
ARC
  5
1A8
330
1E
100
AcDbEntity
  8
0
  6
Continuous
 62
     1
100
AcDbCircle
 10
-737.6687953951191
 20
-332.0276549859381
 30
0.0
 40
0.5
100
AcDbArc
 50
90.0
 51
179.819825187
  0
LINE
  5
1A9
330
1E
100
AcDbEntity
  8
0
  6
Continuous
 62
     1
100
AcDbLine
 10
-733.2206846601191
 20
-331.5276549859381
 30
0.0
 11
-734.720684660119
 21
-331.5276549859381
 31
0.0
  0
ARC
  5
1AA
330
1E
100
AcDbEntity
  8
0
  6
Continuous
 62
     1
100
AcDbCircle
 10
-734.720684660119
 20
-332.0276549859381
 30
0.0
 40
0.5
100
AcDbArc
 50
90.0
 51
180.0
  0
LINE
  5
1AB
330
1E
100
AcDbEntity
  8
0
  6
Continuous
 62
     1
100
AcDbLine
 10
-734.610684660119
 20
-331.5276549859381
 30
0.0
 11
-737.6687953951191
 21
-331.5276549859381
 31
0.0
  0
LINE
  5
1AC
330
1E
100
AcDbEntity
  8
0
  6
Continuous
 62
     1
100
AcDbLine
 10
-735.2206846601191
 20
-368.0776549859381
 30
0.0
 11
-735.2206846601191
 21
-371.1276549859381
 31
0.0
  0
LINE
  5
1AD
330
1E
100
AcDbEntity
  8
0
  6
Continuous
 62
     1
100
AcDbLine
 10
-735.2206846601191
 20
-335.0776549859381
 30
0.0
 11
-735.2206846601191
 21
-332.0276549859381
 31
0.0
  0
LINE
  5
1AE
330
1E
100
AcDbEntity
  8
0
  6
Continuous
 62
     1
100
AcDbLine
 10
-735.2206846601191
 20
-370.0276549859381
 30
0.0
 11
-738.168792923119
 21
-370.0276549859381
 31
0.0
  0
LINE
  5
1AF
330
1E
100
AcDbEntity
  8
0
  6
Continuous
 62
     1
100
AcDbLine
 10
-735.2206846601191
 20
-333.1276549859381
 30
0.0
 11
-738.168792923119
 21
-333.1276549859381
 31
0.0
  0
LINE
  5
1B0
330
1E
100
AcDbEntity
  8
0
  6
Continuous
 62
     1
100
AcDbLine
 10
-756.6206846601191
 20
-351.5776549859381
 30
0.0
 11
-756.6206846601191
 21
-328.5776549859381
 31
0.0
  0
ARC
  5
1B1
330
1E
100
AcDbEntity
  8
0
  6
Continuous
 62
     1
100
AcDbCircle
 10
-755.6206846601191
 20
-328.5776549859381
 30
0.0
 40
1.0
100
AcDbArc
 50
90.0
 51
180.0
  0
LINE
  5
1B2
330
1E
100
AcDbEntity
  8
0
  6
Continuous
 62
     1
100
AcDbLine
 10
-756.6206846601191
 20
-351.5776549859381
 30
0.0
 11
-756.6206846601191
 21
-374.5776549859381
 31
0.0
  0
ARC
  5
1B3
330
1E
100
AcDbEntity
  8
0
  6
Continuous
 62
     1
100
AcDbCircle
 10
-755.6206846601191
 20
-374.5776549859381
 30
0.0
 40
1.0
100
AcDbArc
 50
180.0
 51
270.0
  0
LINE
  5
1B4
330
1E
100
AcDbEntity
  8
0
  6
Continuous
 62
     1
100
AcDbLine
 10
-715.8206846601191
 20
-327.5776549859381
 30
0.0
 11
-715.8206846601191
 21
-351.5776549859381
 31
0.0
  0
LINE
  5
1B5
330
1E
100
AcDbEntity
  8
0
  6
Continuous
 62
     3
100
AcDbLine
 10
-742.620684660119
 20
-368.2276549859381
 30
0.0
 11
-735.9206846601191
 21
-368.2276549859381
 31
0.0
  0
LINE
  5
1B6
330
1E
100
AcDbEntity
  8
0
  6
Continuous
 62
     3
100
AcDbLine
 10
-735.9206846601191
 20
-361.0276549859381
 30
0.0
 11
-743.9206846601191
 21
-361.0276549859381
 31
0.0
  0
LINE
  5
1B7
330
1E
100
AcDbEntity
  8
0
  6
Continuous
 62
     3
100
AcDbLine
 10
-735.9206846601191
 20
-368.2276549859381
 30
0.0
 11
-735.9206846601191
 21
-361.0276549859381
 31
0.0
  0
LINE
  5
1B8
330
1E
100
AcDbEntity
  8
0
  6
Continuous
 62
     3
100
AcDbLine
 10
-736.4206846601192
 20
-368.2276549859381
 30
0.0
 11
-736.4206846601192
 21
-361.0276549859381
 31
0.0
  0
LINE
  5
1B9
330
1E
100
AcDbEntity
  8
0
  6
Continuous
 62
     3
100
AcDbLine
 10
-735.9206846601191
 20
-367.2276549859381
 30
0.0
 11
-736.4206846601192
 21
-367.2276549859381
 31
0.0
  0
LINE
  5
1BA
330
1E
100
AcDbEntity
  8
0
  6
Continuous
 62
     3
100
AcDbLine
 10
-735.9206846601191
 20
-362.0276549859381
 30
0.0
 11
-736.4206846601192
 21
-362.0276549859381
 31
0.0
  0
LINE
  5
1BB
330
1E
100
AcDbEntity
  8
0
  6
Continuous
 62
     3
100
AcDbLine
 10
-736.4206846601192
 20
-365.1276549859381
 30
0.0
 11
-737.4206846601191
 21
-365.1276549859381
 31
0.0
  0
LINE
  5
1BC
330
1E
100
AcDbEntity
  8
0
  6
Continuous
 62
     3
100
AcDbLine
 10
-737.4206846601191
 20
-365.1276549859381
 30
0.0
 11
-736.4206846601192
 21
-367.6276549859381
 31
0.0
  0
LINE
  5
1BD
330
1E
100
AcDbEntity
  8
0
  6
Continuous
 62
     3
100
AcDbLine
 10
-736.4206846601192
 20
-367.6276549859381
 30
0.0
 11
-738.4206846601191
 21
-367.6276549859381
 31
0.0
  0
LINE
  5
1BE
330
1E
100
AcDbEntity
  8
0
  6
Continuous
 62
     3
100
AcDbLine
 10
-738.4206846601191
 20
-367.6276549859381
 30
0.0
 11
-738.4206846601191
 21
-364.6276549859381
 31
0.0
  0
LINE
  5
1BF
330
1E
100
AcDbEntity
  8
0
  6
Continuous
 62
     3
100
AcDbLine
 10
-737.9206846601191
 20
-364.6276549859381
 30
0.0
 11
-737.9206846601191
 21
-365.6276549859381
 31
0.0
  0
LINE
  5
1C0
330
1E
100
AcDbEntity
  8
0
  6
Continuous
 62
     3
100
AcDbLine
 10
-737.9206846601191
 20
-365.6276549859381
 30
0.0
 11
-738.4206846601191
 21
-365.6276549859381
 31
0.0
  0
LINE
  5
1C1
330
1E
100
AcDbEntity
  8
0
  6
Continuous
 62
     3
100
AcDbLine
 10
-735.9206846601191
 20
-362.0276549859381
 30
0.0
 11
-736.4206846601192
 21
-362.0276549859381
 31
0.0
  0
LINE
  5
1C2
330
1E
100
AcDbEntity
  8
0
  6
Continuous
 62
     3
100
AcDbLine
 10
-736.4206846601192
 20
-364.1276549859381
 30
0.0
 11
-737.4206846601191
 21
-364.1276549859381
 31
0.0
  0
LINE
  5
1C3
330
1E
100
AcDbEntity
  8
0
  6
Continuous
 62
     3
100
AcDbLine
 10
-737.4206846601191
 20
-364.1276549859381
 30
0.0
 11
-736.4206846601192
 21
-361.6276549859381
 31
0.0
  0
LINE
  5
1C4
330
1E
100
AcDbEntity
  8
0
  6
Continuous
 62
     3
100
AcDbLine
 10
-736.4206846601192
 20
-361.6276549859381
 30
0.0
 11
-738.4206846601191
 21
-361.6276549859381
 31
0.0
  0
LINE
  5
1C5
330
1E
100
AcDbEntity
  8
0
  6
Continuous
 62
     3
100
AcDbLine
 10
-738.4206846601191
 20
-361.6276549859381
 30
0.0
 11
-738.4206846601191
 21
-364.6276549859381
 31
0.0
  0
LINE
  5
1C6
330
1E
100
AcDbEntity
  8
0
  6
Continuous
 62
     3
100
AcDbLine
 10
-737.9206846601191
 20
-364.6276549859381
 30
0.0
 11
-737.9206846601191
 21
-363.6276549859381
 31
0.0
  0
LINE
  5
1C7
330
1E
100
AcDbEntity
  8
0
  6
Continuous
 62
     3
100
AcDbLine
 10
-737.9206846601191
 20
-363.6276549859381
 30
0.0
 11
-738.4206846601191
 21
-363.6276549859381
 31
0.0
  0
LINE
  5
1C8
330
1E
100
AcDbEntity
  8
0
  6
Continuous
 62
     3
100
AcDbLine
 10
-738.4206846601191
 20
-364.6276549859381
 30
0.0
 11
-738.4206846601191
 21
-367.4276549859381
 31
0.0
  0
LINE
  5
1C9
330
1E
100
AcDbEntity
  8
0
  6
Continuous
 62
     3
100
AcDbLine
 10
-738.4206846601191
 20
-367.4276549859381
 30
0.0
 11
-740.4206846601191
 21
-367.4276549859381
 31
0.0
  0
LINE
  5
1CA
330
1E
100
AcDbEntity
  8
0
  6
Continuous
 62
     3
100
AcDbLine
 10
-740.620684660119
 20
-364.6276549859381
 30
0.0
 11
-740.620684660119
 21
-365.2276549859381
 31
0.0
  0
LINE
  5
1CB
330
1E
100
AcDbEntity
  8
0
  6
Continuous
 62
     3
100
AcDbLine
 10
-740.620684660119
 20
-365.2276549859381
 30
0.0
 11
-740.4206846601191
 21
-367.4276549859381
 31
0.0
  0
LINE
  5
1CC
330
1E
100
AcDbEntity
  8
0
  6
Continuous
 62
     3
100
AcDbLine
 10
-738.4206846601191
 20
-361.6276549859381
 30
0.0
 11
-738.4206846601191
 21
-364.6276549859381
 31
0.0
  0
LINE
  5
1CD
330
1E
100
AcDbEntity
  8
0
  6
Continuous
 62
     3
100
AcDbLine
 10
-738.4206846601191
 20
-364.6276549859381
 30
0.0
 11
-738.4206846601191
 21
-361.8276549859381
 31
0.0
  0
LINE
  5
1CE
330
1E
100
AcDbEntity
  8
0
  6
Continuous
 62
     3
100
AcDbLine
 10
-738.4206846601191
 20
-361.8276549859381
 30
0.0
 11
-740.4206846601191
 21
-361.8276549859381
 31
0.0
  0
LINE
  5
1CF
330
1E
100
AcDbEntity
  8
0
  6
Continuous
 62
     3
100
AcDbLine
 10
-740.620684660119
 20
-364.6276549859381
 30
0.0
 11
-740.620684660119
 21
-364.0276549859381
 31
0.0
  0
LINE
  5
1D0
330
1E
100
AcDbEntity
  8
0
  6
Continuous
 62
     3
100
AcDbLine
 10
-740.620684660119
 20
-364.0276549859381
 30
0.0
 11
-740.4206846601191
 21
-361.8276549859381
 31
0.0
  0
LINE
  5
1D1
330
1E
100
AcDbEntity
  8
0
  6
Continuous
 62
     3
100
AcDbLine
 10
-743.9206846601191
 20
-359.5276549859381
 30
0.0
 11
-735.9206846601191
 21
-359.5276549859381
 31
0.0
  0
LINE
  5
1D2
330
1E
100
AcDbEntity
  8
0
  6
Continuous
 62
     3
100
AcDbLine
 10
-743.9206846601191
 20
-359.5276549859381
 30
0.0
 11
-735.9206846601191
 21
-359.5276549859381
 31
0.0
  0
LINE
  5
1D3
330
1E
100
AcDbEntity
  8
0
  6
Continuous
 62
     3
100
AcDbLine
 10
-735.9206846601191
 20
-359.5276549859381
 30
0.0
 11
-735.9206846601191
 21
-352.3276549859381
 31
0.0
  0
LINE
  5
1D4
330
1E
100
AcDbEntity
  8
0
  6
Continuous
 62
     3
100
AcDbLine
 10
-735.9206846601191
 20
-352.3276549859381
 30
0.0
 11
-743.9206846601191
 21
-352.3276549859381
 31
0.0
  0
LINE
  5
1D5
330
1E
100
AcDbEntity
  8
0
  6
Continuous
 62
     3
100
AcDbLine
 10
-736.4206846601192
 20
-359.5276549859381
 30
0.0
 11
-736.4206846601192
 21
-352.3276549859381
 31
0.0
  0
LINE
  5
1D6
330
1E
100
AcDbEntity
  8
0
  6
Continuous
 62
     3
100
AcDbLine
 10
-735.9206846601191
 20
-358.5276549859381
 30
0.0
 11
-736.4206846601192
 21
-358.5276549859381
 31
0.0
  0
LINE
  5
1D7
330
1E
100
AcDbEntity
  8
0
  6
Continuous
 62
     3
100
AcDbLine
 10
-735.9206846601191
 20
-353.3276549859381
 30
0.0
 11
-736.4206846601192
 21
-353.3276549859381
 31
0.0
  0
LINE
  5
1D8
330
1E
100
AcDbEntity
  8
0
  6
Continuous
 62
     3
100
AcDbLine
 10
-736.4206846601192
 20
-356.4276549859381
 30
0.0
 11
-737.4206846601191
 21
-356.4276549859381
 31
0.0
  0
LINE
  5
1D9
330
1E
100
AcDbEntity
  8
0
  6
Continuous
 62
     3
100
AcDbLine
 10
-737.4206846601191
 20
-356.4276549859381
 30
0.0
 11
-736.4206846601192
 21
-358.9276549859381
 31
0.0
  0
LINE
  5
1DA
330
1E
100
AcDbEntity
  8
0
  6
Continuous
 62
     3
100
AcDbLine
 10
-736.4206846601192
 20
-358.9276549859381
 30
0.0
 11
-738.4206846601191
 21
-358.9276549859381
 31
0.0
  0
LINE
  5
1DB
330
1E
100
AcDbEntity
  8
0
  6
Continuous
 62
     3
100
AcDbLine
 10
-738.4206846601191
 20
-358.9276549859381
 30
0.0
 11
-738.4206846601191
 21
-355.9276549859381
 31
0.0
  0
LINE
  5
1DC
330
1E
100
AcDbEntity
  8
0
  6
Continuous
 62
     3
100
AcDbLine
 10
-737.9206846601191
 20
-355.9276549859381
 30
0.0
 11
-737.9206846601191
 21
-356.9276549859381
 31
0.0
  0
LINE
  5
1DD
330
1E
100
AcDbEntity
  8
0
  6
Continuous
 62
     3
100
AcDbLine
 10
-737.9206846601191
 20
-356.9276549859381
 30
0.0
 11
-738.4206846601191
 21
-356.9276549859381
 31
0.0
  0
LINE
  5
1DE
330
1E
100
AcDbEntity
  8
0
  6
Continuous
 62
     3
100
AcDbLine
 10
-735.9206846601191
 20
-353.3276549859381
 30
0.0
 11
-736.4206846601192
 21
-353.3276549859381
 31
0.0
  0
LINE
  5
1DF
330
1E
100
AcDbEntity
  8
0
  6
Continuous
 62
     3
100
AcDbLine
 10
-736.4206846601192
 20
-355.4276549859381
 30
0.0
 11
-737.4206846601191
 21
-355.4276549859381
 31
0.0
  0
LINE
  5
1E0
330
1E
100
AcDbEntity
  8
0
  6
Continuous
 62
     3
100
AcDbLine
 10
-737.4206846601191
 20
-355.4276549859381
 30
0.0
 11
-736.4206846601192
 21
-352.9276549859381
 31
0.0
  0
LINE
  5
1E1
330
1E
100
AcDbEntity
  8
0
  6
Continuous
 62
     3
100
AcDbLine
 10
-736.4206846601192
 20
-352.9276549859381
 30
0.0
 11
-738.4206846601191
 21
-352.9276549859381
 31
0.0
  0
LINE
  5
1E2
330
1E
100
AcDbEntity
  8
0
  6
Continuous
 62
     3
100
AcDbLine
 10
-738.4206846601191
 20
-352.9276549859381
 30
0.0
 11
-738.4206846601191
 21
-355.9276549859381
 31
0.0
  0
LINE
  5
1E3
330
1E
100
AcDbEntity
  8
0
  6
Continuous
 62
     3
100
AcDbLine
 10
-737.9206846601191
 20
-355.9276549859381
 30
0.0
 11
-737.9206846601191
 21
-354.9276549859381
 31
0.0
  0
LINE
  5
1E4
330
1E
100
AcDbEntity
  8
0
  6
Continuous
 62
     3
100
AcDbLine
 10
-737.9206846601191
 20
-354.9276549859381
 30
0.0
 11
-738.4206846601191
 21
-354.9276549859381
 31
0.0
  0
LINE
  5
1E5
330
1E
100
AcDbEntity
  8
0
  6
Continuous
 62
     3
100
AcDbLine
 10
-738.4206846601191
 20
-355.9276549859381
 30
0.0
 11
-738.4206846601191
 21
-358.7276549859381
 31
0.0
  0
LINE
  5
1E6
330
1E
100
AcDbEntity
  8
0
  6
Continuous
 62
     3
100
AcDbLine
 10
-738.4206846601191
 20
-358.7276549859381
 30
0.0
 11
-740.4206846601191
 21
-358.7276549859381
 31
0.0
  0
LINE
  5
1E7
330
1E
100
AcDbEntity
  8
0
  6
Continuous
 62
     3
100
AcDbLine
 10
-740.620684660119
 20
-355.9276549859381
 30
0.0
 11
-740.620684660119
 21
-356.5276549859381
 31
0.0
  0
LINE
  5
1E8
330
1E
100
AcDbEntity
  8
0
  6
Continuous
 62
     3
100
AcDbLine
 10
-740.620684660119
 20
-356.5276549859381
 30
0.0
 11
-740.4206846601191
 21
-358.7276549859381
 31
0.0
  0
LINE
  5
1E9
330
1E
100
AcDbEntity
  8
0
  6
Continuous
 62
     3
100
AcDbLine
 10
-738.4206846601191
 20
-352.9276549859381
 30
0.0
 11
-738.4206846601191
 21
-355.9276549859381
 31
0.0
  0
LINE
  5
1EA
330
1E
100
AcDbEntity
  8
0
  6
Continuous
 62
     3
100
AcDbLine
 10
-738.4206846601191
 20
-355.9276549859381
 30
0.0
 11
-738.4206846601191
 21
-353.1276549859381
 31
0.0
  0
LINE
  5
1EB
330
1E
100
AcDbEntity
  8
0
  6
Continuous
 62
     3
100
AcDbLine
 10
-738.4206846601191
 20
-353.1276549859381
 30
0.0
 11
-740.4206846601191
 21
-353.1276549859381
 31
0.0
  0
LINE
  5
1EC
330
1E
100
AcDbEntity
  8
0
  6
Continuous
 62
     3
100
AcDbLine
 10
-740.620684660119
 20
-355.9276549859381
 30
0.0
 11
-740.620684660119
 21
-355.3276549859381
 31
0.0
  0
LINE
  5
1ED
330
1E
100
AcDbEntity
  8
0
  6
Continuous
 62
     3
100
AcDbLine
 10
-740.620684660119
 20
-355.3276549859381
 30
0.0
 11
-740.4206846601191
 21
-353.1276549859381
 31
0.0
  0
LINE
  5
1EE
330
1E
100
AcDbEntity
  8
0
  6
Continuous
 62
     3
100
AcDbLine
 10
-742.620684660119
 20
-352.3276549859381
 30
0.0
 11
-740.8206846601191
 21
-352.3276549859381
 31
0.0
  0
LINE
  5
1EF
330
1E
100
AcDbEntity
  8
0
  6
Continuous
 62
     3
100
AcDbLine
 10
-743.9206846601191
 20
-350.8276549859381
 30
0.0
 11
-735.9206846601191
 21
-350.8276549859381
 31
0.0
  0
LINE
  5
1F0
330
1E
100
AcDbEntity
  8
0
  6
Continuous
 62
     3
100
AcDbLine
 10
-735.9206846601191
 20
-350.8276549859381
 30
0.0
 11
-735.9206846601191
 21
-343.6276549859381
 31
0.0
  0
LINE
  5
1F1
330
1E
100
AcDbEntity
  8
0
  6
Continuous
 62
     3
100
AcDbLine
 10
-735.9206846601191
 20
-343.6276549859381
 30
0.0
 11
-742.620684660119
 21
-343.6276549859381
 31
0.0
  0
LINE
  5
1F2
330
1E
100
AcDbEntity
  8
0
  6
Continuous
 62
     3
100
AcDbLine
 10
-736.4206846601192
 20
-350.8276549859381
 30
0.0
 11
-736.4206846601192
 21
-343.6276549859381
 31
0.0
  0
LINE
  5
1F3
330
1E
100
AcDbEntity
  8
0
  6
Continuous
 62
     3
100
AcDbLine
 10
-735.9206846601191
 20
-349.8276549859381
 30
0.0
 11
-736.4206846601192
 21
-349.8276549859381
 31
0.0
  0
LINE
  5
1F4
330
1E
100
AcDbEntity
  8
0
  6
Continuous
 62
     3
100
AcDbLine
 10
-735.9206846601191
 20
-344.6276549859381
 30
0.0
 11
-736.4206846601192
 21
-344.6276549859381
 31
0.0
  0
LINE
  5
1F5
330
1E
100
AcDbEntity
  8
0
  6
Continuous
 62
     3
100
AcDbLine
 10
-736.4206846601192
 20
-347.727654985938
 30
0.0
 11
-737.4206846601191
 21
-347.727654985938
 31
0.0
  0
LINE
  5
1F6
330
1E
100
AcDbEntity
  8
0
  6
Continuous
 62
     3
100
AcDbLine
 10
-737.4206846601191
 20
-347.727654985938
 30
0.0
 11
-736.4206846601192
 21
-350.2276549859381
 31
0.0
  0
LINE
  5
1F7
330
1E
100
AcDbEntity
  8
0
  6
Continuous
 62
     3
100
AcDbLine
 10
-736.4206846601192
 20
-350.2276549859381
 30
0.0
 11
-738.4206846601191
 21
-350.2276549859381
 31
0.0
  0
LINE
  5
1F8
330
1E
100
AcDbEntity
  8
0
  6
Continuous
 62
     3
100
AcDbLine
 10
-738.4206846601191
 20
-350.2276549859381
 30
0.0
 11
-738.4206846601191
 21
-347.2276549859381
 31
0.0
  0
LINE
  5
1F9
330
1E
100
AcDbEntity
  8
0
  6
Continuous
 62
     3
100
AcDbLine
 10
-737.9206846601191
 20
-347.2276549859381
 30
0.0
 11
-737.9206846601191
 21
-348.2276549859381
 31
0.0
  0
LINE
  5
1FA
330
1E
100
AcDbEntity
  8
0
  6
Continuous
 62
     3
100
AcDbLine
 10
-737.9206846601191
 20
-348.2276549859381
 30
0.0
 11
-738.4206846601191
 21
-348.2276549859381
 31
0.0
  0
LINE
  5
1FB
330
1E
100
AcDbEntity
  8
0
  6
Continuous
 62
     3
100
AcDbLine
 10
-735.9206846601191
 20
-344.6276549859381
 30
0.0
 11
-736.4206846601192
 21
-344.6276549859381
 31
0.0
  0
LINE
  5
1FC
330
1E
100
AcDbEntity
  8
0
  6
Continuous
 62
     3
100
AcDbLine
 10
-736.4206846601192
 20
-346.7276549859381
 30
0.0
 11
-737.4206846601191
 21
-346.7276549859381
 31
0.0
  0
LINE
  5
1FD
330
1E
100
AcDbEntity
  8
0
  6
Continuous
 62
     3
100
AcDbLine
 10
-737.4206846601191
 20
-346.7276549859381
 30
0.0
 11
-736.4206846601192
 21
-344.2276549859381
 31
0.0
  0
LINE
  5
1FE
330
1E
100
AcDbEntity
  8
0
  6
Continuous
 62
     3
100
AcDbLine
 10
-736.4206846601192
 20
-344.2276549859381
 30
0.0
 11
-738.4206846601191
 21
-344.2276549859381
 31
0.0
  0
LINE
  5
1FF
330
1E
100
AcDbEntity
  8
0
  6
Continuous
 62
     3
100
AcDbLine
 10
-738.4206846601191
 20
-344.2276549859381
 30
0.0
 11
-738.4206846601191
 21
-347.2276549859381
 31
0.0
  0
LINE
  5
200
330
1E
100
AcDbEntity
  8
0
  6
Continuous
 62
     3
100
AcDbLine
 10
-737.9206846601191
 20
-347.2276549859381
 30
0.0
 11
-737.9206846601191
 21
-346.2276549859381
 31
0.0
  0
LINE
  5
201
330
1E
100
AcDbEntity
  8
0
  6
Continuous
 62
     3
100
AcDbLine
 10
-737.9206846601191
 20
-346.2276549859381
 30
0.0
 11
-738.4206846601191
 21
-346.2276549859381
 31
0.0
  0
LINE
  5
202
330
1E
100
AcDbEntity
  8
0
  6
Continuous
 62
     3
100
AcDbLine
 10
-738.4206846601191
 20
-347.2276549859381
 30
0.0
 11
-738.4206846601191
 21
-350.0276549859381
 31
0.0
  0
LINE
  5
203
330
1E
100
AcDbEntity
  8
0
  6
Continuous
 62
     3
100
AcDbLine
 10
-738.4206846601191
 20
-350.0276549859381
 30
0.0
 11
-740.4206846601191
 21
-350.0276549859381
 31
0.0
  0
LINE
  5
204
330
1E
100
AcDbEntity
  8
0
  6
Continuous
 62
     3
100
AcDbLine
 10
-740.620684660119
 20
-347.2276549859381
 30
0.0
 11
-740.620684660119
 21
-347.8276549859381
 31
0.0
  0
LINE
  5
205
330
1E
100
AcDbEntity
  8
0
  6
Continuous
 62
     3
100
AcDbLine
 10
-740.620684660119
 20
-347.8276549859381
 30
0.0
 11
-740.4206846601191
 21
-350.0276549859381
 31
0.0
  0
LINE
  5
206
330
1E
100
AcDbEntity
  8
0
  6
Continuous
 62
     3
100
AcDbLine
 10
-738.4206846601191
 20
-344.2276549859381
 30
0.0
 11
-738.4206846601191
 21
-347.2276549859381
 31
0.0
  0
LINE
  5
207
330
1E
100
AcDbEntity
  8
0
  6
Continuous
 62
     3
100
AcDbLine
 10
-738.4206846601191
 20
-347.2276549859381
 30
0.0
 11
-738.4206846601191
 21
-344.4276549859381
 31
0.0
  0
LINE
  5
208
330
1E
100
AcDbEntity
  8
0
  6
Continuous
 62
     3
100
AcDbLine
 10
-738.4206846601191
 20
-344.4276549859381
 30
0.0
 11
-740.4206846601191
 21
-344.4276549859381
 31
0.0
  0
LINE
  5
209
330
1E
100
AcDbEntity
  8
0
  6
Continuous
 62
     3
100
AcDbLine
 10
-740.620684660119
 20
-347.2276549859381
 30
0.0
 11
-740.620684660119
 21
-346.6276549859381
 31
0.0
  0
LINE
  5
20A
330
1E
100
AcDbEntity
  8
0
  6
Continuous
 62
     3
100
AcDbLine
 10
-740.620684660119
 20
-346.6276549859381
 30
0.0
 11
-740.4206846601191
 21
-344.4276549859381
 31
0.0
  0
LINE
  5
20B
330
1E
100
AcDbEntity
  8
0
  6
Continuous
 62
     3
100
AcDbLine
 10
-742.620684660119
 20
-342.1276549859381
 30
0.0
 11
-735.9206846601191
 21
-342.1276549859381
 31
0.0
  0
LINE
  5
20C
330
1E
100
AcDbEntity
  8
0
  6
Continuous
 62
     3
100
AcDbLine
 10
-735.9206846601191
 20
-334.9276549859381
 30
0.0
 11
-743.9206846601191
 21
-334.9276549859381
 31
0.0
  0
LINE
  5
20D
330
1E
100
AcDbEntity
  8
0
  6
Continuous
 62
     3
100
AcDbLine
 10
-736.4206846601192
 20
-342.1276549859381
 30
0.0
 11
-736.4206846601192
 21
-334.9276549859381
 31
0.0
  0
LINE
  5
20E
330
1E
100
AcDbEntity
  8
0
  6
Continuous
 62
     3
100
AcDbLine
 10
-735.9206846601191
 20
-342.1276549859381
 30
0.0
 11
-735.9206846601191
 21
-334.9276549859381
 31
0.0
  0
LINE
  5
20F
330
1E
100
AcDbEntity
  8
0
  6
Continuous
 62
     3
100
AcDbLine
 10
-735.9206846601191
 20
-334.9276549859381
 30
0.0
 11
-742.620684660119
 21
-334.9276549859381
 31
0.0
  0
LINE
  5
210
330
1E
100
AcDbEntity
  8
0
  6
Continuous
 62
     3
100
AcDbLine
 10
-736.4206846601192
 20
-342.1276549859381
 30
0.0
 11
-736.4206846601192
 21
-334.9276549859381
 31
0.0
  0
LINE
  5
211
330
1E
100
AcDbEntity
  8
0
  6
Continuous
 62
     3
100
AcDbLine
 10
-735.9206846601191
 20
-341.1276549859381
 30
0.0
 11
-736.4206846601192
 21
-341.1276549859381
 31
0.0
  0
LINE
  5
212
330
1E
100
AcDbEntity
  8
0
  6
Continuous
 62
     3
100
AcDbLine
 10
-735.9206846601191
 20
-335.9276549859381
 30
0.0
 11
-736.4206846601192
 21
-335.9276549859381
 31
0.0
  0
LINE
  5
213
330
1E
100
AcDbEntity
  8
0
  6
Continuous
 62
     3
100
AcDbLine
 10
-736.4206846601192
 20
-339.0276549859381
 30
0.0
 11
-737.4206846601191
 21
-339.0276549859381
 31
0.0
  0
LINE
  5
214
330
1E
100
AcDbEntity
  8
0
  6
Continuous
 62
     3
100
AcDbLine
 10
-737.4206846601191
 20
-339.0276549859381
 30
0.0
 11
-736.4206846601192
 21
-341.5276549859381
 31
0.0
  0
LINE
  5
215
330
1E
100
AcDbEntity
  8
0
  6
Continuous
 62
     3
100
AcDbLine
 10
-736.4206846601192
 20
-341.5276549859381
 30
0.0
 11
-738.4206846601191
 21
-341.5276549859381
 31
0.0
  0
LINE
  5
216
330
1E
100
AcDbEntity
  8
0
  6
Continuous
 62
     3
100
AcDbLine
 10
-738.4206846601191
 20
-341.5276549859381
 30
0.0
 11
-738.4206846601191
 21
-338.5276549859381
 31
0.0
  0
LINE
  5
217
330
1E
100
AcDbEntity
  8
0
  6
Continuous
 62
     3
100
AcDbLine
 10
-737.9206846601191
 20
-338.5276549859381
 30
0.0
 11
-737.9206846601191
 21
-339.5276549859381
 31
0.0
  0
LINE
  5
218
330
1E
100
AcDbEntity
  8
0
  6
Continuous
 62
     3
100
AcDbLine
 10
-737.9206846601191
 20
-339.5276549859381
 30
0.0
 11
-738.4206846601191
 21
-339.5276549859381
 31
0.0
  0
LINE
  5
219
330
1E
100
AcDbEntity
  8
0
  6
Continuous
 62
     3
100
AcDbLine
 10
-735.9206846601191
 20
-335.9276549859381
 30
0.0
 11
-736.4206846601192
 21
-335.9276549859381
 31
0.0
  0
LINE
  5
21A
330
1E
100
AcDbEntity
  8
0
  6
Continuous
 62
     3
100
AcDbLine
 10
-736.4206846601192
 20
-338.0276549859381
 30
0.0
 11
-737.4206846601191
 21
-338.0276549859381
 31
0.0
  0
LINE
  5
21B
330
1E
100
AcDbEntity
  8
0
  6
Continuous
 62
     3
100
AcDbLine
 10
-737.4206846601191
 20
-338.0276549859381
 30
0.0
 11
-736.4206846601192
 21
-335.5276549859381
 31
0.0
  0
LINE
  5
21C
330
1E
100
AcDbEntity
  8
0
  6
Continuous
 62
     3
100
AcDbLine
 10
-736.4206846601192
 20
-335.5276549859381
 30
0.0
 11
-738.4206846601191
 21
-335.5276549859381
 31
0.0
  0
LINE
  5
21D
330
1E
100
AcDbEntity
  8
0
  6
Continuous
 62
     3
100
AcDbLine
 10
-738.4206846601191
 20
-335.5276549859381
 30
0.0
 11
-738.4206846601191
 21
-338.5276549859381
 31
0.0
  0
LINE
  5
21E
330
1E
100
AcDbEntity
  8
0
  6
Continuous
 62
     3
100
AcDbLine
 10
-737.9206846601191
 20
-338.5276549859381
 30
0.0
 11
-737.9206846601191
 21
-337.5276549859381
 31
0.0
  0
LINE
  5
21F
330
1E
100
AcDbEntity
  8
0
  6
Continuous
 62
     3
100
AcDbLine
 10
-737.9206846601191
 20
-337.5276549859381
 30
0.0
 11
-738.4206846601191
 21
-337.5276549859381
 31
0.0
  0
LINE
  5
220
330
1E
100
AcDbEntity
  8
0
  6
Continuous
 62
     3
100
AcDbLine
 10
-738.4206846601191
 20
-338.5276549859381
 30
0.0
 11
-738.4206846601191
 21
-341.3276549859381
 31
0.0
  0
LINE
  5
221
330
1E
100
AcDbEntity
  8
0
  6
Continuous
 62
     3
100
AcDbLine
 10
-738.4206846601191
 20
-341.3276549859381
 30
0.0
 11
-740.4206846601191
 21
-341.3276549859381
 31
0.0
  0
LINE
  5
222
330
1E
100
AcDbEntity
  8
0
  6
Continuous
 62
     3
100
AcDbLine
 10
-740.620684660119
 20
-338.5276549859381
 30
0.0
 11
-740.620684660119
 21
-339.1276549859381
 31
0.0
  0
LINE
  5
223
330
1E
100
AcDbEntity
  8
0
  6
Continuous
 62
     3
100
AcDbLine
 10
-740.620684660119
 20
-339.1276549859381
 30
0.0
 11
-740.4206846601191
 21
-341.3276549859381
 31
0.0
  0
LINE
  5
224
330
1E
100
AcDbEntity
  8
0
  6
Continuous
 62
     3
100
AcDbLine
 10
-738.4206846601191
 20
-335.5276549859381
 30
0.0
 11
-738.4206846601191
 21
-338.5276549859381
 31
0.0
  0
LINE
  5
225
330
1E
100
AcDbEntity
  8
0
  6
Continuous
 62
     3
100
AcDbLine
 10
-738.4206846601191
 20
-338.5276549859381
 30
0.0
 11
-738.4206846601191
 21
-335.7276549859381
 31
0.0
  0
LINE
  5
226
330
1E
100
AcDbEntity
  8
0
  6
Continuous
 62
     3
100
AcDbLine
 10
-738.4206846601191
 20
-335.7276549859381
 30
0.0
 11
-740.4206846601191
 21
-335.7276549859381
 31
0.0
  0
LINE
  5
227
330
1E
100
AcDbEntity
  8
0
  6
Continuous
 62
     3
100
AcDbLine
 10
-740.620684660119
 20
-338.5276549859381
 30
0.0
 11
-740.620684660119
 21
-337.9276549859381
 31
0.0
  0
LINE
  5
228
330
1E
100
AcDbEntity
  8
0
  6
Continuous
 62
     3
100
AcDbLine
 10
-740.620684660119
 20
-337.9276549859381
 30
0.0
 11
-740.4206846601191
 21
-335.7276549859381
 31
0.0
  0
LINE
  5
229
330
1E
100
AcDbEntity
  8
0
  6
Continuous
 62
     3
100
AcDbLine
 10
-742.620684660119
 20
-334.9276549859381
 30
0.0
 11
-740.8206846601191
 21
-334.9276549859381
 31
0.0
  0
LINE
  5
22A
330
1E
100
AcDbEntity
  8
0
  6
Continuous
 62
     3
100
AcDbLine
 10
-743.9206846601191
 20
-361.0276549859381
 30
0.0
 11
-743.9206846601191
 21
-359.5276549859381
 31
0.0
  0
LINE
  5
22B
330
1E
100
AcDbEntity
  8
0
  6
Continuous
 62
     3
100
AcDbLine
 10
-742.620684660119
 20
-359.5276549859381
 30
0.0
 11
-742.620684660119
 21
-361.0276549859381
 31
0.0
  0
LINE
  5
22C
330
1E
100
AcDbEntity
  8
0
  6
Continuous
 62
     3
100
AcDbLine
 10
-743.9206846601191
 20
-352.3276549859381
 30
0.0
 11
-743.9206846601191
 21
-350.8276549859381
 31
0.0
  0
LINE
  5
22D
330
1E
100
AcDbEntity
  8
0
  6
Continuous
 62
     3
100
AcDbLine
 10
-742.620684660119
 20
-350.8276549859381
 30
0.0
 11
-742.620684660119
 21
-352.3276549859381
 31
0.0
  0
LINE
  5
22E
330
1E
100
AcDbEntity
  8
0
  6
Continuous
 62
     3
100
AcDbLine
 10
-740.8206846601191
 20
-352.3276549859381
 30
0.0
 11
-740.8206846601191
 21
-350.8276549859381
 31
0.0
  0
LINE
  5
22F
330
1E
100
AcDbEntity
  8
0
  6
Continuous
 62
     3
100
AcDbLine
 10
-742.620684660119
 20
-343.6276549859381
 30
0.0
 11
-742.620684660119
 21
-342.1276549859381
 31
0.0
  0
LINE
  5
230
330
1E
100
AcDbEntity
  8
0
  6
Continuous
 62
     3
100
AcDbLine
 10
-742.620684660119
 20
-369.7276549859381
 30
0.0
 11
-742.620684660119
 21
-368.2276549859381
 31
0.0
  0
LINE
  5
231
330
1E
100
AcDbEntity
  8
0
  6
LTYPE1
 62
     3
100
AcDbLine
 10
-740.620684660119
 20
-333.4276549859381
 30
0.0
 11
-745.620684660119
 21
-333.4276549859381
 31
0.0
  0
LINE
  5
232
330
1E
100
AcDbEntity
  8
0
  6
Continuous
 62
     3
100
AcDbLine
 10
-743.9206846601191
 20
-334.9276549859381
 30
0.0
 11
-743.9206846601191
 21
-333.4276549859381
 31
0.0
  0
LINE
  5
233
330
1E
100
AcDbEntity
  8
0
  6
Continuous
 62
     3
100
AcDbLine
 10
-742.620684660119
 20
-333.4276549859381
 30
0.0
 11
-742.620684660119
 21
-334.9276549859381
 31
0.0
  0
LINE
  5
234
330
1E
100
AcDbEntity
  8
0
  6
LTYPE1
 62
     3
100
AcDbLine
 10
-745.620684660119
 20
-369.7276549859381
 30
0.0
 11
-745.620684660119
 21
-333.4276549859381
 31
0.0
  0
LINE
  5
235
330
1E
100
AcDbEntity
  8
0
  6
Continuous
 62
     3
100
AcDbLine
 10
-742.620684660119
 20
-333.4276549859381
 30
0.0
 11
-742.620684660119
 21
-334.9276549859381
 31
0.0
  0
LINE
  5
236
330
1E
100
AcDbEntity
  8
0
  6
Continuous
 62
     3
100
AcDbLine
 10
-735.9206846601191
 20
-342.1276549859381
 30
0.0
 11
-735.9206846601191
 21
-334.9276549859381
 31
0.0
  0
LINE
  5
237
330
1E
100
AcDbEntity
  8
0
  6
LTYPE1
 62
     3
100
AcDbLine
 10
-740.620684660119
 20
-333.4276549859381
 30
0.0
 11
-740.620684660119
 21
-369.7276549859381
 31
0.0
  0
ARC
  5
238
330
1E
100
AcDbEntity
  8
0
  6
Continuous
 62
     1
100
AcDbCircle
 10
-737.6687953951191
 20
-371.1276549859381
 30
0.0
 40
0.5
100
AcDbArc
 50
164.213321256
 51
270.0
  0
LINE
  5
239
330
1E
100
AcDbEntity
  8
0
  6
Continuous
 62
     1
100
AcDbLine
 10
-738.168792923119
 20
-369.7276549859381
 30
0.0
 11
-738.168792923119
 21
-371.1292273049381
 31
0.0
  0
LINE
  5
23A
330
1E
100
AcDbEntity
  8
0
  6
Continuous
 62
     1
100
AcDbLine
 10
-738.168792923119
 20
-332.0260826669381
 30
0.0
 11
-738.168792923119
 21
-333.4276549859381
 31
0.0
  0
LINE
  5
23B
330
1E
100
AcDbEntity
  8
0
  6
Continuous
 62
     3
100
AcDbLine
 10
-735.2206846601191
 20
-333.4276549859381
 30
0.0
 11
-743.9206846601191
 21
-333.4276549859381
 31
0.0
  0
LINE
  5
23C
330
1E
100
AcDbEntity
  8
0
  6
LTYPE1
 62
     3
100
AcDbLine
 10
-745.620684660119
 20
-369.7276549859381
 30
0.0
 11
-735.2206846601191
 21
-369.7276549859381
 31
0.0
  0
LINE
  5
23D
330
1E
100
AcDbEntity
  8
0
  6
Continuous
 62
     3
100
AcDbLine
 10
-745.620684660119
 20
-334.8344346469381
 30
0.0
 11
-756.6206846601191
 21
-334.9276549859381
 31
0.0
  0
LINE
  5
23E
330
1E
100
AcDbEntity
  8
0
  6
Continuous
 62
     3
100
AcDbLine
 10
-745.620684660119
 20
-336.8208753249381
 30
0.0
 11
-756.6206846601191
 21
-336.7276549859381
 31
0.0
  0
LINE
  5
23F
330
1E
100
AcDbEntity
  8
0
  6
Continuous
 62
     3
100
AcDbLine
 10
-745.620684660119
 20
-338.3344346469381
 30
0.0
 11
-756.6206846601191
 21
-338.4276549859381
 31
0.0
  0
LINE
  5
240
330
1E
100
AcDbEntity
  8
0
  6
Continuous
 62
     3
100
AcDbLine
 10
-745.620684660119
 20
-340.3208753249381
 30
0.0
 11
-756.6206846601191
 21
-340.2276549859381
 31
0.0
  0
LINE
  5
241
330
1E
100
AcDbEntity
  8
0
  6
Continuous
 62
     3
100
AcDbLine
 10
-745.620684660119
 20
-341.8344346469381
 30
0.0
 11
-756.6206846601191
 21
-341.9276549859381
 31
0.0
  0
LINE
  5
242
330
1E
100
AcDbEntity
  8
0
  6
Continuous
 62
     3
100
AcDbLine
 10
-745.620684660119
 20
-343.8208753249381
 30
0.0
 11
-756.6206846601191
 21
-343.727654985938
 31
0.0
  0
LINE
  5
243
330
1E
100
AcDbEntity
  8
0
  6
Continuous
 62
     3
100
AcDbLine
 10
-745.620684660119
 20
-345.3344346469381
 30
0.0
 11
-756.6206846601191
 21
-345.4276549859381
 31
0.0
  0
LINE
  5
244
330
1E
100
AcDbEntity
  8
0
  6
Continuous
 62
     3
100
AcDbLine
 10
-745.620684660119
 20
-347.3208753249381
 30
0.0
 11
-756.6206846601191
 21
-347.2276549859381
 31
0.0
  0
LINE
  5
245
330
1E
100
AcDbEntity
  8
0
  6
Continuous
 62
     3
100
AcDbLine
 10
-745.620684660119
 20
-348.8344346469381
 30
0.0
 11
-756.6206846601191
 21
-348.9276549859381
 31
0.0
  0
LINE
  5
246
330
1E
100
AcDbEntity
  8
0
  6
Continuous
 62
     3
100
AcDbLine
 10
-745.620684660119
 20
-350.8208753249381
 30
0.0
 11
-756.6206846601191
 21
-350.7276549859381
 31
0.0
  0
LINE
  5
247
330
1E
100
AcDbEntity
  8
0
  6
Continuous
 62
     3
100
AcDbLine
 10
-745.620684660119
 20
-352.3344346469381
 30
0.0
 11
-756.6206846601191
 21
-352.4276549859381
 31
0.0
  0
LINE
  5
248
330
1E
100
AcDbEntity
  8
0
  6
Continuous
 62
     3
100
AcDbLine
 10
-745.620684660119
 20
-354.3208753249381
 30
0.0
 11
-756.6206846601191
 21
-354.227654985938
 31
0.0
  0
LINE
  5
249
330
1E
100
AcDbEntity
  8
0
  6
Continuous
 62
     3
100
AcDbLine
 10
-745.620684660119
 20
-355.8344346469381
 30
0.0
 11
-756.6206846601191
 21
-355.9276549859381
 31
0.0
  0
LINE
  5
24A
330
1E
100
AcDbEntity
  8
0
  6
Continuous
 62
     3
100
AcDbLine
 10
-745.620684660119
 20
-357.8208753249381
 30
0.0
 11
-756.6206846601191
 21
-357.7276549859381
 31
0.0
  0
LINE
  5
24B
330
1E
100
AcDbEntity
  8
0
  6
Continuous
 62
     3
100
AcDbLine
 10
-745.620684660119
 20
-359.3344346469381
 30
0.0
 11
-756.6206846601191
 21
-359.4276549859381
 31
0.0
  0
LINE
  5
24C
330
1E
100
AcDbEntity
  8
0
  6
Continuous
 62
     3
100
AcDbLine
 10
-745.620684660119
 20
-361.3208753249381
 30
0.0
 11
-756.6206846601191
 21
-361.2276549859381
 31
0.0
  0
LINE
  5
24D
330
1E
100
AcDbEntity
  8
0
  6
Continuous
 62
     3
100
AcDbLine
 10
-745.620684660119
 20
-362.8344346469381
 30
0.0
 11
-756.6206846601191
 21
-362.9276549859381
 31
0.0
  0
LINE
  5
24E
330
1E
100
AcDbEntity
  8
0
  6
Continuous
 62
     3
100
AcDbLine
 10
-745.620684660119
 20
-364.8208753249381
 30
0.0
 11
-756.6206846601191
 21
-364.727654985938
 31
0.0
  0
LINE
  5
24F
330
1E
100
AcDbEntity
  8
0
  6
Continuous
 62
     3
100
AcDbLine
 10
-745.620684660119
 20
-366.3344346469381
 30
0.0
 11
-756.6206846601191
 21
-366.4276549859381
 31
0.0
  0
LINE
  5
250
330
1E
100
AcDbEntity
  8
0
  6
Continuous
 62
     3
100
AcDbLine
 10
-745.620684660119
 20
-368.3208753249381
 30
0.0
 11
-756.6206846601191
 21
-368.2276549859381
 31
0.0
  0
LINE
  5
251
330
1E
100
AcDbEntity
  8
0
  6
Continuous
 62
     3
100
AcDbLine
 10
-920.7206846601192
 20
-350.7924698009381
 30
0.0
 11
-920.7206846601192
 21
-352.3628401709381
 31
0.0
  0
LINE
  5
252
330
1E
100
AcDbEntity
  8
0
  6
Continuous
 62
     3
100
AcDbLine
 10
-920.7206846601192
 20
-354.2924698009381
 30
0.0
 11
-920.7206846601192
 21
-355.8628401709381
 31
0.0
  0
LINE
  5
253
330
1E
100
AcDbEntity
  8
0
  6
Continuous
 62
     3
100
AcDbLine
 10
-920.7206846601192
 20
-357.7924698009381
 30
0.0
 11
-920.7206846601192
 21
-359.3628401709381
 31
0.0
  0
LINE
  5
254
330
1E
100
AcDbEntity
  8
0
  6
Continuous
 62
     3
100
AcDbLine
 10
-920.7206846601192
 20
-361.2924698009381
 30
0.0
 11
-920.7206846601192
 21
-362.8628401709381
 31
0.0
  0
LINE
  5
255
330
1E
100
AcDbEntity
  8
0
  6
Continuous
 62
     3
100
AcDbLine
 10
-920.7206846601192
 20
-364.7924698009381
 30
0.0
 11
-920.7206846601192
 21
-366.3628401709381
 31
0.0
  0
LINE
  5
256
330
1E
100
AcDbEntity
  8
0
  6
Continuous
 62
     3
100
AcDbLine
 10
-920.7206846601192
 20
-368.2924698009381
 30
0.0
 11
-920.7206846601192
 21
-369.8628401709381
 31
0.0
  0
LINE
  5
257
330
1E
100
AcDbEntity
  8
0
  6
Continuous
 62
     3
100
AcDbLine
 10
-930.5206846601191
 20
-369.8276549859381
 30
0.0
 11
-918.720684660119
 21
-369.9276549859381
 31
0.0
  0
LINE
  5
258
330
1E
100
AcDbEntity
  8
0
  6
Continuous
 62
     3
100
AcDbLine
 10
-920.7206846601192
 20
-371.7924698009381
 30
0.0
 11
-920.7206846601192
 21
-373.3628401709381
 31
0.0
  0
LINE
  5
259
330
1E
100
AcDbEntity
  8
0
  6
Continuous
 62
     3
100
AcDbLine
 10
-930.5206846601191
 20
-372.5776549859381
 30
0.0
 11
-930.5206846601191
 21
-371.8276549859381
 31
0.0
  0
LINE
  5
25A
330
1E
100
AcDbEntity
  8
0
  6
Continuous
 62
     3
100
AcDbLine
 10
-930.5206846601191
 20
-371.8276549859381
 30
0.0
 11
-918.720684660119
 21
-371.7276549859381
 31
0.0
  0
LINE
  5
25B
330
1E
100
AcDbEntity
  8
0
  6
Continuous
 62
     3
100
AcDbLine
 10
-930.5206846601191
 20
-372.5776549859381
 30
0.0
 11
-930.5206846601191
 21
-373.3276549859381
 31
0.0
  0
LINE
  5
25C
330
1E
100
AcDbEntity
  8
0
  6
Continuous
 62
     3
100
AcDbLine
 10
-930.5206846601191
 20
-373.3276549859381
 30
0.0
 11
-918.720684660119
 21
-373.4276549859381
 31
0.0
  0
LINE
  5
25D
330
1E
100
AcDbEntity
  8
0
  6
Continuous
 62
     3
100
AcDbLine
 10
-920.7206846601192
 20
-348.8628401709381
 30
0.0
 11
-920.7206846601192
 21
-347.2924698009381
 31
0.0
  0
LINE
  5
25E
330
1E
100
AcDbEntity
  8
0
  6
Continuous
 62
     3
100
AcDbLine
 10
-920.7206846601192
 20
-345.3628401709381
 30
0.0
 11
-920.7206846601192
 21
-343.7924698009381
 31
0.0
  0
LINE
  5
25F
330
1E
100
AcDbEntity
  8
0
  6
Continuous
 62
     3
100
AcDbLine
 10
-920.7206846601192
 20
-341.8628401709381
 30
0.0
 11
-920.7206846601192
 21
-340.2924698009381
 31
0.0
  0
LINE
  5
260
330
1E
100
AcDbEntity
  8
0
  6
Continuous
 62
     3
100
AcDbLine
 10
-920.7206846601192
 20
-338.3628401709381
 30
0.0
 11
-920.7206846601192
 21
-336.7924698009381
 31
0.0
  0
LINE
  5
261
330
1E
100
AcDbEntity
  8
0
  6
Continuous
 62
     3
100
AcDbLine
 10
-920.7206846601192
 20
-334.8628401709381
 30
0.0
 11
-920.7206846601192
 21
-333.2924698009381
 31
0.0
  0
LINE
  5
262
330
1E
100
AcDbEntity
  8
0
  6
Continuous
 62
     3
100
AcDbLine
 10
-930.5206846601191
 20
-333.3276549859381
 30
0.0
 11
-918.720684660119
 21
-333.227654985938
 31
0.0
  0
LINE
  5
263
330
1E
100
AcDbEntity
  8
0
  6
Continuous
 62
     3
100
AcDbLine
 10
-920.7206846601192
 20
-331.3628401709381
 30
0.0
 11
-920.7206846601192
 21
-329.7924698009381
 31
0.0
  0
LINE
  5
264
330
1E
100
AcDbEntity
  8
0
  6
Continuous
 62
     3
100
AcDbLine
 10
-930.5206846601191
 20
-330.5776549859381
 30
0.0
 11
-930.5206846601191
 21
-331.3276549859381
 31
0.0
  0
LINE
  5
265
330
1E
100
AcDbEntity
  8
0
  6
Continuous
 62
     3
100
AcDbLine
 10
-930.5206846601191
 20
-331.3276549859381
 30
0.0
 11
-918.720684660119
 21
-331.4276549859381
 31
0.0
  0
LINE
  5
266
330
1E
100
AcDbEntity
  8
0
  6
Continuous
 62
     3
100
AcDbLine
 10
-930.5206846601191
 20
-330.5776549859381
 30
0.0
 11
-930.5206846601191
 21
-329.8276549859381
 31
0.0
  0
LINE
  5
267
330
1E
100
AcDbEntity
  8
0
  6
Continuous
 62
     3
100
AcDbLine
 10
-930.5206846601191
 20
-329.8276549859381
 30
0.0
 11
-918.720684660119
 21
-329.7276549859381
 31
0.0
  0
LINE
  5
268
330
1E
100
AcDbEntity
  8
0
  6
Continuous
 62
     1
100
AcDbLine
 10
-940.9206846601191
 20
-351.5776549859381
 30
0.0
 11
-940.9206846601191
 21
-349.0776549859381
 31
0.0
  0
LINE
  5
269
330
1E
100
AcDbEntity
  8
0
  6
Continuous
 62
     1
100
AcDbLine
 10
-940.9206846601191
 20
-349.0776549859381
 30
0.0
 11
-940.1206846601191
 21
-349.0776549859381
 31
0.0
  0
LINE
  5
26A
330
1E
100
AcDbEntity
  8
0
  6
Continuous
 62
     1
100
AcDbLine
 10
-959.520684660119
 20
-327.5776549859381
 30
0.0
 11
-959.520684660119
 21
-351.5776549859381
 31
0.0
  0
LINE
  5
26B
330
1E
100
AcDbEntity
  8
0
  6
Continuous
 62
     1
100
AcDbLine
 10
-940.6206846601191
 20
-341.477654985938
 30
0.0
 11
-942.120684660119
 21
-341.477654985938
 31
0.0
  0
ARC
  5
26C
330
1E
100
AcDbEntity
  8
0
  6
Continuous
 62
     1
100
AcDbCircle
 10
-940.6206846601191
 20
-341.9776549859381
 30
0.0
 40
0.5
100
AcDbArc
 50
0.0
 51
90.0
  0
LINE
  5
26D
330
1E
100
AcDbEntity
  8
0
  6
Continuous
 62
     1
100
AcDbLine
 10
-940.6206846601191
 20
-339.6776549859381
 30
0.0
 11
-942.120684660119
 21
-339.6776549859381
 31
0.0
  0
ARC
  5
26E
330
1E
100
AcDbEntity
  8
0
  6
Continuous
 62
     1
100
AcDbCircle
 10
-940.6206846601191
 20
-339.1776549859381
 30
0.0
 40
0.5
100
AcDbArc
 50
270.0
 51
0.0
  0
LINE
  5
26F
330
1E
100
AcDbEntity
  8
0
  6
Continuous
 62
     1
100
AcDbLine
 10
-940.1206846601191
 20
-349.0776549859381
 30
0.0
 11
-940.1206846601191
 21
-341.9776549859381
 31
0.0
  0
LINE
  5
270
330
1E
100
AcDbEntity
  8
0
  6
Continuous
 62
     1
100
AcDbLine
 10
-942.120684660119
 20
-351.5776549859381
 30
0.0
 11
-942.120684660119
 21
-328.5776549859381
 31
0.0
  0
LINE
  5
271
330
1E
100
AcDbEntity
  8
0
  6
Continuous
 62
     1
100
AcDbLine
 10
-943.120684660119
 20
-327.5776549859381
 30
0.0
 11
-959.520684660119
 21
-327.5776549859381
 31
0.0
  0
ARC
  5
272
330
1E
100
AcDbEntity
  8
0
  6
Continuous
 62
     1
100
AcDbCircle
 10
-943.120684660119
 20
-328.5776549859381
 30
0.0
 40
1.0
100
AcDbArc
 50
0.0
 51
90.0
  0
LINE
  5
273
330
1E
100
AcDbEntity
  8
0
  6
Continuous
 62
     1
100
AcDbLine
 10
-919.720684660119
 20
-327.5776549859381
 30
0.0
 11
-943.3206846601191
 21
-327.5776549859381
 31
0.0
  0
LWPOLYLINE
  5
274
330
1E
100
AcDbEntity
  8
0
 62
     1
100
AcDbPolyline
 90
        3
 70
     0
 43
0.0
 10
-940.9206846601191
 20
-351.5776549859381
 10
-940.9206846601191
 20
-354.0776549859381
 10
-940.1206846601191
 20
-354.0776549859381
  0
LINE
  5
279
330
1E
100
AcDbEntity
  8
0
  6
Continuous
 62
     1
100
AcDbLine
 10
-940.6206846601191
 20
-361.6776549859381
 30
0.0
 11
-942.120684660119
 21
-361.6776549859381
 31
0.0
  0
ARC
  5
27A
330
1E
100
AcDbEntity
  8
0
  6
Continuous
 62
     1
100
AcDbCircle
 10
-940.6206846601191
 20
-361.1776549859381
 30
0.0
 40
0.5
100
AcDbArc
 50
270.0
 51
0.0
  0
LINE
  5
27B
330
1E
100
AcDbEntity
  8
0
  6
Continuous
 62
     1
100
AcDbLine
 10
-940.6206846601191
 20
-363.4776549859381
 30
0.0
 11
-942.120684660119
 21
-363.4776549859381
 31
0.0
  0
ARC
  5
27C
330
1E
100
AcDbEntity
  8
0
  6
Continuous
 62
     1
100
AcDbCircle
 10
-940.6206846601191
 20
-363.9776549859381
 30
0.0
 40
0.5
100
AcDbArc
 50
0.0
 51
90.0
  0
LINE
  5
27D
330
1E
100
AcDbEntity
  8
0
  6
Continuous
 62
     1
100
AcDbLine
 10
-940.1206846601191
 20
-354.0776549859381
 30
0.0
 11
-940.1206846601191
 21
-361.1776549859381
 31
0.0
  0
LINE
  5
27E
330
1E
100
AcDbEntity
  8
0
  6
Continuous
 62
     1
100
AcDbLine
 10
-942.120684660119
 20
-351.5776549859381
 30
0.0
 11
-942.120684660119
 21
-374.5776549859381
 31
0.0
  0
ARC
  5
27F
330
1E
100
AcDbEntity
  8
0
  6
Continuous
 62
     1
100
AcDbCircle
 10
-943.120684660119
 20
-374.5776549859381
 30
0.0
 40
1.0
100
AcDbArc
 50
270.0
 51
0.0
  0
LINE
  5
280
330
1E
100
AcDbEntity
  8
0
  6
Continuous
 62
     1
100
AcDbLine
 10
-919.720684660119
 20
-375.5776549859381
 30
0.0
 11
-943.3206846601191
 21
-375.5776549859381
 31
0.0
  0
LINE
  5
281
330
1E
100
AcDbEntity
  8
0
  6
Continuous
 62
     1
100
AcDbLine
 10
-959.520684660119
 20
-375.5776549859381
 30
0.0
 11
-959.520684660119
 21
-351.5776549859381
 31
0.0
  0
LINE
  5
282
330
1E
100
AcDbEntity
  8
0
  6
Continuous
 62
     1
100
AcDbLine
 10
-943.120684660119
 20
-375.5776549859381
 30
0.0
 11
-959.520684660119
 21
-375.5776549859381
 31
0.0
  0
LINE
  5
283
330
1E
100
AcDbEntity
  8
0
  6
Continuous
 62
     1
100
AcDbLine
 10
-940.1206846601191
 20
-363.9776549859381
 30
0.0
 11
-940.1206846601191
 21
-368.0776549859381
 31
0.0
  0
LINE
  5
284
330
1E
100
AcDbEntity
  8
0
  6
Continuous
 62
     1
100
AcDbLine
 10
-940.1206846601191
 20
-339.1776549859381
 30
0.0
 11
-940.1206846601191
 21
-335.0776549859381
 31
0.0
  0
LINE
  5
285
330
1E
100
AcDbEntity
  8
0
  6
Continuous
 62
     1
100
AcDbLine
 10
-940.5506846601189
 20
-331.5276549859381
 30
0.0
 11
-937.672573925119
 21
-331.5276549859381
 31
0.0
  0
LINE
  5
286
330
1E
100
AcDbEntity
  8
0
  6
Continuous
 62
     1
100
AcDbLine
 10
-942.120684660119
 20
-331.5276549859381
 30
0.0
 11
-940.6206846601191
 21
-331.5276549859381
 31
0.0
  0
ARC
  5
287
330
1E
100
AcDbEntity
  8
0
  6
Continuous
 62
     1
100
AcDbCircle
 10
-940.6206846601191
 20
-332.0276549859381
 30
0.0
 40
0.5
100
AcDbArc
 50
0.0
 51
90.0
  0
ARC
  5
288
330
1E
100
AcDbEntity
  8
0
  6
Continuous
 62
     1
100
AcDbCircle
 10
-937.672573925119
 20
-371.1276549859381
 30
0.0
 40
0.5
100
AcDbArc
 50
270.0
 51
359.8198251869999
  0
LINE
  5
289
330
1E
100
AcDbEntity
  8
0
  6
Continuous
 62
     1
100
AcDbLine
 10
-942.120684660119
 20
-371.6276549859381
 30
0.0
 11
-940.6206846601191
 21
-371.6276549859381
 31
0.0
  0
ARC
  5
28A
330
1E
100
AcDbEntity
  8
0
  6
Continuous
 62
     1
100
AcDbCircle
 10
-940.6206846601191
 20
-371.1276549859381
 30
0.0
 40
0.5
100
AcDbArc
 50
270.0
 51
0.0
  0
LINE
  5
28B
330
1E
100
AcDbEntity
  8
0
  6
Continuous
 62
     1
100
AcDbLine
 10
-940.7306846601191
 20
-371.6276549859381
 30
0.0
 11
-937.672573925119
 21
-371.6276549859381
 31
0.0
  0
LINE
  5
28C
330
1E
100
AcDbEntity
  8
0
  6
Continuous
 62
     1
100
AcDbLine
 10
-940.1206846601191
 20
-335.0776549859381
 30
0.0
 11
-940.1206846601191
 21
-332.0276549859381
 31
0.0
  0
LINE
  5
28D
330
1E
100
AcDbEntity
  8
0
  6
Continuous
 62
     1
100
AcDbLine
 10
-940.1206846601191
 20
-368.0776549859381
 30
0.0
 11
-940.1206846601191
 21
-371.1276549859381
 31
0.0
  0
LINE
  5
28E
330
1E
100
AcDbEntity
  8
0
  6
Continuous
 62
     1
100
AcDbLine
 10
-940.1206846601191
 20
-333.1276549859381
 30
0.0
 11
-937.1725763971191
 21
-333.1276549859381
 31
0.0
  0
LINE
  5
28F
330
1E
100
AcDbEntity
  8
0
  6
Continuous
 62
     1
100
AcDbLine
 10
-940.1206846601191
 20
-370.0276549859381
 30
0.0
 11
-937.1725763971191
 21
-370.0276549859381
 31
0.0
  0
LINE
  5
290
330
1E
100
AcDbEntity
  8
0
  6
Continuous
 62
     1
100
AcDbLine
 10
-918.720684660119
 20
-351.5776549859381
 30
0.0
 11
-918.720684660119
 21
-374.5776549859381
 31
0.0
  0
ARC
  5
291
330
1E
100
AcDbEntity
  8
0
  6
Continuous
 62
     1
100
AcDbCircle
 10
-919.720684660119
 20
-374.5776549859381
 30
0.0
 40
1.0
100
AcDbArc
 50
270.0
 51
0.0
  0
LINE
  5
292
330
1E
100
AcDbEntity
  8
0
  6
Continuous
 62
     1
100
AcDbLine
 10
-918.720684660119
 20
-351.5776549859381
 30
0.0
 11
-918.720684660119
 21
-328.5776549859381
 31
0.0
  0
ARC
  5
293
330
1E
100
AcDbEntity
  8
0
  6
Continuous
 62
     1
100
AcDbCircle
 10
-919.720684660119
 20
-328.5776549859381
 30
0.0
 40
1.0
100
AcDbArc
 50
0.0
 51
90.0
  0
LINE
  5
294
330
1E
100
AcDbEntity
  8
0
  6
Continuous
 62
     1
100
AcDbLine
 10
-959.520684660119
 20
-375.5776549859381
 30
0.0
 11
-959.520684660119
 21
-351.5776549859381
 31
0.0
  0
LINE
  5
295
330
1E
100
AcDbEntity
  8
0
  6
Continuous
 62
     3
100
AcDbLine
 10
-932.7206846601191
 20
-334.9276549859381
 30
0.0
 11
-939.4206846601191
 21
-334.9276549859381
 31
0.0
  0
LINE
  5
296
330
1E
100
AcDbEntity
  8
0
  6
Continuous
 62
     3
100
AcDbLine
 10
-939.4206846601191
 20
-342.1276549859381
 30
0.0
 11
-931.4206846601191
 21
-342.1276549859381
 31
0.0
  0
LINE
  5
297
330
1E
100
AcDbEntity
  8
0
  6
Continuous
 62
     3
100
AcDbLine
 10
-939.4206846601191
 20
-334.9276549859381
 30
0.0
 11
-939.4206846601191
 21
-342.1276549859381
 31
0.0
  0
LINE
  5
298
330
1E
100
AcDbEntity
  8
0
  6
Continuous
 62
     3
100
AcDbLine
 10
-938.9206846601192
 20
-334.9276549859381
 30
0.0
 11
-938.9206846601192
 21
-342.1276549859381
 31
0.0
  0
LINE
  5
299
330
1E
100
AcDbEntity
  8
0
  6
Continuous
 62
     3
100
AcDbLine
 10
-939.4206846601191
 20
-335.9276549859381
 30
0.0
 11
-938.9206846601192
 21
-335.9276549859381
 31
0.0
  0
LINE
  5
29A
330
1E
100
AcDbEntity
  8
0
  6
Continuous
 62
     3
100
AcDbLine
 10
-939.4206846601191
 20
-341.1276549859381
 30
0.0
 11
-938.9206846601192
 21
-341.1276549859381
 31
0.0
  0
LINE
  5
29B
330
1E
100
AcDbEntity
  8
0
  6
Continuous
 62
     3
100
AcDbLine
 10
-938.9206846601192
 20
-338.0276549859381
 30
0.0
 11
-937.920684660119
 21
-338.0276549859381
 31
0.0
  0
LINE
  5
29C
330
1E
100
AcDbEntity
  8
0
  6
Continuous
 62
     3
100
AcDbLine
 10
-937.920684660119
 20
-338.0276549859381
 30
0.0
 11
-938.9206846601192
 21
-335.5276549859381
 31
0.0
  0
LINE
  5
29D
330
1E
100
AcDbEntity
  8
0
  6
Continuous
 62
     3
100
AcDbLine
 10
-938.9206846601192
 20
-335.5276549859381
 30
0.0
 11
-936.9206846601191
 21
-335.5276549859381
 31
0.0
  0
LINE
  5
29E
330
1E
100
AcDbEntity
  8
0
  6
Continuous
 62
     3
100
AcDbLine
 10
-936.9206846601191
 20
-335.5276549859381
 30
0.0
 11
-936.9206846601191
 21
-338.5276549859381
 31
0.0
  0
LINE
  5
29F
330
1E
100
AcDbEntity
  8
0
  6
Continuous
 62
     3
100
AcDbLine
 10
-937.4206846601191
 20
-338.5276549859381
 30
0.0
 11
-937.4206846601191
 21
-337.5276549859381
 31
0.0
  0
LINE
  5
2A0
330
1E
100
AcDbEntity
  8
0
  6
Continuous
 62
     3
100
AcDbLine
 10
-937.4206846601191
 20
-337.5276549859381
 30
0.0
 11
-936.9206846601191
 21
-337.5276549859381
 31
0.0
  0
LINE
  5
2A1
330
1E
100
AcDbEntity
  8
0
  6
Continuous
 62
     3
100
AcDbLine
 10
-939.4206846601191
 20
-341.1276549859381
 30
0.0
 11
-938.9206846601192
 21
-341.1276549859381
 31
0.0
  0
LINE
  5
2A2
330
1E
100
AcDbEntity
  8
0
  6
Continuous
 62
     3
100
AcDbLine
 10
-938.9206846601192
 20
-339.0276549859381
 30
0.0
 11
-937.920684660119
 21
-339.0276549859381
 31
0.0
  0
LINE
  5
2A3
330
1E
100
AcDbEntity
  8
0
  6
Continuous
 62
     3
100
AcDbLine
 10
-937.920684660119
 20
-339.0276549859381
 30
0.0
 11
-938.9206846601192
 21
-341.5276549859381
 31
0.0
  0
LINE
  5
2A4
330
1E
100
AcDbEntity
  8
0
  6
Continuous
 62
     3
100
AcDbLine
 10
-938.9206846601192
 20
-341.5276549859381
 30
0.0
 11
-936.9206846601191
 21
-341.5276549859381
 31
0.0
  0
LINE
  5
2A5
330
1E
100
AcDbEntity
  8
0
  6
Continuous
 62
     3
100
AcDbLine
 10
-936.9206846601191
 20
-341.5276549859381
 30
0.0
 11
-936.9206846601191
 21
-338.5276549859381
 31
0.0
  0
LINE
  5
2A6
330
1E
100
AcDbEntity
  8
0
  6
Continuous
 62
     3
100
AcDbLine
 10
-937.4206846601191
 20
-338.5276549859381
 30
0.0
 11
-937.4206846601191
 21
-339.5276549859381
 31
0.0
  0
LINE
  5
2A7
330
1E
100
AcDbEntity
  8
0
  6
Continuous
 62
     3
100
AcDbLine
 10
-937.4206846601191
 20
-339.5276549859381
 30
0.0
 11
-936.9206846601191
 21
-339.5276549859381
 31
0.0
  0
LINE
  5
2A8
330
1E
100
AcDbEntity
  8
0
  6
Continuous
 62
     3
100
AcDbLine
 10
-936.9206846601191
 20
-338.5276549859381
 30
0.0
 11
-936.9206846601191
 21
-335.7276549859381
 31
0.0
  0
LINE
  5
2A9
330
1E
100
AcDbEntity
  8
0
  6
Continuous
 62
     3
100
AcDbLine
 10
-936.9206846601191
 20
-335.7276549859381
 30
0.0
 11
-934.9206846601191
 21
-335.7276549859381
 31
0.0
  0
LINE
  5
2AA
330
1E
100
AcDbEntity
  8
0
  6
Continuous
 62
     3
100
AcDbLine
 10
-934.720684660119
 20
-338.5276549859381
 30
0.0
 11
-934.720684660119
 21
-337.9276549859381
 31
0.0
  0
LINE
  5
2AB
330
1E
100
AcDbEntity
  8
0
  6
Continuous
 62
     3
100
AcDbLine
 10
-934.720684660119
 20
-337.9276549859381
 30
0.0
 11
-934.9206846601191
 21
-335.7276549859381
 31
0.0
  0
LINE
  5
2AC
330
1E
100
AcDbEntity
  8
0
  6
Continuous
 62
     3
100
AcDbLine
 10
-936.9206846601191
 20
-341.5276549859381
 30
0.0
 11
-936.9206846601191
 21
-338.5276549859381
 31
0.0
  0
LINE
  5
2AD
330
1E
100
AcDbEntity
  8
0
  6
Continuous
 62
     3
100
AcDbLine
 10
-936.9206846601191
 20
-338.5276549859381
 30
0.0
 11
-936.9206846601191
 21
-341.3276549859381
 31
0.0
  0
LINE
  5
2AE
330
1E
100
AcDbEntity
  8
0
  6
Continuous
 62
     3
100
AcDbLine
 10
-936.9206846601191
 20
-341.3276549859381
 30
0.0
 11
-934.9206846601191
 21
-341.3276549859381
 31
0.0
  0
LINE
  5
2AF
330
1E
100
AcDbEntity
  8
0
  6
Continuous
 62
     3
100
AcDbLine
 10
-934.720684660119
 20
-338.5276549859381
 30
0.0
 11
-934.720684660119
 21
-339.1276549859381
 31
0.0
  0
LINE
  5
2B0
330
1E
100
AcDbEntity
  8
0
  6
Continuous
 62
     3
100
AcDbLine
 10
-934.720684660119
 20
-339.1276549859381
 30
0.0
 11
-934.9206846601191
 21
-341.3276549859381
 31
0.0
  0
LINE
  5
2B1
330
1E
100
AcDbEntity
  8
0
  6
Continuous
 62
     3
100
AcDbLine
 10
-931.4206846601191
 20
-343.6276549859381
 30
0.0
 11
-939.4206846601191
 21
-343.6276549859381
 31
0.0
  0
LINE
  5
2B2
330
1E
100
AcDbEntity
  8
0
  6
Continuous
 62
     3
100
AcDbLine
 10
-931.4206846601191
 20
-343.6276549859381
 30
0.0
 11
-939.4206846601191
 21
-343.6276549859381
 31
0.0
  0
LINE
  5
2B3
330
1E
100
AcDbEntity
  8
0
  6
Continuous
 62
     3
100
AcDbLine
 10
-939.4206846601191
 20
-343.6276549859381
 30
0.0
 11
-939.4206846601191
 21
-350.8276549859381
 31
0.0
  0
LINE
  5
2B4
330
1E
100
AcDbEntity
  8
0
  6
Continuous
 62
     3
100
AcDbLine
 10
-939.4206846601191
 20
-350.8276549859381
 30
0.0
 11
-931.4206846601191
 21
-350.8276549859381
 31
0.0
  0
LINE
  5
2B5
330
1E
100
AcDbEntity
  8
0
  6
Continuous
 62
     3
100
AcDbLine
 10
-938.9206846601192
 20
-343.6276549859381
 30
0.0
 11
-938.9206846601192
 21
-350.8276549859381
 31
0.0
  0
LINE
  5
2B6
330
1E
100
AcDbEntity
  8
0
  6
Continuous
 62
     3
100
AcDbLine
 10
-939.4206846601191
 20
-344.6276549859381
 30
0.0
 11
-938.9206846601192
 21
-344.6276549859381
 31
0.0
  0
LINE
  5
2B7
330
1E
100
AcDbEntity
  8
0
  6
Continuous
 62
     3
100
AcDbLine
 10
-939.4206846601191
 20
-349.8276549859381
 30
0.0
 11
-938.9206846601192
 21
-349.8276549859381
 31
0.0
  0
LINE
  5
2B8
330
1E
100
AcDbEntity
  8
0
  6
Continuous
 62
     3
100
AcDbLine
 10
-938.9206846601192
 20
-346.7276549859381
 30
0.0
 11
-937.920684660119
 21
-346.7276549859381
 31
0.0
  0
LINE
  5
2B9
330
1E
100
AcDbEntity
  8
0
  6
Continuous
 62
     3
100
AcDbLine
 10
-937.920684660119
 20
-346.7276549859381
 30
0.0
 11
-938.9206846601192
 21
-344.2276549859381
 31
0.0
  0
LINE
  5
2BA
330
1E
100
AcDbEntity
  8
0
  6
Continuous
 62
     3
100
AcDbLine
 10
-938.9206846601192
 20
-344.2276549859381
 30
0.0
 11
-936.9206846601191
 21
-344.2276549859381
 31
0.0
  0
LINE
  5
2BB
330
1E
100
AcDbEntity
  8
0
  6
Continuous
 62
     3
100
AcDbLine
 10
-936.9206846601191
 20
-344.2276549859381
 30
0.0
 11
-936.9206846601191
 21
-347.2276549859381
 31
0.0
  0
LINE
  5
2BC
330
1E
100
AcDbEntity
  8
0
  6
Continuous
 62
     3
100
AcDbLine
 10
-937.4206846601191
 20
-347.2276549859381
 30
0.0
 11
-937.4206846601191
 21
-346.2276549859381
 31
0.0
  0
LINE
  5
2BD
330
1E
100
AcDbEntity
  8
0
  6
Continuous
 62
     3
100
AcDbLine
 10
-937.4206846601191
 20
-346.2276549859381
 30
0.0
 11
-936.9206846601191
 21
-346.2276549859381
 31
0.0
  0
LINE
  5
2BE
330
1E
100
AcDbEntity
  8
0
  6
Continuous
 62
     3
100
AcDbLine
 10
-939.4206846601191
 20
-349.8276549859381
 30
0.0
 11
-938.9206846601192
 21
-349.8276549859381
 31
0.0
  0
LINE
  5
2BF
330
1E
100
AcDbEntity
  8
0
  6
Continuous
 62
     3
100
AcDbLine
 10
-938.9206846601192
 20
-347.727654985938
 30
0.0
 11
-937.920684660119
 21
-347.727654985938
 31
0.0
  0
LINE
  5
2C0
330
1E
100
AcDbEntity
  8
0
  6
Continuous
 62
     3
100
AcDbLine
 10
-937.920684660119
 20
-347.727654985938
 30
0.0
 11
-938.9206846601192
 21
-350.2276549859381
 31
0.0
  0
LINE
  5
2C1
330
1E
100
AcDbEntity
  8
0
  6
Continuous
 62
     3
100
AcDbLine
 10
-938.9206846601192
 20
-350.2276549859381
 30
0.0
 11
-936.9206846601191
 21
-350.2276549859381
 31
0.0
  0
LINE
  5
2C2
330
1E
100
AcDbEntity
  8
0
  6
Continuous
 62
     3
100
AcDbLine
 10
-936.9206846601191
 20
-350.2276549859381
 30
0.0
 11
-936.9206846601191
 21
-347.2276549859381
 31
0.0
  0
LINE
  5
2C3
330
1E
100
AcDbEntity
  8
0
  6
Continuous
 62
     3
100
AcDbLine
 10
-937.4206846601191
 20
-347.2276549859381
 30
0.0
 11
-937.4206846601191
 21
-348.2276549859381
 31
0.0
  0
LINE
  5
2C4
330
1E
100
AcDbEntity
  8
0
  6
Continuous
 62
     3
100
AcDbLine
 10
-937.4206846601191
 20
-348.2276549859381
 30
0.0
 11
-936.9206846601191
 21
-348.2276549859381
 31
0.0
  0
LINE
  5
2C5
330
1E
100
AcDbEntity
  8
0
  6
Continuous
 62
     3
100
AcDbLine
 10
-936.9206846601191
 20
-347.2276549859381
 30
0.0
 11
-936.9206846601191
 21
-344.4276549859381
 31
0.0
  0
LINE
  5
2C6
330
1E
100
AcDbEntity
  8
0
  6
Continuous
 62
     3
100
AcDbLine
 10
-936.9206846601191
 20
-344.4276549859381
 30
0.0
 11
-934.9206846601191
 21
-344.4276549859381
 31
0.0
  0
LINE
  5
2C7
330
1E
100
AcDbEntity
  8
0
  6
Continuous
 62
     3
100
AcDbLine
 10
-934.720684660119
 20
-347.2276549859381
 30
0.0
 11
-934.720684660119
 21
-346.6276549859381
 31
0.0
  0
LINE
  5
2C8
330
1E
100
AcDbEntity
  8
0
  6
Continuous
 62
     3
100
AcDbLine
 10
-934.720684660119
 20
-346.6276549859381
 30
0.0
 11
-934.9206846601191
 21
-344.4276549859381
 31
0.0
  0
LINE
  5
2C9
330
1E
100
AcDbEntity
  8
0
  6
Continuous
 62
     3
100
AcDbLine
 10
-936.9206846601191
 20
-350.2276549859381
 30
0.0
 11
-936.9206846601191
 21
-347.2276549859381
 31
0.0
  0
LINE
  5
2CA
330
1E
100
AcDbEntity
  8
0
  6
Continuous
 62
     3
100
AcDbLine
 10
-936.9206846601191
 20
-347.2276549859381
 30
0.0
 11
-936.9206846601191
 21
-350.0276549859381
 31
0.0
  0
LINE
  5
2CB
330
1E
100
AcDbEntity
  8
0
  6
Continuous
 62
     3
100
AcDbLine
 10
-936.9206846601191
 20
-350.0276549859381
 30
0.0
 11
-934.9206846601191
 21
-350.0276549859381
 31
0.0
  0
LINE
  5
2CC
330
1E
100
AcDbEntity
  8
0
  6
Continuous
 62
     3
100
AcDbLine
 10
-934.720684660119
 20
-347.2276549859381
 30
0.0
 11
-934.720684660119
 21
-347.8276549859381
 31
0.0
  0
LINE
  5
2CD
330
1E
100
AcDbEntity
  8
0
  6
Continuous
 62
     3
100
AcDbLine
 10
-934.720684660119
 20
-347.8276549859381
 30
0.0
 11
-934.9206846601191
 21
-350.0276549859381
 31
0.0
  0
LINE
  5
2CE
330
1E
100
AcDbEntity
  8
0
  6
Continuous
 62
     3
100
AcDbLine
 10
-932.7206846601191
 20
-350.8276549859381
 30
0.0
 11
-934.520684660119
 21
-350.8276549859381
 31
0.0
  0
LINE
  5
2CF
330
1E
100
AcDbEntity
  8
0
  6
Continuous
 62
     3
100
AcDbLine
 10
-931.4206846601191
 20
-352.3276549859381
 30
0.0
 11
-939.4206846601191
 21
-352.3276549859381
 31
0.0
  0
LINE
  5
2D0
330
1E
100
AcDbEntity
  8
0
  6
Continuous
 62
     3
100
AcDbLine
 10
-939.4206846601191
 20
-352.3276549859381
 30
0.0
 11
-939.4206846601191
 21
-359.5276549859381
 31
0.0
  0
LINE
  5
2D1
330
1E
100
AcDbEntity
  8
0
  6
Continuous
 62
     3
100
AcDbLine
 10
-939.4206846601191
 20
-359.5276549859381
 30
0.0
 11
-932.7206846601191
 21
-359.5276549859381
 31
0.0
  0
LINE
  5
2D2
330
1E
100
AcDbEntity
  8
0
  6
Continuous
 62
     3
100
AcDbLine
 10
-938.9206846601192
 20
-352.3276549859381
 30
0.0
 11
-938.9206846601192
 21
-359.5276549859381
 31
0.0
  0
LINE
  5
2D3
330
1E
100
AcDbEntity
  8
0
  6
Continuous
 62
     3
100
AcDbLine
 10
-939.4206846601191
 20
-353.3276549859381
 30
0.0
 11
-938.9206846601192
 21
-353.3276549859381
 31
0.0
  0
LINE
  5
2D4
330
1E
100
AcDbEntity
  8
0
  6
Continuous
 62
     3
100
AcDbLine
 10
-939.4206846601191
 20
-358.5276549859381
 30
0.0
 11
-938.9206846601192
 21
-358.5276549859381
 31
0.0
  0
LINE
  5
2D5
330
1E
100
AcDbEntity
  8
0
  6
Continuous
 62
     3
100
AcDbLine
 10
-938.9206846601192
 20
-355.4276549859381
 30
0.0
 11
-937.920684660119
 21
-355.4276549859381
 31
0.0
  0
LINE
  5
2D6
330
1E
100
AcDbEntity
  8
0
  6
Continuous
 62
     3
100
AcDbLine
 10
-937.920684660119
 20
-355.4276549859381
 30
0.0
 11
-938.9206846601192
 21
-352.9276549859381
 31
0.0
  0
LINE
  5
2D7
330
1E
100
AcDbEntity
  8
0
  6
Continuous
 62
     3
100
AcDbLine
 10
-938.9206846601192
 20
-352.9276549859381
 30
0.0
 11
-936.9206846601191
 21
-352.9276549859381
 31
0.0
  0
LINE
  5
2D8
330
1E
100
AcDbEntity
  8
0
  6
Continuous
 62
     3
100
AcDbLine
 10
-936.9206846601191
 20
-352.9276549859381
 30
0.0
 11
-936.9206846601191
 21
-355.9276549859381
 31
0.0
  0
LINE
  5
2D9
330
1E
100
AcDbEntity
  8
0
  6
Continuous
 62
     3
100
AcDbLine
 10
-937.4206846601191
 20
-355.9276549859381
 30
0.0
 11
-937.4206846601191
 21
-354.9276549859381
 31
0.0
  0
LINE
  5
2DA
330
1E
100
AcDbEntity
  8
0
  6
Continuous
 62
     3
100
AcDbLine
 10
-937.4206846601191
 20
-354.9276549859381
 30
0.0
 11
-936.9206846601191
 21
-354.9276549859381
 31
0.0
  0
LINE
  5
2DB
330
1E
100
AcDbEntity
  8
0
  6
Continuous
 62
     3
100
AcDbLine
 10
-939.4206846601191
 20
-358.5276549859381
 30
0.0
 11
-938.9206846601192
 21
-358.5276549859381
 31
0.0
  0
LINE
  5
2DC
330
1E
100
AcDbEntity
  8
0
  6
Continuous
 62
     3
100
AcDbLine
 10
-938.9206846601192
 20
-356.4276549859381
 30
0.0
 11
-937.920684660119
 21
-356.4276549859381
 31
0.0
  0
LINE
  5
2DD
330
1E
100
AcDbEntity
  8
0
  6
Continuous
 62
     3
100
AcDbLine
 10
-937.920684660119
 20
-356.4276549859381
 30
0.0
 11
-938.9206846601192
 21
-358.9276549859381
 31
0.0
  0
LINE
  5
2DE
330
1E
100
AcDbEntity
  8
0
  6
Continuous
 62
     3
100
AcDbLine
 10
-938.9206846601192
 20
-358.9276549859381
 30
0.0
 11
-936.9206846601191
 21
-358.9276549859381
 31
0.0
  0
LINE
  5
2DF
330
1E
100
AcDbEntity
  8
0
  6
Continuous
 62
     3
100
AcDbLine
 10
-936.9206846601191
 20
-358.9276549859381
 30
0.0
 11
-936.9206846601191
 21
-355.9276549859381
 31
0.0
  0
LINE
  5
2E0
330
1E
100
AcDbEntity
  8
0
  6
Continuous
 62
     3
100
AcDbLine
 10
-937.4206846601191
 20
-355.9276549859381
 30
0.0
 11
-937.4206846601191
 21
-356.9276549859381
 31
0.0
  0
LINE
  5
2E1
330
1E
100
AcDbEntity
  8
0
  6
Continuous
 62
     3
100
AcDbLine
 10
-937.4206846601191
 20
-356.9276549859381
 30
0.0
 11
-936.9206846601191
 21
-356.9276549859381
 31
0.0
  0
LINE
  5
2E2
330
1E
100
AcDbEntity
  8
0
  6
Continuous
 62
     3
100
AcDbLine
 10
-936.9206846601191
 20
-355.9276549859381
 30
0.0
 11
-936.9206846601191
 21
-353.1276549859381
 31
0.0
  0
LINE
  5
2E3
330
1E
100
AcDbEntity
  8
0
  6
Continuous
 62
     3
100
AcDbLine
 10
-936.9206846601191
 20
-353.1276549859381
 30
0.0
 11
-934.9206846601191
 21
-353.1276549859381
 31
0.0
  0
LINE
  5
2E4
330
1E
100
AcDbEntity
  8
0
  6
Continuous
 62
     3
100
AcDbLine
 10
-934.720684660119
 20
-355.9276549859381
 30
0.0
 11
-934.720684660119
 21
-355.3276549859381
 31
0.0
  0
LINE
  5
2E5
330
1E
100
AcDbEntity
  8
0
  6
Continuous
 62
     3
100
AcDbLine
 10
-934.720684660119
 20
-355.3276549859381
 30
0.0
 11
-934.9206846601191
 21
-353.1276549859381
 31
0.0
  0
LINE
  5
2E6
330
1E
100
AcDbEntity
  8
0
  6
Continuous
 62
     3
100
AcDbLine
 10
-936.9206846601191
 20
-358.9276549859381
 30
0.0
 11
-936.9206846601191
 21
-355.9276549859381
 31
0.0
  0
LINE
  5
2E7
330
1E
100
AcDbEntity
  8
0
  6
Continuous
 62
     3
100
AcDbLine
 10
-936.9206846601191
 20
-355.9276549859381
 30
0.0
 11
-936.9206846601191
 21
-358.7276549859381
 31
0.0
  0
LINE
  5
2E8
330
1E
100
AcDbEntity
  8
0
  6
Continuous
 62
     3
100
AcDbLine
 10
-936.9206846601191
 20
-358.7276549859381
 30
0.0
 11
-934.9206846601191
 21
-358.7276549859381
 31
0.0
  0
LINE
  5
2E9
330
1E
100
AcDbEntity
  8
0
  6
Continuous
 62
     3
100
AcDbLine
 10
-934.720684660119
 20
-355.9276549859381
 30
0.0
 11
-934.720684660119
 21
-356.5276549859381
 31
0.0
  0
LINE
  5
2EA
330
1E
100
AcDbEntity
  8
0
  6
Continuous
 62
     3
100
AcDbLine
 10
-934.720684660119
 20
-356.5276549859381
 30
0.0
 11
-934.9206846601191
 21
-358.7276549859381
 31
0.0
  0
LINE
  5
2EB
330
1E
100
AcDbEntity
  8
0
  6
Continuous
 62
     3
100
AcDbLine
 10
-932.7206846601191
 20
-361.0276549859381
 30
0.0
 11
-939.4206846601191
 21
-361.0276549859381
 31
0.0
  0
LINE
  5
2EC
330
1E
100
AcDbEntity
  8
0
  6
Continuous
 62
     3
100
AcDbLine
 10
-939.4206846601191
 20
-368.2276549859381
 30
0.0
 11
-931.4206846601191
 21
-368.2276549859381
 31
0.0
  0
LINE
  5
2ED
330
1E
100
AcDbEntity
  8
0
  6
Continuous
 62
     3
100
AcDbLine
 10
-938.9206846601192
 20
-361.0276549859381
 30
0.0
 11
-938.9206846601192
 21
-368.2276549859381
 31
0.0
  0
LINE
  5
2EE
330
1E
100
AcDbEntity
  8
0
  6
Continuous
 62
     3
100
AcDbLine
 10
-939.4206846601191
 20
-361.0276549859381
 30
0.0
 11
-939.4206846601191
 21
-368.2276549859381
 31
0.0
  0
LINE
  5
2EF
330
1E
100
AcDbEntity
  8
0
  6
Continuous
 62
     3
100
AcDbLine
 10
-939.4206846601191
 20
-368.2276549859381
 30
0.0
 11
-932.7206846601191
 21
-368.2276549859381
 31
0.0
  0
LINE
  5
2F0
330
1E
100
AcDbEntity
  8
0
  6
Continuous
 62
     3
100
AcDbLine
 10
-938.9206846601192
 20
-361.0276549859381
 30
0.0
 11
-938.9206846601192
 21
-368.2276549859381
 31
0.0
  0
LINE
  5
2F1
330
1E
100
AcDbEntity
  8
0
  6
Continuous
 62
     3
100
AcDbLine
 10
-939.4206846601191
 20
-362.0276549859381
 30
0.0
 11
-938.9206846601192
 21
-362.0276549859381
 31
0.0
  0
LINE
  5
2F2
330
1E
100
AcDbEntity
  8
0
  6
Continuous
 62
     3
100
AcDbLine
 10
-939.4206846601191
 20
-367.2276549859381
 30
0.0
 11
-938.9206846601192
 21
-367.2276549859381
 31
0.0
  0
LINE
  5
2F3
330
1E
100
AcDbEntity
  8
0
  6
Continuous
 62
     3
100
AcDbLine
 10
-938.9206846601192
 20
-364.1276549859381
 30
0.0
 11
-937.920684660119
 21
-364.1276549859381
 31
0.0
  0
LINE
  5
2F4
330
1E
100
AcDbEntity
  8
0
  6
Continuous
 62
     3
100
AcDbLine
 10
-937.920684660119
 20
-364.1276549859381
 30
0.0
 11
-938.9206846601192
 21
-361.6276549859381
 31
0.0
  0
LINE
  5
2F5
330
1E
100
AcDbEntity
  8
0
  6
Continuous
 62
     3
100
AcDbLine
 10
-938.9206846601192
 20
-361.6276549859381
 30
0.0
 11
-936.9206846601191
 21
-361.6276549859381
 31
0.0
  0
LINE
  5
2F6
330
1E
100
AcDbEntity
  8
0
  6
Continuous
 62
     3
100
AcDbLine
 10
-936.9206846601191
 20
-361.6276549859381
 30
0.0
 11
-936.9206846601191
 21
-364.6276549859381
 31
0.0
  0
LINE
  5
2F7
330
1E
100
AcDbEntity
  8
0
  6
Continuous
 62
     3
100
AcDbLine
 10
-937.4206846601191
 20
-364.6276549859381
 30
0.0
 11
-937.4206846601191
 21
-363.6276549859381
 31
0.0
  0
LINE
  5
2F8
330
1E
100
AcDbEntity
  8
0
  6
Continuous
 62
     3
100
AcDbLine
 10
-937.4206846601191
 20
-363.6276549859381
 30
0.0
 11
-936.9206846601191
 21
-363.6276549859381
 31
0.0
  0
LINE
  5
2F9
330
1E
100
AcDbEntity
  8
0
  6
Continuous
 62
     3
100
AcDbLine
 10
-939.4206846601191
 20
-367.2276549859381
 30
0.0
 11
-938.9206846601192
 21
-367.2276549859381
 31
0.0
  0
LINE
  5
2FA
330
1E
100
AcDbEntity
  8
0
  6
Continuous
 62
     3
100
AcDbLine
 10
-938.9206846601192
 20
-365.1276549859381
 30
0.0
 11
-937.920684660119
 21
-365.1276549859381
 31
0.0
  0
LINE
  5
2FB
330
1E
100
AcDbEntity
  8
0
  6
Continuous
 62
     3
100
AcDbLine
 10
-937.920684660119
 20
-365.1276549859381
 30
0.0
 11
-938.9206846601192
 21
-367.6276549859381
 31
0.0
  0
LINE
  5
2FC
330
1E
100
AcDbEntity
  8
0
  6
Continuous
 62
     3
100
AcDbLine
 10
-938.9206846601192
 20
-367.6276549859381
 30
0.0
 11
-936.9206846601191
 21
-367.6276549859381
 31
0.0
  0
LINE
  5
2FD
330
1E
100
AcDbEntity
  8
0
  6
Continuous
 62
     3
100
AcDbLine
 10
-936.9206846601191
 20
-367.6276549859381
 30
0.0
 11
-936.9206846601191
 21
-364.6276549859381
 31
0.0
  0
LINE
  5
2FE
330
1E
100
AcDbEntity
  8
0
  6
Continuous
 62
     3
100
AcDbLine
 10
-937.4206846601191
 20
-364.6276549859381
 30
0.0
 11
-937.4206846601191
 21
-365.6276549859381
 31
0.0
  0
LINE
  5
2FF
330
1E
100
AcDbEntity
  8
0
  6
Continuous
 62
     3
100
AcDbLine
 10
-937.4206846601191
 20
-365.6276549859381
 30
0.0
 11
-936.9206846601191
 21
-365.6276549859381
 31
0.0
  0
LINE
  5
300
330
1E
100
AcDbEntity
  8
0
  6
Continuous
 62
     3
100
AcDbLine
 10
-936.9206846601191
 20
-364.6276549859381
 30
0.0
 11
-936.9206846601191
 21
-361.8276549859381
 31
0.0
  0
LINE
  5
301
330
1E
100
AcDbEntity
  8
0
  6
Continuous
 62
     3
100
AcDbLine
 10
-936.9206846601191
 20
-361.8276549859381
 30
0.0
 11
-934.9206846601191
 21
-361.8276549859381
 31
0.0
  0
LINE
  5
302
330
1E
100
AcDbEntity
  8
0
  6
Continuous
 62
     3
100
AcDbLine
 10
-934.720684660119
 20
-364.6276549859381
 30
0.0
 11
-934.720684660119
 21
-364.0276549859381
 31
0.0
  0
LINE
  5
303
330
1E
100
AcDbEntity
  8
0
  6
Continuous
 62
     3
100
AcDbLine
 10
-934.720684660119
 20
-364.0276549859381
 30
0.0
 11
-934.9206846601191
 21
-361.8276549859381
 31
0.0
  0
LINE
  5
304
330
1E
100
AcDbEntity
  8
0
  6
Continuous
 62
     3
100
AcDbLine
 10
-936.9206846601191
 20
-367.6276549859381
 30
0.0
 11
-936.9206846601191
 21
-364.6276549859381
 31
0.0
  0
LINE
  5
305
330
1E
100
AcDbEntity
  8
0
  6
Continuous
 62
     3
100
AcDbLine
 10
-936.9206846601191
 20
-364.6276549859381
 30
0.0
 11
-936.9206846601191
 21
-367.4276549859381
 31
0.0
  0
LINE
  5
306
330
1E
100
AcDbEntity
  8
0
  6
Continuous
 62
     3
100
AcDbLine
 10
-936.9206846601191
 20
-367.4276549859381
 30
0.0
 11
-934.9206846601191
 21
-367.4276549859381
 31
0.0
  0
LINE
  5
307
330
1E
100
AcDbEntity
  8
0
  6
Continuous
 62
     3
100
AcDbLine
 10
-934.720684660119
 20
-364.6276549859381
 30
0.0
 11
-934.720684660119
 21
-365.2276549859381
 31
0.0
  0
LINE
  5
308
330
1E
100
AcDbEntity
  8
0
  6
Continuous
 62
     3
100
AcDbLine
 10
-934.720684660119
 20
-365.2276549859381
 30
0.0
 11
-934.9206846601191
 21
-367.4276549859381
 31
0.0
  0
LINE
  5
309
330
1E
100
AcDbEntity
  8
0
  6
Continuous
 62
     3
100
AcDbLine
 10
-932.7206846601191
 20
-368.2276549859381
 30
0.0
 11
-934.520684660119
 21
-368.2276549859381
 31
0.0
  0
LINE
  5
30A
330
1E
100
AcDbEntity
  8
0
  6
Continuous
 62
     3
100
AcDbLine
 10
-931.4206846601191
 20
-342.1276549859381
 30
0.0
 11
-931.4206846601191
 21
-343.6276549859381
 31
0.0
  0
LINE
  5
30B
330
1E
100
AcDbEntity
  8
0
  6
Continuous
 62
     3
100
AcDbLine
 10
-932.7206846601191
 20
-343.6276549859381
 30
0.0
 11
-932.7206846601191
 21
-342.1276549859381
 31
0.0
  0
LINE
  5
30C
330
1E
100
AcDbEntity
  8
0
  6
Continuous
 62
     3
100
AcDbLine
 10
-931.4206846601191
 20
-350.8276549859381
 30
0.0
 11
-931.4206846601191
 21
-352.3276549859381
 31
0.0
  0
LINE
  5
30D
330
1E
100
AcDbEntity
  8
0
  6
Continuous
 62
     3
100
AcDbLine
 10
-932.7206846601191
 20
-352.3276549859381
 30
0.0
 11
-932.7206846601191
 21
-350.8276549859381
 31
0.0
  0
LINE
  5
30E
330
1E
100
AcDbEntity
  8
0
  6
Continuous
 62
     3
100
AcDbLine
 10
-934.520684660119
 20
-350.8276549859381
 30
0.0
 11
-934.520684660119
 21
-352.3276549859381
 31
0.0
  0
LINE
  5
30F
330
1E
100
AcDbEntity
  8
0
  6
Continuous
 62
     3
100
AcDbLine
 10
-932.7206846601191
 20
-359.5276549859381
 30
0.0
 11
-932.7206846601191
 21
-361.0276549859381
 31
0.0
  0
LINE
  5
310
330
1E
100
AcDbEntity
  8
0
  6
Continuous
 62
     3
100
AcDbLine
 10
-932.7206846601191
 20
-333.4276549859381
 30
0.0
 11
-932.7206846601191
 21
-334.9276549859381
 31
0.0
  0
LINE
  5
311
330
1E
100
AcDbEntity
  8
0
  6
LTYPE1
 62
     3
100
AcDbLine
 10
-934.720684660119
 20
-369.7276549859381
 30
0.0
 11
-929.7206846601191
 21
-369.7276549859381
 31
0.0
  0
LINE
  5
312
330
1E
100
AcDbEntity
  8
0
  6
Continuous
 62
     3
100
AcDbLine
 10
-931.4206846601191
 20
-368.2276549859381
 30
0.0
 11
-931.4206846601191
 21
-369.7276549859381
 31
0.0
  0
LINE
  5
313
330
1E
100
AcDbEntity
  8
0
  6
Continuous
 62
     3
100
AcDbLine
 10
-932.7206846601191
 20
-369.7276549859381
 30
0.0
 11
-932.7206846601191
 21
-368.2276549859381
 31
0.0
  0
LINE
  5
314
330
1E
100
AcDbEntity
  8
0
  6
LTYPE1
 62
     3
100
AcDbLine
 10
-929.7206846601191
 20
-333.4276549859381
 30
0.0
 11
-929.7206846601191
 21
-369.7276549859381
 31
0.0
  0
LINE
  5
315
330
1E
100
AcDbEntity
  8
0
  6
Continuous
 62
     3
100
AcDbLine
 10
-932.7206846601191
 20
-369.7276549859381
 30
0.0
 11
-932.7206846601191
 21
-368.2276549859381
 31
0.0
  0
LINE
  5
316
330
1E
100
AcDbEntity
  8
0
  6
Continuous
 62
     3
100
AcDbLine
 10
-939.4206846601191
 20
-361.0276549859381
 30
0.0
 11
-939.4206846601191
 21
-368.2276549859381
 31
0.0
  0
LINE
  5
317
330
1E
100
AcDbEntity
  8
0
  6
LTYPE1
 62
     3
100
AcDbLine
 10
-934.720684660119
 20
-369.7276549859381
 30
0.0
 11
-934.720684660119
 21
-333.4276549859381
 31
0.0
  0
ARC
  5
318
330
1E
100
AcDbEntity
  8
0
  6
Continuous
 62
     1
100
AcDbCircle
 10
-937.672573925119
 20
-332.0276549859381
 30
0.0
 40
0.5
100
AcDbArc
 50
344.2133212559999
 51
90.0
  0
LINE
  5
319
330
1E
100
AcDbEntity
  8
0
  6
Continuous
 62
     1
100
AcDbLine
 10
-937.1725763971191
 20
-333.4276549859381
 30
0.0
 11
-937.1725763971191
 21
-332.0260826669381
 31
0.0
  0
LINE
  5
31A
330
1E
100
AcDbEntity
  8
0
  6
Continuous
 62
     1
100
AcDbLine
 10
-937.1725763971191
 20
-371.1292273049381
 30
0.0
 11
-937.1725763971191
 21
-369.7276549859381
 31
0.0
  0
LINE
  5
31B
330
1E
100
AcDbEntity
  8
0
  6
Continuous
 62
     3
100
AcDbLine
 10
-940.1206846601191
 20
-369.7276549859381
 30
0.0
 11
-931.4206846601191
 21
-369.7276549859381
 31
0.0
  0
LINE
  5
31C
330
1E
100
AcDbEntity
  8
0
  6
LTYPE1
 62
     3
100
AcDbLine
 10
-929.7206846601191
 20
-333.4276549859381
 30
0.0
 11
-940.1206846601191
 21
-333.4276549859381
 31
0.0
  0
LINE
  5
31D
330
1E
100
AcDbEntity
  8
0
  6
Continuous
 62
     3
100
AcDbLine
 10
-929.7206846601191
 20
-368.3208753249381
 30
0.0
 11
-918.720684660119
 21
-368.2276549859381
 31
0.0
  0
LINE
  5
31E
330
1E
100
AcDbEntity
  8
0
  6
Continuous
 62
     3
100
AcDbLine
 10
-929.7206846601191
 20
-366.3344346469381
 30
0.0
 11
-918.720684660119
 21
-366.4276549859381
 31
0.0
  0
LINE
  5
31F
330
1E
100
AcDbEntity
  8
0
  6
Continuous
 62
     3
100
AcDbLine
 10
-929.7206846601191
 20
-364.8208753249381
 30
0.0
 11
-918.720684660119
 21
-364.727654985938
 31
0.0
  0
LINE
  5
320
330
1E
100
AcDbEntity
  8
0
  6
Continuous
 62
     3
100
AcDbLine
 10
-929.7206846601191
 20
-362.8344346469381
 30
0.0
 11
-918.720684660119
 21
-362.9276549859381
 31
0.0
  0
LINE
  5
321
330
1E
100
AcDbEntity
  8
0
  6
Continuous
 62
     3
100
AcDbLine
 10
-929.7206846601191
 20
-361.3208753249381
 30
0.0
 11
-918.720684660119
 21
-361.2276549859381
 31
0.0
  0
LINE
  5
322
330
1E
100
AcDbEntity
  8
0
  6
Continuous
 62
     3
100
AcDbLine
 10
-929.7206846601191
 20
-359.3344346469381
 30
0.0
 11
-918.720684660119
 21
-359.4276549859381
 31
0.0
  0
LINE
  5
323
330
1E
100
AcDbEntity
  8
0
  6
Continuous
 62
     3
100
AcDbLine
 10
-929.7206846601191
 20
-357.8208753249381
 30
0.0
 11
-918.720684660119
 21
-357.7276549859381
 31
0.0
  0
LINE
  5
324
330
1E
100
AcDbEntity
  8
0
  6
Continuous
 62
     3
100
AcDbLine
 10
-929.7206846601191
 20
-355.8344346469381
 30
0.0
 11
-918.720684660119
 21
-355.9276549859381
 31
0.0
  0
LINE
  5
325
330
1E
100
AcDbEntity
  8
0
  6
Continuous
 62
     3
100
AcDbLine
 10
-929.7206846601191
 20
-354.3208753249381
 30
0.0
 11
-918.720684660119
 21
-354.227654985938
 31
0.0
  0
LINE
  5
326
330
1E
100
AcDbEntity
  8
0
  6
Continuous
 62
     3
100
AcDbLine
 10
-929.7206846601191
 20
-352.3344346469381
 30
0.0
 11
-918.720684660119
 21
-352.4276549859381
 31
0.0
  0
LINE
  5
327
330
1E
100
AcDbEntity
  8
0
  6
Continuous
 62
     3
100
AcDbLine
 10
-929.7206846601191
 20
-350.8208753249381
 30
0.0
 11
-918.720684660119
 21
-350.7276549859381
 31
0.0
  0
LINE
  5
328
330
1E
100
AcDbEntity
  8
0
  6
Continuous
 62
     3
100
AcDbLine
 10
-929.7206846601191
 20
-348.8344346469381
 30
0.0
 11
-918.720684660119
 21
-348.9276549859381
 31
0.0
  0
LINE
  5
329
330
1E
100
AcDbEntity
  8
0
  6
Continuous
 62
     3
100
AcDbLine
 10
-929.7206846601191
 20
-347.3208753249381
 30
0.0
 11
-918.720684660119
 21
-347.2276549859381
 31
0.0
  0
LINE
  5
32A
330
1E
100
AcDbEntity
  8
0
  6
Continuous
 62
     3
100
AcDbLine
 10
-929.7206846601191
 20
-345.3344346469381
 30
0.0
 11
-918.720684660119
 21
-345.4276549859381
 31
0.0
  0
LINE
  5
32B
330
1E
100
AcDbEntity
  8
0
  6
Continuous
 62
     3
100
AcDbLine
 10
-929.7206846601191
 20
-343.8208753249381
 30
0.0
 11
-918.720684660119
 21
-343.727654985938
 31
0.0
  0
LINE
  5
32C
330
1E
100
AcDbEntity
  8
0
  6
Continuous
 62
     3
100
AcDbLine
 10
-929.7206846601191
 20
-341.8344346469381
 30
0.0
 11
-918.720684660119
 21
-341.9276549859381
 31
0.0
  0
LINE
  5
32D
330
1E
100
AcDbEntity
  8
0
  6
Continuous
 62
     3
100
AcDbLine
 10
-929.7206846601191
 20
-340.3208753249381
 30
0.0
 11
-918.720684660119
 21
-340.2276549859381
 31
0.0
  0
LINE
  5
32E
330
1E
100
AcDbEntity
  8
0
  6
Continuous
 62
     3
100
AcDbLine
 10
-929.7206846601191
 20
-338.3344346469381
 30
0.0
 11
-918.720684660119
 21
-338.4276549859381
 31
0.0
  0
LINE
  5
32F
330
1E
100
AcDbEntity
  8
0
  6
Continuous
 62
     3
100
AcDbLine
 10
-929.7206846601191
 20
-336.8208753249381
 30
0.0
 11
-918.720684660119
 21
-336.7276549859381
 31
0.0
  0
LINE
  5
330
330
1E
100
AcDbEntity
  8
0
  6
Continuous
 62
     3
100
AcDbLine
 10
-929.7206846601191
 20
-334.8344346469381
 30
0.0
 11
-918.720684660119
 21
-334.9276549859381
 31
0.0
  0
POINT
  5
331
330
1E
100
AcDbEntity
  8
0
  6
Continuous
 62
     3
100
AcDbPoint
 10
-793.635684659119
 20
-429.1776549789381
 30
0.0
  0
LINE
  5
332
330
1E
100
AcDbEntity
  8
0
  6
Continuous
 62
     3
100
AcDbLine
 10
-790.786573809119
 20
-432.1684599649382
 30
0.0
 11
-790.635684659119
 21
-448.577654978938
 31
0.0
  0
ARC
  5
333
330
1E
100
AcDbEntity
  8
0
  6
Continuous
 62
     3
100
AcDbCircle
 10
-883.4848377841192
 20
-432.177654978938
 30
0.0
 40
1.0
100
AcDbArc
 50
90.0
 51
179.4731571059999
  0
LINE
  5
334
330
1E
100
AcDbEntity
  8
0
  6
Continuous
 62
     3
100
AcDbLine
 10
-855.2356846591191
 20
-444.077654978938
 30
0.0
 11
-855.6356846591191
 21
-448.577654978938
 31
0.0
  0
LINE
  5
335
330
1E
100
AcDbEntity
  8
0
  6
Continuous
 62
     3
100
AcDbLine
 10
-820.0356846591191
 20
-444.077654978938
 30
0.0
 11
-819.6356846591191
 21
-448.577654978938
 31
0.0
  0
LINE
  5
336
330
1E
100
AcDbEntity
  8
0
  6
Continuous
 62
     3
100
AcDbLine
 10
-820.0356846591191
 20
-444.077654978938
 30
0.0
 11
-855.2356846591191
 21
-444.077654978938
 31
0.0
  0
LINE
  5
337
330
1E
100
AcDbEntity
  8
0
  6
Continuous
 62
     3
100
AcDbLine
 10
-883.1356846591191
 20
-429.6776549789381
 30
0.0
 11
-883.1356846591191
 21
-431.1776549789381
 31
0.0
  0
ARC
  5
338
330
1E
100
AcDbEntity
  8
0
  6
Continuous
 62
     3
100
AcDbCircle
 10
-882.635684659119
 20
-429.6776549789381
 30
0.0
 40
0.5
100
AcDbArc
 50
89.99989071700003
 51
180.0
  0
LINE
  5
339
330
1E
100
AcDbEntity
  8
0
  6
Continuous
 62
     3
100
AcDbLine
 10
-792.1356846591191
 20
-431.1776549789381
 30
0.0
 11
-792.1356846591191
 21
-429.6776549789381
 31
0.0
  0
ARC
  5
33A
330
1E
100
AcDbEntity
  8
0
  6
Continuous
 62
     3
100
AcDbCircle
 10
-792.6356846591191
 20
-429.6776549789381
 30
0.0
 40
0.5
100
AcDbArc
 50
0.0
 51
90.0
  0
LINE
  5
33B
330
1E
100
AcDbEntity
  8
0
  6
Continuous
 62
     3
100
AcDbLine
 10
-793.635684659119
 20
-429.1776549789381
 30
0.0
 11
-793.635684659119
 21
-431.1776549789381
 31
0.0
  0
LINE
  5
33C
330
1E
100
AcDbEntity
  8
0
  6
Continuous
 62
     3
100
AcDbLine
 10
-792.6356846591191
 20
-429.1776549789381
 30
0.0
 11
-793.635684659119
 21
-429.1776549789381
 31
0.0
  0
POINT
  5
33D
330
1E
100
AcDbEntity
  8
0
  6
Continuous
 62
     3
100
AcDbPoint
 10
-881.635684659119
 20
-429.1776549789381
 30
0.0
  0
LINE
  5
33E
330
1E
100
AcDbEntity
  8
0
  6
Continuous
 62
     3
100
AcDbLine
 10
-881.635684659119
 20
-429.1776549789381
 30
0.0
 11
-881.635684659119
 21
-431.1776549789381
 31
0.0
  0
LINE
  5
33F
330
1E
100
AcDbEntity
  8
0
  6
Continuous
 62
     3
100
AcDbLine
 10
-882.635684659119
 20
-429.1776549789381
 30
0.0
 11
-881.635684659119
 21
-429.1776549789381
 31
0.0
  0
LINE
  5
340
330
1E
100
AcDbEntity
  8
0
  6
Continuous
 62
     1
100
AcDbLine
 10
-820.0356846591191
 20
-444.077654978938
 30
0.0
 11
-855.2356846591191
 21
-444.0776549799381
 31
0.0
  0
LINE
  5
341
330
1E
100
AcDbEntity
  8
0
  6
Continuous
 62
     1
100
AcDbLine
 10
-821.5506846591191
 20
-446.0776549789381
 30
0.0
 11
-821.5506846591191
 21
-445.5776549789381
 31
0.0
  0
LINE
  5
342
330
1E
100
AcDbEntity
  8
0
  6
Continuous
 62
     1
100
AcDbLine
 10
-820.050684659119
 20
-445.3776549789381
 30
0.0
 11
-820.050684659119
 21
-444.2776549789381
 31
0.0
  0
LINE
  5
343
330
1E
100
AcDbEntity
  8
0
  6
Continuous
 62
     1
100
AcDbLine
 10
-819.6356846591191
 20
-448.577654978938
 30
0.0
 11
-820.0356846591191
 21
-444.077654978938
 31
0.0
  0
LINE
  5
344
330
1E
100
AcDbEntity
  8
0
  6
Continuous
 62
     1
100
AcDbLine
 10
-821.5506846591191
 20
-445.5776549789381
 30
0.0
 11
-820.050684659119
 21
-445.3776549789381
 31
0.0
  0
LINE
  5
345
330
1E
100
AcDbEntity
  8
0
  6
Continuous
 62
     1
100
AcDbLine
 10
-853.6356846591191
 20
-445.2776549799381
 30
0.0
 11
-855.2461580761191
 21
-445.2776549799381
 31
0.0
  0
LINE
  5
346
330
1E
100
AcDbEntity
  8
0
  6
Continuous
 62
     1
100
AcDbLine
 10
-855.2461580761191
 20
-445.2776549799381
 30
0.0
 11
-855.2356846591191
 21
-444.0776549799381
 31
0.0
  0
LINE
  5
347
330
1E
100
AcDbEntity
  8
0
  6
Continuous
 62
     1
100
AcDbLine
 10
-853.6356846591191
 20
-446.777654979938
 30
0.0
 11
-853.6356846591191
 21
-445.2776549799381
 31
0.0
  0
LINE
  5
348
330
1E
100
AcDbEntity
  8
0
  6
Continuous
 62
     1
100
AcDbLine
 10
-855.2732101911191
 20
-448.3776549799381
 30
0.0
 11
-855.6179068811191
 21
-448.3776549799381
 31
0.0
  0
LINE
  5
349
330
1E
100
AcDbEntity
  8
0
  6
Continuous
 62
     1
100
AcDbLine
 10
-855.2356846591191
 20
-444.0776549799381
 30
0.0
 11
-855.6356846591191
 21
-448.5776549799381
 31
0.0
  0
LINE
  5
34A
330
1E
100
AcDbEntity
  8
0
  6
Continuous
 62
     1
100
AcDbLine
 10
-855.2732101911191
 20
-448.3776549799381
 30
0.0
 11
-853.6356846591191
 21
-446.777654979938
 31
0.0
  0
LINE
  5
34B
330
1E
100
AcDbEntity
  8
0
  6
Continuous
 62
     3
100
AcDbLine
 10
-793.646158076119
 20
-423.6776549799381
 30
0.0
 11
-792.646158076119
 21
-423.6776549799381
 31
0.0
  0
LINE
  5
34C
330
1E
100
AcDbEntity
  8
0
  6
Continuous
 62
     3
100
AcDbLine
 10
-802.9461580761191
 20
-421.8776549799381
 30
0.0
 11
-792.646158076119
 21
-421.8776549799381
 31
0.0
  0
LINE
  5
34D
330
1E
100
AcDbEntity
  8
0
  6
Continuous
 62
     3
100
AcDbLine
 10
-793.646158076119
 20
-428.5776549799381
 30
0.0
 11
-796.146158076119
 21
-428.5776549799381
 31
0.0
  0
LINE
  5
34E
330
1E
100
AcDbEntity
  8
0
  6
Continuous
 62
     3
100
AcDbLine
 10
-801.446158076119
 20
-421.8776549799381
 30
0.0
 11
-801.446158076119
 21
-420.5776549799381
 31
0.0
  0
LINE
  5
34F
330
1E
100
AcDbEntity
  8
0
  6
Continuous
 62
     3
100
AcDbLine
 10
-801.446158076119
 20
-420.5776549799381
 30
0.0
 11
-800.4461580761191
 21
-420.5776549799381
 31
0.0
  0
LINE
  5
350
330
1E
100
AcDbEntity
  8
0
  6
Continuous
 62
     3
100
AcDbLine
 10
-800.4461580761191
 20
-420.5776549799381
 30
0.0
 11
-800.4461580761191
 21
-421.8776549799381
 31
0.0
  0
LINE
  5
351
330
1E
100
AcDbEntity
  8
0
  6
Continuous
 62
     3
100
AcDbLine
 10
-792.646158076119
 20
-423.6776549799381
 30
0.0
 11
-792.646158076119
 21
-421.8776549799381
 31
0.0
  0
LINE
  5
352
330
1E
100
AcDbEntity
  8
0
  6
LTYPE1
 62
     3
100
AcDbLine
 10
-802.446158076119
 20
-421.8776549799381
 30
0.0
 11
-802.446158076119
 21
-418.8776549799381
 31
0.0
  0
LINE
  5
353
330
1E
100
AcDbEntity
  8
0
  6
LTYPE1
 62
     3
100
AcDbLine
 10
-802.446158076119
 20
-418.8776549799381
 30
0.0
 11
-792.646158076119
 21
-418.8776549799381
 31
0.0
  0
LINE
  5
354
330
1E
100
AcDbEntity
  8
0
  6
LTYPE1
 62
     3
100
AcDbLine
 10
-792.646158076119
 20
-418.8776549799381
 30
0.0
 11
-791.646158076119
 21
-419.1776549799381
 31
0.0
  0
LINE
  5
355
330
1E
100
AcDbEntity
  8
0
  6
LTYPE1
 62
     3
100
AcDbLine
 10
-791.646158076119
 20
-423.8776549799381
 30
0.0
 11
-791.646158076119
 21
-419.1776549799381
 31
0.0
  0
LINE
  5
356
330
1E
100
AcDbEntity
  8
0
  6
LTYPE1
 62
     3
100
AcDbLine
 10
-793.646158076119
 20
-423.8776549799381
 30
0.0
 11
-791.646158076119
 21
-423.8776549799381
 31
0.0
  0
LINE
  5
357
330
1E
100
AcDbEntity
  8
0
  6
Continuous
 62
     3
100
AcDbLine
 10
-800.9461580761191
 20
-428.5776549799381
 30
0.0
 11
-800.9461580761191
 21
-431.1776549789381
 31
0.0
  0
LINE
  5
358
330
1E
100
AcDbEntity
  8
0
  6
Continuous
 62
     3
100
AcDbLine
 10
-796.146158076119
 20
-428.5776549799381
 30
0.0
 11
-796.146158076119
 21
-431.1776549789381
 31
0.0
  0
LINE
  5
359
330
1E
100
AcDbEntity
  8
0
  6
Continuous
 62
     3
100
AcDbLine
 10
-793.646158076119
 20
-431.1776549789381
 30
0.0
 11
-793.646158076119
 21
-423.6776549799381
 31
0.0
  0
LINE
  5
35A
330
1E
100
AcDbEntity
  8
0
  6
Continuous
 62
     3
100
AcDbLine
 10
-802.9461580761191
 20
-421.8776549799381
 30
0.0
 11
-802.9461580761191
 21
-426.1776549789381
 31
0.0
  0
LINE
  5
35B
330
1E
100
AcDbEntity
  8
0
  6
Continuous
 62
     3
100
AcDbLine
 10
-793.646158076119
 20
-428.5776549799381
 30
0.0
 11
-801.2856846591191
 21
-428.5776549799381
 31
0.0
  0
LINE
  5
35C
330
1E
100
AcDbEntity
  8
0
  6
Continuous
 62
     3
100
AcDbLine
 10
-801.9461580761191
 20
-421.8776549799381
 30
0.0
 11
-801.9461580761191
 21
-426.1776549789381
 31
0.0
  0
ARC
  5
35D
330
1E
100
AcDbEntity
  8
0
  6
Continuous
 62
     1
100
AcDbCircle
 10
-883.4803617291191
 20
-432.177654978938
 30
0.0
 40
1.0
100
AcDbArc
 50
90.0
 51
180.0
  0
POINT
  5
35E
330
1E
100
AcDbEntity
  8
0
  6
Continuous
 62
     3
100
AcDbPoint
 10
-881.635684659119
 20
-429.1776549789381
 30
0.0
  0
ARC
  5
35F
330
1E
100
AcDbEntity
  8
0
  6
Continuous
 62
     3
100
AcDbCircle
 10
-883.4848377841192
 20
-432.177654978938
 30
0.0
 40
1.0
100
AcDbArc
 50
90.0
 51
179.4731571059999
  0
LINE
  5
360
330
1E
100
AcDbEntity
  8
0
  6
Continuous
 62
     3
100
AcDbLine
 10
-883.1356846591191
 20
-431.1776549789381
 30
0.0
 11
-883.1356846591191
 21
-429.6776549789381
 31
0.0
  0
ARC
  5
361
330
1E
100
AcDbEntity
  8
0
  6
Continuous
 62
     3
100
AcDbCircle
 10
-882.635684659119
 20
-429.6776549789381
 30
0.0
 40
0.5
100
AcDbArc
 50
90.0
 51
180.0
  0
LINE
  5
362
330
1E
100
AcDbEntity
  8
0
  6
Continuous
 62
     3
100
AcDbLine
 10
-881.635684659119
 20
-429.1776549789381
 30
0.0
 11
-881.635684659119
 21
-431.1776549789381
 31
0.0
  0
LINE
  5
363
330
1E
100
AcDbEntity
  8
0
  6
Continuous
 62
     3
100
AcDbLine
 10
-882.635684659119
 20
-429.1776549789381
 30
0.0
 11
-881.635684659119
 21
-429.1776549789381
 31
0.0
  0
LINE
  5
364
330
1E
100
AcDbEntity
  8
0
  6
Continuous
 62
     3
100
AcDbLine
 10
-881.6252112421191
 20
-423.6776549799381
 30
0.0
 11
-882.625211242119
 21
-423.6776549799381
 31
0.0
  0
LINE
  5
365
330
1E
100
AcDbEntity
  8
0
  6
Continuous
 62
     3
100
AcDbLine
 10
-872.3252112421191
 20
-421.8776549799381
 30
0.0
 11
-882.625211242119
 21
-421.8776549799381
 31
0.0
  0
LINE
  5
366
330
1E
100
AcDbEntity
  8
0
  6
Continuous
 62
     3
100
AcDbLine
 10
-881.6252112421191
 20
-428.5776549799381
 30
0.0
 11
-879.125211242119
 21
-428.5776549799381
 31
0.0
  0
LINE
  5
367
330
1E
100
AcDbEntity
  8
0
  6
Continuous
 62
     3
100
AcDbLine
 10
-873.8252112421191
 20
-421.8776549799381
 30
0.0
 11
-873.8252112421191
 21
-420.5776549799381
 31
0.0
  0
LINE
  5
368
330
1E
100
AcDbEntity
  8
0
  6
Continuous
 62
     3
100
AcDbLine
 10
-873.8252112421191
 20
-420.5776549799381
 30
0.0
 11
-874.8252112421191
 21
-420.5776549799381
 31
0.0
  0
LINE
  5
369
330
1E
100
AcDbEntity
  8
0
  6
Continuous
 62
     3
100
AcDbLine
 10
-874.8252112421191
 20
-420.5776549799381
 30
0.0
 11
-874.8252112421191
 21
-421.8776549799381
 31
0.0
  0
LINE
  5
36A
330
1E
100
AcDbEntity
  8
0
  6
Continuous
 62
     3
100
AcDbLine
 10
-882.625211242119
 20
-423.6776549799381
 30
0.0
 11
-882.625211242119
 21
-421.8776549799381
 31
0.0
  0
LINE
  5
36B
330
1E
100
AcDbEntity
  8
0
  6
LTYPE1
 62
     3
100
AcDbLine
 10
-872.825211242119
 20
-421.8776549799381
 30
0.0
 11
-872.825211242119
 21
-418.8776549799381
 31
0.0
  0
LINE
  5
36C
330
1E
100
AcDbEntity
  8
0
  6
LTYPE1
 62
     3
100
AcDbLine
 10
-872.825211242119
 20
-418.8776549799381
 30
0.0
 11
-882.625211242119
 21
-418.8776549799381
 31
0.0
  0
LINE
  5
36D
330
1E
100
AcDbEntity
  8
0
  6
LTYPE1
 62
     3
100
AcDbLine
 10
-882.625211242119
 20
-418.8776549799381
 30
0.0
 11
-883.625211242119
 21
-419.1776549799381
 31
0.0
  0
LINE
  5
36E
330
1E
100
AcDbEntity
  8
0
  6
LTYPE1
 62
     3
100
AcDbLine
 10
-883.625211242119
 20
-423.8776549799381
 30
0.0
 11
-883.625211242119
 21
-419.1776549799381
 31
0.0
  0
LINE
  5
36F
330
1E
100
AcDbEntity
  8
0
  6
LTYPE1
 62
     3
100
AcDbLine
 10
-881.6252112421191
 20
-423.8776549799381
 30
0.0
 11
-883.625211242119
 21
-423.8776549799381
 31
0.0
  0
LINE
  5
370
330
1E
100
AcDbEntity
  8
0
  6
Continuous
 62
     3
100
AcDbLine
 10
-881.635684659119
 20
-431.1776549789381
 30
0.0
 11
-883.4848377841192
 21
-431.1776549789381
 31
0.0
  0
LINE
  5
371
330
1E
100
AcDbEntity
  8
0
  6
Continuous
 62
     3
100
AcDbLine
 10
-870.0210107461192
 20
-431.1776549789381
 30
0.0
 11
-881.635684659119
 21
-431.1776549789381
 31
0.0
  0
LINE
  5
372
330
1E
100
AcDbEntity
  8
0
  6
Continuous
 62
     3
100
AcDbLine
 10
-874.325211242119
 20
-428.5776549799381
 30
0.0
 11
-874.325211242119
 21
-431.1776549789381
 31
0.0
  0
LINE
  5
373
330
1E
100
AcDbEntity
  8
0
  6
Continuous
 62
     3
100
AcDbLine
 10
-879.125211242119
 20
-428.5776549799381
 30
0.0
 11
-879.125211242119
 21
-431.1776549789381
 31
0.0
  0
LINE
  5
374
330
1E
100
AcDbEntity
  8
0
  6
Continuous
 62
     3
100
AcDbLine
 10
-881.6252112421191
 20
-431.1776549789381
 30
0.0
 11
-881.6252112421191
 21
-423.6776549799381
 31
0.0
  0
LINE
  5
375
330
1E
100
AcDbEntity
  8
0
  6
Continuous
 62
     3
100
AcDbLine
 10
-872.3252112421191
 20
-421.8776549799381
 30
0.0
 11
-872.3252112421191
 21
-426.1776549789381
 31
0.0
  0
LINE
  5
376
330
1E
100
AcDbEntity
  8
0
  6
Continuous
 62
     3
100
AcDbLine
 10
-881.6252112421191
 20
-428.5776549799381
 30
0.0
 11
-873.9856846591191
 21
-428.5776549799381
 31
0.0
  0
LINE
  5
377
330
1E
100
AcDbEntity
  8
0
  6
Continuous
 62
     3
100
AcDbLine
 10
-873.325211242119
 20
-421.8776549799381
 30
0.0
 11
-873.325211242119
 21
-426.1776549789381
 31
0.0
  0
LINE
  5
378
330
1E
100
AcDbEntity
  8
0
  6
Continuous
 62
     3
100
AcDbLine
 10
-869.985684659119
 20
-426.1776549789381
 30
0.0
 11
-873.485684659119
 21
-426.1776549789381
 31
0.0
  0
LINE
  5
379
330
1E
100
AcDbEntity
  8
0
  6
Continuous
 62
     3
100
AcDbLine
 10
-869.8256846581191
 20
-355.9276549859381
 30
0.0
 11
-868.025684658119
 21
-355.9276549859381
 31
0.0
  0
LINE
  5
37A
330
1E
100
AcDbEntity
  8
0
  6
Continuous
 62
     3
100
AcDbLine
 10
-868.025684658119
 20
-354.227654985938
 30
0.0
 11
-869.8256846581191
 21
-354.227654985938
 31
0.0
  0
LINE
  5
37B
330
1E
100
AcDbEntity
  8
0
  6
Continuous
 62
     3
100
AcDbLine
 10
-869.8256846581191
 20
-359.4276549859381
 30
0.0
 11
-868.025684658119
 21
-359.4276549859381
 31
0.0
  0
LINE
  5
37C
330
1E
100
AcDbEntity
  8
0
  6
Continuous
 62
     3
100
AcDbLine
 10
-868.025684658119
 20
-357.7276549859381
 30
0.0
 11
-869.8256846581191
 21
-357.7276549859381
 31
0.0
  0
LINE
  5
37D
330
1E
100
AcDbEntity
  8
0
  6
Continuous
 62
     3
100
AcDbLine
 10
-869.8256846581191
 20
-362.9276549859381
 30
0.0
 11
-868.025684658119
 21
-362.9276549859381
 31
0.0
  0
LINE
  5
37E
330
1E
100
AcDbEntity
  8
0
  6
Continuous
 62
     3
100
AcDbLine
 10
-868.025684658119
 20
-361.2276549859381
 30
0.0
 11
-869.8256846581191
 21
-361.2276549859381
 31
0.0
  0
LINE
  5
37F
330
1E
100
AcDbEntity
  8
0
  6
Continuous
 62
     3
100
AcDbLine
 10
-869.8256846581191
 20
-352.4276549859381
 30
0.0
 11
-868.025684658119
 21
-352.4276549859381
 31
0.0
  0
LINE
  5
380
330
1E
100
AcDbEntity
  8
0
  6
Continuous
 62
     3
100
AcDbLine
 10
-868.025684658119
 20
-350.7276549859381
 30
0.0
 11
-869.8256846581191
 21
-350.7276549859381
 31
0.0
  0
LINE
  5
381
330
1E
100
AcDbEntity
  8
0
  6
Continuous
 62
     3
100
AcDbLine
 10
-868.025684658119
 20
-348.9276549859381
 30
0.0
 11
-869.8256846581191
 21
-348.9276549859381
 31
0.0
  0
LINE
  5
382
330
1E
100
AcDbEntity
  8
0
  6
Continuous
 62
     3
100
AcDbLine
 10
-869.8256846581191
 20
-347.2276549859381
 30
0.0
 11
-868.025684658119
 21
-347.2276549859381
 31
0.0
  0
LINE
  5
383
330
1E
100
AcDbEntity
  8
0
  6
Continuous
 62
     3
100
AcDbLine
 10
-869.8256846581191
 20
-343.727654985938
 30
0.0
 11
-868.025684658119
 21
-343.727654985938
 31
0.0
  0
LINE
  5
384
330
1E
100
AcDbEntity
  8
0
  6
Continuous
 62
     3
100
AcDbLine
 10
-868.025684658119
 20
-345.4276549859381
 30
0.0
 11
-869.8256846581191
 21
-345.4276549859381
 31
0.0
  0
LINE
  5
385
330
1E
100
AcDbEntity
  8
0
  6
Continuous
 62
     3
100
AcDbLine
 10
-869.8256846581191
 20
-340.2276549859381
 30
0.0
 11
-868.025684658119
 21
-340.2276549859381
 31
0.0
  0
LINE
  5
386
330
1E
100
AcDbEntity
  8
0
  6
Continuous
 62
     3
100
AcDbLine
 10
-868.025684658119
 20
-341.9276549859381
 30
0.0
 11
-869.8256846581191
 21
-341.9276549859381
 31
0.0
  0
LINE
  5
387
330
1E
100
AcDbEntity
  8
0
  6
Continuous
 62
     3
100
AcDbLine
 10
-869.8256846581191
 20
-336.7276549859381
 30
0.0
 11
-868.025684658119
 21
-336.7276549859381
 31
0.0
  0
LINE
  5
388
330
1E
100
AcDbEntity
  8
0
  6
Continuous
 62
     3
100
AcDbLine
 10
-868.025684658119
 20
-338.4276549859381
 30
0.0
 11
-869.8256846581191
 21
-338.4276549859381
 31
0.0
  0
LINE
  5
389
330
1E
100
AcDbEntity
  8
0
  6
Continuous
 62
     3
100
AcDbLine
 10
-869.8256846581191
 20
-373.4276549859381
 30
0.0
 11
-868.025684658119
 21
-373.4276549859381
 31
0.0
  0
LINE
  5
38A
330
1E
100
AcDbEntity
  8
0
  6
Continuous
 62
     3
100
AcDbLine
 10
-868.025684658119
 20
-371.7276549859381
 30
0.0
 11
-869.8256846581191
 21
-371.7276549859381
 31
0.0
  0
LINE
  5
38B
330
1E
100
AcDbEntity
  8
0
  6
Continuous
 62
     3
100
AcDbLine
 10
-869.8256846581191
 20
-369.9276549859381
 30
0.0
 11
-868.025684658119
 21
-369.9276549859381
 31
0.0
  0
LINE
  5
38C
330
1E
100
AcDbEntity
  8
0
  6
Continuous
 62
     3
100
AcDbLine
 10
-869.8256846581191
 20
-366.4276549859381
 30
0.0
 11
-868.025684658119
 21
-366.4276549859381
 31
0.0
  0
LINE
  5
38D
330
1E
100
AcDbEntity
  8
0
  6
Continuous
 62
     3
100
AcDbLine
 10
-868.025684658119
 20
-368.2276549859381
 30
0.0
 11
-869.8256846581191
 21
-368.2276549859381
 31
0.0
  0
LINE
  5
38E
330
1E
100
AcDbEntity
  8
0
  6
Continuous
 62
     3
100
AcDbLine
 10
-868.025684658119
 20
-364.727654985938
 30
0.0
 11
-869.8256846581191
 21
-364.727654985938
 31
0.0
  0
LINE
  5
38F
330
1E
100
AcDbEntity
  8
0
  6
Continuous
 62
     3
100
AcDbLine
 10
-868.025684658119
 20
-373.4276549859381
 30
0.0
 11
-868.025684658119
 21
-371.7276549859381
 31
0.0
  0
LINE
  5
390
330
1E
100
AcDbEntity
  8
0
  6
Continuous
 62
     3
100
AcDbLine
 10
-868.025684658119
 20
-369.9276549859381
 30
0.0
 11
-868.025684658119
 21
-368.2276549859381
 31
0.0
  0
LINE
  5
391
330
1E
100
AcDbEntity
  8
0
  6
Continuous
 62
     3
100
AcDbLine
 10
-868.025684658119
 20
-355.9276549859381
 30
0.0
 11
-868.025684658119
 21
-354.227654985938
 31
0.0
  0
LINE
  5
392
330
1E
100
AcDbEntity
  8
0
  6
Continuous
 62
     3
100
AcDbLine
 10
-868.025684658119
 20
-359.4276549859381
 30
0.0
 11
-868.025684658119
 21
-357.7276549859381
 31
0.0
  0
LINE
  5
393
330
1E
100
AcDbEntity
  8
0
  6
Continuous
 62
     3
100
AcDbLine
 10
-868.025684658119
 20
-362.9276549859381
 30
0.0
 11
-868.025684658119
 21
-361.2276549859381
 31
0.0
  0
LINE
  5
394
330
1E
100
AcDbEntity
  8
0
  6
Continuous
 62
     3
100
AcDbLine
 10
-868.025684658119
 20
-366.4276549859381
 30
0.0
 11
-868.025684658119
 21
-364.727654985938
 31
0.0
  0
LINE
  5
395
330
1E
100
AcDbEntity
  8
0
  6
Continuous
 62
     3
100
AcDbLine
 10
-868.025684658119
 20
-352.4276549859381
 30
0.0
 11
-868.025684658119
 21
-350.7276549859381
 31
0.0
  0
LINE
  5
396
330
1E
100
AcDbEntity
  8
0
  6
Continuous
 62
     3
100
AcDbLine
 10
-868.025684658119
 20
-347.2276549859381
 30
0.0
 11
-868.025684658119
 21
-348.9276549859381
 31
0.0
  0
LINE
  5
397
330
1E
100
AcDbEntity
  8
0
  6
Continuous
 62
     3
100
AcDbLine
 10
-868.025684658119
 20
-343.727654985938
 30
0.0
 11
-868.025684658119
 21
-345.4276549859381
 31
0.0
  0
LINE
  5
398
330
1E
100
AcDbEntity
  8
0
  6
Continuous
 62
     3
100
AcDbLine
 10
-868.025684658119
 20
-340.2276549859381
 30
0.0
 11
-868.025684658119
 21
-341.9276549859381
 31
0.0
  0
LINE
  5
399
330
1E
100
AcDbEntity
  8
0
  6
Continuous
 62
     3
100
AcDbLine
 10
-868.025684658119
 20
-336.7276549859381
 30
0.0
 11
-868.025684658119
 21
-338.4276549859381
 31
0.0
  0
LINE
  5
39A
330
1E
100
AcDbEntity
  8
0
  6
Continuous
 62
     3
100
AcDbLine
 10
-805.1256846581191
 20
-355.9276549859381
 30
0.0
 11
-806.925684658119
 21
-355.9276549859381
 31
0.0
  0
LINE
  5
39B
330
1E
100
AcDbEntity
  8
0
  6
Continuous
 62
     3
100
AcDbLine
 10
-806.925684658119
 20
-354.227654985938
 30
0.0
 11
-805.1256846581191
 21
-354.227654985938
 31
0.0
  0
LINE
  5
39C
330
1E
100
AcDbEntity
  8
0
  6
Continuous
 62
     3
100
AcDbLine
 10
-805.1256846581191
 20
-359.4276549859381
 30
0.0
 11
-806.925684658119
 21
-359.4276549859381
 31
0.0
  0
LINE
  5
39D
330
1E
100
AcDbEntity
  8
0
  6
Continuous
 62
     3
100
AcDbLine
 10
-805.1256846581191
 20
-362.9276549859381
 30
0.0
 11
-806.925684658119
 21
-362.9276549859381
 31
0.0
  0
LINE
  5
39E
330
1E
100
AcDbEntity
  8
0
  6
Continuous
 62
     3
100
AcDbLine
 10
-806.925684658119
 20
-361.2276549859381
 30
0.0
 11
-805.1256846581191
 21
-361.2276549859381
 31
0.0
  0
LINE
  5
39F
330
1E
100
AcDbEntity
  8
0
  6
Continuous
 62
     3
100
AcDbLine
 10
-805.1256846581191
 20
-352.4276549859381
 30
0.0
 11
-806.925684658119
 21
-352.4276549859381
 31
0.0
  0
LINE
  5
3A0
330
1E
100
AcDbEntity
  8
0
  6
Continuous
 62
     3
100
AcDbLine
 10
-806.925684658119
 20
-350.7276549859381
 30
0.0
 11
-805.1256846581191
 21
-350.7276549859381
 31
0.0
  0
LINE
  5
3A1
330
1E
100
AcDbEntity
  8
0
  6
Continuous
 62
     3
100
AcDbLine
 10
-806.925684658119
 20
-348.9276549859381
 30
0.0
 11
-805.1256846581191
 21
-348.9276549859381
 31
0.0
  0
LINE
  5
3A2
330
1E
100
AcDbEntity
  8
0
  6
Continuous
 62
     3
100
AcDbLine
 10
-805.1256846581191
 20
-347.2276549859381
 30
0.0
 11
-806.925684658119
 21
-347.2276549859381
 31
0.0
  0
LINE
  5
3A3
330
1E
100
AcDbEntity
  8
0
  6
Continuous
 62
     3
100
AcDbLine
 10
-805.1256846581191
 20
-343.727654985938
 30
0.0
 11
-806.925684658119
 21
-343.727654985938
 31
0.0
  0
LINE
  5
3A4
330
1E
100
AcDbEntity
  8
0
  6
Continuous
 62
     3
100
AcDbLine
 10
-806.925684658119
 20
-345.4276549859381
 30
0.0
 11
-805.1256846581191
 21
-345.4276549859381
 31
0.0
  0
LINE
  5
3A5
330
1E
100
AcDbEntity
  8
0
  6
Continuous
 62
     3
100
AcDbLine
 10
-805.1256846581191
 20
-340.2276549859381
 30
0.0
 11
-806.925684658119
 21
-340.2276549859381
 31
0.0
  0
LINE
  5
3A6
330
1E
100
AcDbEntity
  8
0
  6
Continuous
 62
     3
100
AcDbLine
 10
-806.925684658119
 20
-341.9276549859381
 30
0.0
 11
-805.1256846581191
 21
-341.9276549859381
 31
0.0
  0
LINE
  5
3A7
330
1E
100
AcDbEntity
  8
0
  6
Continuous
 62
     3
100
AcDbLine
 10
-805.1256846581191
 20
-336.7276549859381
 30
0.0
 11
-806.925684658119
 21
-336.7276549859381
 31
0.0
  0
LINE
  5
3A8
330
1E
100
AcDbEntity
  8
0
  6
Continuous
 62
     3
100
AcDbLine
 10
-806.925684658119
 20
-338.4276549859381
 30
0.0
 11
-805.1256846581191
 21
-338.4276549859381
 31
0.0
  0
LINE
  5
3A9
330
1E
100
AcDbEntity
  8
0
  6
Continuous
 62
     3
100
AcDbLine
 10
-805.1256846581191
 20
-373.4276549859381
 30
0.0
 11
-806.925684658119
 21
-373.4276549859381
 31
0.0
  0
LINE
  5
3AA
330
1E
100
AcDbEntity
  8
0
  6
Continuous
 62
     3
100
AcDbLine
 10
-806.925684658119
 20
-371.7276549859381
 30
0.0
 11
-805.1256846581191
 21
-371.7276549859381
 31
0.0
  0
LINE
  5
3AB
330
1E
100
AcDbEntity
  8
0
  6
Continuous
 62
     3
100
AcDbLine
 10
-805.1256846581191
 20
-369.9276549859381
 30
0.0
 11
-806.925684658119
 21
-369.9276549859381
 31
0.0
  0
LINE
  5
3AC
330
1E
100
AcDbEntity
  8
0
  6
Continuous
 62
     3
100
AcDbLine
 10
-805.1256846581191
 20
-366.4276549859381
 30
0.0
 11
-806.925684658119
 21
-366.4276549859381
 31
0.0
  0
LINE
  5
3AD
330
1E
100
AcDbEntity
  8
0
  6
Continuous
 62
     3
100
AcDbLine
 10
-806.925684658119
 20
-368.2276549859381
 30
0.0
 11
-805.1256846581191
 21
-368.2276549859381
 31
0.0
  0
LINE
  5
3AE
330
1E
100
AcDbEntity
  8
0
  6
Continuous
 62
     3
100
AcDbLine
 10
-806.925684658119
 20
-364.727654985938
 30
0.0
 11
-805.1256846581191
 21
-364.727654985938
 31
0.0
  0
LINE
  5
3AF
330
1E
100
AcDbEntity
  8
0
  6
Continuous
 62
     3
100
AcDbLine
 10
-806.925684658119
 20
-373.4276549859381
 30
0.0
 11
-806.925684658119
 21
-371.7276549859381
 31
0.0
  0
LINE
  5
3B0
330
1E
100
AcDbEntity
  8
0
  6
Continuous
 62
     3
100
AcDbLine
 10
-806.925684658119
 20
-369.9276549859381
 30
0.0
 11
-806.925684658119
 21
-368.2276549859381
 31
0.0
  0
LINE
  5
3B1
330
1E
100
AcDbEntity
  8
0
  6
Continuous
 62
     3
100
AcDbLine
 10
-806.925684658119
 20
-355.9276549859381
 30
0.0
 11
-806.925684658119
 21
-354.227654985938
 31
0.0
  0
LINE
  5
3B2
330
1E
100
AcDbEntity
  8
0
  6
Continuous
 62
     3
100
AcDbLine
 10
-806.925684658119
 20
-359.4276549859381
 30
0.0
 11
-806.925684658119
 21
-357.7276549859381
 31
0.0
  0
LINE
  5
3B3
330
1E
100
AcDbEntity
  8
0
  6
Continuous
 62
     3
100
AcDbLine
 10
-806.925684658119
 20
-362.9276549859381
 30
0.0
 11
-806.925684658119
 21
-361.2276549859381
 31
0.0
  0
LINE
  5
3B4
330
1E
100
AcDbEntity
  8
0
  6
Continuous
 62
     3
100
AcDbLine
 10
-806.925684658119
 20
-366.4276549859381
 30
0.0
 11
-806.925684658119
 21
-364.727654985938
 31
0.0
  0
LINE
  5
3B5
330
1E
100
AcDbEntity
  8
0
  6
Continuous
 62
     3
100
AcDbLine
 10
-806.925684658119
 20
-352.4276549859381
 30
0.0
 11
-806.925684658119
 21
-350.7276549859381
 31
0.0
  0
LINE
  5
3B6
330
1E
100
AcDbEntity
  8
0
  6
Continuous
 62
     3
100
AcDbLine
 10
-806.925684658119
 20
-347.2276549859381
 30
0.0
 11
-806.925684658119
 21
-348.9276549859381
 31
0.0
  0
LINE
  5
3B7
330
1E
100
AcDbEntity
  8
0
  6
Continuous
 62
     3
100
AcDbLine
 10
-806.925684658119
 20
-343.727654985938
 30
0.0
 11
-806.925684658119
 21
-345.4276549859381
 31
0.0
  0
LINE
  5
3B8
330
1E
100
AcDbEntity
  8
0
  6
Continuous
 62
     3
100
AcDbLine
 10
-806.925684658119
 20
-340.2276549859381
 30
0.0
 11
-806.925684658119
 21
-341.9276549859381
 31
0.0
  0
LINE
  5
3B9
330
1E
100
AcDbEntity
  8
0
  6
Continuous
 62
     3
100
AcDbLine
 10
-806.925684658119
 20
-336.7276549859381
 30
0.0
 11
-806.925684658119
 21
-338.4276549859381
 31
0.0
  0
LINE
  5
3BA
330
1E
100
AcDbEntity
  8
0
  6
Continuous
 62
     3
100
AcDbLine
 10
-869.8256846581191
 20
-333.227654985938
 30
0.0
 11
-868.025684658119
 21
-333.227654985938
 31
0.0
  0
LINE
  5
3BB
330
1E
100
AcDbEntity
  8
0
  6
Continuous
 62
     3
100
AcDbLine
 10
-868.025684658119
 20
-334.9276549859381
 30
0.0
 11
-869.8256846581191
 21
-334.9276549859381
 31
0.0
  0
LINE
  5
3BC
330
1E
100
AcDbEntity
  8
0
  6
Continuous
 62
     3
100
AcDbLine
 10
-869.8256846581191
 20
-329.7276549859381
 30
0.0
 11
-868.025684658119
 21
-329.7276549859381
 31
0.0
  0
LINE
  5
3BD
330
1E
100
AcDbEntity
  8
0
  6
Continuous
 62
     3
100
AcDbLine
 10
-868.025684658119
 20
-331.4276549859381
 30
0.0
 11
-869.8256846581191
 21
-331.4276549859381
 31
0.0
  0
LINE
  5
3BE
330
1E
100
AcDbEntity
  8
0
  6
Continuous
 62
     3
100
AcDbLine
 10
-868.025684658119
 20
-333.227654985938
 30
0.0
 11
-868.025684658119
 21
-334.9276549859381
 31
0.0
  0
LINE
  5
3BF
330
1E
100
AcDbEntity
  8
0
  6
Continuous
 62
     3
100
AcDbLine
 10
-868.025684658119
 20
-329.7276549859381
 30
0.0
 11
-868.025684658119
 21
-331.4276549859381
 31
0.0
  0
LINE
  5
3C0
330
1E
100
AcDbEntity
  8
0
  6
Continuous
 62
     3
100
AcDbLine
 10
-805.1256846581191
 20
-333.227654985938
 30
0.0
 11
-806.925684658119
 21
-333.227654985938
 31
0.0
  0
LINE
  5
3C1
330
1E
100
AcDbEntity
  8
0
  6
Continuous
 62
     3
100
AcDbLine
 10
-806.925684658119
 20
-334.9276549859381
 30
0.0
 11
-805.1256846581191
 21
-334.9276549859381
 31
0.0
  0
LINE
  5
3C2
330
1E
100
AcDbEntity
  8
0
  6
Continuous
 62
     3
100
AcDbLine
 10
-805.1256846581191
 20
-329.7276549859381
 30
0.0
 11
-806.925684658119
 21
-329.7276549859381
 31
0.0
  0
LINE
  5
3C3
330
1E
100
AcDbEntity
  8
0
  6
Continuous
 62
     3
100
AcDbLine
 10
-806.925684658119
 20
-331.4276549859381
 30
0.0
 11
-805.1256846581191
 21
-331.4276549859381
 31
0.0
  0
LINE
  5
3C4
330
1E
100
AcDbEntity
  8
0
  6
Continuous
 62
     3
100
AcDbLine
 10
-806.925684658119
 20
-333.227654985938
 30
0.0
 11
-806.925684658119
 21
-334.9276549859381
 31
0.0
  0
LINE
  5
3C5
330
1E
100
AcDbEntity
  8
0
  6
Continuous
 62
     3
100
AcDbLine
 10
-806.925684658119
 20
-329.7276549859381
 30
0.0
 11
-806.925684658119
 21
-331.4276549859381
 31
0.0
  0
ARC
  5
3C6
330
1E
100
AcDbEntity
  8
0
  6
Continuous
 62
     3
100
AcDbCircle
 10
-866.675684658119
 20
-329.9276549859381
 30
0.0
 40
0.5
100
AcDbArc
 50
90.0
 51
180.0
  0
ARC
  5
3C7
330
1E
100
AcDbEntity
  8
0
  6
Continuous
 62
     3
100
AcDbCircle
 10
-866.675684658119
 20
-373.2276549859381
 30
0.0
 40
0.5
100
AcDbArc
 50
180.0
 51
270.0
  0
LINE
  5
3C8
330
1E
100
AcDbEntity
  8
0
  6
Continuous
 62
     3
100
AcDbLine
 10
-867.1756846581191
 20
-329.9276549859381
 30
0.0
 11
-867.1756846581191
 21
-373.2276549859381
 31
0.0
  0
ARC
  5
3C9
330
1E
100
AcDbEntity
  8
0
  6
Continuous
 62
     3
100
AcDbCircle
 10
-808.275684658119
 20
-373.2276549859381
 30
0.0
 40
0.5
100
AcDbArc
 50
270.0
 51
0.0
  0
LINE
  5
3CA
330
1E
100
AcDbEntity
  8
0
  6
Continuous
 62
     3
100
AcDbLine
 10
-866.675684658119
 20
-373.7276549859381
 30
0.0
 11
-808.275684658119
 21
-373.7276549859381
 31
0.0
  0
LINE
  5
3CB
330
1E
100
AcDbEntity
  8
0
  6
Continuous
 62
     3
100
AcDbLine
 10
-807.7756846581191
 20
-334.4276549859381
 30
0.0
 11
-807.7756846581191
 21
-373.2276549859381
 31
0.0
  0
LINE
  5
3CC
330
1E
100
AcDbEntity
  8
0
  6
Continuous
 62
     3
100
AcDbLine
 10
-812.775684658119
 20
-329.4276549859381
 30
0.0
 11
-866.675684658119
 21
-329.4276549859381
 31
0.0
  0
LINE
  5
3CD
330
1E
100
AcDbEntity
  8
0
  6
Continuous
 62
     3
100
AcDbLine
 10
-807.7756846581191
 20
-334.4276549859381
 30
0.0
 11
-812.775684658119
 21
-329.4276549859381
 31
0.0
  0
LINE
  5
3CE
330
1E
100
AcDbEntity
  8
0
  6
Continuous
 62
     3
100
AcDbLine
 10
-791.9756846581191
 20
-361.1776549859381
 30
0.0
 11
-791.9756846581191
 21
-351.5776549859381
 31
0.0
  0
LINE
  5
3CF
330
1E
100
AcDbEntity
  8
0
  6
Continuous
 62
     3
100
AcDbLine
 10
-794.9756846581191
 20
-331.5276549859381
 30
0.0
 11
-794.9756846581191
 21
-332.5276549859381
 31
0.0
  0
LINE
  5
3D0
330
1E
100
AcDbEntity
  8
0
  6
Continuous
 62
     3
100
AcDbLine
 10
-794.9756846581191
 20
-332.5276549859381
 30
0.0
 11
-797.4756846581191
 21
-332.5276549859381
 31
0.0
  0
LINE
  5
3D1
330
1E
100
AcDbEntity
  8
0
  6
Continuous
 62
     3
100
AcDbLine
 10
-800.9756846581192
 20
-331.5276549859381
 30
0.0
 11
-800.9756846581192
 21
-333.0276549859381
 31
0.0
  0
LINE
  5
3D2
330
1E
100
AcDbEntity
  8
0
  6
Continuous
 62
     3
100
AcDbLine
 10
-799.9756846581191
 20
-331.5276549859381
 30
0.0
 11
-799.9756846581191
 21
-332.5276549859381
 31
0.0
  0
LINE
  5
3D3
330
1E
100
AcDbEntity
  8
0
  6
Continuous
 62
     3
100
AcDbLine
 10
-799.9756846581191
 20
-332.5276549859381
 30
0.0
 11
-797.4756846581191
 21
-332.5276549859381
 31
0.0
  0
LINE
  5
3D4
330
1E
100
AcDbEntity
  8
0
  6
Continuous
 62
     3
100
AcDbLine
 10
-794.9756846581191
 20
-371.6276549859381
 30
0.0
 11
-794.9756846581191
 21
-370.6276549859381
 31
0.0
  0
LINE
  5
3D5
330
1E
100
AcDbEntity
  8
0
  6
Continuous
 62
     3
100
AcDbLine
 10
-794.9756846581191
 20
-370.6276549859381
 30
0.0
 11
-797.4756846581191
 21
-370.6276549859381
 31
0.0
  0
LINE
  5
3D6
330
1E
100
AcDbEntity
  8
0
  6
Continuous
 62
     3
100
AcDbLine
 10
-799.9756846581191
 20
-371.6276549859381
 30
0.0
 11
-799.9756846581191
 21
-370.6276549859381
 31
0.0
  0
LINE
  5
3D7
330
1E
100
AcDbEntity
  8
0
  6
Continuous
 62
     3
100
AcDbLine
 10
-799.9756846581191
 20
-370.6276549859381
 30
0.0
 11
-797.4756846581191
 21
-370.6276549859381
 31
0.0
  0
POINT
  5
3D8
330
1E
100
AcDbEntity
  8
0
  6
Continuous
 62
     3
100
AcDbPoint
 10
-794.9756846581191
 20
-371.6276549859381
 30
0.0
  0
LINE
  5
3D9
330
1E
100
AcDbEntity
  8
0
  6
Continuous
 62
     3
100
AcDbLine
 10
-794.9756846581191
 20
-371.6276549859381
 30
0.0
 11
-794.9756846581191
 21
-370.6276549859381
 31
0.0
  0
LINE
  5
3DA
330
1E
100
AcDbEntity
  8
0
  6
Continuous
 62
     3
100
AcDbLine
 10
-794.9756846581191
 20
-370.6276549859381
 30
0.0
 11
-799.9756846581191
 21
-370.6276549859381
 31
0.0
  0
LINE
  5
3DB
330
1E
100
AcDbEntity
  8
0
  6
Continuous
 62
     3
100
AcDbLine
 10
-799.9756846581191
 20
-370.6276549859381
 30
0.0
 11
-799.9756846581191
 21
-371.6276549859381
 31
0.0
  0
LINE
  5
3DC
330
1E
100
AcDbEntity
  8
0
  6
Continuous
 62
     3
100
AcDbLine
 10
-799.9756846581191
 20
-371.6276549859381
 30
0.0
 11
-800.9756846581192
 21
-371.6276549859381
 31
0.0
  0
LINE
  5
3DD
330
1E
100
AcDbEntity
  8
0
  6
Continuous
 62
     3
100
AcDbLine
 10
-793.975684658119
 20
-371.6276549859381
 30
0.0
 11
-799.9756846581191
 21
-371.6276549859381
 31
0.0
  0
POINT
  5
3DE
330
1E
100
AcDbEntity
  8
0
  6
Continuous
 62
     3
100
AcDbPoint
 10
-794.9756846581191
 20
-331.5276549859381
 30
0.0
  0
LINE
  5
3DF
330
1E
100
AcDbEntity
  8
0
  6
Continuous
 62
     3
100
AcDbLine
 10
-794.9756846581191
 20
-331.5276549859381
 30
0.0
 11
-794.9756846581191
 21
-332.5276549859381
 31
0.0
  0
LINE
  5
3E0
330
1E
100
AcDbEntity
  8
0
  6
Continuous
 62
     3
100
AcDbLine
 10
-794.9756846581191
 20
-332.5276549859381
 30
0.0
 11
-799.9756846581191
 21
-332.5276549859381
 31
0.0
  0
LINE
  5
3E1
330
1E
100
AcDbEntity
  8
0
  6
Continuous
 62
     3
100
AcDbLine
 10
-799.9756846581191
 20
-332.5276549859381
 30
0.0
 11
-799.9756846581191
 21
-331.5276549859381
 31
0.0
  0
LINE
  5
3E2
330
1E
100
AcDbEntity
  8
0
  6
Continuous
 62
     3
100
AcDbLine
 10
-799.9756846581191
 20
-331.5276549859381
 30
0.0
 11
-800.9756846581192
 21
-331.5276549859381
 31
0.0
  0
LINE
  5
3E3
330
1E
100
AcDbEntity
  8
0
  6
Continuous
 62
     3
100
AcDbLine
 10
-793.975684658119
 20
-331.5276549859381
 30
0.0
 11
-799.9756846581191
 21
-331.5276549859381
 31
0.0
  0
LINE
  5
3E4
330
1E
100
AcDbEntity
  8
0
  6
Continuous
 62
     3
100
AcDbLine
 10
-800.9756846581192
 20
-331.5276549859381
 30
0.0
 11
-800.9756846581192
 21
-333.1276549859381
 31
0.0
  0
LINE
  5
3E5
330
1E
100
AcDbEntity
  8
0
  6
Continuous
 62
     3
100
AcDbLine
 10
-803.3256846581192
 20
-333.1276549859381
 30
0.0
 11
-800.9756846581192
 21
-333.1276549859381
 31
0.0
  0
LINE
  5
3E6
330
1E
100
AcDbEntity
  8
0
  6
Continuous
 62
     3
100
AcDbLine
 10
-793.4756846581191
 20
-341.477654985938
 30
0.0
 11
-792.9756846581191
 21
-341.477654985938
 31
0.0
  0
LINE
  5
3E7
330
1E
100
AcDbEntity
  8
0
  6
Continuous
 62
     3
100
AcDbLine
 10
-793.4756846581191
 20
-361.6776549859381
 30
0.0
 11
-792.9756846581191
 21
-361.6776549859381
 31
0.0
  0
LINE
  5
3E8
330
1E
100
AcDbEntity
  8
0
  6
Continuous
 62
     3
100
AcDbLine
 10
-806.925684658119
 20
-357.7276549859381
 30
0.0
 11
-805.1256846581191
 21
-357.7276549859381
 31
0.0
  0
LINE
  5
3E9
330
1E
100
AcDbEntity
  8
0
  6
Continuous
 62
     3
100
AcDbLine
 10
-808.1756846581191
 20
-373.3276549859381
 30
0.0
 11
-866.7756846581191
 21
-373.3276549829381
 31
0.0
  0
LINE
  5
3EA
330
1E
100
AcDbEntity
  8
0
  6
Continuous
 62
     3
100
AcDbLine
 10
-812.7756846551191
 20
-329.8276549859381
 30
0.0
 11
-866.775684655119
 21
-329.8276549829381
 31
0.0
  0
LINE
  5
3EB
330
1E
100
AcDbEntity
  8
0
  6
Continuous
 62
     3
100
AcDbLine
 10
-866.775684655119
 20
-329.8276549829381
 30
0.0
 11
-866.7756846581191
 21
-373.3276549829381
 31
0.0
  0
LINE
  5
3EC
330
1E
100
AcDbEntity
  8
0
  6
Continuous
 62
     3
100
AcDbLine
 10
-812.7756846551191
 20
-329.8276549859381
 30
0.0
 11
-808.1756846561191
 21
-334.4276549869381
 31
0.0
  0
LINE
  5
3ED
330
1E
100
AcDbEntity
  8
0
  6
Continuous
 62
     3
100
AcDbLine
 10
-808.1756846581191
 20
-373.3276549859381
 30
0.0
 11
-808.1756846561191
 21
-334.4276549869381
 31
0.0
  0
LINE
  5
3EE
330
1E
100
AcDbEntity
  8
0
  6
Continuous
 62
     3
100
AcDbLine
 10
-794.025684658119
 20
-369.7276549859381
 30
0.0
 11
-803.3256846581192
 21
-369.7276549859381
 31
0.0
  0
LINE
  5
3EF
330
1E
100
AcDbEntity
  8
0
  6
Continuous
 62
     3
100
AcDbLine
 10
-803.3256846581192
 20
-369.7276549859381
 30
0.0
 11
-803.3256846581192
 21
-333.4276549859381
 31
0.0
  0
LINE
  5
3F0
330
1E
100
AcDbEntity
  8
0
  6
Continuous
 62
     3
100
AcDbLine
 10
-803.3256846581192
 20
-333.4276549859381
 30
0.0
 11
-794.025684658119
 21
-333.4276549859381
 31
0.0
  0
LINE
  5
3F1
330
1E
100
AcDbEntity
  8
0
  6
Continuous
 62
     3
100
AcDbLine
 10
-794.025684658119
 20
-369.7276549859381
 30
0.0
 11
-793.425684658119
 21
-369.7276549859381
 31
0.0
  0
LINE
  5
3F2
330
1E
100
AcDbEntity
  8
0
  6
Continuous
 62
     3
100
AcDbLine
 10
-803.3256846581192
 20
-369.7276549859381
 30
0.0
 11
-802.1256846581191
 21
-369.7276549859381
 31
0.0
  0
LINE
  5
3F3
330
1E
100
AcDbEntity
  8
0
  6
Continuous
 62
     3
100
AcDbLine
 10
-793.425684658119
 20
-369.7276549859381
 30
0.0
 11
-793.425684658119
 21
-350.8276549859381
 31
0.0
  0
LINE
  5
3F4
330
1E
100
AcDbEntity
  8
0
  6
Continuous
 62
     3
100
AcDbLine
 10
-793.425684658119
 20
-334.9276549859381
 30
0.0
 11
-793.425684658119
 21
-333.4276549859381
 31
0.0
  0
LINE
  5
3F5
330
1E
100
AcDbEntity
  8
0
  6
Continuous
 62
     3
100
AcDbLine
 10
-793.425684658119
 20
-343.6276549859381
 30
0.0
 11
-793.425684658119
 21
-342.1276549859381
 31
0.0
  0
LINE
  5
3F6
330
1E
100
AcDbEntity
  8
0
  6
Continuous
 62
     3
100
AcDbLine
 10
-793.425684658119
 20
-333.4276549859381
 30
0.0
 11
-794.025684658119
 21
-333.4276549859381
 31
0.0
  0
LINE
  5
3F7
330
1E
100
AcDbEntity
  8
0
  6
Continuous
 62
     3
100
AcDbLine
 10
-801.8256846581191
 20
-364.6276549859381
 30
0.0
 11
-801.8256846581191
 21
-367.6276549859381
 31
0.0
  0
LINE
  5
3F8
330
1E
100
AcDbEntity
  8
0
  6
Continuous
 62
     3
100
AcDbLine
 10
-801.8256846581191
 20
-361.6276549859381
 30
0.0
 11
-801.8256846581191
 21
-365.1276549859381
 31
0.0
  0
CIRCLE
  5
3F9
330
1E
100
AcDbEntity
  8
0
  6
Continuous
 62
     3
100
AcDbCircle
 10
-798.8256846581191
 20
-364.6276549859381
 30
0.0
 40
2.9
  0
LINE
  5
3FA
330
1E
100
AcDbEntity
  8
0
  6
Continuous
 62
     3
100
AcDbLine
 10
-794.025684658119
 20
-369.7276549859381
 30
0.0
 11
-794.025684658119
 21
-333.4276549859381
 31
0.0
  0
LINE
  5
3FB
330
1E
100
AcDbEntity
  8
0
  6
Continuous
 62
     3
100
AcDbLine
 10
-803.3256846581192
 20
-369.7276549859381
 30
0.0
 11
-802.325684658119
 21
-369.7276549859381
 31
0.0
  0
LINE
  5
3FC
330
1E
100
AcDbEntity
  8
0
  6
Continuous
 62
     3
100
AcDbLine
 10
-793.425684658119
 20
-361.0276549859381
 30
0.0
 11
-802.325684658119
 21
-361.0276549859381
 31
0.0
  0
LINE
  5
3FD
330
1E
100
AcDbEntity
  8
0
  6
Continuous
 62
     3
100
AcDbLine
 10
-793.425684658119
 20
-359.5276549859381
 30
0.0
 11
-802.325684658119
 21
-359.5276549859381
 31
0.0
  0
LINE
  5
3FE
330
1E
100
AcDbEntity
  8
0
  6
Continuous
 62
     3
100
AcDbLine
 10
-793.425684658119
 20
-352.3276549859381
 30
0.0
 11
-802.325684658119
 21
-352.3276549859381
 31
0.0
  0
LINE
  5
3FF
330
1E
100
AcDbEntity
  8
0
  6
Continuous
 62
     3
100
AcDbLine
 10
-793.425684658119
 20
-350.8276549859381
 30
0.0
 11
-802.325684658119
 21
-350.8276549859381
 31
0.0
  0
LINE
  5
400
330
1E
100
AcDbEntity
  8
0
  6
Continuous
 62
     3
100
AcDbLine
 10
-793.425684658119
 20
-343.6276549859381
 30
0.0
 11
-802.325684658119
 21
-343.6276549859381
 31
0.0
  0
LINE
  5
401
330
1E
100
AcDbEntity
  8
0
  6
Continuous
 62
     3
100
AcDbLine
 10
-793.425684658119
 20
-342.1276549859381
 30
0.0
 11
-802.325684658119
 21
-342.1276549859381
 31
0.0
  0
LINE
  5
402
330
1E
100
AcDbEntity
  8
0
  6
Continuous
 62
     3
100
AcDbLine
 10
-793.425684658119
 20
-334.9276549859381
 30
0.0
 11
-802.325684658119
 21
-334.9276549859381
 31
0.0
  0
LINE
  5
403
330
1E
100
AcDbEntity
  8
0
  6
Continuous
 62
     3
100
AcDbLine
 10
-801.8256846581191
 20
-367.6276549859381
 30
0.0
 11
-795.3256846581191
 21
-367.6276549859381
 31
0.0
  0
LINE
  5
404
330
1E
100
AcDbEntity
  8
0
  6
Continuous
 62
     3
100
AcDbLine
 10
-795.3256846581191
 20
-361.6276549859381
 30
0.0
 11
-801.8256846581191
 21
-361.6276549859381
 31
0.0
  0
LINE
  5
405
330
1E
100
AcDbEntity
  8
0
  6
Continuous
 62
     3
100
AcDbLine
 10
-795.3256846581191
 20
-367.6276549859381
 30
0.0
 11
-795.3256846581191
 21
-361.6276549859381
 31
0.0
  0
LINE
  5
406
330
1E
100
AcDbEntity
  8
0
  6
Continuous
 62
     3
100
AcDbLine
 10
-793.425684658119
 20
-368.2276549859381
 30
0.0
 11
-802.325684658119
 21
-368.2276549859381
 31
0.0
  0
LINE
  5
407
330
1E
100
AcDbEntity
  8
0
  6
Continuous
 62
     3
100
AcDbLine
 10
-802.325684658119
 20
-368.2276549859381
 30
0.0
 11
-802.325684658119
 21
-334.9276549859381
 31
0.0
  0
CIRCLE
  5
408
330
1E
100
AcDbEntity
  8
0
  6
Continuous
 62
     3
100
AcDbCircle
 10
-798.8256846581191
 20
-364.6276549859381
 30
0.0
 40
2.9
  0
LINE
  5
409
330
1E
100
AcDbEntity
  8
0
  6
Continuous
 62
     3
100
AcDbLine
 10
-799.5327914401191
 20
-364.6276549859381
 30
0.0
 11
-800.5934516111191
 21
-365.6883151579382
 31
0.0
  0
LINE
  5
40A
330
1E
100
AcDbEntity
  8
0
  6
Continuous
 62
     3
100
AcDbLine
 10
-800.5934516111191
 20
-365.6883151579382
 30
0.0
 11
-799.8863448301191
 21
-366.3954219389381
 31
0.0
  0
LINE
  5
40B
330
1E
100
AcDbEntity
  8
0
  6
Continuous
 62
     3
100
AcDbLine
 10
-799.8863448301191
 20
-366.3954219389381
 30
0.0
 11
-798.8256846581191
 21
-365.3347617669381
 31
0.0
  0
LINE
  5
40C
330
1E
100
AcDbEntity
  8
0
  6
Continuous
 62
     3
100
AcDbLine
 10
-798.1185778771191
 20
-364.6276549859381
 30
0.0
 11
-797.057917705119
 21
-363.566994813938
 31
0.0
  0
LINE
  5
40D
330
1E
100
AcDbEntity
  8
0
  6
Continuous
 62
     3
100
AcDbLine
 10
-797.057917705119
 20
-363.566994813938
 30
0.0
 11
-797.7650244871191
 21
-362.8598880329381
 31
0.0
  0
LINE
  5
40E
330
1E
100
AcDbEntity
  8
0
  6
Continuous
 62
     3
100
AcDbLine
 10
-797.7650244871191
 20
-362.8598880329381
 30
0.0
 11
-798.8256846581191
 21
-363.9205482049381
 31
0.0
  0
LINE
  5
40F
330
1E
100
AcDbEntity
  8
0
  6
Continuous
 62
     3
100
AcDbLine
 10
-798.8256846581191
 20
-365.3347617669381
 30
0.0
 11
-797.1993390621191
 21
-366.9611073639381
 31
0.0
  0
LINE
  5
410
330
1E
100
AcDbEntity
  8
0
  6
Continuous
 62
     3
100
AcDbLine
 10
-801.1591370361191
 20
-363.0013093889381
 30
0.0
 11
-799.5327914401191
 21
-364.6276549859381
 31
0.0
  0
LINE
  5
411
330
1E
100
AcDbEntity
  8
0
  6
Continuous
 62
     3
100
AcDbLine
 10
-798.8256846581191
 20
-363.9205482049381
 30
0.0
 11
-800.452030255119
 21
-362.2942026079381
 31
0.0
  0
LINE
  5
412
330
1E
100
AcDbEntity
  8
0
  6
Continuous
 62
     3
100
AcDbLine
 10
-796.492232281119
 20
-366.2540005829381
 30
0.0
 11
-798.1185778771191
 21
-364.6276549859381
 31
0.0
  0
LINE
  5
413
330
1E
100
AcDbEntity
  8
0
  6
Continuous
 62
     3
100
AcDbLine
 10
-797.057917705119
 20
-365.6883151579382
 30
0.0
 11
-797.7650244871191
 21
-366.3954219389381
 31
0.0
  0
LINE
  5
414
330
1E
100
AcDbEntity
  8
0
  6
Continuous
 62
     3
100
AcDbLine
 10
-800.5934516111191
 20
-363.566994813938
 30
0.0
 11
-799.8863448301191
 21
-362.8598880329381
 31
0.0
  0
LINE
  5
415
330
1E
100
AcDbEntity
  8
0
  6
Continuous
 62
     3
100
AcDbLine
 10
-801.8256846581191
 20
-355.9276549859381
 30
0.0
 11
-801.8256846581191
 21
-358.9276549859381
 31
0.0
  0
LINE
  5
416
330
1E
100
AcDbEntity
  8
0
  6
Continuous
 62
     3
100
AcDbLine
 10
-801.8256846581191
 20
-352.9276549859381
 30
0.0
 11
-801.8256846581191
 21
-356.4276549859381
 31
0.0
  0
CIRCLE
  5
417
330
1E
100
AcDbEntity
  8
0
  6
Continuous
 62
     3
100
AcDbCircle
 10
-798.8256846581191
 20
-355.9276549859381
 30
0.0
 40
2.9
  0
LINE
  5
418
330
1E
100
AcDbEntity
  8
0
  6
Continuous
 62
     3
100
AcDbLine
 10
-801.8256846581191
 20
-358.9276549859381
 30
0.0
 11
-795.3256846581191
 21
-358.9276549859381
 31
0.0
  0
LINE
  5
419
330
1E
100
AcDbEntity
  8
0
  6
Continuous
 62
     3
100
AcDbLine
 10
-795.3256846581191
 20
-352.9276549859381
 30
0.0
 11
-801.8256846581191
 21
-352.9276549859381
 31
0.0
  0
LINE
  5
41A
330
1E
100
AcDbEntity
  8
0
  6
Continuous
 62
     3
100
AcDbLine
 10
-795.3256846581191
 20
-358.9276549859381
 30
0.0
 11
-795.3256846581191
 21
-352.9276549859381
 31
0.0
  0
CIRCLE
  5
41B
330
1E
100
AcDbEntity
  8
0
  6
Continuous
 62
     3
100
AcDbCircle
 10
-798.8256846581191
 20
-355.9276549859381
 30
0.0
 40
2.9
  0
LINE
  5
41C
330
1E
100
AcDbEntity
  8
0
  6
Continuous
 62
     3
100
AcDbLine
 10
-799.5327914401191
 20
-355.9276549859381
 30
0.0
 11
-800.5934516111191
 21
-356.9883151579381
 31
0.0
  0
LINE
  5
41D
330
1E
100
AcDbEntity
  8
0
  6
Continuous
 62
     3
100
AcDbLine
 10
-800.5934516111191
 20
-356.9883151579381
 30
0.0
 11
-799.8863448301191
 21
-357.6954219389381
 31
0.0
  0
LINE
  5
41E
330
1E
100
AcDbEntity
  8
0
  6
Continuous
 62
     3
100
AcDbLine
 10
-799.8863448301191
 20
-357.6954219389381
 30
0.0
 11
-798.8256846581191
 21
-356.6347617669381
 31
0.0
  0
LINE
  5
41F
330
1E
100
AcDbEntity
  8
0
  6
Continuous
 62
     3
100
AcDbLine
 10
-798.1185778771191
 20
-355.9276549859381
 30
0.0
 11
-797.057917705119
 21
-354.8669948139381
 31
0.0
  0
LINE
  5
420
330
1E
100
AcDbEntity
  8
0
  6
Continuous
 62
     3
100
AcDbLine
 10
-797.057917705119
 20
-354.8669948139381
 30
0.0
 11
-797.7650244871191
 21
-354.1598880329381
 31
0.0
  0
LINE
  5
421
330
1E
100
AcDbEntity
  8
0
  6
Continuous
 62
     3
100
AcDbLine
 10
-797.7650244871191
 20
-354.1598880329381
 30
0.0
 11
-798.8256846581191
 21
-355.2205482049381
 31
0.0
  0
LINE
  5
422
330
1E
100
AcDbEntity
  8
0
  6
Continuous
 62
     3
100
AcDbLine
 10
-798.8256846581191
 20
-356.6347617669381
 30
0.0
 11
-797.1993390621191
 21
-358.261107363938
 31
0.0
  0
LINE
  5
423
330
1E
100
AcDbEntity
  8
0
  6
Continuous
 62
     3
100
AcDbLine
 10
-801.1591370361191
 20
-354.3013093889381
 30
0.0
 11
-799.5327914401191
 21
-355.9276549859381
 31
0.0
  0
LINE
  5
424
330
1E
100
AcDbEntity
  8
0
  6
Continuous
 62
     3
100
AcDbLine
 10
-798.8256846581191
 20
-355.2205482049381
 30
0.0
 11
-800.452030255119
 21
-353.5942026079381
 31
0.0
  0
LINE
  5
425
330
1E
100
AcDbEntity
  8
0
  6
Continuous
 62
     3
100
AcDbLine
 10
-796.492232281119
 20
-357.5540005829381
 30
0.0
 11
-798.1185778771191
 21
-355.9276549859381
 31
0.0
  0
LINE
  5
426
330
1E
100
AcDbEntity
  8
0
  6
Continuous
 62
     3
100
AcDbLine
 10
-797.057917705119
 20
-356.9883151579381
 30
0.0
 11
-797.7650244871191
 21
-357.6954219389381
 31
0.0
  0
LINE
  5
427
330
1E
100
AcDbEntity
  8
0
  6
Continuous
 62
     3
100
AcDbLine
 10
-800.5934516111191
 20
-354.8669948139381
 30
0.0
 11
-799.8863448301191
 21
-354.1598880329381
 31
0.0
  0
LINE
  5
428
330
1E
100
AcDbEntity
  8
0
  6
Continuous
 62
     3
100
AcDbLine
 10
-801.8256846581191
 20
-347.2276549859381
 30
0.0
 11
-801.8256846581191
 21
-350.2276549859381
 31
0.0
  0
LINE
  5
429
330
1E
100
AcDbEntity
  8
0
  6
Continuous
 62
     3
100
AcDbLine
 10
-801.8256846581191
 20
-344.2276549859381
 30
0.0
 11
-801.8256846581191
 21
-347.727654985938
 31
0.0
  0
CIRCLE
  5
42A
330
1E
100
AcDbEntity
  8
0
  6
Continuous
 62
     3
100
AcDbCircle
 10
-798.8256846581191
 20
-347.2276549859381
 30
0.0
 40
2.9
  0
LINE
  5
42B
330
1E
100
AcDbEntity
  8
0
  6
Continuous
 62
     3
100
AcDbLine
 10
-801.8256846581191
 20
-350.2276549859381
 30
0.0
 11
-795.3256846581191
 21
-350.2276549859381
 31
0.0
  0
LINE
  5
42C
330
1E
100
AcDbEntity
  8
0
  6
Continuous
 62
     3
100
AcDbLine
 10
-795.3256846581191
 20
-344.2276549859381
 30
0.0
 11
-801.8256846581191
 21
-344.2276549859381
 31
0.0
  0
LINE
  5
42D
330
1E
100
AcDbEntity
  8
0
  6
Continuous
 62
     3
100
AcDbLine
 10
-795.3256846581191
 20
-350.2276549859381
 30
0.0
 11
-795.3256846581191
 21
-344.2276549859381
 31
0.0
  0
CIRCLE
  5
42E
330
1E
100
AcDbEntity
  8
0
  6
Continuous
 62
     3
100
AcDbCircle
 10
-798.8256846581191
 20
-347.2276549859381
 30
0.0
 40
2.9
  0
LINE
  5
42F
330
1E
100
AcDbEntity
  8
0
  6
Continuous
 62
     3
100
AcDbLine
 10
-799.5327914401191
 20
-347.2276549859381
 30
0.0
 11
-800.5934516111191
 21
-348.2883151579381
 31
0.0
  0
LINE
  5
430
330
1E
100
AcDbEntity
  8
0
  6
Continuous
 62
     3
100
AcDbLine
 10
-800.5934516111191
 20
-348.2883151579381
 30
0.0
 11
-799.8863448301191
 21
-348.9954219389381
 31
0.0
  0
LINE
  5
431
330
1E
100
AcDbEntity
  8
0
  6
Continuous
 62
     3
100
AcDbLine
 10
-799.8863448301191
 20
-348.9954219389381
 30
0.0
 11
-798.8256846581191
 21
-347.9347617669381
 31
0.0
  0
LINE
  5
432
330
1E
100
AcDbEntity
  8
0
  6
Continuous
 62
     3
100
AcDbLine
 10
-798.1185778771191
 20
-347.2276549859381
 30
0.0
 11
-797.057917705119
 21
-346.1669948139381
 31
0.0
  0
LINE
  5
433
330
1E
100
AcDbEntity
  8
0
  6
Continuous
 62
     3
100
AcDbLine
 10
-797.057917705119
 20
-346.1669948139381
 30
0.0
 11
-797.7650244871191
 21
-345.4598880329381
 31
0.0
  0
LINE
  5
434
330
1E
100
AcDbEntity
  8
0
  6
Continuous
 62
     3
100
AcDbLine
 10
-797.7650244871191
 20
-345.4598880329381
 30
0.0
 11
-798.8256846581191
 21
-346.520548204938
 31
0.0
  0
LINE
  5
435
330
1E
100
AcDbEntity
  8
0
  6
Continuous
 62
     3
100
AcDbLine
 10
-798.8256846581191
 20
-347.9347617669381
 30
0.0
 11
-797.1993390621191
 21
-349.5611073639381
 31
0.0
  0
LINE
  5
436
330
1E
100
AcDbEntity
  8
0
  6
Continuous
 62
     3
100
AcDbLine
 10
-801.1591370361191
 20
-345.6013093889381
 30
0.0
 11
-799.5327914401191
 21
-347.2276549859381
 31
0.0
  0
LINE
  5
437
330
1E
100
AcDbEntity
  8
0
  6
Continuous
 62
     3
100
AcDbLine
 10
-798.8256846581191
 20
-346.520548204938
 30
0.0
 11
-800.452030255119
 21
-344.8942026079381
 31
0.0
  0
LINE
  5
438
330
1E
100
AcDbEntity
  8
0
  6
Continuous
 62
     3
100
AcDbLine
 10
-796.492232281119
 20
-348.8540005829381
 30
0.0
 11
-798.1185778771191
 21
-347.2276549859381
 31
0.0
  0
LINE
  5
439
330
1E
100
AcDbEntity
  8
0
  6
Continuous
 62
     3
100
AcDbLine
 10
-797.057917705119
 20
-348.2883151579381
 30
0.0
 11
-797.7650244871191
 21
-348.9954219389381
 31
0.0
  0
LINE
  5
43A
330
1E
100
AcDbEntity
  8
0
  6
Continuous
 62
     3
100
AcDbLine
 10
-800.5934516111191
 20
-346.1669948139381
 30
0.0
 11
-799.8863448301191
 21
-345.4598880329381
 31
0.0
  0
LINE
  5
43B
330
1E
100
AcDbEntity
  8
0
  6
Continuous
 62
     3
100
AcDbLine
 10
-801.8256846581191
 20
-338.5276549859381
 30
0.0
 11
-801.8256846581191
 21
-341.5276549859381
 31
0.0
  0
LINE
  5
43C
330
1E
100
AcDbEntity
  8
0
  6
Continuous
 62
     3
100
AcDbLine
 10
-801.8256846581191
 20
-335.5276549859381
 30
0.0
 11
-801.8256846581191
 21
-339.0276549859381
 31
0.0
  0
CIRCLE
  5
43D
330
1E
100
AcDbEntity
  8
0
  6
Continuous
 62
     3
100
AcDbCircle
 10
-798.8256846581191
 20
-338.5276549859381
 30
0.0
 40
2.9
  0
LINE
  5
43E
330
1E
100
AcDbEntity
  8
0
  6
Continuous
 62
     3
100
AcDbLine
 10
-801.8256846581191
 20
-341.5276549859381
 30
0.0
 11
-795.3256846581191
 21
-341.5276549859381
 31
0.0
  0
LINE
  5
43F
330
1E
100
AcDbEntity
  8
0
  6
Continuous
 62
     3
100
AcDbLine
 10
-795.3256846581191
 20
-335.5276549859381
 30
0.0
 11
-801.8256846581191
 21
-335.5276549859381
 31
0.0
  0
LINE
  5
440
330
1E
100
AcDbEntity
  8
0
  6
Continuous
 62
     3
100
AcDbLine
 10
-795.3256846581191
 20
-341.5276549859381
 30
0.0
 11
-795.3256846581191
 21
-335.5276549859381
 31
0.0
  0
CIRCLE
  5
441
330
1E
100
AcDbEntity
  8
0
  6
Continuous
 62
     3
100
AcDbCircle
 10
-798.8256846581191
 20
-338.5276549859381
 30
0.0
 40
2.9
  0
LINE
  5
442
330
1E
100
AcDbEntity
  8
0
  6
Continuous
 62
     3
100
AcDbLine
 10
-799.5327914401191
 20
-338.5276549859381
 30
0.0
 11
-800.5934516111191
 21
-339.5883151579381
 31
0.0
  0
LINE
  5
443
330
1E
100
AcDbEntity
  8
0
  6
Continuous
 62
     3
100
AcDbLine
 10
-800.5934516111191
 20
-339.5883151579381
 30
0.0
 11
-799.8863448301191
 21
-340.2954219389381
 31
0.0
  0
LINE
  5
444
330
1E
100
AcDbEntity
  8
0
  6
Continuous
 62
     3
100
AcDbLine
 10
-799.8863448301191
 20
-340.2954219389381
 30
0.0
 11
-798.8256846581191
 21
-339.234761766938
 31
0.0
  0
LINE
  5
445
330
1E
100
AcDbEntity
  8
0
  6
Continuous
 62
     3
100
AcDbLine
 10
-798.1185778771191
 20
-338.5276549859381
 30
0.0
 11
-797.057917705119
 21
-337.4669948139381
 31
0.0
  0
LINE
  5
446
330
1E
100
AcDbEntity
  8
0
  6
Continuous
 62
     3
100
AcDbLine
 10
-797.057917705119
 20
-337.4669948139381
 30
0.0
 11
-797.7650244871191
 21
-336.7598880329381
 31
0.0
  0
LINE
  5
447
330
1E
100
AcDbEntity
  8
0
  6
Continuous
 62
     3
100
AcDbLine
 10
-797.7650244871191
 20
-336.7598880329381
 30
0.0
 11
-798.8256846581191
 21
-337.8205482049381
 31
0.0
  0
LINE
  5
448
330
1E
100
AcDbEntity
  8
0
  6
Continuous
 62
     3
100
AcDbLine
 10
-798.8256846581191
 20
-339.234761766938
 30
0.0
 11
-797.1993390621191
 21
-340.8611073639381
 31
0.0
  0
LINE
  5
449
330
1E
100
AcDbEntity
  8
0
  6
Continuous
 62
     3
100
AcDbLine
 10
-801.1591370361191
 20
-336.901309388938
 30
0.0
 11
-799.5327914401191
 21
-338.5276549859381
 31
0.0
  0
LINE
  5
44A
330
1E
100
AcDbEntity
  8
0
  6
Continuous
 62
     3
100
AcDbLine
 10
-798.8256846581191
 20
-337.8205482049381
 30
0.0
 11
-800.452030255119
 21
-336.1942026079381
 31
0.0
  0
LINE
  5
44B
330
1E
100
AcDbEntity
  8
0
  6
Continuous
 62
     3
100
AcDbLine
 10
-796.492232281119
 20
-340.1540005829381
 30
0.0
 11
-798.1185778771191
 21
-338.5276549859381
 31
0.0
  0
LINE
  5
44C
330
1E
100
AcDbEntity
  8
0
  6
Continuous
 62
     3
100
AcDbLine
 10
-797.057917705119
 20
-339.5883151579381
 30
0.0
 11
-797.7650244871191
 21
-340.2954219389381
 31
0.0
  0
LINE
  5
44D
330
1E
100
AcDbEntity
  8
0
  6
Continuous
 62
     3
100
AcDbLine
 10
-800.5934516111191
 20
-337.4669948139381
 30
0.0
 11
-799.8863448301191
 21
-336.7598880329381
 31
0.0
  0
LINE
  5
44E
330
1E
100
AcDbEntity
  8
0
  6
LTYPE1
 62
     3
100
AcDbLine
 10
-802.8256846581191
 20
-369.7276549859381
 30
0.0
 11
-802.8256846581191
 21
-333.4276549859381
 31
0.0
  0
LINE
  5
44F
330
1E
100
AcDbEntity
  8
0
  6
LTYPE1
 62
     3
100
AcDbLine
 10
-794.025684658119
 20
-333.4276549859381
 30
0.0
 11
-793.025684658119
 21
-333.4276549859381
 31
0.0
  0
LINE
  5
450
330
1E
100
AcDbEntity
  8
0
  6
LTYPE1
 62
     3
100
AcDbLine
 10
-793.025684658119
 20
-333.4276549859381
 30
0.0
 11
-793.025684658119
 21
-369.7276549859381
 31
0.0
  0
LINE
  5
451
330
1E
100
AcDbEntity
  8
0
  6
LTYPE1
 62
     3
100
AcDbLine
 10
-793.025684658119
 20
-369.7276549859381
 30
0.0
 11
-802.8256846581191
 21
-369.7276549859381
 31
0.0
  0
POINT
  5
452
330
1E
100
AcDbEntity
  8
0
  6
Continuous
 62
     3
100
AcDbPoint
 10
-879.9756846581191
 20
-331.5276549859381
 30
0.0
  0
LINE
  5
453
330
1E
100
AcDbEntity
  8
0
  6
Continuous
 62
     3
100
AcDbLine
 10
-879.9756846581191
 20
-331.5276549859381
 30
0.0
 11
-879.9756846581191
 21
-332.5276549859381
 31
0.0
  0
LINE
  5
454
330
1E
100
AcDbEntity
  8
0
  6
Continuous
 62
     3
100
AcDbLine
 10
-879.9756846581191
 20
-332.5276549859381
 30
0.0
 11
-874.975684658119
 21
-332.5276549859381
 31
0.0
  0
LINE
  5
455
330
1E
100
AcDbEntity
  8
0
  6
Continuous
 62
     3
100
AcDbLine
 10
-874.975684658119
 20
-332.5276549859381
 30
0.0
 11
-874.975684658119
 21
-331.5276549859381
 31
0.0
  0
LINE
  5
456
330
1E
100
AcDbEntity
  8
0
  6
Continuous
 62
     3
100
AcDbLine
 10
-874.975684658119
 20
-331.5276549859381
 30
0.0
 11
-873.975684658119
 21
-331.5276549859381
 31
0.0
  0
POINT
  5
457
330
1E
100
AcDbEntity
  8
0
  6
Continuous
 62
     3
100
AcDbPoint
 10
-879.9756846581191
 20
-371.6276549859381
 30
0.0
  0
LINE
  5
458
330
1E
100
AcDbEntity
  8
0
  6
Continuous
 62
     3
100
AcDbLine
 10
-879.9756846581191
 20
-371.6276549859381
 30
0.0
 11
-879.9756846581191
 21
-370.6276549859381
 31
0.0
  0
LINE
  5
459
330
1E
100
AcDbEntity
  8
0
  6
Continuous
 62
     3
100
AcDbLine
 10
-879.9756846581191
 20
-370.6276549859381
 30
0.0
 11
-874.975684658119
 21
-370.6276549859381
 31
0.0
  0
LINE
  5
45A
330
1E
100
AcDbEntity
  8
0
  6
Continuous
 62
     3
100
AcDbLine
 10
-874.975684658119
 20
-370.6276549859381
 30
0.0
 11
-874.975684658119
 21
-371.6276549859381
 31
0.0
  0
LINE
  5
45B
330
1E
100
AcDbEntity
  8
0
  6
Continuous
 62
     3
100
AcDbLine
 10
-874.975684658119
 20
-371.6276549859381
 30
0.0
 11
-873.975684658119
 21
-371.6276549859381
 31
0.0
  0
LINE
  5
45C
330
1E
100
AcDbEntity
  8
0
  6
Continuous
 62
     3
100
AcDbLine
 10
-880.9756846581191
 20
-371.6276549859381
 30
0.0
 11
-874.975684658119
 21
-371.6276549859381
 31
0.0
  0
LINE
  5
45D
330
1E
100
AcDbEntity
  8
0
  6
Continuous
 62
     3
100
AcDbLine
 10
-873.975684658119
 20
-371.6276549859381
 30
0.0
 11
-873.975684658119
 21
-370.0276549859381
 31
0.0
  0
LINE
  5
45E
330
1E
100
AcDbEntity
  8
0
  6
Continuous
 62
     3
100
AcDbLine
 10
-881.4756846581191
 20
-361.6776549859381
 30
0.0
 11
-881.975684658119
 21
-361.6776549859381
 31
0.0
  0
LINE
  5
45F
330
1E
100
AcDbEntity
  8
0
  6
Continuous
 62
     3
100
AcDbLine
 10
-881.4756846581191
 20
-341.477654985938
 30
0.0
 11
-881.975684658119
 21
-341.477654985938
 31
0.0
  0
LINE
  5
460
330
1E
100
AcDbEntity
  8
0
  6
Continuous
 62
     3
100
AcDbLine
 10
-880.925684658119
 20
-333.4276549859381
 30
0.0
 11
-871.625684658119
 21
-333.4276549859381
 31
0.0
  0
LINE
  5
461
330
1E
100
AcDbEntity
  8
0
  6
Continuous
 62
     3
100
AcDbLine
 10
-871.625684658119
 20
-333.4276549859381
 30
0.0
 11
-871.625684658119
 21
-369.7276549859381
 31
0.0
  0
LINE
  5
462
330
1E
100
AcDbEntity
  8
0
  6
Continuous
 62
     3
100
AcDbLine
 10
-871.625684658119
 20
-369.7276549859381
 30
0.0
 11
-880.925684658119
 21
-369.7276549859381
 31
0.0
  0
LINE
  5
463
330
1E
100
AcDbEntity
  8
0
  6
Continuous
 62
     3
100
AcDbLine
 10
-880.925684658119
 20
-333.4276549859381
 30
0.0
 11
-881.525684658119
 21
-333.4276549859381
 31
0.0
  0
LINE
  5
464
330
1E
100
AcDbEntity
  8
0
  6
Continuous
 62
     3
100
AcDbLine
 10
-871.625684658119
 20
-333.4276549859381
 30
0.0
 11
-872.825684658119
 21
-333.4276549859381
 31
0.0
  0
LINE
  5
465
330
1E
100
AcDbEntity
  8
0
  6
Continuous
 62
     3
100
AcDbLine
 10
-881.525684658119
 20
-333.4276549859381
 30
0.0
 11
-881.525684658119
 21
-352.3276549859381
 31
0.0
  0
LINE
  5
466
330
1E
100
AcDbEntity
  8
0
  6
Continuous
 62
     3
100
AcDbLine
 10
-881.525684658119
 20
-368.2276549859381
 30
0.0
 11
-881.525684658119
 21
-369.7276549859381
 31
0.0
  0
LINE
  5
467
330
1E
100
AcDbEntity
  8
0
  6
Continuous
 62
     3
100
AcDbLine
 10
-881.525684658119
 20
-359.5276549859381
 30
0.0
 11
-881.525684658119
 21
-361.0276549859381
 31
0.0
  0
LINE
  5
468
330
1E
100
AcDbEntity
  8
0
  6
Continuous
 62
     3
100
AcDbLine
 10
-881.525684658119
 20
-369.7276549859381
 30
0.0
 11
-880.925684658119
 21
-369.7276549859381
 31
0.0
  0
LINE
  5
469
330
1E
100
AcDbEntity
  8
0
  6
Continuous
 62
     3
100
AcDbLine
 10
-873.1256846581191
 20
-338.5276549859381
 30
0.0
 11
-873.1256846581191
 21
-335.5276549859381
 31
0.0
  0
LINE
  5
46A
330
1E
100
AcDbEntity
  8
0
  6
Continuous
 62
     3
100
AcDbLine
 10
-873.1256846581191
 20
-341.5276549859381
 30
0.0
 11
-873.1256846581191
 21
-338.0276549859381
 31
0.0
  0
CIRCLE
  5
46B
330
1E
100
AcDbEntity
  8
0
  6
Continuous
 62
     3
100
AcDbCircle
 10
-876.125684658119
 20
-338.5276549859381
 30
0.0
 40
2.9
  0
LINE
  5
46C
330
1E
100
AcDbEntity
  8
0
  6
Continuous
 62
     3
100
AcDbLine
 10
-880.925684658119
 20
-333.4276549859381
 30
0.0
 11
-880.925684658119
 21
-369.7276549859381
 31
0.0
  0
LINE
  5
46D
330
1E
100
AcDbEntity
  8
0
  6
Continuous
 62
     3
100
AcDbLine
 10
-871.625684658119
 20
-333.4276549859381
 30
0.0
 11
-872.6256846581192
 21
-333.4276549859381
 31
0.0
  0
LINE
  5
46E
330
1E
100
AcDbEntity
  8
0
  6
Continuous
 62
     3
100
AcDbLine
 10
-881.525684658119
 20
-342.1276549859381
 30
0.0
 11
-872.6256846581192
 21
-342.1276549859381
 31
0.0
  0
LINE
  5
46F
330
1E
100
AcDbEntity
  8
0
  6
Continuous
 62
     3
100
AcDbLine
 10
-881.525684658119
 20
-343.6276549859381
 30
0.0
 11
-872.6256846581192
 21
-343.6276549859381
 31
0.0
  0
LINE
  5
470
330
1E
100
AcDbEntity
  8
0
  6
Continuous
 62
     3
100
AcDbLine
 10
-881.525684658119
 20
-350.8276549859381
 30
0.0
 11
-872.6256846581192
 21
-350.8276549859381
 31
0.0
  0
LINE
  5
471
330
1E
100
AcDbEntity
  8
0
  6
Continuous
 62
     3
100
AcDbLine
 10
-881.525684658119
 20
-352.3276549859381
 30
0.0
 11
-872.6256846581192
 21
-352.3276549859381
 31
0.0
  0
LINE
  5
472
330
1E
100
AcDbEntity
  8
0
  6
Continuous
 62
     3
100
AcDbLine
 10
-881.525684658119
 20
-359.5276549859381
 30
0.0
 11
-872.6256846581192
 21
-359.5276549859381
 31
0.0
  0
LINE
  5
473
330
1E
100
AcDbEntity
  8
0
  6
Continuous
 62
     3
100
AcDbLine
 10
-881.525684658119
 20
-361.0276549859381
 30
0.0
 11
-872.6256846581192
 21
-361.0276549859381
 31
0.0
  0
LINE
  5
474
330
1E
100
AcDbEntity
  8
0
  6
Continuous
 62
     3
100
AcDbLine
 10
-881.525684658119
 20
-368.2276549859381
 30
0.0
 11
-872.6256846581192
 21
-368.2276549859381
 31
0.0
  0
LINE
  5
475
330
1E
100
AcDbEntity
  8
0
  6
Continuous
 62
     3
100
AcDbLine
 10
-873.1256846581191
 20
-335.5276549859381
 30
0.0
 11
-879.625684658119
 21
-335.5276549859381
 31
0.0
  0
LINE
  5
476
330
1E
100
AcDbEntity
  8
0
  6
Continuous
 62
     3
100
AcDbLine
 10
-879.625684658119
 20
-341.5276549859381
 30
0.0
 11
-873.1256846581191
 21
-341.5276549859381
 31
0.0
  0
LINE
  5
477
330
1E
100
AcDbEntity
  8
0
  6
Continuous
 62
     3
100
AcDbLine
 10
-879.625684658119
 20
-335.5276549859381
 30
0.0
 11
-879.625684658119
 21
-341.5276549859381
 31
0.0
  0
LINE
  5
478
330
1E
100
AcDbEntity
  8
0
  6
Continuous
 62
     3
100
AcDbLine
 10
-881.525684658119
 20
-334.9276549859381
 30
0.0
 11
-872.6256846581192
 21
-334.9276549859381
 31
0.0
  0
LINE
  5
479
330
1E
100
AcDbEntity
  8
0
  6
Continuous
 62
     3
100
AcDbLine
 10
-872.6256846581192
 20
-334.9276549859381
 30
0.0
 11
-872.6256846581192
 21
-368.2276549859381
 31
0.0
  0
CIRCLE
  5
47A
330
1E
100
AcDbEntity
  8
0
  6
Continuous
 62
     3
100
AcDbCircle
 10
-876.125684658119
 20
-338.5276549859381
 30
0.0
 40
2.9
  0
LINE
  5
47B
330
1E
100
AcDbEntity
  8
0
  6
Continuous
 62
     3
100
AcDbLine
 10
-875.4185778771191
 20
-338.5276549859381
 30
0.0
 11
-874.3579177051191
 21
-337.4669948139381
 31
0.0
  0
LINE
  5
47C
330
1E
100
AcDbEntity
  8
0
  6
Continuous
 62
     3
100
AcDbLine
 10
-874.3579177051191
 20
-337.4669948139381
 30
0.0
 11
-875.0650244871192
 21
-336.7598880329381
 31
0.0
  0
LINE
  5
47D
330
1E
100
AcDbEntity
  8
0
  6
Continuous
 62
     3
100
AcDbLine
 10
-875.0650244871192
 20
-336.7598880329381
 30
0.0
 11
-876.125684658119
 21
-337.8205482049381
 31
0.0
  0
LINE
  5
47E
330
1E
100
AcDbEntity
  8
0
  6
Continuous
 62
     3
100
AcDbLine
 10
-876.832791440119
 20
-338.5276549859381
 30
0.0
 11
-877.893451611119
 21
-339.5883151579381
 31
0.0
  0
LINE
  5
47F
330
1E
100
AcDbEntity
  8
0
  6
Continuous
 62
     3
100
AcDbLine
 10
-877.893451611119
 20
-339.5883151579381
 30
0.0
 11
-877.1863448301191
 21
-340.2954219389381
 31
0.0
  0
LINE
  5
480
330
1E
100
AcDbEntity
  8
0
  6
Continuous
 62
     3
100
AcDbLine
 10
-877.1863448301191
 20
-340.2954219389381
 30
0.0
 11
-876.125684658119
 21
-339.234761766938
 31
0.0
  0
LINE
  5
481
330
1E
100
AcDbEntity
  8
0
  6
Continuous
 62
     3
100
AcDbLine
 10
-876.125684658119
 20
-337.8205482049381
 30
0.0
 11
-877.752030255119
 21
-336.1942026079381
 31
0.0
  0
LINE
  5
482
330
1E
100
AcDbEntity
  8
0
  6
Continuous
 62
     3
100
AcDbLine
 10
-873.7922322811192
 20
-340.1540005829381
 30
0.0
 11
-875.4185778771191
 21
-338.5276549859381
 31
0.0
  0
LINE
  5
483
330
1E
100
AcDbEntity
  8
0
  6
Continuous
 62
     3
100
AcDbLine
 10
-876.125684658119
 20
-339.234761766938
 30
0.0
 11
-874.4993390621191
 21
-340.8611073639381
 31
0.0
  0
LINE
  5
484
330
1E
100
AcDbEntity
  8
0
  6
Continuous
 62
     3
100
AcDbLine
 10
-878.4591370361191
 20
-336.901309388938
 30
0.0
 11
-876.832791440119
 21
-338.5276549859381
 31
0.0
  0
LINE
  5
485
330
1E
100
AcDbEntity
  8
0
  6
Continuous
 62
     3
100
AcDbLine
 10
-877.893451611119
 20
-337.4669948139381
 30
0.0
 11
-877.1863448301191
 21
-336.7598880329381
 31
0.0
  0
LINE
  5
486
330
1E
100
AcDbEntity
  8
0
  6
Continuous
 62
     3
100
AcDbLine
 10
-874.3579177051191
 20
-339.5883151579381
 30
0.0
 11
-875.0650244871192
 21
-340.2954219389381
 31
0.0
  0
LINE
  5
487
330
1E
100
AcDbEntity
  8
0
  6
Continuous
 62
     3
100
AcDbLine
 10
-873.1256846581191
 20
-347.2276549859381
 30
0.0
 11
-873.1256846581191
 21
-344.2276549859381
 31
0.0
  0
LINE
  5
488
330
1E
100
AcDbEntity
  8
0
  6
Continuous
 62
     3
100
AcDbLine
 10
-873.1256846581191
 20
-350.2276549859381
 30
0.0
 11
-873.1256846581191
 21
-346.7276549859381
 31
0.0
  0
CIRCLE
  5
489
330
1E
100
AcDbEntity
  8
0
  6
Continuous
 62
     3
100
AcDbCircle
 10
-876.125684658119
 20
-347.2276549859381
 30
0.0
 40
2.9
  0
LINE
  5
48A
330
1E
100
AcDbEntity
  8
0
  6
Continuous
 62
     3
100
AcDbLine
 10
-873.1256846581191
 20
-344.2276549859381
 30
0.0
 11
-879.625684658119
 21
-344.2276549859381
 31
0.0
  0
LINE
  5
48B
330
1E
100
AcDbEntity
  8
0
  6
Continuous
 62
     3
100
AcDbLine
 10
-879.625684658119
 20
-350.2276549859381
 30
0.0
 11
-873.1256846581191
 21
-350.2276549859381
 31
0.0
  0
LINE
  5
48C
330
1E
100
AcDbEntity
  8
0
  6
Continuous
 62
     3
100
AcDbLine
 10
-879.625684658119
 20
-344.2276549859381
 30
0.0
 11
-879.625684658119
 21
-350.2276549859381
 31
0.0
  0
CIRCLE
  5
48D
330
1E
100
AcDbEntity
  8
0
  6
Continuous
 62
     3
100
AcDbCircle
 10
-876.125684658119
 20
-347.2276549859381
 30
0.0
 40
2.9
  0
LINE
  5
48E
330
1E
100
AcDbEntity
  8
0
  6
Continuous
 62
     3
100
AcDbLine
 10
-875.4185778771191
 20
-347.2276549859381
 30
0.0
 11
-874.3579177051191
 21
-346.1669948139381
 31
0.0
  0
LINE
  5
48F
330
1E
100
AcDbEntity
  8
0
  6
Continuous
 62
     3
100
AcDbLine
 10
-874.3579177051191
 20
-346.1669948139381
 30
0.0
 11
-875.0650244871192
 21
-345.4598880329381
 31
0.0
  0
LINE
  5
490
330
1E
100
AcDbEntity
  8
0
  6
Continuous
 62
     3
100
AcDbLine
 10
-875.0650244871192
 20
-345.4598880329381
 30
0.0
 11
-876.125684658119
 21
-346.520548204938
 31
0.0
  0
LINE
  5
491
330
1E
100
AcDbEntity
  8
0
  6
Continuous
 62
     3
100
AcDbLine
 10
-876.832791440119
 20
-347.2276549859381
 30
0.0
 11
-877.893451611119
 21
-348.2883151579381
 31
0.0
  0
LINE
  5
492
330
1E
100
AcDbEntity
  8
0
  6
Continuous
 62
     3
100
AcDbLine
 10
-877.893451611119
 20
-348.2883151579381
 30
0.0
 11
-877.1863448301191
 21
-348.9954219389381
 31
0.0
  0
LINE
  5
493
330
1E
100
AcDbEntity
  8
0
  6
Continuous
 62
     3
100
AcDbLine
 10
-877.1863448301191
 20
-348.9954219389381
 30
0.0
 11
-876.125684658119
 21
-347.9347617669381
 31
0.0
  0
LINE
  5
494
330
1E
100
AcDbEntity
  8
0
  6
Continuous
 62
     3
100
AcDbLine
 10
-876.125684658119
 20
-346.520548204938
 30
0.0
 11
-877.752030255119
 21
-344.8942026079381
 31
0.0
  0
LINE
  5
495
330
1E
100
AcDbEntity
  8
0
  6
Continuous
 62
     3
100
AcDbLine
 10
-873.7922322811192
 20
-348.8540005829381
 30
0.0
 11
-875.4185778771191
 21
-347.2276549859381
 31
0.0
  0
LINE
  5
496
330
1E
100
AcDbEntity
  8
0
  6
Continuous
 62
     3
100
AcDbLine
 10
-876.125684658119
 20
-347.9347617669381
 30
0.0
 11
-874.4993390621191
 21
-349.5611073639381
 31
0.0
  0
LINE
  5
497
330
1E
100
AcDbEntity
  8
0
  6
Continuous
 62
     3
100
AcDbLine
 10
-878.4591370361191
 20
-345.6013093889381
 30
0.0
 11
-876.832791440119
 21
-347.2276549859381
 31
0.0
  0
LINE
  5
498
330
1E
100
AcDbEntity
  8
0
  6
Continuous
 62
     3
100
AcDbLine
 10
-877.893451611119
 20
-346.1669948139381
 30
0.0
 11
-877.1863448301191
 21
-345.4598880329381
 31
0.0
  0
LINE
  5
499
330
1E
100
AcDbEntity
  8
0
  6
Continuous
 62
     3
100
AcDbLine
 10
-874.3579177051191
 20
-348.2883151579381
 30
0.0
 11
-875.0650244871192
 21
-348.9954219389381
 31
0.0
  0
LINE
  5
49A
330
1E
100
AcDbEntity
  8
0
  6
Continuous
 62
     3
100
AcDbLine
 10
-873.1256846581191
 20
-355.9276549859381
 30
0.0
 11
-873.1256846581191
 21
-352.9276549859381
 31
0.0
  0
LINE
  5
49B
330
1E
100
AcDbEntity
  8
0
  6
Continuous
 62
     3
100
AcDbLine
 10
-873.1256846581191
 20
-358.9276549859381
 30
0.0
 11
-873.1256846581191
 21
-355.4276549859381
 31
0.0
  0
CIRCLE
  5
49C
330
1E
100
AcDbEntity
  8
0
  6
Continuous
 62
     3
100
AcDbCircle
 10
-876.125684658119
 20
-355.9276549859381
 30
0.0
 40
2.9
  0
LINE
  5
49D
330
1E
100
AcDbEntity
  8
0
  6
Continuous
 62
     3
100
AcDbLine
 10
-873.1256846581191
 20
-352.9276549859381
 30
0.0
 11
-879.625684658119
 21
-352.9276549859381
 31
0.0
  0
LINE
  5
49E
330
1E
100
AcDbEntity
  8
0
  6
Continuous
 62
     3
100
AcDbLine
 10
-879.625684658119
 20
-358.9276549859381
 30
0.0
 11
-873.1256846581191
 21
-358.9276549859381
 31
0.0
  0
LINE
  5
49F
330
1E
100
AcDbEntity
  8
0
  6
Continuous
 62
     3
100
AcDbLine
 10
-879.625684658119
 20
-352.9276549859381
 30
0.0
 11
-879.625684658119
 21
-358.9276549859381
 31
0.0
  0
CIRCLE
  5
4A0
330
1E
100
AcDbEntity
  8
0
  6
Continuous
 62
     3
100
AcDbCircle
 10
-876.125684658119
 20
-355.9276549859381
 30
0.0
 40
2.9
  0
LINE
  5
4A1
330
1E
100
AcDbEntity
  8
0
  6
Continuous
 62
     3
100
AcDbLine
 10
-875.4185778771191
 20
-355.9276549859381
 30
0.0
 11
-874.3579177051191
 21
-354.8669948139381
 31
0.0
  0
LINE
  5
4A2
330
1E
100
AcDbEntity
  8
0
  6
Continuous
 62
     3
100
AcDbLine
 10
-874.3579177051191
 20
-354.8669948139381
 30
0.0
 11
-875.0650244871192
 21
-354.1598880329381
 31
0.0
  0
LINE
  5
4A3
330
1E
100
AcDbEntity
  8
0
  6
Continuous
 62
     3
100
AcDbLine
 10
-875.0650244871192
 20
-354.1598880329381
 30
0.0
 11
-876.125684658119
 21
-355.2205482049381
 31
0.0
  0
LINE
  5
4A4
330
1E
100
AcDbEntity
  8
0
  6
Continuous
 62
     3
100
AcDbLine
 10
-876.832791440119
 20
-355.9276549859381
 30
0.0
 11
-877.893451611119
 21
-356.9883151579381
 31
0.0
  0
LINE
  5
4A5
330
1E
100
AcDbEntity
  8
0
  6
Continuous
 62
     3
100
AcDbLine
 10
-877.893451611119
 20
-356.9883151579381
 30
0.0
 11
-877.1863448301191
 21
-357.6954219389381
 31
0.0
  0
LINE
  5
4A6
330
1E
100
AcDbEntity
  8
0
  6
Continuous
 62
     3
100
AcDbLine
 10
-877.1863448301191
 20
-357.6954219389381
 30
0.0
 11
-876.125684658119
 21
-356.6347617669381
 31
0.0
  0
LINE
  5
4A7
330
1E
100
AcDbEntity
  8
0
  6
Continuous
 62
     3
100
AcDbLine
 10
-876.125684658119
 20
-355.2205482049381
 30
0.0
 11
-877.752030255119
 21
-353.5942026079381
 31
0.0
  0
LINE
  5
4A8
330
1E
100
AcDbEntity
  8
0
  6
Continuous
 62
     3
100
AcDbLine
 10
-873.7922322811192
 20
-357.5540005829381
 30
0.0
 11
-875.4185778771191
 21
-355.9276549859381
 31
0.0
  0
LINE
  5
4A9
330
1E
100
AcDbEntity
  8
0
  6
Continuous
 62
     3
100
AcDbLine
 10
-876.125684658119
 20
-356.6347617669381
 30
0.0
 11
-874.4993390621191
 21
-358.261107363938
 31
0.0
  0
LINE
  5
4AA
330
1E
100
AcDbEntity
  8
0
  6
Continuous
 62
     3
100
AcDbLine
 10
-878.4591370361191
 20
-354.3013093889381
 30
0.0
 11
-876.832791440119
 21
-355.9276549859381
 31
0.0
  0
LINE
  5
4AB
330
1E
100
AcDbEntity
  8
0
  6
Continuous
 62
     3
100
AcDbLine
 10
-877.893451611119
 20
-354.8669948139381
 30
0.0
 11
-877.1863448301191
 21
-354.1598880329381
 31
0.0
  0
LINE
  5
4AC
330
1E
100
AcDbEntity
  8
0
  6
Continuous
 62
     3
100
AcDbLine
 10
-874.3579177051191
 20
-356.9883151579381
 30
0.0
 11
-875.0650244871192
 21
-357.6954219389381
 31
0.0
  0
LINE
  5
4AD
330
1E
100
AcDbEntity
  8
0
  6
Continuous
 62
     3
100
AcDbLine
 10
-873.1256846581191
 20
-364.6276549859381
 30
0.0
 11
-873.1256846581191
 21
-361.6276549859381
 31
0.0
  0
LINE
  5
4AE
330
1E
100
AcDbEntity
  8
0
  6
Continuous
 62
     3
100
AcDbLine
 10
-873.1256846581191
 20
-367.6276549859381
 30
0.0
 11
-873.1256846581191
 21
-364.1276549859381
 31
0.0
  0
CIRCLE
  5
4AF
330
1E
100
AcDbEntity
  8
0
  6
Continuous
 62
     3
100
AcDbCircle
 10
-876.125684658119
 20
-364.6276549859381
 30
0.0
 40
2.9
  0
LINE
  5
4B0
330
1E
100
AcDbEntity
  8
0
  6
Continuous
 62
     3
100
AcDbLine
 10
-873.1256846581191
 20
-361.6276549859381
 30
0.0
 11
-879.625684658119
 21
-361.6276549859381
 31
0.0
  0
LINE
  5
4B1
330
1E
100
AcDbEntity
  8
0
  6
Continuous
 62
     3
100
AcDbLine
 10
-879.625684658119
 20
-367.6276549859381
 30
0.0
 11
-873.1256846581191
 21
-367.6276549859381
 31
0.0
  0
LINE
  5
4B2
330
1E
100
AcDbEntity
  8
0
  6
Continuous
 62
     3
100
AcDbLine
 10
-879.625684658119
 20
-361.6276549859381
 30
0.0
 11
-879.625684658119
 21
-367.6276549859381
 31
0.0
  0
CIRCLE
  5
4B3
330
1E
100
AcDbEntity
  8
0
  6
Continuous
 62
     3
100
AcDbCircle
 10
-876.125684658119
 20
-364.6276549859381
 30
0.0
 40
2.9
  0
LINE
  5
4B4
330
1E
100
AcDbEntity
  8
0
  6
Continuous
 62
     3
100
AcDbLine
 10
-875.4185778771191
 20
-364.6276549859381
 30
0.0
 11
-874.3579177051191
 21
-363.566994813938
 31
0.0
  0
LINE
  5
4B5
330
1E
100
AcDbEntity
  8
0
  6
Continuous
 62
     3
100
AcDbLine
 10
-874.3579177051191
 20
-363.566994813938
 30
0.0
 11
-875.0650244871192
 21
-362.8598880329381
 31
0.0
  0
LINE
  5
4B6
330
1E
100
AcDbEntity
  8
0
  6
Continuous
 62
     3
100
AcDbLine
 10
-875.0650244871192
 20
-362.8598880329381
 30
0.0
 11
-876.125684658119
 21
-363.9205482049381
 31
0.0
  0
LINE
  5
4B7
330
1E
100
AcDbEntity
  8
0
  6
Continuous
 62
     3
100
AcDbLine
 10
-876.832791440119
 20
-364.6276549859381
 30
0.0
 11
-877.893451611119
 21
-365.6883151579382
 31
0.0
  0
LINE
  5
4B8
330
1E
100
AcDbEntity
  8
0
  6
Continuous
 62
     3
100
AcDbLine
 10
-877.893451611119
 20
-365.6883151579382
 30
0.0
 11
-877.1863448301191
 21
-366.3954219389381
 31
0.0
  0
LINE
  5
4B9
330
1E
100
AcDbEntity
  8
0
  6
Continuous
 62
     3
100
AcDbLine
 10
-877.1863448301191
 20
-366.3954219389381
 30
0.0
 11
-876.125684658119
 21
-365.3347617669381
 31
0.0
  0
LINE
  5
4BA
330
1E
100
AcDbEntity
  8
0
  6
Continuous
 62
     3
100
AcDbLine
 10
-876.125684658119
 20
-363.9205482049381
 30
0.0
 11
-877.752030255119
 21
-362.2942026079381
 31
0.0
  0
LINE
  5
4BB
330
1E
100
AcDbEntity
  8
0
  6
Continuous
 62
     3
100
AcDbLine
 10
-873.7922322811192
 20
-366.2540005829381
 30
0.0
 11
-875.4185778771191
 21
-364.6276549859381
 31
0.0
  0
LINE
  5
4BC
330
1E
100
AcDbEntity
  8
0
  6
Continuous
 62
     3
100
AcDbLine
 10
-876.125684658119
 20
-365.3347617669381
 30
0.0
 11
-874.4993390621191
 21
-366.9611073639381
 31
0.0
  0
LINE
  5
4BD
330
1E
100
AcDbEntity
  8
0
  6
Continuous
 62
     3
100
AcDbLine
 10
-878.4591370361191
 20
-363.0013093889381
 30
0.0
 11
-876.832791440119
 21
-364.6276549859381
 31
0.0
  0
LINE
  5
4BE
330
1E
100
AcDbEntity
  8
0
  6
Continuous
 62
     3
100
AcDbLine
 10
-877.893451611119
 20
-363.566994813938
 30
0.0
 11
-877.1863448301191
 21
-362.8598880329381
 31
0.0
  0
LINE
  5
4BF
330
1E
100
AcDbEntity
  8
0
  6
Continuous
 62
     3
100
AcDbLine
 10
-874.3579177051191
 20
-365.6883151579382
 30
0.0
 11
-875.0650244871192
 21
-366.3954219389381
 31
0.0
  0
LINE
  5
4C0
330
1E
100
AcDbEntity
  8
0
  6
LTYPE1
 62
     3
100
AcDbLine
 10
-872.1256846581191
 20
-333.4276549859381
 30
0.0
 11
-872.1256846581191
 21
-369.7276549859381
 31
0.0
  0
LINE
  5
4C1
330
1E
100
AcDbEntity
  8
0
  6
LTYPE1
 62
     3
100
AcDbLine
 10
-880.925684658119
 20
-369.7276549859381
 30
0.0
 11
-881.925684658119
 21
-369.7276549859381
 31
0.0
  0
LINE
  5
4C2
330
1E
100
AcDbEntity
  8
0
  6
LTYPE1
 62
     3
100
AcDbLine
 10
-881.925684658119
 20
-369.7276549859381
 30
0.0
 11
-881.925684658119
 21
-333.4276549859381
 31
0.0
  0
LINE
  5
4C3
330
1E
100
AcDbEntity
  8
0
  6
LTYPE1
 62
     3
100
AcDbLine
 10
-881.925684658119
 20
-333.4276549859381
 30
0.0
 11
-872.1256846581191
 21
-333.4276549859381
 31
0.0
  0
LINE
  5
4C4
330
1E
100
AcDbEntity
  8
0
  6
Continuous
 62
     5
100
AcDbLine
 10
-805.2356846591191
 20
-327.0776549869381
 30
0.0
 11
-805.2356846591191
 21
-321.5776549869381
 31
0.0
  0
LINE
  5
4C5
330
1E
100
AcDbEntity
  8
0
  6
Continuous
 62
     5
100
AcDbLine
 10
-870.0356846591191
 20
-327.0776511749382
 30
0.0
 11
-870.0356846591191
 21
-321.5776549889381
 31
0.0
  0
LINE
  5
4C6
330
1E
100
AcDbEntity
  8
0
  6
Continuous
 62
     5
100
AcDbLine
 10
-805.2356846591191
 20
-322.5776549869381
 30
0.0
 11
-807.1675363111191
 21
-323.095293076938
 31
0.0
  0
LINE
  5
4C7
330
1E
100
AcDbEntity
  8
0
  6
Continuous
 62
     5
100
AcDbLine
 10
-805.2356846591191
 20
-322.5776549869381
 30
0.0
 11
-807.1675363111191
 21
-322.0600168969381
 31
0.0
  0
LINE
  5
4C8
330
1E
100
AcDbEntity
  8
0
  6
Continuous
 62
     5
100
AcDbLine
 10
-805.2356846591191
 20
-322.5776549869381
 30
0.0
 11
-870.0356846591191
 21
-322.577654988938
 31
0.0
  0
LINE
  5
4C9
330
1E
100
AcDbEntity
  8
0
  6
Continuous
 62
     5
100
AcDbLine
 10
-870.0356846591191
 20
-322.577654988938
 30
0.0
 11
-868.1038330061191
 21
-322.0600168989381
 31
0.0
  0
LINE
  5
4CA
330
1E
100
AcDbEntity
  8
0
  6
Continuous
 62
     5
100
AcDbLine
 10
-870.0356846591191
 20
-322.577654988938
 30
0.0
 11
-868.1038330061191
 21
-323.095293078938
 31
0.0
  0
LINE
  5
4CB
330
1E
100
AcDbEntity
  8
0
  6
Continuous
 62
     5
100
AcDbLine
 10
-790.635684659119
 20
-382.5776549859381
 30
0.0
 11
-792.567536311119
 21
-382.0600168959381
 31
0.0
  0
LINE
  5
4CC
330
1E
100
AcDbEntity
  8
0
  6
Continuous
 62
     5
100
AcDbLine
 10
-790.635684659119
 20
-382.5776549859381
 30
0.0
 11
-792.567536311119
 21
-383.095293075938
 31
0.0
  0
LINE
  5
4CD
330
1E
100
AcDbEntity
  8
0
  6
Continuous
 62
     5
100
AcDbLine
 10
-790.635684659119
 20
-382.5776549859381
 30
0.0
 11
-884.635684659119
 21
-382.577654981938
 31
0.0
  0
LINE
  5
4CE
330
1E
100
AcDbEntity
  8
0
  6
Continuous
 62
     5
100
AcDbLine
 10
-884.635684659119
 20
-382.577654981938
 30
0.0
 11
-882.703833006119
 21
-383.0952930729381
 31
0.0
  0
LINE
  5
4CF
330
1E
100
AcDbEntity
  8
0
  6
Continuous
 62
     5
100
AcDbLine
 10
-884.635684659119
 20
-382.577654981938
 30
0.0
 11
-882.703833006119
 21
-382.0600168919381
 31
0.0
  0
LINE
  5
4D0
330
1E
100
AcDbEntity
  8
0
  6
Continuous
 62
     5
100
AcDbLine
 10
-790.635684658119
 20
-376.5776549859381
 30
0.0
 11
-790.635684659119
 21
-383.5776549859381
 31
0.0
  0
LINE
  5
4D1
330
1E
100
AcDbEntity
  8
0
  6
Continuous
 62
     5
100
AcDbLine
 10
-884.6356846581191
 20
-376.5776549819381
 30
0.0
 11
-884.635684659119
 21
-389.5776549819381
 31
0.0
  0
LINE
  5
4D2
330
1E
100
AcDbEntity
  8
0
  6
Continuous
 62
     5
100
AcDbLine
 10
-884.635684659119
 20
-388.5776549819381
 30
0.0
 11
-882.703833006119
 21
-389.0952930729381
 31
0.0
  0
LINE
  5
4D3
330
1E
100
AcDbEntity
  8
0
  6
Continuous
 62
     5
100
AcDbLine
 10
-884.635684659119
 20
-388.5776549819381
 30
0.0
 11
-882.703833006119
 21
-388.0600168919381
 31
0.0
  0
LINE
  5
4D4
330
1E
100
AcDbEntity
  8
0
  6
Continuous
 62
     5
100
AcDbLine
 10
-884.635684659119
 20
-388.5776549819381
 30
0.0
 11
-788.050684659119
 21
-388.5776549859381
 31
0.0
  0
LINE
  5
4D5
330
1E
100
AcDbEntity
  8
0
  6
Continuous
 62
     5
100
AcDbLine
 10
-788.050684659119
 20
-388.5776549859381
 30
0.0
 11
-789.9825363121191
 21
-388.0600168959381
 31
0.0
  0
LINE
  5
4D6
330
1E
100
AcDbEntity
  8
0
  6
Continuous
 62
     5
100
AcDbLine
 10
-788.050684659119
 20
-388.5776549859381
 30
0.0
 11
-789.9825363121191
 21
-389.0952930759381
 31
0.0
  0
LINE
  5
4D7
330
1E
100
AcDbEntity
  8
0
  6
Continuous
 62
     5
100
AcDbLine
 10
-788.050684659119
 20
-389.5776549859381
 30
0.0
 11
-788.050684659119
 21
-361.5776549859381
 31
0.0
  0
ARC
  5
4D8
330
1E
100
AcDbEntity
  8
0
  6
Continuous
 62
     1
100
AcDbCircle
 10
-789.050684659119
 20
-360.5776549859381
 30
0.0
 40
1.0
100
AcDbArc
 50
270.0
 51
0.0
  0
LINE
  5
4D9
330
1E
100
AcDbEntity
  8
0
  6
Continuous
 62
     1
100
AcDbLine
 10
-789.050684659119
 20
-361.5776549859381
 30
0.0
 11
-790.635684659119
 21
-361.5776549859381
 31
0.0
  0
LINE
  5
4DA
330
1E
100
AcDbEntity
  8
0
  6
Continuous
 62
     1
100
AcDbLine
 10
-788.050684660119
 20
-342.5776549859381
 30
0.0
 11
-788.050684659119
 21
-360.5776549859381
 31
0.0
  0
ARC
  5
4DB
330
1E
100
AcDbEntity
  8
0
  6
Continuous
 62
     1
100
AcDbCircle
 10
-789.050684660119
 20
-342.5776549859381
 30
0.0
 40
1.0
100
AcDbArc
 50
0.0
 51
90.0
  0
LINE
  5
4DC
330
1E
100
AcDbEntity
  8
0
  6
Continuous
 62
     1
100
AcDbLine
 10
-790.635684660119
 20
-341.5776549859381
 30
0.0
 11
-789.050684660119
 21
-341.5776549859381
 31
0.0
  0
LINE
  5
4DD
330
1E
100
AcDbEntity
  8
0
  6
Continuous
 62
     1
100
AcDbLine
 10
-790.635684661119
 20
-328.5776549859381
 30
0.0
 11
-790.635684658119
 21
-374.5776549859381
 31
0.0
  0
LINE
  5
4DE
330
1E
100
AcDbEntity
  8
0
  6
Continuous
 62
     5
100
AcDbLine
 10
-788.050684659119
 20
-389.5776549859381
 30
0.0
 11
-788.050684659119
 21
-361.5776549859381
 31
0.0
  0
LINE
  5
4DF
330
1E
100
AcDbEntity
  8
0
  6
Continuous
 62
     1
100
AcDbLine
 10
-805.4256846581191
 20
-327.5776549859381
 30
0.0
 11
-791.6356846581191
 21
-327.5776549859381
 31
0.0
  0
LINE
  5
4E0
330
1E
100
AcDbEntity
  8
0
  6
Continuous
 62
     1
100
AcDbLine
 10
-790.635684658119
 20
-328.5776549859381
 30
0.0
 11
-790.635684658119
 21
-374.5776549859381
 31
0.0
  0
ARC
  5
4E1
330
1E
100
AcDbEntity
  8
0
  6
Continuous
 62
     1
100
AcDbCircle
 10
-791.6356846581191
 20
-328.5776549859381
 30
0.0
 40
1.0
100
AcDbArc
 50
0.0
 51
90.0
  0
LINE
  5
4E2
330
1E
100
AcDbEntity
  8
0
  6
Continuous
 62
     1
100
AcDbLine
 10
-868.8256846581191
 20
-327.5776549859381
 30
0.0
 11
-806.1256846581191
 21
-327.5776549859381
 31
0.0
  0
ARC
  5
4E3
330
1E
100
AcDbEntity
  8
0
  6
Continuous
 62
     1
100
AcDbCircle
 10
-806.1256846581191
 20
-328.5776549859381
 30
0.0
 40
1.0
100
AcDbArc
 50
0.0
 51
89.99999999899999
  0
LINE
  5
4E4
330
1E
100
AcDbEntity
  8
0
  6
Continuous
 62
     1
100
AcDbLine
 10
-805.1256846581191
 20
-374.5776549859381
 30
0.0
 11
-805.1256846581191
 21
-328.5776549859381
 31
0.0
  0
LINE
  5
4E5
330
1E
100
AcDbEntity
  8
0
  6
Continuous
 62
     1
100
AcDbLine
 10
-791.6356846581191
 20
-375.5776549859381
 30
0.0
 11
-805.525684658119
 21
-375.5776549859381
 31
0.0
  0
ARC
  5
4E6
330
1E
100
AcDbEntity
  8
0
  6
Continuous
 62
     1
100
AcDbCircle
 10
-791.6356846581191
 20
-374.5776549859381
 30
0.0
 40
1.0
100
AcDbArc
 50
270.0
 51
0.0
  0
LINE
  5
4E7
330
1E
100
AcDbEntity
  8
0
  6
Continuous
 62
     1
100
AcDbLine
 10
-806.1256846581191
 20
-375.5776549859381
 30
0.0
 11
-868.8256846581191
 21
-375.5776549859381
 31
0.0
  0
ARC
  5
4E8
330
1E
100
AcDbEntity
  8
0
  6
Continuous
 62
     1
100
AcDbCircle
 10
-806.1256846581191
 20
-374.5776549859381
 30
0.0
 40
1.0
100
AcDbArc
 50
270.0
 51
0.000000001
  0
LINE
  5
4E9
330
1E
100
AcDbEntity
  8
0
  6
Continuous
 62
     1
100
AcDbLine
 10
-869.5256846581191
 20
-375.5776549859381
 30
0.0
 11
-883.3156846581191
 21
-375.5776549859381
 31
0.0
  0
LINE
  5
4EA
330
1E
100
AcDbEntity
  8
0
  6
Continuous
 62
     1
100
AcDbLine
 10
-869.8256846581191
 20
-374.5776549859381
 30
0.0
 11
-869.8256846581191
 21
-328.5776549859381
 31
0.0
  0
ARC
  5
4EB
330
1E
100
AcDbEntity
  8
0
  6
Continuous
 62
     1
100
AcDbCircle
 10
-868.8256846581191
 20
-374.5776549859381
 30
0.0
 40
1.0
100
AcDbArc
 50
180.0
 51
270.0
  0
LINE
  5
4EC
330
1E
100
AcDbEntity
  8
0
  6
Continuous
 62
     1
100
AcDbLine
 10
-884.3156846581191
 20
-374.5776549859381
 30
0.0
 11
-884.3156846581191
 21
-328.5776549859381
 31
0.0
  0
ARC
  5
4ED
330
1E
100
AcDbEntity
  8
0
  6
Continuous
 62
     1
100
AcDbCircle
 10
-883.3156846581191
 20
-374.5776549859381
 30
0.0
 40
1.0
100
AcDbArc
 50
180.0
 51
270.0
  0
LINE
  5
4EE
330
1E
100
AcDbEntity
  8
0
  6
Continuous
 62
     1
100
AcDbLine
 10
-883.3156846581191
 20
-327.5776549859381
 30
0.0
 11
-869.425684658119
 21
-327.5776549859381
 31
0.0
  0
ARC
  5
4EF
330
1E
100
AcDbEntity
  8
0
  6
Continuous
 62
     1
100
AcDbCircle
 10
-883.3156846581191
 20
-328.5776549859381
 30
0.0
 40
1.0
100
AcDbArc
 50
90.0
 51
180.0
  0
ARC
  5
4F0
330
1E
100
AcDbEntity
  8
0
  6
Continuous
 62
     1
100
AcDbCircle
 10
-868.8256846581191
 20
-328.5776549859381
 30
0.0
 40
1.0
100
AcDbArc
 50
90.0
 51
180.0
  0
LINE
  5
4F1
330
1E
100
AcDbEntity
  8
0
  6
Continuous
 62
     1
100
AcDbLine
 10
-797.4756846581191
 20
-331.5276549859381
 30
0.0
 11
-800.9756846581192
 21
-331.5276549859381
 31
0.0
  0
LINE
  5
4F2
330
1E
100
AcDbEntity
  8
0
  6
Continuous
 62
     1
100
AcDbLine
 10
-805.1256846581191
 20
-331.5276549859381
 30
0.0
 11
-800.9756846581192
 21
-331.5276549859381
 31
0.0
  0
LINE
  5
4F3
330
1E
100
AcDbEntity
  8
0
  6
Continuous
 62
     1
100
AcDbLine
 10
-797.4756846581191
 20
-331.5276549859381
 30
0.0
 11
-793.975684658119
 21
-331.5276549859381
 31
0.0
  0
LINE
  5
4F4
330
1E
100
AcDbEntity
  8
0
  6
Continuous
 62
     1
100
AcDbLine
 10
-791.9756846581191
 20
-371.1276549859381
 30
0.0
 11
-791.9756846581191
 21
-332.0276549859381
 31
0.0
  0
ARC
  5
4F5
330
1E
100
AcDbEntity
  8
0
  6
Continuous
 62
     1
100
AcDbCircle
 10
-792.4756846581191
 20
-332.0276549859381
 30
0.0
 40
0.5
100
AcDbArc
 50
0.0
 51
90.0
  0
LINE
  5
4F6
330
1E
100
AcDbEntity
  8
0
  6
Continuous
 62
     1
100
AcDbLine
 10
-792.4756846581191
 20
-331.5276549859381
 30
0.0
 11
-794.294684658119
 21
-331.5276549859381
 31
0.0
  0
LINE
  5
4F7
330
1E
100
AcDbEntity
  8
0
  6
Continuous
 62
     1
100
AcDbLine
 10
-793.975684658119
 20
-371.6276549859381
 30
0.0
 11
-792.4756846581191
 21
-371.6276549859381
 31
0.0
  0
ARC
  5
4F8
330
1E
100
AcDbEntity
  8
0
  6
Continuous
 62
     1
100
AcDbCircle
 10
-792.4756846581191
 20
-371.1276549859381
 30
0.0
 40
0.5
100
AcDbArc
 50
270.0
 51
0.0
  0
LINE
  5
4F9
330
1E
100
AcDbEntity
  8
0
  6
Continuous
 62
     1
100
AcDbLine
 10
-797.4756846581191
 20
-371.6276549859381
 30
0.0
 11
-793.975684658119
 21
-371.6276549859381
 31
0.0
  0
LINE
  5
4FA
330
1E
100
AcDbEntity
  8
0
  6
Continuous
 62
     1
100
AcDbLine
 10
-797.4756846581191
 20
-371.6276549859381
 30
0.0
 11
-800.9756846581192
 21
-371.6276549859381
 31
0.0
  0
LINE
  5
4FB
330
1E
100
AcDbEntity
  8
0
  6
Continuous
 62
     1
100
AcDbLine
 10
-800.9756846581192
 20
-371.6276549859381
 30
0.0
 11
-800.9756846581192
 21
-370.1276549859381
 31
0.0
  0
LINE
  5
4FC
330
1E
100
AcDbEntity
  8
0
  6
Continuous
 62
     1
100
AcDbLine
 10
-800.9756846581192
 20
-371.6276549859381
 30
0.0
 11
-805.1256846581191
 21
-371.6276549859381
 31
0.0
  0
LINE
  5
4FD
330
1E
100
AcDbEntity
  8
0
  6
Continuous
 62
     1
100
AcDbLine
 10
-803.3256846581192
 20
-370.0276549859381
 30
0.0
 11
-800.9756846581192
 21
-370.0276549859381
 31
0.0
  0
LINE
  5
4FE
330
1E
100
AcDbEntity
  8
0
  6
Continuous
 62
     1
100
AcDbLine
 10
-800.9756846581192
 20
-371.6276549859381
 30
0.0
 11
-800.9756846581192
 21
-370.0276549859381
 31
0.0
  0
LINE
  5
4FF
330
1E
100
AcDbEntity
  8
0
  6
Continuous
 62
     1
100
AcDbLine
 10
-803.3256846581192
 20
-333.1276549859381
 30
0.0
 11
-803.3256846581192
 21
-370.0276549859381
 31
0.0
  0
LINE
  5
500
330
1E
100
AcDbEntity
  8
0
  6
Continuous
 62
     1
100
AcDbLine
 10
-873.975684658119
 20
-331.5276549859381
 30
0.0
 11
-869.8256846581191
 21
-331.5276549859381
 31
0.0
  0
LINE
  5
501
330
1E
100
AcDbEntity
  8
0
  6
Continuous
 62
     1
100
AcDbLine
 10
-877.475684658119
 20
-331.5276549859381
 30
0.0
 11
-873.975684658119
 21
-331.5276549859381
 31
0.0
  0
LINE
  5
502
330
1E
100
AcDbEntity
  8
0
  6
Continuous
 62
     1
100
AcDbLine
 10
-877.475684658119
 20
-331.5276549859381
 30
0.0
 11
-880.9756846581191
 21
-331.5276549859381
 31
0.0
  0
LINE
  5
503
330
1E
100
AcDbEntity
  8
0
  6
Continuous
 62
     1
100
AcDbLine
 10
-880.9756846581191
 20
-331.5276549859381
 30
0.0
 11
-874.975684658119
 21
-331.5276549859381
 31
0.0
  0
LINE
  5
504
330
1E
100
AcDbEntity
  8
0
  6
Continuous
 62
     1
100
AcDbLine
 10
-880.9756846581191
 20
-331.5276549859381
 30
0.0
 11
-882.4756846581191
 21
-331.5276549859381
 31
0.0
  0
ARC
  5
505
330
1E
100
AcDbEntity
  8
0
  6
Continuous
 62
     1
100
AcDbCircle
 10
-882.4756846581191
 20
-332.0276549859381
 30
0.0
 40
0.5
100
AcDbArc
 50
90.0
 51
180.0
  0
LINE
  5
506
330
1E
100
AcDbEntity
  8
0
  6
Continuous
 62
     1
100
AcDbLine
 10
-882.975684658119
 20
-332.0276549859381
 30
0.0
 11
-882.975684658119
 21
-371.1276549859381
 31
0.0
  0
ARC
  5
507
330
1E
100
AcDbEntity
  8
0
  6
Continuous
 62
     1
100
AcDbCircle
 10
-882.4756846581191
 20
-371.1276549859381
 30
0.0
 40
0.5
100
AcDbArc
 50
180.0
 51
270.0
  0
LINE
  5
508
330
1E
100
AcDbEntity
  8
0
  6
Continuous
 62
     1
100
AcDbLine
 10
-882.4756846581191
 20
-371.6276549859381
 30
0.0
 11
-880.6566846581191
 21
-371.6276549859381
 31
0.0
  0
LINE
  5
509
330
1E
100
AcDbEntity
  8
0
  6
Continuous
 62
     1
100
AcDbLine
 10
-877.475684658119
 20
-371.6276549859381
 30
0.0
 11
-880.9756846581191
 21
-371.6276549859381
 31
0.0
  0
LINE
  5
50A
330
1E
100
AcDbEntity
  8
0
  6
Continuous
 62
     1
100
AcDbLine
 10
-877.475684658119
 20
-371.6276549859381
 30
0.0
 11
-873.975684658119
 21
-371.6276549859381
 31
0.0
  0
LINE
  5
50B
330
1E
100
AcDbEntity
  8
0
  6
Continuous
 62
     1
100
AcDbLine
 10
-869.8256846581191
 20
-371.6276549859381
 30
0.0
 11
-873.975684658119
 21
-371.6276549859381
 31
0.0
  0
LINE
  5
50C
330
1E
100
AcDbEntity
  8
0
  6
Continuous
 62
     1
100
AcDbLine
 10
-873.975684658119
 20
-371.6276549859381
 30
0.0
 11
-873.975684658119
 21
-370.1276549859381
 31
0.0
  0
LINE
  5
50D
330
1E
100
AcDbEntity
  8
0
  6
Continuous
 62
     1
100
AcDbLine
 10
-871.625684658119
 20
-370.0276549859381
 30
0.0
 11
-873.975684658119
 21
-370.0276549859381
 31
0.0
  0
LINE
  5
50E
330
1E
100
AcDbEntity
  8
0
  6
Continuous
 62
     1
100
AcDbLine
 10
-871.625684658119
 20
-370.0276549859381
 30
0.0
 11
-871.625684658119
 21
-333.1276549859381
 31
0.0
  0
LINE
  5
50F
330
1E
100
AcDbEntity
  8
0
  6
Continuous
 62
     1
100
AcDbLine
 10
-873.975684658119
 20
-331.5276549859381
 30
0.0
 11
-873.975684658119
 21
-333.0276549859381
 31
0.0
  0
LINE
  5
510
330
1E
100
AcDbEntity
  8
0
  6
Continuous
 62
     1
100
AcDbLine
 10
-874.975684658119
 20
-331.5276549859381
 30
0.0
 11
-874.975684658119
 21
-332.5276549859381
 31
0.0
  0
LINE
  5
511
330
1E
100
AcDbEntity
  8
0
  6
Continuous
 62
     1
100
AcDbLine
 10
-874.975684658119
 20
-332.5276549859381
 30
0.0
 11
-877.475684658119
 21
-332.5276549859381
 31
0.0
  0
LINE
  5
512
330
1E
100
AcDbEntity
  8
0
  6
Continuous
 62
     1
100
AcDbLine
 10
-879.9756846581191
 20
-332.5276549859381
 30
0.0
 11
-877.475684658119
 21
-332.5276549859381
 31
0.0
  0
LINE
  5
513
330
1E
100
AcDbEntity
  8
0
  6
Continuous
 62
     1
100
AcDbLine
 10
-879.9756846581191
 20
-331.5276549859381
 30
0.0
 11
-879.9756846581191
 21
-332.5276549859381
 31
0.0
  0
LINE
  5
514
330
1E
100
AcDbEntity
  8
0
  6
Continuous
 62
     1
100
AcDbLine
 10
-871.625684658119
 20
-333.1276549859381
 30
0.0
 11
-873.975684658119
 21
-333.1276549859381
 31
0.0
  0
LINE
  5
515
330
1E
100
AcDbEntity
  8
0
  6
Continuous
 62
     1
100
AcDbLine
 10
-873.975684658119
 20
-331.5276549859381
 30
0.0
 11
-873.975684658119
 21
-333.1276549859381
 31
0.0
  0
LINE
  5
516
330
1E
100
AcDbEntity
  8
0
  6
Continuous
 62
     1
100
AcDbLine
 10
-874.975684658119
 20
-371.6276549859381
 30
0.0
 11
-874.975684658119
 21
-370.6276549859381
 31
0.0
  0
LINE
  5
517
330
1E
100
AcDbEntity
  8
0
  6
Continuous
 62
     1
100
AcDbLine
 10
-874.975684658119
 20
-370.6276549859381
 30
0.0
 11
-877.475684658119
 21
-370.6276549859381
 31
0.0
  0
LINE
  5
518
330
1E
100
AcDbEntity
  8
0
  6
Continuous
 62
     1
100
AcDbLine
 10
-879.9756846581191
 20
-370.6276549859381
 30
0.0
 11
-877.475684658119
 21
-370.6276549859381
 31
0.0
  0
LINE
  5
519
330
1E
100
AcDbEntity
  8
0
  6
Continuous
 62
     1
100
AcDbLine
 10
-879.9756846581191
 20
-371.6276549859381
 30
0.0
 11
-879.9756846581191
 21
-370.6276549859381
 31
0.0
  0
LINE
  5
51A
330
1E
100
AcDbEntity
  8
0
  6
Continuous
 62
     1
100
AcDbLine
 10
-881.4756846581191
 20
-339.6776549859381
 30
0.0
 11
-882.4756846581191
 21
-339.6776549859381
 31
0.0
  0
ARC
  5
51B
330
1E
100
AcDbEntity
  8
0
  6
Continuous
 62
     1
100
AcDbCircle
 10
-882.4756846581191
 20
-339.1776549859381
 30
0.0
 40
0.5
100
AcDbArc
 50
180.0
 51
270.0
  0
LINE
  5
51C
330
1E
100
AcDbEntity
  8
0
  6
Continuous
 62
     1
100
AcDbLine
 10
-881.4756846581191
 20
-341.477654985938
 30
0.0
 11
-882.4756846581191
 21
-341.477654985938
 31
0.0
  0
LINE
  5
51D
330
1E
100
AcDbEntity
  8
0
  6
Continuous
 62
     1
100
AcDbLine
 10
-882.975684658119
 20
-341.9776549859381
 30
0.0
 11
-882.975684658119
 21
-351.5776549859381
 31
0.0
  0
ARC
  5
51E
330
1E
100
AcDbEntity
  8
0
  6
Continuous
 62
     1
100
AcDbCircle
 10
-882.4756846581191
 20
-341.9776549859381
 30
0.0
 40
0.5
100
AcDbArc
 50
90.0
 51
180.0
  0
LINE
  5
51F
330
1E
100
AcDbEntity
  8
0
  6
Continuous
 62
     1
100
AcDbLine
 10
-881.4756846581191
 20
-349.0776549859381
 30
0.0
 11
-882.975684658119
 21
-349.0776549859381
 31
0.0
  0
LINE
  5
520
330
1E
100
AcDbEntity
  8
0
  6
Continuous
 62
     1
100
AcDbLine
 10
-881.4756846581191
 20
-354.0776549859381
 30
0.0
 11
-882.975684658119
 21
-354.0776549859381
 31
0.0
  0
LINE
  5
521
330
1E
100
AcDbEntity
  8
0
  6
Continuous
 62
     1
100
AcDbLine
 10
-881.4756846581191
 20
-361.6776549859381
 30
0.0
 11
-882.4756846581191
 21
-361.6776549859381
 31
0.0
  0
LINE
  5
522
330
1E
100
AcDbEntity
  8
0
  6
Continuous
 62
     1
100
AcDbLine
 10
-882.975684658119
 20
-361.1776549859381
 30
0.0
 11
-882.975684658119
 21
-351.5776549859381
 31
0.0
  0
ARC
  5
523
330
1E
100
AcDbEntity
  8
0
  6
Continuous
 62
     1
100
AcDbCircle
 10
-882.4756846581191
 20
-361.1776549859381
 30
0.0
 40
0.5
100
AcDbArc
 50
180.0
 51
270.0
  0
LINE
  5
524
330
1E
100
AcDbEntity
  8
0
  6
Continuous
 62
     1
100
AcDbLine
 10
-881.4756846581191
 20
-363.4776549859381
 30
0.0
 11
-882.4756846581191
 21
-363.4776549859381
 31
0.0
  0
ARC
  5
525
330
1E
100
AcDbEntity
  8
0
  6
Continuous
 62
     1
100
AcDbCircle
 10
-882.4756846581191
 20
-363.9776549859381
 30
0.0
 40
0.5
100
AcDbArc
 50
90.0
 51
180.0
  0
LINE
  5
526
330
1E
100
AcDbEntity
  8
0
  6
Continuous
 62
     1
100
AcDbLine
 10
-793.4756846581191
 20
-363.4776549859381
 30
0.0
 11
-792.4756846581191
 21
-363.4776549859381
 31
0.0
  0
ARC
  5
527
330
1E
100
AcDbEntity
  8
0
  6
Continuous
 62
     1
100
AcDbCircle
 10
-792.4756846581191
 20
-363.9776549859381
 30
0.0
 40
0.5
100
AcDbArc
 50
0.0
 51
90.0
  0
LINE
  5
528
330
1E
100
AcDbEntity
  8
0
  6
Continuous
 62
     1
100
AcDbLine
 10
-793.4756846581191
 20
-361.6776549859381
 30
0.0
 11
-792.4756846581191
 21
-361.6776549859381
 31
0.0
  0
ARC
  5
529
330
1E
100
AcDbEntity
  8
0
  6
Continuous
 62
     1
100
AcDbCircle
 10
-792.4756846581191
 20
-361.1776549859381
 30
0.0
 40
0.5
100
AcDbArc
 50
270.0
 51
0.0
  0
LINE
  5
52A
330
1E
100
AcDbEntity
  8
0
  6
Continuous
 62
     1
100
AcDbLine
 10
-793.4756846581191
 20
-354.0776549859381
 30
0.0
 11
-791.9756846581191
 21
-354.0776549859381
 31
0.0
  0
LINE
  5
52B
330
1E
100
AcDbEntity
  8
0
  6
Continuous
 62
     1
100
AcDbLine
 10
-793.4756846581191
 20
-349.0776549859381
 30
0.0
 11
-791.9756846581191
 21
-349.0776549859381
 31
0.0
  0
LINE
  5
52C
330
1E
100
AcDbEntity
  8
0
  6
Continuous
 62
     1
100
AcDbLine
 10
-793.4756846581191
 20
-341.477654985938
 30
0.0
 11
-792.4756846581191
 21
-341.477654985938
 31
0.0
  0
LINE
  5
52D
330
1E
100
AcDbEntity
  8
0
  6
Continuous
 62
     1
100
AcDbLine
 10
-791.9756846581191
 20
-341.9776549859381
 30
0.0
 11
-791.9756846581191
 21
-351.5776549859381
 31
0.0
  0
ARC
  5
52E
330
1E
100
AcDbEntity
  8
0
  6
Continuous
 62
     1
100
AcDbCircle
 10
-792.4756846581191
 20
-341.9776549859381
 30
0.0
 40
0.5
100
AcDbArc
 50
0.0
 51
90.0
  0
LINE
  5
52F
330
1E
100
AcDbEntity
  8
0
  6
Continuous
 62
     1
100
AcDbLine
 10
-793.4756846581191
 20
-339.6776549859381
 30
0.0
 11
-792.4756846581191
 21
-339.6776549859381
 31
0.0
  0
ARC
  5
530
330
1E
100
AcDbEntity
  8
0
  6
Continuous
 62
     1
100
AcDbCircle
 10
-792.4756846581191
 20
-339.1776549859381
 30
0.0
 40
0.5
100
AcDbArc
 50
270.0
 51
0.0
  0
LINE
  5
531
330
1E
100
AcDbEntity
  8
0
  6
Continuous
 62
     1
100
AcDbLine
 10
-855.6356846591191
 20
-448.577654978938
 30
0.0
 11
-884.635684659119
 21
-448.577654978938
 31
0.0
  0
LINE
  5
532
330
1E
100
AcDbEntity
  8
0
  6
Continuous
 62
     1
100
AcDbLine
 10
-884.4847955091191
 20
-432.1684599649382
 30
0.0
 11
-884.635684659119
 21
-448.577654978938
 31
0.0
  0
LINE
  5
533
330
1E
100
AcDbEntity
  8
0
  6
Continuous
 62
     1
100
AcDbLine
 10
-883.475684659119
 20
-431.1776549789381
 30
0.0
 11
-870.0210107461192
 21
-431.1776549789381
 31
0.0
  0
ARC
  5
534
330
1E
100
AcDbEntity
  8
0
  6
Continuous
 62
     1
100
AcDbCircle
 10
-883.475684659119
 20
-432.177654978938
 30
0.0
 40
1.0
100
AcDbArc
 50
90.0
 51
180.0
  0
LINE
  5
535
330
1E
100
AcDbEntity
  8
0
  6
Continuous
 62
     1
100
AcDbLine
 10
-870.0210107461192
 20
-431.1776549789381
 30
0.0
 11
-869.8626999601192
 21
-408.7705899369381
 31
0.0
  0
ARC
  5
536
330
1E
100
AcDbEntity
  8
0
  6
Continuous
 62
     1
100
AcDbCircle
 10
-868.8627249181191
 20
-408.777654978938
 30
0.0
 40
1.0
100
AcDbArc
 50
90.0
 51
179.5951995979999
  0
LINE
  5
537
330
1E
100
AcDbEntity
  8
0
  6
Continuous
 62
     1
100
AcDbLine
 10
-868.8627249181191
 20
-407.7776549789381
 30
0.0
 11
-837.6356846591191
 21
-407.7776549789381
 31
0.0
  0
LINE
  5
538
330
1E
100
AcDbEntity
  8
0
  6
Continuous
 62
     1
100
AcDbLine
 10
-806.4086444001191
 20
-407.7776549789381
 30
0.0
 11
-837.6356846591191
 21
-407.7776549789381
 31
0.0
  0
LINE
  5
539
330
1E
100
AcDbEntity
  8
0
  6
Continuous
 62
     1
100
AcDbLine
 10
-805.2503585721192
 20
-431.1776549789381
 30
0.0
 11
-805.4086693581192
 21
-408.7705899369381
 31
0.0
  0
LINE
  5
53A
330
1E
100
AcDbEntity
  8
0
  6
Continuous
 62
     1
100
AcDbLine
 10
-805.2503585721192
 20
-431.1776549789381
 30
0.0
 11
-793.635684659119
 21
-431.1776549789381
 31
0.0
  0
LINE
  5
53B
330
1E
100
AcDbEntity
  8
0
  6
Continuous
 62
     1
100
AcDbLine
 10
-790.635684659119
 20
-448.577654978938
 30
0.0
 11
-790.7910075891191
 21
-432.177654978938
 31
0.0
  0
ARC
  5
53C
330
1E
100
AcDbEntity
  8
0
  6
Continuous
 62
     1
100
AcDbCircle
 10
-791.7910075891191
 20
-432.177654978938
 30
0.0
 40
1.0
100
AcDbArc
 50
0.0
 51
90.0
  0
ARC
  5
53D
330
1E
100
AcDbEntity
  8
0
  6
Continuous
 62
     1
100
AcDbCircle
 10
-791.7865315331192
 20
-432.177654978938
 30
0.0
 40
1.0
100
AcDbArc
 50
0.526842894
 51
90.0
  0
LINE
  5
53E
330
1E
100
AcDbEntity
  8
0
  6
Continuous
 62
     1
100
AcDbLine
 10
-793.635684659119
 20
-431.1776549789381
 30
0.0
 11
-791.7865315331192
 21
-431.1776549789381
 31
0.0
  0
LINE
  5
53F
330
1E
100
AcDbEntity
  8
0
  6
Continuous
 62
     1
100
AcDbLine
 10
-819.6356846591191
 20
-448.5776549799381
 30
0.0
 11
-790.635684659119
 21
-448.577654978938
 31
0.0
  0
LINE
  5
540
330
1E
100
AcDbEntity
  8
0
  6
Continuous
 62
     1
100
AcDbLine
 10
-790.635684659119
 20
-448.577654978938
 30
0.0
 11
-819.6356846591191
 21
-448.577654978938
 31
0.0
  0
LINE
  5
541
330
1E
100
AcDbEntity
  8
0
  6
Continuous
 62
     1
100
AcDbLine
 10
-821.5506846591191
 20
-446.0776549789381
 30
0.0
 11
-819.7106369821192
 21
-447.7344413499381
 31
0.0
  0
LWPOLYLINE
  5
542
330
1E
100
AcDbEntity
  8
0
 62
     1
100
AcDbPolyline
 90
        3
 70
     0
 43
0.0
 10
-811.385684659119
 20
-444.077654978938
 10
-806.885684659119
 20
-444.077654978938
 10
-806.885684659119
 20
-446.5776549789381
  0
LINE
  5
547
330
1E
100
AcDbEntity
  8
0
  6
Continuous
 62
     1
100
AcDbLine
 10
-811.385684659119
 20
-446.5776549789381
 30
0.0
 11
-811.385684659119
 21
-444.077654978938
 31
0.0
  0
LINE
  5
548
330
1E
100
AcDbEntity
  8
0
  6
Continuous
 62
     1
100
AcDbLine
 10
-806.885684659119
 20
-446.5776549789381
 30
0.0
 11
-811.385684659119
 21
-446.5776549789381
 31
0.0
  0
LWPOLYLINE
  5
549
330
1E
100
AcDbEntity
  8
0
 62
     1
100
AcDbPolyline
 90
        4
 70
     1
 43
0.0
 10
-868.385684659119
 20
-444.077654978938
 10
-863.885684659119
 20
-444.077654978938
 10
-863.885684659119
 20
-446.5776549789381
 10
-868.385684659119
 20
-446.5776549789381
  0
LINE
  5
54F
330
1E
100
AcDbEntity
  8
0
  6
Continuous
 62
     1
100
AcDbLine
 10
-872.3252112421191
 20
-426.1776549789381
 30
0.0
 11
-869.985684659119
 21
-426.1776549789381
 31
0.0
  0
LINE
  5
550
330
1E
100
AcDbEntity
  8
0
  6
Continuous
 62
     1
100
AcDbLine
 10
-873.9856846591191
 20
-426.6776549789381
 30
0.0
 11
-873.9856846591191
 21
-431.1776549789381
 31
0.0
  0
ARC
  5
551
330
1E
100
AcDbEntity
  8
0
  6
Continuous
 62
     1
100
AcDbCircle
 10
-873.485684659119
 20
-426.6776549789381
 30
0.0
 40
0.5
100
AcDbArc
 50
90.0
 51
180.0
  0
LINE
  5
552
330
1E
100
AcDbEntity
  8
0
  6
Continuous
 62
     1
100
AcDbLine
 10
-802.9461580761191
 20
-426.1776549789381
 30
0.0
 11
-805.285684659119
 21
-426.1776549789381
 31
0.0
  0
LINE
  5
553
330
1E
100
AcDbEntity
  8
0
  6
Continuous
 62
     1
100
AcDbLine
 10
-805.285684659119
 20
-426.1776549789381
 30
0.0
 11
-801.785684659119
 21
-426.1776549789381
 31
0.0
  0
ARC
  5
554
330
1E
100
AcDbEntity
  8
0
  6
Continuous
 62
     1
100
AcDbCircle
 10
-801.785684659119
 20
-426.6776549789381
 30
0.0
 40
0.5
100
AcDbArc
 50
0.0
 51
90.0
  0
LINE
  5
555
330
1E
100
AcDbEntity
  8
0
  6
Continuous
 62
     1
100
AcDbLine
 10
-801.2856846591191
 20
-426.6776549789381
 30
0.0
 11
-801.2856846591191
 21
-431.1776549789381
 31
0.0
  0
ARC
  5
556
330
1E
100
AcDbEntity
  8
0
  6
Continuous
 62
     1
100
AcDbCircle
 10
-806.4086444001191
 20
-408.777654978938
 30
0.0
 40
1.0
100
AcDbArc
 50
0.4048004020000001
 51
90.0
  0
LINE
  5
557
330
1E
100
AcDbEntity
  8
0
  6
Continuous
 62
     5
100
AcDbLine
 10
-855.5356846591191
 20
-458.9776549799381
 30
0.0
 11
-853.1208700931189
 21
-458.3306073669381
 31
0.0
  0
LINE
  5
558
330
1E
100
AcDbEntity
  8
0
  6
Continuous
 62
     5
100
AcDbLine
 10
-855.5356846591191
 20
-458.9776549799381
 30
0.0
 11
-853.1208700931189
 21
-459.6247025919381
 31
0.0
  0
LINE
  5
559
330
1E
100
AcDbEntity
  8
0
  6
Continuous
 62
     5
100
AcDbLine
 10
-819.535684659119
 20
-458.9776549799381
 30
0.0
 11
-821.950499225119
 21
-459.6247025919381
 31
0.0
  0
LINE
  5
55A
330
1E
100
AcDbEntity
  8
0
  6
Continuous
 62
     5
100
AcDbLine
 10
-819.535684659119
 20
-458.9776549799381
 30
0.0
 11
-821.950499225119
 21
-458.3306073669381
 31
0.0
  0
LINE
  5
55B
330
1E
100
AcDbEntity
  8
0
  6
Continuous
 62
     5
100
AcDbLine
 10
-819.535684659119
 20
-458.9776549799381
 30
0.0
 11
-855.5356846591191
 21
-458.9776549799381
 31
0.0
  0
LINE
  5
55C
330
1E
100
AcDbEntity
  8
0
  6
Continuous
 62
     5
100
AcDbLine
 10
-819.535684659119
 20
-450.5776549789381
 30
0.0
 11
-819.535684659119
 21
-460.9776549799382
 31
0.0
  0
LINE
  5
55D
330
1E
100
AcDbEntity
  8
0
  6
Continuous
 62
     5
100
AcDbLine
 10
-855.5356846591191
 20
-450.5776549789381
 30
0.0
 11
-855.5356846591191
 21
-460.9776549799382
 31
0.0
  0
LINE
  5
55E
330
1E
100
AcDbEntity
  8
0
  6
Continuous
 62
     3
100
AcDbLine
 10
-872.1256846581191
 20
-333.4276549859381
 30
0.0
 11
-872.1256846581191
 21
-334.1776549859381
 31
0.0
  0
LINE
  5
55F
330
1E
100
AcDbEntity
  8
0
  6
Continuous
 62
     3
100
AcDbLine
 10
-872.6256846581192
 20
-342.1276549859381
 30
0.0
 11
-872.6256846581192
 21
-342.8776549859381
 31
0.0
  0
LINE
  5
560
330
1E
100
AcDbEntity
  8
0
  6
Continuous
 62
     3
100
AcDbLine
 10
-872.6256846581192
 20
-359.5276549859381
 30
0.0
 11
-872.6256846581192
 21
-360.2776549859381
 31
0.0
  0
LINE
  5
561
330
1E
100
AcDbEntity
  8
0
  6
Continuous
 62
     1
100
AcDbLine
 10
-818.5520308691192
 20
-510.577654978938
 30
0.0
 11
-818.5520308701191
 21
-490.577654978938
 31
0.0
  0
LINE
  5
562
330
1E
100
AcDbEntity
  8
0
  6
Continuous
 62
     1
100
AcDbLine
 10
-821.168065700119
 20
-489.3276549789381
 30
0.0
 11
-821.168065700119
 21
-490.577654978938
 31
0.0
  0
LINE
  5
563
330
1E
100
AcDbEntity
  8
0
  6
Continuous
 62
     1
100
AcDbLine
 10
-819.550684658119
 20
-489.227654978938
 30
0.0
 11
-819.550684658119
 21
-478.1276549789381
 31
0.0
  0
LINE
  5
564
330
1E
100
AcDbEntity
  8
0
  6
Continuous
 62
     1
100
AcDbLine
 10
-800.150684657119
 20
-511.827654977938
 30
0.0
 11
-798.900684657119
 21
-510.577654977938
 31
0.0
  0
LINE
  5
565
330
1E
100
AcDbEntity
  8
0
  6
Continuous
 62
     1
100
AcDbLine
 10
-821.1680656991191
 20
-511.827654978938
 30
0.0
 11
-821.1680656991191
 21
-510.577654978938
 31
0.0
  0
LINE
  5
566
330
1E
100
AcDbEntity
  8
0
  6
Continuous
 62
     1
100
AcDbLine
 10
-819.5506846571189
 20
-511.9276549789381
 30
0.0
 11
-819.550684656119
 21
-523.0276549789381
 31
0.0
  0
ARC
  5
567
330
1E
100
AcDbEntity
  8
0
  6
Continuous
 62
     3
100
AcDbCircle
 10
-834.9756846601191
 20
-363.0776549899381
 30
0.0
 40
2.25
100
AcDbArc
 50
90.0
 51
270.0
  0
CIRCLE
  5
568
330
1E
100
AcDbEntity
  8
0
  6
Continuous
 62
     1
100
AcDbCircle
 10
-834.9756846601191
 20
-363.5776549899381
 30
0.0
 40
1.75
  0
LINE
  5
569
330
1E
100
AcDbEntity
  8
0
  6
Continuous
 62
     3
100
AcDbLine
 10
-834.9756846601191
 20
-360.8276549899381
 30
0.0
 11
-834.9756846601191
 21
-361.8276549899381
 31
0.0
  0
LINE
  5
56A
330
1E
100
AcDbEntity
  8
0
  6
Continuous
 62
     3
100
AcDbLine
 10
-836.462862393119
 20
-364.7660869219381
 30
0.0
 11
-836.6641165931191
 21
-364.5648327229381
 31
0.0
  0
LINE
  5
56B
330
1E
100
AcDbEntity
  8
0
  6
Continuous
 62
     3
100
AcDbLine
 10
-836.8762010581189
 20
-364.2820375799381
 30
0.0
 11
-836.1800672501191
 21
-364.9781713879381
 31
0.0
  0
LINE
  5
56C
330
1E
100
AcDbEntity
  8
0
  6
Continuous
 62
     3
100
AcDbLine
 10
-836.0135342781191
 20
-365.073993680938
 30
0.0
 11
-836.972023352119
 21
-364.1155046079381
 31
0.0
  0
LINE
  5
56D
330
1E
100
AcDbEntity
  8
0
  6
Continuous
 62
     3
100
AcDbLine
 10
-837.0368197841191
 20
-363.9799974969381
 30
0.0
 11
-836.3260383581192
 21
-364.6907789229381
 31
0.0
  0
LINE
  5
56E
330
1E
100
AcDbEntity
  8
0
  6
Continuous
 62
     3
100
AcDbLine
 10
-836.088808593119
 20
-364.9280086879381
 30
0.0
 11
-835.8780271671191
 21
-365.1387901139381
 31
0.0
  0
LINE
  5
56F
330
1E
100
AcDbEntity
  8
0
  6
Continuous
 62
     3
100
AcDbLine
 10
-835.7593277361191
 20
-365.1867788669381
 30
0.0
 11
-835.8559723011191
 21
-365.0901343019381
 31
0.0
  0
LINE
  5
570
330
1E
100
AcDbEntity
  8
0
  6
Continuous
 62
     3
100
AcDbLine
 10
-836.488163972119
 20
-364.4579426309381
 30
0.0
 11
-837.084808538119
 21
-363.8612980659381
 31
0.0
  0
LINE
  5
571
330
1E
100
AcDbEntity
  8
0
  6
Continuous
 62
     3
100
AcDbLine
 10
-837.121729529119
 20
-363.7536663959381
 30
0.0
 11
-836.564805853119
 21
-364.3105900719381
 31
0.0
  0
LINE
  5
572
330
1E
100
AcDbEntity
  8
0
  6
Continuous
 62
     3
100
AcDbLine
 10
-835.7086197421191
 20
-365.1667761829382
 30
0.0
 11
-835.651696066119
 21
-365.2236998589381
 31
0.0
  0
LINE
  5
573
330
1E
100
AcDbEntity
  8
0
  6
Continuous
 62
     3
100
AcDbLine
 10
-835.5521238561191
 20
-365.2525613909381
 30
0.0
 11
-835.5874403921191
 21
-365.2172448549381
 31
0.0
  0
LINE
  5
574
330
1E
100
AcDbEntity
  8
0
  6
Continuous
 62
     3
100
AcDbLine
 10
-836.615274525119
 20
-364.1894107219381
 30
0.0
 11
-837.150591061119
 21
-363.6540941859381
 31
0.0
  0
LINE
  5
575
330
1E
100
AcDbEntity
  8
0
  6
Continuous
 62
     3
100
AcDbLine
 10
-837.1732063591192
 20
-363.5607682099381
 30
0.0
 11
-836.651201093119
 21
-364.0827734759381
 31
0.0
  0
LINE
  5
576
330
1E
100
AcDbEntity
  8
0
  6
Continuous
 62
     3
100
AcDbLine
 10
-835.480803147119
 20
-365.253171421938
 30
0.0
 11
-835.4587978801191
 21
-365.2751766889381
 31
0.0
  0
LINE
  5
577
330
1E
100
AcDbEntity
  8
0
  6
Continuous
 62
     3
100
AcDbLine
 10
-835.370523786119
 20
-365.2927401039381
 30
0.0
 11
-835.3838818121191
 21
-365.2793820789381
 31
0.0
  0
LINE
  5
578
330
1E
100
AcDbEntity
  8
0
  6
Continuous
 62
     3
100
AcDbLine
 10
-836.6774117491191
 20
-363.9858521409381
 30
0.0
 11
-837.190769775119
 21
-363.4724941159381
 31
0.0
  0
LINE
  5
579
330
1E
100
AcDbEntity
  8
0
  6
Continuous
 62
     3
100
AcDbLine
 10
-837.2041181311191
 20
-363.3884350809381
 30
0.0
 11
-836.6964704571191
 21
-363.896082755938
 31
0.0
  0
LINE
  5
57A
330
1E
100
AcDbEntity
  8
0
  6
Continuous
 62
     3
100
AcDbLine
 10
-835.2941124261191
 20
-365.2984407869381
 30
0.0
 11
-835.2864647521192
 21
-365.3060884609381
 31
0.0
  0
LINE
  5
57B
330
1E
100
AcDbEntity
  8
0
  6
Continuous
 62
     3
100
AcDbLine
 10
-835.206007132119
 20
-365.3158354019381
 30
0.0
 11
-835.209936703119
 21
-365.3119058309381
 31
0.0
  0
LINE
  5
57C
330
1E
100
AcDbEntity
  8
0
  6
Continuous
 62
     3
100
AcDbLine
 10
-836.7099355021192
 20
-363.8119070329381
 30
0.0
 11
-837.2138650731191
 21
-363.3079774619381
 31
0.0
  0
LINE
  5
57D
330
1E
100
AcDbEntity
  8
0
  6
Continuous
 62
     3
100
AcDbLine
 10
-837.2204766161191
 20
-363.2306552409381
 30
0.0
 11
-836.7188390251191
 21
-363.7322928319381
 31
0.0
  0
LINE
  5
57E
330
1E
100
AcDbEntity
  8
0
  6
Continuous
 62
     3
100
AcDbLine
 10
-835.130322502119
 20
-365.320809353938
 30
0.0
 11
-835.128684911119
 21
-365.3224469449381
 31
0.0
  0
LINE
  5
57F
330
1E
100
AcDbEntity
  8
0
  6
Continuous
 62
     3
100
AcDbLine
 10
-836.724543138119
 20
-363.5144566839381
 30
0.0
 11
-837.2247899741191
 21
-363.0142098479381
 31
0.0
  0
LINE
  5
580
330
1E
100
AcDbEntity
  8
0
  6
Continuous
 62
     3
100
AcDbLine
 10
-837.2218549781191
 20
-362.9464341659381
 30
0.0
 11
-836.720834475119
 21
-363.4474546689381
 31
0.0
  0
LINE
  5
581
330
1E
100
AcDbEntity
  8
0
  6
Continuous
 62
     3
100
AcDbLine
 10
-836.7148002521192
 20
-363.382778213938
 30
0.0
 11
-837.2170341191189
 21
-362.8805443469381
 31
0.0
  0
LINE
  5
582
330
1E
100
AcDbEntity
  8
0
  6
Continuous
 62
     3
100
AcDbLine
 10
-837.210465825119
 20
-362.8164019619381
 30
0.0
 11
-836.706646248119
 21
-363.3202215399382
 31
0.0
  0
LINE
  5
583
330
1E
100
AcDbEntity
  8
0
  6
Continuous
 62
     3
100
AcDbLine
 10
-836.6965421601189
 20
-363.2596149499381
 30
0.0
 11
-837.2022684481191
 21
-362.7538886609381
 31
0.0
  0
LINE
  5
584
330
1E
100
AcDbEntity
  8
0
  6
Continuous
 62
     3
100
AcDbLine
 10
-837.192544026119
 20
-362.6929024049381
 30
0.0
 11
-836.6846296471191
 21
-363.2008167849381
 31
0.0
  0
LINE
  5
585
330
1E
100
AcDbEntity
  8
0
  6
Continuous
 62
     3
100
AcDbLine
 10
-836.6710281781191
 20
-363.1437075759381
 30
0.0
 11
-837.1813811801191
 21
-362.6333545729381
 31
0.0
  0
LINE
  5
586
330
1E
100
AcDbEntity
  8
0
  6
Continuous
 62
     3
100
AcDbLine
 10
-837.1688573691191
 20
-362.5751677059381
 30
0.0
 11
-836.6558393631191
 21
-363.088185711938
 31
0.0
  0
LINE
  5
587
330
1E
100
AcDbEntity
  8
0
  6
Continuous
 62
     3
100
AcDbLine
 10
-836.6391502351191
 20
-363.0341641619381
 30
0.0
 11
-837.1550406671191
 21
-362.5182737299382
 31
0.0
  0
LINE
  5
588
330
1E
100
AcDbEntity
  8
0
  6
Continuous
 62
     3
100
AcDbLine
 10
-837.1399911931192
 20
-362.4626125259381
 30
0.0
 11
-836.6210357621191
 21
-362.9815679569381
 31
0.0
  0
LINE
  5
589
330
1E
100
AcDbEntity
  8
0
  6
Continuous
 62
     3
100
AcDbLine
 10
-836.6015608081191
 20
-362.9303322329381
 30
0.0
 11
-837.1237622531191
 21
-362.4081307879381
 31
0.0
  0
LINE
  5
58A
330
1E
100
AcDbEntity
  8
0
  6
Continuous
 62
     3
100
AcDbLine
 10
-837.1064012801191
 20
-362.3547810829381
 30
0.0
 11
-836.5807816771191
 21
-362.8804006849381
 31
0.0
  0
LINE
  5
58B
330
1E
100
AcDbEntity
  8
0
  6
Continuous
 62
     3
100
AcDbLine
 10
-836.558747345119
 20
-362.8317243389381
 30
0.0
 11
-837.087950605119
 21
-362.3025210799381
 31
0.0
  0
LINE
  5
58C
330
1E
100
AcDbEntity
  8
0
  6
Continuous
 62
     3
100
AcDbLine
 10
-837.068448091119
 20
-362.2513129159381
 30
0.0
 11
-836.5355004451192
 21
-362.7842605619381
 31
0.0
  0
LINE
  5
58D
330
1E
100
AcDbEntity
  8
0
  6
Continuous
 62
     3
100
AcDbLine
 10
-836.5110780671191
 20
-362.7379722609381
 30
0.0
 11
-837.047927667119
 21
-362.2011226619381
 31
0.0
  0
LINE
  5
58E
330
1E
100
AcDbEntity
  8
0
  6
Continuous
 62
     3
100
AcDbLine
 10
-837.026419773119
 20
-362.1519198769381
 30
0.0
 11
-836.485512414119
 21
-362.6928272359381
 31
0.0
  0
LINE
  5
58F
330
1E
100
AcDbEntity
  8
0
  6
Continuous
 62
     3
100
AcDbLine
 10
-836.4588313271191
 20
-362.648797645938
 30
0.0
 11
-837.0039517371191
 21
-362.1036772349381
 31
0.0
  0
LINE
  5
590
330
1E
100
AcDbEntity
  8
0
  6
Continuous
 62
     3
100
AcDbLine
 10
-836.980548092119
 20
-362.0563702019381
 30
0.0
 11
-836.4310587231191
 21
-362.6058595709381
 31
0.0
  0
LINE
  5
591
330
1E
100
AcDbEntity
  8
0
  6
Continuous
 62
     3
100
AcDbLine
 10
-836.4022149551191
 20
-362.5639926609381
 30
0.0
 11
-836.956230850119
 21
-362.0099767659381
 31
0.0
  0
LINE
  5
592
330
1E
100
AcDbEntity
  8
0
  6
Continuous
 62
     3
100
AcDbLine
 10
-836.931019728119
 20
-361.964477208938
 30
0.0
 11
-836.372317096119
 21
-362.5231798409381
 31
0.0
  0
LINE
  5
593
330
1E
100
AcDbEntity
  8
0
  6
Continuous
 62
     3
100
AcDbLine
 10
-836.3413791781191
 20
-362.4834070819381
 30
0.0
 11
-836.904932352119
 21
-361.9198539079381
 31
0.0
  0
LINE
  5
594
330
1E
100
AcDbEntity
  8
0
  6
Continuous
 62
     3
100
AcDbLine
 10
-836.877984418119
 20
-361.8760911629381
 30
0.0
 11
-836.309412375119
 21
-362.4446632059381
 31
0.0
  0
LINE
  5
595
330
1E
100
AcDbEntity
  8
0
  6
Continuous
 62
     3
100
AcDbLine
 10
-836.276425153119
 20
-362.4069397509381
 30
0.0
 11
-836.850189847119
 21
-361.8331750559381
 31
0.0
  0
LINE
  5
596
330
1E
100
AcDbEntity
  8
0
  6
Continuous
 62
     3
100
AcDbLine
 10
-836.821560898119
 20
-361.7910933269381
 30
0.0
 11
-836.242423370119
 21
-362.3702308549381
 31
0.0
  0
LINE
  5
597
330
1E
100
AcDbEntity
  8
0
  6
Continuous
 62
     3
100
AcDbLine
 10
-836.207410357119
 20
-362.3345331899381
 30
0.0
 11
-836.7921082831191
 21
-361.7498352639381
 31
0.0
  0
LINE
  5
598
330
1E
100
AcDbEntity
  8
0
  6
Continuous
 62
     3
100
AcDbLine
 10
-836.761841248119
 20
-361.7093916209381
 30
0.0
 11
-836.171386953119
 21
-362.2998459159381
 31
0.0
  0
LINE
  5
599
330
1E
100
AcDbEntity
  8
0
  6
Continuous
 62
     3
100
AcDbLine
 10
-836.1343515181189
 20
-362.2661706729381
 30
0.0
 11
-836.7307676541191
 21
-361.6697545369381
 31
0.0
  0
LINE
  5
59A
330
1E
100
AcDbEntity
  8
0
  6
Continuous
 62
     3
100
AcDbLine
 10
-836.698894038119
 20
-361.630917473938
 30
0.0
 11
-836.096299913119
 21
-362.233511598938
 31
0.0
  0
LINE
  5
59B
330
1E
100
AcDbEntity
  8
0
  6
Continuous
 62
     3
100
AcDbLine
 10
-836.0572254501191
 20
-362.2018753849381
 30
0.0
 11
-836.6662256641191
 21
-361.5928751699381
 31
0.0
  0
LINE
  5
59C
330
1E
100
AcDbEntity
  8
0
  6
Continuous
 62
     3
100
AcDbLine
 10
-836.632766562119
 20
-361.5556235939381
 30
0.0
 11
-836.017118802119
 21
-362.1712713549381
 31
0.0
  0
LINE
  5
59D
330
1E
100
AcDbEntity
  8
0
  6
Continuous
 62
     3
100
AcDbLine
 10
-835.9759678921191
 20
-362.1417115869381
 30
0.0
 11
-836.5985195601192
 21
-361.5191599179381
 31
0.0
  0
LINE
  5
59E
330
1E
100
AcDbEntity
  8
0
  6
Continuous
 62
     3
100
AcDbLine
 10
-836.563486304119
 20
-361.4834824959381
 30
0.0
 11
-835.9337577301191
 21
-362.1132110699381
 31
0.0
  0
LINE
  5
59F
330
1E
100
AcDbEntity
  8
0
  6
Continuous
 62
     3
100
AcDbLine
 10
-835.890470214119
 20
-362.0857879079381
 30
0.0
 11
-836.527667272119
 21
-361.4485908499381
 31
0.0
  0
LINE
  5
5A0
330
1E
100
AcDbEntity
  8
0
  6
Continuous
 62
     3
100
AcDbLine
 10
-836.491061777119
 20
-361.4144856669381
 30
0.0
 11
-835.8460838781191
 21
-362.0594635659381
 31
0.0
  0
LINE
  5
5A1
330
1E
100
AcDbEntity
  8
0
  6
Continuous
 62
     3
100
AcDbLine
 10
-835.800573582119
 20
-362.0342631839381
 30
0.0
 11
-836.4536679591191
 21
-361.3811688069381
 31
0.0
  0
LINE
  5
5A2
330
1E
100
AcDbEntity
  8
0
  6
Continuous
 62
     3
100
AcDbLine
 10
-836.4154827761192
 20
-361.3486433109381
 30
0.0
 11
-835.753910130119
 21
-362.0102159579381
 31
0.0
  0
LINE
  5
5A3
330
1E
100
AcDbEntity
  8
0
  6
Continuous
 62
     3
100
AcDbLine
 10
-835.706059808119
 20
-361.9873556019381
 30
0.0
 11
-836.3765019791191
 21
-361.3169134309381
 31
0.0
  0
LINE
  5
5A4
330
1E
100
AcDbEntity
  8
0
  6
Continuous
 62
     3
100
AcDbLine
 10
-836.3367200781191
 20
-361.2859846539381
 30
0.0
 11
-835.656983816119
 21
-361.9657209159381
 31
0.0
  0
LINE
  5
5A5
330
1E
100
AcDbEntity
  8
0
  6
Continuous
 62
     3
100
AcDbLine
 10
-835.606637573119
 20
-361.9453564809381
 30
0.0
 11
-836.296130300119
 21
-361.2558637529381
 31
0.0
  0
LINE
  5
5A6
330
1E
100
AcDbEntity
  8
0
  6
Continuous
 62
     3
100
AcDbLine
 10
-836.2547245421191
 20
-361.2265588329381
 30
0.0
 11
-835.5549698581191
 21
-361.926313516938
 31
0.0
  0
LINE
  5
5A7
330
1E
100
AcDbEntity
  8
0
  6
Continuous
 62
     3
100
AcDbLine
 10
-835.5019217571191
 20
-361.9086509399382
 30
0.0
 11
-836.2124932971191
 21
-361.1980793999381
 31
0.0
  0
LINE
  5
5A8
330
1E
100
AcDbEntity
  8
0
  6
Continuous
 62
     3
100
AcDbLine
 10
-836.1694255831192
 20
-361.170436436938
 30
0.0
 11
-835.4474253341191
 21
-361.8924366849381
 31
0.0
  0
LINE
  5
5A9
330
1E
100
AcDbEntity
  8
0
  6
Continuous
 62
     3
100
AcDbLine
 10
-835.391401971119
 20
-361.8777493699381
 30
0.0
 11
-836.1255088481192
 21
-361.1436424929381
 31
0.0
  0
LINE
  5
5AA
330
1E
100
AcDbEntity
  8
0
  6
Continuous
 62
     3
100
AcDbLine
 10
-836.0807288631189
 20
-361.1177117999381
 30
0.0
 11
-835.333760243119
 21
-361.8646804199381
 31
0.0
  0
LINE
  5
5AB
330
1E
100
AcDbEntity
  8
0
  6
Continuous
 62
     3
100
AcDbLine
 10
-835.2743931841191
 20
-361.853336800938
 30
0.0
 11
-836.0350695951192
 21
-361.0926603899381
 31
0.0
  0
LINE
  5
5AC
330
1E
100
AcDbEntity
  8
0
  6
Continuous
 62
     3
100
AcDbLine
 10
-835.9885130531191
 20
-361.0685062529381
 30
0.0
 11
-835.213174709119
 21
-361.8438445979381
 31
0.0
  0
LINE
  5
5AD
330
1E
100
AcDbEntity
  8
0
  6
Continuous
 62
     3
100
AcDbLine
 10
-835.1499548481189
 20
-361.8363537809381
 30
0.0
 11
-835.9410391241191
 21
-361.0452695049381
 31
0.0
  0
LINE
  5
5AE
330
1E
100
AcDbEntity
  8
0
  6
Continuous
 62
     3
100
AcDbLine
 10
-835.892625358119
 20
-361.0229725919381
 30
0.0
 11
-835.0845532841189
 21
-361.8310446659381
 31
0.0
  0
LINE
  5
5AF
330
1E
100
AcDbEntity
  8
0
  6
Continuous
 62
     3
100
AcDbLine
 10
-835.016750389119
 20
-361.8281368829381
 30
0.0
 11
-835.8432467421192
 21
-361.0016405309381
 31
0.0
  0
LINE
  5
5B0
330
1E
100
AcDbEntity
  8
0
  6
Continuous
 62
     3
100
AcDbLine
 10
-835.7928754101191
 20
-360.9813011839381
 30
0.0
 11
-834.9756846601191
 21
-361.7984919339381
 31
0.0
  0
LINE
  5
5B1
330
1E
100
AcDbEntity
  8
0
  6
Continuous
 62
     3
100
AcDbLine
 10
-834.9756846601191
 20
-361.7277812559381
 30
0.0
 11
-835.7414803241191
 21
-360.9619855919381
 31
0.0
  0
LINE
  5
5B2
330
1E
100
AcDbEntity
  8
0
  6
Continuous
 62
     3
100
AcDbLine
 10
-835.689026881119
 20
-360.9437283569381
 30
0.0
 11
-834.9756846601191
 21
-361.6570705779381
 31
0.0
  0
LINE
  5
5B3
330
1E
100
AcDbEntity
  8
0
  6
Continuous
 62
     3
100
AcDbLine
 10
-834.9756846601191
 20
-361.5863598999381
 30
0.0
 11
-835.6354764551189
 21
-360.9265681049381
 31
0.0
  0
LINE
  5
5B4
330
1E
100
AcDbEntity
  8
0
  6
Continuous
 62
     3
100
AcDbLine
 10
-835.5807858471191
 20
-360.9105480349382
 30
0.0
 11
-834.9756846601191
 21
-361.5156492209381
 31
0.0
  0
LINE
  5
5B5
330
1E
100
AcDbEntity
  8
0
  6
Continuous
 62
     3
100
AcDbLine
 10
-834.9756846601191
 20
-361.4449385429381
 30
0.0
 11
-835.5249066251191
 21
-360.8957165779381
 31
0.0
  0
LINE
  5
5B6
330
1E
100
AcDbEntity
  8
0
  6
Continuous
 62
     3
100
AcDbLine
 10
-835.4677843321191
 20
-360.8821281939381
 30
0.0
 11
-834.9756846601191
 21
-361.3742278649381
 31
0.0
  0
LINE
  5
5B7
330
1E
100
AcDbEntity
  8
0
  6
Continuous
 62
     3
100
AcDbLine
 10
-834.9756846601191
 20
-361.303517186938
 30
0.0
 11
-835.4093575071191
 21
-360.8698443409381
 31
0.0
  0
LINE
  5
5B8
330
1E
100
AcDbEntity
  8
0
  6
Continuous
 62
     3
100
AcDbLine
 10
-835.3495564971192
 20
-360.8589346719381
 30
0.0
 11
-834.9756846601191
 21
-361.2328065089381
 31
0.0
  0
LINE
  5
5B9
330
1E
100
AcDbEntity
  8
0
  6
Continuous
 62
     3
100
AcDbLine
 10
-834.9756846601191
 20
-361.1620958309381
 30
0.0
 11
-835.288301978119
 21
-360.8494785129381
 31
0.0
  0
LINE
  5
5BA
330
1E
100
AcDbEntity
  8
0
  6
Continuous
 62
     3
100
AcDbLine
 10
-835.2255030931191
 20
-360.8415667199381
 30
0.0
 11
-834.9756846601191
 21
-361.0913851529381
 31
0.0
  0
LINE
  5
5BB
330
1E
100
AcDbEntity
  8
0
  6
Continuous
 62
     3
100
AcDbLine
 10
-834.9756846601191
 20
-361.0206744749381
 30
0.0
 11
-835.1610550991191
 21
-360.8353040359381
 31
0.0
  0
LINE
  5
5BC
330
1E
100
AcDbEntity
  8
0
  6
Continuous
 62
     3
100
AcDbLine
 10
-835.094836336119
 20
-360.8308121209381
 30
0.0
 11
-834.9756846601191
 21
-360.9499637959381
 31
0.0
  0
LINE
  5
5BD
330
1E
100
AcDbEntity
  8
0
  6
Continuous
 62
     3
100
AcDbLine
 10
-834.9756846601191
 20
-360.8792531179381
 30
0.0
 11
-835.026704270119
 21
-360.8282335089381
 31
0.0
  0
LINE
  5
5BE
330
1E
100
AcDbEntity
  8
0
  6
Continuous
 62
     3
100
AcDbLine
 10
-836.8027661881191
 20
-363.5776549899381
 30
0.0
 11
-837.224316614119
 21
-363.1561045639381
 31
0.0
  0
LINE
  5
5BF
330
1E
100
AcDbEntity
  8
0
  6
Continuous
 62
     3
100
AcDbLine
 10
-837.2256756151191
 20
-363.0840348849381
 30
0.0
 11
-836.7320555101191
 21
-363.5776549899381
 31
0.0
  0
ARC
  5
5C0
330
1E
100
AcDbEntity
  8
0
  6
Continuous
 62
     3
100
AcDbCircle
 10
-820.9756846601191
 20
-363.0776549899381
 30
0.0
 40
2.25
100
AcDbArc
 50
90.0
 51
270.0
  0
LINE
  5
5C1
330
1E
100
AcDbEntity
  8
0
  6
Continuous
 62
     3
100
AcDbLine
 10
-820.9756846601191
 20
-360.8276549899381
 30
0.0
 11
-820.9756846601191
 21
-361.8276549899381
 31
0.0
  0
LINE
  5
5C2
330
1E
100
AcDbEntity
  8
0
  6
Continuous
 62
     3
100
AcDbLine
 10
-821.0267036101191
 20
-360.8282334939381
 30
0.0
 11
-820.9756846601191
 21
-360.8792524439381
 31
0.0
  0
LINE
  5
5C3
330
1E
100
AcDbEntity
  8
0
  6
Continuous
 62
     3
100
AcDbLine
 10
-820.9756846601191
 20
-360.9499631219381
 30
0.0
 11
-821.0948356961191
 21
-360.8308120869381
 31
0.0
  0
LINE
  5
5C4
330
1E
100
AcDbEntity
  8
0
  6
Continuous
 62
     3
100
AcDbLine
 10
-821.1610544761191
 20
-360.8353039849381
 30
0.0
 11
-820.9756846601191
 21
-361.0206737999381
 31
0.0
  0
LINE
  5
5C5
330
1E
100
AcDbEntity
  8
0
  6
Continuous
 62
     3
100
AcDbLine
 10
-820.9756846601191
 20
-361.0913844779381
 30
0.0
 11
-821.2255024861191
 21
-360.8415666519381
 31
0.0
  0
LINE
  5
5C6
330
1E
100
AcDbEntity
  8
0
  6
Continuous
 62
     3
100
AcDbLine
 10
-821.288301387119
 20
-360.8494784299381
 30
0.0
 11
-820.9756846601191
 21
-361.1620951569381
 31
0.0
  0
LINE
  5
5C7
330
1E
100
AcDbEntity
  8
0
  6
Continuous
 62
     3
100
AcDbLine
 10
-820.9756846601191
 20
-361.2328058349381
 30
0.0
 11
-821.349555920119
 21
-360.8589345749381
 31
0.0
  0
LINE
  5
5C8
330
1E
100
AcDbEntity
  8
0
  6
Continuous
 62
     3
100
AcDbLine
 10
-821.409356943119
 20
-360.8698442299381
 30
0.0
 11
-820.9756846601191
 21
-361.3035165129381
 31
0.0
  0
LINE
  5
5C9
330
1E
100
AcDbEntity
  8
0
  6
Continuous
 62
     3
100
AcDbLine
 10
-820.9756846601191
 20
-361.3742271909381
 30
0.0
 11
-821.4677837811191
 21
-360.8821280699381
 31
0.0
  0
LINE
  5
5CA
330
1E
100
AcDbEntity
  8
0
  6
Continuous
 62
     3
100
AcDbLine
 10
-821.524906087119
 20
-360.8957164429381
 30
0.0
 11
-820.9756846601191
 21
-361.4449378689381
 31
0.0
  0
LINE
  5
5CB
330
1E
100
AcDbEntity
  8
0
  6
Continuous
 62
     3
100
AcDbLine
 10
-820.9756846601191
 20
-361.515648546938
 30
0.0
 11
-821.5807853201191
 21
-360.9105478879381
 31
0.0
  0
LINE
  5
5CC
330
1E
100
AcDbEntity
  8
0
  6
Continuous
 62
     3
100
AcDbLine
 10
-821.635475939119
 20
-360.9265679469381
 30
0.0
 11
-820.9756846601191
 21
-361.5863592249382
 31
0.0
  0
LINE
  5
5CD
330
1E
100
AcDbEntity
  8
0
  6
Continuous
 62
     3
100
AcDbLine
 10
-820.9756846601191
 20
-361.6570699029381
 30
0.0
 11
-821.689026376119
 21
-360.9437281879381
 31
0.0
  0
LINE
  5
5CE
330
1E
100
AcDbEntity
  8
0
  6
Continuous
 62
     3
100
AcDbLine
 10
-821.7414798291191
 20
-360.9619854129381
 30
0.0
 11
-820.9756846601191
 21
-361.727780581938
 31
0.0
  0
LINE
  5
5CF
330
1E
100
AcDbEntity
  8
0
  6
Continuous
 62
     3
100
AcDbLine
 10
-820.9756846601191
 20
-361.7984912599381
 30
0.0
 11
-821.7928749251191
 21
-360.9813009949381
 31
0.0
  0
LINE
  5
5D0
330
1E
100
AcDbEntity
  8
0
  6
Continuous
 62
     3
100
AcDbLine
 10
-821.8432462661191
 20
-361.0016403319381
 30
0.0
 11
-821.016749730119
 21
-361.8281368679381
 31
0.0
  0
LINE
  5
5D1
330
1E
100
AcDbEntity
  8
0
  6
Continuous
 62
     3
100
AcDbLine
 10
-821.0845526491191
 20
-361.8310446269381
 30
0.0
 11
-821.892624892119
 21
-361.0229723839381
 31
0.0
  0
LINE
  5
5D2
330
1E
100
AcDbEntity
  8
0
  6
Continuous
 62
     3
100
AcDbLine
 10
-821.941038667119
 20
-361.0452692879381
 30
0.0
 11
-821.1499542351191
 21
-361.836353718938
 31
0.0
  0
LINE
  5
5D3
330
1E
100
AcDbEntity
  8
0
  6
Continuous
 62
     3
100
AcDbLine
 10
-821.213174116119
 20
-361.8438445159381
 30
0.0
 11
-821.9885126051192
 21
-361.0685060269381
 31
0.0
  0
LINE
  5
5D4
330
1E
100
AcDbEntity
  8
0
  6
Continuous
 62
     3
100
AcDbLine
 10
-822.0350691551191
 20
-361.0926601559381
 30
0.0
 11
-821.274392609119
 21
-361.8533367009381
 31
0.0
  0
LINE
  5
5D5
330
1E
100
AcDbEntity
  8
0
  6
Continuous
 62
     3
100
AcDbLine
 10
-821.3337596851189
 20
-361.8646803029381
 30
0.0
 11
-822.0807284321191
 21
-361.1177115569381
 31
0.0
  0
LINE
  5
5D6
330
1E
100
AcDbEntity
  8
0
  6
Continuous
 62
     3
100
AcDbLine
 10
-822.125508425119
 20
-361.1436422419381
 30
0.0
 11
-821.3914014291189
 21
-361.8777492369381
 31
0.0
  0
LINE
  5
5D7
330
1E
100
AcDbEntity
  8
0
  6
Continuous
 62
     3
100
AcDbLine
 10
-821.447424808119
 20
-361.8924365369381
 30
0.0
 11
-822.169425168119
 21
-361.1704361769381
 31
0.0
  0
LINE
  5
5D8
330
1E
100
AcDbEntity
  8
0
  6
Continuous
 62
     3
100
AcDbLine
 10
-822.2124928901191
 20
-361.1980791329381
 30
0.0
 11
-821.5019212441191
 21
-361.9086507789381
 31
0.0
  0
LINE
  5
5D9
330
1E
100
AcDbEntity
  8
0
  6
Continuous
 62
     3
100
AcDbLine
 10
-821.554969359119
 20
-361.926313341938
 30
0.0
 11
-822.2547241431191
 21
-361.2265585579381
 31
0.0
  0
LINE
  5
5DA
330
1E
100
AcDbEntity
  8
0
  6
Continuous
 62
     3
100
AcDbLine
 10
-822.2961299101191
 20
-361.2558634699381
 30
0.0
 11
-821.6066370861192
 21
-361.9453562929381
 31
0.0
  0
LINE
  5
5DB
330
1E
100
AcDbEntity
  8
0
  6
Continuous
 62
     3
100
AcDbLine
 10
-821.6569833421191
 20
-361.9657207149381
 30
0.0
 11
-822.3367196941191
 21
-361.2859843629381
 31
0.0
  0
LINE
  5
5DC
330
1E
100
AcDbEntity
  8
0
  6
Continuous
 62
     3
100
AcDbLine
 10
-822.3765016041191
 20
-361.3169131319381
 30
0.0
 11
-821.7060593461191
 21
-361.9873553899381
 31
0.0
  0
LINE
  5
5DD
330
1E
100
AcDbEntity
  8
0
  6
Continuous
 62
     3
100
AcDbLine
 10
-821.753909679119
 20
-362.0102157339381
 30
0.0
 11
-822.415482409119
 21
-361.3486430049381
 31
0.0
  0
LINE
  5
5DE
330
1E
100
AcDbEntity
  8
0
  6
Continuous
 62
     3
100
AcDbLine
 10
-822.453667599119
 20
-361.3811684929381
 30
0.0
 11
-821.800573143119
 21
-362.0342629489381
 31
0.0
  0
LINE
  5
5DF
330
1E
100
AcDbEntity
  8
0
  6
Continuous
 62
     3
100
AcDbLine
 10
-821.846083450119
 20
-362.0594633199381
 30
0.0
 11
-822.491061424119
 21
-361.4144853459381
 31
0.0
  0
LINE
  5
5E0
330
1E
100
AcDbEntity
  8
0
  6
Continuous
 62
     3
100
AcDbLine
 10
-822.527666927119
 20
-361.4485905209381
 30
0.0
 11
-821.8904697961191
 21
-362.0857876519381
 31
0.0
  0
LINE
  5
5E1
330
1E
100
AcDbEntity
  8
0
  6
Continuous
 62
     3
100
AcDbLine
 10
-821.9337573221192
 20
-362.1132108039381
 30
0.0
 11
-822.5634859661191
 21
-361.4834821599381
 31
0.0
  0
LINE
  5
5E2
330
1E
100
AcDbEntity
  8
0
  6
Continuous
 62
     3
100
AcDbLine
 10
-822.5985192301191
 20
-361.5191595739381
 30
0.0
 11
-821.975967494119
 21
-362.1417113099381
 31
0.0
  0
LINE
  5
5E3
330
1E
100
AcDbEntity
  8
0
  6
Continuous
 62
     3
100
AcDbLine
 10
-822.0171184141189
 20
-362.1712710679381
 30
0.0
 11
-822.6327662401191
 21
-361.5556232429381
 31
0.0
  0
LINE
  5
5E4
330
1E
100
AcDbEntity
  8
0
  6
Continuous
 62
     3
100
AcDbLine
 10
-822.6662253491189
 20
-361.5928748109381
 30
0.0
 11
-822.057225072119
 21
-362.2018750879381
 31
0.0
  0
LINE
  5
5E5
330
1E
100
AcDbEntity
  8
0
  6
Continuous
 62
     3
100
AcDbLine
 10
-822.096299546119
 20
-362.2335112929381
 30
0.0
 11
-822.698893731119
 21
-361.6309171079381
 31
0.0
  0
LINE
  5
5E6
330
1E
100
AcDbEntity
  8
0
  6
Continuous
 62
     3
100
AcDbLine
 10
-822.730767354119
 20
-361.6697541629381
 30
0.0
 11
-822.134351160119
 21
-362.2661703569381
 31
0.0
  0
LINE
  5
5E7
330
1E
100
AcDbEntity
  8
0
  6
Continuous
 62
     3
100
AcDbLine
 10
-822.1713866041191
 20
-362.2998455909381
 30
0.0
 11
-822.7618409551192
 21
-361.7093912399381
 31
0.0
  0
LINE
  5
5E8
330
1E
100
AcDbEntity
  8
0
  6
Continuous
 62
     3
100
AcDbLine
 10
-822.7921079981189
 20
-361.7498348749382
 30
0.0
 11
-822.2074100181192
 21
-362.3345328549381
 31
0.0
  0
LINE
  5
5E9
330
1E
100
AcDbEntity
  8
0
  6
Continuous
 62
     3
100
AcDbLine
 10
-822.242423041119
 20
-362.3702305099381
 30
0.0
 11
-822.8215606221191
 21
-361.7910929289381
 31
0.0
  0
LINE
  5
5EA
330
1E
100
AcDbEntity
  8
0
  6
Continuous
 62
     3
100
AcDbLine
 10
-822.8501895781191
 20
-361.8331746509381
 30
0.0
 11
-822.2764248331191
 21
-362.4069393959381
 31
0.0
  0
LINE
  5
5EB
330
1E
100
AcDbEntity
  8
0
  6
Continuous
 62
     3
100
AcDbLine
 10
-822.309412066119
 20
-362.4446628419381
 30
0.0
 11
-822.877984157119
 21
-361.8760907499381
 31
0.0
  0
LINE
  5
5EC
330
1E
100
AcDbEntity
  8
0
  6
Continuous
 62
     3
100
AcDbLine
 10
-822.904932099119
 20
-361.9198534869381
 30
0.0
 11
-822.341378878119
 21
-362.4834067069381
 31
0.0
  0
LINE
  5
5ED
330
1E
100
AcDbEntity
  8
0
  6
Continuous
 62
     3
100
AcDbLine
 10
-822.3723168061191
 20
-362.5231794569381
 30
0.0
 11
-822.9310194841191
 21
-361.9644767799381
 31
0.0
  0
LINE
  5
5EE
330
1E
100
AcDbEntity
  8
0
  6
Continuous
 62
     3
100
AcDbLine
 10
-822.956230614119
 20
-362.0099763279381
 30
0.0
 11
-822.4022146751192
 21
-362.5639922659381
 31
0.0
  0
LINE
  5
5EF
330
1E
100
AcDbEntity
  8
0
  6
Continuous
 62
     3
100
AcDbLine
 10
-822.4310584531192
 20
-362.6058591659381
 30
0.0
 11
-822.980547865119
 21
-362.0563697549381
 31
0.0
  0
LINE
  5
5F0
330
1E
100
AcDbEntity
  8
0
  6
Continuous
 62
     3
100
AcDbLine
 10
-823.0039515181189
 20
-362.1036767799381
 30
0.0
 11
-822.458831067119
 21
-362.6487972309381
 31
0.0
  0
LINE
  5
5F1
330
1E
100
AcDbEntity
  8
0
  6
Continuous
 62
     3
100
AcDbLine
 10
-822.485512165119
 20
-362.6928268109381
 30
0.0
 11
-823.0264195631191
 21
-362.1519194129381
 31
0.0
  0
LINE
  5
5F2
330
1E
100
AcDbEntity
  8
0
  6
Continuous
 62
     3
100
AcDbLine
 10
-823.047927466119
 20
-362.2011221879381
 30
0.0
 11
-822.5110778291192
 21
-362.7379718249381
 31
0.0
  0
LINE
  5
5F3
330
1E
100
AcDbEntity
  8
0
  6
Continuous
 62
     3
100
AcDbLine
 10
-822.5355002171191
 20
-362.7842601149381
 30
0.0
 11
-823.068447900119
 21
-362.2513124319381
 31
0.0
  0
LINE
  5
5F4
330
1E
100
AcDbEntity
  8
0
  6
Continuous
 62
     3
100
AcDbLine
 10
-823.087950424119
 20
-362.3025205859381
 30
0.0
 11
-822.558747129119
 21
-362.8317238809381
 31
0.0
  0
LINE
  5
5F5
330
1E
100
AcDbEntity
  8
0
  6
Continuous
 62
     3
100
AcDbLine
 10
-822.580781473119
 20
-362.8804002149381
 30
0.0
 11
-823.1064011091191
 21
-362.3547805789381
 31
0.0
  0
LINE
  5
5F6
330
1E
100
AcDbEntity
  8
0
  6
Continuous
 62
     3
100
AcDbLine
 10
-823.1237620921191
 20
-362.4081302739381
 30
0.0
 11
-822.601560616119
 21
-362.9303317499381
 31
0.0
  0
LINE
  5
5F7
330
1E
100
AcDbEntity
  8
0
  6
Continuous
 62
     3
100
AcDbLine
 10
-822.6210355831192
 20
-362.9815674619381
 30
0.0
 11
-823.1399910441192
 21
-362.4626120009381
 31
0.0
  0
LINE
  5
5F8
330
1E
100
AcDbEntity
  8
0
  6
Continuous
 62
     3
100
AcDbLine
 10
-823.155040530119
 20
-362.5182731929381
 30
0.0
 11
-822.6391500691191
 21
-363.0341636529381
 31
0.0
  0
LINE
  5
5F9
330
1E
100
AcDbEntity
  8
0
  6
Continuous
 62
     3
100
AcDbLine
 10
-822.655839211119
 20
-363.0881851899381
 30
0.0
 11
-823.168857243119
 21
-362.5751671579381
 31
0.0
  0
LINE
  5
5FA
330
1E
100
AcDbEntity
  8
0
  6
Continuous
 62
     3
100
AcDbLine
 10
-823.1813810671191
 20
-362.6333540119381
 30
0.0
 11
-822.671028040119
 21
-363.1437070389381
 31
0.0
  0
LINE
  5
5FB
330
1E
100
AcDbEntity
  8
0
  6
Continuous
 62
     3
100
AcDbLine
 10
-822.684629525119
 20
-363.2008162319381
 30
0.0
 11
-823.1925439261189
 21
-362.6929018309381
 31
0.0
  0
LINE
  5
5FC
330
1E
100
AcDbEntity
  8
0
  6
Continuous
 62
     3
100
AcDbLine
 10
-823.2022683631191
 20
-362.7538880729381
 30
0.0
 11
-822.6965420541191
 21
-363.2596143809381
 31
0.0
  0
LINE
  5
5FD
330
1E
100
AcDbEntity
  8
0
  6
Continuous
 62
     3
100
AcDbLine
 10
-822.706646161119
 20
-363.3202209529381
 30
0.0
 11
-823.2104657551191
 21
-362.8164013589381
 31
0.0
  0
LINE
  5
5FE
330
1E
100
AcDbEntity
  8
0
  6
Continuous
 62
     3
100
AcDbLine
 10
-823.2170340641189
 20
-362.8805437269381
 30
0.0
 11
-822.7148001841191
 21
-363.3827776069381
 31
0.0
  0
LINE
  5
5FF
330
1E
100
AcDbEntity
  8
0
  6
Continuous
 62
     3
100
AcDbLine
 10
-822.7208344281191
 20
-363.4474540409381
 30
0.0
 11
-823.2218549411191
 21
-362.946433528938
 31
0.0
  0
LINE
  5
600
330
1E
100
AcDbEntity
  8
0
  6
Continuous
 62
     3
100
AcDbLine
 10
-823.224789956119
 20
-363.0142091919381
 30
0.0
 11
-822.7245431141192
 21
-363.5144560329381
 31
0.0
  0
LINE
  5
601
330
1E
100
AcDbEntity
  8
0
  6
Continuous
 62
     3
100
AcDbLine
 10
-821.128684187119
 20
-365.322446994938
 30
0.0
 11
-821.1303217621191
 21
-365.3208094199381
 31
0.0
  0
LINE
  5
602
330
1E
100
AcDbEntity
  8
0
  6
Continuous
 62
     3
100
AcDbLine
 10
-822.718839090119
 20
-363.7322920919381
 30
0.0
 11
-823.2204766651191
 21
-363.2306545169381
 31
0.0
  0
LINE
  5
603
330
1E
100
AcDbEntity
  8
0
  6
Continuous
 62
     3
100
AcDbLine
 10
-823.2138651501191
 20
-363.3079767099381
 30
0.0
 11
-822.7099356071191
 21
-363.8119062529381
 31
0.0
  0
LINE
  5
604
330
1E
100
AcDbEntity
  8
0
  6
Continuous
 62
     3
100
AcDbLine
 10
-821.2099359241189
 20
-365.3119059359381
 30
0.0
 11
-821.2060063801191
 21
-365.3158354799381
 31
0.0
  0
LINE
  5
605
330
1E
100
AcDbEntity
  8
0
  6
Continuous
 62
     3
100
AcDbLine
 10
-821.2864639681191
 20
-365.3060885699381
 30
0.0
 11
-821.294111599119
 21
-365.2984409399381
 31
0.0
  0
LINE
  5
606
330
1E
100
AcDbEntity
  8
0
  6
Continuous
 62
     3
100
AcDbLine
 10
-822.6964706101192
 20
-363.8960819279381
 30
0.0
 11
-823.204118241119
 21
-363.3884342979381
 31
0.0
  0
LINE
  5
607
330
1E
100
AcDbEntity
  8
0
  6
Continuous
 62
     3
100
AcDbLine
 10
-823.1907699211191
 20
-363.4724932949381
 30
0.0
 11
-822.6774119621191
 21
-363.985851253938
 31
0.0
  0
LINE
  5
608
330
1E
100
AcDbEntity
  8
0
  6
Continuous
 62
     3
100
AcDbLine
 10
-821.3838809251191
 20
-365.2793822919381
 30
0.0
 11
-821.370522966119
 21
-365.292740250938
 31
0.0
  0
LINE
  5
609
330
1E
100
AcDbEntity
  8
0
  6
Continuous
 62
     3
100
AcDbLine
 10
-821.458797016119
 20
-365.2751768789381
 30
0.0
 11
-821.480802181119
 21
-365.2531717129381
 31
0.0
  0
LINE
  5
60A
330
1E
100
AcDbEntity
  8
0
  6
Continuous
 62
     3
100
AcDbLine
 10
-822.651201384119
 20
-364.0827725109381
 30
0.0
 11
-823.173206549119
 21
-363.5607673449381
 31
0.0
  0
LINE
  5
60B
330
1E
100
AcDbEntity
  8
0
  6
Continuous
 62
     3
100
AcDbLine
 10
-823.150591305119
 20
-363.6540932679381
 30
0.0
 11
-822.615274926119
 21
-364.1894096459381
 31
0.0
  0
LINE
  5
60C
330
1E
100
AcDbEntity
  8
0
  6
Continuous
 62
     3
100
AcDbLine
 10
-821.5874393171191
 20
-365.2172452559381
 30
0.0
 11
-821.552122938119
 21
-365.2525616339381
 31
0.0
  0
LINE
  5
60D
330
1E
100
AcDbEntity
  8
0
  6
Continuous
 62
     3
100
AcDbLine
 10
-821.6516950821191
 20
-365.2237001689381
 30
0.0
 11
-821.708618491119
 21
-365.1667767599381
 31
0.0
  0
LINE
  5
60E
330
1E
100
AcDbEntity
  8
0
  6
Continuous
 62
     3
100
AcDbLine
 10
-822.5648064301191
 20
-364.3105888199381
 30
0.0
 11
-823.1217298391191
 21
-363.7536654119381
 31
0.0
  0
LINE
  5
60F
330
1E
100
AcDbEntity
  8
0
  6
Continuous
 62
     3
100
AcDbLine
 10
-823.084808936119
 20
-363.8612969929381
 30
0.0
 11
-822.4881649111191
 21
-364.4579410179381
 31
0.0
  0
LINE
  5
610
330
1E
100
AcDbEntity
  8
0
  6
Continuous
 62
     3
100
AcDbLine
 10
-821.855970688119
 20
-365.0901352409381
 30
0.0
 11
-821.759326663119
 21
-365.1867792659381
 31
0.0
  0
LINE
  5
611
330
1E
100
AcDbEntity
  8
0
  6
Continuous
 62
     3
100
AcDbLine
 10
-821.878025968119
 20
-365.1387906389381
 30
0.0
 11
-822.0888047551191
 21
-364.9280118519381
 31
0.0
  0
LINE
  5
612
330
1E
100
AcDbEntity
  8
0
  6
Continuous
 62
     3
100
AcDbLine
 10
-822.326041522119
 20
-364.6907750849381
 30
0.0
 11
-823.0368203101191
 21
-363.9799962969381
 31
0.0
  0
LINE
  5
613
330
1E
100
AcDbEntity
  8
0
  6
Continuous
 62
     3
100
AcDbLine
 10
-822.972024082119
 20
-364.1155032029381
 30
0.0
 11
-822.0135328741189
 21
-365.0739944109381
 31
0.0
  0
LINE
  5
614
330
1E
100
AcDbEntity
  8
0
  6
Continuous
 62
     3
100
AcDbLine
 10
-822.180065409119
 20
-364.9781725539381
 30
0.0
 11
-822.8762022241191
 21
-364.2820357389381
 31
0.0
  0
LINE
  5
615
330
1E
100
AcDbEntity
  8
0
  6
Continuous
 62
     3
100
AcDbLine
 10
-822.6641215751191
 20
-364.5648270659381
 30
0.0
 11
-822.462856736119
 21
-364.7660919049381
 31
0.0
  0
LINE
  5
616
330
1E
100
AcDbEntity
  8
0
  6
Continuous
 62
     3
100
AcDbLine
 10
-822.795253792119
 20
-363.5144560329381
 30
0.0
 11
-823.2256756171191
 21
-363.0840342089381
 31
0.0
  0
LINE
  5
617
330
1E
100
AcDbEntity
  8
0
  6
Continuous
 62
     3
100
AcDbLine
 10
-823.2243166391191
 20
-363.1561038649381
 30
0.0
 11
-822.8659644701192
 21
-363.5144560329381
 31
0.0
  0
CIRCLE
  5
618
330
1E
100
AcDbEntity
  8
0
  6
Continuous
 62
     1
100
AcDbCircle
 10
-820.9756846601191
 20
-363.5776549899381
 30
0.0
 40
1.75
  0
CIRCLE
  5
619
330
1E
100
AcDbEntity
  8
0
  6
Continuous
 62
     3
100
AcDbCircle
 10
-834.9756846601191
 20
-363.5776549899381
 30
0.0
 40
0.89
  0
CIRCLE
  5
61A
330
1E
100
AcDbEntity
  8
0
  6
Continuous
 62
     3
100
AcDbCircle
 10
-820.9756846601191
 20
-363.5776549899381
 30
0.0
 40
0.89
  0
LWPOLYLINE
  5
61B
330
1E
100
AcDbEntity
  8
0
 62
     1
100
AcDbPolyline
 90
        3
 70
     0
 43
0.0
 10
3.141492651413534E+99
 20
1.269263905633295E+99
 10
3.141492651413534E+99
 20
1.269263905633295E+99
 10
3.141492651413534E+99
 20
1.269263905633295E+99
  0
POINT
  5
620
330
1E
100
AcDbEntity
  8
0
  6
Continuous
 62
     1
100
AcDbPoint
 10
-1.470580238991736E+63
 20
-5.941616374145985E+73
 30
0.0
  0
POINT
  5
621
330
1E
100
AcDbEntity
  8
0
  6
Continuous
 62
     1
100
AcDbPoint
 10
-1.470580238991736E+63
 20
-5.941616374145985E+73
 30
0.0
  0
POINT
  5
622
330
1E
100
AcDbEntity
  8
0
  6
Continuous
 62
     1
100
AcDbPoint
 10
3.141492651413534E+99
 20
1.269263905633295E+99
 30
0.0
  0
POINT
  5
623
330
1E
100
AcDbEntity
  8
0
  6
Continuous
 62
     1
100
AcDbPoint
 10
3.141492651413534E+99
 20
1.269263905633295E+99
 30
0.0
  0
POINT
  5
624
330
1E
100
AcDbEntity
  8
0
  6
Continuous
 62
     1
100
AcDbPoint
 10
-1.470580238991736E+63
 20
-5.941616374145985E+73
 30
0.0
  0
POINT
  5
625
330
1E
100
AcDbEntity
  8
0
  6
Continuous
 62
     1
100
AcDbPoint
 10
-1.470580238991736E+63
 20
-5.941616374145985E+73
 30
0.0
  0
POINT
  5
626
330
1E
100
AcDbEntity
  8
0
  6
Continuous
 62
     1
100
AcDbPoint
 10
3.141492651413534E+99
 20
1.269263905633295E+99
 30
0.0
  0
POINT
  5
627
330
1E
100
AcDbEntity
  8
0
  6
Continuous
 62
     1
100
AcDbPoint
 10
3.141492651413534E+99
 20
1.269263905633295E+99
 30
0.0
  0
POINT
  5
628
330
1E
100
AcDbEntity
  8
0
  6
Continuous
 62
     1
100
AcDbPoint
 10
-1.470580238991736E+63
 20
-5.941616374145985E+73
 30
0.0
  0
POINT
  5
629
330
1E
100
AcDbEntity
  8
0
  6
Continuous
 62
     1
100
AcDbPoint
 10
-1.470580238991736E+63
 20
-5.941616374145985E+73
 30
0.0
  0
POINT
  5
62A
330
1E
100
AcDbEntity
  8
0
  6
Continuous
 62
     1
100
AcDbPoint
 10
3.141492651413534E+99
 20
1.269263905633295E+99
 30
0.0
  0
POINT
  5
62B
330
1E
100
AcDbEntity
  8
0
  6
Continuous
 62
     1
100
AcDbPoint
 10
3.141492651413534E+99
 20
1.269263905633295E+99
 30
0.0
  0
POINT
  5
62C
330
1E
100
AcDbEntity
  8
0
  6
Continuous
 62
     1
100
AcDbPoint
 10
-1.470580238991736E+63
 20
-5.941616374145985E+73
 30
0.0
  0
POINT
  5
62D
330
1E
100
AcDbEntity
  8
0
  6
Continuous
 62
     1
100
AcDbPoint
 10
-1.470580238991736E+63
 20
-5.941616374145985E+73
 30
0.0
  0
POINT
  5
62E
330
1E
100
AcDbEntity
  8
0
  6
Continuous
 62
     1
100
AcDbPoint
 10
3.141492651413534E+99
 20
1.269263905633295E+99
 30
0.0
  0
POINT
  5
62F
330
1E
100
AcDbEntity
  8
0
  6
Continuous
 62
     1
100
AcDbPoint
 10
3.141492651413534E+99
 20
1.269263905633295E+99
 30
0.0
  0
POINT
  5
630
330
1E
100
AcDbEntity
  8
0
  6
Continuous
 62
     1
100
AcDbPoint
 10
-1.470580238991736E+63
 20
-5.941616374145985E+73
 30
0.0
  0
POINT
  5
631
330
1E
100
AcDbEntity
  8
0
  6
Continuous
 62
     1
100
AcDbPoint
 10
-1.470580238991736E+63
 20
-5.941616374145985E+73
 30
0.0
  0
POINT
  5
632
330
1E
100
AcDbEntity
  8
0
  6
Continuous
 62
     1
100
AcDbPoint
 10
3.141492651413534E+99
 20
1.269263905633295E+99
 30
0.0
  0
POINT
  5
633
330
1E
100
AcDbEntity
  8
0
  6
Continuous
 62
     1
100
AcDbPoint
 10
3.141492651413534E+99
 20
1.269263905633295E+99
 30
0.0
  0
POINT
  5
634
330
1E
100
AcDbEntity
  8
0
  6
Continuous
 62
     1
100
AcDbPoint
 10
-1.470580238991736E+63
 20
-5.941616374145985E+73
 30
0.0
  0
POINT
  5
635
330
1E
100
AcDbEntity
  8
0
  6
Continuous
 62
     1
100
AcDbPoint
 10
-1.470580238991736E+63
 20
-5.941616374145985E+73
 30
0.0
  0
LWPOLYLINE
  5
636
330
1E
100
AcDbEntity
  8
0
 62
     1
100
AcDbPolyline
 90
        3
 70
     0
 43
0.0
 10
3.141492651413534E+99
 20
1.269263905633295E+99
 10
3.141492651413534E+99
 20
1.269263905633295E+99
 10
3.141492651413534E+99
 20
1.269263905633295E+99
  0
POINT
  5
63B
330
1E
100
AcDbEntity
  8
0
  6
Continuous
 62
     1
100
AcDbPoint
 10
-1.470580238991736E+63
 20
-5.941616374145985E+73
 30
0.0
  0
POINT
  5
63C
330
1E
100
AcDbEntity
  8
0
  6
Continuous
 62
     1
100
AcDbPoint
 10
-1.470580238991736E+63
 20
-5.941616374145985E+73
 30
0.0
  0
POINT
  5
63D
330
1E
100
AcDbEntity
  8
0
  6
Continuous
 62
     1
100
AcDbPoint
 10
3.141492651413534E+99
 20
1.269263905633295E+99
 30
0.0
  0
POINT
  5
63E
330
1E
100
AcDbEntity
  8
0
  6
Continuous
 62
     1
100
AcDbPoint
 10
3.141492651413534E+99
 20
1.269263905633295E+99
 30
0.0
  0
POINT
  5
63F
330
1E
100
AcDbEntity
  8
0
  6
Continuous
 62
     1
100
AcDbPoint
 10
-1.470580238991736E+63
 20
-5.941616374145985E+73
 30
0.0
  0
POINT
  5
640
330
1E
100
AcDbEntity
  8
0
  6
Continuous
 62
     1
100
AcDbPoint
 10
-1.470580238991736E+63
 20
-5.941616374145985E+73
 30
0.0
  0
POINT
  5
641
330
1E
100
AcDbEntity
  8
0
  6
Continuous
 62
     1
100
AcDbPoint
 10
3.141492651413534E+99
 20
1.269263905633295E+99
 30
0.0
  0
POINT
  5
642
330
1E
100
AcDbEntity
  8
0
  6
Continuous
 62
     1
100
AcDbPoint
 10
3.141492651413534E+99
 20
1.269263905633295E+99
 30
0.0
  0
POINT
  5
643
330
1E
100
AcDbEntity
  8
0
  6
Continuous
 62
     1
100
AcDbPoint
 10
-1.470580238991736E+63
 20
-5.941616374145985E+73
 30
0.0
  0
POINT
  5
644
330
1E
100
AcDbEntity
  8
0
  6
Continuous
 62
     1
100
AcDbPoint
 10
-1.470580238991736E+63
 20
-5.941616374145985E+73
 30
0.0
  0
POINT
  5
645
330
1E
100
AcDbEntity
  8
0
  6
Continuous
 62
     1
100
AcDbPoint
 10
3.141492651413534E+99
 20
1.269263905633295E+99
 30
0.0
  0
POINT
  5
646
330
1E
100
AcDbEntity
  8
0
  6
Continuous
 62
     1
100
AcDbPoint
 10
3.141492651413534E+99
 20
1.269263905633295E+99
 30
0.0
  0
POINT
  5
647
330
1E
100
AcDbEntity
  8
0
  6
Continuous
 62
     1
100
AcDbPoint
 10
-1.470580238991736E+63
 20
-5.941616374145985E+73
 30
0.0
  0
POINT
  5
648
330
1E
100
AcDbEntity
  8
0
  6
Continuous
 62
     1
100
AcDbPoint
 10
-1.470580238991736E+63
 20
-5.941616374145985E+73
 30
0.0
  0
POINT
  5
649
330
1E
100
AcDbEntity
  8
0
  6
Continuous
 62
     1
100
AcDbPoint
 10
3.141492651413534E+99
 20
1.269263905633295E+99
 30
0.0
  0
POINT
  5
64A
330
1E
100
AcDbEntity
  8
0
  6
Continuous
 62
     1
100
AcDbPoint
 10
3.141492651413534E+99
 20
1.269263905633295E+99
 30
0.0
  0
POINT
  5
64B
330
1E
100
AcDbEntity
  8
0
  6
Continuous
 62
     1
100
AcDbPoint
 10
-1.470580238991736E+63
 20
-5.941616374145985E+73
 30
0.0
  0
POINT
  5
64C
330
1E
100
AcDbEntity
  8
0
  6
Continuous
 62
     1
100
AcDbPoint
 10
-1.470580238991736E+63
 20
-5.941616374145985E+73
 30
0.0
  0
POINT
  5
64D
330
1E
100
AcDbEntity
  8
0
  6
Continuous
 62
     1
100
AcDbPoint
 10
3.141492651413534E+99
 20
1.269263905633295E+99
 30
0.0
  0
POINT
  5
64E
330
1E
100
AcDbEntity
  8
0
  6
Continuous
 62
     1
100
AcDbPoint
 10
3.141492651413534E+99
 20
1.269263905633295E+99
 30
0.0
  0
POINT
  5
64F
330
1E
100
AcDbEntity
  8
0
  6
Continuous
 62
     1
100
AcDbPoint
 10
-1.470580238991736E+63
 20
-5.941616374145985E+73
 30
0.0
  0
POINT
  5
650
330
1E
100
AcDbEntity
  8
0
  6
Continuous
 62
     1
100
AcDbPoint
 10
-1.470580238991736E+63
 20
-5.941616374145985E+73
 30
0.0
  0
LWPOLYLINE
  5
651
330
1E
100
AcDbEntity
  8
0
 62
     1
100
AcDbPolyline
 90
        3
 70
     0
 43
0.0
 10
1.269263905633295E+99
 20
-5.479536498971391E+72
 10
1.269263905633295E+99
 20
-5.479536498971391E+72
 10
1.269263905633295E+99
 20
-5.479536498971391E+72
  0
LINE
  5
656
330
1E
100
AcDbEntity
  8
0
  6
Continuous
 62
     1
100
AcDbLine
 10
-5.941616374145985E+73
 20
503.5936508089999
 30
0.0
 11
-5.941616374145985E+73
 21
504.240698422
 31
0.0
  0
LINE
  5
657
330
1E
100
AcDbEntity
  8
0
  6
Continuous
 62
     1
100
AcDbLine
 10
-5.941616374145985E+73
 20
503.5936508089999
 30
0.0
 11
-5.941616374145985E+73
 21
502.946603196
 31
0.0
  0
POINT
  5
658
330
1E
100
AcDbEntity
  8
0
  6
Continuous
 62
     1
100
AcDbPoint
 10
1.269263905633295E+99
 20
-5.479536498971391E+72
 30
0.0
  0
POINT
  5
659
330
1E
100
AcDbEntity
  8
0
  6
Continuous
 62
     1
100
AcDbPoint
 10
1.269263905633295E+99
 20
-5.479536498971391E+72
 30
0.0
  0
LINE
  5
65A
330
1E
100
AcDbEntity
  8
0
  6
Continuous
 62
     1
100
AcDbLine
 10
-5.941616374145985E+73
 20
503.5936508089999
 30
0.0
 11
-5.941616374145985E+73
 21
504.240698422
 31
0.0
  0
LINE
  5
65B
330
1E
100
AcDbEntity
  8
0
  6
Continuous
 62
     1
100
AcDbLine
 10
-5.941616374145985E+73
 20
503.5936508089999
 30
0.0
 11
-5.941616374145985E+73
 21
502.946603196
 31
0.0
  0
LWPOLYLINE
  5
65C
330
1E
100
AcDbEntity
  8
0
 62
     1
100
AcDbPolyline
 90
        3
 70
     0
 43
0.0
 10
3.141492651413534E+99
 20
1.269263905633295E+99
 10
3.141492651413534E+99
 20
1.269263905633295E+99
 10
3.141492651413534E+99
 20
1.269263905633295E+99
  0
POINT
  5
661
330
1E
100
AcDbEntity
  8
0
  6
Continuous
 62
     1
100
AcDbPoint
 10
-1.470580238991736E+63
 20
-5.941616374145985E+73
 30
0.0
  0
POINT
  5
662
330
1E
100
AcDbEntity
  8
0
  6
Continuous
 62
     1
100
AcDbPoint
 10
-1.470580238991736E+63
 20
-5.941616374145985E+73
 30
0.0
  0
POINT
  5
663
330
1E
100
AcDbEntity
  8
0
  6
Continuous
 62
     1
100
AcDbPoint
 10
3.141492651413534E+99
 20
1.269263905633295E+99
 30
0.0
  0
POINT
  5
664
330
1E
100
AcDbEntity
  8
0
  6
Continuous
 62
     1
100
AcDbPoint
 10
3.141492651413534E+99
 20
1.269263905633295E+99
 30
0.0
  0
POINT
  5
665
330
1E
100
AcDbEntity
  8
0
  6
Continuous
 62
     1
100
AcDbPoint
 10
-1.470580238991736E+63
 20
-5.941616374145985E+73
 30
0.0
  0
POINT
  5
666
330
1E
100
AcDbEntity
  8
0
  6
Continuous
 62
     1
100
AcDbPoint
 10
-1.470580238991736E+63
 20
-5.941616374145985E+73
 30
0.0
  0
POINT
  5
667
330
1E
100
AcDbEntity
  8
0
  6
Continuous
 62
     1
100
AcDbPoint
 10
3.141492651413534E+99
 20
1.269263905633295E+99
 30
0.0
  0
POINT
  5
668
330
1E
100
AcDbEntity
  8
0
  6
Continuous
 62
     1
100
AcDbPoint
 10
3.141492651413534E+99
 20
1.269263905633295E+99
 30
0.0
  0
POINT
  5
669
330
1E
100
AcDbEntity
  8
0
  6
Continuous
 62
     1
100
AcDbPoint
 10
-1.470580238991736E+63
 20
-5.941616374145985E+73
 30
0.0
  0
POINT
  5
66A
330
1E
100
AcDbEntity
  8
0
  6
Continuous
 62
     1
100
AcDbPoint
 10
-1.470580238991736E+63
 20
-5.941616374145985E+73
 30
0.0
  0
POINT
  5
66B
330
1E
100
AcDbEntity
  8
0
  6
Continuous
 62
     1
100
AcDbPoint
 10
3.141492651413534E+99
 20
1.269263905633295E+99
 30
0.0
  0
POINT
  5
66C
330
1E
100
AcDbEntity
  8
0
  6
Continuous
 62
     1
100
AcDbPoint
 10
3.141492651413534E+99
 20
1.269263905633295E+99
 30
0.0
  0
POINT
  5
66D
330
1E
100
AcDbEntity
  8
0
  6
Continuous
 62
     1
100
AcDbPoint
 10
-1.470580238991736E+63
 20
-5.941616374145985E+73
 30
0.0
  0
POINT
  5
66E
330
1E
100
AcDbEntity
  8
0
  6
Continuous
 62
     1
100
AcDbPoint
 10
-1.470580238991736E+63
 20
-5.941616374145985E+73
 30
0.0
  0
POINT
  5
66F
330
1E
100
AcDbEntity
  8
0
  6
Continuous
 62
     1
100
AcDbPoint
 10
3.141492651413534E+99
 20
1.269263905633295E+99
 30
0.0
  0
POINT
  5
670
330
1E
100
AcDbEntity
  8
0
  6
Continuous
 62
     1
100
AcDbPoint
 10
3.141492651413534E+99
 20
1.269263905633295E+99
 30
0.0
  0
POINT
  5
671
330
1E
100
AcDbEntity
  8
0
  6
Continuous
 62
     1
100
AcDbPoint
 10
-1.470580238991736E+63
 20
-5.941616374145985E+73
 30
0.0
  0
POINT
  5
672
330
1E
100
AcDbEntity
  8
0
  6
Continuous
 62
     1
100
AcDbPoint
 10
-1.470580238991736E+63
 20
-5.941616374145985E+73
 30
0.0
  0
POINT
  5
673
330
1E
100
AcDbEntity
  8
0
  6
Continuous
 62
     1
100
AcDbPoint
 10
3.141492651413534E+99
 20
1.269263905633295E+99
 30
0.0
  0
POINT
  5
674
330
1E
100
AcDbEntity
  8
0
  6
Continuous
 62
     1
100
AcDbPoint
 10
3.141492651413534E+99
 20
1.269263905633295E+99
 30
0.0
  0
POINT
  5
675
330
1E
100
AcDbEntity
  8
0
  6
Continuous
 62
     1
100
AcDbPoint
 10
-1.470580238991736E+63
 20
-5.941616374145985E+73
 30
0.0
  0
POINT
  5
676
330
1E
100
AcDbEntity
  8
0
  6
Continuous
 62
     1
100
AcDbPoint
 10
-1.470580238991736E+63
 20
-5.941616374145985E+73
 30
0.0
  0
LWPOLYLINE
  5
677
330
1E
100
AcDbEntity
  8
0
 62
     1
100
AcDbPolyline
 90
        3
 70
     0
 43
0.0
 10
3.141492651413534E+99
 20
1.269263905633295E+99
 10
3.141492651413534E+99
 20
1.269263905633295E+99
 10
3.141492651413534E+99
 20
1.269263905633295E+99
  0
POINT
  5
67C
330
1E
100
AcDbEntity
  8
0
  6
Continuous
 62
     1
100
AcDbPoint
 10
-1.470580238991736E+63
 20
-5.941616374145985E+73
 30
0.0
  0
POINT
  5
67D
330
1E
100
AcDbEntity
  8
0
  6
Continuous
 62
     1
100
AcDbPoint
 10
-1.470580238991736E+63
 20
-5.941616374145985E+73
 30
0.0
  0
POINT
  5
67E
330
1E
100
AcDbEntity
  8
0
  6
Continuous
 62
     1
100
AcDbPoint
 10
3.141492651413534E+99
 20
1.269263905633295E+99
 30
0.0
  0
POINT
  5
67F
330
1E
100
AcDbEntity
  8
0
  6
Continuous
 62
     1
100
AcDbPoint
 10
3.141492651413534E+99
 20
1.269263905633295E+99
 30
0.0
  0
POINT
  5
680
330
1E
100
AcDbEntity
  8
0
  6
Continuous
 62
     1
100
AcDbPoint
 10
-1.470580238991736E+63
 20
-5.941616374145985E+73
 30
0.0
  0
POINT
  5
681
330
1E
100
AcDbEntity
  8
0
  6
Continuous
 62
     1
100
AcDbPoint
 10
-1.470580238991736E+63
 20
-5.941616374145985E+73
 30
0.0
  0
POINT
  5
682
330
1E
100
AcDbEntity
  8
0
  6
Continuous
 62
     1
100
AcDbPoint
 10
3.141492651413534E+99
 20
1.269263905633295E+99
 30
0.0
  0
POINT
  5
683
330
1E
100
AcDbEntity
  8
0
  6
Continuous
 62
     1
100
AcDbPoint
 10
3.141492651413534E+99
 20
1.269263905633295E+99
 30
0.0
  0
POINT
  5
684
330
1E
100
AcDbEntity
  8
0
  6
Continuous
 62
     1
100
AcDbPoint
 10
-1.470580238991736E+63
 20
-5.941616374145985E+73
 30
0.0
  0
POINT
  5
685
330
1E
100
AcDbEntity
  8
0
  6
Continuous
 62
     1
100
AcDbPoint
 10
-1.470580238991736E+63
 20
-5.941616374145985E+73
 30
0.0
  0
POINT
  5
686
330
1E
100
AcDbEntity
  8
0
  6
Continuous
 62
     1
100
AcDbPoint
 10
3.141492651413534E+99
 20
1.269263905633295E+99
 30
0.0
  0
POINT
  5
687
330
1E
100
AcDbEntity
  8
0
  6
Continuous
 62
     1
100
AcDbPoint
 10
3.141492651413534E+99
 20
1.269263905633295E+99
 30
0.0
  0
POINT
  5
688
330
1E
100
AcDbEntity
  8
0
  6
Continuous
 62
     1
100
AcDbPoint
 10
-1.470580238991736E+63
 20
-5.941616374145985E+73
 30
0.0
  0
POINT
  5
689
330
1E
100
AcDbEntity
  8
0
  6
Continuous
 62
     1
100
AcDbPoint
 10
-1.470580238991736E+63
 20
-5.941616374145985E+73
 30
0.0
  0
POINT
  5
68A
330
1E
100
AcDbEntity
  8
0
  6
Continuous
 62
     1
100
AcDbPoint
 10
3.141492651413534E+99
 20
1.269263905633295E+99
 30
0.0
  0
POINT
  5
68B
330
1E
100
AcDbEntity
  8
0
  6
Continuous
 62
     1
100
AcDbPoint
 10
3.141492651413534E+99
 20
1.269263905633295E+99
 30
0.0
  0
POINT
  5
68C
330
1E
100
AcDbEntity
  8
0
  6
Continuous
 62
     1
100
AcDbPoint
 10
-1.470580238991736E+63
 20
-5.941616374145985E+73
 30
0.0
  0
POINT
  5
68D
330
1E
100
AcDbEntity
  8
0
  6
Continuous
 62
     1
100
AcDbPoint
 10
-1.470580238991736E+63
 20
-5.941616374145985E+73
 30
0.0
  0
POINT
  5
68E
330
1E
100
AcDbEntity
  8
0
  6
Continuous
 62
     1
100
AcDbPoint
 10
3.141492651413534E+99
 20
1.269263905633295E+99
 30
0.0
  0
POINT
  5
68F
330
1E
100
AcDbEntity
  8
0
  6
Continuous
 62
     1
100
AcDbPoint
 10
3.141492651413534E+99
 20
1.269263905633295E+99
 30
0.0
  0
POINT
  5
690
330
1E
100
AcDbEntity
  8
0
  6
Continuous
 62
     1
100
AcDbPoint
 10
-1.470580238991736E+63
 20
-5.941616374145985E+73
 30
0.0
  0
POINT
  5
691
330
1E
100
AcDbEntity
  8
0
  6
Continuous
 62
     1
100
AcDbPoint
 10
-1.470580238991736E+63
 20
-5.941616374145985E+73
 30
0.0
  0
LWPOLYLINE
  5
692
330
1E
100
AcDbEntity
  8
0
 62
     1
100
AcDbPolyline
 90
        3
 70
     0
 43
0.0
 10
3.141492651413534E+99
 20
1.269263905633295E+99
 10
3.141492651413534E+99
 20
1.269263905633295E+99
 10
3.141492651413534E+99
 20
1.269263905633295E+99
  0
POINT
  5
697
330
1E
100
AcDbEntity
  8
0
  6
Continuous
 62
     1
100
AcDbPoint
 10
-1.470580238991736E+63
 20
-5.941616374145985E+73
 30
0.0
  0
POINT
  5
698
330
1E
100
AcDbEntity
  8
0
  6
Continuous
 62
     1
100
AcDbPoint
 10
-1.470580238991736E+63
 20
-5.941616374145985E+73
 30
0.0
  0
POINT
  5
699
330
1E
100
AcDbEntity
  8
0
  6
Continuous
 62
     1
100
AcDbPoint
 10
3.141492651413534E+99
 20
1.269263905633295E+99
 30
0.0
  0
POINT
  5
69A
330
1E
100
AcDbEntity
  8
0
  6
Continuous
 62
     1
100
AcDbPoint
 10
3.141492651413534E+99
 20
1.269263905633295E+99
 30
0.0
  0
POINT
  5
69B
330
1E
100
AcDbEntity
  8
0
  6
Continuous
 62
     1
100
AcDbPoint
 10
-1.470580238991736E+63
 20
-5.941616374145985E+73
 30
0.0
  0
POINT
  5
69C
330
1E
100
AcDbEntity
  8
0
  6
Continuous
 62
     1
100
AcDbPoint
 10
-1.470580238991736E+63
 20
-5.941616374145985E+73
 30
0.0
  0
POINT
  5
69D
330
1E
100
AcDbEntity
  8
0
  6
Continuous
 62
     1
100
AcDbPoint
 10
3.141492651413534E+99
 20
1.269263905633295E+99
 30
0.0
  0
POINT
  5
69E
330
1E
100
AcDbEntity
  8
0
  6
Continuous
 62
     1
100
AcDbPoint
 10
3.141492651413534E+99
 20
1.269263905633295E+99
 30
0.0
  0
POINT
  5
69F
330
1E
100
AcDbEntity
  8
0
  6
Continuous
 62
     1
100
AcDbPoint
 10
-1.470580238991736E+63
 20
-5.941616374145985E+73
 30
0.0
  0
POINT
  5
6A0
330
1E
100
AcDbEntity
  8
0
  6
Continuous
 62
     1
100
AcDbPoint
 10
-1.470580238991736E+63
 20
-5.941616374145985E+73
 30
0.0
  0
POINT
  5
6A1
330
1E
100
AcDbEntity
  8
0
  6
Continuous
 62
     1
100
AcDbPoint
 10
3.141492651413534E+99
 20
1.269263905633295E+99
 30
0.0
  0
POINT
  5
6A2
330
1E
100
AcDbEntity
  8
0
  6
Continuous
 62
     1
100
AcDbPoint
 10
3.141492651413534E+99
 20
1.269263905633295E+99
 30
0.0
  0
POINT
  5
6A3
330
1E
100
AcDbEntity
  8
0
  6
Continuous
 62
     1
100
AcDbPoint
 10
-1.470580238991736E+63
 20
-5.941616374145985E+73
 30
0.0
  0
POINT
  5
6A4
330
1E
100
AcDbEntity
  8
0
  6
Continuous
 62
     1
100
AcDbPoint
 10
-1.470580238991736E+63
 20
-5.941616374145985E+73
 30
0.0
  0
POINT
  5
6A5
330
1E
100
AcDbEntity
  8
0
  6
Continuous
 62
     1
100
AcDbPoint
 10
3.141492651413534E+99
 20
1.269263905633295E+99
 30
0.0
  0
POINT
  5
6A6
330
1E
100
AcDbEntity
  8
0
  6
Continuous
 62
     1
100
AcDbPoint
 10
3.141492651413534E+99
 20
1.269263905633295E+99
 30
0.0
  0
POINT
  5
6A7
330
1E
100
AcDbEntity
  8
0
  6
Continuous
 62
     1
100
AcDbPoint
 10
-1.470580238991736E+63
 20
-5.941616374145985E+73
 30
0.0
  0
POINT
  5
6A8
330
1E
100
AcDbEntity
  8
0
  6
Continuous
 62
     1
100
AcDbPoint
 10
-1.470580238991736E+63
 20
-5.941616374145985E+73
 30
0.0
  0
POINT
  5
6A9
330
1E
100
AcDbEntity
  8
0
  6
Continuous
 62
     1
100
AcDbPoint
 10
3.141492651413534E+99
 20
1.269263905633295E+99
 30
0.0
  0
POINT
  5
6AA
330
1E
100
AcDbEntity
  8
0
  6
Continuous
 62
     1
100
AcDbPoint
 10
3.141492651413534E+99
 20
1.269263905633295E+99
 30
0.0
  0
POINT
  5
6AB
330
1E
100
AcDbEntity
  8
0
  6
Continuous
 62
     1
100
AcDbPoint
 10
-1.470580238991736E+63
 20
-5.941616374145985E+73
 30
0.0
  0
POINT
  5
6AC
330
1E
100
AcDbEntity
  8
0
  6
Continuous
 62
     1
100
AcDbPoint
 10
-1.470580238991736E+63
 20
-5.941616374145985E+73
 30
0.0
  0
LWPOLYLINE
  5
6AD
330
1E
100
AcDbEntity
  8
0
 62
     1
100
AcDbPolyline
 90
        3
 70
     0
 43
0.0
 10
3.141492651413534E+99
 20
1.269263905633295E+99
 10
3.141492651413534E+99
 20
1.269263905633295E+99
 10
3.141492651413534E+99
 20
1.269263905633295E+99
  0
POINT
  5
6B2
330
1E
100
AcDbEntity
  8
0
  6
Continuous
 62
     1
100
AcDbPoint
 10
-1.470580238991736E+63
 20
-5.941616374145985E+73
 30
0.0
  0
POINT
  5
6B3
330
1E
100
AcDbEntity
  8
0
  6
Continuous
 62
     1
100
AcDbPoint
 10
-1.470580238991736E+63
 20
-5.941616374145985E+73
 30
0.0
  0
POINT
  5
6B4
330
1E
100
AcDbEntity
  8
0
  6
Continuous
 62
     1
100
AcDbPoint
 10
3.141492651413534E+99
 20
1.269263905633295E+99
 30
0.0
  0
POINT
  5
6B5
330
1E
100
AcDbEntity
  8
0
  6
Continuous
 62
     1
100
AcDbPoint
 10
3.141492651413534E+99
 20
1.269263905633295E+99
 30
0.0
  0
POINT
  5
6B6
330
1E
100
AcDbEntity
  8
0
  6
Continuous
 62
     1
100
AcDbPoint
 10
-1.470580238991736E+63
 20
-5.941616374145985E+73
 30
0.0
  0
POINT
  5
6B7
330
1E
100
AcDbEntity
  8
0
  6
Continuous
 62
     1
100
AcDbPoint
 10
-1.470580238991736E+63
 20
-5.941616374145985E+73
 30
0.0
  0
POINT
  5
6B8
330
1E
100
AcDbEntity
  8
0
  6
Continuous
 62
     1
100
AcDbPoint
 10
3.141492651413534E+99
 20
1.269263905633295E+99
 30
0.0
  0
POINT
  5
6B9
330
1E
100
AcDbEntity
  8
0
  6
Continuous
 62
     1
100
AcDbPoint
 10
3.141492651413534E+99
 20
1.269263905633295E+99
 30
0.0
  0
POINT
  5
6BA
330
1E
100
AcDbEntity
  8
0
  6
Continuous
 62
     1
100
AcDbPoint
 10
-1.470580238991736E+63
 20
-5.941616374145985E+73
 30
0.0
  0
POINT
  5
6BB
330
1E
100
AcDbEntity
  8
0
  6
Continuous
 62
     1
100
AcDbPoint
 10
-1.470580238991736E+63
 20
-5.941616374145985E+73
 30
0.0
  0
POINT
  5
6BC
330
1E
100
AcDbEntity
  8
0
  6
Continuous
 62
     1
100
AcDbPoint
 10
3.141492651413534E+99
 20
1.269263905633295E+99
 30
0.0
  0
POINT
  5
6BD
330
1E
100
AcDbEntity
  8
0
  6
Continuous
 62
     1
100
AcDbPoint
 10
3.141492651413534E+99
 20
1.269263905633295E+99
 30
0.0
  0
POINT
  5
6BE
330
1E
100
AcDbEntity
  8
0
  6
Continuous
 62
     1
100
AcDbPoint
 10
-1.470580238991736E+63
 20
-5.941616374145985E+73
 30
0.0
  0
POINT
  5
6BF
330
1E
100
AcDbEntity
  8
0
  6
Continuous
 62
     1
100
AcDbPoint
 10
-1.470580238991736E+63
 20
-5.941616374145985E+73
 30
0.0
  0
POINT
  5
6C0
330
1E
100
AcDbEntity
  8
0
  6
Continuous
 62
     1
100
AcDbPoint
 10
3.141492651413534E+99
 20
1.269263905633295E+99
 30
0.0
  0
POINT
  5
6C1
330
1E
100
AcDbEntity
  8
0
  6
Continuous
 62
     1
100
AcDbPoint
 10
3.141492651413534E+99
 20
1.269263905633295E+99
 30
0.0
  0
POINT
  5
6C2
330
1E
100
AcDbEntity
  8
0
  6
Continuous
 62
     1
100
AcDbPoint
 10
-1.470580238991736E+63
 20
-5.941616374145985E+73
 30
0.0
  0
POINT
  5
6C3
330
1E
100
AcDbEntity
  8
0
  6
Continuous
 62
     1
100
AcDbPoint
 10
-1.470580238991736E+63
 20
-5.941616374145985E+73
 30
0.0
  0
POINT
  5
6C4
330
1E
100
AcDbEntity
  8
0
  6
Continuous
 62
     1
100
AcDbPoint
 10
3.141492651413534E+99
 20
1.269263905633295E+99
 30
0.0
  0
POINT
  5
6C5
330
1E
100
AcDbEntity
  8
0
  6
Continuous
 62
     1
100
AcDbPoint
 10
3.141492651413534E+99
 20
1.269263905633295E+99
 30
0.0
  0
POINT
  5
6C6
330
1E
100
AcDbEntity
  8
0
  6
Continuous
 62
     1
100
AcDbPoint
 10
-1.470580238991736E+63
 20
-5.941616374145985E+73
 30
0.0
  0
POINT
  5
6C7
330
1E
100
AcDbEntity
  8
0
  6
Continuous
 62
     1
100
AcDbPoint
 10
-1.470580238991736E+63
 20
-5.941616374145985E+73
 30
0.0
  0
LWPOLYLINE
  5
6C8
330
1E
100
AcDbEntity
  8
0
 62
     1
100
AcDbPolyline
 90
        3
 70
     0
 43
0.0
 10
3.141492651413534E+99
 20
1.269263905633295E+99
 10
3.141492651413534E+99
 20
1.269263905633295E+99
 10
3.141492651413534E+99
 20
1.269263905633295E+99
  0
POINT
  5
6CD
330
1E
100
AcDbEntity
  8
0
  6
Continuous
 62
     1
100
AcDbPoint
 10
-1.470580238991736E+63
 20
-5.941616374145985E+73
 30
0.0
  0
POINT
  5
6CE
330
1E
100
AcDbEntity
  8
0
  6
Continuous
 62
     1
100
AcDbPoint
 10
-1.470580238991736E+63
 20
-5.941616374145985E+73
 30
0.0
  0
POINT
  5
6CF
330
1E
100
AcDbEntity
  8
0
  6
Continuous
 62
     1
100
AcDbPoint
 10
3.141492651413534E+99
 20
1.269263905633295E+99
 30
0.0
  0
POINT
  5
6D0
330
1E
100
AcDbEntity
  8
0
  6
Continuous
 62
     1
100
AcDbPoint
 10
3.141492651413534E+99
 20
1.269263905633295E+99
 30
0.0
  0
POINT
  5
6D1
330
1E
100
AcDbEntity
  8
0
  6
Continuous
 62
     1
100
AcDbPoint
 10
-1.470580238991736E+63
 20
-5.941616374145985E+73
 30
0.0
  0
POINT
  5
6D2
330
1E
100
AcDbEntity
  8
0
  6
Continuous
 62
     1
100
AcDbPoint
 10
-1.470580238991736E+63
 20
-5.941616374145985E+73
 30
0.0
  0
POINT
  5
6D3
330
1E
100
AcDbEntity
  8
0
  6
Continuous
 62
     1
100
AcDbPoint
 10
3.141492651413534E+99
 20
1.269263905633295E+99
 30
0.0
  0
POINT
  5
6D4
330
1E
100
AcDbEntity
  8
0
  6
Continuous
 62
     1
100
AcDbPoint
 10
3.141492651413534E+99
 20
1.269263905633295E+99
 30
0.0
  0
POINT
  5
6D5
330
1E
100
AcDbEntity
  8
0
  6
Continuous
 62
     1
100
AcDbPoint
 10
-1.470580238991736E+63
 20
-5.941616374145985E+73
 30
0.0
  0
POINT
  5
6D6
330
1E
100
AcDbEntity
  8
0
  6
Continuous
 62
     1
100
AcDbPoint
 10
-1.470580238991736E+63
 20
-5.941616374145985E+73
 30
0.0
  0
POINT
  5
6D7
330
1E
100
AcDbEntity
  8
0
  6
Continuous
 62
     1
100
AcDbPoint
 10
3.141492651413534E+99
 20
1.269263905633295E+99
 30
0.0
  0
POINT
  5
6D8
330
1E
100
AcDbEntity
  8
0
  6
Continuous
 62
     1
100
AcDbPoint
 10
3.141492651413534E+99
 20
1.269263905633295E+99
 30
0.0
  0
POINT
  5
6D9
330
1E
100
AcDbEntity
  8
0
  6
Continuous
 62
     1
100
AcDbPoint
 10
-1.470580238991736E+63
 20
-5.941616374145985E+73
 30
0.0
  0
POINT
  5
6DA
330
1E
100
AcDbEntity
  8
0
  6
Continuous
 62
     1
100
AcDbPoint
 10
-1.470580238991736E+63
 20
-5.941616374145985E+73
 30
0.0
  0
POINT
  5
6DB
330
1E
100
AcDbEntity
  8
0
  6
Continuous
 62
     1
100
AcDbPoint
 10
3.141492651413534E+99
 20
1.269263905633295E+99
 30
0.0
  0
POINT
  5
6DC
330
1E
100
AcDbEntity
  8
0
  6
Continuous
 62
     1
100
AcDbPoint
 10
3.141492651413534E+99
 20
1.269263905633295E+99
 30
0.0
  0
POINT
  5
6DD
330
1E
100
AcDbEntity
  8
0
  6
Continuous
 62
     1
100
AcDbPoint
 10
-1.470580238991736E+63
 20
-5.941616374145985E+73
 30
0.0
  0
POINT
  5
6DE
330
1E
100
AcDbEntity
  8
0
  6
Continuous
 62
     1
100
AcDbPoint
 10
-1.470580238991736E+63
 20
-5.941616374145985E+73
 30
0.0
  0
POINT
  5
6DF
330
1E
100
AcDbEntity
  8
0
  6
Continuous
 62
     1
100
AcDbPoint
 10
3.141492651413534E+99
 20
1.269263905633295E+99
 30
0.0
  0
POINT
  5
6E0
330
1E
100
AcDbEntity
  8
0
  6
Continuous
 62
     1
100
AcDbPoint
 10
3.141492651413534E+99
 20
1.269263905633295E+99
 30
0.0
  0
POINT
  5
6E1
330
1E
100
AcDbEntity
  8
0
  6
Continuous
 62
     1
100
AcDbPoint
 10
-1.470580238991736E+63
 20
-5.941616374145985E+73
 30
0.0
  0
POINT
  5
6E2
330
1E
100
AcDbEntity
  8
0
  6
Continuous
 62
     1
100
AcDbPoint
 10
-1.470580238991736E+63
 20
-5.941616374145985E+73
 30
0.0
  0
LWPOLYLINE
  5
6E3
330
1E
100
AcDbEntity
  8
0
 62
     1
100
AcDbPolyline
 90
        3
 70
     0
 43
0.0
 10
3.141492651413534E+99
 20
1.269263905633295E+99
 10
3.141492651413534E+99
 20
1.269263905633295E+99
 10
3.141492651413534E+99
 20
1.269263905633295E+99
  0
POINT
  5
6E8
330
1E
100
AcDbEntity
  8
0
  6
Continuous
 62
     1
100
AcDbPoint
 10
-1.470580238991736E+63
 20
-5.941616374145985E+73
 30
0.0
  0
POINT
  5
6E9
330
1E
100
AcDbEntity
  8
0
  6
Continuous
 62
     1
100
AcDbPoint
 10
-1.470580238991736E+63
 20
-5.941616374145985E+73
 30
0.0
  0
POINT
  5
6EA
330
1E
100
AcDbEntity
  8
0
  6
Continuous
 62
     1
100
AcDbPoint
 10
3.141492651413534E+99
 20
1.269263905633295E+99
 30
0.0
  0
POINT
  5
6EB
330
1E
100
AcDbEntity
  8
0
  6
Continuous
 62
     1
100
AcDbPoint
 10
3.141492651413534E+99
 20
1.269263905633295E+99
 30
0.0
  0
POINT
  5
6EC
330
1E
100
AcDbEntity
  8
0
  6
Continuous
 62
     1
100
AcDbPoint
 10
-1.470580238991736E+63
 20
-5.941616374145985E+73
 30
0.0
  0
POINT
  5
6ED
330
1E
100
AcDbEntity
  8
0
  6
Continuous
 62
     1
100
AcDbPoint
 10
-1.470580238991736E+63
 20
-5.941616374145985E+73
 30
0.0
  0
POINT
  5
6EE
330
1E
100
AcDbEntity
  8
0
  6
Continuous
 62
     1
100
AcDbPoint
 10
3.141492651413534E+99
 20
1.269263905633295E+99
 30
0.0
  0
POINT
  5
6EF
330
1E
100
AcDbEntity
  8
0
  6
Continuous
 62
     1
100
AcDbPoint
 10
3.141492651413534E+99
 20
1.269263905633295E+99
 30
0.0
  0
POINT
  5
6F0
330
1E
100
AcDbEntity
  8
0
  6
Continuous
 62
     1
100
AcDbPoint
 10
-1.470580238991736E+63
 20
-5.941616374145985E+73
 30
0.0
  0
POINT
  5
6F1
330
1E
100
AcDbEntity
  8
0
  6
Continuous
 62
     1
100
AcDbPoint
 10
-1.470580238991736E+63
 20
-5.941616374145985E+73
 30
0.0
  0
POINT
  5
6F2
330
1E
100
AcDbEntity
  8
0
  6
Continuous
 62
     1
100
AcDbPoint
 10
3.141492651413534E+99
 20
1.269263905633295E+99
 30
0.0
  0
POINT
  5
6F3
330
1E
100
AcDbEntity
  8
0
  6
Continuous
 62
     1
100
AcDbPoint
 10
3.141492651413534E+99
 20
1.269263905633295E+99
 30
0.0
  0
POINT
  5
6F4
330
1E
100
AcDbEntity
  8
0
  6
Continuous
 62
     1
100
AcDbPoint
 10
-1.470580238991736E+63
 20
-5.941616374145985E+73
 30
0.0
  0
POINT
  5
6F5
330
1E
100
AcDbEntity
  8
0
  6
Continuous
 62
     1
100
AcDbPoint
 10
-1.470580238991736E+63
 20
-5.941616374145985E+73
 30
0.0
  0
POINT
  5
6F6
330
1E
100
AcDbEntity
  8
0
  6
Continuous
 62
     1
100
AcDbPoint
 10
3.141492651413534E+99
 20
1.269263905633295E+99
 30
0.0
  0
POINT
  5
6F7
330
1E
100
AcDbEntity
  8
0
  6
Continuous
 62
     1
100
AcDbPoint
 10
3.141492651413534E+99
 20
1.269263905633295E+99
 30
0.0
  0
POINT
  5
6F8
330
1E
100
AcDbEntity
  8
0
  6
Continuous
 62
     1
100
AcDbPoint
 10
-1.470580238991736E+63
 20
-5.941616374145985E+73
 30
0.0
  0
POINT
  5
6F9
330
1E
100
AcDbEntity
  8
0
  6
Continuous
 62
     1
100
AcDbPoint
 10
-1.470580238991736E+63
 20
-5.941616374145985E+73
 30
0.0
  0
POINT
  5
6FA
330
1E
100
AcDbEntity
  8
0
  6
Continuous
 62
     1
100
AcDbPoint
 10
3.141492651413534E+99
 20
1.269263905633295E+99
 30
0.0
  0
POINT
  5
6FB
330
1E
100
AcDbEntity
  8
0
  6
Continuous
 62
     1
100
AcDbPoint
 10
3.141492651413534E+99
 20
1.269263905633295E+99
 30
0.0
  0
POINT
  5
6FC
330
1E
100
AcDbEntity
  8
0
  6
Continuous
 62
     1
100
AcDbPoint
 10
-1.470580238991736E+63
 20
-5.941616374145985E+73
 30
0.0
  0
POINT
  5
6FD
330
1E
100
AcDbEntity
  8
0
  6
Continuous
 62
     1
100
AcDbPoint
 10
-1.470580238991736E+63
 20
-5.941616374145985E+73
 30
0.0
  0
LWPOLYLINE
  5
6FE
330
1E
100
AcDbEntity
  8
0
 62
     1
100
AcDbPolyline
 90
        3
 70
     0
 43
0.0
 10
3.141492651413534E+99
 20
1.269263905633295E+99
 10
3.141492651413534E+99
 20
1.269263905633295E+99
 10
3.141492651413534E+99
 20
1.269263905633295E+99
  0
POINT
  5
703
330
1E
100
AcDbEntity
  8
0
  6
Continuous
 62
     1
100
AcDbPoint
 10
-1.470580238991736E+63
 20
-5.941616374145985E+73
 30
0.0
  0
POINT
  5
704
330
1E
100
AcDbEntity
  8
0
  6
Continuous
 62
     1
100
AcDbPoint
 10
-1.470580238991736E+63
 20
-5.941616374145985E+73
 30
0.0
  0
POINT
  5
705
330
1E
100
AcDbEntity
  8
0
  6
Continuous
 62
     1
100
AcDbPoint
 10
3.141492651413534E+99
 20
1.269263905633295E+99
 30
0.0
  0
POINT
  5
706
330
1E
100
AcDbEntity
  8
0
  6
Continuous
 62
     1
100
AcDbPoint
 10
3.141492651413534E+99
 20
1.269263905633295E+99
 30
0.0
  0
POINT
  5
707
330
1E
100
AcDbEntity
  8
0
  6
Continuous
 62
     1
100
AcDbPoint
 10
-1.470580238991736E+63
 20
-5.941616374145985E+73
 30
0.0
  0
POINT
  5
708
330
1E
100
AcDbEntity
  8
0
  6
Continuous
 62
     1
100
AcDbPoint
 10
-1.470580238991736E+63
 20
-5.941616374145985E+73
 30
0.0
  0
POINT
  5
709
330
1E
100
AcDbEntity
  8
0
  6
Continuous
 62
     1
100
AcDbPoint
 10
3.141492651413534E+99
 20
1.269263905633295E+99
 30
0.0
  0
POINT
  5
70A
330
1E
100
AcDbEntity
  8
0
  6
Continuous
 62
     1
100
AcDbPoint
 10
3.141492651413534E+99
 20
1.269263905633295E+99
 30
0.0
  0
POINT
  5
70B
330
1E
100
AcDbEntity
  8
0
  6
Continuous
 62
     1
100
AcDbPoint
 10
-1.470580238991736E+63
 20
-5.941616374145985E+73
 30
0.0
  0
POINT
  5
70C
330
1E
100
AcDbEntity
  8
0
  6
Continuous
 62
     1
100
AcDbPoint
 10
-1.470580238991736E+63
 20
-5.941616374145985E+73
 30
0.0
  0
POINT
  5
70D
330
1E
100
AcDbEntity
  8
0
  6
Continuous
 62
     1
100
AcDbPoint
 10
3.141492651413534E+99
 20
1.269263905633295E+99
 30
0.0
  0
POINT
  5
70E
330
1E
100
AcDbEntity
  8
0
  6
Continuous
 62
     1
100
AcDbPoint
 10
3.141492651413534E+99
 20
1.269263905633295E+99
 30
0.0
  0
POINT
  5
70F
330
1E
100
AcDbEntity
  8
0
  6
Continuous
 62
     1
100
AcDbPoint
 10
-1.470580238991736E+63
 20
-5.941616374145985E+73
 30
0.0
  0
POINT
  5
710
330
1E
100
AcDbEntity
  8
0
  6
Continuous
 62
     1
100
AcDbPoint
 10
-1.470580238991736E+63
 20
-5.941616374145985E+73
 30
0.0
  0
POINT
  5
711
330
1E
100
AcDbEntity
  8
0
  6
Continuous
 62
     1
100
AcDbPoint
 10
3.141492651413534E+99
 20
1.269263905633295E+99
 30
0.0
  0
POINT
  5
712
330
1E
100
AcDbEntity
  8
0
  6
Continuous
 62
     1
100
AcDbPoint
 10
3.141492651413534E+99
 20
1.269263905633295E+99
 30
0.0
  0
POINT
  5
713
330
1E
100
AcDbEntity
  8
0
  6
Continuous
 62
     1
100
AcDbPoint
 10
-1.470580238991736E+63
 20
-5.941616374145985E+73
 30
0.0
  0
POINT
  5
714
330
1E
100
AcDbEntity
  8
0
  6
Continuous
 62
     1
100
AcDbPoint
 10
-1.470580238991736E+63
 20
-5.941616374145985E+73
 30
0.0
  0
POINT
  5
715
330
1E
100
AcDbEntity
  8
0
  6
Continuous
 62
     1
100
AcDbPoint
 10
3.141492651413534E+99
 20
1.269263905633295E+99
 30
0.0
  0
POINT
  5
716
330
1E
100
AcDbEntity
  8
0
  6
Continuous
 62
     1
100
AcDbPoint
 10
3.141492651413534E+99
 20
1.269263905633295E+99
 30
0.0
  0
POINT
  5
717
330
1E
100
AcDbEntity
  8
0
  6
Continuous
 62
     1
100
AcDbPoint
 10
-1.470580238991736E+63
 20
-5.941616374145985E+73
 30
0.0
  0
POINT
  5
718
330
1E
100
AcDbEntity
  8
0
  6
Continuous
 62
     1
100
AcDbPoint
 10
-1.470580238991736E+63
 20
-5.941616374145985E+73
 30
0.0
  0
LWPOLYLINE
  5
719
330
1E
100
AcDbEntity
  8
0
 62
     1
100
AcDbPolyline
 90
        3
 70
     0
 43
0.0
 10
3.141492651413534E+99
 20
1.269263905633295E+99
 10
3.141492651413534E+99
 20
1.269263905633295E+99
 10
3.141492651413534E+99
 20
1.269263905633295E+99
  0
POINT
  5
71E
330
1E
100
AcDbEntity
  8
0
  6
Continuous
 62
     1
100
AcDbPoint
 10
-1.470580238991736E+63
 20
-5.941616374145985E+73
 30
0.0
  0
POINT
  5
71F
330
1E
100
AcDbEntity
  8
0
  6
Continuous
 62
     1
100
AcDbPoint
 10
-1.470580238991736E+63
 20
-5.941616374145985E+73
 30
0.0
  0
POINT
  5
720
330
1E
100
AcDbEntity
  8
0
  6
Continuous
 62
     1
100
AcDbPoint
 10
3.141492651413534E+99
 20
1.269263905633295E+99
 30
0.0
  0
POINT
  5
721
330
1E
100
AcDbEntity
  8
0
  6
Continuous
 62
     1
100
AcDbPoint
 10
3.141492651413534E+99
 20
1.269263905633295E+99
 30
0.0
  0
POINT
  5
722
330
1E
100
AcDbEntity
  8
0
  6
Continuous
 62
     1
100
AcDbPoint
 10
-1.470580238991736E+63
 20
-5.941616374145985E+73
 30
0.0
  0
POINT
  5
723
330
1E
100
AcDbEntity
  8
0
  6
Continuous
 62
     1
100
AcDbPoint
 10
-1.470580238991736E+63
 20
-5.941616374145985E+73
 30
0.0
  0
POINT
  5
724
330
1E
100
AcDbEntity
  8
0
  6
Continuous
 62
     1
100
AcDbPoint
 10
3.141492651413534E+99
 20
1.269263905633295E+99
 30
0.0
  0
POINT
  5
725
330
1E
100
AcDbEntity
  8
0
  6
Continuous
 62
     1
100
AcDbPoint
 10
3.141492651413534E+99
 20
1.269263905633295E+99
 30
0.0
  0
POINT
  5
726
330
1E
100
AcDbEntity
  8
0
  6
Continuous
 62
     1
100
AcDbPoint
 10
-1.470580238991736E+63
 20
-5.941616374145985E+73
 30
0.0
  0
POINT
  5
727
330
1E
100
AcDbEntity
  8
0
  6
Continuous
 62
     1
100
AcDbPoint
 10
-1.470580238991736E+63
 20
-5.941616374145985E+73
 30
0.0
  0
POINT
  5
728
330
1E
100
AcDbEntity
  8
0
  6
Continuous
 62
     1
100
AcDbPoint
 10
3.141492651413534E+99
 20
1.269263905633295E+99
 30
0.0
  0
POINT
  5
729
330
1E
100
AcDbEntity
  8
0
  6
Continuous
 62
     1
100
AcDbPoint
 10
3.141492651413534E+99
 20
1.269263905633295E+99
 30
0.0
  0
POINT
  5
72A
330
1E
100
AcDbEntity
  8
0
  6
Continuous
 62
     1
100
AcDbPoint
 10
-1.470580238991736E+63
 20
-5.941616374145985E+73
 30
0.0
  0
POINT
  5
72B
330
1E
100
AcDbEntity
  8
0
  6
Continuous
 62
     1
100
AcDbPoint
 10
-1.470580238991736E+63
 20
-5.941616374145985E+73
 30
0.0
  0
POINT
  5
72C
330
1E
100
AcDbEntity
  8
0
  6
Continuous
 62
     1
100
AcDbPoint
 10
3.141492651413534E+99
 20
1.269263905633295E+99
 30
0.0
  0
POINT
  5
72D
330
1E
100
AcDbEntity
  8
0
  6
Continuous
 62
     1
100
AcDbPoint
 10
3.141492651413534E+99
 20
1.269263905633295E+99
 30
0.0
  0
POINT
  5
72E
330
1E
100
AcDbEntity
  8
0
  6
Continuous
 62
     1
100
AcDbPoint
 10
-1.470580238991736E+63
 20
-5.941616374145985E+73
 30
0.0
  0
POINT
  5
72F
330
1E
100
AcDbEntity
  8
0
  6
Continuous
 62
     1
100
AcDbPoint
 10
-1.470580238991736E+63
 20
-5.941616374145985E+73
 30
0.0
  0
POINT
  5
730
330
1E
100
AcDbEntity
  8
0
  6
Continuous
 62
     1
100
AcDbPoint
 10
3.141492651413534E+99
 20
1.269263905633295E+99
 30
0.0
  0
POINT
  5
731
330
1E
100
AcDbEntity
  8
0
  6
Continuous
 62
     1
100
AcDbPoint
 10
3.141492651413534E+99
 20
1.269263905633295E+99
 30
0.0
  0
POINT
  5
732
330
1E
100
AcDbEntity
  8
0
  6
Continuous
 62
     1
100
AcDbPoint
 10
-1.470580238991736E+63
 20
-5.941616374145985E+73
 30
0.0
  0
POINT
  5
733
330
1E
100
AcDbEntity
  8
0
  6
Continuous
 62
     1
100
AcDbPoint
 10
-1.470580238991736E+63
 20
-5.941616374145985E+73
 30
0.0
  0
LWPOLYLINE
  5
734
330
1E
100
AcDbEntity
  8
0
 62
     1
100
AcDbPolyline
 90
        3
 70
     0
 43
0.0
 10
3.141492651413534E+99
 20
1.269263905633295E+99
 10
3.141492651413534E+99
 20
1.269263905633295E+99
 10
3.141492651413534E+99
 20
1.269263905633295E+99
  0
POINT
  5
739
330
1E
100
AcDbEntity
  8
0
  6
Continuous
 62
     1
100
AcDbPoint
 10
-1.470580238991736E+63
 20
-5.941616374145985E+73
 30
0.0
  0
POINT
  5
73A
330
1E
100
AcDbEntity
  8
0
  6
Continuous
 62
     1
100
AcDbPoint
 10
-1.470580238991736E+63
 20
-5.941616374145985E+73
 30
0.0
  0
POINT
  5
73B
330
1E
100
AcDbEntity
  8
0
  6
Continuous
 62
     1
100
AcDbPoint
 10
3.141492651413534E+99
 20
1.269263905633295E+99
 30
0.0
  0
POINT
  5
73C
330
1E
100
AcDbEntity
  8
0
  6
Continuous
 62
     1
100
AcDbPoint
 10
3.141492651413534E+99
 20
1.269263905633295E+99
 30
0.0
  0
POINT
  5
73D
330
1E
100
AcDbEntity
  8
0
  6
Continuous
 62
     1
100
AcDbPoint
 10
-1.470580238991736E+63
 20
-5.941616374145985E+73
 30
0.0
  0
POINT
  5
73E
330
1E
100
AcDbEntity
  8
0
  6
Continuous
 62
     1
100
AcDbPoint
 10
-1.470580238991736E+63
 20
-5.941616374145985E+73
 30
0.0
  0
POINT
  5
73F
330
1E
100
AcDbEntity
  8
0
  6
Continuous
 62
     1
100
AcDbPoint
 10
3.141492651413534E+99
 20
1.269263905633295E+99
 30
0.0
  0
POINT
  5
740
330
1E
100
AcDbEntity
  8
0
  6
Continuous
 62
     1
100
AcDbPoint
 10
3.141492651413534E+99
 20
1.269263905633295E+99
 30
0.0
  0
POINT
  5
741
330
1E
100
AcDbEntity
  8
0
  6
Continuous
 62
     1
100
AcDbPoint
 10
-1.470580238991736E+63
 20
-5.941616374145985E+73
 30
0.0
  0
POINT
  5
742
330
1E
100
AcDbEntity
  8
0
  6
Continuous
 62
     1
100
AcDbPoint
 10
-1.470580238991736E+63
 20
-5.941616374145985E+73
 30
0.0
  0
POINT
  5
743
330
1E
100
AcDbEntity
  8
0
  6
Continuous
 62
     1
100
AcDbPoint
 10
3.141492651413534E+99
 20
1.269263905633295E+99
 30
0.0
  0
POINT
  5
744
330
1E
100
AcDbEntity
  8
0
  6
Continuous
 62
     1
100
AcDbPoint
 10
3.141492651413534E+99
 20
1.269263905633295E+99
 30
0.0
  0
POINT
  5
745
330
1E
100
AcDbEntity
  8
0
  6
Continuous
 62
     1
100
AcDbPoint
 10
-1.470580238991736E+63
 20
-5.941616374145985E+73
 30
0.0
  0
POINT
  5
746
330
1E
100
AcDbEntity
  8
0
  6
Continuous
 62
     1
100
AcDbPoint
 10
-1.470580238991736E+63
 20
-5.941616374145985E+73
 30
0.0
  0
POINT
  5
747
330
1E
100
AcDbEntity
  8
0
  6
Continuous
 62
     1
100
AcDbPoint
 10
3.141492651413534E+99
 20
1.269263905633295E+99
 30
0.0
  0
POINT
  5
748
330
1E
100
AcDbEntity
  8
0
  6
Continuous
 62
     1
100
AcDbPoint
 10
3.141492651413534E+99
 20
1.269263905633295E+99
 30
0.0
  0
POINT
  5
749
330
1E
100
AcDbEntity
  8
0
  6
Continuous
 62
     1
100
AcDbPoint
 10
-1.470580238991736E+63
 20
-5.941616374145985E+73
 30
0.0
  0
POINT
  5
74A
330
1E
100
AcDbEntity
  8
0
  6
Continuous
 62
     1
100
AcDbPoint
 10
-1.470580238991736E+63
 20
-5.941616374145985E+73
 30
0.0
  0
POINT
  5
74B
330
1E
100
AcDbEntity
  8
0
  6
Continuous
 62
     1
100
AcDbPoint
 10
3.141492651413534E+99
 20
1.269263905633295E+99
 30
0.0
  0
POINT
  5
74C
330
1E
100
AcDbEntity
  8
0
  6
Continuous
 62
     1
100
AcDbPoint
 10
3.141492651413534E+99
 20
1.269263905633295E+99
 30
0.0
  0
POINT
  5
74D
330
1E
100
AcDbEntity
  8
0
  6
Continuous
 62
     1
100
AcDbPoint
 10
-1.470580238991736E+63
 20
-5.941616374145985E+73
 30
0.0
  0
POINT
  5
74E
330
1E
100
AcDbEntity
  8
0
  6
Continuous
 62
     1
100
AcDbPoint
 10
-1.470580238991736E+63
 20
-5.941616374145985E+73
 30
0.0
  0
LWPOLYLINE
  5
74F
330
1E
100
AcDbEntity
  8
0
 62
     1
100
AcDbPolyline
 90
        3
 70
     0
 43
0.0
 10
3.141492651413534E+99
 20
1.269263905633295E+99
 10
3.141492651413534E+99
 20
1.269263905633295E+99
 10
3.141492651413534E+99
 20
1.269263905633295E+99
  0
POINT
  5
754
330
1E
100
AcDbEntity
  8
0
  6
Continuous
 62
     1
100
AcDbPoint
 10
-1.470580238991736E+63
 20
-5.941616374145985E+73
 30
0.0
  0
POINT
  5
755
330
1E
100
AcDbEntity
  8
0
  6
Continuous
 62
     1
100
AcDbPoint
 10
-1.470580238991736E+63
 20
-5.941616374145985E+73
 30
0.0
  0
POINT
  5
756
330
1E
100
AcDbEntity
  8
0
  6
Continuous
 62
     1
100
AcDbPoint
 10
3.141492651413534E+99
 20
1.269263905633295E+99
 30
0.0
  0
POINT
  5
757
330
1E
100
AcDbEntity
  8
0
  6
Continuous
 62
     1
100
AcDbPoint
 10
3.141492651413534E+99
 20
1.269263905633295E+99
 30
0.0
  0
POINT
  5
758
330
1E
100
AcDbEntity
  8
0
  6
Continuous
 62
     1
100
AcDbPoint
 10
-1.470580238991736E+63
 20
-5.941616374145985E+73
 30
0.0
  0
POINT
  5
759
330
1E
100
AcDbEntity
  8
0
  6
Continuous
 62
     1
100
AcDbPoint
 10
-1.470580238991736E+63
 20
-5.941616374145985E+73
 30
0.0
  0
POINT
  5
75A
330
1E
100
AcDbEntity
  8
0
  6
Continuous
 62
     1
100
AcDbPoint
 10
3.141492651413534E+99
 20
1.269263905633295E+99
 30
0.0
  0
POINT
  5
75B
330
1E
100
AcDbEntity
  8
0
  6
Continuous
 62
     1
100
AcDbPoint
 10
3.141492651413534E+99
 20
1.269263905633295E+99
 30
0.0
  0
POINT
  5
75C
330
1E
100
AcDbEntity
  8
0
  6
Continuous
 62
     1
100
AcDbPoint
 10
-1.470580238991736E+63
 20
-5.941616374145985E+73
 30
0.0
  0
POINT
  5
75D
330
1E
100
AcDbEntity
  8
0
  6
Continuous
 62
     1
100
AcDbPoint
 10
-1.470580238991736E+63
 20
-5.941616374145985E+73
 30
0.0
  0
POINT
  5
75E
330
1E
100
AcDbEntity
  8
0
  6
Continuous
 62
     1
100
AcDbPoint
 10
3.141492651413534E+99
 20
1.269263905633295E+99
 30
0.0
  0
POINT
  5
75F
330
1E
100
AcDbEntity
  8
0
  6
Continuous
 62
     1
100
AcDbPoint
 10
3.141492651413534E+99
 20
1.269263905633295E+99
 30
0.0
  0
POINT
  5
760
330
1E
100
AcDbEntity
  8
0
  6
Continuous
 62
     1
100
AcDbPoint
 10
-1.470580238991736E+63
 20
-5.941616374145985E+73
 30
0.0
  0
POINT
  5
761
330
1E
100
AcDbEntity
  8
0
  6
Continuous
 62
     1
100
AcDbPoint
 10
-1.470580238991736E+63
 20
-5.941616374145985E+73
 30
0.0
  0
POINT
  5
762
330
1E
100
AcDbEntity
  8
0
  6
Continuous
 62
     1
100
AcDbPoint
 10
3.141492651413534E+99
 20
1.269263905633295E+99
 30
0.0
  0
POINT
  5
763
330
1E
100
AcDbEntity
  8
0
  6
Continuous
 62
     1
100
AcDbPoint
 10
3.141492651413534E+99
 20
1.269263905633295E+99
 30
0.0
  0
POINT
  5
764
330
1E
100
AcDbEntity
  8
0
  6
Continuous
 62
     1
100
AcDbPoint
 10
-1.470580238991736E+63
 20
-5.941616374145985E+73
 30
0.0
  0
POINT
  5
765
330
1E
100
AcDbEntity
  8
0
  6
Continuous
 62
     1
100
AcDbPoint
 10
-1.470580238991736E+63
 20
-5.941616374145985E+73
 30
0.0
  0
POINT
  5
766
330
1E
100
AcDbEntity
  8
0
  6
Continuous
 62
     1
100
AcDbPoint
 10
3.141492651413534E+99
 20
1.269263905633295E+99
 30
0.0
  0
POINT
  5
767
330
1E
100
AcDbEntity
  8
0
  6
Continuous
 62
     1
100
AcDbPoint
 10
3.141492651413534E+99
 20
1.269263905633295E+99
 30
0.0
  0
POINT
  5
768
330
1E
100
AcDbEntity
  8
0
  6
Continuous
 62
     1
100
AcDbPoint
 10
-1.470580238991736E+63
 20
-5.941616374145985E+73
 30
0.0
  0
POINT
  5
769
330
1E
100
AcDbEntity
  8
0
  6
Continuous
 62
     1
100
AcDbPoint
 10
-1.470580238991736E+63
 20
-5.941616374145985E+73
 30
0.0
  0
LWPOLYLINE
  5
76A
330
1E
100
AcDbEntity
  8
0
 62
     1
100
AcDbPolyline
 90
        4
 70
     1
 43
0.0
 10
-840.062704044119
 20
-511.2648774339382
 10
-833.0627040441191
 20
-511.2648774339382
 10
-833.0627040441191
 20
-490.2648774339381
 10
-840.062704044119
 20
-490.2648774339381
  0
TEXT
  5
770
330
1E
100
AcDbEntity
  8
0
  6
Continuous
 62
     5
100
AcDbText
 10
-840.9856846591191
 20
-322.0776549879381
 30
0.1
 40
2.0
  1
６４.５
 41
0.8
  7
KANJI1
100
AcDbText
  0
TEXT
  5
772
330
1E
100
AcDbEntity
  8
0
  6
Continuous
 62
     5
100
AcDbText
 10
-839.285684659119
 20
-382.0776549839381
 30
0.1
 40
2.0
  1
９４
 41
0.8
  7
KANJI1
100
AcDbText
  0
TEXT
  5
773
330
1E
100
AcDbEntity
  8
0
  6
Continuous
 62
     5
100
AcDbText
 10
-842.3931846591189
 20
-388.0776549839381
 30
0.1
 40
2.0
  1
９６～９８スライド
 41
0.8
  7
KANJI1
100
AcDbText
  0
TEXT
  5
774
330
1E
100
AcDbEntity
  8
0
  6
Continuous
 62
     5
100
AcDbText
 10
-841.5856846591191
 20
-457.9776549799381
 30
0.3
 40
3.0
  1
３５.４
 41
0.6
  7
KANJI0
100
AcDbText
  0
TEXT
  5
775
330
1E
100
AcDbEntity
  8
0
  6
Continuous
 62
     5
100
AcDbText
 10
-783.6356846591191
 20
-441.2776549779381
 30
0.3
 40
3.0
  1
４.５
 50
90.0
 41
0.6
  7
KANJI0
100
AcDbText
  0
TEXT
  5
776
330
1E
100
AcDbEntity
  8
0
  6
Continuous
 62
     5
100
AcDbText
 10
-778.635684659119
 20
-502.5276549779381
 30
0.3
 40
3.0
  1
２０
 50
90.0
 41
0.6
  7
KANJI0
100
AcDbText
  0
TEXT
  5
777
330
1E
100
AcDbEntity
  8
0
  6
Continuous
 62
     5
100
AcDbText
 10
-773.635684659119
 20
-430.1276549789381
 30
0.3
 40
3.0
  1
４１
 50
90.0
 41
0.6
  7
KANJI0
100
AcDbText
  0
ENDSEC
  0
SECTION
  2
OBJECTS
  0
DICTIONARY
  5
C
330
0
100
AcDbDictionary
281
     1
  3
ACAD_GROUP
350
D
  3
ACAD_PLOTSTYLENAME
350
E
  3
ACAD_MLINESTYLE
350
16
  3
ACAD_PLOTSETTINGS
350
18
  3
ACAD_LAYOUT
350
19
  0
DICTIONARY
  5
D
102
{ACAD_REACTORS
330
C
102
}
330
C
100
AcDbDictionary
281
     1
  0
ACDBDICTIONARYWDFLT
  5
E
102
{ACAD_REACTORS
330
C
102
}
330
C
100
AcDbDictionary
281
     1
  3
Normal
350
F
100
AcDbDictionaryWithDefault
340
F
  0
DICTIONARY
  5
16
102
{ACAD_REACTORS
330
C
102
}
330
C
100
AcDbDictionary
281
     1
  3
Standard
350
17
  0
DICTIONARY
  5
18
102
{ACAD_REACTORS
330
C
102
}
330
C
100
AcDbDictionary
281
     1
  0
DICTIONARY
  5
19
102
{ACAD_REACTORS
330
C
102
}
330
C
100
AcDbDictionary
281
     1
  3
ﾚｲｱｳﾄ1
350
1D
  3
Model
350
21
  0
ACDBPLACEHOLDER
  5
F
102
{ACAD_REACTORS
330
E
102
}
330
E
  0
MLINESTYLE
  5
17
102
{ACAD_REACTORS
330
16
102
}
330
16
100
AcDbMlineStyle
  2
STANDARD
 70
     0
  3

 62
   256
 51
90.0
 52
90.0
 71
     2
 49
0.5
 62
   256
  6
BYLAYER
 49
-0.5
 62
   256
  6
BYLAYER
  0
LAYOUT
  5
1D
102
{ACAD_REACTORS
330
19
102
}
330
19
100
AcDbPlotSettings
  1

  2
Canon LASER SHOT LBP-880
  4

  6

 40
0.0
 41
0.0
 42
0.0
 43
0.0
 44
0.0
 45
0.0
 46
0.0
 47
0.0
 48
0.0
 49
0.0
140
0.0
141
0.0
142
1.0
143
1.0
 70
   688
 72
     0
 73
     0
 74
     5
  7

 75
    16
147
1.0
148
0.0
149
0.0
100
AcDbLayout
  1
ﾚｲｱｳﾄ1
 70
     1
 71
     1
 10
0.0
 20
0.0
 11
12.0
 21
9.0
 12
0.0
 22
0.0
 32
0.0
 14
1.000000000000000E+20
 24
1.000000000000000E+20
 34
1.000000000000000E+20
 15
-1.000000000000000E+20
 25
-1.000000000000000E+20
 35
-1.000000000000000E+20
146
0.0
 13
0.0
 23
0.0
 33
0.0
 16
1.0
 26
0.0
 36
0.0
 17
0.0
 27
1.0
 37
0.0
 76
     0
330
1A
  0
LAYOUT
  5
21
102
{ACAD_REACTORS
330
19
102
}
330
19
100
AcDbPlotSettings
  1

  2
Canon LASER SHOT LBP-880
  4

  6

 40
0.0
 41
0.0
 42
0.0
 43
0.0
 44
0.0
 45
0.0
 46
0.0
 47
0.0
 48
0.0
 49
0.0
140
0.0
141
0.0
142
1.0
143
1.0
 70
  1712
 72
     0
 73
     0
 74
     0
  7

 75
     0
147
1.0
148
0.0
149
0.0
100
AcDbLayout
  1
Model
 70
     1
 71
     0
 10
0.0
 20
0.0
 11
12.0
 21
9.0
 12
0.0
 22
0.0
 32
0.0
 14
0.0
 24
0.0
 34
0.0
 15
0.0
 25
0.0
 35
0.0
146
0.0
 13
0.0
 23
0.0
 33
0.0
 16
1.0
 26
0.0
 36
0.0
 17
0.0
 27
1.0
 37
0.0
 76
     0
330
1E
  0
ENDSEC
  0
EOF
