  0
SECTION
  2
HEADER
  9
$ACADVER
  1
AC1015
  9
$ACADMAINTVER
 70
     6
  9
$DWGCODEPAGE
  3
ANSI_932
  9
$INSBASE
 10
0.0
 20
0.0
 30
0.0
  9
$EXTMIN
 10
-1.470580238991736E+63
 20
-5.941616374145985E+73
 30
-1.399999999999999
  9
$EXTMAX
 10
3.141492651413532E+99
 20
1.269263905633295E+99
 30
0.1
  9
$LIMMIN
 10
0.0
 20
0.0
  9
$LIMMAX
 10
12.0
 20
9.0
  9
$ORTHOMODE
 70
     0
  9
$REGENMODE
 70
     1
  9
$FILLMODE
 70
     1
  9
$QTEXTMODE
 70
     0
  9
$MIRRTEXT
 70
     1
  9
$LTSCALE
 40
1.0
  9
$ATTMODE
 70
     1
  9
$TEXTSIZE
 40
0.2
  9
$TRACEWID
 40
0.05
  9
$TEXTSTYLE
  7
STANDARD
  9
$CLAYER
  8
0
  9
$CELTYPE
  6
CONTINUOUS
  9
$CECOLOR
 62
   256
  9
$CELTSCALE
 40
1.0
  9
$DISPSILH
 70
     0
  9
$DIMSCALE
 40
1.0
  9
$DIMASZ
 40
0.18
  9
$DIMEXO
 40
0.0625
  9
$DIMDLI
 40
0.38
  9
$DIMRND
 40
0.0
  9
$DIMDLE
 40
0.0
  9
$DIMEXE
 40
0.18
  9
$DIMTP
 40
0.0
  9
$DIMTM
 40
0.0
  9
$DIMTXT
 40
0.18
  9
$DIMCEN
 40
0.09
  9
$DIMTSZ
 40
0.0
  9
$DIMTOL
 70
     0
  9
$DIMLIM
 70
     0
  9
$DIMTIH
 70
     1
  9
$DIMTOH
 70
     1
  9
$DIMSE1
 70
     0
  9
$DIMSE2
 70
     0
  9
$DIMTAD
 70
     0
  9
$DIMZIN
 70
     0
  9
$DIMBLK
  1

  9
$DIMASO
 70
     1
  9
$DIMSHO
 70
     1
  9
$DIMPOST
  1

  9
$DIMAPOST
  1

  9
$DIMALT
 70
     0
  9
$DIMALTD
 70
     2
  9
$DIMALTF
 40
25.4
  9
$DIMLFAC
 40
1.0
  9
$DIMTOFL
 70
     0
  9
$DIMTVP
 40
0.0
  9
$DIMTIX
 70
     0
  9
$DIMSOXD
 70
     0
  9
$DIMSAH
 70
     0
  9
$DIMBLK1
  1

  9
$DIMBLK2
  1

  9
$DIMSTYLE
  2
STANDARD
  9
$DIMCLRD
 70
     0
  9
$DIMCLRE
 70
     0
  9
$DIMCLRT
 70
     0
  9
$DIMTFAC
 40
1.0
  9
$DIMGAP
 40
0.09
  9
$DIMJUST
 70
     0
  9
$DIMSD1
 70
     0
  9
$DIMSD2
 70
     0
  9
$DIMTOLJ
 70
     1
  9
$DIMTZIN
 70
     0
  9
$DIMALTZ
 70
     0
  9
$DIMALTTZ
 70
     0
  9
$DIMUPT
 70
     0
  9
$DIMDEC
 70
     4
  9
$DIMTDEC
 70
     4
  9
$DIMALTU
 70
     2
  9
$DIMALTTD
 70
     2
  9
$DIMTXSTY
  7
STANDARD
  9
$DIMAUNIT
 70
     0
  9
$DIMADEC
 70
     0
  9
$DIMALTRND
 40
0.0
  9
$DIMAZIN
 70
     0
  9
$DIMDSEP
 70
    46
  9
$DIMATFIT
 70
     3
  9
$DIMFRAC
 70
     0
  9
$DIMLDRBLK
  1

  9
$DIMLUNIT
 70
     2
  9
$DIMLWD
 70
    -2
  9
$DIMLWE
 70
    -2
  9
$DIMTMOVE
 70
     0
  9
$LUNITS
 70
     2
  9
$LUPREC
 70
     4
  9
$SKETCHINC
 40
0.1
  9
$FILLETRAD
 40
0.0
  9
$AUNITS
 70
     0
  9
$AUPREC
 70
     0
  9
$MENU
  1
.
  9
$ELEVATION
 40
0.0
  9
$PELEVATION
 40
0.0
  9
$THICKNESS
 40
0.0
  9
$LIMCHECK
 70
     0
  9
$CHAMFERA
 40
0.0
  9
$CHAMFERB
 40
0.0
  9
$CHAMFERC
 40
0.0
  9
$CHAMFERD
 40
0.0
  9
$SKPOLY
 70
     0
  9
$TDCREATE
 40
2452153.733997755
  9
$TDUCREATE
 40
2452153.358997754
  9
$TDUPDATE
 40
2452706.355653935
  9
$TDUUPDATE
 40
2452705.980653935
  9
$TDINDWG
 40
0.0024158681
  9
$TDUSRTIMER
 40
0.0024143634
  9
$USRTIMER
 70
     1
  9
$ANGBASE
 50
0.0
  9
$ANGDIR
 70
     0
  9
$PDMODE
 70
     0
  9
$PDSIZE
 40
0.0
  9
$PLINEWID
 40
0.0
  9
$SPLFRAME
 70
     0
  9
$SPLINETYPE
 70
     6
  9
$SPLINESEGS
 70
     8
  9
$HANDSEED
  5
1978
  9
$SURFTAB1
 70
     6
  9
$SURFTAB2
 70
     6
  9
$SURFTYPE
 70
     6
  9
$SURFU
 70
     6
  9
$SURFV
 70
     6
  9
$UCSBASE
  2

  9
$UCSNAME
  2

  9
$UCSORG
 10
0.0
 20
0.0
 30
0.0
  9
$UCSXDIR
 10
1.0
 20
0.0
 30
0.0
  9
$UCSYDIR
 10
0.0
 20
1.0
 30
0.0
  9
$UCSORTHOREF
  2

  9
$UCSORTHOVIEW
 70
     0
  9
$UCSORGTOP
 10
0.0
 20
0.0
 30
0.0
  9
$UCSORGBOTTOM
 10
0.0
 20
0.0
 30
0.0
  9
$UCSORGLEFT
 10
0.0
 20
0.0
 30
0.0
  9
$UCSORGRIGHT
 10
0.0
 20
0.0
 30
0.0
  9
$UCSORGFRONT
 10
0.0
 20
0.0
 30
0.0
  9
$UCSORGBACK
 10
0.0
 20
0.0
 30
0.0
  9
$PUCSBASE
  2

  9
$PUCSNAME
  2

  9
$PUCSORG
 10
0.0
 20
0.0
 30
0.0
  9
$PUCSXDIR
 10
1.0
 20
0.0
 30
0.0
  9
$PUCSYDIR
 10
0.0
 20
1.0
 30
0.0
  9
$PUCSORTHOREF
  2

  9
$PUCSORTHOVIEW
 70
     0
  9
$PUCSORGTOP
 10
0.0
 20
0.0
 30
0.0
  9
$PUCSORGBOTTOM
 10
0.0
 20
0.0
 30
0.0
  9
$PUCSORGLEFT
 10
0.0
 20
0.0
 30
0.0
  9
$PUCSORGRIGHT
 10
0.0
 20
0.0
 30
0.0
  9
$PUCSORGFRONT
 10
0.0
 20
0.0
 30
0.0
  9
$PUCSORGBACK
 10
0.0
 20
0.0
 30
0.0
  9
$USERI1
 70
     0
  9
$USERI2
 70
     0
  9
$USERI3
 70
     0
  9
$USERI4
 70
     0
  9
$USERI5
 70
     0
  9
$USERR1
 40
0.0
  9
$USERR2
 40
0.0
  9
$USERR3
 40
0.0
  9
$USERR4
 40
0.0
  9
$USERR5
 40
0.0
  9
$WORLDVIEW
 70
     1
  9
$SHADEDGE
 70
     3
  9
$SHADEDIF
 70
    70
  9
$TILEMODE
 70
     1
  9
$MAXACTVP
 70
    64
  9
$PINSBASE
 10
0.0
 20
0.0
 30
0.0
  9
$PLIMCHECK
 70
     0
  9
$PEXTMIN
 10
1.000000000000000E+20
 20
1.000000000000000E+20
 30
1.000000000000000E+20
  9
$PEXTMAX
 10
-1.000000000000000E+20
 20
-1.000000000000000E+20
 30
-1.000000000000000E+20
  9
$PLIMMIN
 10
0.0
 20
0.0
  9
$PLIMMAX
 10
12.0
 20
9.0
  9
$UNITMODE
 70
     0
  9
$VISRETAIN
 70
     1
  9
$PLINEGEN
 70
     0
  9
$PSLTSCALE
 70
     1
  9
$TREEDEPTH
 70
  3020
  9
$CMLSTYLE
  2
Standard
  9
$CMLJUST
 70
     0
  9
$CMLSCALE
 40
1.0
  9
$PROXYGRAPHICS
 70
     1
  9
$MEASUREMENT
 70
     0
  9
$CELWEIGHT
370
    -1
  9
$ENDCAPS
280
     0
  9
$JOINSTYLE
280
     0
  9
$LWDISPLAY
290
     0
  9
$INSUNITS
 70
     0
  9
$HYPERLINKBASE
  1

  9
$STYLESHEET
  1

  9
$XEDIT
290
     1
  9
$CEPSNTYPE
380
     0
  9
$PSTYLEMODE
290
     1
  9
$FINGERPRINTGUID
  2
{E56820C4-8D6A-4064-BA38-0B272F6261A0}
  9
$VERSIONGUID
  2
{8EDDA63F-55DF-4C57-A870-0F4DFF144106}
  9
$EXTNAMES
290
     1
  9
$PSVPSCALE
 40
0.0
  9
$OLESTARTUP
290
     0
  0
ENDSEC
  0
SECTION
  2
CLASSES
  0
CLASS
  1
ACDBDICTIONARYWDFLT
  2
AcDbDictionaryWithDefault
  3
AutoCAD 2000
 90
        0
280
     0
281
     0
  0
CLASS
  1
ACDBPLACEHOLDER
  2
AcDbPlaceHolder
  3
AutoCAD 2000
 90
        0
280
     0
281
     0
  0
CLASS
  1
LAYOUT
  2
AcDbLayout
  3
AutoCAD 2000
 90
        0
280
     0
281
     0
  0
ENDSEC
  0
SECTION
  2
TABLES
  0
TABLE
  2
VPORT
  5
131B
330
0
100
AcDbSymbolTable
 70
     2
  0
VPORT
  5
1977
330
131B
100
AcDbSymbolTableRecord
100
AcDbViewportTableRecord
  2
*Active
 70
     0
 10
0.0
 20
0.0
 11
1.0
 21
1.0
 12
229.8279982771266
 22
157.6124992704601
 13
0.0
 23
0.0
 14
1.0
 24
1.0
 15
0.0
 25
0.0
 16
0.0
 26
0.0
 36
1.0
 17
0.0
 27
0.0
 37
0.0
 40
274.9043724172788
 41
1.761278195488721
 42
50.0
 43
0.0
 44
0.0
 50
0.0
 51
0.0
 71
     0
 72
   100
 73
     1
 74
     1
 75
     0
 76
     0
 77
     0
 78
     0
281
     0
 65
     1
110
0.0
120
0.0
130
0.0
111
1.0
121
0.0
131
0.0
112
0.0
122
1.0
132
0.0
 79
     0
146
0.0
  0
ENDTAB
  0
TABLE
  2
LTYPE
  5
1318
330
0
100
AcDbSymbolTable
 70
     1
  0
LTYPE
  5
1326
330
1318
100
AcDbSymbolTableRecord
100
AcDbLinetypeTableRecord
  2
ByBlock
 70
     0
  3

 72
    65
 73
     0
 40
0.0
  0
LTYPE
  5
1327
330
1318
100
AcDbSymbolTableRecord
100
AcDbLinetypeTableRecord
  2
ByLayer
 70
     0
  3

 72
    65
 73
     0
 40
0.0
  0
LTYPE
  5
1328
330
1318
100
AcDbSymbolTableRecord
100
AcDbLinetypeTableRecord
  2
CONTINUOUS
 70
     0
  3
Solid line
 72
    65
 73
     0
 40
0.0
  0
ENDTAB
  0
TABLE
  2
LAYER
  5
1315
330
0
100
AcDbSymbolTable
 70
   128
  0
LAYER
  5
1323
330
1315
100
AcDbSymbolTableRecord
100
AcDbLayerTableRecord
  2
0
 70
     0
 62
     7
  6
CONTINUOUS
370
    -3
390
1322
  0
LAYER
  5
1336
330
1315
100
AcDbSymbolTableRecord
100
AcDbLayerTableRecord
  2
1
 70
     0
 62
     7
  6
CONTINUOUS
370
    -3
390
1322
  0
LAYER
  5
1337
330
1315
100
AcDbSymbolTableRecord
100
AcDbLayerTableRecord
  2
2
 70
     0
 62
     7
  6
CONTINUOUS
370
    -3
390
1322
  0
LAYER
  5
1338
330
1315
100
AcDbSymbolTableRecord
100
AcDbLayerTableRecord
  2
3
 70
     0
 62
     7
  6
CONTINUOUS
370
    -3
390
1322
  0
LAYER
  5
1339
330
1315
100
AcDbSymbolTableRecord
100
AcDbLayerTableRecord
  2
4
 70
     0
 62
     7
  6
CONTINUOUS
370
    -3
390
1322
  0
LAYER
  5
133A
330
1315
100
AcDbSymbolTableRecord
100
AcDbLayerTableRecord
  2
5
 70
     0
 62
     7
  6
CONTINUOUS
370
    -3
390
1322
  0
LAYER
  5
133B
330
1315
100
AcDbSymbolTableRecord
100
AcDbLayerTableRecord
  2
6
 70
     0
 62
     7
  6
CONTINUOUS
370
    -3
390
1322
  0
LAYER
  5
133C
330
1315
100
AcDbSymbolTableRecord
100
AcDbLayerTableRecord
  2
7
 70
     0
 62
     7
  6
CONTINUOUS
370
    -3
390
1322
  0
LAYER
  5
133D
330
1315
100
AcDbSymbolTableRecord
100
AcDbLayerTableRecord
  2
8
 70
     0
 62
     7
  6
CONTINUOUS
370
    -3
390
1322
  0
LAYER
  5
133E
330
1315
100
AcDbSymbolTableRecord
100
AcDbLayerTableRecord
  2
9
 70
     0
 62
     7
  6
CONTINUOUS
370
    -3
390
1322
  0
LAYER
  5
133F
330
1315
100
AcDbSymbolTableRecord
100
AcDbLayerTableRecord
  2
10
 70
     0
 62
     7
  6
CONTINUOUS
370
    -3
390
1322
  0
LAYER
  5
1340
330
1315
100
AcDbSymbolTableRecord
100
AcDbLayerTableRecord
  2
11
 70
     0
 62
     7
  6
CONTINUOUS
370
    -3
390
1322
  0
LAYER
  5
1341
330
1315
100
AcDbSymbolTableRecord
100
AcDbLayerTableRecord
  2
12
 70
     0
 62
     7
  6
CONTINUOUS
370
    -3
390
1322
  0
LAYER
  5
1342
330
1315
100
AcDbSymbolTableRecord
100
AcDbLayerTableRecord
  2
13
 70
     0
 62
     7
  6
CONTINUOUS
370
    -3
390
1322
  0
LAYER
  5
1343
330
1315
100
AcDbSymbolTableRecord
100
AcDbLayerTableRecord
  2
14
 70
     0
 62
     7
  6
CONTINUOUS
370
    -3
390
1322
  0
LAYER
  5
1344
330
1315
100
AcDbSymbolTableRecord
100
AcDbLayerTableRecord
  2
15
 70
     0
 62
     7
  6
CONTINUOUS
370
    -3
390
1322
  0
LAYER
  5
1345
330
1315
100
AcDbSymbolTableRecord
100
AcDbLayerTableRecord
  2
16
 70
     0
 62
     7
  6
CONTINUOUS
370
    -3
390
1322
  0
LAYER
  5
1346
330
1315
100
AcDbSymbolTableRecord
100
AcDbLayerTableRecord
  2
17
 70
     0
 62
     7
  6
CONTINUOUS
370
    -3
390
1322
  0
LAYER
  5
1347
330
1315
100
AcDbSymbolTableRecord
100
AcDbLayerTableRecord
  2
18
 70
     0
 62
     7
  6
CONTINUOUS
370
    -3
390
1322
  0
LAYER
  5
1348
330
1315
100
AcDbSymbolTableRecord
100
AcDbLayerTableRecord
  2
19
 70
     0
 62
     7
  6
CONTINUOUS
370
    -3
390
1322
  0
LAYER
  5
1349
330
1315
100
AcDbSymbolTableRecord
100
AcDbLayerTableRecord
  2
20
 70
     0
 62
     7
  6
CONTINUOUS
370
    -3
390
1322
  0
LAYER
  5
134A
330
1315
100
AcDbSymbolTableRecord
100
AcDbLayerTableRecord
  2
21
 70
     0
 62
     7
  6
CONTINUOUS
370
    -3
390
1322
  0
LAYER
  5
134B
330
1315
100
AcDbSymbolTableRecord
100
AcDbLayerTableRecord
  2
22
 70
     0
 62
     7
  6
CONTINUOUS
370
    -3
390
1322
  0
LAYER
  5
134C
330
1315
100
AcDbSymbolTableRecord
100
AcDbLayerTableRecord
  2
23
 70
     0
 62
     7
  6
CONTINUOUS
370
    -3
390
1322
  0
LAYER
  5
134D
330
1315
100
AcDbSymbolTableRecord
100
AcDbLayerTableRecord
  2
24
 70
     0
 62
     7
  6
CONTINUOUS
370
    -3
390
1322
  0
LAYER
  5
134E
330
1315
100
AcDbSymbolTableRecord
100
AcDbLayerTableRecord
  2
25
 70
     0
 62
     7
  6
CONTINUOUS
370
    -3
390
1322
  0
LAYER
  5
134F
330
1315
100
AcDbSymbolTableRecord
100
AcDbLayerTableRecord
  2
26
 70
     0
 62
     7
  6
CONTINUOUS
370
    -3
390
1322
  0
LAYER
  5
1350
330
1315
100
AcDbSymbolTableRecord
100
AcDbLayerTableRecord
  2
27
 70
     0
 62
     7
  6
CONTINUOUS
370
    -3
390
1322
  0
LAYER
  5
1351
330
1315
100
AcDbSymbolTableRecord
100
AcDbLayerTableRecord
  2
28
 70
     0
 62
     7
  6
CONTINUOUS
370
    -3
390
1322
  0
LAYER
  5
1352
330
1315
100
AcDbSymbolTableRecord
100
AcDbLayerTableRecord
  2
29
 70
     0
 62
     7
  6
CONTINUOUS
370
    -3
390
1322
  0
LAYER
  5
1353
330
1315
100
AcDbSymbolTableRecord
100
AcDbLayerTableRecord
  2
30
 70
     0
 62
     7
  6
CONTINUOUS
370
    -3
390
1322
  0
LAYER
  5
1354
330
1315
100
AcDbSymbolTableRecord
100
AcDbLayerTableRecord
  2
31
 70
     0
 62
     7
  6
CONTINUOUS
370
    -3
390
1322
  0
LAYER
  5
1355
330
1315
100
AcDbSymbolTableRecord
100
AcDbLayerTableRecord
  2
32
 70
     0
 62
     7
  6
CONTINUOUS
370
    -3
390
1322
  0
LAYER
  5
1356
330
1315
100
AcDbSymbolTableRecord
100
AcDbLayerTableRecord
  2
33
 70
     0
 62
     7
  6
CONTINUOUS
370
    -3
390
1322
  0
LAYER
  5
1357
330
1315
100
AcDbSymbolTableRecord
100
AcDbLayerTableRecord
  2
34
 70
     0
 62
     7
  6
CONTINUOUS
370
    -3
390
1322
  0
LAYER
  5
1358
330
1315
100
AcDbSymbolTableRecord
100
AcDbLayerTableRecord
  2
35
 70
     0
 62
     7
  6
CONTINUOUS
370
    -3
390
1322
  0
LAYER
  5
1359
330
1315
100
AcDbSymbolTableRecord
100
AcDbLayerTableRecord
  2
36
 70
     0
 62
     7
  6
CONTINUOUS
370
    -3
390
1322
  0
LAYER
  5
135A
330
1315
100
AcDbSymbolTableRecord
100
AcDbLayerTableRecord
  2
37
 70
     0
 62
     7
  6
CONTINUOUS
370
    -3
390
1322
  0
LAYER
  5
135B
330
1315
100
AcDbSymbolTableRecord
100
AcDbLayerTableRecord
  2
38
 70
     0
 62
     7
  6
CONTINUOUS
370
    -3
390
1322
  0
LAYER
  5
135C
330
1315
100
AcDbSymbolTableRecord
100
AcDbLayerTableRecord
  2
39
 70
     0
 62
     7
  6
CONTINUOUS
370
    -3
390
1322
  0
LAYER
  5
135D
330
1315
100
AcDbSymbolTableRecord
100
AcDbLayerTableRecord
  2
40
 70
     0
 62
     7
  6
CONTINUOUS
370
    -3
390
1322
  0
LAYER
  5
135E
330
1315
100
AcDbSymbolTableRecord
100
AcDbLayerTableRecord
  2
41
 70
     0
 62
     7
  6
CONTINUOUS
370
    -3
390
1322
  0
LAYER
  5
135F
330
1315
100
AcDbSymbolTableRecord
100
AcDbLayerTableRecord
  2
42
 70
     0
 62
     7
  6
CONTINUOUS
370
    -3
390
1322
  0
LAYER
  5
1360
330
1315
100
AcDbSymbolTableRecord
100
AcDbLayerTableRecord
  2
43
 70
     0
 62
     7
  6
CONTINUOUS
370
    -3
390
1322
  0
LAYER
  5
1361
330
1315
100
AcDbSymbolTableRecord
100
AcDbLayerTableRecord
  2
44
 70
     0
 62
     7
  6
CONTINUOUS
370
    -3
390
1322
  0
LAYER
  5
1362
330
1315
100
AcDbSymbolTableRecord
100
AcDbLayerTableRecord
  2
45
 70
     0
 62
     7
  6
CONTINUOUS
370
    -3
390
1322
  0
LAYER
  5
1363
330
1315
100
AcDbSymbolTableRecord
100
AcDbLayerTableRecord
  2
46
 70
     0
 62
     7
  6
CONTINUOUS
370
    -3
390
1322
  0
LAYER
  5
1364
330
1315
100
AcDbSymbolTableRecord
100
AcDbLayerTableRecord
  2
47
 70
     0
 62
     7
  6
CONTINUOUS
370
    -3
390
1322
  0
LAYER
  5
1365
330
1315
100
AcDbSymbolTableRecord
100
AcDbLayerTableRecord
  2
48
 70
     0
 62
     7
  6
CONTINUOUS
370
    -3
390
1322
  0
LAYER
  5
1366
330
1315
100
AcDbSymbolTableRecord
100
AcDbLayerTableRecord
  2
49
 70
     0
 62
     7
  6
CONTINUOUS
370
    -3
390
1322
  0
LAYER
  5
1367
330
1315
100
AcDbSymbolTableRecord
100
AcDbLayerTableRecord
  2
50
 70
     0
 62
     7
  6
CONTINUOUS
370
    -3
390
1322
  0
LAYER
  5
1368
330
1315
100
AcDbSymbolTableRecord
100
AcDbLayerTableRecord
  2
51
 70
     0
 62
     7
  6
CONTINUOUS
370
    -3
390
1322
  0
LAYER
  5
1369
330
1315
100
AcDbSymbolTableRecord
100
AcDbLayerTableRecord
  2
52
 70
     0
 62
     7
  6
CONTINUOUS
370
    -3
390
1322
  0
LAYER
  5
136A
330
1315
100
AcDbSymbolTableRecord
100
AcDbLayerTableRecord
  2
53
 70
     0
 62
     7
  6
CONTINUOUS
370
    -3
390
1322
  0
LAYER
  5
136B
330
1315
100
AcDbSymbolTableRecord
100
AcDbLayerTableRecord
  2
54
 70
     0
 62
     7
  6
CONTINUOUS
370
    -3
390
1322
  0
LAYER
  5
136C
330
1315
100
AcDbSymbolTableRecord
100
AcDbLayerTableRecord
  2
55
 70
     0
 62
     7
  6
CONTINUOUS
370
    -3
390
1322
  0
LAYER
  5
136D
330
1315
100
AcDbSymbolTableRecord
100
AcDbLayerTableRecord
  2
56
 70
     0
 62
     7
  6
CONTINUOUS
370
    -3
390
1322
  0
LAYER
  5
136E
330
1315
100
AcDbSymbolTableRecord
100
AcDbLayerTableRecord
  2
57
 70
     0
 62
     7
  6
CONTINUOUS
370
    -3
390
1322
  0
LAYER
  5
136F
330
1315
100
AcDbSymbolTableRecord
100
AcDbLayerTableRecord
  2
58
 70
     0
 62
     7
  6
CONTINUOUS
370
    -3
390
1322
  0
LAYER
  5
1370
330
1315
100
AcDbSymbolTableRecord
100
AcDbLayerTableRecord
  2
59
 70
     0
 62
     7
  6
CONTINUOUS
370
    -3
390
1322
  0
LAYER
  5
1371
330
1315
100
AcDbSymbolTableRecord
100
AcDbLayerTableRecord
  2
60
 70
     0
 62
     7
  6
CONTINUOUS
370
    -3
390
1322
  0
LAYER
  5
1372
330
1315
100
AcDbSymbolTableRecord
100
AcDbLayerTableRecord
  2
61
 70
     0
 62
     7
  6
CONTINUOUS
370
    -3
390
1322
  0
LAYER
  5
1373
330
1315
100
AcDbSymbolTableRecord
100
AcDbLayerTableRecord
  2
62
 70
     0
 62
     7
  6
CONTINUOUS
370
    -3
390
1322
  0
LAYER
  5
1374
330
1315
100
AcDbSymbolTableRecord
100
AcDbLayerTableRecord
  2
63
 70
     0
 62
     7
  6
CONTINUOUS
370
    -3
390
1322
  0
LAYER
  5
1375
330
1315
100
AcDbSymbolTableRecord
100
AcDbLayerTableRecord
  2
64
 70
     0
 62
     7
  6
CONTINUOUS
370
    -3
390
1322
  0
LAYER
  5
1376
330
1315
100
AcDbSymbolTableRecord
100
AcDbLayerTableRecord
  2
65
 70
     0
 62
     7
  6
CONTINUOUS
370
    -3
390
1322
  0
LAYER
  5
1377
330
1315
100
AcDbSymbolTableRecord
100
AcDbLayerTableRecord
  2
66
 70
     0
 62
     7
  6
CONTINUOUS
370
    -3
390
1322
  0
LAYER
  5
1378
330
1315
100
AcDbSymbolTableRecord
100
AcDbLayerTableRecord
  2
67
 70
     0
 62
     7
  6
CONTINUOUS
370
    -3
390
1322
  0
LAYER
  5
1379
330
1315
100
AcDbSymbolTableRecord
100
AcDbLayerTableRecord
  2
68
 70
     0
 62
     7
  6
CONTINUOUS
370
    -3
390
1322
  0
LAYER
  5
137A
330
1315
100
AcDbSymbolTableRecord
100
AcDbLayerTableRecord
  2
69
 70
     0
 62
     7
  6
CONTINUOUS
370
    -3
390
1322
  0
LAYER
  5
137B
330
1315
100
AcDbSymbolTableRecord
100
AcDbLayerTableRecord
  2
70
 70
     0
 62
     7
  6
CONTINUOUS
370
    -3
390
1322
  0
LAYER
  5
137C
330
1315
100
AcDbSymbolTableRecord
100
AcDbLayerTableRecord
  2
71
 70
     0
 62
     7
  6
CONTINUOUS
370
    -3
390
1322
  0
LAYER
  5
137D
330
1315
100
AcDbSymbolTableRecord
100
AcDbLayerTableRecord
  2
72
 70
     0
 62
     7
  6
CONTINUOUS
370
    -3
390
1322
  0
LAYER
  5
137E
330
1315
100
AcDbSymbolTableRecord
100
AcDbLayerTableRecord
  2
73
 70
     0
 62
     7
  6
CONTINUOUS
370
    -3
390
1322
  0
LAYER
  5
137F
330
1315
100
AcDbSymbolTableRecord
100
AcDbLayerTableRecord
  2
74
 70
     0
 62
     7
  6
CONTINUOUS
370
    -3
390
1322
  0
LAYER
  5
1380
330
1315
100
AcDbSymbolTableRecord
100
AcDbLayerTableRecord
  2
75
 70
     0
 62
     7
  6
CONTINUOUS
370
    -3
390
1322
  0
LAYER
  5
1381
330
1315
100
AcDbSymbolTableRecord
100
AcDbLayerTableRecord
  2
76
 70
     0
 62
     7
  6
CONTINUOUS
370
    -3
390
1322
  0
LAYER
  5
1382
330
1315
100
AcDbSymbolTableRecord
100
AcDbLayerTableRecord
  2
77
 70
     0
 62
     7
  6
CONTINUOUS
370
    -3
390
1322
  0
LAYER
  5
1383
330
1315
100
AcDbSymbolTableRecord
100
AcDbLayerTableRecord
  2
78
 70
     0
 62
     7
  6
CONTINUOUS
370
    -3
390
1322
  0
LAYER
  5
1384
330
1315
100
AcDbSymbolTableRecord
100
AcDbLayerTableRecord
  2
79
 70
     0
 62
     7
  6
CONTINUOUS
370
    -3
390
1322
  0
LAYER
  5
1385
330
1315
100
AcDbSymbolTableRecord
100
AcDbLayerTableRecord
  2
80
 70
     0
 62
     7
  6
CONTINUOUS
370
    -3
390
1322
  0
LAYER
  5
1386
330
1315
100
AcDbSymbolTableRecord
100
AcDbLayerTableRecord
  2
81
 70
     0
 62
     7
  6
CONTINUOUS
370
    -3
390
1322
  0
LAYER
  5
1387
330
1315
100
AcDbSymbolTableRecord
100
AcDbLayerTableRecord
  2
82
 70
     0
 62
     7
  6
CONTINUOUS
370
    -3
390
1322
  0
LAYER
  5
1388
330
1315
100
AcDbSymbolTableRecord
100
AcDbLayerTableRecord
  2
83
 70
     0
 62
     7
  6
CONTINUOUS
370
    -3
390
1322
  0
LAYER
  5
1389
330
1315
100
AcDbSymbolTableRecord
100
AcDbLayerTableRecord
  2
84
 70
     0
 62
     7
  6
CONTINUOUS
370
    -3
390
1322
  0
LAYER
  5
138A
330
1315
100
AcDbSymbolTableRecord
100
AcDbLayerTableRecord
  2
85
 70
     0
 62
     7
  6
CONTINUOUS
370
    -3
390
1322
  0
LAYER
  5
138B
330
1315
100
AcDbSymbolTableRecord
100
AcDbLayerTableRecord
  2
86
 70
     0
 62
     7
  6
CONTINUOUS
370
    -3
390
1322
  0
LAYER
  5
138C
330
1315
100
AcDbSymbolTableRecord
100
AcDbLayerTableRecord
  2
87
 70
     0
 62
     7
  6
CONTINUOUS
370
    -3
390
1322
  0
LAYER
  5
138D
330
1315
100
AcDbSymbolTableRecord
100
AcDbLayerTableRecord
  2
88
 70
     0
 62
     7
  6
CONTINUOUS
370
    -3
390
1322
  0
LAYER
  5
138E
330
1315
100
AcDbSymbolTableRecord
100
AcDbLayerTableRecord
  2
89
 70
     0
 62
     7
  6
CONTINUOUS
370
    -3
390
1322
  0
LAYER
  5
138F
330
1315
100
AcDbSymbolTableRecord
100
AcDbLayerTableRecord
  2
90
 70
     0
 62
     7
  6
CONTINUOUS
370
    -3
390
1322
  0
LAYER
  5
1390
330
1315
100
AcDbSymbolTableRecord
100
AcDbLayerTableRecord
  2
91
 70
     0
 62
     7
  6
CONTINUOUS
370
    -3
390
1322
  0
LAYER
  5
1391
330
1315
100
AcDbSymbolTableRecord
100
AcDbLayerTableRecord
  2
92
 70
     0
 62
     7
  6
CONTINUOUS
370
    -3
390
1322
  0
LAYER
  5
1392
330
1315
100
AcDbSymbolTableRecord
100
AcDbLayerTableRecord
  2
93
 70
     0
 62
     7
  6
CONTINUOUS
370
    -3
390
1322
  0
LAYER
  5
1393
330
1315
100
AcDbSymbolTableRecord
100
AcDbLayerTableRecord
  2
94
 70
     0
 62
     7
  6
CONTINUOUS
370
    -3
390
1322
  0
LAYER
  5
1394
330
1315
100
AcDbSymbolTableRecord
100
AcDbLayerTableRecord
  2
95
 70
     0
 62
     7
  6
CONTINUOUS
370
    -3
390
1322
  0
LAYER
  5
1395
330
1315
100
AcDbSymbolTableRecord
100
AcDbLayerTableRecord
  2
96
 70
     0
 62
     7
  6
CONTINUOUS
370
    -3
390
1322
  0
LAYER
  5
1396
330
1315
100
AcDbSymbolTableRecord
100
AcDbLayerTableRecord
  2
97
 70
     0
 62
     7
  6
CONTINUOUS
370
    -3
390
1322
  0
LAYER
  5
1397
330
1315
100
AcDbSymbolTableRecord
100
AcDbLayerTableRecord
  2
98
 70
     0
 62
     7
  6
CONTINUOUS
370
    -3
390
1322
  0
LAYER
  5
1398
330
1315
100
AcDbSymbolTableRecord
100
AcDbLayerTableRecord
  2
99
 70
     0
 62
     7
  6
CONTINUOUS
370
    -3
390
1322
  0
LAYER
  5
1399
330
1315
100
AcDbSymbolTableRecord
100
AcDbLayerTableRecord
  2
100
 70
     0
 62
     7
  6
CONTINUOUS
370
    -3
390
1322
  0
LAYER
  5
139A
330
1315
100
AcDbSymbolTableRecord
100
AcDbLayerTableRecord
  2
101
 70
     0
 62
     7
  6
CONTINUOUS
370
    -3
390
1322
  0
LAYER
  5
139B
330
1315
100
AcDbSymbolTableRecord
100
AcDbLayerTableRecord
  2
102
 70
     0
 62
     7
  6
CONTINUOUS
370
    -3
390
1322
  0
LAYER
  5
139C
330
1315
100
AcDbSymbolTableRecord
100
AcDbLayerTableRecord
  2
103
 70
     0
 62
     7
  6
CONTINUOUS
370
    -3
390
1322
  0
LAYER
  5
139D
330
1315
100
AcDbSymbolTableRecord
100
AcDbLayerTableRecord
  2
104
 70
     0
 62
     7
  6
CONTINUOUS
370
    -3
390
1322
  0
LAYER
  5
139E
330
1315
100
AcDbSymbolTableRecord
100
AcDbLayerTableRecord
  2
105
 70
     0
 62
     7
  6
CONTINUOUS
370
    -3
390
1322
  0
LAYER
  5
139F
330
1315
100
AcDbSymbolTableRecord
100
AcDbLayerTableRecord
  2
106
 70
     0
 62
     7
  6
CONTINUOUS
370
    -3
390
1322
  0
LAYER
  5
13A0
330
1315
100
AcDbSymbolTableRecord
100
AcDbLayerTableRecord
  2
107
 70
     0
 62
     7
  6
CONTINUOUS
370
    -3
390
1322
  0
LAYER
  5
13A1
330
1315
100
AcDbSymbolTableRecord
100
AcDbLayerTableRecord
  2
108
 70
     0
 62
     7
  6
CONTINUOUS
370
    -3
390
1322
  0
LAYER
  5
13A2
330
1315
100
AcDbSymbolTableRecord
100
AcDbLayerTableRecord
  2
109
 70
     0
 62
     7
  6
CONTINUOUS
370
    -3
390
1322
  0
LAYER
  5
13A3
330
1315
100
AcDbSymbolTableRecord
100
AcDbLayerTableRecord
  2
110
 70
     0
 62
     7
  6
CONTINUOUS
370
    -3
390
1322
  0
LAYER
  5
13A4
330
1315
100
AcDbSymbolTableRecord
100
AcDbLayerTableRecord
  2
111
 70
     0
 62
     7
  6
CONTINUOUS
370
    -3
390
1322
  0
LAYER
  5
13A5
330
1315
100
AcDbSymbolTableRecord
100
AcDbLayerTableRecord
  2
112
 70
     0
 62
     7
  6
CONTINUOUS
370
    -3
390
1322
  0
LAYER
  5
13A6
330
1315
100
AcDbSymbolTableRecord
100
AcDbLayerTableRecord
  2
113
 70
     0
 62
     7
  6
CONTINUOUS
370
    -3
390
1322
  0
LAYER
  5
13A7
330
1315
100
AcDbSymbolTableRecord
100
AcDbLayerTableRecord
  2
114
 70
     0
 62
     7
  6
CONTINUOUS
370
    -3
390
1322
  0
LAYER
  5
13A8
330
1315
100
AcDbSymbolTableRecord
100
AcDbLayerTableRecord
  2
115
 70
     0
 62
     7
  6
CONTINUOUS
370
    -3
390
1322
  0
LAYER
  5
13A9
330
1315
100
AcDbSymbolTableRecord
100
AcDbLayerTableRecord
  2
116
 70
     0
 62
     7
  6
CONTINUOUS
370
    -3
390
1322
  0
LAYER
  5
13AA
330
1315
100
AcDbSymbolTableRecord
100
AcDbLayerTableRecord
  2
117
 70
     0
 62
     7
  6
CONTINUOUS
370
    -3
390
1322
  0
LAYER
  5
13AB
330
1315
100
AcDbSymbolTableRecord
100
AcDbLayerTableRecord
  2
118
 70
     0
 62
     7
  6
CONTINUOUS
370
    -3
390
1322
  0
LAYER
  5
13AC
330
1315
100
AcDbSymbolTableRecord
100
AcDbLayerTableRecord
  2
119
 70
     0
 62
     7
  6
CONTINUOUS
370
    -3
390
1322
  0
LAYER
  5
13AD
330
1315
100
AcDbSymbolTableRecord
100
AcDbLayerTableRecord
  2
120
 70
     0
 62
     7
  6
CONTINUOUS
370
    -3
390
1322
  0
LAYER
  5
13AE
330
1315
100
AcDbSymbolTableRecord
100
AcDbLayerTableRecord
  2
121
 70
     0
 62
     7
  6
CONTINUOUS
370
    -3
390
1322
  0
LAYER
  5
13AF
330
1315
100
AcDbSymbolTableRecord
100
AcDbLayerTableRecord
  2
122
 70
     0
 62
     7
  6
CONTINUOUS
370
    -3
390
1322
  0
LAYER
  5
13B0
330
1315
100
AcDbSymbolTableRecord
100
AcDbLayerTableRecord
  2
123
 70
     0
 62
     7
  6
CONTINUOUS
370
    -3
390
1322
  0
LAYER
  5
13B1
330
1315
100
AcDbSymbolTableRecord
100
AcDbLayerTableRecord
  2
124
 70
     0
 62
     7
  6
CONTINUOUS
370
    -3
390
1322
  0
LAYER
  5
13B2
330
1315
100
AcDbSymbolTableRecord
100
AcDbLayerTableRecord
  2
125
 70
     0
 62
     7
  6
CONTINUOUS
370
    -3
390
1322
  0
LAYER
  5
13B3
330
1315
100
AcDbSymbolTableRecord
100
AcDbLayerTableRecord
  2
126
 70
     0
 62
     7
  6
CONTINUOUS
370
    -3
390
1322
  0
LAYER
  5
13B4
330
1315
100
AcDbSymbolTableRecord
100
AcDbLayerTableRecord
  2
127
 70
     0
 62
     7
  6
CONTINUOUS
370
    -3
390
1322
  0
ENDTAB
  0
TABLE
  2
STYLE
  5
1316
330
0
100
AcDbSymbolTable
 70
     6
  0
STYLE
  5
1324
330
1316
100
AcDbSymbolTableRecord
100
AcDbTextStyleTableRecord
  2
STANDARD
 70
     0
 40
0.0
 41
1.0
 50
0.0
 71
     0
 42
0.2
  3
txt
  4

  0
STYLE
  5
13B5
330
1316
100
AcDbSymbolTableRecord
100
AcDbTextStyleTableRecord
  2
KANJI0
 70
     0
 40
2.0
 41
0.8
 50
0.0
 71
     0
 42
2.0
  3
txt
  4
bigfont
  0
STYLE
  5
13B6
330
1316
100
AcDbSymbolTableRecord
100
AcDbTextStyleTableRecord
  2
KANJI1
 70
     0
 40
3.0
 41
1.0
 50
0.0
 71
     0
 42
3.0
  3
txt
  4
bigfont
  0
STYLE
  5
13B7
330
1316
100
AcDbSymbolTableRecord
100
AcDbTextStyleTableRecord
  2
KANJI2
 70
     0
 40
3.0
 41
1.0
 50
0.0
 71
     0
 42
3.0
  3
txt
  4
bigfont
  0
STYLE
  5
13B8
330
1316
100
AcDbSymbolTableRecord
100
AcDbTextStyleTableRecord
  2
KANJI3
 70
     0
 40
5.0
 41
0.8
 50
0.0
 71
     0
 42
5.0
  3
txt
  4
bigfont
  0
STYLE
  5
13B9
330
1316
100
AcDbSymbolTableRecord
100
AcDbTextStyleTableRecord
  2
KANJI4
 70
     0
 40
2.5
 41
0.8
 50
0.0
 71
     0
 42
2.5
  3
txt
  4
bigfont
  0
ENDTAB
  0
TABLE
  2
VIEW
  5
1319
330
0
100
AcDbSymbolTable
 70
     0
  0
ENDTAB
  0
TABLE
  2
UCS
  5
131A
330
0
100
AcDbSymbolTable
 70
     0
  0
ENDTAB
  0
TABLE
  2
APPID
  5
131C
330
0
100
AcDbSymbolTable
 70
     1
  0
APPID
  5
1325
330
131C
100
AcDbSymbolTableRecord
100
AcDbRegAppTableRecord
  2
ACAD
 70
     0
  0
ENDTAB
  0
TABLE
  2
DIMSTYLE
  5
131D
330
0
100
AcDbSymbolTable
 70
     1
100
AcDbDimStyleTable
 71
     0
  0
DIMSTYLE
105
13BA
330
131D
100
AcDbSymbolTableRecord
100
AcDbDimStyleTableRecord
  2
STANDARD
 70
     0
279
     2
340
1324
  0
ENDTAB
  0
TABLE
  2
BLOCK_RECORD
  5
1314
330
0
100
AcDbSymbolTable
 70
     2
  0
BLOCK_RECORD
  5
1331
330
1314
100
AcDbSymbolTableRecord
100
AcDbBlockTableRecord
  2
*Model_Space
340
1334
  0
BLOCK_RECORD
  5
132D
330
1314
100
AcDbSymbolTableRecord
100
AcDbBlockTableRecord
  2
*Paper_Space
340
1330
  0
BLOCK_RECORD
  5
13BD
330
1314
100
AcDbSymbolTableRecord
100
AcDbBlockTableRecord
  2
$MODEL_SPACE
340
0
  0
BLOCK_RECORD
  5
13C0
330
1314
100
AcDbSymbolTableRecord
100
AcDbBlockTableRecord
  2
$PAPER_SPACE
340
0
  0
ENDTAB
  0
ENDSEC
  0
SECTION
  2
BLOCKS
  0
BLOCK
  5
1332
330
1331
100
AcDbEntity
  8
0
100
AcDbBlockBegin
  2
*Model_Space
 70
     0
 10
0.0
 20
0.0
 30
0.0
  3
*Model_Space
  1

  0
ENDBLK
  5
1333
330
1331
100
AcDbEntity
  8
0
100
AcDbBlockEnd
  0
BLOCK
  5
132E
330
132D
100
AcDbEntity
 67
     1
  8
0
100
AcDbBlockBegin
  2
*Paper_Space
 70
     0
 10
0.0
 20
0.0
 30
0.0
  3
*Paper_Space
  1

  0
ENDBLK
  5
132F
330
132D
100
AcDbEntity
 67
     1
  8
0
100
AcDbBlockEnd
  0
BLOCK
  5
13BE
330
13BD
100
AcDbEntity
  8
0
100
AcDbBlockBegin
  2
$MODEL_SPACE
 70
     0
 10
0.0
 20
0.0
 30
0.0
  3
$MODEL_SPACE
  1

  0
ENDBLK
  5
13BF
330
13BD
100
AcDbEntity
  8
0
100
AcDbBlockEnd
  0
BLOCK
  5
13C1
330
13C0
100
AcDbEntity
  8
0
100
AcDbBlockBegin
  2
$PAPER_SPACE
 70
     0
 10
0.0
 20
0.0
 30
0.0
  3
$PAPER_SPACE
  1

  0
ENDBLK
  5
13C2
330
13C0
100
AcDbEntity
  8
0
100
AcDbBlockEnd
  0
ENDSEC
  0
SECTION
  2
ENTITIES
  0
LINE
  5
13C3
330
1331
100
AcDbEntity
  8
0
  6
Continuous
 62
     3
100
AcDbLine
 10
126.915
 20
95.350000001
 30
0.0
 11
126.915000001
 21
106.450000001
 31
0.0
  0
LINE
  5
13C4
330
1331
100
AcDbEntity
  8
0
  6
Continuous
 62
     3
100
AcDbLine
 10
125.916346212
 20
74.000000001
 30
0.0
 11
125.916346213
 21
94.000000001
 31
0.0
  0
LINE
  5
13C5
330
1331
100
AcDbEntity
  8
0
  6
Continuous
 62
     3
100
AcDbLine
 10
128.5323810419999
 20
72.750000001
 30
0.0
 11
128.5323810419999
 21
74.000000001
 31
0.0
  0
LINE
  5
13C6
330
1331
100
AcDbEntity
  8
0
  6
Continuous
 62
     3
100
AcDbLine
 10
128.5323810429999
 20
95.250000001
 30
0.0
 11
128.5323810429999
 21
94.000000001
 31
0.0
  0
LINE
  5
13C7
330
1331
100
AcDbEntity
  8
0
  6
Continuous
 62
     3
100
AcDbLine
 10
174.700000007
 20
255.1499999979998
 30
0.0
 11
115.300000007
 21
255.1500000009998
 31
0.0
  0
LINE
  5
13C8
330
1331
100
AcDbEntity
  8
0
  6
Continuous
 62
     3
100
AcDbLine
 10
174.7000000049999
 20
210.8499999979999
 30
0.0
 11
174.700000007
 21
255.1499999979998
 31
0.0
  0
LINE
  5
13C9
330
1331
100
AcDbEntity
  8
0
  6
Continuous
 62
     3
100
AcDbLine
 10
115.300000007
 20
255.1500000009998
 30
0.0
 11
115.300000005
 21
215.850000001
 31
0.0
  0
LINE
  5
13CA
330
1331
100
AcDbEntity
  8
0
  6
Continuous
 62
     3
100
AcDbLine
 10
120.300000005
 20
210.8500000009998
 30
0.0
 11
174.7000000049999
 21
210.8499999979999
 31
0.0
  0
LINE
  5
13CB
330
1331
100
AcDbEntity
  8
0
  6
Continuous
 62
     3
100
AcDbLine
 10
114.100000006
 20
232.250366326
 30
0.0
 11
112.600000006
 21
232.2500000009994
 31
0.0
  0
LINE
  5
13CC
330
1331
100
AcDbEntity
  8
0
  6
Continuous
 62
     3
100
AcDbLine
 10
114.100000006
 20
233.854633677
 30
0.0
 11
112.600000006
 21
233.8550000009996
 31
0.0
  0
LINE
  5
13CD
330
1331
100
AcDbEntity
  8
0
  6
Continuous
 62
     3
100
AcDbLine
 10
112.600000006
 20
232.1450000009998
 30
0.0
 11
114.100000006
 21
232.1453663259994
 31
0.0
  0
LINE
  5
13CE
330
1331
100
AcDbEntity
  8
0
  6
Continuous
 62
     3
100
AcDbLine
 10
114.100000006
 20
233.7496336759997
 30
0.0
 11
112.600000006
 21
233.7500000009999
 31
0.0
  0
LINE
  5
13CF
330
1331
100
AcDbEntity
  8
0
  6
Continuous
 62
     3
100
AcDbLine
 10
182.500000007
 20
253.0499999979999
 30
0.0
 11
182.500000007
 21
252.049999998
 31
0.0
  0
LINE
  5
13D0
330
1331
100
AcDbEntity
  8
0
  6
Continuous
 62
     3
100
AcDbLine
 10
182.500000007
 20
252.049999998
 30
0.0
 11
187.500000007
 21
252.049999998
 31
0.0
  0
LINE
  5
13D1
330
1331
100
AcDbEntity
  8
0
  6
Continuous
 62
     3
100
AcDbLine
 10
187.500000007
 20
252.049999998
 30
0.0
 11
187.500000007
 21
253.0499999979999
 31
0.0
  0
LINE
  5
13D2
330
1331
100
AcDbEntity
  8
0
  6
Continuous
 62
     3
100
AcDbLine
 10
182.500000005
 20
213.9499999979999
 30
0.0
 11
182.500000005
 21
212.9499999979999
 31
0.0
  0
LINE
  5
13D3
330
1331
100
AcDbEntity
  8
0
  6
Continuous
 62
     3
100
AcDbLine
 10
187.500000005
 20
213.9499999979999
 30
0.0
 11
182.500000005
 21
213.9499999979999
 31
0.0
  0
LINE
  5
13D4
330
1331
100
AcDbEntity
  8
0
  6
Continuous
 62
     3
100
AcDbLine
 10
187.500000005
 20
212.9499999979999
 30
0.0
 11
187.500000005
 21
213.9499999979999
 31
0.0
  0
LINE
  5
13D5
330
1331
100
AcDbEntity
  8
0
  6
Continuous
 62
     3
100
AcDbLine
 10
114.100000006
 20
232.1453663259994
 30
0.0
 11
114.100000006
 21
233.854633677
 31
0.0
  0
LINE
  5
13D6
330
1331
100
AcDbEntity
  8
0
  6
Continuous
 62
     3
100
AcDbLine
 10
114.100000007
 20
253.145732652
 30
0.0
 11
114.100000007
 21
254.855000002
 31
0.0
  0
LINE
  5
13D7
330
1331
100
AcDbEntity
  8
0
  6
Continuous
 62
     3
100
AcDbLine
 10
175.9000000059999
 20
237.249267348
 30
0.0
 11
177.4000000059999
 21
237.249633673
 31
0.0
  0
LINE
  5
13D8
330
1331
100
AcDbEntity
  8
0
  6
Continuous
 62
     3
100
AcDbLine
 10
177.4000000059999
 20
237.354633673
 30
0.0
 11
175.9000000059999
 21
237.3542673479998
 31
0.0
  0
LINE
  5
13D9
330
1331
100
AcDbEntity
  8
0
  6
Continuous
 62
     3
100
AcDbLine
 10
114.100000007
 20
254.7500000009994
 30
0.0
 11
112.600000007
 21
254.750366327
 31
0.0
  0
LINE
  5
13DA
330
1331
100
AcDbEntity
  8
0
  6
Continuous
 62
     3
100
AcDbLine
 10
112.600000007
 20
253.145366327
 30
0.0
 11
114.100000007
 21
253.145732652
 31
0.0
  0
LINE
  5
13DB
330
1331
100
AcDbEntity
  8
0
  6
Continuous
 62
     3
100
AcDbLine
 10
114.100000007
 20
254.855000002
 30
0.0
 11
112.600000007
 21
254.855366327
 31
0.0
  0
LINE
  5
13DC
330
1331
100
AcDbEntity
  8
0
  6
Continuous
 62
     3
100
AcDbLine
 10
175.9000000059999
 20
235.7499999979999
 30
0.0
 11
177.4000000059999
 21
235.749633673
 31
0.0
  0
LINE
  5
13DD
330
1331
100
AcDbEntity
  8
0
  6
Continuous
 62
     3
100
AcDbLine
 10
175.9000000059999
 20
237.3542673479998
 30
0.0
 11
175.9000000059999
 21
235.644999997
 31
0.0
  0
LINE
  5
13DE
330
1331
100
AcDbEntity
  8
0
  6
Continuous
 62
     3
100
AcDbLine
 10
175.9000000059999
 20
230.2492673479999
 30
0.0
 11
177.4000000059999
 21
230.2496336729999
 31
0.0
  0
LINE
  5
13DF
330
1331
100
AcDbEntity
  8
0
  6
Continuous
 62
     3
100
AcDbLine
 10
114.100000007
 20
253.2507326509999
 30
0.0
 11
112.600000007
 21
253.2503663269998
 31
0.0
  0
LINE
  5
13E0
330
1331
100
AcDbEntity
  8
0
  6
Continuous
 62
     3
100
AcDbLine
 10
114.100000007
 20
249.645732652
 30
0.0
 11
114.100000007
 21
251.3550000019999
 31
0.0
  0
LINE
  5
13E1
330
1331
100
AcDbEntity
  8
0
  6
Continuous
 62
     3
100
AcDbLine
 10
114.100000007
 20
251.2500000009999
 30
0.0
 11
112.600000007
 21
251.2503663269999
 31
0.0
  0
LINE
  5
13E2
330
1331
100
AcDbEntity
  8
0
  6
Continuous
 62
     3
100
AcDbLine
 10
177.4000000059999
 20
230.354633673
 30
0.0
 11
175.9000000059999
 21
230.3542673479998
 31
0.0
  0
LINE
  5
13E3
330
1331
100
AcDbEntity
  8
0
  6
Continuous
 62
     3
100
AcDbLine
 10
112.600000007
 20
249.645366327
 30
0.0
 11
114.100000007
 21
249.645732652
 31
0.0
  0
LINE
  5
13E4
330
1331
100
AcDbEntity
  8
0
  6
Continuous
 62
     3
100
AcDbLine
 10
114.100000007
 20
251.3550000019999
 30
0.0
 11
112.600000007
 21
251.355366327
 31
0.0
  0
LINE
  5
13E5
330
1331
100
AcDbEntity
  8
0
  6
Continuous
 62
     3
100
AcDbLine
 10
114.100000007
 20
249.750732651
 30
0.0
 11
112.600000007
 21
249.7503663269998
 31
0.0
  0
LINE
  5
13E6
330
1331
100
AcDbEntity
  8
0
  6
Continuous
 62
     3
100
AcDbLine
 10
114.100000006
 20
246.145732652
 30
0.0
 11
114.100000006
 21
247.8550000019998
 31
0.0
  0
LINE
  5
13E7
330
1331
100
AcDbEntity
  8
0
  6
Continuous
 62
     3
100
AcDbLine
 10
114.100000006
 20
247.750000001
 30
0.0
 11
112.600000006
 21
247.7503663269998
 31
0.0
  0
LINE
  5
13E8
330
1331
100
AcDbEntity
  8
0
  6
Continuous
 62
     3
100
AcDbLine
 10
175.9000000059999
 20
228.749999998
 30
0.0
 11
177.4000000059999
 21
228.749633673
 31
0.0
  0
LINE
  5
13E9
330
1331
100
AcDbEntity
  8
0
  6
Continuous
 62
     3
100
AcDbLine
 10
181.0000000049998
 20
217.4999999979996
 30
0.0
 11
189.000000005
 21
217.4999999979996
 31
0.0
  0
LINE
  5
13EA
330
1331
100
AcDbEntity
  8
0
  6
Continuous
 62
     3
100
AcDbLine
 10
120.300000005
 20
210.8500000009998
 30
0.0
 11
115.300000005
 21
215.850000001
 31
0.0
  0
LINE
  5
13EB
330
1331
100
AcDbEntity
  8
0
  6
Continuous
 62
     3
100
AcDbLine
 10
175.9000000059999
 20
230.3542673479998
 30
0.0
 11
175.9000000059999
 21
228.644999997
 31
0.0
  0
LINE
  5
13EC
330
1331
100
AcDbEntity
  8
0
  6
Continuous
 62
     3
100
AcDbLine
 10
175.9000000059999
 20
240.7492673479999
 30
0.0
 11
177.4000000059999
 21
240.7496336729999
 31
0.0
  0
LINE
  5
13ED
330
1331
100
AcDbEntity
  8
0
  6
Continuous
 62
     3
100
AcDbLine
 10
175.9000000059999
 20
239.144999997
 30
0.0
 11
177.4000000059999
 21
239.144633673
 31
0.0
  0
LINE
  5
13EE
330
1331
100
AcDbEntity
  8
0
  6
Continuous
 62
     3
100
AcDbLine
 10
177.4000000059999
 20
240.854633673
 30
0.0
 11
175.9000000059999
 21
240.8542673479998
 31
0.0
  0
LINE
  5
13EF
330
1331
100
AcDbEntity
  8
0
  6
Continuous
 62
     3
100
AcDbLine
 10
175.9000000059999
 20
239.249999998
 30
0.0
 11
177.4000000059999
 21
239.249633673
 31
0.0
  0
LINE
  5
13F0
330
1331
100
AcDbEntity
  8
0
  6
Continuous
 62
     3
100
AcDbLine
 10
102.500000007
 20
253.050000002
 30
0.0
 11
102.500000007
 21
252.050000002
 31
0.0
  0
LINE
  5
13F1
330
1331
100
AcDbEntity
  8
0
  6
Continuous
 62
     3
100
AcDbLine
 10
175.9000000059999
 20
240.8542673479998
 30
0.0
 11
175.9000000059999
 21
239.144999997
 31
0.0
  0
LINE
  5
13F2
330
1331
100
AcDbEntity
  8
0
  6
Continuous
 62
     3
100
AcDbLine
 10
175.9000000059999
 20
244.2492673479996
 30
0.0
 11
177.4000000059999
 21
244.249633673
 31
0.0
  0
LINE
  5
13F3
330
1331
100
AcDbEntity
  8
0
  6
Continuous
 62
     3
100
AcDbLine
 10
112.600000006
 20
246.1453663269999
 30
0.0
 11
114.100000006
 21
246.145732652
 31
0.0
  0
LINE
  5
13F4
330
1331
100
AcDbEntity
  8
0
  6
Continuous
 62
     3
100
AcDbLine
 10
114.100000006
 20
247.8550000019998
 30
0.0
 11
112.600000006
 21
247.855366327
 31
0.0
  0
LINE
  5
13F5
330
1331
100
AcDbEntity
  8
0
  6
Continuous
 62
     3
100
AcDbLine
 10
114.100000006
 20
246.2507326509999
 30
0.0
 11
112.600000006
 21
246.250366327
 31
0.0
  0
LINE
  5
13F6
330
1331
100
AcDbEntity
  8
0
  6
Continuous
 62
     3
100
AcDbLine
 10
175.9000000059999
 20
242.6449999969999
 30
0.0
 11
177.4000000059999
 21
242.6446336729999
 31
0.0
  0
LINE
  5
13F7
330
1331
100
AcDbEntity
  8
0
  6
Continuous
 62
     3
100
AcDbLine
 10
177.4000000059999
 20
244.3546336729998
 30
0.0
 11
175.9000000059999
 21
244.3542673479998
 31
0.0
  0
LINE
  5
13F8
330
1331
100
AcDbEntity
  8
0
  6
Continuous
 62
     3
100
AcDbLine
 10
175.9000000059999
 20
242.7499999979999
 30
0.0
 11
177.4000000059999
 21
242.7496336729999
 31
0.0
  0
LINE
  5
13F9
330
1331
100
AcDbEntity
  8
0
  6
Continuous
 62
     3
100
AcDbLine
 10
114.100000006
 20
242.645732652
 30
0.0
 11
114.100000006
 21
244.355000002
 31
0.0
  0
LINE
  5
13FA
330
1331
100
AcDbEntity
  8
0
  6
Continuous
 62
     3
100
AcDbLine
 10
114.100000006
 20
244.2500000009999
 30
0.0
 11
112.600000006
 21
244.250366327
 31
0.0
  0
LINE
  5
13FB
330
1331
100
AcDbEntity
  8
0
  6
Continuous
 62
     3
100
AcDbLine
 10
112.600000006
 20
242.645366327
 30
0.0
 11
114.100000006
 21
242.645732652
 31
0.0
  0
LINE
  5
13FC
330
1331
100
AcDbEntity
  8
0
  6
Continuous
 62
     3
100
AcDbLine
 10
175.9000000059999
 20
244.3542673479998
 30
0.0
 11
175.9000000059999
 21
242.6449999969999
 31
0.0
  0
LINE
  5
13FD
330
1331
100
AcDbEntity
  8
0
  6
Continuous
 62
     3
100
AcDbLine
 10
175.9000000059999
 20
247.749267348
 30
0.0
 11
177.4000000059999
 21
247.749633673
 31
0.0
  0
LINE
  5
13FE
330
1331
100
AcDbEntity
  8
0
  6
Continuous
 62
     3
100
AcDbLine
 10
175.9000000059999
 20
246.144999997
 30
0.0
 11
177.4000000059999
 21
246.1446336729999
 31
0.0
  0
LINE
  5
13FF
330
1331
100
AcDbEntity
  8
0
  6
Continuous
 62
     3
100
AcDbLine
 10
114.100000006
 20
244.355000002
 30
0.0
 11
112.600000006
 21
244.355366327
 31
0.0
  0
LINE
  5
1400
330
1331
100
AcDbEntity
  8
0
  6
Continuous
 62
     3
100
AcDbLine
 10
189.000000005
 20
217.4999999979996
 30
0.0
 11
189.000000007
 21
248.4999999979996
 31
0.0
  0
LINE
  5
1401
330
1331
100
AcDbEntity
  8
0
  6
Continuous
 62
     3
100
AcDbLine
 10
114.100000006
 20
242.7507326509999
 30
0.0
 11
112.600000006
 21
242.750366327
 31
0.0
  0
LINE
  5
1402
330
1331
100
AcDbEntity
  8
0
  6
Continuous
 62
     3
100
AcDbLine
 10
114.100000006
 20
239.145732652
 30
0.0
 11
114.100000006
 21
240.8550000019999
 31
0.0
  0
LINE
  5
1403
330
1331
100
AcDbEntity
  8
0
  6
Continuous
 62
     3
100
AcDbLine
 10
177.4000000059999
 20
247.854633673
 30
0.0
 11
175.9000000059999
 21
247.8542673479998
 31
0.0
  0
LINE
  5
1404
330
1331
100
AcDbEntity
  8
0
  6
Continuous
 62
     3
100
AcDbLine
 10
175.9000000059999
 20
246.2499999979999
 30
0.0
 11
177.4000000059999
 21
246.249633673
 31
0.0
  0
LINE
  5
1405
330
1331
100
AcDbEntity
  8
0
  6
Continuous
 62
     3
100
AcDbLine
 10
175.9000000059999
 20
247.8542673479998
 30
0.0
 11
175.9000000059999
 21
246.144999997
 31
0.0
  0
LINE
  5
1406
330
1331
100
AcDbEntity
  8
0
  6
Continuous
 62
     3
100
AcDbLine
 10
114.100000006
 20
240.7500000009999
 30
0.0
 11
112.600000006
 21
240.7503663269998
 31
0.0
  0
LINE
  5
1407
330
1331
100
AcDbEntity
  8
0
  6
Continuous
 62
     3
100
AcDbLine
 10
112.600000006
 20
239.145366327
 30
0.0
 11
114.100000006
 21
239.145732652
 31
0.0
  0
LINE
  5
1408
330
1331
100
AcDbEntity
  8
0
  6
Continuous
 62
     3
100
AcDbLine
 10
114.100000006
 20
240.8550000019999
 30
0.0
 11
112.600000006
 21
240.855366327
 31
0.0
  0
LINE
  5
1409
330
1331
100
AcDbEntity
  8
0
  6
Continuous
 62
     3
100
AcDbLine
 10
175.900000007
 20
251.249267348
 30
0.0
 11
177.400000007
 21
251.2496336729999
 31
0.0
  0
LINE
  5
140A
330
1331
100
AcDbEntity
  8
0
  6
Continuous
 62
     3
100
AcDbLine
 10
175.900000007
 20
249.644999997
 30
0.0
 11
177.400000007
 21
249.644633673
 31
0.0
  0
LINE
  5
140B
330
1331
100
AcDbEntity
  8
0
  6
Continuous
 62
     3
100
AcDbLine
 10
177.400000007
 20
251.354633673
 30
0.0
 11
175.900000007
 21
251.3542673479998
 31
0.0
  0
LINE
  5
140C
330
1331
100
AcDbEntity
  8
0
  6
Continuous
 62
     3
100
AcDbLine
 10
114.100000006
 20
239.250732651
 30
0.0
 11
112.600000006
 21
239.2503663269998
 31
0.0
  0
LINE
  5
140D
330
1331
100
AcDbEntity
  8
0
  6
Continuous
 62
     3
100
AcDbLine
 10
114.100000005
 20
211.145732652
 30
0.0
 11
114.100000005
 21
212.855000002
 31
0.0
  0
LINE
  5
140E
330
1331
100
AcDbEntity
  8
0
  6
Continuous
 62
     3
100
AcDbLine
 10
114.100000005
 20
212.7500000009999
 30
0.0
 11
112.600000005
 21
212.750366327
 31
0.0
  0
LINE
  5
140F
330
1331
100
AcDbEntity
  8
0
  6
Continuous
 62
     3
100
AcDbLine
 10
175.900000007
 20
249.749999998
 30
0.0
 11
177.400000007
 21
249.749633673
 31
0.0
  0
LINE
  5
1410
330
1331
100
AcDbEntity
  8
0
  6
Continuous
 62
     3
100
AcDbLine
 10
175.900000007
 20
251.3542673479998
 30
0.0
 11
175.900000007
 21
249.644999997
 31
0.0
  0
LINE
  5
1411
330
1331
100
AcDbEntity
  8
0
  6
Continuous
 62
     3
100
AcDbLine
 10
175.900000007
 20
254.7492673479996
 30
0.0
 11
177.400000007
 21
254.749633673
 31
0.0
  0
LINE
  5
1412
330
1331
100
AcDbEntity
  8
0
  6
Continuous
 62
     3
100
AcDbLine
 10
102.500000007
 20
252.050000002
 30
0.0
 11
107.500000007
 21
252.050000002
 31
0.0
  0
LINE
  5
1413
330
1331
100
AcDbEntity
  8
0
  6
Continuous
 62
     3
100
AcDbLine
 10
107.500000007
 20
252.050000002
 30
0.0
 11
107.500000007
 21
253.050000002
 31
0.0
  0
LINE
  5
1414
330
1331
100
AcDbEntity
  8
0
  6
Continuous
 62
     3
100
AcDbLine
 10
175.9000000059999
 20
235.644999997
 30
0.0
 11
177.4000000059999
 21
235.6446336729999
 31
0.0
  0
LINE
  5
1415
330
1331
100
AcDbEntity
  8
0
  6
Continuous
 62
     3
100
AcDbLine
 10
112.600000005
 20
211.145366327
 30
0.0
 11
114.100000005
 21
211.145732652
 31
0.0
  0
LINE
  5
1416
330
1331
100
AcDbEntity
  8
0
  6
Continuous
 62
     3
100
AcDbLine
 10
107.5000000049999
 20
212.950000002
 30
0.0
 11
107.5000000049999
 21
213.9500000019999
 31
0.0
  0
LINE
  5
1417
330
1331
100
AcDbEntity
  8
0
  6
Continuous
 62
     3
100
AcDbLine
 10
114.100000005
 20
212.855000002
 30
0.0
 11
112.600000005
 21
212.8553663269999
 31
0.0
  0
LINE
  5
1418
330
1331
100
AcDbEntity
  8
0
  6
Continuous
 62
     3
100
AcDbLine
 10
114.100000005
 20
211.2507326509994
 30
0.0
 11
112.600000005
 21
211.250366327
 31
0.0
  0
LINE
  5
1419
330
1331
100
AcDbEntity
  8
0
  6
Continuous
 62
     3
100
AcDbLine
 10
114.100000005
 20
214.645732652
 30
0.0
 11
114.100000005
 21
216.3550000019998
 31
0.0
  0
LINE
  5
141A
330
1331
100
AcDbEntity
  8
0
  6
Continuous
 62
     3
100
AcDbLine
 10
114.100000005
 20
216.250000001
 30
0.0
 11
112.600000005
 21
216.2503663269998
 31
0.0
  0
LINE
  5
141B
330
1331
100
AcDbEntity
  8
0
  6
Continuous
 62
     3
100
AcDbLine
 10
112.600000005
 20
214.6453663269999
 30
0.0
 11
114.100000005
 21
214.645732652
 31
0.0
  0
LINE
  5
141C
330
1331
100
AcDbEntity
  8
0
  6
Continuous
 62
     3
100
AcDbLine
 10
114.100000005
 20
216.3550000019998
 30
0.0
 11
112.600000005
 21
216.355366327
 31
0.0
  0
LINE
  5
141D
330
1331
100
AcDbEntity
  8
0
  6
Continuous
 62
     3
100
AcDbLine
 10
114.100000005
 20
214.7507326509999
 30
0.0
 11
112.600000005
 21
214.750366327
 31
0.0
  0
LINE
  5
141E
330
1331
100
AcDbEntity
  8
0
  6
Continuous
 62
     3
100
AcDbLine
 10
114.100000005
 20
218.145732652
 30
0.0
 11
114.100000005
 21
219.855000002
 31
0.0
  0
LINE
  5
141F
330
1331
100
AcDbEntity
  8
0
  6
Continuous
 62
     3
100
AcDbLine
 10
114.100000005
 20
219.7500000009994
 30
0.0
 11
112.600000005
 21
219.750366327
 31
0.0
  0
LINE
  5
1420
330
1331
100
AcDbEntity
  8
0
  6
Continuous
 62
     3
100
AcDbLine
 10
112.600000005
 20
218.145366327
 30
0.0
 11
114.100000005
 21
218.145732652
 31
0.0
  0
LINE
  5
1421
330
1331
100
AcDbEntity
  8
0
  6
Continuous
 62
     3
100
AcDbLine
 10
114.100000005
 20
219.855000002
 30
0.0
 11
112.600000005
 21
219.855366327
 31
0.0
  0
LINE
  5
1422
330
1331
100
AcDbEntity
  8
0
  6
Continuous
 62
     3
100
AcDbLine
 10
114.100000005
 20
218.250732651
 30
0.0
 11
112.600000005
 21
218.2503663269999
 31
0.0
  0
LINE
  5
1423
330
1331
100
AcDbEntity
  8
0
  6
Continuous
 62
     3
100
AcDbLine
 10
114.100000005
 20
221.645732652
 30
0.0
 11
114.100000005
 21
223.355000002
 31
0.0
  0
LINE
  5
1424
330
1331
100
AcDbEntity
  8
0
  6
Continuous
 62
     3
100
AcDbLine
 10
114.100000005
 20
223.2500000009999
 30
0.0
 11
112.600000005
 21
223.250366327
 31
0.0
  0
LINE
  5
1425
330
1331
100
AcDbEntity
  8
0
  6
Continuous
 62
     3
100
AcDbLine
 10
112.600000005
 20
221.645366327
 30
0.0
 11
114.100000005
 21
221.645732652
 31
0.0
  0
LINE
  5
1426
330
1331
100
AcDbEntity
  8
0
  6
Continuous
 62
     3
100
AcDbLine
 10
114.100000005
 20
223.355000002
 30
0.0
 11
112.600000005
 21
223.355366327
 31
0.0
  0
LINE
  5
1427
330
1331
100
AcDbEntity
  8
0
  6
Continuous
 62
     3
100
AcDbLine
 10
114.100000005
 20
221.7507326509994
 30
0.0
 11
112.600000005
 21
221.750366327
 31
0.0
  0
LINE
  5
1428
330
1331
100
AcDbEntity
  8
0
  6
Continuous
 62
     3
100
AcDbLine
 10
114.100000005
 20
225.145732652
 30
0.0
 11
114.100000005
 21
226.8550000019998
 31
0.0
  0
LINE
  5
1429
330
1331
100
AcDbEntity
  8
0
  6
Continuous
 62
     3
100
AcDbLine
 10
114.100000005
 20
226.750000001
 30
0.0
 11
112.600000005
 21
226.7503663269998
 31
0.0
  0
LINE
  5
142A
330
1331
100
AcDbEntity
  8
0
  6
Continuous
 62
     3
100
AcDbLine
 10
112.600000005
 20
225.1453663269999
 30
0.0
 11
114.100000005
 21
225.145732652
 31
0.0
  0
LINE
  5
142B
330
1331
100
AcDbEntity
  8
0
  6
Continuous
 62
     3
100
AcDbLine
 10
114.100000005
 20
226.8550000019998
 30
0.0
 11
112.600000005
 21
226.855366327
 31
0.0
  0
LINE
  5
142C
330
1331
100
AcDbEntity
  8
0
  6
Continuous
 62
     3
100
AcDbLine
 10
114.100000005
 20
225.2507326509999
 30
0.0
 11
112.600000005
 21
225.250366327
 31
0.0
  0
LINE
  5
142D
330
1331
100
AcDbEntity
  8
0
  6
Continuous
 62
     3
100
AcDbLine
 10
114.100000006
 20
235.645732652
 30
0.0
 11
114.100000006
 21
237.3550000019998
 31
0.0
  0
LINE
  5
142E
330
1331
100
AcDbEntity
  8
0
  6
Continuous
 62
     3
100
AcDbLine
 10
114.100000006
 20
237.250000001
 30
0.0
 11
112.600000006
 21
237.2503663269998
 31
0.0
  0
LINE
  5
142F
330
1331
100
AcDbEntity
  8
0
  6
Continuous
 62
     3
100
AcDbLine
 10
112.600000006
 20
235.6453663269999
 30
0.0
 11
114.100000006
 21
235.645732652
 31
0.0
  0
LINE
  5
1430
330
1331
100
AcDbEntity
  8
0
  6
Continuous
 62
     3
100
AcDbLine
 10
114.100000006
 20
237.3550000019998
 30
0.0
 11
112.600000006
 21
237.355366327
 31
0.0
  0
LINE
  5
1431
330
1331
100
AcDbEntity
  8
0
  6
Continuous
 62
     3
100
AcDbLine
 10
114.100000006
 20
235.7507326509999
 30
0.0
 11
112.600000006
 21
235.750366327
 31
0.0
  0
LINE
  5
1432
330
1331
100
AcDbEntity
  8
0
  6
Continuous
 62
     3
100
AcDbLine
 10
114.100000006
 20
228.645732652
 30
0.0
 11
114.100000006
 21
230.3550000019999
 31
0.0
  0
LINE
  5
1433
330
1331
100
AcDbEntity
  8
0
  6
Continuous
 62
     3
100
AcDbLine
 10
114.100000006
 20
230.2500000009994
 30
0.0
 11
112.600000006
 21
230.250366327
 31
0.0
  0
LINE
  5
1434
330
1331
100
AcDbEntity
  8
0
  6
Continuous
 62
     3
100
AcDbLine
 10
112.600000006
 20
228.645366327
 30
0.0
 11
114.100000006
 21
228.645732652
 31
0.0
  0
LINE
  5
1435
330
1331
100
AcDbEntity
  8
0
  6
Continuous
 62
     3
100
AcDbLine
 10
114.100000006
 20
230.3550000019999
 30
0.0
 11
112.600000006
 21
230.355366327
 31
0.0
  0
LINE
  5
1436
330
1331
100
AcDbEntity
  8
0
  6
Continuous
 62
     3
100
AcDbLine
 10
114.100000006
 20
228.750732651
 30
0.0
 11
112.600000006
 21
228.7503663269998
 31
0.0
  0
LINE
  5
1437
330
1331
100
AcDbEntity
  8
0
  6
Continuous
 62
     3
100
AcDbLine
 10
175.900000007
 20
253.1449999969999
 30
0.0
 11
177.400000007
 21
253.1446336729999
 31
0.0
  0
LINE
  5
1438
330
1331
100
AcDbEntity
  8
0
  6
Continuous
 62
     3
100
AcDbLine
 10
177.400000007
 20
254.8546336729998
 30
0.0
 11
175.900000007
 21
254.8542673479998
 31
0.0
  0
LINE
  5
1439
330
1331
100
AcDbEntity
  8
0
  6
Continuous
 62
     3
100
AcDbLine
 10
175.900000007
 20
253.249999998
 30
0.0
 11
177.400000007
 21
253.2496336729999
 31
0.0
  0
LINE
  5
143A
330
1331
100
AcDbEntity
  8
0
  6
Continuous
 62
     3
100
AcDbLine
 10
175.900000007
 20
254.8542673479998
 30
0.0
 11
175.900000007
 21
253.1449999969999
 31
0.0
  0
LINE
  5
143B
330
1331
100
AcDbEntity
  8
0
  6
Continuous
 62
     3
100
AcDbLine
 10
175.900000005
 20
226.749267348
 30
0.0
 11
177.400000005
 21
226.749633673
 31
0.0
  0
LINE
  5
143C
330
1331
100
AcDbEntity
  8
0
  6
Continuous
 62
     3
100
AcDbLine
 10
175.900000005
 20
225.144999997
 30
0.0
 11
177.400000005
 21
225.1446336729999
 31
0.0
  0
LINE
  5
143D
330
1331
100
AcDbEntity
  8
0
  6
Continuous
 62
     3
100
AcDbLine
 10
177.400000005
 20
226.854633673
 30
0.0
 11
175.900000005
 21
226.8542673479998
 31
0.0
  0
LINE
  5
143E
330
1331
100
AcDbEntity
  8
0
  6
Continuous
 62
     3
100
AcDbLine
 10
175.900000005
 20
225.2499999979999
 30
0.0
 11
177.400000005
 21
225.249633673
 31
0.0
  0
LINE
  5
143F
330
1331
100
AcDbEntity
  8
0
  6
Continuous
 62
     3
100
AcDbLine
 10
175.900000005
 20
226.8542673479998
 30
0.0
 11
175.900000005
 21
225.144999997
 31
0.0
  0
LINE
  5
1440
330
1331
100
AcDbEntity
  8
0
  6
Continuous
 62
     3
100
AcDbLine
 10
175.900000005
 20
223.2492673479999
 30
0.0
 11
177.400000005
 21
223.249633673
 31
0.0
  0
LINE
  5
1441
330
1331
100
AcDbEntity
  8
0
  6
Continuous
 62
     3
100
AcDbLine
 10
175.900000005
 20
221.644999997
 30
0.0
 11
177.400000005
 21
221.6446336729999
 31
0.0
  0
LINE
  5
1442
330
1331
100
AcDbEntity
  8
0
  6
Continuous
 62
     3
100
AcDbLine
 10
177.400000005
 20
223.3546336729999
 30
0.0
 11
175.900000005
 21
223.3542673479998
 31
0.0
  0
LINE
  5
1443
330
1331
100
AcDbEntity
  8
0
  6
Continuous
 62
     3
100
AcDbLine
 10
175.900000005
 20
221.7499999979996
 30
0.0
 11
177.400000005
 21
221.749633673
 31
0.0
  0
LINE
  5
1444
330
1331
100
AcDbEntity
  8
0
  6
Continuous
 62
     3
100
AcDbLine
 10
175.900000005
 20
223.3542673479998
 30
0.0
 11
175.900000005
 21
221.644999997
 31
0.0
  0
LINE
  5
1445
330
1331
100
AcDbEntity
  8
0
  6
Continuous
 62
     3
100
AcDbLine
 10
175.900000005
 20
219.7492673479996
 30
0.0
 11
177.400000005
 21
219.7496336729999
 31
0.0
  0
LINE
  5
1446
330
1331
100
AcDbEntity
  8
0
  6
Continuous
 62
     3
100
AcDbLine
 10
175.900000005
 20
218.144999997
 30
0.0
 11
177.400000005
 21
218.144633673
 31
0.0
  0
LINE
  5
1447
330
1331
100
AcDbEntity
  8
0
  6
Continuous
 62
     3
100
AcDbLine
 10
177.400000005
 20
219.854633673
 30
0.0
 11
175.900000005
 21
219.8542673479998
 31
0.0
  0
LINE
  5
1448
330
1331
100
AcDbEntity
  8
0
  6
Continuous
 62
     3
100
AcDbLine
 10
175.900000005
 20
218.249999998
 30
0.0
 11
177.400000005
 21
218.249633673
 31
0.0
  0
LINE
  5
1449
330
1331
100
AcDbEntity
  8
0
  6
Continuous
 62
     3
100
AcDbLine
 10
175.900000005
 20
219.8542673479998
 30
0.0
 11
175.900000005
 21
218.144999997
 31
0.0
  0
LINE
  5
144A
330
1331
100
AcDbEntity
  8
0
  6
Continuous
 62
     3
100
AcDbLine
 10
175.900000005
 20
216.249267348
 30
0.0
 11
177.400000005
 21
216.249633673
 31
0.0
  0
LINE
  5
144B
330
1331
100
AcDbEntity
  8
0
  6
Continuous
 62
     3
100
AcDbLine
 10
175.900000005
 20
214.644999997
 30
0.0
 11
177.400000005
 21
214.6446336729999
 31
0.0
  0
LINE
  5
144C
330
1331
100
AcDbEntity
  8
0
  6
Continuous
 62
     3
100
AcDbLine
 10
177.400000005
 20
216.354633673
 30
0.0
 11
175.900000005
 21
216.3542673479998
 31
0.0
  0
LINE
  5
144D
330
1331
100
AcDbEntity
  8
0
  6
Continuous
 62
     3
100
AcDbLine
 10
175.900000005
 20
214.7499999979999
 30
0.0
 11
177.400000005
 21
214.749633673
 31
0.0
  0
LINE
  5
144E
330
1331
100
AcDbEntity
  8
0
  6
Continuous
 62
     3
100
AcDbLine
 10
175.900000005
 20
216.3542673479998
 30
0.0
 11
175.900000005
 21
214.644999997
 31
0.0
  0
LINE
  5
144F
330
1331
100
AcDbEntity
  8
0
  6
Continuous
 62
     3
100
AcDbLine
 10
175.900000005
 20
212.7492673479999
 30
0.0
 11
177.400000005
 21
212.749633673
 31
0.0
  0
LINE
  5
1450
330
1331
100
AcDbEntity
  8
0
  6
Continuous
 62
     3
100
AcDbLine
 10
175.900000005
 20
211.144999997
 30
0.0
 11
177.400000005
 21
211.1446336729999
 31
0.0
  0
LINE
  5
1451
330
1331
100
AcDbEntity
  8
0
  6
Continuous
 62
     3
100
AcDbLine
 10
177.400000005
 20
212.8546336729999
 30
0.0
 11
175.900000005
 21
212.8542673479997
 31
0.0
  0
LINE
  5
1452
330
1331
100
AcDbEntity
  8
0
  6
Continuous
 62
     3
100
AcDbLine
 10
175.900000005
 20
211.2499999979996
 30
0.0
 11
177.400000005
 21
211.249633673
 31
0.0
  0
LINE
  5
1453
330
1331
100
AcDbEntity
  8
0
  6
Continuous
 62
     3
100
AcDbLine
 10
175.900000005
 20
212.8542673479997
 30
0.0
 11
175.900000005
 21
211.144999997
 31
0.0
  0
LINE
  5
1454
330
1331
100
AcDbEntity
  8
0
  6
Continuous
 62
     3
100
AcDbLine
 10
175.9000000059999
 20
233.8546336729999
 30
0.0
 11
175.9000000059999
 21
232.1453663229996
 31
0.0
  0
LINE
  5
1455
330
1331
100
AcDbEntity
  8
0
  6
Continuous
 62
     3
100
AcDbLine
 10
175.9000000059999
 20
232.250366324
 30
0.0
 11
177.4000000059999
 21
232.249999999
 31
0.0
  0
LINE
  5
1456
330
1331
100
AcDbEntity
  8
0
  6
Continuous
 62
     3
100
AcDbLine
 10
177.4000000059999
 20
233.854999999
 30
0.0
 11
175.9000000059999
 21
233.8546336729999
 31
0.0
  0
LINE
  5
1457
330
1331
100
AcDbEntity
  8
0
  6
Continuous
 62
     3
100
AcDbLine
 10
175.9000000059999
 20
232.1453663229996
 30
0.0
 11
177.4000000059999
 21
232.144999999
 31
0.0
  0
LINE
  5
1458
330
1331
100
AcDbEntity
  8
0
  6
Continuous
 62
     3
100
AcDbLine
 10
175.9000000059999
 20
233.749633674
 30
0.0
 11
177.4000000059999
 21
233.749999999
 31
0.0
  0
LINE
  5
1459
330
1331
100
AcDbEntity
  8
0
  6
Continuous
 62
     3
100
AcDbLine
 10
107.5000000049999
 20
213.9500000019999
 30
0.0
 11
102.500000005
 21
213.9500000019999
 31
0.0
  0
LINE
  5
145A
330
1331
100
AcDbEntity
  8
0
  6
Continuous
 62
     3
100
AcDbLine
 10
102.500000005
 20
213.9500000019999
 30
0.0
 11
102.500000005
 21
212.950000002
 31
0.0
  0
LINE
  5
145B
330
1331
100
AcDbEntity
  8
0
  6
Continuous
 62
     3
100
AcDbLine
 10
175.9000000059999
 20
228.644999997
 30
0.0
 11
177.4000000059999
 21
228.644633673
 31
0.0
  0
LINE
  5
145C
330
1331
100
AcDbEntity
  8
0
  6
Continuous
 62
     3
100
AcDbLine
 10
101.000000007
 20
248.500000002
 30
0.0
 11
101.000000005
 21
217.500000002
 31
0.0
  0
LINE
  5
145D
330
1331
100
AcDbEntity
  8
0
  6
Continuous
 62
     3
100
AcDbLine
 10
179.9600000059998
 20
248.4999999979996
 30
0.0
 11
179.960000005
 21
217.4999999979996
 31
0.0
  0
LINE
  5
145E
330
1331
100
AcDbEntity
  8
0
  6
Continuous
 62
     3
100
AcDbLine
 10
182.7600000049999
 20
217.4999999979996
 30
0.0
 11
182.7600000059996
 21
248.4999999979996
 31
0.0
  0
LINE
  5
145F
330
1331
100
AcDbEntity
  8
0
  6
Continuous
 62
     3
100
AcDbLine
 10
188.3600000059998
 20
248.4999999979996
 30
0.0
 11
188.360000005
 21
217.4999999979996
 31
0.0
  0
LINE
  5
1460
330
1331
100
AcDbEntity
  8
0
  6
Continuous
 62
     3
100
AcDbLine
 10
190.000000006
 20
248.4999999979996
 30
0.0
 11
190.000000005
 21
217.4999999979996
 31
0.0
  0
LINE
  5
1461
330
1331
100
AcDbEntity
  8
0
  6
Continuous
 62
     3
100
AcDbLine
 10
190.800000005
 20
217.4999999979996
 30
0.0
 11
190.8000000059998
 21
248.4999999979996
 31
0.0
  0
CIRCLE
  5
1462
330
1331
100
AcDbEntity
  8
0
  6
Continuous
 62
     3
100
AcDbCircle
 10
185.1600000059999
 20
235.5399999979999
 30
0.0
 40
2.0
  0
CIRCLE
  5
1463
330
1331
100
AcDbEntity
  8
0
  6
Continuous
 62
     3
100
AcDbCircle
 10
185.1600000059999
 20
235.5399999979999
 30
0.0
 40
1.8
  0
LINE
  5
1464
330
1331
100
AcDbEntity
  8
0
  6
Continuous
 62
     3
100
AcDbLine
 10
185.4100000059994
 20
237.3225543449999
 30
0.0
 11
185.4100000059994
 21
233.757445651
 31
0.0
  0
LINE
  5
1465
330
1331
100
AcDbEntity
  8
0
  6
Continuous
 62
     3
100
AcDbLine
 10
184.9100000059999
 20
237.3225543449999
 30
0.0
 11
184.9100000059999
 21
233.757445651
 31
0.0
  0
CIRCLE
  5
1466
330
1331
100
AcDbEntity
  8
0
  6
Continuous
 62
     3
100
AcDbCircle
 10
185.1600000059999
 20
230.459999998
 30
0.0
 40
2.0
  0
CIRCLE
  5
1467
330
1331
100
AcDbEntity
  8
0
  6
Continuous
 62
     3
100
AcDbCircle
 10
185.1600000059999
 20
230.459999998
 30
0.0
 40
1.8
  0
LINE
  5
1468
330
1331
100
AcDbEntity
  8
0
  6
Continuous
 62
     3
100
AcDbLine
 10
185.4100000059994
 20
232.242554345
 30
0.0
 11
185.4100000059994
 21
228.6774456509998
 31
0.0
  0
LINE
  5
1469
330
1331
100
AcDbEntity
  8
0
  6
Continuous
 62
     3
100
AcDbLine
 10
184.9100000059999
 20
232.242554345
 30
0.0
 11
184.9100000059999
 21
228.6774456509998
 31
0.0
  0
CIRCLE
  5
146A
330
1331
100
AcDbEntity
  8
0
  6
Continuous
 62
     3
100
AcDbCircle
 10
185.160000005
 20
225.379999998
 30
0.0
 40
2.0
  0
CIRCLE
  5
146B
330
1331
100
AcDbEntity
  8
0
  6
Continuous
 62
     3
100
AcDbCircle
 10
185.160000005
 20
225.379999998
 30
0.0
 40
1.8
  0
LINE
  5
146C
330
1331
100
AcDbEntity
  8
0
  6
Continuous
 62
     3
100
AcDbLine
 10
185.4100000059994
 20
227.1625543449999
 30
0.0
 11
185.410000005
 21
223.5974456509999
 31
0.0
  0
LINE
  5
146D
330
1331
100
AcDbEntity
  8
0
  6
Continuous
 62
     3
100
AcDbLine
 10
184.9100000059999
 20
227.1625543449999
 30
0.0
 11
184.9100000049998
 21
223.5974456509999
 31
0.0
  0
CIRCLE
  5
146E
330
1331
100
AcDbEntity
  8
0
  6
Continuous
 62
     3
100
AcDbCircle
 10
185.160000005
 20
220.299999998
 30
0.0
 40
2.0
  0
CIRCLE
  5
146F
330
1331
100
AcDbEntity
  8
0
  6
Continuous
 62
     3
100
AcDbCircle
 10
185.160000005
 20
220.299999998
 30
0.0
 40
1.8
  0
LINE
  5
1470
330
1331
100
AcDbEntity
  8
0
  6
Continuous
 62
     3
100
AcDbLine
 10
185.410000005
 20
222.082554345
 30
0.0
 11
185.410000005
 21
218.5174456509998
 31
0.0
  0
LINE
  5
1471
330
1331
100
AcDbEntity
  8
0
  6
Continuous
 62
     3
100
AcDbLine
 10
184.9100000049998
 20
222.082554345
 30
0.0
 11
184.9100000049998
 21
218.5174456509998
 31
0.0
  0
CIRCLE
  5
1472
330
1331
100
AcDbEntity
  8
0
  6
Continuous
 62
     3
100
AcDbCircle
 10
185.1600000059999
 20
240.619999998
 30
0.0
 40
2.0
  0
LINE
  5
1473
330
1331
100
AcDbEntity
  8
0
  6
Continuous
 62
     3
100
AcDbLine
 10
185.4100000059994
 20
242.4025543449999
 30
0.0
 11
185.4100000059994
 21
238.8374456509999
 31
0.0
  0
LINE
  5
1474
330
1331
100
AcDbEntity
  8
0
  6
Continuous
 62
     3
100
AcDbLine
 10
184.9100000059999
 20
242.4025543449999
 30
0.0
 11
184.9100000059999
 21
238.8374456509999
 31
0.0
  0
CIRCLE
  5
1475
330
1331
100
AcDbEntity
  8
0
  6
Continuous
 62
     3
100
AcDbCircle
 10
185.1600000059999
 20
240.619999998
 30
0.0
 40
1.8
  0
CIRCLE
  5
1476
330
1331
100
AcDbEntity
  8
0
  6
Continuous
 62
     3
100
AcDbCircle
 10
185.1600000059999
 20
245.6999999979999
 30
0.0
 40
2.0
  0
CIRCLE
  5
1477
330
1331
100
AcDbEntity
  8
0
  6
Continuous
 62
     3
100
AcDbCircle
 10
185.1600000059999
 20
245.6999999979999
 30
0.0
 40
1.8
  0
LINE
  5
1478
330
1331
100
AcDbEntity
  8
0
  6
Continuous
 62
     3
100
AcDbLine
 10
185.4100000059994
 20
247.482554345
 30
0.0
 11
185.4100000059994
 21
243.9174456509995
 31
0.0
  0
LINE
  5
1479
330
1331
100
AcDbEntity
  8
0
  6
Continuous
 62
     3
100
AcDbLine
 10
184.9100000059999
 20
247.482554345
 30
0.0
 11
184.9100000059999
 21
243.9174456509995
 31
0.0
  0
LINE
  5
147A
330
1331
100
AcDbEntity
  8
0
  6
Continuous
 62
     3
100
AcDbLine
 10
110.040000006
 20
248.500000002
 30
0.0
 11
110.040000005
 21
217.500000002
 31
0.0
  0
LINE
  5
147B
330
1331
100
AcDbEntity
  8
0
  6
Continuous
 62
     3
100
AcDbLine
 10
107.240000005
 20
217.500000002
 30
0.0
 11
107.240000006
 21
248.500000002
 31
0.0
  0
LINE
  5
147C
330
1331
100
AcDbEntity
  8
0
  6
Continuous
 62
     3
100
AcDbLine
 10
101.640000006
 20
248.500000002
 30
0.0
 11
101.6400000049999
 21
217.500000002
 31
0.0
  0
LINE
  5
147D
330
1331
100
AcDbEntity
  8
0
  6
Continuous
 62
     3
100
AcDbLine
 10
100.000000006
 20
248.500000002
 30
0.0
 11
100.000000005
 21
217.500000002
 31
0.0
  0
LINE
  5
147E
330
1331
100
AcDbEntity
  8
0
  6
Continuous
 62
     3
100
AcDbLine
 10
99.20000000500001
 20
217.500000002
 30
0.0
 11
99.20000000600001
 21
248.500000002
 31
0.0
  0
CIRCLE
  5
147F
330
1331
100
AcDbEntity
  8
0
  6
Continuous
 62
     3
100
AcDbCircle
 10
104.840000006
 20
230.460000002
 30
0.0
 40
2.0
  0
CIRCLE
  5
1480
330
1331
100
AcDbEntity
  8
0
  6
Continuous
 62
     3
100
AcDbCircle
 10
104.840000006
 20
230.460000002
 30
0.0
 40
1.8
  0
LINE
  5
1481
330
1331
100
AcDbEntity
  8
0
  6
Continuous
 62
     3
100
AcDbLine
 10
104.590000006
 20
232.242554349
 30
0.0
 11
104.590000006
 21
228.677445655
 31
0.0
  0
LINE
  5
1482
330
1331
100
AcDbEntity
  8
0
  6
Continuous
 62
     3
100
AcDbLine
 10
105.0900000059999
 20
232.242554349
 30
0.0
 11
105.0900000059999
 21
228.677445655
 31
0.0
  0
CIRCLE
  5
1483
330
1331
100
AcDbEntity
  8
0
  6
Continuous
 62
     3
100
AcDbCircle
 10
104.840000005
 20
225.380000002
 30
0.0
 40
2.0
  0
CIRCLE
  5
1484
330
1331
100
AcDbEntity
  8
0
  6
Continuous
 62
     3
100
AcDbCircle
 10
104.840000005
 20
225.380000002
 30
0.0
 40
1.8
  0
LINE
  5
1485
330
1331
100
AcDbEntity
  8
0
  6
Continuous
 62
     3
100
AcDbLine
 10
104.590000006
 20
227.1625543489998
 30
0.0
 11
104.590000005
 21
223.597445655
 31
0.0
  0
LINE
  5
1486
330
1331
100
AcDbEntity
  8
0
  6
Continuous
 62
     3
100
AcDbLine
 10
105.0900000059999
 20
227.1625543489998
 30
0.0
 11
105.0900000049997
 21
223.597445655
 31
0.0
  0
CIRCLE
  5
1487
330
1331
100
AcDbEntity
  8
0
  6
Continuous
 62
     3
100
AcDbCircle
 10
104.840000005
 20
220.300000002
 30
0.0
 40
2.0
  0
CIRCLE
  5
1488
330
1331
100
AcDbEntity
  8
0
  6
Continuous
 62
     3
100
AcDbCircle
 10
104.840000005
 20
220.300000002
 30
0.0
 40
1.8
  0
LINE
  5
1489
330
1331
100
AcDbEntity
  8
0
  6
Continuous
 62
     3
100
AcDbLine
 10
104.590000005
 20
222.082554349
 30
0.0
 11
104.590000005
 21
218.5174456549999
 31
0.0
  0
LINE
  5
148A
330
1331
100
AcDbEntity
  8
0
  6
Continuous
 62
     3
100
AcDbLine
 10
105.0900000049997
 20
222.082554349
 30
0.0
 11
105.0900000049997
 21
218.5174456549999
 31
0.0
  0
CIRCLE
  5
148B
330
1331
100
AcDbEntity
  8
0
  6
Continuous
 62
     3
100
AcDbCircle
 10
104.840000006
 20
235.5400000019999
 30
0.0
 40
2.0
  0
CIRCLE
  5
148C
330
1331
100
AcDbEntity
  8
0
  6
Continuous
 62
     3
100
AcDbCircle
 10
104.840000006
 20
235.5400000019999
 30
0.0
 40
1.8
  0
LINE
  5
148D
330
1331
100
AcDbEntity
  8
0
  6
Continuous
 62
     3
100
AcDbLine
 10
104.590000006
 20
237.322554349
 30
0.0
 11
104.590000006
 21
233.757445655
 31
0.0
  0
LINE
  5
148E
330
1331
100
AcDbEntity
  8
0
  6
Continuous
 62
     3
100
AcDbLine
 10
105.0900000059999
 20
237.322554349
 30
0.0
 11
105.0900000059999
 21
233.757445655
 31
0.0
  0
CIRCLE
  5
148F
330
1331
100
AcDbEntity
  8
0
  6
Continuous
 62
     3
100
AcDbCircle
 10
104.840000006
 20
240.620000002
 30
0.0
 40
2.0
  0
LINE
  5
1490
330
1331
100
AcDbEntity
  8
0
  6
Continuous
 62
     3
100
AcDbLine
 10
104.590000006
 20
242.4025543489999
 30
0.0
 11
104.590000006
 21
238.837445655
 31
0.0
  0
LINE
  5
1491
330
1331
100
AcDbEntity
  8
0
  6
Continuous
 62
     3
100
AcDbLine
 10
105.0900000059999
 20
242.4025543489999
 30
0.0
 11
105.0900000059999
 21
238.837445655
 31
0.0
  0
CIRCLE
  5
1492
330
1331
100
AcDbEntity
  8
0
  6
Continuous
 62
     3
100
AcDbCircle
 10
104.840000006
 20
240.620000002
 30
0.0
 40
1.8
  0
CIRCLE
  5
1493
330
1331
100
AcDbEntity
  8
0
  6
Continuous
 62
     3
100
AcDbCircle
 10
104.840000006
 20
245.7000000019998
 30
0.0
 40
2.0
  0
CIRCLE
  5
1494
330
1331
100
AcDbEntity
  8
0
  6
Continuous
 62
     3
100
AcDbCircle
 10
104.840000006
 20
245.7000000019998
 30
0.0
 40
1.8
  0
LINE
  5
1495
330
1331
100
AcDbEntity
  8
0
  6
Continuous
 62
     3
100
AcDbLine
 10
104.590000006
 20
247.482554349
 30
0.0
 11
104.590000006
 21
243.9174456549999
 31
0.0
  0
LINE
  5
1496
330
1331
100
AcDbEntity
  8
0
  6
Continuous
 62
     3
100
AcDbLine
 10
105.0900000059999
 20
247.482554349
 30
0.0
 11
105.0900000059999
 21
243.9174456549999
 31
0.0
  0
LINE
  5
1497
330
1331
100
AcDbEntity
  8
0
  6
Continuous
 62
     3
100
AcDbLine
 10
95.41500000499999
 20
222.0000026999999
 30
0.0
 11
95.41500000399999
 21
195.000000002
 31
0.0
  0
LINE
  5
1498
330
1331
100
AcDbEntity
  8
0
  6
Continuous
 62
     3
100
AcDbLine
 10
95.41500000399999
 20
196.000000002
 30
0.0
 11
97.346851657
 21
195.482361912
 31
0.0
  0
LINE
  5
1499
330
1331
100
AcDbEntity
  8
0
  6
Continuous
 62
     3
100
AcDbLine
 10
95.41500000399999
 20
196.000000002
 30
0.0
 11
97.346851657
 21
196.517638092
 31
0.0
  0
LINE
  5
149A
330
1331
100
AcDbEntity
  8
0
  6
Continuous
 62
     3
100
AcDbLine
 10
95.41500000399999
 20
196.000000002
 30
0.0
 11
192.000000004
 21
195.9999999979999
 31
0.0
  0
LINE
  5
149B
330
1331
100
AcDbEntity
  8
0
  6
Continuous
 62
     3
100
AcDbLine
 10
192.000000004
 20
195.9999999979999
 30
0.0
 11
190.068148352
 21
196.5176380879999
 31
0.0
  0
LINE
  5
149C
330
1331
100
AcDbEntity
  8
0
  6
Continuous
 62
     3
100
AcDbLine
 10
192.000000004
 20
195.9999999979999
 30
0.0
 11
190.0681483509994
 21
195.482361908
 31
0.0
  0
LINE
  5
149D
330
1331
100
AcDbEntity
  8
0
  6
Continuous
 62
     3
100
AcDbLine
 10
192.000000005
 20
208.000002695
 30
0.0
 11
192.000000004
 21
194.9999999979999
 31
0.0
  0
LINE
  5
149E
330
1331
100
AcDbEntity
  8
0
  6
Continuous
 62
     3
100
AcDbLine
 10
192.000000004
 20
202.000002695
 30
0.0
 11
190.068148352
 21
202.517640785
 31
0.0
  0
LINE
  5
149F
330
1331
100
AcDbEntity
  8
0
  6
Continuous
 62
     3
100
AcDbLine
 10
192.000000004
 20
202.000002695
 30
0.0
 11
190.068148352
 21
201.4823646049999
 31
0.0
  0
LINE
  5
14A0
330
1331
100
AcDbEntity
  8
0
  6
Continuous
 62
     3
100
AcDbLine
 10
192.000000004
 20
202.000002695
 30
0.0
 11
98.000000004
 21
202.000002699
 31
0.0
  0
LINE
  5
14A1
330
1331
100
AcDbEntity
  8
0
  6
Continuous
 62
     3
100
AcDbLine
 10
98.000000004
 20
202.000002699
 30
0.0
 11
99.93185165700001
 21
201.4823646079999
 31
0.0
  0
LINE
  5
14A2
330
1331
100
AcDbEntity
  8
0
  6
Continuous
 62
     3
100
AcDbLine
 10
98.000000004
 20
202.000002699
 30
0.0
 11
99.93185165700001
 21
202.517640789
 31
0.0
  0
LINE
  5
14A3
330
1331
100
AcDbEntity
  8
0
  6
Continuous
 62
     3
100
AcDbLine
 10
98.000000005
 20
208.000002699
 30
0.0
 11
98.000000004
 21
201.000002699
 31
0.0
  0
TEXT
  5
14A4
330
1331
100
AcDbEntity
  8
0
  6
Continuous
 62
     3
100
AcDbText
 10
143.350000004
 20
202.500002697
 30
0.1
 40
2.0
  1
９４
 41
0.8
  7
KANJI0
100
AcDbText
  0
LINE
  5
14A5
330
1331
100
AcDbEntity
  8
0
  6
Continuous
 62
     3
100
AcDbLine
 10
112.600000007
 20
257.500000002
 30
0.1
 11
112.600000007
 21
263.000000002
 31
0.1
  0
LINE
  5
14A6
330
1331
100
AcDbEntity
  8
0
  6
Continuous
 62
     3
100
AcDbLine
 10
112.600000007
 20
262.000000002
 30
0.0
 11
114.5318516599999
 21
261.482361911
 31
0.0
  0
LINE
  5
14A7
330
1331
100
AcDbEntity
  8
0
  6
Continuous
 62
     3
100
AcDbLine
 10
112.600000007
 20
262.000000002
 30
0.0
 11
114.5318516599999
 21
262.517638092
 31
0.0
  0
LINE
  5
14A8
330
1331
100
AcDbEntity
  8
0
  6
Continuous
 62
     3
100
AcDbLine
 10
112.600000007
 20
262.000000002
 30
0.0
 11
177.400000007
 21
261.999999999
 31
0.0
  0
LINE
  5
14A9
330
1331
100
AcDbEntity
  8
0
  6
Continuous
 62
     3
100
AcDbLine
 10
177.400000007
 20
261.999999999
 30
0.0
 11
175.468148355
 21
262.517638089
 31
0.0
  0
LINE
  5
14AA
330
1331
100
AcDbEntity
  8
0
  6
Continuous
 62
     3
100
AcDbLine
 10
177.400000007
 20
261.999999999
 30
0.0
 11
175.468148355
 21
261.482361909
 31
0.0
  0
LINE
  5
14AB
330
1331
100
AcDbEntity
  8
0
  6
Continuous
 62
     3
100
AcDbLine
 10
177.400000007
 20
257.5000038129999
 30
0.0
 11
177.400000007
 21
262.999999999
 31
0.0
  0
TEXT
  5
14AC
330
1331
100
AcDbEntity
  8
0
  6
Continuous
 62
     3
100
AcDbText
 10
141.650000007
 20
262.5
 30
0.1
 40
2.0
  1
６４.８
 41
0.8
  7
KANJI0
100
AcDbText
  0
LINE
  5
14AD
330
1331
100
AcDbEntity
  8
0
  6
Continuous
 62
     3
100
AcDbLine
 10
200.000000002
 20
135.9999999979999
 30
0.1
 11
200.517638092
 21
137.9318516499999
 31
0.1
  0
LINE
  5
14AE
330
1331
100
AcDbEntity
  8
0
  6
Continuous
 62
     3
100
AcDbLine
 10
200.000000002
 20
135.9999999979999
 30
0.0
 11
199.482361912
 21
137.9318516499999
 31
0.0
  0
LINE
  5
14AF
330
1331
100
AcDbEntity
  8
0
  6
Continuous
 62
     3
100
AcDbLine
 10
200.000000002
 20
135.9999999979999
 30
0.0
 11
200.000000003
 21
175.999926558
 31
0.0
  0
LINE
  5
14B0
330
1331
100
AcDbEntity
  8
0
  6
Continuous
 62
     3
100
AcDbLine
 10
200.000000003
 20
175.999926558
 30
0.0
 11
199.482361913
 21
174.068074906
 31
0.0
  0
LINE
  5
14B1
330
1331
100
AcDbEntity
  8
0
  6
Continuous
 62
     3
100
AcDbLine
 10
200.000000003
 20
175.999926558
 30
0.0
 11
200.517638093
 21
174.068074906
 31
0.0
  0
LINE
  5
14B2
330
1331
100
AcDbEntity
  8
0
  6
Continuous
 62
     3
100
AcDbLine
 10
189.2050857579999
 20
175.999926559
 30
0.0
 11
201.0000000029999
 21
175.999926558
 31
0.0
  0
TEXT
  5
14B3
330
1331
100
AcDbEntity
  8
0
  6
Continuous
 62
     3
100
AcDbText
 10
199.500000002
 20
154.3499632779998
 30
0.1
 40
2.0
  1
４０
 50
90.0
 41
0.8
  7
KANJI0
100
AcDbText
  0
LINE
  5
14B4
330
1331
100
AcDbEntity
  8
0
  6
Continuous
 62
     3
100
AcDbLine
 10
207.000000002
 20
135.9999999979999
 30
0.1
 11
207.5176380919999
 21
137.9318516499999
 31
0.1
  0
LINE
  5
14B5
330
1331
100
AcDbEntity
  8
0
  6
Continuous
 62
     3
100
AcDbLine
 10
207.000000002
 20
135.9999999979999
 30
0.0
 11
206.482361912
 21
137.9318516499999
 31
0.0
  0
LINE
  5
14B6
330
1331
100
AcDbEntity
  8
0
  6
Continuous
 62
     3
100
AcDbLine
 10
207.000000002
 20
135.9999999979999
 30
0.0
 11
207.0000000029998
 21
176.7999999979998
 31
0.0
  0
LINE
  5
14B7
330
1331
100
AcDbEntity
  8
0
  6
Continuous
 62
     3
100
AcDbLine
 10
207.0000000029998
 20
176.7999999979998
 30
0.0
 11
206.482361913
 21
174.868148345
 31
0.0
  0
LINE
  5
14B8
330
1331
100
AcDbEntity
  8
0
  6
Continuous
 62
     3
100
AcDbLine
 10
207.0000000029998
 20
176.7999999979998
 30
0.0
 11
207.5176380929999
 21
174.868148345
 31
0.0
  0
LINE
  5
14B9
330
1331
100
AcDbEntity
  8
0
  6
Continuous
 62
     3
100
AcDbLine
 10
178.2167137709998
 20
176.799999999
 30
0.0
 11
208.000000003
 21
176.799999997
 31
0.0
  0
LINE
  5
14BA
330
1331
100
AcDbEntity
  8
0
  6
Continuous
 62
     3
100
AcDbLine
 10
193.000000002
 20
135.9999999979999
 30
0.0
 11
208.000000002
 21
135.999999997
 31
0.0
  0
LINE
  5
14BB
330
1331
100
AcDbEntity
  8
0
  6
Continuous
 62
     3
100
AcDbLine
 10
193.0000000009999
 20
107.9999999979998
 30
0.0
 11
202.000000001
 21
107.9999999979998
 31
0.0
  0
LINE
  5
14BC
330
1331
100
AcDbEntity
  8
0
  6
Continuous
 62
     3
100
AcDbLine
 10
201.0000000009994
 20
107.9999999979998
 30
0.0
 11
200.48236191
 21
106.068148345
 31
0.0
  0
LINE
  5
14BD
330
1331
100
AcDbEntity
  8
0
  6
Continuous
 62
     3
100
AcDbLine
 10
201.0000000009994
 20
107.9999999979998
 30
0.0
 11
201.5176380909998
 21
106.068148345
 31
0.0
  0
LINE
  5
14BE
330
1331
100
AcDbEntity
  8
0
  6
Continuous
 62
     3
100
AcDbLine
 10
201.0000000009994
 20
107.9999999979998
 30
0.0
 11
200.999999999
 21
59.99999999799999
 31
0.0
  0
LINE
  5
14BF
330
1331
100
AcDbEntity
  8
0
  6
Continuous
 62
     3
100
AcDbLine
 10
200.999999999
 20
59.99999999799999
 30
0.0
 11
201.5176380889998
 21
61.93185165
 31
0.0
  0
LINE
  5
14C0
330
1331
100
AcDbEntity
  8
0
  6
Continuous
 62
     3
100
AcDbLine
 10
200.999999999
 20
59.99999999799999
 30
0.0
 11
200.482361909
 21
61.93185165
 31
0.0
  0
LINE
  5
14C1
330
1331
100
AcDbEntity
  8
0
  6
Continuous
 62
     3
100
AcDbLine
 10
192.999999999
 20
59.99999999799999
 30
0.0
 11
201.999999999
 21
59.99999999799999
 31
0.0
  0
TEXT
  5
14C2
330
1331
100
AcDbEntity
  8
0
  6
Continuous
 62
     3
100
AcDbText
 10
200.4999999999999
 20
82.34999999800001
 30
0.1
 40
2.0
  1
４８
 50
90.0
 41
0.8
  7
KANJI0
100
AcDbText
  0
LINE
  5
14C3
330
1331
100
AcDbEntity
  8
0
  6
Continuous
 62
     3
100
AcDbLine
 10
94.41500067499999
 20
94.000000003
 30
0.1
 11
89.41500067499999
 21
94.000000003
 31
0.1
  0
LINE
  5
14C4
330
1331
100
AcDbEntity
  8
0
  6
Continuous
 62
     3
100
AcDbLine
 10
90.41500067500001
 20
94.000000003
 30
0.0
 11
89.89736258399998
 21
92.06814835100001
 31
0.0
  0
LINE
  5
14C5
330
1331
100
AcDbEntity
  8
0
  6
Continuous
 62
     3
100
AcDbLine
 10
90.41500067500001
 20
94.000000003
 30
0.0
 11
90.932638765
 21
92.06814835000001
 31
0.0
  0
LINE
  5
14C6
330
1331
100
AcDbEntity
  8
0
  6
Continuous
 62
     3
100
AcDbLine
 10
90.41500067500001
 20
94.000000003
 30
0.0
 11
90.41500067399999
 21
74.00000000299998
 31
0.0
  0
LINE
  5
14C7
330
1331
100
AcDbEntity
  8
0
  6
Continuous
 62
     3
100
AcDbLine
 10
90.41500067399999
 20
74.00000000299998
 30
0.0
 11
90.932638764
 21
75.93185165600001
 31
0.0
  0
LINE
  5
14C8
330
1331
100
AcDbEntity
  8
0
  6
Continuous
 62
     3
100
AcDbLine
 10
90.41500067399999
 20
74.00000000299998
 30
0.0
 11
89.89736258399998
 21
75.93185165600001
 31
0.0
  0
LINE
  5
14C9
330
1331
100
AcDbEntity
  8
0
  6
Continuous
 62
     3
100
AcDbLine
 10
94.41500067399998
 20
74.00000000299998
 30
0.0
 11
89.41500067399998
 21
74.00000000299998
 31
0.0
  0
TEXT
  5
14CA
330
1331
100
AcDbEntity
  8
0
  6
Continuous
 62
     3
100
AcDbText
 10
89.915000674
 20
82.35000000300001
 30
0.1
 40
2.0
  1
２０
 50
90.0
 41
0.8
  7
KANJI0
100
AcDbText
  0
LINE
  5
14CB
330
1331
100
AcDbEntity
  8
0
  6
Continuous
 62
     3
100
AcDbLine
 10
84.551119667
 20
211.1628541159998
 30
0.1
 11
84.551119667
 21
212.836481407
 31
0.1
  0
LINE
  5
14CC
330
1331
100
AcDbEntity
  8
0
  6
Continuous
 62
     3
100
AcDbLine
 10
74.74987841799998
 20
212.749911264
 30
0.0
 11
86.55111966700001
 21
212.8546336769999
 31
0.0
  0
LINE
  5
14CD
330
1331
100
AcDbEntity
  8
0
  6
Continuous
 62
     3
100
AcDbLine
 10
86.55111966700001
 20
211.145366327
 30
0.0
 11
74.74987841799998
 21
211.2500887409999
 31
0.0
  0
LINE
  5
14CE
330
1331
100
AcDbEntity
  8
0
  6
Continuous
 62
     3
100
AcDbLine
 10
74.74987841799998
 20
211.250000002
 30
0.0
 11
74.74987841799998
 21
212.7500000019999
 31
0.0
  0
LINE
  5
14CF
330
1331
100
AcDbEntity
  8
0
  6
Continuous
 62
     3
100
AcDbLine
 10
84.551119667
 20
214.6628541159997
 30
0.0
 11
84.551119667
 21
216.3364814069999
 31
0.0
  0
LINE
  5
14D0
330
1331
100
AcDbEntity
  8
0
  6
Continuous
 62
     3
100
AcDbLine
 10
74.74987841799998
 20
216.249911264
 30
0.0
 11
86.55111966700001
 21
216.354633677
 31
0.0
  0
LINE
  5
14D1
330
1331
100
AcDbEntity
  8
0
  6
Continuous
 62
     3
100
AcDbLine
 10
86.55111966700001
 20
214.6453663269999
 30
0.0
 11
74.74987841799998
 21
214.750088741
 31
0.0
  0
LINE
  5
14D2
330
1331
100
AcDbEntity
  8
0
  6
Continuous
 62
     3
100
AcDbLine
 10
74.74987841799998
 20
214.7500000019999
 30
0.0
 11
74.74987841799998
 21
216.250000002
 31
0.0
  0
LINE
  5
14D3
330
1331
100
AcDbEntity
  8
0
  6
Continuous
 62
     3
100
AcDbLine
 10
84.551119669
 20
253.1628541159998
 30
0.0
 11
84.551119669
 21
254.836481407
 31
0.0
  0
LINE
  5
14D4
330
1331
100
AcDbEntity
  8
0
  6
Continuous
 62
     3
100
AcDbLine
 10
74.74987841899999
 20
254.749911264
 30
0.0
 11
86.55111966899998
 21
254.854633677
 31
0.0
  0
LINE
  5
14D5
330
1331
100
AcDbEntity
  8
0
  6
Continuous
 62
     3
100
AcDbLine
 10
86.55111966899998
 20
253.145366327
 30
0.0
 11
74.74987841899999
 21
253.2500887409999
 31
0.0
  0
LINE
  5
14D6
330
1331
100
AcDbEntity
  8
0
  6
Continuous
 62
     3
100
AcDbLine
 10
74.74987841899999
 20
253.250000002
 30
0.0
 11
74.74987841899999
 21
254.750000002
 31
0.0
  0
LINE
  5
14D7
330
1331
100
AcDbEntity
  8
0
  6
Continuous
 62
     3
100
AcDbLine
 10
84.551119669
 20
249.6628541159997
 30
0.0
 11
84.551119669
 21
251.336481407
 31
0.0
  0
LINE
  5
14D8
330
1331
100
AcDbEntity
  8
0
  6
Continuous
 62
     3
100
AcDbLine
 10
74.74987841899999
 20
251.249911264
 30
0.0
 11
86.55111966899998
 21
251.354633677
 31
0.0
  0
LINE
  5
14D9
330
1331
100
AcDbEntity
  8
0
  6
Continuous
 62
     3
100
AcDbLine
 10
86.55111966899998
 20
249.645366327
 30
0.0
 11
74.74987841899999
 21
249.7500887409996
 31
0.0
  0
LINE
  5
14DA
330
1331
100
AcDbEntity
  8
0
  6
Continuous
 62
     3
100
AcDbLine
 10
74.74987841899999
 20
249.750000002
 30
0.0
 11
74.74987841899999
 21
251.250000002
 31
0.0
  0
LINE
  5
14DB
330
1331
100
AcDbEntity
  8
0
  6
Continuous
 62
     3
100
AcDbLine
 10
63.15111966699999
 20
221.260000003
 30
0.0
 11
63.15111966799999
 21
222.7600000029996
 31
0.0
  0
LINE
  5
14DC
330
1331
100
AcDbEntity
  8
0
  6
Continuous
 62
     3
100
AcDbLine
 10
63.15111966799999
 20
244.740000003
 30
0.0
 11
63.15111966799999
 21
243.2400000029999
 31
0.0
  0
LINE
  5
14DD
330
1331
100
AcDbEntity
  8
0
  6
Continuous
 62
     3
100
AcDbLine
 10
66.65111966800001
 20
244.740000003
 30
0.0
 11
66.65111966899999
 21
248.240000003
 31
0.0
  0
LINE
  5
14DE
330
1331
100
AcDbEntity
  8
0
  6
Continuous
 62
     3
100
AcDbLine
 10
66.65111966800001
 20
222.7600000029996
 30
0.0
 11
66.65111966800001
 21
243.2400000029999
 31
0.0
  0
LINE
  5
14DF
330
1331
100
AcDbEntity
  8
0
  6
Continuous
 62
     3
100
AcDbLine
 10
66.651119667
 20
217.7600000029999
 30
0.0
 11
66.651119667
 21
221.260000003
 31
0.0
  0
LINE
  5
14E0
330
1331
100
AcDbEntity
  8
0
  6
Continuous
 62
     3
100
AcDbLine
 10
74.301119669
 20
247.2000000019999
 30
0.0
 11
74.301119668
 21
244.200000002
 31
0.0
  0
LINE
  5
14E1
330
1331
100
AcDbEntity
  8
0
  6
Continuous
 62
     3
100
AcDbLine
 10
74.301119668
 20
244.200000002
 30
0.0
 11
77.301119668
 21
244.200000002
 31
0.0
  0
LINE
  5
14E2
330
1331
100
AcDbEntity
  8
0
  6
Continuous
 62
     3
100
AcDbLine
 10
77.301119668
 20
244.200000002
 30
0.0
 11
77.301119669
 21
247.2000000019999
 31
0.0
  0
LINE
  5
14E3
330
1331
100
AcDbEntity
  8
0
  6
Continuous
 62
     3
100
AcDbLine
 10
77.301119669
 20
247.2000000019999
 30
0.0
 11
74.301119669
 21
247.2000000019999
 31
0.0
  0
LINE
  5
14E4
330
1331
100
AcDbEntity
  8
0
  6
Continuous
 62
     3
100
AcDbLine
 10
74.301119669
 20
247.2000000019999
 30
0.0
 11
73.051119669
 21
247.7000000019998
 31
0.0
  0
LINE
  5
14E5
330
1331
100
AcDbEntity
  8
0
  6
Continuous
 62
     3
100
AcDbLine
 10
73.051119668
 20
243.7000000019998
 30
0.0
 11
74.301119668
 21
244.200000002
 31
0.0
  0
LINE
  5
14E6
330
1331
100
AcDbEntity
  8
0
  6
Continuous
 62
     3
100
AcDbLine
 10
77.301119668
 20
244.200000002
 30
0.0
 11
78.551119668
 21
243.7000000019998
 31
0.0
  0
LINE
  5
14E7
330
1331
100
AcDbEntity
  8
0
  6
Continuous
 62
     3
100
AcDbLine
 10
77.301119669
 20
247.2000000019999
 30
0.0
 11
78.551119669
 21
247.7000000019998
 31
0.0
  0
LINE
  5
14E8
330
1331
100
AcDbEntity
  8
0
  6
Continuous
 62
     3
100
AcDbLine
 10
74.301119668
 20
242.120000002
 30
0.0
 11
74.301119668
 21
239.1200000019999
 31
0.0
  0
LINE
  5
14E9
330
1331
100
AcDbEntity
  8
0
  6
Continuous
 62
     3
100
AcDbLine
 10
74.301119668
 20
239.1200000019999
 30
0.0
 11
77.301119668
 21
239.1200000019999
 31
0.0
  0
LINE
  5
14EA
330
1331
100
AcDbEntity
  8
0
  6
Continuous
 62
     3
100
AcDbLine
 10
77.301119668
 20
239.1200000019999
 30
0.0
 11
77.301119668
 21
242.120000002
 31
0.0
  0
LINE
  5
14EB
330
1331
100
AcDbEntity
  8
0
  6
Continuous
 62
     3
100
AcDbLine
 10
77.301119668
 20
242.120000002
 30
0.0
 11
74.301119668
 21
242.120000002
 31
0.0
  0
LINE
  5
14EC
330
1331
100
AcDbEntity
  8
0
  6
Continuous
 62
     3
100
AcDbLine
 10
74.301119668
 20
242.120000002
 30
0.0
 11
73.051119668
 21
242.620000002
 31
0.0
  0
LINE
  5
14ED
330
1331
100
AcDbEntity
  8
0
  6
Continuous
 62
     3
100
AcDbLine
 10
73.051119668
 20
238.620000002
 30
0.0
 11
74.301119668
 21
239.1200000019999
 31
0.0
  0
LINE
  5
14EE
330
1331
100
AcDbEntity
  8
0
  6
Continuous
 62
     3
100
AcDbLine
 10
77.301119668
 20
239.1200000019999
 30
0.0
 11
78.551119668
 21
238.620000002
 31
0.0
  0
LINE
  5
14EF
330
1331
100
AcDbEntity
  8
0
  6
Continuous
 62
     3
100
AcDbLine
 10
77.301119668
 20
242.120000002
 30
0.0
 11
78.551119668
 21
242.620000002
 31
0.0
  0
LINE
  5
14F0
330
1331
100
AcDbEntity
  8
0
  6
Continuous
 62
     3
100
AcDbLine
 10
74.301119668
 20
237.040000002
 30
0.0
 11
74.301119668
 21
234.040000002
 31
0.0
  0
LINE
  5
14F1
330
1331
100
AcDbEntity
  8
0
  6
Continuous
 62
     3
100
AcDbLine
 10
74.301119668
 20
234.040000002
 30
0.0
 11
77.301119668
 21
234.040000002
 31
0.0
  0
LINE
  5
14F2
330
1331
100
AcDbEntity
  8
0
  6
Continuous
 62
     3
100
AcDbLine
 10
77.301119668
 20
234.040000002
 30
0.0
 11
77.301119668
 21
237.040000002
 31
0.0
  0
LINE
  5
14F3
330
1331
100
AcDbEntity
  8
0
  6
Continuous
 62
     3
100
AcDbLine
 10
77.301119668
 20
237.040000002
 30
0.0
 11
74.301119668
 21
237.040000002
 31
0.0
  0
LINE
  5
14F4
330
1331
100
AcDbEntity
  8
0
  6
Continuous
 62
     3
100
AcDbLine
 10
74.301119668
 20
237.040000002
 30
0.0
 11
73.051119668
 21
237.5400000019999
 31
0.0
  0
LINE
  5
14F5
330
1331
100
AcDbEntity
  8
0
  6
Continuous
 62
     3
100
AcDbLine
 10
73.051119668
 20
233.5400000019999
 30
0.0
 11
74.301119668
 21
234.040000002
 31
0.0
  0
LINE
  5
14F6
330
1331
100
AcDbEntity
  8
0
  6
Continuous
 62
     3
100
AcDbLine
 10
77.301119668
 20
234.040000002
 30
0.0
 11
78.551119668
 21
233.5400000019999
 31
0.0
  0
LINE
  5
14F7
330
1331
100
AcDbEntity
  8
0
  6
Continuous
 62
     3
100
AcDbLine
 10
77.301119668
 20
237.040000002
 30
0.0
 11
78.551119668
 21
237.5400000019999
 31
0.0
  0
LINE
  5
14F8
330
1331
100
AcDbEntity
  8
0
  6
Continuous
 62
     3
100
AcDbLine
 10
74.301119667
 20
221.800000002
 30
0.0
 11
74.301119667
 21
218.800000002
 31
0.0
  0
LINE
  5
14F9
330
1331
100
AcDbEntity
  8
0
  6
Continuous
 62
     3
100
AcDbLine
 10
74.301119667
 20
218.800000002
 30
0.0
 11
77.301119667
 21
218.800000002
 31
0.0
  0
LINE
  5
14FA
330
1331
100
AcDbEntity
  8
0
  6
Continuous
 62
     3
100
AcDbLine
 10
77.301119667
 20
218.800000002
 30
0.0
 11
77.301119667
 21
221.800000002
 31
0.0
  0
LINE
  5
14FB
330
1331
100
AcDbEntity
  8
0
  6
Continuous
 62
     3
100
AcDbLine
 10
77.301119667
 20
221.800000002
 30
0.0
 11
74.301119667
 21
221.800000002
 31
0.0
  0
LINE
  5
14FC
330
1331
100
AcDbEntity
  8
0
  6
Continuous
 62
     3
100
AcDbLine
 10
74.301119667
 20
221.800000002
 30
0.0
 11
73.051119668
 21
222.300000002
 31
0.0
  0
LINE
  5
14FD
330
1331
100
AcDbEntity
  8
0
  6
Continuous
 62
     3
100
AcDbLine
 10
73.051119667
 20
218.300000002
 30
0.0
 11
74.301119667
 21
218.800000002
 31
0.0
  0
LINE
  5
14FE
330
1331
100
AcDbEntity
  8
0
  6
Continuous
 62
     3
100
AcDbLine
 10
77.301119667
 20
218.800000002
 30
0.0
 11
78.551119667
 21
218.300000002
 31
0.0
  0
LINE
  5
14FF
330
1331
100
AcDbEntity
  8
0
  6
Continuous
 62
     3
100
AcDbLine
 10
77.301119667
 20
221.800000002
 30
0.0
 11
78.551119668
 21
222.300000002
 31
0.0
  0
LINE
  5
1500
330
1331
100
AcDbEntity
  8
0
  6
Continuous
 62
     3
100
AcDbLine
 10
74.301119668
 20
231.960000002
 30
0.0
 11
74.301119668
 21
228.960000002
 31
0.0
  0
LINE
  5
1501
330
1331
100
AcDbEntity
  8
0
  6
Continuous
 62
     3
100
AcDbLine
 10
74.301119668
 20
228.960000002
 30
0.0
 11
77.301119668
 21
228.960000002
 31
0.0
  0
LINE
  5
1502
330
1331
100
AcDbEntity
  8
0
  6
Continuous
 62
     3
100
AcDbLine
 10
77.301119668
 20
228.960000002
 30
0.0
 11
77.301119668
 21
231.960000002
 31
0.0
  0
LINE
  5
1503
330
1331
100
AcDbEntity
  8
0
  6
Continuous
 62
     3
100
AcDbLine
 10
77.301119668
 20
231.960000002
 30
0.0
 11
74.301119668
 21
231.960000002
 31
0.0
  0
LINE
  5
1504
330
1331
100
AcDbEntity
  8
0
  6
Continuous
 62
     3
100
AcDbLine
 10
74.301119668
 20
231.960000002
 30
0.0
 11
73.051119668
 21
232.460000002
 31
0.0
  0
LINE
  5
1505
330
1331
100
AcDbEntity
  8
0
  6
Continuous
 62
     3
100
AcDbLine
 10
73.051119668
 20
228.460000002
 30
0.0
 11
74.301119668
 21
228.960000002
 31
0.0
  0
LINE
  5
1506
330
1331
100
AcDbEntity
  8
0
  6
Continuous
 62
     3
100
AcDbLine
 10
77.301119668
 20
228.960000002
 30
0.0
 11
78.551119668
 21
228.460000002
 31
0.0
  0
LINE
  5
1507
330
1331
100
AcDbEntity
  8
0
  6
Continuous
 62
     3
100
AcDbLine
 10
77.301119668
 20
231.960000002
 30
0.0
 11
78.551119668
 21
232.460000002
 31
0.0
  0
LINE
  5
1508
330
1331
100
AcDbEntity
  8
0
  6
Continuous
 62
     3
100
AcDbLine
 10
74.301119668
 20
226.880000002
 30
0.0
 11
74.301119668
 21
223.8800000019999
 31
0.0
  0
LINE
  5
1509
330
1331
100
AcDbEntity
  8
0
  6
Continuous
 62
     3
100
AcDbLine
 10
74.301119668
 20
223.8800000019999
 30
0.0
 11
77.301119668
 21
223.8800000019999
 31
0.0
  0
LINE
  5
150A
330
1331
100
AcDbEntity
  8
0
  6
Continuous
 62
     3
100
AcDbLine
 10
77.301119668
 20
223.8800000019999
 30
0.0
 11
77.301119668
 21
226.880000002
 31
0.0
  0
LINE
  5
150B
330
1331
100
AcDbEntity
  8
0
  6
Continuous
 62
     3
100
AcDbLine
 10
77.301119668
 20
226.880000002
 30
0.0
 11
74.301119668
 21
226.880000002
 31
0.0
  0
LINE
  5
150C
330
1331
100
AcDbEntity
  8
0
  6
Continuous
 62
     3
100
AcDbLine
 10
74.301119668
 20
226.880000002
 30
0.0
 11
73.051119668
 21
227.380000002
 31
0.0
  0
LINE
  5
150D
330
1331
100
AcDbEntity
  8
0
  6
Continuous
 62
     3
100
AcDbLine
 10
73.051119668
 20
223.380000002
 30
0.0
 11
74.301119668
 21
223.8800000019999
 31
0.0
  0
LINE
  5
150E
330
1331
100
AcDbEntity
  8
0
  6
Continuous
 62
     3
100
AcDbLine
 10
77.301119668
 20
223.8800000019999
 30
0.0
 11
78.551119668
 21
223.380000002
 31
0.0
  0
LINE
  5
150F
330
1331
100
AcDbEntity
  8
0
  6
Continuous
 62
     3
100
AcDbLine
 10
77.301119668
 20
226.880000002
 30
0.0
 11
78.551119668
 21
227.380000002
 31
0.0
  0
LINE
  5
1510
330
1331
100
AcDbEntity
  8
0
  6
Continuous
 62
     3
100
AcDbLine
 10
79.551119669
 20
248.240000002
 30
0.0
 11
79.55111966699999
 21
217.7600000019999
 31
0.0
  0
LINE
  5
1511
330
1331
100
AcDbEntity
  8
0
  6
Continuous
 62
     3
100
AcDbLine
 10
86.55111966799999
 20
246.1453663269999
 30
0.0
 11
85.75111966799999
 21
246.155127559
 31
0.0
  0
LINE
  5
1512
330
1331
100
AcDbEntity
  8
0
  6
Continuous
 62
     3
100
AcDbLine
 10
85.75111966899999
 20
247.844872445
 30
0.0
 11
86.55111966799999
 21
247.854633677
 31
0.0
  0
LINE
  5
1513
330
1331
100
AcDbEntity
  8
0
  6
Continuous
 62
     3
100
AcDbLine
 10
85.75111966799999
 20
244.344872445
 30
0.0
 11
86.55111966799999
 21
244.354633677
 31
0.0
  0
LINE
  5
1514
330
1331
100
AcDbEntity
  8
0
  6
Continuous
 62
     3
100
AcDbLine
 10
86.55111966799999
 20
242.645366327
 30
0.0
 11
85.75111966799999
 21
242.655127559
 31
0.0
  0
LINE
  5
1515
330
1331
100
AcDbEntity
  8
0
  6
Continuous
 62
     3
100
AcDbLine
 10
85.75111966799999
 20
240.8448724449999
 30
0.0
 11
86.55111966799999
 21
240.854633677
 31
0.0
  0
LINE
  5
1516
330
1331
100
AcDbEntity
  8
0
  6
Continuous
 62
     3
100
AcDbLine
 10
86.55111966799999
 20
239.145366327
 30
0.0
 11
85.75111966799999
 21
239.155127559
 31
0.0
  0
LINE
  5
1517
330
1331
100
AcDbEntity
  8
0
  6
Continuous
 62
     3
100
AcDbLine
 10
85.75111966799999
 20
237.3448724449999
 30
0.0
 11
86.55111966799999
 21
237.354633677
 31
0.0
  0
LINE
  5
1518
330
1331
100
AcDbEntity
  8
0
  6
Continuous
 62
     3
100
AcDbLine
 10
86.55111966799999
 20
235.6453663269999
 30
0.0
 11
85.75111966799999
 21
235.655127559
 31
0.0
  0
LINE
  5
1519
330
1331
100
AcDbEntity
  8
0
  6
Continuous
 62
     3
100
AcDbLine
 10
85.75111966799999
 20
233.844872445
 30
0.0
 11
86.55111966799999
 21
233.854633677
 31
0.0
  0
LINE
  5
151A
330
1331
100
AcDbEntity
  8
0
  6
Continuous
 62
     3
100
AcDbLine
 10
86.55111966799999
 20
232.145366327
 30
0.0
 11
85.75111966799999
 21
232.155127559
 31
0.0
  0
LINE
  5
151B
330
1331
100
AcDbEntity
  8
0
  6
Continuous
 62
     3
100
AcDbLine
 10
85.75111966799999
 20
230.3448724449999
 30
0.0
 11
86.55111966799999
 21
230.354633677
 31
0.0
  0
LINE
  5
151C
330
1331
100
AcDbEntity
  8
0
  6
Continuous
 62
     3
100
AcDbLine
 10
86.55111966799999
 20
228.645366327
 30
0.0
 11
85.75111966799999
 21
228.655127559
 31
0.0
  0
LINE
  5
151D
330
1331
100
AcDbEntity
  8
0
  6
Continuous
 62
     3
100
AcDbLine
 10
85.75111966799999
 20
226.8448724449999
 30
0.0
 11
86.55111966799999
 21
226.854633677
 31
0.0
  0
LINE
  5
151E
330
1331
100
AcDbEntity
  8
0
  6
Continuous
 62
     3
100
AcDbLine
 10
86.55111966799999
 20
225.1453663269999
 30
0.0
 11
85.75111966799999
 21
225.155127559
 31
0.0
  0
LINE
  5
151F
330
1331
100
AcDbEntity
  8
0
  6
Continuous
 62
     3
100
AcDbLine
 10
85.75111966799999
 20
223.344872445
 30
0.0
 11
86.55111966799999
 21
223.354633677
 31
0.0
  0
LINE
  5
1520
330
1331
100
AcDbEntity
  8
0
  6
Continuous
 62
     3
100
AcDbLine
 10
86.55111966799999
 20
221.645366327
 30
0.0
 11
85.75111966699997
 21
221.655127559
 31
0.0
  0
LINE
  5
1521
330
1331
100
AcDbEntity
  8
0
  6
Continuous
 62
     3
100
AcDbLine
 10
85.75111966699997
 20
219.8448724449999
 30
0.0
 11
86.55111966700001
 21
219.854633677
 31
0.0
  0
LINE
  5
1522
330
1331
100
AcDbEntity
  8
0
  6
Continuous
 62
     3
100
AcDbLine
 10
86.55111966700001
 20
218.145366327
 30
0.0
 11
85.75111966699997
 21
218.155127559
 31
0.0
  0
LINE
  5
1523
330
1331
100
AcDbEntity
  8
0
  6
Continuous
 62
     3
100
AcDbLine
 10
83.951119667
 20
217.7600000019999
 30
0.0
 11
83.951119669
 21
248.240000002
 31
0.0
  0
LINE
  5
1524
330
1331
100
AcDbEntity
  8
0
  6
Continuous
 62
     3
100
AcDbLine
 10
83.55111966699999
 20
218.2600000019998
 30
0.0
 11
83.551119669
 21
247.740000002
 31
0.0
  0
LINE
  5
1525
330
1331
100
AcDbEntity
  8
0
  6
Continuous
 62
     3
100
AcDbLine
 10
83.551119669
 20
247.740000002
 30
0.0
 11
79.551119669
 21
247.740000002
 31
0.0
  0
LINE
  5
1526
330
1331
100
AcDbEntity
  8
0
  6
Continuous
 62
     3
100
AcDbLine
 10
79.55111966699999
 20
218.2600000019998
 30
0.0
 11
83.55111966699999
 21
218.2600000019998
 31
0.0
  0
LINE
  5
1527
330
1331
100
AcDbEntity
  8
0
  6
Continuous
 62
     1
100
AcDbLine
 10
112.600000007
 20
256.000000002
 30
0.0
 11
112.600000005
 21
210.000000002
 31
0.0
  0
ARC
  5
1528
330
1331
100
AcDbEntity
  8
0
  6
Continuous
 62
     1
100
AcDbCircle
 10
113.6000000049999
 20
210.000000002
 30
0.0
 40
1.0
100
AcDbArc
 50
180.0
 51
270.0
  0
ARC
  5
1529
330
1331
100
AcDbEntity
  8
0
  6
Continuous
 62
     1
100
AcDbCircle
 10
99.000000005
 20
210.000000002
 30
0.0
 40
1.0
100
AcDbArc
 50
180.0
 51
270.0
  0
ARC
  5
152A
330
1331
100
AcDbEntity
  8
0
  6
Continuous
 62
     1
100
AcDbCircle
 10
96.415000005
 20
224.000000002
 30
0.0
 40
1.0
100
AcDbArc
 50
180.0
 51
270.0
  0
LINE
  5
152B
330
1331
100
AcDbEntity
  8
0
  6
Continuous
 62
     1
100
AcDbLine
 10
96.415000005
 20
223.0000000019999
 30
0.0
 11
98.000000005
 21
223.0000000019999
 31
0.0
  0
LINE
  5
152C
330
1331
100
AcDbEntity
  8
0
  6
Continuous
 62
     1
100
AcDbLine
 10
95.41500000600001
 20
242.0000000019999
 30
0.0
 11
95.41500000499999
 21
224.000000002
 31
0.0
  0
ARC
  5
152D
330
1331
100
AcDbEntity
  8
0
  6
Continuous
 62
     1
100
AcDbCircle
 10
96.415000006
 20
242.0000000019999
 30
0.0
 40
1.0
100
AcDbArc
 50
90.0
 51
180.0
  0
LINE
  5
152E
330
1331
100
AcDbEntity
  8
0
  6
Continuous
 62
     1
100
AcDbLine
 10
98.000000006
 20
243.000000002
 30
0.0
 11
96.415000006
 21
243.000000002
 31
0.0
  0
ARC
  5
152F
330
1331
100
AcDbEntity
  8
0
  6
Continuous
 62
     1
100
AcDbCircle
 10
99.00000000700002
 20
256.000000002
 30
0.0
 40
1.0
100
AcDbArc
 50
90.0
 51
180.0
  0
ARC
  5
1530
330
1331
100
AcDbEntity
  8
0
  6
Continuous
 62
     1
100
AcDbCircle
 10
191.000000007
 20
255.999999998
 30
0.0
 40
1.0
100
AcDbArc
 50
0.0
 51
90.0
  0
ARC
  5
1531
330
1331
100
AcDbEntity
  8
0
  6
Continuous
 62
     1
100
AcDbCircle
 10
191.000000005
 20
209.999999998
 30
0.0
 40
1.0
100
AcDbArc
 50
270.0
 51
0.0
  0
ARC
  5
1532
330
1331
100
AcDbEntity
  8
0
  6
Continuous
 62
     1
100
AcDbCircle
 10
176.400000005
 20
209.999999998
 30
0.0
 40
1.0
100
AcDbArc
 50
270.0
 51
0.0
  0
LINE
  5
1533
330
1331
100
AcDbEntity
  8
0
  6
Continuous
 62
     1
100
AcDbLine
 10
99.000000005
 20
209.000000002
 30
0.0
 11
191.000000005
 21
208.9999999979996
 31
0.0
  0
LINE
  5
1534
330
1331
100
AcDbEntity
  8
0
  6
Continuous
 62
     1
100
AcDbLine
 10
101.500000007
 20
253.050000002
 30
0.0
 11
101.500000007
 21
251.050000002
 31
0.0
  0
LINE
  5
1535
330
1331
100
AcDbEntity
  8
0
  6
Continuous
 62
     1
100
AcDbLine
 10
108.500000007
 20
253.050000002
 30
0.0
 11
101.500000007
 21
253.050000002
 31
0.0
  0
LINE
  5
1536
330
1331
100
AcDbEntity
  8
0
  6
Continuous
 62
     1
100
AcDbLine
 10
101.500000007
 20
251.050000002
 30
0.0
 11
108.500000007
 21
251.050000002
 31
0.0
  0
LINE
  5
1537
330
1331
100
AcDbEntity
  8
0
  6
Continuous
 62
     1
100
AcDbLine
 10
108.500000007
 20
251.050000002
 30
0.0
 11
108.500000007
 21
253.050000002
 31
0.0
  0
LINE
  5
1538
330
1331
100
AcDbEntity
  8
0
  6
Continuous
 62
     1
100
AcDbLine
 10
109.000000007
 20
248.500000002
 30
0.0
 11
109.000000007
 21
250.000000002
 31
0.0
  0
ARC
  5
1539
330
1331
100
AcDbEntity
  8
0
  6
Continuous
 62
     1
100
AcDbCircle
 10
100.000000007
 20
249.500000002
 30
0.0
 40
0.5
100
AcDbArc
 50
90.0
 51
180.0
  0
LINE
  5
153A
330
1331
100
AcDbEntity
  8
0
  6
Continuous
 62
     1
100
AcDbLine
 10
99.50000000700001
 20
248.500000002
 30
0.0
 11
99.50000000700001
 21
249.500000002
 31
0.0
  0
LINE
  5
153B
330
1331
100
AcDbEntity
  8
0
  6
Continuous
 62
     1
100
AcDbLine
 10
100.000000007
 20
250.000000002
 30
0.0
 11
112.600000007
 21
250.000000002
 31
0.0
  0
ARC
  5
153C
330
1331
100
AcDbEntity
  8
0
  6
Continuous
 62
     1
100
AcDbCircle
 10
100.000000005
 20
216.500000002
 30
0.0
 40
0.5
100
AcDbArc
 50
180.0
 51
270.0
  0
LINE
  5
153D
330
1331
100
AcDbEntity
  8
0
  6
Continuous
 62
     1
100
AcDbLine
 10
100.000000005
 20
216.000000002
 30
0.0
 11
112.600000005
 21
216.000000002
 31
0.0
  0
LINE
  5
153E
330
1331
100
AcDbEntity
  8
0
  6
Continuous
 62
     1
100
AcDbLine
 10
99.50000000500001
 20
216.500000002
 30
0.0
 11
99.50000000500001
 21
217.500000002
 31
0.0
  0
LINE
  5
153F
330
1331
100
AcDbEntity
  8
0
  6
Continuous
 62
     1
100
AcDbLine
 10
109.000000005
 20
217.500000002
 30
0.0
 11
109.000000005
 21
216.000000002
 31
0.0
  0
LINE
  5
1540
330
1331
100
AcDbEntity
  8
0
  6
Continuous
 62
     1
100
AcDbLine
 10
108.5000000049999
 20
214.950000002
 30
0.0
 11
101.500000005
 21
214.950000002
 31
0.0
  0
LINE
  5
1541
330
1331
100
AcDbEntity
  8
0
  6
Continuous
 62
     1
100
AcDbLine
 10
108.5000000049999
 20
212.950000002
 30
0.0
 11
108.5000000049999
 21
214.950000002
 31
0.0
  0
LINE
  5
1542
330
1331
100
AcDbEntity
  8
0
  6
Continuous
 62
     1
100
AcDbLine
 10
101.500000005
 20
212.950000002
 30
0.0
 11
108.5000000049999
 21
212.950000002
 31
0.0
  0
LINE
  5
1543
330
1331
100
AcDbEntity
  8
0
  6
Continuous
 62
     1
100
AcDbLine
 10
101.500000005
 20
214.950000002
 30
0.0
 11
101.500000005
 21
212.950000002
 31
0.0
  0
LINE
  5
1544
330
1331
100
AcDbEntity
  8
0
  6
Continuous
 62
     1
100
AcDbLine
 10
111.040000006
 20
248.500000002
 30
0.0
 11
111.040000005
 21
217.500000002
 31
0.0
  0
LINE
  5
1545
330
1331
100
AcDbEntity
  8
0
  6
Continuous
 62
     1
100
AcDbLine
 10
101.000000005
 20
217.500000002
 30
0.0
 11
109.000000005
 21
217.500000002
 31
0.0
  0
LINE
  5
1546
330
1331
100
AcDbEntity
  8
0
  6
Continuous
 62
     1
100
AcDbLine
 10
111.040000005
 20
217.500000002
 30
0.0
 11
98.20000000500002
 21
217.500000002
 31
0.0
  0
LINE
  5
1547
330
1331
100
AcDbEntity
  8
0
  6
Continuous
 62
     1
100
AcDbLine
 10
109.000000007
 20
248.500000002
 30
0.0
 11
101.000000007
 21
248.500000002
 31
0.0
  0
LINE
  5
1548
330
1331
100
AcDbEntity
  8
0
  6
Continuous
 62
     1
100
AcDbLine
 10
98.20000000600003
 20
248.500000002
 30
0.0
 11
111.040000006
 21
248.500000002
 31
0.0
  0
LINE
  5
1549
330
1331
100
AcDbEntity
  8
0
  6
Continuous
 62
     1
100
AcDbLine
 10
98.20000000500002
 20
217.500000002
 30
0.0
 11
98.20000000600003
 21
248.500000002
 31
0.0
  0
LINE
  5
154A
330
1331
100
AcDbEntity
  8
0
  6
Continuous
 62
     1
100
AcDbLine
 10
98.00000000700002
 20
256.000000002
 30
0.0
 11
98.000000005
 21
210.000000002
 31
0.0
  0
LINE
  5
154B
330
1331
100
AcDbEntity
  8
0
  6
Continuous
 62
     1
100
AcDbLine
 10
181.500000007
 20
251.0499999979999
 30
0.0
 11
188.500000007
 21
251.0499999979999
 31
0.0
  0
LINE
  5
154C
330
1331
100
AcDbEntity
  8
0
  6
Continuous
 62
     1
100
AcDbLine
 10
181.500000007
 20
253.0499999979999
 30
0.0
 11
181.500000007
 21
251.0499999979999
 31
0.0
  0
LINE
  5
154D
330
1331
100
AcDbEntity
  8
0
  6
Continuous
 62
     1
100
AcDbLine
 10
188.500000007
 20
251.0499999979999
 30
0.0
 11
188.500000007
 21
253.0499999979999
 31
0.0
  0
LINE
  5
154E
330
1331
100
AcDbEntity
  8
0
  6
Continuous
 62
     1
100
AcDbLine
 10
188.500000007
 20
253.0499999979999
 30
0.0
 11
181.500000007
 21
253.0499999979999
 31
0.0
  0
ARC
  5
154F
330
1331
100
AcDbEntity
  8
0
  6
Continuous
 62
     1
100
AcDbCircle
 10
176.400000007
 20
255.999999998
 30
0.0
 40
1.0
100
AcDbArc
 50
0.0
 51
90.0
  0
LINE
  5
1550
330
1331
100
AcDbEntity
  8
0
  6
Continuous
 62
     1
100
AcDbLine
 10
177.400000005
 20
209.999999998
 30
0.0
 11
177.400000007
 21
255.999999998
 31
0.0
  0
LINE
  5
1551
330
1331
100
AcDbEntity
  8
0
  6
Continuous
 62
     1
100
AcDbLine
 10
181.500000005
 20
212.9499999979999
 30
0.0
 11
188.5000000049998
 21
212.9499999979999
 31
0.0
  0
LINE
  5
1552
330
1331
100
AcDbEntity
  8
0
  6
Continuous
 62
     1
100
AcDbLine
 10
181.500000005
 20
214.9499999979999
 30
0.0
 11
181.500000005
 21
212.9499999979999
 31
0.0
  0
LINE
  5
1553
330
1331
100
AcDbEntity
  8
0
  6
Continuous
 62
     1
100
AcDbLine
 10
188.5000000049998
 20
212.9499999979999
 30
0.0
 11
188.5000000049998
 21
214.9499999979999
 31
0.0
  0
LINE
  5
1554
330
1331
100
AcDbEntity
  8
0
  6
Continuous
 62
     1
100
AcDbLine
 10
188.5000000049998
 20
214.9499999979999
 30
0.0
 11
181.500000005
 21
214.9499999979999
 31
0.0
  0
ARC
  5
1555
330
1331
100
AcDbEntity
  8
0
  6
Continuous
 62
     1
100
AcDbCircle
 10
190.000000005
 20
216.499999998
 30
0.0
 40
0.5
100
AcDbArc
 50
270.0
 51
0.0
  0
LINE
  5
1556
330
1331
100
AcDbEntity
  8
0
  6
Continuous
 62
     1
100
AcDbLine
 10
190.000000005
 20
215.999999998
 30
0.0
 11
177.400000005
 21
215.999999998
 31
0.0
  0
LINE
  5
1557
330
1331
100
AcDbEntity
  8
0
  6
Continuous
 62
     1
100
AcDbLine
 10
190.500000005
 20
217.4999999979996
 30
0.0
 11
190.500000005
 21
216.499999998
 31
0.0
  0
LINE
  5
1558
330
1331
100
AcDbEntity
  8
0
  6
Continuous
 62
     1
100
AcDbLine
 10
181.0000000049998
 20
217.4999999979996
 30
0.0
 11
181.0000000049998
 21
215.999999998
 31
0.0
  0
LINE
  5
1559
330
1331
100
AcDbEntity
  8
0
  6
Continuous
 62
     1
100
AcDbLine
 10
178.9600000059998
 20
248.4999999979996
 30
0.0
 11
178.960000005
 21
217.4999999979996
 31
0.0
  0
LINE
  5
155A
330
1331
100
AcDbEntity
  8
0
  6
Continuous
 62
     1
100
AcDbLine
 10
178.960000005
 20
217.4999999979996
 30
0.0
 11
191.8000000049999
 21
217.4999999979996
 31
0.0
  0
LINE
  5
155B
330
1331
100
AcDbEntity
  8
0
  6
Continuous
 62
     1
100
AcDbLine
 10
189.000000007
 20
248.4999999979996
 30
0.0
 11
181.0000000069998
 21
248.4999999979996
 31
0.0
  0
LINE
  5
155C
330
1331
100
AcDbEntity
  8
0
  6
Continuous
 62
     1
100
AcDbLine
 10
191.8000000059998
 20
248.4999999979996
 30
0.0
 11
178.9600000059998
 21
248.4999999979996
 31
0.0
  0
ARC
  5
155D
330
1331
100
AcDbEntity
  8
0
  6
Continuous
 62
     1
100
AcDbCircle
 10
190.000000007
 20
249.499999998
 30
0.0
 40
0.5
100
AcDbArc
 50
0.0
 51
90.0
  0
LINE
  5
155E
330
1331
100
AcDbEntity
  8
0
  6
Continuous
 62
     1
100
AcDbLine
 10
190.000000007
 20
249.9999999979999
 30
0.0
 11
177.400000007
 21
249.9999999979999
 31
0.0
  0
LINE
  5
155F
330
1331
100
AcDbEntity
  8
0
  6
Continuous
 62
     1
100
AcDbLine
 10
190.500000007
 20
249.499999998
 30
0.0
 11
190.500000007
 21
248.4999999979996
 31
0.0
  0
LINE
  5
1560
330
1331
100
AcDbEntity
  8
0
  6
Continuous
 62
     1
100
AcDbLine
 10
181.0000000069998
 20
248.4999999979996
 30
0.0
 11
181.0000000069998
 21
249.9999999979999
 31
0.0
  0
LINE
  5
1561
330
1331
100
AcDbEntity
  8
0
  6
Continuous
 62
     1
100
AcDbLine
 10
191.8000000049999
 20
217.4999999979996
 30
0.0
 11
191.8000000059998
 21
248.4999999979996
 31
0.0
  0
LINE
  5
1562
330
1331
100
AcDbEntity
  8
0
  6
Continuous
 62
     1
100
AcDbLine
 10
192.000000005
 20
209.999999998
 30
0.0
 11
192.000000007
 21
255.999999998
 31
0.0
  0
ARC
  5
1563
330
1331
100
AcDbEntity
  8
0
  6
Continuous
 62
     1
100
AcDbCircle
 10
113.600000007
 20
256.000000002
 30
0.0
 40
1.0
100
AcDbArc
 50
90.0
 51
180.0
  0
LINE
  5
1564
330
1331
100
AcDbEntity
  8
0
  6
Continuous
 62
     1
100
AcDbLine
 10
191.000000007
 20
256.9999999979996
 30
0.0
 11
99.00000000700002
 21
257.000000002
 31
0.0
  0
LINE
  5
1565
330
1331
100
AcDbEntity
  8
0
  6
Continuous
 62
     1
100
AcDbLine
 10
45.75111966899999
 20
257.0000000029998
 30
0.0
 11
45.75111966699997
 21
209.0000000029998
 31
0.0
  0
LINE
  5
1566
330
1331
100
AcDbEntity
  8
0
  6
Continuous
 62
     1
100
AcDbLine
 10
50.251119668
 20
243.2000000029999
 30
0.0
 11
45.751119668
 21
243.2000000029999
 31
0.0
  0
LINE
  5
1567
330
1331
100
AcDbEntity
  8
0
  6
Continuous
 62
     1
100
AcDbLine
 10
50.251119668
 20
222.8000000029997
 30
0.0
 11
50.251119668
 21
243.2000000029999
 31
0.0
  0
LINE
  5
1568
330
1331
100
AcDbEntity
  8
0
  6
Continuous
 62
     1
100
AcDbLine
 10
45.751119668
 20
222.8000000029997
 30
0.0
 11
50.251119668
 21
222.8000000029997
 31
0.0
  0
LINE
  5
1569
330
1331
100
AcDbEntity
  8
0
  6
Continuous
 62
     1
100
AcDbLine
 10
45.75111966699997
 20
209.0000000029998
 30
0.0
 11
85.551119667
 21
209.000000002
 31
0.0
  0
ARC
  5
156A
330
1331
100
AcDbEntity
  8
0
  6
Continuous
 62
     1
100
AcDbCircle
 10
62.151119669
 20
256.0000000029999
 30
0.0
 40
1.0
100
AcDbArc
 50
0.0
 51
90.0
  0
LINE
  5
156B
330
1331
100
AcDbEntity
  8
0
  6
Continuous
 62
     1
100
AcDbLine
 10
86.55111966700001
 20
210.000000002
 30
0.0
 11
86.55111966899998
 21
256.000000002
 31
0.0
  0
ARC
  5
156C
330
1331
100
AcDbEntity
  8
0
  6
Continuous
 62
     1
100
AcDbCircle
 10
85.551119669
 20
256.000000002
 30
0.0
 40
1.0
100
AcDbArc
 50
0.0
 51
90.0
  0
LINE
  5
156D
330
1331
100
AcDbEntity
  8
0
  6
Continuous
 62
     1
100
AcDbLine
 10
85.551119669
 20
257.000000002
 30
0.0
 11
45.75111966899999
 21
257.0000000029998
 31
0.0
  0
ARC
  5
156E
330
1331
100
AcDbEntity
  8
0
  6
Continuous
 62
     1
100
AcDbCircle
 10
85.551119667
 20
210.000000002
 30
0.0
 40
1.0
100
AcDbArc
 50
270.0
 51
0.0
  0
LINE
  5
156F
330
1331
100
AcDbEntity
  8
0
  6
Continuous
 62
     1
100
AcDbLine
 10
79.55111966699999
 20
217.7600000019999
 30
0.0
 11
85.75111966699997
 21
217.7600000019999
 31
0.0
  0
LINE
  5
1570
330
1331
100
AcDbEntity
  8
0
  6
Continuous
 62
     1
100
AcDbLine
 10
85.75111966699997
 20
217.7600000019999
 30
0.0
 11
85.75111966899999
 21
248.240000002
 31
0.0
  0
LINE
  5
1571
330
1331
100
AcDbEntity
  8
0
  6
Continuous
 62
     1
100
AcDbLine
 10
68.151119667
 20
217.7600000029999
 30
0.0
 11
72.05111966699999
 21
217.7600000019999
 31
0.0
  0
LINE
  5
1572
330
1331
100
AcDbEntity
  8
0
  6
Continuous
 62
     1
100
AcDbLine
 10
72.05111966699999
 20
217.7600000019999
 30
0.0
 11
79.55111966699999
 21
217.7600000019999
 31
0.0
  0
LINE
  5
1573
330
1331
100
AcDbEntity
  8
0
  6
Continuous
 62
     1
100
AcDbLine
 10
72.051119669
 20
248.240000002
 30
0.0
 11
72.05111966699999
 21
217.7600000019999
 31
0.0
  0
LINE
  5
1574
330
1331
100
AcDbEntity
  8
0
  6
Continuous
 62
     1
100
AcDbLine
 10
85.75111966899999
 20
248.240000002
 30
0.0
 11
68.15111966899999
 21
248.240000003
 31
0.0
  0
ARC
  5
1575
330
1331
100
AcDbEntity
  8
0
  6
Continuous
 62
     1
100
AcDbCircle
 10
62.151119667
 20
210.000000003
 30
0.0
 40
1.0
100
AcDbArc
 50
270.0
 51
0.0
  0
LINE
  5
1576
330
1331
100
AcDbEntity
  8
0
  6
Continuous
 62
     1
100
AcDbLine
 10
63.15111966699999
 20
210.000000003
 30
0.0
 11
63.15111966899999
 21
256.0000000029999
 31
0.0
  0
LINE
  5
1577
330
1331
100
AcDbEntity
  8
0
  6
Continuous
 62
     1
100
AcDbLine
 10
63.15111966699999
 20
216.000000003
 30
0.0
 11
67.65111966700001
 21
216.000000003
 31
0.0
  0
ARC
  5
1578
330
1331
100
AcDbEntity
  8
0
  6
Continuous
 62
     1
100
AcDbCircle
 10
67.65111966700001
 20
216.500000003
 30
0.0
 40
0.5
100
AcDbArc
 50
270.0
 51
0.0
  0
LINE
  5
1579
330
1331
100
AcDbEntity
  8
0
  6
Continuous
 62
     1
100
AcDbLine
 10
68.151119667
 20
216.500000003
 30
0.0
 11
68.151119667
 21
217.7600000029999
 31
0.0
  0
ARC
  5
157A
330
1331
100
AcDbEntity
  8
0
  6
Continuous
 62
     1
100
AcDbCircle
 10
64.651119667
 20
216.500000003
 30
0.0
 40
0.5
100
AcDbArc
 50
270.0
 51
0.0
  0
LINE
  5
157B
330
1331
100
AcDbEntity
  8
0
  6
Continuous
 62
     1
100
AcDbLine
 10
68.151119667
 20
217.7600000029999
 30
0.0
 11
65.15111966700001
 21
217.7600000029999
 31
0.0
  0
ARC
  5
157C
330
1331
100
AcDbEntity
  8
0
  6
Continuous
 62
     1
100
AcDbCircle
 10
64.65111966800001
 20
220.6000000029999
 30
0.0
 40
0.5
100
AcDbArc
 50
0.0
 51
90.0
  0
LINE
  5
157D
330
1331
100
AcDbEntity
  8
0
  6
Continuous
 62
     1
100
AcDbLine
 10
64.65111966800001
 20
221.1000000029996
 30
0.0
 11
63.15111966799999
 21
221.1000000029996
 31
0.0
  0
LINE
  5
157E
330
1331
100
AcDbEntity
  8
0
  6
Continuous
 62
     1
100
AcDbLine
 10
68.151119667
 20
221.260000003
 30
0.0
 11
63.15111966699999
 21
221.260000003
 31
0.0
  0
LINE
  5
157F
330
1331
100
AcDbEntity
  8
0
  6
Continuous
 62
     1
100
AcDbLine
 10
68.15111966899999
 20
248.240000003
 30
0.0
 11
68.151119667
 21
217.7600000029999
 31
0.0
  0
LINE
  5
1580
330
1331
100
AcDbEntity
  8
0
  6
Continuous
 62
     1
100
AcDbLine
 10
63.15111966799999
 20
222.900000003
 30
0.0
 11
64.65111966800001
 21
222.900000003
 31
0.0
  0
LINE
  5
1581
330
1331
100
AcDbEntity
  8
0
  6
Continuous
 62
     1
100
AcDbLine
 10
63.15111966799999
 20
222.7600000029996
 30
0.0
 11
68.151119668
 21
222.7600000029996
 31
0.0
  0
LINE
  5
1582
330
1331
100
AcDbEntity
  8
0
  6
Continuous
 62
     1
100
AcDbLine
 10
64.351119668
 20
230.500000003
 30
0.0
 11
64.351119668
 21
235.5000000029999
 31
0.0
  0
LINE
  5
1583
330
1331
100
AcDbEntity
  8
0
  6
Continuous
 62
     1
100
AcDbLine
 10
65.15111966800001
 20
230.500000003
 30
0.0
 11
64.351119668
 21
230.500000003
 31
0.0
  0
LINE
  5
1584
330
1331
100
AcDbEntity
  8
0
  6
Continuous
 62
     1
100
AcDbLine
 10
64.351119668
 20
235.5000000029999
 30
0.0
 11
65.15111966800001
 21
235.5000000029999
 31
0.0
  0
LINE
  5
1585
330
1331
100
AcDbEntity
  8
0
  6
Continuous
 62
     1
100
AcDbLine
 10
67.651119669
 20
250.5000000029999
 30
0.0
 11
63.15111966899999
 21
250.5000000029999
 31
0.0
  0
ARC
  5
1586
330
1331
100
AcDbEntity
  8
0
  6
Continuous
 62
     1
100
AcDbCircle
 10
67.651119669
 20
250.000000003
 30
0.0
 40
0.5
100
AcDbArc
 50
0.0
 51
90.0
  0
LINE
  5
1587
330
1331
100
AcDbEntity
  8
0
  6
Continuous
 62
     1
100
AcDbLine
 10
68.151119668
 20
248.240000003
 30
0.0
 11
68.15111966899999
 21
250.000000003
 31
0.0
  0
LINE
  5
1588
330
1331
100
AcDbEntity
  8
0
  6
Continuous
 62
     1
100
AcDbLine
 10
65.151119669
 20
248.240000003
 30
0.0
 11
68.15111966899999
 21
248.240000003
 31
0.0
  0
ARC
  5
1589
330
1331
100
AcDbEntity
  8
0
  6
Continuous
 62
     1
100
AcDbCircle
 10
64.651119669
 20
250.000000003
 30
0.0
 40
0.5
100
AcDbArc
 50
0.0
 51
90.0
  0
ARC
  5
158A
330
1331
100
AcDbEntity
  8
0
  6
Continuous
 62
     1
100
AcDbCircle
 10
64.65111966800001
 20
245.400000003
 30
0.0
 40
0.5
100
AcDbArc
 50
270.0
 51
0.0
  0
LINE
  5
158B
330
1331
100
AcDbEntity
  8
0
  6
Continuous
 62
     1
100
AcDbLine
 10
65.15111966800001
 20
244.740000003
 30
0.0
 11
65.151119669
 21
248.240000003
 31
0.0
  0
LINE
  5
158C
330
1331
100
AcDbEntity
  8
0
  6
Continuous
 62
     1
100
AcDbLine
 10
65.15111966800001
 20
245.400000003
 30
0.0
 11
65.151119669
 21
250.000000003
 31
0.0
  0
LINE
  5
158D
330
1331
100
AcDbEntity
  8
0
  6
Continuous
 62
     1
100
AcDbLine
 10
63.15111966799999
 20
244.900000003
 30
0.0
 11
64.65111966800001
 21
244.900000003
 31
0.0
  0
LINE
  5
158E
330
1331
100
AcDbEntity
  8
0
  6
Continuous
 62
     1
100
AcDbLine
 10
68.151119668
 20
244.740000003
 30
0.0
 11
63.15111966799999
 21
244.740000003
 31
0.0
  0
LINE
  5
158F
330
1331
100
AcDbEntity
  8
0
  6
Continuous
 62
     1
100
AcDbLine
 10
65.15111966800001
 20
235.5000000029999
 30
0.0
 11
65.15111966800001
 21
242.600000003
 31
0.0
  0
LINE
  5
1590
330
1331
100
AcDbEntity
  8
0
  6
Continuous
 62
     1
100
AcDbLine
 10
64.65111966800001
 20
243.100000003
 30
0.0
 11
63.15111966799999
 21
243.100000003
 31
0.0
  0
ARC
  5
1591
330
1331
100
AcDbEntity
  8
0
  6
Continuous
 62
     1
100
AcDbCircle
 10
64.65111966800001
 20
242.600000003
 30
0.0
 40
0.5
100
AcDbArc
 50
0.0
 51
90.0
  0
LINE
  5
1592
330
1331
100
AcDbEntity
  8
0
  6
Continuous
 62
     1
100
AcDbLine
 10
63.15111966799999
 20
243.2400000029999
 30
0.0
 11
68.151119668
 21
243.2400000029999
 31
0.0
  0
LINE
  5
1593
330
1331
100
AcDbEntity
  8
0
  6
Continuous
 62
     1
100
AcDbLine
 10
65.15111966800001
 20
223.4000000029999
 30
0.0
 11
65.15111966800001
 21
230.500000003
 31
0.0
  0
ARC
  5
1594
330
1331
100
AcDbEntity
  8
0
  6
Continuous
 62
     1
100
AcDbCircle
 10
64.65111966800001
 20
223.4000000029999
 30
0.0
 40
0.5
100
AcDbArc
 50
270.0
 51
0.0
  0
LINE
  5
1595
330
1331
100
AcDbEntity
  8
0
  6
Continuous
 62
     1
100
AcDbLine
 10
65.15111966800001
 20
222.7600000029996
 30
0.0
 11
65.15111966800001
 21
243.2400000029999
 31
0.0
  0
LINE
  5
1596
330
1331
100
AcDbEntity
  8
0
  6
Continuous
 62
     1
100
AcDbLine
 10
65.15111966700001
 20
217.7600000029999
 30
0.0
 11
65.15111966700001
 21
221.260000003
 31
0.0
  0
LINE
  5
1597
330
1331
100
AcDbEntity
  8
0
  6
Continuous
 62
     1
100
AcDbLine
 10
65.15111966700001
 20
216.500000003
 30
0.0
 11
65.15111966800001
 21
220.6000000029999
 31
0.0
  0
LINE
  5
1598
330
1331
100
AcDbEntity
  8
0
  6
Continuous
 62
     1
100
AcDbLine
 10
73.051119669
 20
247.7000000019998
 30
0.0
 11
73.051119668
 21
243.7000000019998
 31
0.0
  0
LINE
  5
1599
330
1331
100
AcDbEntity
  8
0
  6
Continuous
 62
     1
100
AcDbLine
 10
73.051119668
 20
243.7000000019998
 30
0.0
 11
78.551119668
 21
243.7000000019998
 31
0.0
  0
LINE
  5
159A
330
1331
100
AcDbEntity
  8
0
  6
Continuous
 62
     1
100
AcDbLine
 10
78.551119668
 20
242.620000002
 30
0.0
 11
73.051119668
 21
242.620000002
 31
0.0
  0
LINE
  5
159B
330
1331
100
AcDbEntity
  8
0
  6
Continuous
 62
     1
100
AcDbLine
 10
78.551119668
 20
243.7000000019998
 30
0.0
 11
78.551119669
 21
247.7000000019998
 31
0.0
  0
LINE
  5
159C
330
1331
100
AcDbEntity
  8
0
  6
Continuous
 62
     1
100
AcDbLine
 10
78.551119669
 20
247.7000000019998
 30
0.0
 11
73.051119669
 21
247.7000000019998
 31
0.0
  0
LINE
  5
159D
330
1331
100
AcDbEntity
  8
0
  6
Continuous
 62
     1
100
AcDbLine
 10
78.551119668
 20
238.620000002
 30
0.0
 11
78.551119668
 21
242.620000002
 31
0.0
  0
LINE
  5
159E
330
1331
100
AcDbEntity
  8
0
  6
Continuous
 62
     1
100
AcDbLine
 10
73.051119668
 20
238.620000002
 30
0.0
 11
78.551119668
 21
238.620000002
 31
0.0
  0
LINE
  5
159F
330
1331
100
AcDbEntity
  8
0
  6
Continuous
 62
     1
100
AcDbLine
 10
73.051119668
 20
242.620000002
 30
0.0
 11
73.051119668
 21
238.620000002
 31
0.0
  0
LINE
  5
15A0
330
1331
100
AcDbEntity
  8
0
  6
Continuous
 62
     1
100
AcDbLine
 10
73.051119668
 20
237.5400000019999
 30
0.0
 11
73.051119668
 21
233.5400000019999
 31
0.0
  0
LINE
  5
15A1
330
1331
100
AcDbEntity
  8
0
  6
Continuous
 62
     1
100
AcDbLine
 10
78.551119668
 20
237.5400000019999
 30
0.0
 11
73.051119668
 21
237.5400000019999
 31
0.0
  0
LINE
  5
15A2
330
1331
100
AcDbEntity
  8
0
  6
Continuous
 62
     1
100
AcDbLine
 10
78.551119668
 20
233.5400000019999
 30
0.0
 11
78.551119668
 21
237.5400000019999
 31
0.0
  0
LINE
  5
15A3
330
1331
100
AcDbEntity
  8
0
  6
Continuous
 62
     1
100
AcDbLine
 10
73.051119668
 20
233.5400000019999
 30
0.0
 11
78.551119668
 21
233.5400000019999
 31
0.0
  0
LINE
  5
15A4
330
1331
100
AcDbEntity
  8
0
  6
Continuous
 62
     1
100
AcDbLine
 10
78.551119668
 20
232.460000002
 30
0.0
 11
73.051119668
 21
232.460000002
 31
0.0
  0
LINE
  5
15A5
330
1331
100
AcDbEntity
  8
0
  6
Continuous
 62
     1
100
AcDbLine
 10
73.051119668
 20
232.460000002
 30
0.0
 11
73.051119668
 21
228.460000002
 31
0.0
  0
LINE
  5
15A6
330
1331
100
AcDbEntity
  8
0
  6
Continuous
 62
     1
100
AcDbLine
 10
78.551119668
 20
228.460000002
 30
0.0
 11
78.551119668
 21
232.460000002
 31
0.0
  0
LINE
  5
15A7
330
1331
100
AcDbEntity
  8
0
  6
Continuous
 62
     1
100
AcDbLine
 10
73.051119668
 20
228.460000002
 30
0.0
 11
78.551119668
 21
228.460000002
 31
0.0
  0
LINE
  5
15A8
330
1331
100
AcDbEntity
  8
0
  6
Continuous
 62
     1
100
AcDbLine
 10
78.551119668
 20
227.380000002
 30
0.0
 11
73.051119668
 21
227.380000002
 31
0.0
  0
LINE
  5
15A9
330
1331
100
AcDbEntity
  8
0
  6
Continuous
 62
     1
100
AcDbLine
 10
78.551119668
 20
223.380000002
 30
0.0
 11
78.551119668
 21
227.380000002
 31
0.0
  0
LINE
  5
15AA
330
1331
100
AcDbEntity
  8
0
  6
Continuous
 62
     1
100
AcDbLine
 10
73.051119668
 20
227.380000002
 30
0.0
 11
73.051119668
 21
223.380000002
 31
0.0
  0
LINE
  5
15AB
330
1331
100
AcDbEntity
  8
0
  6
Continuous
 62
     1
100
AcDbLine
 10
78.551119668
 20
222.300000002
 30
0.0
 11
73.051119668
 21
222.300000002
 31
0.0
  0
LINE
  5
15AC
330
1331
100
AcDbEntity
  8
0
  6
Continuous
 62
     1
100
AcDbLine
 10
73.051119668
 20
223.380000002
 30
0.0
 11
78.551119668
 21
223.380000002
 31
0.0
  0
LINE
  5
15AD
330
1331
100
AcDbEntity
  8
0
  6
Continuous
 62
     1
100
AcDbLine
 10
78.551119667
 20
218.300000002
 30
0.0
 11
78.551119668
 21
222.300000002
 31
0.0
  0
LINE
  5
15AE
330
1331
100
AcDbEntity
  8
0
  6
Continuous
 62
     1
100
AcDbLine
 10
73.051119667
 20
218.300000002
 30
0.0
 11
78.551119667
 21
218.300000002
 31
0.0
  0
LINE
  5
15AF
330
1331
100
AcDbEntity
  8
0
  6
Continuous
 62
     1
100
AcDbLine
 10
73.051119668
 20
222.300000002
 30
0.0
 11
73.051119667
 21
218.300000002
 31
0.0
  0
TEXT
  5
15B0
330
1331
100
AcDbEntity
  8
0
  6
Continuous
 62
     1
100
AcDbText
 10
80.04111966899998
 20
247.2600000019999
 30
0.0
 40
3.0
  1
７
 50
270.0
  7
KANJI1
100
AcDbText
  0
TEXT
  5
15B1
330
1331
100
AcDbEntity
  8
0
  6
Continuous
 62
     1
100
AcDbText
 10
80.04111966800001
 20
242.180000002
 30
0.0
 40
3.0
  1
８
 50
270.0
  7
KANJI1
100
AcDbText
  0
TEXT
  5
15B2
330
1331
100
AcDbEntity
  8
0
  6
Continuous
 62
     1
100
AcDbText
 10
80.04111966800001
 20
237.1000000019999
 30
0.0
 40
3.0
  1
９
 50
270.0
  7
KANJI1
100
AcDbText
  0
TEXT
  5
15B3
330
1331
100
AcDbEntity
  8
0
  6
Continuous
 62
     1
100
AcDbText
 10
80.04111966800001
 20
228.040000002
 30
-1.399999999999999
 40
3.0
  1
11
 50
270.0
  7
KANJI2
100
AcDbText
  0
TEXT
  5
15B4
330
1331
100
AcDbEntity
  8
0
  6
Continuous
 62
     1
100
AcDbText
 10
80.04111966800001
 20
233.120000002
 30
-1.399999999999999
 40
3.0
  1
10
 50
270.0
  7
KANJI2
100
AcDbText
  0
TEXT
  5
15B5
330
1331
100
AcDbEntity
  8
0
  6
Continuous
 62
     1
100
AcDbText
 10
80.04111966800001
 20
223.160000002
 30
-1.399999999999999
 40
3.0
  1
12
 50
270.0
  7
KANJI2
100
AcDbText
  0
LINE
  5
15B6
330
1331
100
AcDbEntity
  8
0
  6
Continuous
 62
     1
100
AcDbLine
 10
177.216711864
 20
175.799999999
 30
-1.399999999999999
 11
177.310909061
 21
165.008758749
 31
-1.399999999999999
  0
ARC
  5
15B7
330
1331
100
AcDbEntity
  8
0
  6
Continuous
 62
     1
100
AcDbCircle
 10
176.216711864
 20
175.799999999
 30
0.0
 40
1.0
100
AcDbArc
 50
0.0
 51
90.0
  0
LINE
  5
15B8
330
1331
100
AcDbEntity
  8
0
  6
Continuous
 62
     1
100
AcDbLine
 10
177.310909061
 20
165.008758749
 30
0.0
 11
177.400000002
 21
153.3999999989999
 31
0.0
  0
LINE
  5
15B9
330
1331
100
AcDbEntity
  8
0
  6
Continuous
 62
     1
100
AcDbLine
 10
181.0000000029999
 20
158.3999999989998
 30
0.0
 11
177.361627704
 21
158.3999999989998
 31
0.0
  0
LINE
  5
15BA
330
1331
100
AcDbEntity
  8
0
  6
Continuous
 62
     1
100
AcDbLine
 10
192.000000002
 20
135.9999999979999
 30
0.0
 11
191.8452637849999
 21
152.399999998
 31
0.0
  0
ARC
  5
15BB
330
1331
100
AcDbEntity
  8
0
  6
Continuous
 62
     1
100
AcDbCircle
 10
190.8452637849999
 20
152.399999998
 30
0.0
 40
1.0
100
AcDbArc
 50
0.0
 51
90.0
  0
LINE
  5
15BC
330
1331
100
AcDbEntity
  8
0
  6
Continuous
 62
     1
100
AcDbLine
 10
190.500000002
 20
153.3999999979998
 30
0.0
 11
190.500000002
 21
154.8999999979998
 31
0.0
  0
LINE
  5
15BD
330
1331
100
AcDbEntity
  8
0
  6
Continuous
 62
     1
100
AcDbLine
 10
190.8452637849999
 20
153.3999999979998
 30
0.0
 11
177.400000002
 21
153.3999999989999
 31
0.0
  0
ARC
  5
15BE
330
1331
100
AcDbEntity
  8
0
  6
Continuous
 62
     1
100
AcDbCircle
 10
190.000000002
 20
154.8999999979998
 30
0.0
 40
0.5
100
AcDbArc
 50
0.0
 51
90.0
  0
LINE
  5
15BF
330
1331
100
AcDbEntity
  8
0
  6
Continuous
 62
     1
100
AcDbLine
 10
190.000000002
 20
155.399999998
 30
0.0
 11
181.000000002
 21
155.3999999989999
 31
0.0
  0
LINE
  5
15C0
330
1331
100
AcDbEntity
  8
0
  6
Continuous
 62
     1
100
AcDbLine
 10
191.3950857579999
 20
155.5999265589998
 30
0.0
 11
190.500000002
 21
154.406478885
 31
0.0
  0
LINE
  5
15C1
330
1331
100
AcDbEntity
  8
0
  6
Continuous
 62
     1
100
AcDbLine
 10
191.6450857579999
 20
162.299926559
 30
0.0
 11
190.6450857579999
 21
162.299926559
 31
0.0
  0
LINE
  5
15C2
330
1331
100
AcDbEntity
  8
0
  6
Continuous
 62
     1
100
AcDbLine
 10
191.6450857579999
 20
158.5999265589999
 30
0.0
 11
191.6450857579999
 21
162.299926559
 31
0.0
  0
LINE
  5
15C3
330
1331
100
AcDbEntity
  8
0
  6
Continuous
 62
     1
100
AcDbLine
 10
191.3950857579999
 20
158.5999265589999
 30
0.0
 11
191.3950857579999
 21
155.5999265589998
 31
0.0
  0
LINE
  5
15C4
330
1331
100
AcDbEntity
  8
0
  6
Continuous
 62
     1
100
AcDbLine
 10
188.1450857579999
 20
156.899926559
 30
0.0
 11
188.1450857579999
 21
155.3999265589999
 31
0.0
  0
LINE
  5
15C5
330
1331
100
AcDbEntity
  8
0
  6
Continuous
 62
     1
100
AcDbLine
 10
189.8450857579999
 20
155.3999265589999
 30
0.0
 11
189.8450857579999
 21
156.899926559
 31
0.0
  0
LINE
  5
15C6
330
1331
100
AcDbEntity
  8
0
  6
Continuous
 62
     1
100
AcDbLine
 10
188.1450857579999
 20
156.899926559
 30
0.0
 11
188.3450857579999
 21
158.3999265589999
 31
0.0
  0
LINE
  5
15C7
330
1331
100
AcDbEntity
  8
0
  6
Continuous
 62
     1
100
AcDbLine
 10
189.3450857579999
 20
158.3999265589999
 30
0.0
 11
189.8450857579999
 21
156.899926559
 31
0.0
  0
LINE
  5
15C8
330
1331
100
AcDbEntity
  8
0
  6
Continuous
 62
     1
100
AcDbLine
 10
189.895085758
 20
158.5999999979998
 30
0.0
 11
189.895085758
 21
155.3999265589999
 31
0.0
  0
LINE
  5
15C9
330
1331
100
AcDbEntity
  8
0
  6
Continuous
 62
     1
100
AcDbLine
 10
187.9844976929998
 20
158.5999999979998
 30
0.0
 11
187.9844976929998
 21
155.399999998
 31
0.0
  0
LINE
  5
15CA
330
1331
100
AcDbEntity
  8
0
  6
Continuous
 62
     1
100
AcDbLine
 10
189.3450857579999
 20
158.3999265589999
 30
0.0
 11
188.3450857579999
 21
158.3999265589999
 31
0.0
  0
LINE
  5
15CB
330
1331
100
AcDbEntity
  8
0
  6
Continuous
 62
     1
100
AcDbLine
 10
191.644497693
 20
158.5999999979998
 30
0.0
 11
187.9844976929998
 21
158.5999999979998
 31
0.0
  0
LINE
  5
15CC
330
1331
100
AcDbEntity
  8
0
  6
Continuous
 62
     1
100
AcDbLine
 10
181.2044976929998
 20
158.3999999989998
 30
0.0
 11
182.9044976929999
 21
158.399999998
 31
0.0
  0
LINE
  5
15CD
330
1331
100
AcDbEntity
  8
0
  6
Continuous
 62
     1
100
AcDbLine
 10
182.9044976929999
 20
158.399999998
 30
0.0
 11
182.9044976929999
 21
155.399999998
 31
0.0
  0
LINE
  5
15CE
330
1331
100
AcDbEntity
  8
0
  6
Continuous
 62
     1
100
AcDbLine
 10
178.804497693
 20
158.599999999
 30
0.0
 11
183.004497693
 21
158.5999999979998
 31
0.0
  0
LINE
  5
15CF
330
1331
100
AcDbEntity
  8
0
  6
Continuous
 62
     1
100
AcDbLine
 10
183.004497693
 20
158.5999999979998
 30
0.0
 11
183.004497693
 21
155.399999998
 31
0.0
  0
LINE
  5
15D0
330
1331
100
AcDbEntity
  8
0
  6
Continuous
 62
     1
100
AcDbLine
 10
181.2044976929998
 20
155.3999999989999
 30
0.0
 11
181.2044976929998
 21
158.3999999989998
 31
0.0
  0
LINE
  5
15D1
330
1331
100
AcDbEntity
  8
0
  6
Continuous
 62
     1
100
AcDbLine
 10
181.000000002
 20
155.3999999989999
 30
0.0
 11
181.0000000029999
 21
158.3999999989998
 31
0.0
  0
LINE
  5
15D2
330
1331
100
AcDbEntity
  8
0
  6
Continuous
 62
     1
100
AcDbLine
 10
188.2050857579999
 20
174.199926559
 30
0.0
 11
189.8450857579999
 21
169.799926559
 31
0.0
  0
LINE
  5
15D3
330
1331
100
AcDbEntity
  8
0
  6
Continuous
 62
     1
100
AcDbLine
 10
190.6450857579999
 20
169.799926559
 30
0.0
 11
190.6450857579999
 21
162.299926559
 31
0.0
  0
LINE
  5
15D4
330
1331
100
AcDbEntity
  8
0
  6
Continuous
 62
     1
100
AcDbLine
 10
189.8450857579999
 20
169.799926559
 30
0.0
 11
190.6450857579999
 21
169.799926559
 31
0.0
  0
LINE
  5
15D5
330
1331
100
AcDbEntity
  8
0
  6
Continuous
 62
     1
100
AcDbLine
 10
179.8050857579999
 20
162.299926559
 30
0.0
 11
178.805085758
 21
162.299926559
 31
0.0
  0
LINE
  5
15D6
330
1331
100
AcDbEntity
  8
0
  6
Continuous
 62
     1
100
AcDbLine
 10
178.805085758
 20
162.299926559
 30
0.0
 11
178.805085758
 21
158.5999265589999
 31
0.0
  0
LINE
  5
15D7
330
1331
100
AcDbEntity
  8
0
  6
Continuous
 62
     1
100
AcDbLine
 10
179.8050857579999
 20
175.799926559
 30
0.0
 11
179.8050857579999
 21
162.299926559
 31
0.0
  0
LINE
  5
15D8
330
1331
100
AcDbEntity
  8
0
  6
Continuous
 62
     1
100
AcDbLine
 10
182.605085758
 20
175.999926559
 30
0.0
 11
182.605085758
 21
175.799926559
 31
0.0
  0
LINE
  5
15D9
330
1331
100
AcDbEntity
  8
0
  6
Continuous
 62
     1
100
AcDbLine
 10
188.2050857579999
 20
175.999926559
 30
0.0
 11
182.605085758
 21
175.999926559
 31
0.0
  0
LINE
  5
15DA
330
1331
100
AcDbEntity
  8
0
  6
Continuous
 62
     1
100
AcDbLine
 10
188.2050857579999
 20
175.999926559
 30
0.0
 11
188.2050857579999
 21
174.199926559
 31
0.0
  0
LINE
  5
15DB
330
1331
100
AcDbEntity
  8
0
  6
Continuous
 62
     1
100
AcDbLine
 10
182.605085758
 20
175.799926559
 30
0.0
 11
179.8050857579999
 21
175.799926559
 31
0.0
  0
LINE
  5
15DC
330
1331
100
AcDbEntity
  8
0
  6
Continuous
 62
     1
100
AcDbLine
 10
171.250000002
 20
140.4999999989998
 30
0.0
 11
175.750000002
 21
140.4999999989998
 31
0.0
  0
LINE
  5
15DD
330
1331
100
AcDbEntity
  8
0
  6
Continuous
 62
     1
100
AcDbLine
 10
171.250000002
 20
137.9999999989999
 30
0.0
 11
171.250000002
 21
140.4999999989998
 31
0.0
  0
LINE
  5
15DE
330
1331
100
AcDbEntity
  8
0
  6
Continuous
 62
     1
100
AcDbLine
 10
175.750000002
 20
137.9999999989999
 30
0.0
 11
171.250000002
 21
137.9999999989999
 31
0.0
  0
LINE
  5
15DF
330
1331
100
AcDbEntity
  8
0
  6
Continuous
 62
     1
100
AcDbLine
 10
175.750000002
 20
140.4999999989998
 30
0.0
 11
175.750000002
 21
137.9999999989999
 31
0.0
  0
LINE
  5
15E0
330
1331
100
AcDbEntity
  8
0
  6
Continuous
 62
     1
100
AcDbLine
 10
127.400000002
 20
140.500000001
 30
0.0
 11
162.600000002
 21
140.4999999989998
 31
0.0
  0
LINE
  5
15E1
330
1331
100
AcDbEntity
  8
0
  6
Continuous
 62
     1
100
AcDbLine
 10
114.250000002
 20
140.500000001
 30
0.0
 11
114.250000002
 21
138.000000001
 31
0.0
  0
LINE
  5
15E2
330
1331
100
AcDbEntity
  8
0
  6
Continuous
 62
     1
100
AcDbLine
 10
114.250000002
 20
138.000000001
 30
0.0
 11
118.750000002
 21
138.000000001
 31
0.0
  0
LINE
  5
15E3
330
1331
100
AcDbEntity
  8
0
  6
Continuous
 62
     1
100
AcDbLine
 10
118.750000002
 20
138.000000001
 30
0.0
 11
118.750000002
 21
140.500000001
 31
0.0
  0
LINE
  5
15E4
330
1331
100
AcDbEntity
  8
0
  6
Continuous
 62
     1
100
AcDbLine
 10
118.750000002
 20
140.500000001
 30
0.0
 11
114.250000002
 21
140.500000001
 31
0.0
  0
LINE
  5
15E5
330
1331
100
AcDbEntity
  8
0
  6
Continuous
 62
     1
100
AcDbLine
 10
128.915000002
 20
138.5
 30
0.0
 11
127.0749523239999
 21
136.84321363
 31
0.0
  0
LINE
  5
15E6
330
1331
100
AcDbEntity
  8
0
  6
Continuous
 62
     1
100
AcDbLine
 10
128.915000002
 20
138.5
 30
0.0
 11
128.915000002
 21
139.0
 31
0.0
  0
LINE
  5
15E7
330
1331
100
AcDbEntity
  8
0
  6
Continuous
 62
     1
100
AcDbLine
 10
127.415000002
 20
139.1999999999999
 30
0.0
 11
127.415000002
 21
140.3
 31
0.0
  0
LINE
  5
15E8
330
1331
100
AcDbEntity
  8
0
  6
Continuous
 62
     1
100
AcDbLine
 10
128.915000002
 20
139.0
 30
0.0
 11
127.415000002
 21
139.1999999999999
 31
0.0
  0
LINE
  5
15E9
330
1331
100
AcDbEntity
  8
0
  6
Continuous
 62
     1
100
AcDbLine
 10
98.000000002
 20
136.000000002
 30
0.0
 11
98.155322932
 21
152.400000002
 31
0.0
  0
LINE
  5
15EA
330
1331
100
AcDbEntity
  8
0
  6
Continuous
 62
     1
100
AcDbLine
 10
95.415000002
 20
136.000000002
 30
0.0
 11
98.000000002
 21
136.000000002
 31
0.0
  0
LINE
  5
15EB
330
1331
100
AcDbEntity
  8
0
  6
Continuous
 62
     1
100
AcDbLine
 10
98.000000002
 20
140.300000002
 30
0.0
 11
95.415000002
 21
140.300000002
 31
0.0
  0
LINE
  5
15EC
330
1331
100
AcDbEntity
  8
0
  6
Continuous
 62
     1
100
AcDbLine
 10
95.415000002
 20
136.000000002
 30
0.0
 11
95.415000002
 21
140.300000002
 31
0.0
  0
LINE
  5
15ED
330
1331
100
AcDbEntity
  8
0
  6
Continuous
 62
     1
100
AcDbLine
 10
99.15532293200001
 20
153.400000002
 30
0.0
 11
112.600000002
 21
153.4000000009999
 31
0.0
  0
ARC
  5
15EE
330
1331
100
AcDbEntity
  8
0
  6
Continuous
 62
     1
100
AcDbCircle
 10
99.15532293200001
 20
152.400000002
 30
0.0
 40
1.0
100
AcDbArc
 50
90.0
 51
180.0
  0
ARC
  5
15EF
330
1331
100
AcDbEntity
  8
0
  6
Continuous
 62
     1
100
AcDbCircle
 10
100.000000002
 20
154.900000002
 30
0.0
 40
0.5
100
AcDbArc
 50
90.0
 51
180.0
  0
LINE
  5
15F0
330
1331
100
AcDbEntity
  8
0
  6
Continuous
 62
     1
100
AcDbLine
 10
99.50000000200001
 20
153.400000002
 30
0.0
 11
99.50000000200001
 21
154.900000002
 31
0.0
  0
ARC
  5
15F1
330
1331
100
AcDbEntity
  8
0
  6
Continuous
 62
     1
100
AcDbCircle
 10
100.000000002
 20
154.900000002
 30
0.0
 40
0.5
100
AcDbArc
 50
90.0
 51
180.0
  0
LINE
  5
15F2
330
1331
100
AcDbEntity
  8
0
  6
Continuous
 62
     1
100
AcDbLine
 10
108.795502312
 20
155.400000001
 30
0.0
 11
108.795502312
 21
158.400000001
 31
0.0
  0
LINE
  5
15F3
330
1331
100
AcDbEntity
  8
0
  6
Continuous
 62
     1
100
AcDbLine
 10
108.795502312
 20
158.400000001
 30
0.0
 11
107.095502312
 21
158.400000001
 31
0.0
  0
LINE
  5
15F4
330
1331
100
AcDbEntity
  8
0
  6
Continuous
 62
     1
100
AcDbLine
 10
107.095502312
 20
158.400000001
 30
0.0
 11
107.095502312
 21
155.400000001
 31
0.0
  0
LINE
  5
15F5
330
1331
100
AcDbEntity
  8
0
  6
Continuous
 62
     1
100
AcDbLine
 10
106.995502312
 20
158.600000001
 30
0.0
 11
106.995502312
 21
155.400000001
 31
0.0
  0
LINE
  5
15F6
330
1331
100
AcDbEntity
  8
0
  6
Continuous
 62
     1
100
AcDbLine
 10
102.015502312
 20
158.600000002
 30
0.0
 11
102.015502312
 21
155.400000002
 31
0.0
  0
LINE
  5
15F7
330
1331
100
AcDbEntity
  8
0
  6
Continuous
 62
     1
100
AcDbLine
 10
98.35550231200002
 20
158.600000002
 30
0.0
 11
102.015502312
 21
158.600000002
 31
0.0
  0
LINE
  5
15F8
330
1331
100
AcDbEntity
  8
0
  6
Continuous
 62
     1
100
AcDbLine
 10
101.854914247
 20
156.899926562
 30
0.0
 11
101.854914247
 21
155.399926562
 31
0.0
  0
LINE
  5
15F9
330
1331
100
AcDbEntity
  8
0
  6
Continuous
 62
     1
100
AcDbLine
 10
100.154914247
 20
155.399926562
 30
0.0
 11
100.154914247
 21
156.899926562
 31
0.0
  0
LINE
  5
15FA
330
1331
100
AcDbEntity
  8
0
  6
Continuous
 62
     1
100
AcDbLine
 10
100.654914247
 20
158.399926562
 30
0.0
 11
101.654914247
 21
158.399926562
 31
0.0
  0
LINE
  5
15FB
330
1331
100
AcDbEntity
  8
0
  6
Continuous
 62
     1
100
AcDbLine
 10
101.854914247
 20
156.899926562
 30
0.0
 11
101.654914247
 21
158.399926562
 31
0.0
  0
LINE
  5
15FC
330
1331
100
AcDbEntity
  8
0
  6
Continuous
 62
     1
100
AcDbLine
 10
100.654914247
 20
158.399926562
 30
0.0
 11
100.154914247
 21
156.899926562
 31
0.0
  0
LINE
  5
15FD
330
1331
100
AcDbEntity
  8
0
  6
Continuous
 62
     1
100
AcDbLine
 10
98.60491424700001
 20
158.599926562
 30
0.0
 11
98.60491424700001
 21
155.599926562
 31
0.0
  0
LINE
  5
15FE
330
1331
100
AcDbEntity
  8
0
  6
Continuous
 62
     1
100
AcDbLine
 10
98.60491424700001
 20
155.599926562
 30
0.0
 11
99.50000000200001
 21
154.406478889
 31
0.0
  0
LINE
  5
15FF
330
1331
100
AcDbEntity
  8
0
  6
Continuous
 62
     1
100
AcDbLine
 10
100.104914247
 20
158.600000002
 30
0.0
 11
100.104914247
 21
155.399926562
 31
0.0
  0
LINE
  5
1600
330
1331
100
AcDbEntity
  8
0
  6
Continuous
 62
     1
100
AcDbLine
 10
98.35491424700002
 20
158.599926562
 30
0.0
 11
98.35491424799998
 21
162.299926562
 31
0.0
  0
LINE
  5
1601
330
1331
100
AcDbEntity
  8
0
  6
Continuous
 62
     1
100
AcDbLine
 10
112.6890909549999
 20
165.008758752
 30
0.0
 11
112.600000002
 21
153.4000000009999
 31
0.0
  0
LINE
  5
1602
330
1331
100
AcDbEntity
  8
0
  6
Continuous
 62
     1
100
AcDbLine
 10
110.1949142479998
 20
162.299926562
 30
0.0
 11
111.1949142479998
 21
162.299926562
 31
0.0
  0
LINE
  5
1603
330
1331
100
AcDbEntity
  8
0
  6
Continuous
 62
     1
100
AcDbLine
 10
111.1949142479998
 20
162.299926562
 30
0.0
 11
111.194914247
 21
158.599926562
 31
0.0
  0
LINE
  5
1604
330
1331
100
AcDbEntity
  8
0
  6
Continuous
 62
     1
100
AcDbLine
 10
110.1949142479998
 20
175.799926562
 30
0.0
 11
110.1949142479998
 21
162.299926562
 31
0.0
  0
LINE
  5
1605
330
1331
100
AcDbEntity
  8
0
  6
Continuous
 62
     1
100
AcDbLine
 10
109.000000003
 20
158.400000001
 30
0.0
 11
112.638372301
 21
158.400000001
 31
0.0
  0
LINE
  5
1606
330
1331
100
AcDbEntity
  8
0
  6
Continuous
 62
     1
100
AcDbLine
 10
100.000000002
 20
155.400000002
 30
0.0
 11
109.000000002
 21
155.400000001
 31
0.0
  0
LINE
  5
1607
330
1331
100
AcDbEntity
  8
0
  6
Continuous
 62
     1
100
AcDbLine
 10
109.000000002
 20
155.400000001
 30
0.0
 11
109.000000003
 21
158.400000001
 31
0.0
  0
LINE
  5
1608
330
1331
100
AcDbEntity
  8
0
  6
Continuous
 62
     1
100
AcDbLine
 10
111.1955023119999
 20
158.600000001
 30
0.0
 11
106.995502312
 21
158.600000001
 31
0.0
  0
LINE
  5
1609
330
1331
100
AcDbEntity
  8
0
  6
Continuous
 62
     1
100
AcDbLine
 10
114.3443523009999
 20
176.8000000009998
 30
0.0
 11
113.783288143
 21
176.8000000009998
 31
0.0
  0
ARC
  5
160A
330
1331
100
AcDbEntity
  8
0
  6
Continuous
 62
     1
100
AcDbCircle
 10
113.783288143
 20
175.8000000009998
 30
0.0
 40
1.0
100
AcDbArc
 50
90.0
 51
180.0
  0
LINE
  5
160B
330
1331
100
AcDbEntity
  8
0
  6
Continuous
 62
     1
100
AcDbLine
 10
113.783288143
 20
176.8000000009998
 30
0.0
 11
176.216711864
 21
176.799999999
 31
0.0
  0
LINE
  5
160C
330
1331
100
AcDbEntity
  8
0
  6
Continuous
 62
     1
100
AcDbLine
 10
112.783288143
 20
175.8000000009998
 30
0.0
 11
112.6890909549999
 21
165.008758752
 31
0.0
  0
LINE
  5
160D
330
1331
100
AcDbEntity
  8
0
  6
Continuous
 62
     1
100
AcDbLine
 10
107.3949142479998
 20
175.999926562
 30
0.0
 11
107.3949142479998
 21
175.799926562
 31
0.0
  0
LINE
  5
160E
330
1331
100
AcDbEntity
  8
0
  6
Continuous
 62
     1
100
AcDbLine
 10
107.3949142479998
 20
175.799926562
 30
0.0
 11
110.1949142479998
 21
175.799926562
 31
0.0
  0
LINE
  5
160F
330
1331
100
AcDbEntity
  8
0
  6
Continuous
 62
     1
100
AcDbLine
 10
101.794914248
 20
175.999926562
 30
0.0
 11
107.3949142479998
 21
175.999926562
 31
0.0
  0
LINE
  5
1610
330
1331
100
AcDbEntity
  8
0
  6
Continuous
 62
     1
100
AcDbLine
 10
101.794914248
 20
175.999926562
 30
0.0
 11
101.794914248
 21
174.199926562
 31
0.0
  0
LINE
  5
1611
330
1331
100
AcDbEntity
  8
0
  6
Continuous
 62
     1
100
AcDbLine
 10
98.35491424799998
 20
162.299926562
 30
0.0
 11
99.35491424799998
 21
162.299926562
 31
0.0
  0
LINE
  5
1612
330
1331
100
AcDbEntity
  8
0
  6
Continuous
 62
     1
100
AcDbLine
 10
100.154914248
 20
169.799926562
 30
0.0
 11
99.35491424799998
 21
169.799926562
 31
0.0
  0
LINE
  5
1613
330
1331
100
AcDbEntity
  8
0
  6
Continuous
 62
     1
100
AcDbLine
 10
101.794914248
 20
174.199926562
 30
0.0
 11
100.154914248
 21
169.799926562
 31
0.0
  0
LINE
  5
1614
330
1331
100
AcDbEntity
  8
0
  6
Continuous
 62
     1
100
AcDbLine
 10
99.35491424799998
 20
169.799926562
 30
0.0
 11
99.35491424799998
 21
162.299926562
 31
0.0
  0
ARC
  5
1615
330
1331
100
AcDbEntity
  8
0
  6
Continuous
 62
     1
100
AcDbCircle
 10
191.0000000009999
 20
106.999999998
 30
0.0
 40
1.0
100
AcDbArc
 50
0.0
 51
89.99999999899998
  0
LINE
  5
1616
330
1331
100
AcDbEntity
  8
0
  6
Continuous
 62
     1
100
AcDbLine
 10
192.0000000009999
 20
106.999999998
 30
0.0
 11
191.999999999
 21
60.999999998
 31
0.0
  0
ARC
  5
1617
330
1331
100
AcDbEntity
  8
0
  6
Continuous
 62
     1
100
AcDbCircle
 10
190.999999999
 20
60.999999998
 30
0.0
 40
1.0
100
AcDbArc
 50
270.0
 51
0.000000001
  0
LINE
  5
1618
330
1331
100
AcDbEntity
  8
0
  6
Continuous
 62
     1
100
AcDbLine
 10
170.4999999989999
 20
61.54999999899999
 30
0.0
 11
170.4999999989999
 21
62.54999999899999
 31
0.0
  0
LINE
  5
1619
330
1331
100
AcDbEntity
  8
0
  6
Continuous
 62
     1
100
AcDbLine
 10
170.4999999989999
 20
62.54999999899999
 30
0.0
 11
176.499999999
 21
62.54999999899999
 31
0.0
  0
LINE
  5
161A
330
1331
100
AcDbEntity
  8
0
  6
Continuous
 62
     1
100
AcDbLine
 10
176.499999999
 20
62.54999999899999
 30
0.0
 11
176.499999999
 21
61.54999999899999
 31
0.0
  0
ARC
  5
161B
330
1331
100
AcDbEntity
  8
0
  6
Continuous
 62
     1
100
AcDbCircle
 10
189.334999999
 20
62.549999998
 30
0.0
 40
1.0
100
AcDbArc
 50
270.0
 51
0.0
  0
LINE
  5
161C
330
1331
100
AcDbEntity
  8
0
  6
Continuous
 62
     1
100
AcDbLine
 10
190.335000001
 20
105.4499999979997
 30
0.0
 11
190.334999999
 21
62.549999998
 31
0.0
  0
LINE
  5
161D
330
1331
100
AcDbEntity
  8
0
  6
Continuous
 62
     1
100
AcDbLine
 10
190.499999999
 20
61.499999998
 30
0.0
 11
190.500000001
 21
106.4999999979998
 31
0.0
  0
LINE
  5
161E
330
1331
100
AcDbEntity
  8
0
  6
Continuous
 62
     1
100
AcDbLine
 10
100.665000001
 20
106.4500000029999
 30
0.0
 11
189.335000001
 21
106.449999998
 31
0.0
  0
ARC
  5
161F
330
1331
100
AcDbEntity
  8
0
  6
Continuous
 62
     1
100
AcDbCircle
 10
189.335000001
 20
105.4499999979997
 30
0.0
 40
1.0
100
AcDbArc
 50
0.000000001
 51
90.0
  0
LINE
  5
1620
330
1331
100
AcDbEntity
  8
0
  6
Continuous
 62
     1
100
AcDbLine
 10
190.500000001
 20
106.4999999979998
 30
0.0
 11
99.50000000100001
 21
106.5000000029999
 31
0.0
  0
LINE
  5
1621
330
1331
100
AcDbEntity
  8
0
  6
Continuous
 62
     1
100
AcDbLine
 10
176.5000000009995
 20
106.449999999
 30
0.0
 11
176.5000000009995
 21
105.4499999989999
 31
0.0
  0
LINE
  5
1622
330
1331
100
AcDbEntity
  8
0
  6
Continuous
 62
     1
100
AcDbLine
 10
176.5000000009995
 20
105.4499999989999
 30
0.0
 11
170.500000001
 21
105.4499999989999
 31
0.0
  0
LINE
  5
1623
330
1331
100
AcDbEntity
  8
0
  6
Continuous
 62
     1
100
AcDbLine
 10
170.500000001
 20
105.4499999989999
 30
0.0
 11
170.500000001
 21
106.449999999
 31
0.0
  0
LINE
  5
1624
330
1331
100
AcDbEntity
  8
0
  6
Continuous
 62
     1
100
AcDbLine
 10
162.5850000009999
 20
103.7
 30
0.0
 11
160.9850000009998
 21
103.7
 31
0.0
  0
LINE
  5
1625
330
1331
100
AcDbEntity
  8
0
  6
Continuous
 62
     1
100
AcDbLine
 10
160.985
 20
95.7
 30
0.0
 11
162.5849999999998
 21
95.7
 31
0.0
  0
LINE
  5
1626
330
1331
100
AcDbEntity
  8
0
  6
Continuous
 62
     1
100
AcDbLine
 10
160.485000001
 20
104.2
 30
0.0
 11
162.5850000009999
 21
104.2
 31
0.0
  0
LINE
  5
1627
330
1331
100
AcDbEntity
  8
0
  6
Continuous
 62
     1
100
AcDbLine
 10
160.485
 20
95.20000000000001
 30
0.0
 11
162.5849999999998
 21
95.20000000000001
 31
0.0
  0
LINE
  5
1628
330
1331
100
AcDbEntity
  8
0
  6
Continuous
 62
     1
100
AcDbLine
 10
160.9850000009998
 20
103.7
 30
0.0
 11
160.985
 21
95.7
 31
0.0
  0
LINE
  5
1629
330
1331
100
AcDbEntity
  8
0
  6
Continuous
 62
     1
100
AcDbLine
 10
160.485
 20
95.20000000000001
 30
0.0
 11
160.485000001
 21
104.2
 31
0.0
  0
LINE
  5
162A
330
1331
100
AcDbEntity
  8
0
  6
Continuous
 62
     1
100
AcDbLine
 10
160.485
 20
89.74999999999999
 30
0.0
 11
160.485
 21
93.25000000000001
 31
0.0
  0
LINE
  5
162B
330
1331
100
AcDbEntity
  8
0
  6
Continuous
 62
     1
100
AcDbLine
 10
160.485
 20
93.25000000000001
 30
0.0
 11
158.585
 21
93.25000000000001
 31
0.0
  0
LINE
  5
162C
330
1331
100
AcDbEntity
  8
0
  6
Continuous
 62
     1
100
AcDbLine
 10
158.585
 20
93.25000000000001
 30
0.0
 11
158.585
 21
89.74999999999999
 31
0.0
  0
LINE
  5
162D
330
1331
100
AcDbEntity
  8
0
  6
Continuous
 62
     1
100
AcDbLine
 10
158.585
 20
89.74999999999999
 30
0.0
 11
160.485
 21
89.74999999999999
 31
0.0
  0
LINE
  5
162E
330
1331
100
AcDbEntity
  8
0
  6
Continuous
 62
     1
100
AcDbLine
 10
160.485
 20
78.25
 30
0.0
 11
160.4849999989999
 21
74.75
 31
0.0
  0
LINE
  5
162F
330
1331
100
AcDbEntity
  8
0
  6
Continuous
 62
     1
100
AcDbLine
 10
160.4849999989999
 20
74.75
 30
0.0
 11
158.5849999989999
 21
74.75
 31
0.0
  0
LINE
  5
1630
330
1331
100
AcDbEntity
  8
0
  6
Continuous
 62
     1
100
AcDbLine
 10
158.5849999989999
 20
74.75
 30
0.0
 11
158.585
 21
78.25
 31
0.0
  0
LINE
  5
1631
330
1331
100
AcDbEntity
  8
0
  6
Continuous
 62
     1
100
AcDbLine
 10
158.585
 20
78.25
 30
0.0
 11
160.485
 21
78.25
 31
0.0
  0
LINE
  5
1632
330
1331
100
AcDbEntity
  8
0
  6
Continuous
 62
     1
100
AcDbLine
 10
160.9849999989999
 20
64.29999999999998
 30
0.0
 11
160.9849999989999
 21
72.29999999999998
 31
0.0
  0
LINE
  5
1633
330
1331
100
AcDbEntity
  8
0
  6
Continuous
 62
     1
100
AcDbLine
 10
160.9849999989999
 20
72.29999999999998
 30
0.0
 11
162.5849999989999
 21
72.29999999999998
 31
0.0
  0
LINE
  5
1634
330
1331
100
AcDbEntity
  8
0
  6
Continuous
 62
     1
100
AcDbLine
 10
160.4849999989999
 20
63.79999999999999
 30
0.0
 11
160.4849999989999
 21
72.79999999999998
 31
0.0
  0
LINE
  5
1635
330
1331
100
AcDbEntity
  8
0
  6
Continuous
 62
     1
100
AcDbLine
 10
160.4849999989999
 20
72.79999999999998
 30
0.0
 11
162.5849999989999
 21
72.79999999999998
 31
0.0
  0
LINE
  5
1636
330
1331
100
AcDbEntity
  8
0
  6
Continuous
 62
     1
100
AcDbLine
 10
162.5849999989999
 20
64.29999999999998
 30
0.0
 11
160.9849999989999
 21
64.29999999999998
 31
0.0
  0
LINE
  5
1637
330
1331
100
AcDbEntity
  8
0
  6
Continuous
 62
     1
100
AcDbLine
 10
160.4849999989999
 20
63.79999999999999
 30
0.0
 11
162.5849999989999
 21
63.79999999999999
 31
0.0
  0
LINE
  5
1638
330
1331
100
AcDbEntity
  8
0
  6
Continuous
 62
     1
100
AcDbLine
 10
162.5850000009999
 20
106.45
 30
0.0
 11
162.5849999989999
 21
61.55
 31
0.0
  0
ARC
  5
1639
330
1331
100
AcDbEntity
  8
0
  6
Continuous
 62
     1
100
AcDbCircle
 10
120.165
 20
83.00000000199998
 30
0.0
 40
2.0
100
AcDbArc
 50
179.9999999989998
 51
270.0
  0
LINE
  5
163A
330
1331
100
AcDbEntity
  8
0
  6
Continuous
 62
     1
100
AcDbLine
 10
120.165
 20
81.00000000199999
 30
0.0
 11
122.915
 21
81.00000000199999
 31
0.0
  0
ARC
  5
163B
330
1331
100
AcDbEntity
  8
0
  6
Continuous
 62
     1
100
AcDbCircle
 10
122.915
 20
83.00000000199998
 30
0.0
 40
2.0
100
AcDbArc
 50
270.0
 51
336.153311249
  0
LINE
  5
163C
330
1331
100
AcDbEntity
  8
0
  6
Continuous
 62
     1
100
AcDbLine
 10
124.9149999999999
 20
83.50000000100001
 30
0.0
 11
124.9149999999999
 21
84.50000000100002
 31
0.0
  0
ARC
  5
163D
330
1331
100
AcDbEntity
  8
0
  6
Continuous
 62
     1
100
AcDbCircle
 10
119.815
 20
83.50000000199999
 30
0.0
 40
5.099999999999996
100
AcDbArc
 50
270.0
 51
0.0
  0
ARC
  5
163E
330
1331
100
AcDbEntity
  8
0
  6
Continuous
 62
     1
100
AcDbCircle
 10
119.815
 20
84.50000000199999
 30
0.0
 40
5.099999999999996
100
AcDbArc
 50
0.0
 51
90.0
  0
ARC
  5
163F
330
1331
100
AcDbEntity
  8
0
  6
Continuous
 62
     1
100
AcDbCircle
 10
115.015
 20
83.50000000199999
 30
0.0
 40
5.099999999999996
100
AcDbArc
 50
180.0
 51
270.0
  0
ARC
  5
1640
330
1331
100
AcDbEntity
  8
0
  6
Continuous
 62
     1
100
AcDbCircle
 10
114.665
 20
83.00000000199998
 30
0.0
 40
2.0
100
AcDbArc
 50
270.0
 51
0.0
  0
LINE
  5
1641
330
1331
100
AcDbEntity
  8
0
  6
Continuous
 62
     1
100
AcDbLine
 10
114.665
 20
81.00000000199999
 30
0.0
 11
111.915
 21
81.00000000199999
 31
0.0
  0
ARC
  5
1642
330
1331
100
AcDbEntity
  8
0
  6
Continuous
 62
     1
100
AcDbCircle
 10
111.915
 20
83.00000000199998
 30
0.0
 40
2.0
100
AcDbArc
 50
203.8466887509998
 51
270.0
  0
LINE
  5
1643
330
1331
100
AcDbEntity
  8
0
  6
Continuous
 62
     1
100
AcDbLine
 10
115.014999999
 20
78.40000000199998
 30
0.0
 11
119.815
 21
78.40000000199998
 31
0.0
  0
LINE
  5
1644
330
1331
100
AcDbEntity
  8
0
  6
Continuous
 62
     1
100
AcDbLine
 10
109.915
 20
83.50000000199999
 30
0.0
 11
109.915
 21
84.50000000199999
 31
0.0
  0
ARC
  5
1645
330
1331
100
AcDbEntity
  8
0
  6
Continuous
 62
     1
100
AcDbCircle
 10
115.015
 20
84.50000000199999
 30
0.0
 40
5.099999999999996
100
AcDbArc
 50
90.0
 51
180.0
  0
LINE
  5
1646
330
1331
100
AcDbEntity
  8
0
  6
Continuous
 62
     1
100
AcDbLine
 10
118.565
 20
88.05000000200001
 30
0.0
 11
118.565
 21
87.050000002
 31
0.0
  0
LINE
  5
1647
330
1331
100
AcDbEntity
  8
0
  6
Continuous
 62
     1
100
AcDbLine
 10
116.2649999999999
 20
88.05000000200001
 30
0.0
 11
116.2649999999999
 21
87.050000002
 31
0.0
  0
ARC
  5
1648
330
1331
100
AcDbEntity
  8
0
  6
Continuous
 62
     1
100
AcDbCircle
 10
117.415
 20
87.550000002
 30
0.0
 40
1.1
100
AcDbArc
 50
312.98588608
 51
227.01411392
  0
ARC
  5
1649
330
1331
100
AcDbEntity
  8
0
  6
Continuous
 62
     1
100
AcDbCircle
 10
117.415
 20
87.050000002
 30
0.0
 40
1.149999999999999
100
AcDbArc
 50
310.705706831
 51
0.0
  0
ARC
  5
164A
330
1331
100
AcDbEntity
  8
0
  6
Continuous
 62
     1
100
AcDbCircle
 10
117.415
 20
87.050000002
 30
0.0
 40
1.149999999999999
100
AcDbArc
 50
180.0
 51
229.294293169
  0
LINE
  5
164B
330
1331
100
AcDbEntity
  8
0
  6
Continuous
 62
     1
100
AcDbLine
 10
118.165
 20
83.00000000199998
 30
0.0
 11
118.165
 21
86.745326155
 31
0.0
  0
LINE
  5
164C
330
1331
100
AcDbEntity
  8
0
  6
Continuous
 62
     1
100
AcDbLine
 10
116.665
 20
86.745326155
 30
0.0
 11
116.665
 21
83.00000000199998
 31
0.0
  0
LINE
  5
164D
330
1331
100
AcDbEntity
  8
0
  6
Continuous
 62
     1
100
AcDbLine
 10
119.815
 20
89.600000002
 30
0.0
 11
115.015
 21
89.600000002
 31
0.0
  0
ARC
  5
164E
330
1331
100
AcDbEntity
  8
0
  6
Continuous
 62
     1
100
AcDbCircle
 10
117.415
 20
88.05000000200001
 30
0.0
 40
1.149999999999999
100
AcDbArc
 50
0.0
 51
180.0
  0
LINE
  5
164F
330
1331
100
AcDbEntity
  8
0
  6
Continuous
 62
     1
100
AcDbLine
 10
113.499999999
 20
61.550000002
 30
0.0
 11
113.499999999
 21
62.55000000199999
 31
0.0
  0
LINE
  5
1650
330
1331
100
AcDbEntity
  8
0
  6
Continuous
 62
     1
100
AcDbLine
 10
113.499999999
 20
62.55000000199999
 30
0.0
 11
119.499999999
 21
62.55000000199999
 31
0.0
  0
LINE
  5
1651
330
1331
100
AcDbEntity
  8
0
  6
Continuous
 62
     1
100
AcDbLine
 10
119.499999999
 20
62.55000000199999
 30
0.0
 11
119.499999999
 21
61.550000002
 31
0.0
  0
ARC
  5
1652
330
1331
100
AcDbEntity
  8
0
  6
Continuous
 62
     1
100
AcDbCircle
 10
100.664999999
 20
62.550000003
 30
0.0
 40
1.0
100
AcDbArc
 50
180.0
 51
270.0
  0
ARC
  5
1653
330
1331
100
AcDbEntity
  8
0
  6
Continuous
 62
     1
100
AcDbCircle
 10
98.999999999
 20
61.000000003
 30
0.0
 40
1.0
100
AcDbArc
 50
180.0
 51
270.0
  0
LINE
  5
1654
330
1331
100
AcDbEntity
  8
0
  6
Continuous
 62
     1
100
AcDbLine
 10
99.66499999900001
 20
62.550000003
 30
0.0
 11
99.66499999900001
 21
74.00000000299998
 31
0.0
  0
LINE
  5
1655
330
1331
100
AcDbEntity
  8
0
  6
Continuous
 62
     1
100
AcDbLine
 10
99.49999999900001
 20
74.00000000299998
 30
0.0
 11
99.49999999900001
 21
61.500000003
 31
0.0
  0
LINE
  5
1656
330
1331
100
AcDbEntity
  8
0
  6
Continuous
 62
     1
100
AcDbLine
 10
97.999999999
 20
61.000000003
 30
0.0
 11
97.999999999
 21
74.00000000299998
 31
0.0
  0
LINE
  5
1657
330
1331
100
AcDbEntity
  8
0
  6
Continuous
 62
     1
100
AcDbLine
 10
190.999999999
 20
59.99999999799999
 30
0.0
 11
98.999999999
 21
60.000000003
 31
0.0
  0
LINE
  5
1658
330
1331
100
AcDbEntity
  8
0
  6
Continuous
 62
     1
100
AcDbLine
 10
189.334999999
 20
61.54999999800001
 30
0.0
 11
100.664999999
 21
61.550000003
 31
0.0
  0
LINE
  5
1659
330
1331
100
AcDbEntity
  8
0
  6
Continuous
 62
     1
100
AcDbLine
 10
99.49999999900001
 20
61.500000003
 30
0.0
 11
190.499999999
 21
61.499999998
 31
0.0
  0
LINE
  5
165A
330
1331
100
AcDbEntity
  8
0
  6
Continuous
 62
     1
100
AcDbLine
 10
128.914999999
 20
72.750000001
 30
0.0
 11
128.915
 21
95.250000001
 31
0.0
  0
LINE
  5
165B
330
1331
100
AcDbEntity
  8
0
  6
Continuous
 62
     3
100
AcDbLine
 10
126.9149999989999
 20
72.65000000100001
 30
0.0
 11
126.9149999989999
 21
61.550000001
 31
0.0
  0
LINE
  5
165C
330
1331
100
AcDbEntity
  8
0
  6
Continuous
 62
     1
100
AcDbLine
 10
127.414999999
 20
72.65000000100001
 30
0.0
 11
126.414999999
 21
72.65000000100001
 31
0.0
  0
LINE
  5
165D
330
1331
100
AcDbEntity
  8
0
  6
Continuous
 62
     1
100
AcDbLine
 10
128.914999999
 20
72.750000001
 30
0.0
 11
126.414999999
 21
72.750000001
 31
0.0
  0
LINE
  5
165E
330
1331
100
AcDbEntity
  8
0
  6
Continuous
 62
     1
100
AcDbLine
 10
127.414999999
 20
72.65000000100001
 30
0.0
 11
127.414999999
 21
61.550000001
 31
0.0
  0
LINE
  5
165F
330
1331
100
AcDbEntity
  8
0
  6
Continuous
 62
     1
100
AcDbLine
 10
126.414999999
 20
72.65000000100001
 30
0.0
 11
126.414999999
 21
73.90000000100001
 31
0.0
  0
LINE
  5
1660
330
1331
100
AcDbEntity
  8
0
  6
Continuous
 62
     1
100
AcDbLine
 10
127.415000001
 20
106.450000001
 30
0.0
 11
127.415
 21
95.350000001
 31
0.0
  0
LINE
  5
1661
330
1331
100
AcDbEntity
  8
0
  6
Continuous
 62
     1
100
AcDbLine
 10
107.515
 20
94.100000002
 30
0.0
 11
126.415
 21
94.100000001
 31
0.0
  0
LINE
  5
1662
330
1331
100
AcDbEntity
  8
0
  6
Continuous
 62
     1
100
AcDbLine
 10
127.415
 20
95.350000001
 30
0.0
 11
126.415
 21
95.350000001
 31
0.0
  0
LINE
  5
1663
330
1331
100
AcDbEntity
  8
0
  6
Continuous
 62
     1
100
AcDbLine
 10
128.915
 20
95.250000001
 30
0.0
 11
126.415
 21
95.250000001
 31
0.0
  0
LINE
  5
1664
330
1331
100
AcDbEntity
  8
0
  6
Continuous
 62
     1
100
AcDbLine
 10
126.415
 20
95.350000001
 30
0.0
 11
126.415
 21
94.100000001
 31
0.0
  0
LINE
  5
1665
330
1331
100
AcDbEntity
  8
0
  6
Continuous
 62
     1
100
AcDbLine
 10
113.500000001
 20
106.450000002
 30
0.0
 11
113.500000001
 21
105.450000002
 31
0.0
  0
LINE
  5
1666
330
1331
100
AcDbEntity
  8
0
  6
Continuous
 62
     1
100
AcDbLine
 10
113.500000001
 20
105.450000002
 30
0.0
 11
119.500000001
 21
105.450000002
 31
0.0
  0
LINE
  5
1667
330
1331
100
AcDbEntity
  8
0
  6
Continuous
 62
     1
100
AcDbLine
 10
119.500000001
 20
105.450000002
 30
0.0
 11
119.500000001
 21
106.450000002
 31
0.0
  0
ARC
  5
1668
330
1331
100
AcDbEntity
  8
0
  6
Continuous
 62
     1
100
AcDbCircle
 10
100.665000001
 20
105.4500000029999
 30
0.0
 40
1.0
100
AcDbArc
 50
90.0
 51
180.0
  0
LINE
  5
1669
330
1331
100
AcDbEntity
  8
0
  6
Continuous
 62
     1
100
AcDbLine
 10
99.66500000000001
 20
94.000000003
 30
0.0
 11
99.66500000100001
 21
105.4500000029999
 31
0.0
  0
LINE
  5
166A
330
1331
100
AcDbEntity
  8
0
  6
Continuous
 62
     1
100
AcDbLine
 10
99.50000000100001
 20
106.5000000029999
 30
0.0
 11
99.50000000000001
 21
94.000000003
 31
0.0
  0
LINE
  5
166B
330
1331
100
AcDbEntity
  8
0
  6
Continuous
 62
     1
100
AcDbLine
 10
103.515
 20
95.350000002
 30
0.0
 11
102.265000004
 21
94.100000003
 31
0.0
  0
LINE
  5
166C
330
1331
100
AcDbEntity
  8
0
  6
Continuous
 62
     1
100
AcDbLine
 10
107.515
 20
95.350000002
 30
0.0
 11
103.515
 21
95.350000002
 31
0.0
  0
LINE
  5
166D
330
1331
100
AcDbEntity
  8
0
  6
Continuous
 62
     1
100
AcDbLine
 10
107.515
 20
95.350000002
 30
0.0
 11
107.515
 21
94.100000002
 31
0.0
  0
LINE
  5
166E
330
1331
100
AcDbEntity
  8
0
  6
Continuous
 62
     1
100
AcDbLine
 10
99.66500000000001
 20
94.100000003
 30
0.0
 11
102.265000004
 21
94.100000003
 31
0.0
  0
LINE
  5
166F
330
1331
100
AcDbEntity
  8
0
  6
Continuous
 62
     1
100
AcDbLine
 10
128.5323810429999
 20
94.000000001
 30
0.0
 11
98.0
 21
94.000000003
 31
0.0
  0
LINE
  5
1670
330
1331
100
AcDbEntity
  8
0
  6
Continuous
 62
     1
100
AcDbLine
 10
103.514999999
 20
72.650000002
 30
0.0
 11
102.265000003
 21
73.900000003
 31
0.0
  0
LINE
  5
1671
330
1331
100
AcDbEntity
  8
0
  6
Continuous
 62
     1
100
AcDbLine
 10
99.66499999900001
 20
73.900000003
 30
0.0
 11
102.265000003
 21
73.900000003
 31
0.0
  0
LINE
  5
1672
330
1331
100
AcDbEntity
  8
0
  6
Continuous
 62
     1
100
AcDbLine
 10
107.514999999
 20
72.650000002
 30
0.0
 11
103.514999999
 21
72.650000002
 31
0.0
  0
LINE
  5
1673
330
1331
100
AcDbEntity
  8
0
  6
Continuous
 62
     1
100
AcDbLine
 10
107.514999999
 20
72.650000002
 30
0.0
 11
107.514999999
 21
73.900000002
 31
0.0
  0
LINE
  5
1674
330
1331
100
AcDbEntity
  8
0
  6
Continuous
 62
     1
100
AcDbLine
 10
107.514999999
 20
73.900000002
 30
0.0
 11
126.414999999
 21
73.90000000100001
 31
0.0
  0
LINE
  5
1675
330
1331
100
AcDbEntity
  8
0
  6
Continuous
 62
     1
100
AcDbLine
 10
97.999999999
 20
74.00000000299998
 30
0.0
 11
128.5323810419999
 21
74.000000001
 31
0.0
  0
ARC
  5
1676
330
1331
100
AcDbEntity
  8
0
  6
Continuous
 62
     1
100
AcDbCircle
 10
96.414999999
 20
75.00000000299998
 30
0.0
 40
1.0
100
AcDbArc
 50
180.0
 51
270.0
  0
LINE
  5
1677
330
1331
100
AcDbEntity
  8
0
  6
Continuous
 62
     1
100
AcDbLine
 10
95.415
 20
93.000000003
 30
0.0
 11
95.414999999
 21
75.00000000299998
 31
0.0
  0
ARC
  5
1678
330
1331
100
AcDbEntity
  8
0
  6
Continuous
 62
     1
100
AcDbCircle
 10
96.415
 20
93.000000003
 30
0.0
 40
1.0
100
AcDbArc
 50
90.0
 51
180.0
  0
LINE
  5
1679
330
1331
100
AcDbEntity
  8
0
  6
Continuous
 62
     1
100
AcDbLine
 10
98.0
 20
94.000000003
 30
0.0
 11
96.415
 21
94.000000003
 31
0.0
  0
LINE
  5
167A
330
1331
100
AcDbEntity
  8
0
  6
Continuous
 62
     1
100
AcDbLine
 10
96.414999999
 20
74.00000000299998
 30
0.0
 11
97.999999999
 21
74.00000000299998
 31
0.0
  0
LINE
  5
167B
330
1331
100
AcDbEntity
  8
0
  6
Continuous
 62
     1
100
AcDbLine
 10
98.0
 20
94.000000003
 30
0.0
 11
98.000000001
 21
107.000000003
 31
0.0
  0
ARC
  5
167C
330
1331
100
AcDbEntity
  8
0
  6
Continuous
 62
     1
100
AcDbCircle
 10
99.000000001
 20
107.000000003
 30
0.0
 40
1.0
100
AcDbArc
 50
90.0
 51
180.0
  0
LINE
  5
167D
330
1331
100
AcDbEntity
  8
0
  6
Continuous
 62
     1
100
AcDbLine
 10
99.000000001
 20
108.000000003
 30
0.0
 11
191.0000000009999
 21
107.9999999979998
 31
0.0
  0
LINE
  5
167E
330
1331
100
AcDbEntity
  8
0
  6
Continuous
 62
     3
100
AcDbLine
 10
107.514999999
 20
72.75000000199999
 30
0.0
 11
106.264999999
 21
74.00000000199999
 31
0.0
  0
LINE
  5
167F
330
1331
100
AcDbEntity
  8
0
  6
Continuous
 62
     3
100
AcDbLine
 10
107.515
 20
95.250000002
 30
0.0
 11
106.265
 21
94.000000002
 31
0.0
  0
LINE
  5
1680
330
1331
100
AcDbEntity
  8
0
  6
Continuous
 62
     3
100
AcDbLine
 10
180.8050857579999
 20
161.299926559
 30
0.0
 11
180.8050857579999
 21
160.5999265589999
 31
0.0
  0
LINE
  5
1681
330
1331
100
AcDbEntity
  8
0
  6
Continuous
 62
     3
100
AcDbLine
 10
180.8050857579999
 20
160.5999265589999
 30
0.0
 11
179.8050857579999
 21
160.5999265589999
 31
0.0
  0
LINE
  5
1682
330
1331
100
AcDbEntity
  8
0
  6
Continuous
 62
     3
100
AcDbLine
 10
179.8050857579999
 20
160.5999265589999
 30
0.0
 11
179.8050857579999
 21
162.299926559
 31
0.0
  0
LINE
  5
1683
330
1331
100
AcDbEntity
  8
0
  6
Continuous
 62
     3
100
AcDbLine
 10
190.6450857579999
 20
162.299926559
 30
0.0
 11
190.6450857579999
 21
160.5999265589999
 31
0.0
  0
LINE
  5
1684
330
1331
100
AcDbEntity
  8
0
  6
Continuous
 62
     3
100
AcDbLine
 10
190.6450857579999
 20
160.5999265589999
 30
0.0
 11
189.6450857579999
 21
160.5999265589999
 31
0.0
  0
LINE
  5
1685
330
1331
100
AcDbEntity
  8
0
  6
Continuous
 62
     3
100
AcDbLine
 10
189.6450857579999
 20
160.5999265589999
 30
0.0
 11
189.6450857579999
 21
161.299926559
 31
0.0
  0
LINE
  5
1686
330
1331
100
AcDbEntity
  8
0
  6
Continuous
 62
     3
100
AcDbLine
 10
189.6450857579999
 20
161.299926559
 30
0.0
 11
180.8050857579999
 21
161.299926559
 31
0.0
  0
LINE
  5
1687
330
1331
100
AcDbEntity
  8
0
  6
Continuous
 62
     3
100
AcDbLine
 10
109.1949142479998
 20
161.299926562
 30
0.0
 11
109.1949142479998
 21
160.599926562
 31
0.0
  0
LINE
  5
1688
330
1331
100
AcDbEntity
  8
0
  6
Continuous
 62
     3
100
AcDbLine
 10
109.1949142479998
 20
160.599926562
 30
0.0
 11
110.1949142479998
 21
160.599926562
 31
0.0
  0
LINE
  5
1689
330
1331
100
AcDbEntity
  8
0
  6
Continuous
 62
     3
100
AcDbLine
 10
110.1949142479998
 20
160.599926562
 30
0.0
 11
110.1949142479998
 21
162.299926562
 31
0.0
  0
LINE
  5
168A
330
1331
100
AcDbEntity
  8
0
  6
Continuous
 62
     3
100
AcDbLine
 10
99.35491424799998
 20
162.299926562
 30
0.0
 11
99.35491424799998
 21
160.599926562
 31
0.0
  0
LINE
  5
168B
330
1331
100
AcDbEntity
  8
0
  6
Continuous
 62
     3
100
AcDbLine
 10
99.35491424799998
 20
160.599926562
 30
0.0
 11
100.3549142479998
 21
160.599926562
 31
0.0
  0
LINE
  5
168C
330
1331
100
AcDbEntity
  8
0
  6
Continuous
 62
     3
100
AcDbLine
 10
100.3549142479998
 20
160.599926562
 30
0.0
 11
100.3549142479998
 21
161.299926562
 31
0.0
  0
LINE
  5
168D
330
1331
100
AcDbEntity
  8
0
  6
Continuous
 62
     3
100
AcDbLine
 10
100.3549142479998
 20
161.299926562
 30
0.0
 11
109.1949142479998
 21
161.299926562
 31
0.0
  0
ARC
  5
168E
330
1331
100
AcDbEntity
  8
0
  6
Continuous
 62
     3
100
AcDbCircle
 10
159.100000002
 20
140.4999999989998
 30
0.0
 40
0.5
100
AcDbArc
 50
180.0
 51
270.0
  0
LINE
  5
168F
330
1331
100
AcDbEntity
  8
0
  6
Continuous
 62
     3
100
AcDbLine
 10
159.100000002
 20
139.9999999989999
 30
0.0
 11
160.600000002
 21
140.4999999989998
 31
0.0
  0
LINE
  5
1690
330
1331
100
AcDbEntity
  8
0
  6
Continuous
 62
     1
100
AcDbLine
 10
161.000000002
 20
139.299999999
 30
0.0
 11
162.6104734189999
 21
139.299999999
 31
0.0
  0
LINE
  5
1691
330
1331
100
AcDbEntity
  8
0
  6
Continuous
 62
     1
100
AcDbLine
 10
162.6104734189999
 20
139.299999999
 30
0.0
 11
162.600000002
 21
140.4999999989998
 31
0.0
  0
LINE
  5
1692
330
1331
100
AcDbEntity
  8
0
  6
Continuous
 62
     1
100
AcDbLine
 10
161.000000002
 20
137.7999999989999
 30
0.0
 11
161.000000002
 21
139.299999999
 31
0.0
  0
LINE
  5
1693
330
1331
100
AcDbEntity
  8
0
  6
Continuous
 62
     1
100
AcDbLine
 10
162.637525533
 20
136.199999999
 30
0.0
 11
162.982222224
 21
136.199999999
 31
0.0
  0
LINE
  5
1694
330
1331
100
AcDbEntity
  8
0
  6
Continuous
 62
     1
100
AcDbLine
 10
162.637525533
 20
136.199999999
 30
0.0
 11
161.000000002
 21
137.7999999989999
 31
0.0
  0
LINE
  5
1695
330
1331
100
AcDbEntity
  8
0
  6
Continuous
 62
     3
100
AcDbLine
 10
162.6104734189999
 20
139.299999999
 30
0.0
 11
162.637525533
 21
136.199999999
 31
0.0
  0
POINT
  5
1696
330
1331
100
AcDbEntity
  8
0
  6
Continuous
 62
     1
100
AcDbPoint
 10
3.141492651413532E+99
 20
1.269263905633295E+99
 30
0.0
  0
POINT
  5
1697
330
1331
100
AcDbEntity
  8
0
  6
Continuous
 62
     1
100
AcDbPoint
 10
3.141492651413532E+99
 20
1.269263905633295E+99
 30
0.0
  0
POINT
  5
1698
330
1331
100
AcDbEntity
  8
0
  6
Continuous
 62
     1
100
AcDbPoint
 10
-1.470580238991736E+63
 20
-5.941616374145985E+73
 30
0.0
  0
POINT
  5
1699
330
1331
100
AcDbEntity
  8
0
  6
Continuous
 62
     1
100
AcDbPoint
 10
-1.470580238991736E+63
 20
-5.941616374145985E+73
 30
0.0
  0
POINT
  5
169A
330
1331
100
AcDbEntity
  8
0
  6
Continuous
 62
     1
100
AcDbPoint
 10
3.141492651413532E+99
 20
1.269263905633295E+99
 30
0.0
  0
POINT
  5
169B
330
1331
100
AcDbEntity
  8
0
  6
Continuous
 62
     1
100
AcDbPoint
 10
3.141492651413532E+99
 20
1.269263905633295E+99
 30
0.0
  0
POINT
  5
169C
330
1331
100
AcDbEntity
  8
0
  6
Continuous
 62
     1
100
AcDbPoint
 10
-1.470580238991736E+63
 20
-5.941616374145985E+73
 30
0.0
  0
POINT
  5
169D
330
1331
100
AcDbEntity
  8
0
  6
Continuous
 62
     1
100
AcDbPoint
 10
-1.470580238991736E+63
 20
-5.941616374145985E+73
 30
0.0
  0
POINT
  5
169E
330
1331
100
AcDbEntity
  8
0
  6
Continuous
 62
     1
100
AcDbPoint
 10
3.141492651413532E+99
 20
1.269263905633295E+99
 30
0.0
  0
POINT
  5
169F
330
1331
100
AcDbEntity
  8
0
  6
Continuous
 62
     1
100
AcDbPoint
 10
3.141492651413532E+99
 20
1.269263905633295E+99
 30
0.0
  0
POINT
  5
16A0
330
1331
100
AcDbEntity
  8
0
  6
Continuous
 62
     1
100
AcDbPoint
 10
-1.470580238991736E+63
 20
-5.941616374145985E+73
 30
0.0
  0
POINT
  5
16A1
330
1331
100
AcDbEntity
  8
0
  6
Continuous
 62
     1
100
AcDbPoint
 10
-1.470580238991736E+63
 20
-5.941616374145985E+73
 30
0.0
  0
POINT
  5
16A2
330
1331
100
AcDbEntity
  8
0
  6
Continuous
 62
     1
100
AcDbPoint
 10
3.141492651413532E+99
 20
1.269263905633295E+99
 30
0.0
  0
POINT
  5
16A3
330
1331
100
AcDbEntity
  8
0
  6
Continuous
 62
     1
100
AcDbPoint
 10
3.141492651413532E+99
 20
1.269263905633295E+99
 30
0.0
  0
POINT
  5
16A4
330
1331
100
AcDbEntity
  8
0
  6
Continuous
 62
     1
100
AcDbPoint
 10
-1.470580238991736E+63
 20
-5.941616374145985E+73
 30
0.0
  0
POINT
  5
16A5
330
1331
100
AcDbEntity
  8
0
  6
Continuous
 62
     1
100
AcDbPoint
 10
-1.470580238991736E+63
 20
-5.941616374145985E+73
 30
0.0
  0
POINT
  5
16A6
330
1331
100
AcDbEntity
  8
0
  6
Continuous
 62
     1
100
AcDbPoint
 10
3.141492651413532E+99
 20
1.269263905633295E+99
 30
0.0
  0
POINT
  5
16A7
330
1331
100
AcDbEntity
  8
0
  6
Continuous
 62
     1
100
AcDbPoint
 10
3.141492651413532E+99
 20
1.269263905633295E+99
 30
0.0
  0
POINT
  5
16A8
330
1331
100
AcDbEntity
  8
0
  6
Continuous
 62
     1
100
AcDbPoint
 10
-1.470580238991736E+63
 20
-5.941616374145985E+73
 30
0.0
  0
POINT
  5
16A9
330
1331
100
AcDbEntity
  8
0
  6
Continuous
 62
     1
100
AcDbPoint
 10
-1.470580238991736E+63
 20
-5.941616374145985E+73
 30
0.0
  0
POINT
  5
16AA
330
1331
100
AcDbEntity
  8
0
  6
Continuous
 62
     1
100
AcDbPoint
 10
3.141492651413532E+99
 20
1.269263905633295E+99
 30
0.0
  0
POINT
  5
16AB
330
1331
100
AcDbEntity
  8
0
  6
Continuous
 62
     1
100
AcDbPoint
 10
3.141492651413532E+99
 20
1.269263905633295E+99
 30
0.0
  0
POINT
  5
16AC
330
1331
100
AcDbEntity
  8
0
  6
Continuous
 62
     1
100
AcDbPoint
 10
-1.470580238991736E+63
 20
-5.941616374145985E+73
 30
0.0
  0
POINT
  5
16AD
330
1331
100
AcDbEntity
  8
0
  6
Continuous
 62
     1
100
AcDbPoint
 10
-1.470580238991736E+63
 20
-5.941616374145985E+73
 30
0.0
  0
LINE
  5
16AE
330
1331
100
AcDbEntity
  8
0
  6
Continuous
 62
     3
100
AcDbLine
 10
307.191111114
 20
138.15
 30
0.0
 11
308.532381045
 21
138.15
 31
0.0
  0
LINE
  5
16AF
330
1331
100
AcDbEntity
  8
0
  6
Continuous
 62
     3
100
AcDbLine
 10
387.0000000019998
 20
135.999999996
 30
0.0
 11
387.517638093
 21
137.9318516479999
 31
0.0
  0
LINE
  5
16B0
330
1331
100
AcDbEntity
  8
0
  6
Continuous
 62
     3
100
AcDbLine
 10
387.0000000019998
 20
135.999999996
 30
0.0
 11
386.482361912
 21
137.9318516479999
 31
0.0
  0
LINE
  5
16B1
330
1331
100
AcDbEntity
  8
0
  6
Continuous
 62
     3
100
AcDbLine
 10
387.0000000019998
 20
135.999999996
 30
0.0
 11
387.000000005
 21
176.7999999959999
 31
0.0
  0
LINE
  5
16B2
330
1331
100
AcDbEntity
  8
0
  6
Continuous
 62
     3
100
AcDbLine
 10
387.000000005
 20
176.7999999959999
 30
0.0
 11
386.482361915
 21
174.8681483429994
 31
0.0
  0
LINE
  5
16B3
330
1331
100
AcDbEntity
  8
0
  6
Continuous
 62
     3
100
AcDbLine
 10
387.000000005
 20
176.7999999959999
 30
0.0
 11
387.517638095
 21
174.8681483429994
 31
0.0
  0
LINE
  5
16B4
330
1331
100
AcDbEntity
  8
0
  6
Continuous
 62
     3
100
AcDbLine
 10
358.216713773
 20
176.799999997
 30
0.0
 11
388.000000005
 21
176.7999999959999
 31
0.0
  0
LINE
  5
16B5
330
1331
100
AcDbEntity
  8
0
  6
Continuous
 62
     3
100
AcDbLine
 10
373.0000000019998
 20
135.999999997
 30
0.0
 11
388.0000000019998
 21
135.999999996
 31
0.0
  0
LINE
  5
16B6
330
1331
100
AcDbEntity
  8
0
  6
Continuous
 62
     1
100
AcDbLine
 10
357.2167118649998
 20
175.799999997
 30
0.0
 11
357.3109090619999
 21
165.0087587479999
 31
0.0
  0
ARC
  5
16B7
330
1331
100
AcDbEntity
  8
0
  6
Continuous
 62
     1
100
AcDbCircle
 10
356.2167118649998
 20
175.799999998
 30
0.0
 40
1.0
100
AcDbArc
 50
0.0
 51
90.0
  0
LINE
  5
16B8
330
1331
100
AcDbEntity
  8
0
  6
Continuous
 62
     1
100
AcDbLine
 10
357.3109090619999
 20
165.0087587479999
 30
0.0
 11
357.4000000039997
 21
153.3999999969999
 31
0.0
  0
LINE
  5
16B9
330
1331
100
AcDbEntity
  8
0
  6
Continuous
 62
     1
100
AcDbLine
 10
372.0000000019997
 20
135.999999997
 30
0.0
 11
371.845263786
 21
152.399999997
 31
0.0
  0
ARC
  5
16BA
330
1331
100
AcDbEntity
  8
0
  6
Continuous
 62
     1
100
AcDbCircle
 10
370.8452637859999
 20
152.399999997
 30
0.0
 40
1.0
100
AcDbArc
 50
0.0
 51
90.0
  0
LINE
  5
16BB
330
1331
100
AcDbEntity
  8
0
  6
Continuous
 62
     1
100
AcDbLine
 10
370.500000004
 20
153.3999999969999
 30
0.0
 11
370.500000004
 21
154.899999997
 31
0.0
  0
LINE
  5
16BC
330
1331
100
AcDbEntity
  8
0
  6
Continuous
 62
     1
100
AcDbLine
 10
370.8452637859999
 20
153.3999999969999
 30
0.0
 11
357.4000000039997
 21
153.3999999969999
 31
0.0
  0
LINE
  5
16BD
330
1331
100
AcDbEntity
  8
0
  6
Continuous
 62
     1
100
AcDbLine
 10
371.395085759
 20
155.599926557
 30
0.0
 11
370.500000004
 21
154.406478884
 31
0.0
  0
LINE
  5
16BE
330
1331
100
AcDbEntity
  8
0
  6
Continuous
 62
     1
100
AcDbLine
 10
371.395085759
 20
158.599926557
 30
0.0
 11
371.395085759
 21
155.599926557
 31
0.0
  0
LINE
  5
16BF
330
1331
100
AcDbEntity
  8
0
  6
Continuous
 62
     1
100
AcDbLine
 10
358.805085759
 20
162.2999265579998
 30
0.0
 11
358.805085759
 21
158.5999265579999
 31
0.0
  0
LINE
  5
16C0
330
1331
100
AcDbEntity
  8
0
  6
Continuous
 62
     1
100
AcDbLine
 10
351.250000003
 20
140.499999998
 30
0.0
 11
355.750000003
 21
140.499999998
 31
0.0
  0
LINE
  5
16C1
330
1331
100
AcDbEntity
  8
0
  6
Continuous
 62
     1
100
AcDbLine
 10
351.250000003
 20
137.9999999979999
 30
0.0
 11
351.250000003
 21
140.499999998
 31
0.0
  0
LINE
  5
16C2
330
1331
100
AcDbEntity
  8
0
  6
Continuous
 62
     1
100
AcDbLine
 10
355.750000003
 20
137.9999999979999
 30
0.0
 11
351.250000003
 21
137.9999999979999
 31
0.0
  0
LINE
  5
16C3
330
1331
100
AcDbEntity
  8
0
  6
Continuous
 62
     1
100
AcDbLine
 10
355.750000003
 20
140.499999998
 30
0.0
 11
355.750000003
 21
137.9999999979999
 31
0.0
  0
LINE
  5
16C4
330
1331
100
AcDbEntity
  8
0
  6
Continuous
 62
     1
100
AcDbLine
 10
307.400000003
 20
140.5
 30
0.0
 11
342.600000003
 21
140.499999998
 31
0.0
  0
LINE
  5
16C5
330
1331
100
AcDbEntity
  8
0
  6
Continuous
 62
     1
100
AcDbLine
 10
294.2500000029998
 20
140.500000001
 30
0.0
 11
294.2500000029998
 21
138.000000001
 31
0.0
  0
LINE
  5
16C6
330
1331
100
AcDbEntity
  8
0
  6
Continuous
 62
     1
100
AcDbLine
 10
294.2500000029998
 20
138.000000001
 30
0.0
 11
298.7500000029998
 21
138.000000001
 31
0.0
  0
LINE
  5
16C7
330
1331
100
AcDbEntity
  8
0
  6
Continuous
 62
     1
100
AcDbLine
 10
298.7500000029998
 20
138.000000001
 30
0.0
 11
298.7500000029998
 21
140.500000001
 31
0.0
  0
LINE
  5
16C8
330
1331
100
AcDbEntity
  8
0
  6
Continuous
 62
     1
100
AcDbLine
 10
298.7500000029998
 20
140.500000001
 30
0.0
 11
294.2500000029998
 21
140.500000001
 31
0.0
  0
LINE
  5
16C9
330
1331
100
AcDbEntity
  8
0
  6
Continuous
 62
     1
100
AcDbLine
 10
308.915000003
 20
138.5
 30
0.0
 11
307.074952325
 21
136.8432136289999
 31
0.0
  0
LINE
  5
16CA
330
1331
100
AcDbEntity
  8
0
  6
Continuous
 62
     1
100
AcDbLine
 10
308.915000003
 20
138.5
 30
0.0
 11
308.915000003
 21
139.0
 31
0.0
  0
LINE
  5
16CB
330
1331
100
AcDbEntity
  8
0
  6
Continuous
 62
     1
100
AcDbLine
 10
307.4150000029998
 20
139.1999999999999
 30
0.0
 11
307.4150000029998
 21
140.3
 31
0.0
  0
LINE
  5
16CC
330
1331
100
AcDbEntity
  8
0
  6
Continuous
 62
     1
100
AcDbLine
 10
307.000000002
 20
136.0
 30
0.0
 11
307.400000003
 21
140.5
 31
0.0
  0
LINE
  5
16CD
330
1331
100
AcDbEntity
  8
0
  6
Continuous
 62
     1
100
AcDbLine
 10
308.915000003
 20
139.0
 30
0.0
 11
307.4150000029998
 21
139.1999999999999
 31
0.0
  0
LINE
  5
16CE
330
1331
100
AcDbEntity
  8
0
  6
Continuous
 62
     1
100
AcDbLine
 10
278.000000002
 20
136.000000002
 30
0.0
 11
278.155322933
 21
152.400000002
 31
0.0
  0
LINE
  5
16CF
330
1331
100
AcDbEntity
  8
0
  6
Continuous
 62
     1
100
AcDbLine
 10
275.415000003
 20
136.000000002
 30
0.0
 11
278.000000002
 21
136.000000002
 31
0.0
  0
LINE
  5
16D0
330
1331
100
AcDbEntity
  8
0
  6
Continuous
 62
     1
100
AcDbLine
 10
278.0000000029999
 20
140.300000002
 30
0.0
 11
275.415000003
 21
140.300000002
 31
0.0
  0
LINE
  5
16D1
330
1331
100
AcDbEntity
  8
0
  6
Continuous
 62
     1
100
AcDbLine
 10
275.415000003
 20
136.000000002
 30
0.0
 11
275.415000003
 21
140.300000002
 31
0.0
  0
LINE
  5
16D2
330
1331
100
AcDbEntity
  8
0
  6
Continuous
 62
     1
100
AcDbLine
 10
307.000000002
 20
136.0
 30
0.0
 11
278.000000002
 21
136.000000002
 31
0.0
  0
LINE
  5
16D3
330
1331
100
AcDbEntity
  8
0
  6
Continuous
 62
     1
100
AcDbLine
 10
279.1553229329999
 20
153.400000002
 30
0.0
 11
292.600000004
 21
153.4000000009999
 31
0.0
  0
ARC
  5
16D4
330
1331
100
AcDbEntity
  8
0
  6
Continuous
 62
     1
100
AcDbCircle
 10
279.1553229329999
 20
152.400000002
 30
0.0
 40
1.0
100
AcDbArc
 50
90.0
 51
180.0
  0
LINE
  5
16D5
330
1331
100
AcDbEntity
  8
0
  6
Continuous
 62
     1
100
AcDbLine
 10
279.500000004
 20
153.400000002
 30
0.0
 11
279.500000004
 21
154.900000002
 31
0.0
  0
LINE
  5
16D6
330
1331
100
AcDbEntity
  8
0
  6
Continuous
 62
     1
100
AcDbLine
 10
292.6890909559998
 20
165.008758752
 30
0.0
 11
292.600000004
 21
153.4000000009999
 31
0.0
  0
LINE
  5
16D7
330
1331
100
AcDbEntity
  8
0
  6
Continuous
 62
     1
100
AcDbLine
 10
291.194914249
 20
162.299926562
 30
0.0
 11
291.194914249
 21
158.599926562
 31
0.0
  0
LINE
  5
16D8
330
1331
100
AcDbEntity
  8
0
  6
Continuous
 62
     1
100
AcDbLine
 10
294.344352303
 20
176.8000000009998
 30
0.0
 11
293.7832881449998
 21
176.8000000009998
 31
0.0
  0
ARC
  5
16D9
330
1331
100
AcDbEntity
  8
0
  6
Continuous
 62
     1
100
AcDbCircle
 10
293.783288144
 20
175.8000000009998
 30
0.0
 40
1.0
100
AcDbArc
 50
90.0
 51
180.0
  0
LINE
  5
16DA
330
1331
100
AcDbEntity
  8
0
  6
Continuous
 62
     1
100
AcDbLine
 10
293.7832881449998
 20
176.8000000009998
 30
0.0
 11
356.2167118649998
 21
176.7999999979998
 31
0.0
  0
LINE
  5
16DB
330
1331
100
AcDbEntity
  8
0
  6
Continuous
 62
     1
100
AcDbLine
 10
292.783288144
 20
175.8000000009998
 30
0.0
 11
292.6890909559998
 21
165.008758752
 31
0.0
  0
ARC
  5
16DC
330
1331
100
AcDbEntity
  8
0
  6
Continuous
 62
     3
100
AcDbCircle
 10
339.100000003
 20
140.4999999989998
 30
0.0
 40
0.5
100
AcDbArc
 50
180.0
 51
270.0
  0
LINE
  5
16DD
330
1331
100
AcDbEntity
  8
0
  6
Continuous
 62
     3
100
AcDbLine
 10
339.100000003
 20
139.9999999989999
 30
0.0
 11
340.600000003
 21
140.499999998
 31
0.0
  0
LINE
  5
16DE
330
1331
100
AcDbEntity
  8
0
  6
Continuous
 62
     1
100
AcDbLine
 10
341.0000000029997
 20
139.299999998
 30
0.0
 11
342.6104734199999
 21
139.299999998
 31
0.0
  0
LINE
  5
16DF
330
1331
100
AcDbEntity
  8
0
  6
Continuous
 62
     1
100
AcDbLine
 10
342.6104734199999
 20
139.299999998
 30
0.0
 11
342.600000003
 21
140.499999998
 31
0.0
  0
LINE
  5
16E0
330
1331
100
AcDbEntity
  8
0
  6
Continuous
 62
     1
100
AcDbLine
 10
341.0000000029997
 20
137.799999998
 30
0.0
 11
341.0000000029997
 21
139.299999998
 31
0.0
  0
LINE
  5
16E1
330
1331
100
AcDbEntity
  8
0
  6
Continuous
 62
     1
100
AcDbLine
 10
343.000000002
 20
135.9999999979999
 30
0.0
 11
372.0000000019997
 21
135.999999997
 31
0.0
  0
LINE
  5
16E2
330
1331
100
AcDbEntity
  8
0
  6
Continuous
 62
     1
100
AcDbLine
 10
342.637525534
 20
136.1999999979998
 30
0.0
 11
342.9822222249998
 21
136.1999999979998
 31
0.0
  0
LINE
  5
16E3
330
1331
100
AcDbEntity
  8
0
  6
Continuous
 62
     1
100
AcDbLine
 10
342.600000003
 20
140.499999998
 30
0.0
 11
343.000000002
 21
135.9999999979999
 31
0.0
  0
LINE
  5
16E4
330
1331
100
AcDbEntity
  8
0
  6
Continuous
 62
     1
100
AcDbLine
 10
342.637525534
 20
136.1999999979998
 30
0.0
 11
341.0000000029997
 21
137.799999998
 31
0.0
  0
LINE
  5
16E5
330
1331
100
AcDbEntity
  8
0
  6
Continuous
 62
     3
100
AcDbLine
 10
342.6104734199999
 20
139.299999998
 30
0.0
 11
342.637525534
 21
136.1999999979998
 31
0.0
  0
LINE
  5
16E6
330
1331
100
AcDbEntity
  8
0
  6
Continuous
 62
     1
100
AcDbLine
 10
290.250000004
 20
162.299926562
 30
0.0
 11
291.194914249
 21
162.299926562
 31
0.0
  0
LINE
  5
16E7
330
1331
100
AcDbEntity
  8
0
  6
Continuous
 62
     1
100
AcDbLine
 10
290.250000004
 20
158.400000001
 30
0.0
 11
292.6383723029998
 21
158.400000001
 31
0.0
  0
LINE
  5
16E8
330
1331
100
AcDbEntity
  8
0
  6
Continuous
 62
     1
100
AcDbLine
 10
291.195502313
 20
158.600000001
 30
0.0
 11
290.250000004
 21
158.600000001
 31
0.0
  0
ARC
  5
16E9
330
1331
100
AcDbEntity
  8
0
  6
Continuous
 62
     1
100
AcDbCircle
 10
280.000000004
 20
154.900000002
 30
0.0
 40
0.5
100
AcDbArc
 50
120.0000000089999
 51
180.0
  0
ARC
  5
16EA
330
1331
100
AcDbEntity
  8
0
  6
Continuous
 62
     1
100
AcDbCircle
 10
280.000000004
 20
154.900000002
 30
0.0
 40
0.5
100
AcDbArc
 50
120.0000000089999
 51
180.0
  0
LINE
  5
16EB
330
1331
100
AcDbEntity
  8
0
  6
Continuous
 62
     1
100
AcDbLine
 10
280.009234964
 20
177.9547493479998
 30
0.0
 11
290.250000004
 21
178.400000002
 31
0.0
  0
ARC
  5
16EC
330
1331
100
AcDbEntity
  8
0
  6
Continuous
 62
     1
100
AcDbCircle
 10
280.0743908
 20
176.456165111
 30
0.0
 40
1.5
100
AcDbArc
 50
92.48955292199999
 51
177.954591512
  0
LINE
  5
16ED
330
1331
100
AcDbEntity
  8
0
  6
Continuous
 62
     1
100
AcDbLine
 10
278.375000004
 20
170.900000002
 30
0.0
 11
278.5753465179999
 21
176.5097024059998
 31
0.0
  0
LINE
  5
16EE
330
1331
100
AcDbEntity
  8
0
  6
Continuous
 62
     1
100
AcDbLine
 10
290.250000004
 20
153.400000002
 30
0.0
 11
290.250000004
 21
178.400000002
 31
0.0
  0
LINE
  5
16EF
330
1331
100
AcDbEntity
  8
0
  6
Continuous
 62
     1
100
AcDbLine
 10
278.604914249
 20
158.5999265629998
 30
0.0
 11
278.604914249
 21
155.5999265629998
 31
0.0
  0
LINE
  5
16F0
330
1331
100
AcDbEntity
  8
0
  6
Continuous
 62
     1
100
AcDbLine
 10
278.604914249
 20
155.5999265629998
 30
0.0
 11
279.500000004
 21
154.406478889
 31
0.0
  0
LINE
  5
16F1
330
1331
100
AcDbEntity
  8
0
  6
Continuous
 62
     1
100
AcDbLine
 10
279.750000004
 20
153.400000002
 30
0.0
 11
279.750000004
 21
159.4031926059995
 31
0.0
  0
LINE
  5
16F2
330
1331
100
AcDbEntity
  8
0
  6
Continuous
 62
     1
100
AcDbLine
 10
279.750000004
 20
159.4031926059995
 30
0.0
 11
278.375000004
 21
159.4031926059995
 31
0.0
  0
LINE
  5
16F3
330
1331
100
AcDbEntity
  8
0
  6
Continuous
 62
     1
100
AcDbLine
 10
278.3555023129998
 20
158.600000002
 30
0.0
 11
279.750000004
 21
158.600000002
 31
0.0
  0
LINE
  5
16F4
330
1331
100
AcDbEntity
  8
0
  6
Continuous
 62
     1
100
AcDbLine
 10
278.354914249
 20
158.5999265629998
 30
0.0
 11
278.354914249
 21
159.4031926059995
 31
0.0
  0
LINE
  5
16F5
330
1331
100
AcDbEntity
  8
0
  6
Continuous
 62
     1
100
AcDbLine
 10
278.375000004
 20
159.4031926059995
 30
0.0
 11
278.375000004
 21
170.778192606
 31
0.0
  0
LINE
  5
16F6
330
1331
100
AcDbEntity
  8
0
  6
Continuous
 62
     1
100
AcDbLine
 10
369.9907650459999
 20
177.9547493459998
 30
0.0
 11
359.750000006
 21
178.4000000009999
 31
0.0
  0
ARC
  5
16F7
330
1331
100
AcDbEntity
  8
0
  6
Continuous
 62
     1
100
AcDbCircle
 10
369.92560921
 20
176.456165109
 30
0.0
 40
1.5
100
AcDbArc
 50
2.045408488
 51
87.510447078
  0
LINE
  5
16F8
330
1331
100
AcDbEntity
  8
0
  6
Continuous
 62
     1
100
AcDbLine
 10
371.625000006
 20
170.9
 30
0.0
 11
371.4246534909999
 21
176.509702405
 31
0.0
  0
LINE
  5
16F9
330
1331
100
AcDbEntity
  8
0
  6
Continuous
 62
     1
100
AcDbLine
 10
359.750000005
 20
153.4000000009999
 30
0.0
 11
359.750000006
 21
178.4000000009999
 31
0.0
  0
LINE
  5
16FA
330
1331
100
AcDbEntity
  8
0
  6
Continuous
 62
     1
100
AcDbLine
 10
371.625000006
 20
159.4031926049999
 30
0.0
 11
371.625000006
 21
170.778192605
 31
0.0
  0
LINE
  5
16FB
330
1331
100
AcDbEntity
  8
0
  6
Continuous
 62
     1
100
AcDbLine
 10
370.250000005
 20
153.3999999999998
 30
0.0
 11
370.250000006
 21
159.4031926049999
 31
0.0
  0
LINE
  5
16FC
330
1331
100
AcDbEntity
  8
0
  6
Continuous
 62
     1
100
AcDbLine
 10
370.250000006
 20
159.4031926049999
 30
0.0
 11
371.625000006
 21
159.4031926049999
 31
0.0
  0
LINE
  5
16FD
330
1331
100
AcDbEntity
  8
0
  6
Continuous
 62
     1
100
AcDbLine
 10
371.644497694
 20
158.599999997
 30
0.0
 11
370.250000005
 21
158.599999997
 31
0.0
  0
LINE
  5
16FE
330
1331
100
AcDbEntity
  8
0
  6
Continuous
 62
     1
100
AcDbLine
 10
371.645085759
 20
158.599926557
 30
0.0
 11
371.645085759
 21
159.4031926049999
 31
0.0
  0
ARC
  5
16FF
330
1331
100
AcDbEntity
  8
0
  6
Continuous
 62
     1
100
AcDbCircle
 10
370.000000004
 20
154.899999997
 30
0.0
 40
0.5
100
AcDbArc
 50
0.0
 51
59.99999976300001
  0
LINE
  5
1700
330
1331
100
AcDbEntity
  8
0
  6
Continuous
 62
     1
100
AcDbLine
 10
358.804497694
 20
158.599999997
 30
0.0
 11
359.750000005
 21
158.599999997
 31
0.0
  0
LINE
  5
1701
330
1331
100
AcDbEntity
  8
0
  6
Continuous
 62
     1
100
AcDbLine
 10
359.750000005
 20
158.399999997
 30
0.0
 11
357.361627705
 21
158.399999997
 31
0.0
  0
LINE
  5
1702
330
1331
100
AcDbEntity
  8
0
  6
Continuous
 62
     1
100
AcDbLine
 10
359.750000006
 20
162.2999265579998
 30
0.0
 11
358.805085759
 21
162.2999265579998
 31
0.0
  0
LINE
  5
1703
330
1331
100
AcDbEntity
  8
0
  6
Continuous
 62
     3
100
AcDbLine
 10
380.0000000019998
 20
135.999999996
 30
0.0
 11
380.517638093
 21
137.9318516479999
 31
0.0
  0
LINE
  5
1704
330
1331
100
AcDbEntity
  8
0
  6
Continuous
 62
     3
100
AcDbLine
 10
380.0000000019998
 20
135.999999996
 30
0.0
 11
379.4823619119998
 21
137.9318516479999
 31
0.0
  0
LINE
  5
1705
330
1331
100
AcDbEntity
  8
0
  6
Continuous
 62
     3
100
AcDbLine
 10
380.0000000019998
 20
135.999999996
 30
0.0
 11
380.000000003
 21
178.3999999999998
 31
0.0
  0
LINE
  5
1706
330
1331
100
AcDbEntity
  8
0
  6
Continuous
 62
     3
100
AcDbLine
 10
380.000000003
 20
178.3999999999998
 30
0.0
 11
379.482361913
 21
176.4681483479994
 31
0.0
  0
LINE
  5
1707
330
1331
100
AcDbEntity
  8
0
  6
Continuous
 62
     3
100
AcDbLine
 10
380.000000003
 20
178.3999999999998
 30
0.0
 11
380.517638093
 21
176.4681483479994
 31
0.0
  0
LINE
  5
1708
330
1331
100
AcDbEntity
  8
0
  6
Continuous
 62
     3
100
AcDbLine
 10
360.7500000059999
 20
178.3999999999998
 30
0.0
 11
381.000000003
 21
178.3999999999998
 31
0.0
  0
LINE
  5
1709
330
1331
100
AcDbEntity
  8
0
  6
Continuous
 62
     3
100
AcDbLine
 10
354.70000001
 20
106.149999991
 30
0.0
 11
295.30000001
 21
106.149999995
 31
0.0
  0
LINE
  5
170A
330
1331
100
AcDbEntity
  8
0
  6
Continuous
 62
     3
100
AcDbLine
 10
354.7000000069999
 20
61.849999991
 30
0.0
 11
354.70000001
 21
106.149999991
 31
0.0
  0
LINE
  5
170B
330
1331
100
AcDbEntity
  8
0
  6
Continuous
 62
     3
100
AcDbLine
 10
295.30000001
 20
106.149999995
 30
0.0
 11
295.3000000069998
 21
66.849999995
 31
0.0
  0
LINE
  5
170C
330
1331
100
AcDbEntity
  8
0
  6
Continuous
 62
     3
100
AcDbLine
 10
300.300000007
 20
61.84999999399999
 30
0.0
 11
354.7000000069999
 21
61.849999991
 31
0.0
  0
LINE
  5
170D
330
1331
100
AcDbEntity
  8
0
  6
Continuous
 62
     3
100
AcDbLine
 10
294.1000000079998
 20
83.25036631899996
 30
0.0
 11
292.600000008
 21
83.24999999399999
 31
0.0
  0
LINE
  5
170E
330
1331
100
AcDbEntity
  8
0
  6
Continuous
 62
     3
100
AcDbLine
 10
294.100000009
 20
84.85463366999999
 30
0.0
 11
292.600000009
 21
84.85499999399998
 31
0.0
  0
LINE
  5
170F
330
1331
100
AcDbEntity
  8
0
  6
Continuous
 62
     3
100
AcDbLine
 10
292.600000008
 20
83.144999994
 30
0.0
 11
294.1000000079998
 21
83.14536631999997
 31
0.0
  0
LINE
  5
1710
330
1331
100
AcDbEntity
  8
0
  6
Continuous
 62
     3
100
AcDbLine
 10
294.100000009
 20
84.74963366899999
 30
0.0
 11
292.600000009
 21
84.74999999399999
 31
0.0
  0
LINE
  5
1711
330
1331
100
AcDbEntity
  8
0
  6
Continuous
 62
     3
100
AcDbLine
 10
362.50000001
 20
104.0499999899999
 30
0.0
 11
362.50000001
 21
103.0499999899999
 31
0.0
  0
LINE
  5
1712
330
1331
100
AcDbEntity
  8
0
  6
Continuous
 62
     3
100
AcDbLine
 10
362.50000001
 20
103.0499999899999
 30
0.0
 11
367.50000001
 21
103.0499999899999
 31
0.0
  0
LINE
  5
1713
330
1331
100
AcDbEntity
  8
0
  6
Continuous
 62
     3
100
AcDbLine
 10
367.50000001
 20
103.0499999899999
 30
0.0
 11
367.50000001
 21
104.0499999899999
 31
0.0
  0
LINE
  5
1714
330
1331
100
AcDbEntity
  8
0
  6
Continuous
 62
     3
100
AcDbLine
 10
362.500000007
 20
64.94999999
 30
0.0
 11
362.500000007
 21
63.94999999
 31
0.0
  0
LINE
  5
1715
330
1331
100
AcDbEntity
  8
0
  6
Continuous
 62
     3
100
AcDbLine
 10
367.5000000069998
 20
64.94999999
 30
0.0
 11
362.500000007
 21
64.94999999
 31
0.0
  0
LINE
  5
1716
330
1331
100
AcDbEntity
  8
0
  6
Continuous
 62
     3
100
AcDbLine
 10
367.5000000069998
 20
63.94999999
 30
0.0
 11
367.5000000069998
 21
64.94999999
 31
0.0
  0
LINE
  5
1717
330
1331
100
AcDbEntity
  8
0
  6
Continuous
 62
     3
100
AcDbLine
 10
294.1000000079998
 20
83.14536631999997
 30
0.0
 11
294.100000009
 21
84.85463366999999
 31
0.0
  0
LINE
  5
1718
330
1331
100
AcDbEntity
  8
0
  6
Continuous
 62
     3
100
AcDbLine
 10
294.1000000099998
 20
104.1457326459999
 30
0.0
 11
294.1000000099998
 21
105.854999996
 31
0.0
  0
LINE
  5
1719
330
1331
100
AcDbEntity
  8
0
  6
Continuous
 62
     3
100
AcDbLine
 10
355.900000009
 20
88.24926734100001
 30
0.0
 11
357.4000000089997
 21
88.249633665
 31
0.0
  0
LINE
  5
171A
330
1331
100
AcDbEntity
  8
0
  6
Continuous
 62
     3
100
AcDbLine
 10
357.4000000089997
 20
88.35463366499999
 30
0.0
 11
355.900000009
 21
88.35426734
 31
0.0
  0
LINE
  5
171B
330
1331
100
AcDbEntity
  8
0
  6
Continuous
 62
     3
100
AcDbLine
 10
294.1000000099998
 20
105.7499999949999
 30
0.0
 11
292.6000000099998
 21
105.7503663199997
 31
0.0
  0
LINE
  5
171C
330
1331
100
AcDbEntity
  8
0
  6
Continuous
 62
     3
100
AcDbLine
 10
292.6000000099998
 20
104.1453663199995
 30
0.0
 11
294.1000000099998
 21
104.1457326459999
 31
0.0
  0
LINE
  5
171D
330
1331
100
AcDbEntity
  8
0
  6
Continuous
 62
     3
100
AcDbLine
 10
294.1000000099998
 20
105.854999996
 30
0.0
 11
292.6000000099998
 21
105.85536632
 31
0.0
  0
LINE
  5
171E
330
1331
100
AcDbEntity
  8
0
  6
Continuous
 62
     3
100
AcDbLine
 10
355.900000009
 20
86.74999999099998
 30
0.0
 11
357.4000000089997
 21
86.749633665
 31
0.0
  0
LINE
  5
171F
330
1331
100
AcDbEntity
  8
0
  6
Continuous
 62
     3
100
AcDbLine
 10
355.900000009
 20
88.35426734
 30
0.0
 11
355.900000009
 21
86.64499999
 31
0.0
  0
LINE
  5
1720
330
1331
100
AcDbEntity
  8
0
  6
Continuous
 62
     3
100
AcDbLine
 10
355.900000008
 20
81.249267341
 30
0.0
 11
357.400000008
 21
81.24963366500002
 31
0.0
  0
LINE
  5
1721
330
1331
100
AcDbEntity
  8
0
  6
Continuous
 62
     3
100
AcDbLine
 10
294.1000000099998
 20
104.2507326449999
 30
0.0
 11
292.6000000099998
 21
104.2503663199999
 31
0.0
  0
LINE
  5
1722
330
1331
100
AcDbEntity
  8
0
  6
Continuous
 62
     3
100
AcDbLine
 10
294.1000000099998
 20
100.645732646
 30
0.0
 11
294.1000000099998
 21
102.3549999959999
 31
0.0
  0
LINE
  5
1723
330
1331
100
AcDbEntity
  8
0
  6
Continuous
 62
     3
100
AcDbLine
 10
294.1000000099998
 20
102.2499999949999
 30
0.0
 11
292.6000000099998
 21
102.2503663199999
 31
0.0
  0
LINE
  5
1724
330
1331
100
AcDbEntity
  8
0
  6
Continuous
 62
     3
100
AcDbLine
 10
357.400000008
 20
81.35463366499998
 30
0.0
 11
355.900000008
 21
81.35426734000002
 31
0.0
  0
LINE
  5
1725
330
1331
100
AcDbEntity
  8
0
  6
Continuous
 62
     3
100
AcDbLine
 10
292.6000000099998
 20
100.6453663199998
 30
0.0
 11
294.1000000099998
 21
100.645732646
 31
0.0
  0
LINE
  5
1726
330
1331
100
AcDbEntity
  8
0
  6
Continuous
 62
     3
100
AcDbLine
 10
294.1000000099998
 20
102.3549999959999
 30
0.0
 11
292.6000000099998
 21
102.3553663199999
 31
0.0
  0
LINE
  5
1727
330
1331
100
AcDbEntity
  8
0
  6
Continuous
 62
     3
100
AcDbLine
 10
294.1000000099998
 20
100.750732645
 30
0.0
 11
292.6000000099998
 21
100.75036632
 31
0.0
  0
LINE
  5
1728
330
1331
100
AcDbEntity
  8
0
  6
Continuous
 62
     3
100
AcDbLine
 10
294.100000009
 20
97.14573264600005
 30
0.0
 11
294.1000000099998
 21
98.854999996
 31
0.0
  0
LINE
  5
1729
330
1331
100
AcDbEntity
  8
0
  6
Continuous
 62
     3
100
AcDbLine
 10
294.1000000099998
 20
98.74999999499999
 30
0.0
 11
292.6000000099998
 21
98.75036632
 31
0.0
  0
LINE
  5
172A
330
1331
100
AcDbEntity
  8
0
  6
Continuous
 62
     3
100
AcDbLine
 10
355.900000008
 20
79.74999999100001
 30
0.0
 11
357.400000008
 21
79.749633665
 31
0.0
  0
LINE
  5
172B
330
1331
100
AcDbEntity
  8
0
  6
Continuous
 62
     3
100
AcDbLine
 10
300.300000007
 20
61.84999999399999
 30
0.0
 11
295.3000000069998
 21
66.849999995
 31
0.0
  0
LINE
  5
172C
330
1331
100
AcDbEntity
  8
0
  6
Continuous
 62
     3
100
AcDbLine
 10
355.900000008
 20
81.35426734000002
 30
0.0
 11
355.900000008
 21
79.64499999
 31
0.0
  0
LINE
  5
172D
330
1331
100
AcDbEntity
  8
0
  6
Continuous
 62
     3
100
AcDbLine
 10
355.900000009
 20
91.74926734100001
 30
0.0
 11
357.4000000089997
 21
91.749633665
 31
0.0
  0
LINE
  5
172E
330
1331
100
AcDbEntity
  8
0
  6
Continuous
 62
     3
100
AcDbLine
 10
355.900000009
 20
90.14499998999999
 30
0.0
 11
357.4000000089997
 21
90.14463366500001
 31
0.0
  0
LINE
  5
172F
330
1331
100
AcDbEntity
  8
0
  6
Continuous
 62
     3
100
AcDbLine
 10
357.4000000089997
 20
91.854633665
 30
0.0
 11
355.900000009
 21
91.85426734000001
 31
0.0
  0
LINE
  5
1730
330
1331
100
AcDbEntity
  8
0
  6
Continuous
 62
     3
100
AcDbLine
 10
355.900000009
 20
90.24999999100002
 30
0.0
 11
357.4000000089997
 21
90.24963366500001
 31
0.0
  0
LINE
  5
1731
330
1331
100
AcDbEntity
  8
0
  6
Continuous
 62
     3
100
AcDbLine
 10
355.900000009
 20
91.85426734000001
 30
0.0
 11
355.900000009
 21
90.14499998999999
 31
0.0
  0
LINE
  5
1732
330
1331
100
AcDbEntity
  8
0
  6
Continuous
 62
     3
100
AcDbLine
 10
355.900000009
 20
95.24926734100001
 30
0.0
 11
357.4000000089997
 21
95.24963366500001
 31
0.0
  0
LINE
  5
1733
330
1331
100
AcDbEntity
  8
0
  6
Continuous
 62
     3
100
AcDbLine
 10
292.600000009
 20
97.14536631999999
 30
0.0
 11
294.100000009
 21
97.14573264600005
 31
0.0
  0
LINE
  5
1734
330
1331
100
AcDbEntity
  8
0
  6
Continuous
 62
     3
100
AcDbLine
 10
294.1000000099998
 20
98.854999996
 30
0.0
 11
292.6000000099998
 21
98.85536632
 31
0.0
  0
LINE
  5
1735
330
1331
100
AcDbEntity
  8
0
  6
Continuous
 62
     3
100
AcDbLine
 10
294.100000009
 20
97.25073264500002
 30
0.0
 11
292.600000009
 21
97.25036632
 31
0.0
  0
LINE
  5
1736
330
1331
100
AcDbEntity
  8
0
  6
Continuous
 62
     3
100
AcDbLine
 10
355.900000009
 20
93.64499999000001
 30
0.0
 11
357.4000000089997
 21
93.644633665
 31
0.0
  0
LINE
  5
1737
330
1331
100
AcDbEntity
  8
0
  6
Continuous
 62
     3
100
AcDbLine
 10
357.4000000089997
 20
95.354633665
 30
0.0
 11
355.900000009
 21
95.35426734000001
 31
0.0
  0
LINE
  5
1738
330
1331
100
AcDbEntity
  8
0
  6
Continuous
 62
     3
100
AcDbLine
 10
355.900000009
 20
93.74999999100001
 30
0.0
 11
357.4000000089997
 21
93.74963366500001
 31
0.0
  0
LINE
  5
1739
330
1331
100
AcDbEntity
  8
0
  6
Continuous
 62
     3
100
AcDbLine
 10
294.100000009
 20
93.64573264600002
 30
0.0
 11
294.100000009
 21
95.354999996
 31
0.0
  0
LINE
  5
173A
330
1331
100
AcDbEntity
  8
0
  6
Continuous
 62
     3
100
AcDbLine
 10
294.100000009
 20
95.249999995
 30
0.0
 11
292.600000009
 21
95.25036632
 31
0.0
  0
LINE
  5
173B
330
1331
100
AcDbEntity
  8
0
  6
Continuous
 62
     3
100
AcDbLine
 10
292.600000009
 20
93.64536632
 30
0.0
 11
294.100000009
 21
93.64573264600002
 31
0.0
  0
LINE
  5
173C
330
1331
100
AcDbEntity
  8
0
  6
Continuous
 62
     3
100
AcDbLine
 10
355.900000009
 20
95.35426734000001
 30
0.0
 11
355.900000009
 21
93.64499999000001
 31
0.0
  0
LINE
  5
173D
330
1331
100
AcDbEntity
  8
0
  6
Continuous
 62
     3
100
AcDbLine
 10
355.9000000099998
 20
98.749267341
 30
0.0
 11
357.4000000099998
 21
98.74963366500001
 31
0.0
  0
LINE
  5
173E
330
1331
100
AcDbEntity
  8
0
  6
Continuous
 62
     3
100
AcDbLine
 10
355.900000009
 20
97.14499999
 30
0.0
 11
357.4000000089997
 21
97.144633665
 31
0.0
  0
LINE
  5
173F
330
1331
100
AcDbEntity
  8
0
  6
Continuous
 62
     3
100
AcDbLine
 10
294.100000009
 20
95.354999996
 30
0.0
 11
292.600000009
 21
95.35536632000001
 31
0.0
  0
LINE
  5
1740
330
1331
100
AcDbEntity
  8
0
  6
Continuous
 62
     3
100
AcDbLine
 10
294.100000009
 20
93.75073264500001
 30
0.0
 11
292.600000009
 21
93.75036632
 31
0.0
  0
LINE
  5
1741
330
1331
100
AcDbEntity
  8
0
  6
Continuous
 62
     3
100
AcDbLine
 10
294.100000009
 20
90.14573264600002
 30
0.0
 11
294.100000009
 21
91.85499999600001
 31
0.0
  0
LINE
  5
1742
330
1331
100
AcDbEntity
  8
0
  6
Continuous
 62
     3
100
AcDbLine
 10
357.4000000099998
 20
98.85463366499999
 30
0.0
 11
355.9000000099998
 21
98.85426734000001
 31
0.0
  0
LINE
  5
1743
330
1331
100
AcDbEntity
  8
0
  6
Continuous
 62
     3
100
AcDbLine
 10
355.900000009
 20
97.24999999100001
 30
0.0
 11
357.4000000089997
 21
97.249633665
 31
0.0
  0
LINE
  5
1744
330
1331
100
AcDbEntity
  8
0
  6
Continuous
 62
     3
100
AcDbLine
 10
355.9000000099998
 20
98.85426734000001
 30
0.0
 11
355.900000009
 21
97.14499999
 31
0.0
  0
LINE
  5
1745
330
1331
100
AcDbEntity
  8
0
  6
Continuous
 62
     3
100
AcDbLine
 10
294.100000009
 20
91.749999995
 30
0.0
 11
292.600000009
 21
91.75036631999999
 31
0.0
  0
LINE
  5
1746
330
1331
100
AcDbEntity
  8
0
  6
Continuous
 62
     3
100
AcDbLine
 10
292.600000009
 20
90.14536632
 30
0.0
 11
294.100000009
 21
90.14573264600002
 31
0.0
  0
LINE
  5
1747
330
1331
100
AcDbEntity
  8
0
  6
Continuous
 62
     3
100
AcDbLine
 10
294.100000009
 20
91.85499999600001
 30
0.0
 11
292.600000009
 21
91.85536631999999
 31
0.0
  0
LINE
  5
1748
330
1331
100
AcDbEntity
  8
0
  6
Continuous
 62
     3
100
AcDbLine
 10
355.9000000099998
 20
102.249267341
 30
0.0
 11
357.4000000099998
 21
102.249633665
 31
0.0
  0
LINE
  5
1749
330
1331
100
AcDbEntity
  8
0
  6
Continuous
 62
     3
100
AcDbLine
 10
355.9000000099998
 20
100.64499999
 30
0.0
 11
357.4000000099998
 21
100.644633665
 31
0.0
  0
LINE
  5
174A
330
1331
100
AcDbEntity
  8
0
  6
Continuous
 62
     3
100
AcDbLine
 10
357.4000000099998
 20
102.3546336649997
 30
0.0
 11
355.9000000099998
 21
102.35426734
 31
0.0
  0
LINE
  5
174B
330
1331
100
AcDbEntity
  8
0
  6
Continuous
 62
     3
100
AcDbLine
 10
294.100000009
 20
90.25073264499999
 30
0.0
 11
292.600000009
 21
90.25036632
 31
0.0
  0
LINE
  5
174C
330
1331
100
AcDbEntity
  8
0
  6
Continuous
 62
     3
100
AcDbLine
 10
294.100000007
 20
62.14573264600001
 30
0.0
 11
294.100000007
 21
63.854999996
 31
0.0
  0
LINE
  5
174D
330
1331
100
AcDbEntity
  8
0
  6
Continuous
 62
     3
100
AcDbLine
 10
294.100000007
 20
63.749999995
 30
0.0
 11
292.600000007
 21
63.75036632
 31
0.0
  0
LINE
  5
174E
330
1331
100
AcDbEntity
  8
0
  6
Continuous
 62
     3
100
AcDbLine
 10
355.9000000099998
 20
100.749999991
 30
0.0
 11
357.4000000099998
 21
100.749633665
 31
0.0
  0
LINE
  5
174F
330
1331
100
AcDbEntity
  8
0
  6
Continuous
 62
     3
100
AcDbLine
 10
355.9000000099998
 20
102.35426734
 30
0.0
 11
355.9000000099998
 21
100.64499999
 31
0.0
  0
LINE
  5
1750
330
1331
100
AcDbEntity
  8
0
  6
Continuous
 62
     3
100
AcDbLine
 10
355.9000000099998
 20
105.749267341
 30
0.0
 11
357.4000000099998
 21
105.749633665
 31
0.0
  0
LINE
  5
1751
330
1331
100
AcDbEntity
  8
0
  6
Continuous
 62
     3
100
AcDbLine
 10
355.900000009
 20
86.64499999
 30
0.0
 11
357.4000000089997
 21
86.64463366499999
 31
0.0
  0
LINE
  5
1752
330
1331
100
AcDbEntity
  8
0
  6
Continuous
 62
     3
100
AcDbLine
 10
292.600000007
 20
62.14536632
 30
0.0
 11
294.100000007
 21
62.14573264600001
 31
0.0
  0
LINE
  5
1753
330
1331
100
AcDbEntity
  8
0
  6
Continuous
 62
     3
100
AcDbLine
 10
294.100000007
 20
63.854999996
 30
0.0
 11
292.600000007
 21
63.85536632
 31
0.0
  0
LINE
  5
1754
330
1331
100
AcDbEntity
  8
0
  6
Continuous
 62
     3
100
AcDbLine
 10
294.100000007
 20
62.250732645
 30
0.0
 11
292.600000007
 21
62.25036632
 31
0.0
  0
LINE
  5
1755
330
1331
100
AcDbEntity
  8
0
  6
Continuous
 62
     3
100
AcDbLine
 10
294.100000007
 20
65.64573264599999
 30
0.0
 11
294.100000007
 21
67.354999996
 31
0.0
  0
LINE
  5
1756
330
1331
100
AcDbEntity
  8
0
  6
Continuous
 62
     3
100
AcDbLine
 10
294.100000007
 20
67.24999999499999
 30
0.0
 11
292.600000007
 21
67.25036632
 31
0.0
  0
LINE
  5
1757
330
1331
100
AcDbEntity
  8
0
  6
Continuous
 62
     3
100
AcDbLine
 10
292.600000007
 20
65.64536631999999
 30
0.0
 11
294.100000007
 21
65.64573264599999
 31
0.0
  0
LINE
  5
1758
330
1331
100
AcDbEntity
  8
0
  6
Continuous
 62
     3
100
AcDbLine
 10
294.100000007
 20
67.354999996
 30
0.0
 11
292.600000007
 21
67.35536632
 31
0.0
  0
LINE
  5
1759
330
1331
100
AcDbEntity
  8
0
  6
Continuous
 62
     3
100
AcDbLine
 10
294.100000007
 20
65.750732645
 30
0.0
 11
292.600000007
 21
65.75036631999998
 31
0.0
  0
LINE
  5
175A
330
1331
100
AcDbEntity
  8
0
  6
Continuous
 62
     3
100
AcDbLine
 10
294.100000007
 20
69.145732646
 30
0.0
 11
294.1000000079998
 21
70.854999996
 31
0.0
  0
LINE
  5
175B
330
1331
100
AcDbEntity
  8
0
  6
Continuous
 62
     3
100
AcDbLine
 10
294.1000000079998
 20
70.749999995
 30
0.0
 11
292.600000008
 21
70.75036631999998
 31
0.0
  0
LINE
  5
175C
330
1331
100
AcDbEntity
  8
0
  6
Continuous
 62
     3
100
AcDbLine
 10
292.600000007
 20
69.14536631999999
 30
0.0
 11
294.100000007
 21
69.145732646
 31
0.0
  0
LINE
  5
175D
330
1331
100
AcDbEntity
  8
0
  6
Continuous
 62
     3
100
AcDbLine
 10
294.1000000079998
 20
70.854999996
 30
0.0
 11
292.600000008
 21
70.85536632
 31
0.0
  0
LINE
  5
175E
330
1331
100
AcDbEntity
  8
0
  6
Continuous
 62
     3
100
AcDbLine
 10
294.100000007
 20
69.25073264499999
 30
0.0
 11
292.600000007
 21
69.25036632
 31
0.0
  0
LINE
  5
175F
330
1331
100
AcDbEntity
  8
0
  6
Continuous
 62
     3
100
AcDbLine
 10
294.1000000079998
 20
72.645732646
 30
0.0
 11
294.1000000079998
 21
74.35499999600001
 31
0.0
  0
LINE
  5
1760
330
1331
100
AcDbEntity
  8
0
  6
Continuous
 62
     3
100
AcDbLine
 10
294.1000000079998
 20
74.24999999499998
 30
0.0
 11
292.600000008
 21
74.25036632
 31
0.0
  0
LINE
  5
1761
330
1331
100
AcDbEntity
  8
0
  6
Continuous
 62
     3
100
AcDbLine
 10
292.600000008
 20
72.64536631999998
 30
0.0
 11
294.1000000079998
 21
72.645732646
 31
0.0
  0
LINE
  5
1762
330
1331
100
AcDbEntity
  8
0
  6
Continuous
 62
     3
100
AcDbLine
 10
294.1000000079998
 20
74.35499999600001
 30
0.0
 11
292.600000008
 21
74.35536632
 31
0.0
  0
LINE
  5
1763
330
1331
100
AcDbEntity
  8
0
  6
Continuous
 62
     3
100
AcDbLine
 10
294.1000000079998
 20
72.750732645
 30
0.0
 11
292.600000008
 21
72.75036631999999
 31
0.0
  0
LINE
  5
1764
330
1331
100
AcDbEntity
  8
0
  6
Continuous
 62
     3
100
AcDbLine
 10
294.1000000079998
 20
76.145732646
 30
0.0
 11
294.1000000079998
 21
77.854999996
 31
0.0
  0
LINE
  5
1765
330
1331
100
AcDbEntity
  8
0
  6
Continuous
 62
     3
100
AcDbLine
 10
294.1000000079998
 20
77.74999999499998
 30
0.0
 11
292.600000008
 21
77.75036631999999
 31
0.0
  0
LINE
  5
1766
330
1331
100
AcDbEntity
  8
0
  6
Continuous
 62
     3
100
AcDbLine
 10
292.600000008
 20
76.14536631999998
 30
0.0
 11
294.1000000079998
 21
76.145732646
 31
0.0
  0
LINE
  5
1767
330
1331
100
AcDbEntity
  8
0
  6
Continuous
 62
     3
100
AcDbLine
 10
294.1000000079998
 20
77.854999996
 30
0.0
 11
292.600000008
 21
77.85536632
 31
0.0
  0
LINE
  5
1768
330
1331
100
AcDbEntity
  8
0
  6
Continuous
 62
     3
100
AcDbLine
 10
294.1000000079998
 20
76.250732645
 30
0.0
 11
292.600000008
 21
76.25036632
 31
0.0
  0
LINE
  5
1769
330
1331
100
AcDbEntity
  8
0
  6
Continuous
 62
     3
100
AcDbLine
 10
294.100000009
 20
86.64573264599999
 30
0.0
 11
294.100000009
 21
88.35499999600001
 31
0.0
  0
LINE
  5
176A
330
1331
100
AcDbEntity
  8
0
  6
Continuous
 62
     3
100
AcDbLine
 10
294.100000009
 20
88.24999999499999
 30
0.0
 11
292.600000009
 21
88.25036631999996
 31
0.0
  0
LINE
  5
176B
330
1331
100
AcDbEntity
  8
0
  6
Continuous
 62
     3
100
AcDbLine
 10
292.600000009
 20
86.64536631999999
 30
0.0
 11
294.100000009
 21
86.64573264599999
 31
0.0
  0
LINE
  5
176C
330
1331
100
AcDbEntity
  8
0
  6
Continuous
 62
     3
100
AcDbLine
 10
294.100000009
 20
88.35499999600001
 30
0.0
 11
292.600000009
 21
88.35536632
 31
0.0
  0
LINE
  5
176D
330
1331
100
AcDbEntity
  8
0
  6
Continuous
 62
     3
100
AcDbLine
 10
294.100000009
 20
86.75073264499998
 30
0.0
 11
292.600000009
 21
86.75036631999999
 31
0.0
  0
LINE
  5
176E
330
1331
100
AcDbEntity
  8
0
  6
Continuous
 62
     3
100
AcDbLine
 10
294.1000000079998
 20
79.645732646
 30
0.0
 11
294.1000000079998
 21
81.354999996
 31
0.0
  0
LINE
  5
176F
330
1331
100
AcDbEntity
  8
0
  6
Continuous
 62
     3
100
AcDbLine
 10
294.1000000079998
 20
81.24999999499998
 30
0.0
 11
292.600000008
 21
81.25036632
 31
0.0
  0
LINE
  5
1770
330
1331
100
AcDbEntity
  8
0
  6
Continuous
 62
     3
100
AcDbLine
 10
292.600000008
 20
79.64536631999997
 30
0.0
 11
294.1000000079998
 21
79.645732646
 31
0.0
  0
LINE
  5
1771
330
1331
100
AcDbEntity
  8
0
  6
Continuous
 62
     3
100
AcDbLine
 10
294.1000000079998
 20
81.354999996
 30
0.0
 11
292.600000008
 21
81.35536632
 31
0.0
  0
LINE
  5
1772
330
1331
100
AcDbEntity
  8
0
  6
Continuous
 62
     3
100
AcDbLine
 10
294.1000000079998
 20
79.750732645
 30
0.0
 11
292.600000008
 21
79.75036632
 31
0.0
  0
LINE
  5
1773
330
1331
100
AcDbEntity
  8
0
  6
Continuous
 62
     3
100
AcDbLine
 10
355.9000000099998
 20
104.1449999899999
 30
0.0
 11
357.4000000099998
 21
104.1446336649999
 31
0.0
  0
LINE
  5
1774
330
1331
100
AcDbEntity
  8
0
  6
Continuous
 62
     3
100
AcDbLine
 10
357.4000000099998
 20
105.8546336649996
 30
0.0
 11
355.9000000099998
 21
105.85426734
 31
0.0
  0
LINE
  5
1775
330
1331
100
AcDbEntity
  8
0
  6
Continuous
 62
     3
100
AcDbLine
 10
355.9000000099998
 20
104.249999991
 30
0.0
 11
357.4000000099998
 21
104.2496336649999
 31
0.0
  0
LINE
  5
1776
330
1331
100
AcDbEntity
  8
0
  6
Continuous
 62
     3
100
AcDbLine
 10
355.9000000099998
 20
105.85426734
 30
0.0
 11
355.9000000099998
 21
104.1449999899999
 31
0.0
  0
LINE
  5
1777
330
1331
100
AcDbEntity
  8
0
  6
Continuous
 62
     3
100
AcDbLine
 10
355.900000008
 20
77.74926734100001
 30
0.0
 11
357.400000008
 21
77.749633665
 31
0.0
  0
LINE
  5
1778
330
1331
100
AcDbEntity
  8
0
  6
Continuous
 62
     3
100
AcDbLine
 10
355.900000008
 20
76.14499999
 30
0.0
 11
357.400000008
 21
76.144633665
 31
0.0
  0
LINE
  5
1779
330
1331
100
AcDbEntity
  8
0
  6
Continuous
 62
     3
100
AcDbLine
 10
357.400000008
 20
77.85463366499998
 30
0.0
 11
355.900000008
 21
77.85426734000002
 31
0.0
  0
LINE
  5
177A
330
1331
100
AcDbEntity
  8
0
  6
Continuous
 62
     3
100
AcDbLine
 10
355.900000008
 20
76.24999999100001
 30
0.0
 11
357.400000008
 21
76.24963366500002
 31
0.0
  0
LINE
  5
177B
330
1331
100
AcDbEntity
  8
0
  6
Continuous
 62
     3
100
AcDbLine
 10
355.900000008
 20
77.85426734000002
 30
0.0
 11
355.900000008
 21
76.14499999
 31
0.0
  0
LINE
  5
177C
330
1331
100
AcDbEntity
  8
0
  6
Continuous
 62
     3
100
AcDbLine
 10
355.900000008
 20
74.24926734100001
 30
0.0
 11
357.400000008
 21
74.249633665
 31
0.0
  0
LINE
  5
177D
330
1331
100
AcDbEntity
  8
0
  6
Continuous
 62
     3
100
AcDbLine
 10
355.900000008
 20
72.64499999
 30
0.0
 11
357.400000008
 21
72.644633665
 31
0.0
  0
LINE
  5
177E
330
1331
100
AcDbEntity
  8
0
  6
Continuous
 62
     3
100
AcDbLine
 10
357.400000008
 20
74.35463366499998
 30
0.0
 11
355.900000008
 21
74.35426734
 31
0.0
  0
LINE
  5
177F
330
1331
100
AcDbEntity
  8
0
  6
Continuous
 62
     3
100
AcDbLine
 10
355.900000008
 20
72.74999999100001
 30
0.0
 11
357.400000008
 21
72.749633665
 31
0.0
  0
LINE
  5
1780
330
1331
100
AcDbEntity
  8
0
  6
Continuous
 62
     3
100
AcDbLine
 10
355.900000008
 20
74.35426734
 30
0.0
 11
355.900000008
 21
72.64499999
 31
0.0
  0
LINE
  5
1781
330
1331
100
AcDbEntity
  8
0
  6
Continuous
 62
     3
100
AcDbLine
 10
355.900000008
 20
70.749267341
 30
0.0
 11
357.400000008
 21
70.74963366500002
 31
0.0
  0
LINE
  5
1782
330
1331
100
AcDbEntity
  8
0
  6
Continuous
 62
     3
100
AcDbLine
 10
355.9000000069999
 20
69.14499999
 30
0.0
 11
357.4000000069994
 21
69.144633665
 31
0.0
  0
LINE
  5
1783
330
1331
100
AcDbEntity
  8
0
  6
Continuous
 62
     3
100
AcDbLine
 10
357.400000008
 20
70.85463366499998
 30
0.0
 11
355.900000008
 21
70.85426734000002
 31
0.0
  0
LINE
  5
1784
330
1331
100
AcDbEntity
  8
0
  6
Continuous
 62
     3
100
AcDbLine
 10
355.9000000069999
 20
69.24999999100001
 30
0.0
 11
357.4000000069994
 21
69.249633665
 31
0.0
  0
LINE
  5
1785
330
1331
100
AcDbEntity
  8
0
  6
Continuous
 62
     3
100
AcDbLine
 10
355.900000008
 20
70.85426734000002
 30
0.0
 11
355.9000000069999
 21
69.14499999
 31
0.0
  0
LINE
  5
1786
330
1331
100
AcDbEntity
  8
0
  6
Continuous
 62
     3
100
AcDbLine
 10
355.9000000069999
 20
67.24926734100001
 30
0.0
 11
357.4000000069994
 21
67.249633665
 31
0.0
  0
LINE
  5
1787
330
1331
100
AcDbEntity
  8
0
  6
Continuous
 62
     3
100
AcDbLine
 10
355.9000000069999
 20
65.64499999
 30
0.0
 11
357.4000000069994
 21
65.644633665
 31
0.0
  0
LINE
  5
1788
330
1331
100
AcDbEntity
  8
0
  6
Continuous
 62
     3
100
AcDbLine
 10
357.4000000069994
 20
67.35463366499999
 30
0.0
 11
355.9000000069999
 21
67.35426734
 31
0.0
  0
LINE
  5
1789
330
1331
100
AcDbEntity
  8
0
  6
Continuous
 62
     3
100
AcDbLine
 10
355.9000000069999
 20
65.749999991
 30
0.0
 11
357.4000000069994
 21
65.749633665
 31
0.0
  0
LINE
  5
178A
330
1331
100
AcDbEntity
  8
0
  6
Continuous
 62
     3
100
AcDbLine
 10
355.9000000069999
 20
67.35426734
 30
0.0
 11
355.9000000069999
 21
65.64499999
 31
0.0
  0
LINE
  5
178B
330
1331
100
AcDbEntity
  8
0
  6
Continuous
 62
     3
100
AcDbLine
 10
355.9000000069999
 20
63.749267341
 30
0.0
 11
357.4000000069994
 21
63.749633665
 31
0.0
  0
LINE
  5
178C
330
1331
100
AcDbEntity
  8
0
  6
Continuous
 62
     3
100
AcDbLine
 10
355.9000000069999
 20
62.14499999
 30
0.0
 11
357.4000000069994
 21
62.144633665
 31
0.0
  0
LINE
  5
178D
330
1331
100
AcDbEntity
  8
0
  6
Continuous
 62
     3
100
AcDbLine
 10
357.4000000069994
 20
63.854633665
 30
0.0
 11
355.9000000069999
 21
63.85426734
 31
0.0
  0
LINE
  5
178E
330
1331
100
AcDbEntity
  8
0
  6
Continuous
 62
     3
100
AcDbLine
 10
355.9000000069999
 20
62.249999991
 30
0.0
 11
357.4000000069994
 21
62.24963366499999
 31
0.0
  0
LINE
  5
178F
330
1331
100
AcDbEntity
  8
0
  6
Continuous
 62
     3
100
AcDbLine
 10
355.9000000069999
 20
63.85426734
 30
0.0
 11
355.9000000069999
 21
62.14499999
 31
0.0
  0
LINE
  5
1790
330
1331
100
AcDbEntity
  8
0
  6
Continuous
 62
     3
100
AcDbLine
 10
355.900000009
 20
84.85463366599999
 30
0.0
 11
355.900000008
 21
83.14536631600001
 31
0.0
  0
LINE
  5
1791
330
1331
100
AcDbEntity
  8
0
  6
Continuous
 62
     3
100
AcDbLine
 10
355.900000008
 20
83.25036631699999
 30
0.0
 11
357.400000008
 21
83.24999999099999
 31
0.0
  0
LINE
  5
1792
330
1331
100
AcDbEntity
  8
0
  6
Continuous
 62
     3
100
AcDbLine
 10
357.4000000089997
 20
84.85499999099998
 30
0.0
 11
355.900000009
 21
84.85463366599999
 31
0.0
  0
LINE
  5
1793
330
1331
100
AcDbEntity
  8
0
  6
Continuous
 62
     3
100
AcDbLine
 10
355.900000008
 20
83.14536631600001
 30
0.0
 11
357.400000008
 21
83.144999991
 31
0.0
  0
LINE
  5
1794
330
1331
100
AcDbEntity
  8
0
  6
Continuous
 62
     3
100
AcDbLine
 10
355.900000009
 20
84.749633667
 30
0.0
 11
357.4000000089997
 21
84.74999999100001
 31
0.0
  0
LINE
  5
1795
330
1331
100
AcDbEntity
  8
0
  6
Continuous
 62
     3
100
AcDbLine
 10
355.900000008
 20
79.64499999
 30
0.0
 11
357.400000008
 21
79.644633665
 31
0.0
  0
LINE
  5
1796
330
1331
100
AcDbEntity
  8
0
  6
Continuous
 62
     3
100
AcDbLine
 10
275.415000008
 20
73.000002694
 30
0.0
 11
275.4150000059999
 21
45.999999996
 31
0.0
  0
LINE
  5
1797
330
1331
100
AcDbEntity
  8
0
  6
Continuous
 62
     3
100
AcDbLine
 10
275.4150000059999
 20
46.99999999600001
 30
0.0
 11
277.346851659
 21
46.48236190499999
 31
0.0
  0
LINE
  5
1798
330
1331
100
AcDbEntity
  8
0
  6
Continuous
 62
     3
100
AcDbLine
 10
275.4150000059999
 20
46.99999999600001
 30
0.0
 11
277.346851659
 21
47.517638086
 31
0.0
  0
LINE
  5
1799
330
1331
100
AcDbEntity
  8
0
  6
Continuous
 62
     3
100
AcDbLine
 10
275.4150000059999
 20
46.99999999600001
 30
0.0
 11
372.000000006
 21
46.99999999
 31
0.0
  0
LINE
  5
179A
330
1331
100
AcDbEntity
  8
0
  6
Continuous
 62
     3
100
AcDbLine
 10
372.000000006
 20
46.99999999
 30
0.0
 11
370.068148354
 21
47.51763807999998
 31
0.0
  0
LINE
  5
179B
330
1331
100
AcDbEntity
  8
0
  6
Continuous
 62
     3
100
AcDbLine
 10
372.000000006
 20
46.99999999
 30
0.0
 11
370.068148353
 21
46.4823619
 31
0.0
  0
LINE
  5
179C
330
1331
100
AcDbEntity
  8
0
  6
Continuous
 62
     3
100
AcDbLine
 10
372.0000000069997
 20
59.000002687
 30
0.0
 11
372.000000006
 21
45.99999999
 31
0.0
  0
LINE
  5
179D
330
1331
100
AcDbEntity
  8
0
  6
Continuous
 62
     3
100
AcDbLine
 10
372.000000006
 20
53.00000268699999
 30
0.0
 11
370.068148354
 21
53.517640777
 31
0.0
  0
LINE
  5
179E
330
1331
100
AcDbEntity
  8
0
  6
Continuous
 62
     3
100
AcDbLine
 10
372.000000006
 20
53.00000268699999
 30
0.0
 11
370.068148354
 21
52.482364597
 31
0.0
  0
LINE
  5
179F
330
1331
100
AcDbEntity
  8
0
  6
Continuous
 62
     3
100
AcDbLine
 10
372.000000006
 20
53.00000268699999
 30
0.0
 11
278.0000000059996
 21
53.00000269199999
 31
0.0
  0
LINE
  5
17A0
330
1331
100
AcDbEntity
  8
0
  6
Continuous
 62
     3
100
AcDbLine
 10
278.0000000059996
 20
53.00000269199999
 30
0.0
 11
279.931851659
 21
52.482364602
 31
0.0
  0
LINE
  5
17A1
330
1331
100
AcDbEntity
  8
0
  6
Continuous
 62
     3
100
AcDbLine
 10
278.0000000059996
 20
53.00000269199999
 30
0.0
 11
279.931851659
 21
53.517640783
 31
0.0
  0
LINE
  5
17A2
330
1331
100
AcDbEntity
  8
0
  6
Continuous
 62
     3
100
AcDbLine
 10
278.0000000069998
 20
59.00000269199999
 30
0.0
 11
278.0000000059996
 21
52.000002692
 31
0.0
  0
TEXT
  5
17A3
330
1331
100
AcDbEntity
  8
0
  6
Continuous
 62
     3
100
AcDbText
 10
323.3500000059996
 20
53.50000269
 30
0.1
 40
2.0
  1
９４
 41
0.8
  7
KANJI0
100
AcDbText
  0
LINE
  5
17A4
330
1331
100
AcDbEntity
  8
0
  6
Continuous
 62
     3
100
AcDbLine
 10
292.6000000099998
 20
108.4999999949999
 30
0.1
 11
292.6000000109997
 21
113.9999999949999
 31
0.1
  0
LINE
  5
17A5
330
1331
100
AcDbEntity
  8
0
  6
Continuous
 62
     3
100
AcDbLine
 10
292.6000000099998
 20
112.9999999949999
 30
0.0
 11
294.5318516629999
 21
112.482361905
 31
0.0
  0
LINE
  5
17A6
330
1331
100
AcDbEntity
  8
0
  6
Continuous
 62
     3
100
AcDbLine
 10
292.6000000099998
 20
112.9999999949999
 30
0.0
 11
294.5318516629999
 21
113.5176380849999
 31
0.0
  0
LINE
  5
17A7
330
1331
100
AcDbEntity
  8
0
  6
Continuous
 62
     3
100
AcDbLine
 10
292.6000000099998
 20
112.9999999949999
 30
0.0
 11
357.4000000099998
 21
112.999999991
 31
0.0
  0
LINE
  5
17A8
330
1331
100
AcDbEntity
  8
0
  6
Continuous
 62
     3
100
AcDbLine
 10
357.4000000099998
 20
112.999999991
 30
0.0
 11
355.468148358
 21
113.5176380809999
 31
0.0
  0
LINE
  5
17A9
330
1331
100
AcDbEntity
  8
0
  6
Continuous
 62
     3
100
AcDbLine
 10
357.4000000099998
 20
112.999999991
 30
0.0
 11
355.468148358
 21
112.482361901
 31
0.0
  0
LINE
  5
17AA
330
1331
100
AcDbEntity
  8
0
  6
Continuous
 62
     3
100
AcDbLine
 10
357.4000000099998
 20
108.500003805
 30
0.0
 11
357.4000000109999
 21
113.999999991
 31
0.0
  0
LINE
  5
17AB
330
1331
100
AcDbEntity
  8
0
  6
Continuous
 62
     3
100
AcDbLine
 10
264.551119669
 20
62.16285411
 30
0.0
 11
264.5511196699998
 21
63.836481401
 31
0.0
  0
LINE
  5
17AC
330
1331
100
AcDbEntity
  8
0
  6
Continuous
 62
     3
100
AcDbLine
 10
254.74987842
 20
63.74991125800001
 30
0.0
 11
266.5511196699998
 21
63.854633671
 31
0.0
  0
LINE
  5
17AD
330
1331
100
AcDbEntity
  8
0
  6
Continuous
 62
     3
100
AcDbLine
 10
266.551119669
 20
62.145366321
 30
0.0
 11
254.74987842
 21
62.250088735
 31
0.0
  0
LINE
  5
17AE
330
1331
100
AcDbEntity
  8
0
  6
Continuous
 62
     3
100
AcDbLine
 10
254.74987842
 20
62.24999999699999
 30
0.0
 11
254.74987842
 21
63.74999999699999
 31
0.0
  0
LINE
  5
17AF
330
1331
100
AcDbEntity
  8
0
  6
Continuous
 62
     3
100
AcDbLine
 10
264.551119672
 20
104.1628541099999
 30
0.0
 11
264.551119672
 21
105.8364814009999
 31
0.0
  0
LINE
  5
17B0
330
1331
100
AcDbEntity
  8
0
  6
Continuous
 62
     3
100
AcDbLine
 10
254.749878423
 20
105.7499112579999
 30
0.0
 11
266.551119672
 21
105.854633671
 31
0.0
  0
LINE
  5
17B1
330
1331
100
AcDbEntity
  8
0
  6
Continuous
 62
     3
100
AcDbLine
 10
266.551119672
 20
104.1453663209999
 30
0.0
 11
254.749878422
 21
104.250088735
 31
0.0
  0
LINE
  5
17B2
330
1331
100
AcDbEntity
  8
0
  6
Continuous
 62
     3
100
AcDbLine
 10
254.749878422
 20
104.2499999969999
 30
0.0
 11
254.749878423
 21
105.749999997
 31
0.0
  0
LINE
  5
17B3
330
1331
100
AcDbEntity
  8
0
  6
Continuous
 62
     3
100
AcDbLine
 10
243.15111967
 20
72.25999999699999
 30
0.0
 11
243.15111967
 21
73.75999999699999
 31
0.0
  0
LINE
  5
17B4
330
1331
100
AcDbEntity
  8
0
  6
Continuous
 62
     3
100
AcDbLine
 10
243.1511196709998
 20
95.73999999700001
 30
0.0
 11
243.1511196709998
 21
94.23999999700001
 31
0.0
  0
LINE
  5
17B5
330
1331
100
AcDbEntity
  8
0
  6
Continuous
 62
     3
100
AcDbLine
 10
246.6511196709998
 20
95.73999999700001
 30
0.0
 11
246.651119672
 21
99.23999999700001
 31
0.0
  0
LINE
  5
17B6
330
1331
100
AcDbEntity
  8
0
  6
Continuous
 62
     3
100
AcDbLine
 10
246.65111967
 20
73.75999999699999
 30
0.0
 11
246.6511196709998
 21
94.23999999700001
 31
0.0
  0
LINE
  5
17B7
330
1331
100
AcDbEntity
  8
0
  6
Continuous
 62
     3
100
AcDbLine
 10
246.65111967
 20
68.75999999699999
 30
0.0
 11
246.65111967
 21
72.25999999699999
 31
0.0
  0
LINE
  5
17B8
330
1331
100
AcDbEntity
  8
0
  6
Continuous
 62
     3
100
AcDbLine
 10
254.301119672
 20
98.19999999700002
 30
0.0
 11
254.3011196709996
 21
95.19999999700001
 31
0.0
  0
LINE
  5
17B9
330
1331
100
AcDbEntity
  8
0
  6
Continuous
 62
     3
100
AcDbLine
 10
254.3011196709996
 20
95.19999999700001
 30
0.0
 11
257.301119671
 21
95.19999999600001
 31
0.0
  0
LINE
  5
17BA
330
1331
100
AcDbEntity
  8
0
  6
Continuous
 62
     3
100
AcDbLine
 10
257.301119671
 20
95.19999999600001
 30
0.0
 11
257.301119672
 21
98.199999996
 31
0.0
  0
LINE
  5
17BB
330
1331
100
AcDbEntity
  8
0
  6
Continuous
 62
     3
100
AcDbLine
 10
257.301119672
 20
98.199999996
 30
0.0
 11
254.301119672
 21
98.19999999700002
 31
0.0
  0
LINE
  5
17BC
330
1331
100
AcDbEntity
  8
0
  6
Continuous
 62
     3
100
AcDbLine
 10
254.301119672
 20
98.19999999700002
 30
0.0
 11
253.051119672
 21
98.699999997
 31
0.0
  0
LINE
  5
17BD
330
1331
100
AcDbEntity
  8
0
  6
Continuous
 62
     3
100
AcDbLine
 10
253.051119671
 20
94.699999997
 30
0.0
 11
254.3011196709996
 21
95.19999999700001
 31
0.0
  0
LINE
  5
17BE
330
1331
100
AcDbEntity
  8
0
  6
Continuous
 62
     3
100
AcDbLine
 10
257.301119671
 20
95.19999999600001
 30
0.0
 11
258.5511196709999
 21
94.699999996
 31
0.0
  0
LINE
  5
17BF
330
1331
100
AcDbEntity
  8
0
  6
Continuous
 62
     3
100
AcDbLine
 10
257.301119672
 20
98.199999996
 30
0.0
 11
258.551119672
 21
98.699999996
 31
0.0
  0
LINE
  5
17C0
330
1331
100
AcDbEntity
  8
0
  6
Continuous
 62
     3
100
AcDbLine
 10
254.3011196709996
 20
93.11999999700001
 30
0.0
 11
254.3011196709996
 21
90.119999997
 31
0.0
  0
LINE
  5
17C1
330
1331
100
AcDbEntity
  8
0
  6
Continuous
 62
     3
100
AcDbLine
 10
254.3011196709996
 20
90.119999997
 30
0.0
 11
257.301119671
 21
90.119999996
 31
0.0
  0
LINE
  5
17C2
330
1331
100
AcDbEntity
  8
0
  6
Continuous
 62
     3
100
AcDbLine
 10
257.301119671
 20
90.119999996
 30
0.0
 11
257.301119671
 21
93.11999999600001
 31
0.0
  0
LINE
  5
17C3
330
1331
100
AcDbEntity
  8
0
  6
Continuous
 62
     3
100
AcDbLine
 10
257.301119671
 20
93.11999999600001
 30
0.0
 11
254.3011196709996
 21
93.11999999700001
 31
0.0
  0
LINE
  5
17C4
330
1331
100
AcDbEntity
  8
0
  6
Continuous
 62
     3
100
AcDbLine
 10
254.3011196709996
 20
93.11999999700001
 30
0.0
 11
253.051119671
 21
93.61999999700001
 31
0.0
  0
LINE
  5
17C5
330
1331
100
AcDbEntity
  8
0
  6
Continuous
 62
     3
100
AcDbLine
 10
253.051119671
 20
89.61999999700001
 30
0.0
 11
254.3011196709996
 21
90.119999997
 31
0.0
  0
LINE
  5
17C6
330
1331
100
AcDbEntity
  8
0
  6
Continuous
 62
     3
100
AcDbLine
 10
257.301119671
 20
90.119999996
 30
0.0
 11
258.5511196709999
 21
89.61999999600001
 31
0.0
  0
LINE
  5
17C7
330
1331
100
AcDbEntity
  8
0
  6
Continuous
 62
     3
100
AcDbLine
 10
257.301119671
 20
93.11999999600001
 30
0.0
 11
258.5511196709999
 21
93.619999996
 31
0.0
  0
LINE
  5
17C8
330
1331
100
AcDbEntity
  8
0
  6
Continuous
 62
     3
100
AcDbLine
 10
254.3011196709996
 20
88.03999999700002
 30
0.0
 11
254.3011196709996
 21
85.03999999699999
 31
0.0
  0
LINE
  5
17C9
330
1331
100
AcDbEntity
  8
0
  6
Continuous
 62
     3
100
AcDbLine
 10
254.3011196709996
 20
85.03999999699999
 30
0.0
 11
257.301119671
 21
85.03999999600003
 31
0.0
  0
LINE
  5
17CA
330
1331
100
AcDbEntity
  8
0
  6
Continuous
 62
     3
100
AcDbLine
 10
257.301119671
 20
85.03999999600003
 30
0.0
 11
257.301119671
 21
88.039999996
 31
0.0
  0
LINE
  5
17CB
330
1331
100
AcDbEntity
  8
0
  6
Continuous
 62
     3
100
AcDbLine
 10
257.301119671
 20
88.039999996
 30
0.0
 11
254.3011196709996
 21
88.03999999700002
 31
0.0
  0
LINE
  5
17CC
330
1331
100
AcDbEntity
  8
0
  6
Continuous
 62
     3
100
AcDbLine
 10
254.3011196709996
 20
88.03999999700002
 30
0.0
 11
253.051119671
 21
88.53999999699999
 31
0.0
  0
LINE
  5
17CD
330
1331
100
AcDbEntity
  8
0
  6
Continuous
 62
     3
100
AcDbLine
 10
253.051119671
 20
84.539999997
 30
0.0
 11
254.3011196709996
 21
85.03999999699999
 31
0.0
  0
LINE
  5
17CE
330
1331
100
AcDbEntity
  8
0
  6
Continuous
 62
     3
100
AcDbLine
 10
257.301119671
 20
85.03999999600003
 30
0.0
 11
258.5511196709999
 21
84.539999996
 31
0.0
  0
LINE
  5
17CF
330
1331
100
AcDbEntity
  8
0
  6
Continuous
 62
     3
100
AcDbLine
 10
257.301119671
 20
88.039999996
 30
0.0
 11
258.5511196709999
 21
88.539999996
 31
0.0
  0
LINE
  5
17D0
330
1331
100
AcDbEntity
  8
0
  6
Continuous
 62
     3
100
AcDbLine
 10
254.3011196699999
 20
72.799999997
 30
0.0
 11
254.3011196699999
 21
69.799999997
 31
0.0
  0
LINE
  5
17D1
330
1331
100
AcDbEntity
  8
0
  6
Continuous
 62
     3
100
AcDbLine
 10
254.3011196699999
 20
69.799999997
 30
0.0
 11
257.30111967
 21
69.799999996
 31
0.0
  0
LINE
  5
17D2
330
1331
100
AcDbEntity
  8
0
  6
Continuous
 62
     3
100
AcDbLine
 10
257.30111967
 20
69.799999996
 30
0.0
 11
257.30111967
 21
72.79999999599998
 31
0.0
  0
LINE
  5
17D3
330
1331
100
AcDbEntity
  8
0
  6
Continuous
 62
     3
100
AcDbLine
 10
257.30111967
 20
72.79999999599998
 30
0.0
 11
254.3011196699999
 21
72.799999997
 31
0.0
  0
LINE
  5
17D4
330
1331
100
AcDbEntity
  8
0
  6
Continuous
 62
     3
100
AcDbLine
 10
254.3011196699999
 20
72.799999997
 30
0.0
 11
253.05111967
 21
73.299999997
 31
0.0
  0
LINE
  5
17D5
330
1331
100
AcDbEntity
  8
0
  6
Continuous
 62
     3
100
AcDbLine
 10
253.05111967
 20
69.299999997
 30
0.0
 11
254.3011196699999
 21
69.799999997
 31
0.0
  0
LINE
  5
17D6
330
1331
100
AcDbEntity
  8
0
  6
Continuous
 62
     3
100
AcDbLine
 10
257.30111967
 20
69.799999996
 30
0.0
 11
258.55111967
 21
69.29999999599999
 31
0.0
  0
LINE
  5
17D7
330
1331
100
AcDbEntity
  8
0
  6
Continuous
 62
     3
100
AcDbLine
 10
257.30111967
 20
72.79999999599998
 30
0.0
 11
258.55111967
 21
73.29999999599998
 31
0.0
  0
LINE
  5
17D8
330
1331
100
AcDbEntity
  8
0
  6
Continuous
 62
     3
100
AcDbLine
 10
254.3011196709996
 20
82.95999999699999
 30
0.0
 11
254.3011196699999
 21
79.95999999699998
 31
0.0
  0
LINE
  5
17D9
330
1331
100
AcDbEntity
  8
0
  6
Continuous
 62
     3
100
AcDbLine
 10
254.3011196699999
 20
79.95999999699998
 30
0.0
 11
257.30111967
 21
79.95999999600001
 31
0.0
  0
LINE
  5
17DA
330
1331
100
AcDbEntity
  8
0
  6
Continuous
 62
     3
100
AcDbLine
 10
257.30111967
 20
79.95999999600001
 30
0.0
 11
257.301119671
 21
82.95999999600001
 31
0.0
  0
LINE
  5
17DB
330
1331
100
AcDbEntity
  8
0
  6
Continuous
 62
     3
100
AcDbLine
 10
257.301119671
 20
82.95999999600001
 30
0.0
 11
254.3011196709996
 21
82.95999999699999
 31
0.0
  0
LINE
  5
17DC
330
1331
100
AcDbEntity
  8
0
  6
Continuous
 62
     3
100
AcDbLine
 10
254.3011196709996
 20
82.95999999699999
 30
0.0
 11
253.051119671
 21
83.45999999699998
 31
0.0
  0
LINE
  5
17DD
330
1331
100
AcDbEntity
  8
0
  6
Continuous
 62
     3
100
AcDbLine
 10
253.05111967
 20
79.45999999699998
 30
0.0
 11
254.3011196699999
 21
79.95999999699998
 31
0.0
  0
LINE
  5
17DE
330
1331
100
AcDbEntity
  8
0
  6
Continuous
 62
     3
100
AcDbLine
 10
257.30111967
 20
79.95999999600001
 30
0.0
 11
258.55111967
 21
79.45999999600001
 31
0.0
  0
LINE
  5
17DF
330
1331
100
AcDbEntity
  8
0
  6
Continuous
 62
     3
100
AcDbLine
 10
257.301119671
 20
82.95999999600001
 30
0.0
 11
258.5511196709999
 21
83.45999999600001
 31
0.0
  0
LINE
  5
17E0
330
1331
100
AcDbEntity
  8
0
  6
Continuous
 62
     3
100
AcDbLine
 10
254.3011196699999
 20
77.879999997
 30
0.0
 11
254.3011196699999
 21
74.879999997
 31
0.0
  0
LINE
  5
17E1
330
1331
100
AcDbEntity
  8
0
  6
Continuous
 62
     3
100
AcDbLine
 10
254.3011196699999
 20
74.879999997
 30
0.0
 11
257.30111967
 21
74.87999999600001
 31
0.0
  0
LINE
  5
17E2
330
1331
100
AcDbEntity
  8
0
  6
Continuous
 62
     3
100
AcDbLine
 10
257.30111967
 20
74.87999999600001
 30
0.0
 11
257.30111967
 21
77.87999999600001
 31
0.0
  0
LINE
  5
17E3
330
1331
100
AcDbEntity
  8
0
  6
Continuous
 62
     3
100
AcDbLine
 10
257.30111967
 20
77.87999999600001
 30
0.0
 11
254.3011196699999
 21
77.879999997
 31
0.0
  0
LINE
  5
17E4
330
1331
100
AcDbEntity
  8
0
  6
Continuous
 62
     3
100
AcDbLine
 10
254.3011196699999
 20
77.879999997
 30
0.0
 11
253.05111967
 21
78.379999997
 31
0.0
  0
LINE
  5
17E5
330
1331
100
AcDbEntity
  8
0
  6
Continuous
 62
     3
100
AcDbLine
 10
253.05111967
 20
74.379999997
 30
0.0
 11
254.3011196699999
 21
74.879999997
 31
0.0
  0
LINE
  5
17E6
330
1331
100
AcDbEntity
  8
0
  6
Continuous
 62
     3
100
AcDbLine
 10
257.30111967
 20
74.87999999600001
 30
0.0
 11
258.55111967
 21
74.37999999600001
 31
0.0
  0
LINE
  5
17E7
330
1331
100
AcDbEntity
  8
0
  6
Continuous
 62
     3
100
AcDbLine
 10
257.30111967
 20
77.87999999600001
 30
0.0
 11
258.55111967
 21
78.37999999599998
 31
0.0
  0
LINE
  5
17E8
330
1331
100
AcDbEntity
  8
0
  6
Continuous
 62
     3
100
AcDbLine
 10
259.551119672
 20
99.23999999600004
 30
0.0
 11
259.5511196699998
 21
68.75999999600001
 31
0.0
  0
LINE
  5
17E9
330
1331
100
AcDbEntity
  8
0
  6
Continuous
 62
     1
100
AcDbLine
 10
292.6000000099998
 20
106.999999995
 30
0.0
 11
292.600000007
 21
60.999999995
 31
0.0
  0
ARC
  5
17EA
330
1331
100
AcDbEntity
  8
0
  6
Continuous
 62
     1
100
AcDbCircle
 10
293.6000000069999
 20
60.999999995
 30
0.0
 40
1.0
100
AcDbArc
 50
180.0
 51
270.0
  0
ARC
  5
17EB
330
1331
100
AcDbEntity
  8
0
  6
Continuous
 62
     1
100
AcDbCircle
 10
279.000000007
 20
60.99999999600001
 30
0.0
 40
1.0
100
AcDbArc
 50
180.0
 51
270.0
  0
ARC
  5
17EC
330
1331
100
AcDbEntity
  8
0
  6
Continuous
 62
     1
100
AcDbCircle
 10
276.4150000079999
 20
74.99999999599999
 30
0.0
 40
1.0
100
AcDbArc
 50
180.0
 51
270.0
  0
LINE
  5
17ED
330
1331
100
AcDbEntity
  8
0
  6
Continuous
 62
     1
100
AcDbLine
 10
276.4150000079999
 20
73.999999996
 30
0.0
 11
278.0000000079999
 21
73.999999996
 31
0.0
  0
LINE
  5
17EE
330
1331
100
AcDbEntity
  8
0
  6
Continuous
 62
     1
100
AcDbLine
 10
275.415000009
 20
92.999999996
 30
0.0
 11
275.415000008
 21
74.99999999599999
 31
0.0
  0
ARC
  5
17EF
330
1331
100
AcDbEntity
  8
0
  6
Continuous
 62
     1
100
AcDbCircle
 10
276.415000009
 20
92.999999996
 30
0.0
 40
1.0
100
AcDbArc
 50
90.0
 51
180.0
  0
LINE
  5
17F0
330
1331
100
AcDbEntity
  8
0
  6
Continuous
 62
     1
100
AcDbLine
 10
278.000000009
 20
93.999999996
 30
0.0
 11
276.415000009
 21
93.999999996
 31
0.0
  0
ARC
  5
17F1
330
1331
100
AcDbEntity
  8
0
  6
Continuous
 62
     1
100
AcDbCircle
 10
279.00000001
 20
106.999999996
 30
0.0
 40
1.0
100
AcDbArc
 50
90.0
 51
180.0
  0
ARC
  5
17F2
330
1331
100
AcDbEntity
  8
0
  6
Continuous
 62
     1
100
AcDbCircle
 10
371.0000000099998
 20
106.99999999
 30
0.0
 40
1.0
100
AcDbArc
 50
0.0
 51
90.0
  0
ARC
  5
17F3
330
1331
100
AcDbEntity
  8
0
  6
Continuous
 62
     1
100
AcDbCircle
 10
371.0000000069998
 20
60.99999999
 30
0.0
 40
1.0
100
AcDbArc
 50
270.0
 51
0.0
  0
ARC
  5
17F4
330
1331
100
AcDbEntity
  8
0
  6
Continuous
 62
     1
100
AcDbCircle
 10
356.4000000069999
 20
60.999999991
 30
0.0
 40
1.0
100
AcDbArc
 50
270.0
 51
0.0
  0
LINE
  5
17F5
330
1331
100
AcDbEntity
  8
0
  6
Continuous
 62
     1
100
AcDbLine
 10
279.000000007
 20
59.999999996
 30
0.0
 11
371.0000000069998
 21
59.99999998999999
 31
0.0
  0
LINE
  5
17F6
330
1331
100
AcDbEntity
  8
0
  6
Continuous
 62
     1
100
AcDbLine
 10
278.00000001
 20
106.999999996
 30
0.0
 11
278.0000000069998
 21
60.99999999600001
 31
0.0
  0
LINE
  5
17F7
330
1331
100
AcDbEntity
  8
0
  6
Continuous
 62
     1
100
AcDbLine
 10
368.50000001
 20
104.0499999899999
 30
0.0
 11
361.50000001
 21
104.0499999899999
 31
0.0
  0
ARC
  5
17F8
330
1331
100
AcDbEntity
  8
0
  6
Continuous
 62
     1
100
AcDbCircle
 10
356.40000001
 20
106.999999991
 30
0.0
 40
1.0
100
AcDbArc
 50
0.0
 51
90.0
  0
LINE
  5
17F9
330
1331
100
AcDbEntity
  8
0
  6
Continuous
 62
     1
100
AcDbLine
 10
357.4000000069994
 20
60.99999999
 30
0.0
 11
357.4000000099998
 21
106.99999999
 31
0.0
  0
LINE
  5
17FA
330
1331
100
AcDbEntity
  8
0
  6
Continuous
 62
     1
100
AcDbLine
 10
361.5000000069997
 20
63.94999999
 30
0.0
 11
368.500000007
 21
63.94999999
 31
0.0
  0
LINE
  5
17FB
330
1331
100
AcDbEntity
  8
0
  6
Continuous
 62
     1
100
AcDbLine
 10
358.9600000089999
 20
99.49999999
 30
0.0
 11
358.960000008
 21
68.49999999000001
 31
0.0
  0
LINE
  5
17FC
330
1331
100
AcDbEntity
  8
0
  6
Continuous
 62
     1
100
AcDbLine
 10
371.800000008
 20
68.499999989
 30
0.0
 11
371.800000009
 21
99.499999989
 31
0.0
  0
LINE
  5
17FD
330
1331
100
AcDbEntity
  8
0
  6
Continuous
 62
     1
100
AcDbLine
 10
372.0000000069997
 20
60.99999998899999
 30
0.0
 11
372.00000001
 21
106.999999989
 31
0.0
  0
ARC
  5
17FE
330
1331
100
AcDbEntity
  8
0
  6
Continuous
 62
     1
100
AcDbCircle
 10
293.6000000099998
 20
106.999999995
 30
0.0
 40
1.0
100
AcDbArc
 50
90.0
 51
180.0
  0
LINE
  5
17FF
330
1331
100
AcDbEntity
  8
0
  6
Continuous
 62
     1
100
AcDbLine
 10
371.0000000099998
 20
107.99999999
 30
0.0
 11
279.00000001
 21
107.999999996
 31
0.0
  0
LINE
  5
1800
330
1331
100
AcDbEntity
  8
0
  6
Continuous
 62
     1
100
AcDbLine
 10
225.751119672
 20
107.9999999979998
 30
0.0
 11
225.751119669
 21
59.99999999799999
 31
0.0
  0
LINE
  5
1801
330
1331
100
AcDbEntity
  8
0
  6
Continuous
 62
     1
100
AcDbLine
 10
230.2511196709999
 20
94.19999999799999
 30
0.0
 11
225.7511196709999
 21
94.19999999799999
 31
0.0
  0
LINE
  5
1802
330
1331
100
AcDbEntity
  8
0
  6
Continuous
 62
     1
100
AcDbLine
 10
230.25111967
 20
73.799999998
 30
0.0
 11
230.2511196709999
 21
94.19999999799999
 31
0.0
  0
LINE
  5
1803
330
1331
100
AcDbEntity
  8
0
  6
Continuous
 62
     1
100
AcDbLine
 10
225.75111967
 20
73.799999998
 30
0.0
 11
230.25111967
 21
73.799999998
 31
0.0
  0
LINE
  5
1804
330
1331
100
AcDbEntity
  8
0
  6
Continuous
 62
     1
100
AcDbLine
 10
225.751119669
 20
59.99999999799999
 30
0.0
 11
265.551119669
 21
59.999999996
 31
0.0
  0
ARC
  5
1805
330
1331
100
AcDbEntity
  8
0
  6
Continuous
 62
     1
100
AcDbCircle
 10
242.151119672
 20
106.999999997
 30
0.0
 40
1.0
100
AcDbArc
 50
0.0
 51
90.0
  0
ARC
  5
1806
330
1331
100
AcDbEntity
  8
0
  6
Continuous
 62
     1
100
AcDbCircle
 10
265.551119672
 20
106.999999996
 30
0.0
 40
1.0
100
AcDbArc
 50
0.0
 51
90.0
  0
LINE
  5
1807
330
1331
100
AcDbEntity
  8
0
  6
Continuous
 62
     1
100
AcDbLine
 10
265.551119672
 20
107.999999996
 30
0.0
 11
225.751119672
 21
107.9999999979998
 31
0.0
  0
ARC
  5
1808
330
1331
100
AcDbEntity
  8
0
  6
Continuous
 62
     1
100
AcDbCircle
 10
265.551119669
 20
60.99999999600001
 30
0.0
 40
1.0
100
AcDbArc
 50
270.0
 51
0.0
  0
LINE
  5
1809
330
1331
100
AcDbEntity
  8
0
  6
Continuous
 62
     1
100
AcDbLine
 10
248.15111967
 20
68.75999999699999
 30
0.0
 11
252.0511196699999
 21
68.75999999699999
 31
0.0
  0
LINE
  5
180A
330
1331
100
AcDbEntity
  8
0
  6
Continuous
 62
     1
100
AcDbLine
 10
252.0511196699999
 20
68.75999999699999
 30
0.0
 11
259.5511196699998
 21
68.75999999600001
 31
0.0
  0
LINE
  5
180B
330
1331
100
AcDbEntity
  8
0
  6
Continuous
 62
     1
100
AcDbLine
 10
252.051119672
 20
99.23999999700001
 30
0.0
 11
252.0511196699999
 21
68.75999999699999
 31
0.0
  0
ARC
  5
180C
330
1331
100
AcDbEntity
  8
0
  6
Continuous
 62
     1
100
AcDbCircle
 10
242.151119669
 20
60.99999999699999
 30
0.0
 40
1.0
100
AcDbArc
 50
270.0
 51
0.0
  0
LINE
  5
180D
330
1331
100
AcDbEntity
  8
0
  6
Continuous
 62
     1
100
AcDbLine
 10
243.151119669
 20
60.99999999699999
 30
0.0
 11
243.151119672
 21
106.999999997
 31
0.0
  0
LINE
  5
180E
330
1331
100
AcDbEntity
  8
0
  6
Continuous
 62
     1
100
AcDbLine
 10
243.15111967
 20
66.99999999700001
 30
0.0
 11
247.65111967
 21
66.99999999700001
 31
0.0
  0
ARC
  5
180F
330
1331
100
AcDbEntity
  8
0
  6
Continuous
 62
     1
100
AcDbCircle
 10
247.65111967
 20
67.499999997
 30
0.0
 40
0.5
100
AcDbArc
 50
270.0
 51
0.0
  0
LINE
  5
1810
330
1331
100
AcDbEntity
  8
0
  6
Continuous
 62
     1
100
AcDbLine
 10
248.15111967
 20
67.499999997
 30
0.0
 11
248.15111967
 21
68.75999999699999
 31
0.0
  0
ARC
  5
1811
330
1331
100
AcDbEntity
  8
0
  6
Continuous
 62
     1
100
AcDbCircle
 10
244.65111967
 20
67.499999997
 30
0.0
 40
0.5
100
AcDbArc
 50
270.0
 51
0.0
  0
LINE
  5
1812
330
1331
100
AcDbEntity
  8
0
  6
Continuous
 62
     1
100
AcDbLine
 10
248.15111967
 20
68.75999999699999
 30
0.0
 11
245.15111967
 21
68.75999999699999
 31
0.0
  0
ARC
  5
1813
330
1331
100
AcDbEntity
  8
0
  6
Continuous
 62
     1
100
AcDbCircle
 10
244.65111967
 20
71.599999997
 30
0.0
 40
0.5
100
AcDbArc
 50
0.0
 51
90.0
  0
LINE
  5
1814
330
1331
100
AcDbEntity
  8
0
  6
Continuous
 62
     1
100
AcDbLine
 10
244.65111967
 20
72.09999999699999
 30
0.0
 11
243.15111967
 21
72.09999999699999
 31
0.0
  0
LINE
  5
1815
330
1331
100
AcDbEntity
  8
0
  6
Continuous
 62
     1
100
AcDbLine
 10
248.15111967
 20
72.25999999699999
 30
0.0
 11
243.15111967
 21
72.25999999699999
 31
0.0
  0
LINE
  5
1816
330
1331
100
AcDbEntity
  8
0
  6
Continuous
 62
     1
100
AcDbLine
 10
248.151119672
 20
99.23999999700001
 30
0.0
 11
248.15111967
 21
68.75999999699999
 31
0.0
  0
LINE
  5
1817
330
1331
100
AcDbEntity
  8
0
  6
Continuous
 62
     1
100
AcDbLine
 10
243.15111967
 20
73.89999999699999
 30
0.0
 11
244.65111967
 21
73.89999999699999
 31
0.0
  0
LINE
  5
1818
330
1331
100
AcDbEntity
  8
0
  6
Continuous
 62
     1
100
AcDbLine
 10
243.15111967
 20
73.75999999699999
 30
0.0
 11
248.15111967
 21
73.75999999699999
 31
0.0
  0
LINE
  5
1819
330
1331
100
AcDbEntity
  8
0
  6
Continuous
 62
     1
100
AcDbLine
 10
244.3511196709994
 20
81.499999997
 30
0.0
 11
244.3511196709994
 21
86.499999997
 31
0.0
  0
LINE
  5
181A
330
1331
100
AcDbEntity
  8
0
  6
Continuous
 62
     1
100
AcDbLine
 10
245.1511196709998
 20
81.499999997
 30
0.0
 11
244.3511196709994
 21
81.499999997
 31
0.0
  0
LINE
  5
181B
330
1331
100
AcDbEntity
  8
0
  6
Continuous
 62
     1
100
AcDbLine
 10
244.3511196709994
 20
86.499999997
 30
0.0
 11
245.1511196709998
 21
86.499999997
 31
0.0
  0
LINE
  5
181C
330
1331
100
AcDbEntity
  8
0
  6
Continuous
 62
     1
100
AcDbLine
 10
247.651119672
 20
101.499999997
 30
0.0
 11
243.151119672
 21
101.499999997
 31
0.0
  0
ARC
  5
181D
330
1331
100
AcDbEntity
  8
0
  6
Continuous
 62
     1
100
AcDbCircle
 10
247.651119672
 20
100.999999997
 30
0.0
 40
0.5
100
AcDbArc
 50
0.0
 51
90.0
  0
LINE
  5
181E
330
1331
100
AcDbEntity
  8
0
  6
Continuous
 62
     1
100
AcDbLine
 10
248.151119672
 20
99.23999999700001
 30
0.0
 11
248.151119672
 21
100.999999997
 31
0.0
  0
LINE
  5
181F
330
1331
100
AcDbEntity
  8
0
  6
Continuous
 62
     1
100
AcDbLine
 10
245.151119672
 20
99.23999999700001
 30
0.0
 11
248.151119672
 21
99.23999999700001
 31
0.0
  0
ARC
  5
1820
330
1331
100
AcDbEntity
  8
0
  6
Continuous
 62
     1
100
AcDbCircle
 10
244.651119672
 20
100.999999997
 30
0.0
 40
0.5
100
AcDbArc
 50
0.0
 51
90.0
  0
ARC
  5
1821
330
1331
100
AcDbEntity
  8
0
  6
Continuous
 62
     1
100
AcDbCircle
 10
244.6511196709998
 20
96.39999999700002
 30
0.0
 40
0.5
100
AcDbArc
 50
270.0
 51
0.0
  0
LINE
  5
1822
330
1331
100
AcDbEntity
  8
0
  6
Continuous
 62
     1
100
AcDbLine
 10
245.1511196709998
 20
95.73999999700001
 30
0.0
 11
245.151119672
 21
99.23999999700001
 31
0.0
  0
LINE
  5
1823
330
1331
100
AcDbEntity
  8
0
  6
Continuous
 62
     1
100
AcDbLine
 10
245.1511196709998
 20
96.39999999700002
 30
0.0
 11
245.151119672
 21
100.999999997
 31
0.0
  0
LINE
  5
1824
330
1331
100
AcDbEntity
  8
0
  6
Continuous
 62
     1
100
AcDbLine
 10
243.1511196709998
 20
95.89999999700001
 30
0.0
 11
244.6511196709998
 21
95.89999999700001
 31
0.0
  0
LINE
  5
1825
330
1331
100
AcDbEntity
  8
0
  6
Continuous
 62
     1
100
AcDbLine
 10
248.1511196709998
 20
95.73999999700001
 30
0.0
 11
243.1511196709998
 21
95.73999999700001
 31
0.0
  0
LINE
  5
1826
330
1331
100
AcDbEntity
  8
0
  6
Continuous
 62
     1
100
AcDbLine
 10
245.1511196709998
 20
86.499999997
 30
0.0
 11
245.1511196709998
 21
93.59999999700001
 31
0.0
  0
LINE
  5
1827
330
1331
100
AcDbEntity
  8
0
  6
Continuous
 62
     1
100
AcDbLine
 10
244.6511196709998
 20
94.09999999700001
 30
0.0
 11
243.1511196709998
 21
94.09999999700001
 31
0.0
  0
ARC
  5
1828
330
1331
100
AcDbEntity
  8
0
  6
Continuous
 62
     1
100
AcDbCircle
 10
244.6511196709998
 20
93.59999999700001
 30
0.0
 40
0.5
100
AcDbArc
 50
0.0
 51
90.0
  0
LINE
  5
1829
330
1331
100
AcDbEntity
  8
0
  6
Continuous
 62
     1
100
AcDbLine
 10
243.1511196709998
 20
94.23999999700001
 30
0.0
 11
248.1511196709998
 21
94.23999999700001
 31
0.0
  0
LINE
  5
182A
330
1331
100
AcDbEntity
  8
0
  6
Continuous
 62
     1
100
AcDbLine
 10
245.15111967
 20
74.39999999699999
 30
0.0
 11
245.1511196709998
 21
81.499999997
 31
0.0
  0
ARC
  5
182B
330
1331
100
AcDbEntity
  8
0
  6
Continuous
 62
     1
100
AcDbCircle
 10
244.65111967
 20
74.39999999699999
 30
0.0
 40
0.5
100
AcDbArc
 50
270.0
 51
0.0
  0
LINE
  5
182C
330
1331
100
AcDbEntity
  8
0
  6
Continuous
 62
     1
100
AcDbLine
 10
245.15111967
 20
73.75999999699999
 30
0.0
 11
245.1511196709998
 21
94.23999999700001
 31
0.0
  0
LINE
  5
182D
330
1331
100
AcDbEntity
  8
0
  6
Continuous
 62
     1
100
AcDbLine
 10
245.15111967
 20
68.75999999699999
 30
0.0
 11
245.15111967
 21
72.25999999699999
 31
0.0
  0
LINE
  5
182E
330
1331
100
AcDbEntity
  8
0
  6
Continuous
 62
     1
100
AcDbLine
 10
245.15111967
 20
67.499999997
 30
0.0
 11
245.15111967
 21
71.599999997
 31
0.0
  0
LINE
  5
182F
330
1331
100
AcDbEntity
  8
0
  6
Continuous
 62
     1
100
AcDbLine
 10
253.051119672
 20
98.699999997
 30
0.0
 11
253.051119671
 21
94.699999997
 31
0.0
  0
LINE
  5
1830
330
1331
100
AcDbEntity
  8
0
  6
Continuous
 62
     1
100
AcDbLine
 10
253.051119671
 20
94.699999997
 30
0.0
 11
258.5511196709999
 21
94.699999996
 31
0.0
  0
LINE
  5
1831
330
1331
100
AcDbEntity
  8
0
  6
Continuous
 62
     1
100
AcDbLine
 10
258.5511196709999
 20
93.619999996
 30
0.0
 11
253.051119671
 21
93.61999999700001
 31
0.0
  0
LINE
  5
1832
330
1331
100
AcDbEntity
  8
0
  6
Continuous
 62
     1
100
AcDbLine
 10
258.5511196709999
 20
94.699999996
 30
0.0
 11
258.551119672
 21
98.699999996
 31
0.0
  0
LINE
  5
1833
330
1331
100
AcDbEntity
  8
0
  6
Continuous
 62
     1
100
AcDbLine
 10
258.551119672
 20
98.699999996
 30
0.0
 11
253.051119672
 21
98.699999997
 31
0.0
  0
LINE
  5
1834
330
1331
100
AcDbEntity
  8
0
  6
Continuous
 62
     1
100
AcDbLine
 10
258.5511196709999
 20
89.61999999600001
 30
0.0
 11
258.5511196709999
 21
93.619999996
 31
0.0
  0
LINE
  5
1835
330
1331
100
AcDbEntity
  8
0
  6
Continuous
 62
     1
100
AcDbLine
 10
253.051119671
 20
89.61999999700001
 30
0.0
 11
258.5511196709999
 21
89.61999999600001
 31
0.0
  0
LINE
  5
1836
330
1331
100
AcDbEntity
  8
0
  6
Continuous
 62
     1
100
AcDbLine
 10
253.051119671
 20
93.61999999700001
 30
0.0
 11
253.051119671
 21
89.61999999700001
 31
0.0
  0
LINE
  5
1837
330
1331
100
AcDbEntity
  8
0
  6
Continuous
 62
     1
100
AcDbLine
 10
253.051119671
 20
88.53999999699999
 30
0.0
 11
253.051119671
 21
84.539999997
 31
0.0
  0
LINE
  5
1838
330
1331
100
AcDbEntity
  8
0
  6
Continuous
 62
     1
100
AcDbLine
 10
258.5511196709999
 20
88.539999996
 30
0.0
 11
253.051119671
 21
88.53999999699999
 31
0.0
  0
LINE
  5
1839
330
1331
100
AcDbEntity
  8
0
  6
Continuous
 62
     1
100
AcDbLine
 10
258.5511196709999
 20
84.539999996
 30
0.0
 11
258.5511196709999
 21
88.539999996
 31
0.0
  0
LINE
  5
183A
330
1331
100
AcDbEntity
  8
0
  6
Continuous
 62
     1
100
AcDbLine
 10
253.051119671
 20
84.539999997
 30
0.0
 11
258.5511196709999
 21
84.539999996
 31
0.0
  0
LINE
  5
183B
330
1331
100
AcDbEntity
  8
0
  6
Continuous
 62
     1
100
AcDbLine
 10
258.5511196709999
 20
83.45999999600001
 30
0.0
 11
253.051119671
 21
83.45999999699998
 31
0.0
  0
LINE
  5
183C
330
1331
100
AcDbEntity
  8
0
  6
Continuous
 62
     1
100
AcDbLine
 10
253.051119671
 20
83.45999999699998
 30
0.0
 11
253.05111967
 21
79.45999999699998
 31
0.0
  0
LINE
  5
183D
330
1331
100
AcDbEntity
  8
0
  6
Continuous
 62
     1
100
AcDbLine
 10
258.55111967
 20
79.45999999600001
 30
0.0
 11
258.5511196709999
 21
83.45999999600001
 31
0.0
  0
LINE
  5
183E
330
1331
100
AcDbEntity
  8
0
  6
Continuous
 62
     1
100
AcDbLine
 10
253.05111967
 20
79.45999999699998
 30
0.0
 11
258.55111967
 21
79.45999999600001
 31
0.0
  0
LINE
  5
183F
330
1331
100
AcDbEntity
  8
0
  6
Continuous
 62
     1
100
AcDbLine
 10
258.55111967
 20
78.37999999599998
 30
0.0
 11
253.05111967
 21
78.379999997
 31
0.0
  0
LINE
  5
1840
330
1331
100
AcDbEntity
  8
0
  6
Continuous
 62
     1
100
AcDbLine
 10
258.55111967
 20
74.37999999600001
 30
0.0
 11
258.55111967
 21
78.37999999599998
 31
0.0
  0
LINE
  5
1841
330
1331
100
AcDbEntity
  8
0
  6
Continuous
 62
     1
100
AcDbLine
 10
253.05111967
 20
78.379999997
 30
0.0
 11
253.05111967
 21
74.379999997
 31
0.0
  0
LINE
  5
1842
330
1331
100
AcDbEntity
  8
0
  6
Continuous
 62
     1
100
AcDbLine
 10
258.55111967
 20
73.29999999599998
 30
0.0
 11
253.05111967
 21
73.299999997
 31
0.0
  0
LINE
  5
1843
330
1331
100
AcDbEntity
  8
0
  6
Continuous
 62
     1
100
AcDbLine
 10
253.05111967
 20
74.379999997
 30
0.0
 11
258.55111967
 21
74.37999999600001
 31
0.0
  0
LINE
  5
1844
330
1331
100
AcDbEntity
  8
0
  6
Continuous
 62
     1
100
AcDbLine
 10
258.55111967
 20
69.29999999599999
 30
0.0
 11
258.55111967
 21
73.29999999599998
 31
0.0
  0
LINE
  5
1845
330
1331
100
AcDbEntity
  8
0
  6
Continuous
 62
     1
100
AcDbLine
 10
253.05111967
 20
69.299999997
 30
0.0
 11
258.55111967
 21
69.29999999599999
 31
0.0
  0
LINE
  5
1846
330
1331
100
AcDbEntity
  8
0
  6
Continuous
 62
     1
100
AcDbLine
 10
253.05111967
 20
73.299999997
 30
0.0
 11
253.05111967
 21
69.299999997
 31
0.0
  0
LINE
  5
1847
330
1331
100
AcDbEntity
  8
0
  6
Continuous
 62
     1
100
AcDbLine
 10
359.910000009
 20
100.99999999
 30
0.0
 11
357.4000000099998
 21
100.99999999
 31
0.0
  0
LINE
  5
1848
330
1331
100
AcDbEntity
  8
0
  6
Continuous
 62
     1
100
AcDbLine
 10
368.50000001
 20
102.8765217289999
 30
0.0
 11
368.50000001
 21
104.0499999899999
 31
0.0
  0
LINE
  5
1849
330
1331
100
AcDbEntity
  8
0
  6
Continuous
 62
     1
100
AcDbLine
 10
361.50000001
 20
104.0499999899999
 30
0.0
 11
361.50000001
 21
103.180869555
 31
0.0
  0
LINE
  5
184A
330
1331
100
AcDbEntity
  8
0
  6
Continuous
 62
     1
100
AcDbLine
 10
359.910000009
 20
99.49999999
 30
0.0
 11
358.9600000089999
 21
99.49999999
 31
0.0
  0
LINE
  5
184B
330
1331
100
AcDbEntity
  8
0
  6
Continuous
 62
     1
100
AcDbLine
 10
358.960000008
 20
68.49999999000001
 30
0.0
 11
359.910000008
 21
68.49999999000001
 31
0.0
  0
LINE
  5
184C
330
1331
100
AcDbEntity
  8
0
  6
Continuous
 62
     1
100
AcDbLine
 10
359.910000008
 20
66.99999999
 30
0.0
 11
357.4000000069994
 21
66.99999999
 31
0.0
  0
LINE
  5
184D
330
1331
100
AcDbEntity
  8
0
  6
Continuous
 62
     1
100
AcDbLine
 10
361.5000000069997
 20
64.81913042399999
 30
0.0
 11
361.5000000069997
 21
63.94999999
 31
0.0
  0
LINE
  5
184E
330
1331
100
AcDbEntity
  8
0
  6
Continuous
 62
     1
100
AcDbLine
 10
368.500000007
 20
63.94999999
 30
0.0
 11
368.500000007
 21
65.12347825
 31
0.0
  0
LINE
  5
184F
330
1331
100
AcDbEntity
  8
0
  6
Continuous
 62
     1
100
AcDbLine
 10
371.410000008
 20
68.499999989
 30
0.0
 11
371.800000008
 21
68.499999989
 31
0.0
  0
LINE
  5
1850
330
1331
100
AcDbEntity
  8
0
  6
Continuous
 62
     1
100
AcDbLine
 10
371.800000009
 20
99.499999989
 30
0.0
 11
371.410000009
 21
99.499999989
 31
0.0
  0
LINE
  5
1851
330
1331
100
AcDbEntity
  8
0
  6
Continuous
 62
     3
100
AcDbLine
 10
287.50000001
 20
104.049999992
 30
0.0
 11
287.50000001
 21
103.049999992
 31
0.0
  0
LINE
  5
1852
330
1331
100
AcDbEntity
  8
0
  6
Continuous
 62
     3
100
AcDbLine
 10
287.50000001
 20
103.049999992
 30
0.0
 11
282.50000001
 21
103.049999991
 31
0.0
  0
LINE
  5
1853
330
1331
100
AcDbEntity
  8
0
  6
Continuous
 62
     3
100
AcDbLine
 10
282.50000001
 20
103.049999991
 30
0.0
 11
282.50000001
 21
104.049999991
 31
0.0
  0
LINE
  5
1854
330
1331
100
AcDbEntity
  8
0
  6
Continuous
 62
     3
100
AcDbLine
 10
287.500000011
 20
64.949999992
 30
0.0
 11
287.500000011
 21
63.94999999199999
 31
0.0
  0
LINE
  5
1855
330
1331
100
AcDbEntity
  8
0
  6
Continuous
 62
     3
100
AcDbLine
 10
282.500000011
 20
64.949999991
 30
0.0
 11
287.500000011
 21
64.949999992
 31
0.0
  0
LINE
  5
1856
330
1331
100
AcDbEntity
  8
0
  6
Continuous
 62
     3
100
AcDbLine
 10
282.500000011
 20
63.94999999100001
 30
0.0
 11
282.500000011
 21
64.949999991
 31
0.0
  0
LINE
  5
1857
330
1331
100
AcDbEntity
  8
0
  6
Continuous
 62
     1
100
AcDbLine
 10
281.5000000099999
 20
104.049999991
 30
0.0
 11
288.50000001
 21
104.049999992
 31
0.0
  0
LINE
  5
1858
330
1331
100
AcDbEntity
  8
0
  6
Continuous
 62
     1
100
AcDbLine
 10
288.500000011
 20
63.94999999199999
 30
0.0
 11
281.500000011
 21
63.94999999100001
 31
0.0
  0
LINE
  5
1859
330
1331
100
AcDbEntity
  8
0
  6
Continuous
 62
     1
100
AcDbLine
 10
291.0400000109996
 20
99.49999999200002
 30
0.0
 11
291.0400000109996
 21
68.499999992
 31
0.0
  0
LINE
  5
185A
330
1331
100
AcDbEntity
  8
0
  6
Continuous
 62
     1
100
AcDbLine
 10
278.200000011
 20
68.49999999100001
 30
0.0
 11
278.200000011
 21
99.499999991
 31
0.0
  0
LINE
  5
185B
330
1331
100
AcDbEntity
  8
0
  6
Continuous
 62
     1
100
AcDbLine
 10
290.0900000109998
 20
100.999999992
 30
0.0
 11
292.6000000099998
 21
100.999999992
 31
0.0
  0
LINE
  5
185C
330
1331
100
AcDbEntity
  8
0
  6
Continuous
 62
     1
100
AcDbLine
 10
281.5000000099999
 20
102.8765217299997
 30
0.0
 11
281.5000000099999
 21
104.049999991
 31
0.0
  0
LINE
  5
185D
330
1331
100
AcDbEntity
  8
0
  6
Continuous
 62
     1
100
AcDbLine
 10
288.50000001
 20
104.049999992
 30
0.0
 11
288.50000001
 21
103.180869556
 31
0.0
  0
LINE
  5
185E
330
1331
100
AcDbEntity
  8
0
  6
Continuous
 62
     1
100
AcDbLine
 10
290.0900000109998
 20
99.49999999200002
 30
0.0
 11
291.0400000109996
 21
99.49999999200002
 31
0.0
  0
LINE
  5
185F
330
1331
100
AcDbEntity
  8
0
  6
Continuous
 62
     1
100
AcDbLine
 10
291.0400000109996
 20
68.499999992
 30
0.0
 11
290.0900000109998
 21
68.499999992
 31
0.0
  0
LINE
  5
1860
330
1331
100
AcDbEntity
  8
0
  6
Continuous
 62
     1
100
AcDbLine
 10
290.0900000109998
 20
66.999999992
 30
0.0
 11
292.6000000109997
 21
66.999999992
 31
0.0
  0
LINE
  5
1861
330
1331
100
AcDbEntity
  8
0
  6
Continuous
 62
     1
100
AcDbLine
 10
288.500000011
 20
64.819130426
 30
0.0
 11
288.500000011
 21
63.94999999199999
 31
0.0
  0
LINE
  5
1862
330
1331
100
AcDbEntity
  8
0
  6
Continuous
 62
     1
100
AcDbLine
 10
281.500000011
 20
63.94999999100001
 30
0.0
 11
281.500000011
 21
65.12347825199999
 31
0.0
  0
LINE
  5
1863
330
1331
100
AcDbEntity
  8
0
  6
Continuous
 62
     1
100
AcDbLine
 10
278.5900000109999
 20
68.49999999100001
 30
0.0
 11
278.200000011
 21
68.49999999100001
 31
0.0
  0
LINE
  5
1864
330
1331
100
AcDbEntity
  8
0
  6
Continuous
 62
     1
100
AcDbLine
 10
278.200000011
 20
99.499999991
 30
0.0
 11
278.5900000109999
 21
99.499999991
 31
0.0
  0
LINE
  5
1865
330
1331
100
AcDbEntity
  8
0
  6
Continuous
 62
     1
100
AcDbLine
 10
290.0900000109998
 20
64.74999999100001
 30
0.0
 11
280.0248441739999
 21
65.187615462
 31
0.0
  0
LINE
  5
1866
330
1331
100
AcDbEntity
  8
0
  6
Continuous
 62
     1
100
AcDbLine
 10
290.0900000109998
 20
103.249999991
 30
0.0
 11
290.0900000109998
 21
64.74999999100001
 31
0.0
  0
LINE
  5
1867
330
1331
100
AcDbEntity
  8
0
  6
Continuous
 62
     1
100
AcDbLine
 10
278.5900000109999
 20
101.3138002829998
 30
0.0
 11
278.5900000109999
 21
66.6861997
 31
0.0
  0
ARC
  5
1868
330
1331
100
AcDbEntity
  8
0
  6
Continuous
 62
     1
100
AcDbCircle
 10
280.0900000109999
 20
66.6861997
 30
0.0
 40
1.5
100
AcDbArc
 50
180.0
 51
267.510447079
  0
LINE
  5
1869
330
1331
100
AcDbEntity
  8
0
  6
Continuous
 62
     1
100
AcDbLine
 10
290.0900000109998
 20
103.249999991
 30
0.0
 11
280.0248441749999
 21
102.8123845199999
 31
0.0
  0
ARC
  5
186A
330
1331
100
AcDbEntity
  8
0
  6
Continuous
 62
     1
100
AcDbCircle
 10
280.0900000109999
 20
101.3138002829998
 30
0.0
 40
1.5
100
AcDbArc
 50
92.48955292199999
 51
180.0
  0
LINE
  5
186B
330
1331
100
AcDbEntity
  8
0
  6
Continuous
 62
     1
100
AcDbLine
 10
359.910000009
 20
103.24999999
 30
0.0
 11
369.975155845
 21
102.8123845179998
 31
0.0
  0
ARC
  5
186C
330
1331
100
AcDbEntity
  8
0
  6
Continuous
 62
     1
100
AcDbCircle
 10
369.910000009
 20
101.313800281
 30
0.0
 40
1.5
100
AcDbArc
 50
0.0
 51
87.510447078
  0
LINE
  5
186D
330
1331
100
AcDbEntity
  8
0
  6
Continuous
 62
     1
100
AcDbLine
 10
359.910000009
 20
103.24999999
 30
0.0
 11
359.910000008
 21
64.74999999000001
 31
0.0
  0
LINE
  5
186E
330
1331
100
AcDbEntity
  8
0
  6
Continuous
 62
     1
100
AcDbLine
 10
371.410000009
 20
101.313800281
 30
0.0
 11
371.410000008
 21
66.68619969799999
 31
0.0
  0
LINE
  5
186F
330
1331
100
AcDbEntity
  8
0
  6
Continuous
 62
     1
100
AcDbLine
 10
359.910000008
 20
64.74999999000001
 30
0.0
 11
369.975155844
 21
65.18761546100001
 31
0.0
  0
ARC
  5
1870
330
1331
100
AcDbEntity
  8
0
  6
Continuous
 62
     1
100
AcDbCircle
 10
369.910000008
 20
66.68619969799999
 30
0.0
 40
1.5
100
AcDbArc
 50
272.4895529209999
 51
0.0
  0
LINE
  5
1871
330
1331
100
AcDbEntity
  8
0
  6
Continuous
 62
     3
100
AcDbLine
 10
267.65111967
 20
66.749999996
 30
0.0
 11
267.6511196709999
 21
83.94999999600001
 31
0.0
  0
ARC
  5
1872
330
1331
100
AcDbEntity
  8
0
  6
Continuous
 62
     3
100
AcDbCircle
 10
266.15111967
 20
66.749999996
 30
0.0
 40
1.5
100
AcDbArc
 50
270.0
 51
0.0
  0
LINE
  5
1873
330
1331
100
AcDbEntity
  8
0
  6
Continuous
 62
     3
100
AcDbLine
 10
267.6511196709999
 20
101.249998647
 30
0.0
 11
267.6511196709999
 21
84.04999999599999
 31
0.0
  0
ARC
  5
1874
330
1331
100
AcDbEntity
  8
0
  6
Continuous
 62
     3
100
AcDbCircle
 10
266.151119671
 20
101.2499999959999
 30
0.0
 40
1.5
100
AcDbArc
 50
359.999948484
 51
90.0
  0
LINE
  5
1875
330
1331
100
AcDbEntity
  8
0
  6
Continuous
 62
     3
100
AcDbLine
 10
243.15111967
 20
65.249999996
 30
0.0
 11
266.15111967
 21
65.249999996
 31
0.0
  0
ARC
  5
1876
330
1331
100
AcDbEntity
  8
0
  6
Continuous
 62
     3
100
AcDbCircle
 10
266.151119671
 20
101.2499999959999
 30
0.0
 40
1.5
100
AcDbArc
 50
359.999948484
 51
90.0
  0
LINE
  5
1877
330
1331
100
AcDbEntity
  8
0
  6
Continuous
 62
     3
100
AcDbLine
 10
243.151119672
 20
102.749999996
 30
0.0
 11
266.151119671
 21
102.749999996
 31
0.0
  0
LINE
  5
1878
330
1331
100
AcDbEntity
  8
0
  6
Continuous
 62
     1
100
AcDbLine
 10
259.5511196699998
 20
68.75999999600001
 30
0.0
 11
260.646055578
 21
68.75999999600001
 31
0.0
  0
LINE
  5
1879
330
1331
100
AcDbEntity
  8
0
  6
Continuous
 62
     3
100
AcDbLine
 10
259.5511196699998
 20
69.25999999600001
 30
0.0
 11
260.65111967
 21
69.25999999600001
 31
0.0
  0
LINE
  5
187A
330
1331
100
AcDbEntity
  8
0
  6
Continuous
 62
     3
100
AcDbLine
 10
260.651119671
 20
98.73999999600002
 30
0.0
 11
259.551119672
 21
98.73999999600002
 31
0.0
  0
LINE
  5
187B
330
1331
100
AcDbEntity
  8
0
  6
Continuous
 62
     1
100
AcDbLine
 10
260.651119671
 20
99.23999999600004
 30
0.0
 11
248.151119672
 21
99.23999999700001
 31
0.0
  0
LINE
  5
187C
330
1331
100
AcDbEntity
  8
0
  6
Continuous
 62
     1
100
AcDbLine
 10
266.551119672
 20
103.186491669
 30
0.0
 11
266.551119672
 21
106.999999996
 31
0.0
  0
LINE
  5
187D
330
1331
100
AcDbEntity
  8
0
  6
Continuous
 62
     1
100
AcDbLine
 10
266.551119669
 20
60.99999999600001
 30
0.0
 11
266.5511196699998
 21
64.81350832300001
 31
0.0
  0
LINE
  5
187E
330
1331
100
AcDbEntity
  8
0
  6
Continuous
 62
     1
100
AcDbLine
 10
243.15111967
 20
64.749999996
 30
0.0
 11
266.0511196699999
 21
64.749999996
 31
0.0
  0
LINE
  5
187F
330
1331
100
AcDbEntity
  8
0
  6
Continuous
 62
     1
100
AcDbLine
 10
249.15111967
 20
66.310982018
 30
0.0
 11
249.15111967
 21
65.249999996
 31
0.0
  0
LINE
  5
1880
330
1331
100
AcDbEntity
  8
0
  6
Continuous
 62
     1
100
AcDbLine
 10
243.15111967
 20
66.24999999599999
 30
0.0
 11
249.15111967
 21
66.24999999599999
 31
0.0
  0
ARC
  5
1881
330
1331
100
AcDbEntity
  8
0
  6
Continuous
 62
     1
100
AcDbCircle
 10
249.65111967
 20
66.310982018
 30
0.0
 40
0.5
100
AcDbArc
 50
97.43140797100005
 51
180.0
  0
ARC
  5
1882
330
1331
100
AcDbEntity
  8
0
  6
Continuous
 62
     1
100
AcDbCircle
 10
266.0511196699999
 20
66.749999996
 30
0.0
 40
2.0
100
AcDbArc
 50
270.0
 51
0.0
  0
LINE
  5
1883
330
1331
100
AcDbEntity
  8
0
  6
Continuous
 62
     1
100
AcDbLine
 10
268.0511196699999
 20
66.749999996
 30
0.0
 11
268.0511196709999
 21
83.99226694499999
 31
0.0
  0
LINE
  5
1884
330
1331
100
AcDbEntity
  8
0
  6
Continuous
 62
     1
100
AcDbLine
 10
260.65111967
 20
68.68901797399999
 30
0.0
 11
260.651119671
 21
83.999999996
 31
0.0
  0
ARC
  5
1885
330
1331
100
AcDbEntity
  8
0
  6
Continuous
 62
     1
100
AcDbCircle
 10
260.15111967
 20
68.68901797399999
 30
0.0
 40
0.5
100
AcDbArc
 50
277.4314079709996
 51
0.0
  0
LINE
  5
1886
330
1331
100
AcDbEntity
  8
0
  6
Continuous
 62
     1
100
AcDbLine
 10
260.2157892619998
 20
68.193217769
 30
0.0
 11
249.5864500779999
 21
66.806782223
 31
0.0
  0
LINE
  5
1887
330
1331
100
AcDbEntity
  8
0
  6
Continuous
 62
     1
100
AcDbLine
 10
260.651119671
 20
99.31098085000002
 30
0.0
 11
260.651119671
 21
83.999999996
 31
0.0
  0
LINE
  5
1888
330
1331
100
AcDbEntity
  8
0
  6
Continuous
 62
     1
100
AcDbLine
 10
268.0511196709999
 20
101.249999042
 30
0.0
 11
268.0511196709999
 21
84.00773304700001
 31
0.0
  0
LINE
  5
1889
330
1331
100
AcDbEntity
  8
0
  6
Continuous
 62
     1
100
AcDbLine
 10
260.2157892629999
 20
99.80678222299999
 30
0.0
 11
249.586450079
 21
101.193217769
 31
0.0
  0
ARC
  5
188A
330
1331
100
AcDbEntity
  8
0
  6
Continuous
 62
     1
100
AcDbCircle
 10
260.151119671
 20
99.31098201799999
 30
0.0
 40
0.5
100
AcDbArc
 50
359.999866156
 51
82.56859202900001
  0
ARC
  5
188B
330
1331
100
AcDbEntity
  8
0
  6
Continuous
 62
     1
100
AcDbCircle
 10
266.0511196709999
 20
101.2499999959999
 30
0.0
 40
2.0
100
AcDbArc
 50
359.99997268
 51
90.0
  0
ARC
  5
188C
330
1331
100
AcDbEntity
  8
0
  6
Continuous
 62
     1
100
AcDbCircle
 10
266.0511196709999
 20
101.2499999959999
 30
0.0
 40
2.0
100
AcDbArc
 50
359.99997268
 51
90.0
  0
LINE
  5
188D
330
1331
100
AcDbEntity
  8
0
  6
Continuous
 62
     1
100
AcDbLine
 10
243.1511196709998
 20
103.2499999959999
 30
0.0
 11
266.0511196709999
 21
103.2499999959999
 31
0.0
  0
LINE
  5
188E
330
1331
100
AcDbEntity
  8
0
  6
Continuous
 62
     1
100
AcDbLine
 10
249.1511196709998
 20
101.689017975
 30
0.0
 11
249.1511196709998
 21
102.749999996
 31
0.0
  0
ARC
  5
188F
330
1331
100
AcDbEntity
  8
0
  6
Continuous
 62
     1
100
AcDbCircle
 10
249.6511196709997
 20
101.689017975
 30
0.0
 40
0.5
100
AcDbArc
 50
180.0
 51
262.568592029
  0
LINE
  5
1890
330
1331
100
AcDbEntity
  8
0
  6
Continuous
 62
     1
100
AcDbLine
 10
243.151119672
 20
101.749999996
 30
0.0
 11
249.1511196709998
 21
101.749999996
 31
0.0
  0
LINE
  5
1891
330
1331
100
AcDbEntity
  8
0
  6
Continuous
 62
     3
100
AcDbLine
 10
205.4490011239998
 20
254.837145884
 30
0.0
 11
205.4490011239998
 21
253.1635185929999
 31
0.0
  0
LINE
  5
1892
330
1331
100
AcDbEntity
  8
0
  6
Continuous
 62
     3
100
AcDbLine
 10
215.250242373
 20
253.2500887359999
 30
0.0
 11
203.4490011239998
 21
253.1453663229999
 31
0.0
  0
LINE
  5
1893
330
1331
100
AcDbEntity
  8
0
  6
Continuous
 62
     3
100
AcDbLine
 10
203.4490011239998
 20
254.8546336729998
 30
0.0
 11
215.250242373
 21
254.749911259
 31
0.0
  0
LINE
  5
1894
330
1331
100
AcDbEntity
  8
0
  6
Continuous
 62
     3
100
AcDbLine
 10
215.250242373
 20
254.7499999969998
 30
0.0
 11
215.250242373
 21
253.249999997
 31
0.0
  0
LINE
  5
1895
330
1331
100
AcDbEntity
  8
0
  6
Continuous
 62
     3
100
AcDbLine
 10
205.4490011239998
 20
251.337145884
 30
0.0
 11
205.4490011239998
 21
249.6635185929999
 31
0.0
  0
LINE
  5
1896
330
1331
100
AcDbEntity
  8
0
  6
Continuous
 62
     3
100
AcDbLine
 10
215.250242373
 20
249.7500887359996
 30
0.0
 11
203.4490011239998
 21
249.645366323
 31
0.0
  0
LINE
  5
1897
330
1331
100
AcDbEntity
  8
0
  6
Continuous
 62
     3
100
AcDbLine
 10
203.4490011239998
 20
251.354633673
 30
0.0
 11
215.250242373
 21
251.249911259
 31
0.0
  0
LINE
  5
1898
330
1331
100
AcDbEntity
  8
0
  6
Continuous
 62
     3
100
AcDbLine
 10
215.250242373
 20
251.249999997
 30
0.0
 11
215.250242373
 21
249.749999997
 31
0.0
  0
LINE
  5
1899
330
1331
100
AcDbEntity
  8
0
  6
Continuous
 62
     3
100
AcDbLine
 10
205.4490011219999
 20
212.837145884
 30
0.0
 11
205.4490011219999
 21
211.1635185929999
 31
0.0
  0
LINE
  5
189A
330
1331
100
AcDbEntity
  8
0
  6
Continuous
 62
     3
100
AcDbLine
 10
215.250242372
 20
211.2500887359999
 30
0.0
 11
203.4490011219999
 21
211.1453663229996
 31
0.0
  0
LINE
  5
189B
330
1331
100
AcDbEntity
  8
0
  6
Continuous
 62
     3
100
AcDbLine
 10
203.4490011219999
 20
212.8546336729999
 30
0.0
 11
215.250242372
 21
212.749911259
 31
0.0
  0
LINE
  5
189C
330
1331
100
AcDbEntity
  8
0
  6
Continuous
 62
     3
100
AcDbLine
 10
215.250242372
 20
212.7499999969999
 30
0.0
 11
215.250242372
 21
211.249999997
 31
0.0
  0
LINE
  5
189D
330
1331
100
AcDbEntity
  8
0
  6
Continuous
 62
     3
100
AcDbLine
 10
205.4490011219999
 20
216.337145884
 30
0.0
 11
205.4490011219999
 21
214.663518593
 31
0.0
  0
LINE
  5
189E
330
1331
100
AcDbEntity
  8
0
  6
Continuous
 62
     3
100
AcDbLine
 10
215.250242372
 20
214.7500887359999
 30
0.0
 11
203.4490011219999
 21
214.6453663229999
 31
0.0
  0
LINE
  5
189F
330
1331
100
AcDbEntity
  8
0
  6
Continuous
 62
     3
100
AcDbLine
 10
203.4490011219999
 20
216.354633673
 30
0.0
 11
215.250242372
 21
216.249911259
 31
0.0
  0
LINE
  5
18A0
330
1331
100
AcDbEntity
  8
0
  6
Continuous
 62
     3
100
AcDbLine
 10
215.250242372
 20
216.249999997
 30
0.0
 11
215.250242372
 21
214.7499999969999
 31
0.0
  0
LINE
  5
18A1
330
1331
100
AcDbEntity
  8
0
  6
Continuous
 62
     3
100
AcDbLine
 10
226.849001124
 20
244.739999997
 30
0.0
 11
226.849001124
 21
243.239999997
 31
0.0
  0
LINE
  5
18A2
330
1331
100
AcDbEntity
  8
0
  6
Continuous
 62
     3
100
AcDbLine
 10
226.8490011229999
 20
221.259999997
 30
0.0
 11
226.8490011229999
 21
222.7599999969998
 31
0.0
  0
LINE
  5
18A3
330
1331
100
AcDbEntity
  8
0
  6
Continuous
 62
     3
100
AcDbLine
 10
223.3490011229999
 20
221.259999997
 30
0.0
 11
223.349001122
 21
217.7599999969998
 31
0.0
  0
LINE
  5
18A4
330
1331
100
AcDbEntity
  8
0
  6
Continuous
 62
     3
100
AcDbLine
 10
223.349001124
 20
243.239999997
 30
0.0
 11
223.3490011229999
 21
222.7599999969998
 31
0.0
  0
LINE
  5
18A5
330
1331
100
AcDbEntity
  8
0
  6
Continuous
 62
     3
100
AcDbLine
 10
223.349001124
 20
248.239999997
 30
0.0
 11
223.349001124
 21
244.739999997
 31
0.0
  0
LINE
  5
18A6
330
1331
100
AcDbEntity
  8
0
  6
Continuous
 62
     3
100
AcDbLine
 10
215.699001122
 20
218.799999997
 30
0.0
 11
215.699001123
 21
221.799999997
 31
0.0
  0
LINE
  5
18A7
330
1331
100
AcDbEntity
  8
0
  6
Continuous
 62
     3
100
AcDbLine
 10
215.699001123
 20
221.799999997
 30
0.0
 11
212.6990011229996
 21
221.799999997
 31
0.0
  0
LINE
  5
18A8
330
1331
100
AcDbEntity
  8
0
  6
Continuous
 62
     3
100
AcDbLine
 10
212.6990011229996
 20
221.799999997
 30
0.0
 11
212.699001122
 21
218.799999997
 31
0.0
  0
LINE
  5
18A9
330
1331
100
AcDbEntity
  8
0
  6
Continuous
 62
     3
100
AcDbLine
 10
212.699001122
 20
218.799999997
 30
0.0
 11
215.699001122
 21
218.799999997
 31
0.0
  0
LINE
  5
18AA
330
1331
100
AcDbEntity
  8
0
  6
Continuous
 62
     3
100
AcDbLine
 10
215.699001122
 20
218.799999997
 30
0.0
 11
216.949001122
 21
218.299999997
 31
0.0
  0
LINE
  5
18AB
330
1331
100
AcDbEntity
  8
0
  6
Continuous
 62
     3
100
AcDbLine
 10
216.9490011229999
 20
222.299999997
 30
0.0
 11
215.699001123
 21
221.799999997
 31
0.0
  0
LINE
  5
18AC
330
1331
100
AcDbEntity
  8
0
  6
Continuous
 62
     3
100
AcDbLine
 10
212.6990011229996
 20
221.799999997
 30
0.0
 11
211.449001123
 21
222.299999997
 31
0.0
  0
LINE
  5
18AD
330
1331
100
AcDbEntity
  8
0
  6
Continuous
 62
     3
100
AcDbLine
 10
212.699001122
 20
218.799999997
 30
0.0
 11
211.449001122
 21
218.299999997
 31
0.0
  0
LINE
  5
18AE
330
1331
100
AcDbEntity
  8
0
  6
Continuous
 62
     3
100
AcDbLine
 10
215.699001123
 20
223.8799999969999
 30
0.0
 11
215.699001123
 21
226.879999997
 31
0.0
  0
LINE
  5
18AF
330
1331
100
AcDbEntity
  8
0
  6
Continuous
 62
     3
100
AcDbLine
 10
215.699001123
 20
226.879999997
 30
0.0
 11
212.6990011229996
 21
226.879999997
 31
0.0
  0
LINE
  5
18B0
330
1331
100
AcDbEntity
  8
0
  6
Continuous
 62
     3
100
AcDbLine
 10
212.6990011229996
 20
226.879999997
 30
0.0
 11
212.6990011229996
 21
223.8799999969999
 31
0.0
  0
LINE
  5
18B1
330
1331
100
AcDbEntity
  8
0
  6
Continuous
 62
     3
100
AcDbLine
 10
212.6990011229996
 20
223.8799999969999
 30
0.0
 11
215.699001123
 21
223.8799999969999
 31
0.0
  0
LINE
  5
18B2
330
1331
100
AcDbEntity
  8
0
  6
Continuous
 62
     3
100
AcDbLine
 10
215.699001123
 20
223.8799999969999
 30
0.0
 11
216.9490011229999
 21
223.379999997
 31
0.0
  0
LINE
  5
18B3
330
1331
100
AcDbEntity
  8
0
  6
Continuous
 62
     3
100
AcDbLine
 10
216.9490011229999
 20
227.379999997
 30
0.0
 11
215.699001123
 21
226.879999997
 31
0.0
  0
LINE
  5
18B4
330
1331
100
AcDbEntity
  8
0
  6
Continuous
 62
     3
100
AcDbLine
 10
212.6990011229996
 20
226.879999997
 30
0.0
 11
211.449001123
 21
227.379999997
 31
0.0
  0
LINE
  5
18B5
330
1331
100
AcDbEntity
  8
0
  6
Continuous
 62
     3
100
AcDbLine
 10
212.6990011229996
 20
223.8799999969999
 30
0.0
 11
211.449001123
 21
223.379999997
 31
0.0
  0
LINE
  5
18B6
330
1331
100
AcDbEntity
  8
0
  6
Continuous
 62
     3
100
AcDbLine
 10
215.699001123
 20
228.959999997
 30
0.0
 11
215.699001123
 21
231.959999997
 31
0.0
  0
LINE
  5
18B7
330
1331
100
AcDbEntity
  8
0
  6
Continuous
 62
     3
100
AcDbLine
 10
215.699001123
 20
231.959999997
 30
0.0
 11
212.6990011229996
 21
231.959999997
 31
0.0
  0
LINE
  5
18B8
330
1331
100
AcDbEntity
  8
0
  6
Continuous
 62
     3
100
AcDbLine
 10
212.6990011229996
 20
231.959999997
 30
0.0
 11
212.6990011229996
 21
228.959999997
 31
0.0
  0
LINE
  5
18B9
330
1331
100
AcDbEntity
  8
0
  6
Continuous
 62
     3
100
AcDbLine
 10
212.6990011229996
 20
228.959999997
 30
0.0
 11
215.699001123
 21
228.959999997
 31
0.0
  0
LINE
  5
18BA
330
1331
100
AcDbEntity
  8
0
  6
Continuous
 62
     3
100
AcDbLine
 10
215.699001123
 20
228.959999997
 30
0.0
 11
216.9490011229999
 21
228.459999997
 31
0.0
  0
LINE
  5
18BB
330
1331
100
AcDbEntity
  8
0
  6
Continuous
 62
     3
100
AcDbLine
 10
216.9490011229999
 20
232.459999997
 30
0.0
 11
215.699001123
 21
231.959999997
 31
0.0
  0
LINE
  5
18BC
330
1331
100
AcDbEntity
  8
0
  6
Continuous
 62
     3
100
AcDbLine
 10
212.6990011229996
 20
231.959999997
 30
0.0
 11
211.449001123
 21
232.459999997
 31
0.0
  0
LINE
  5
18BD
330
1331
100
AcDbEntity
  8
0
  6
Continuous
 62
     3
100
AcDbLine
 10
212.6990011229996
 20
228.959999997
 30
0.0
 11
211.449001123
 21
228.459999997
 31
0.0
  0
LINE
  5
18BE
330
1331
100
AcDbEntity
  8
0
  6
Continuous
 62
     3
100
AcDbLine
 10
215.699001124
 20
244.199999997
 30
0.0
 11
215.699001124
 21
247.199999997
 31
0.0
  0
LINE
  5
18BF
330
1331
100
AcDbEntity
  8
0
  6
Continuous
 62
     3
100
AcDbLine
 10
215.699001124
 20
247.199999997
 30
0.0
 11
212.699001124
 21
247.199999997
 31
0.0
  0
LINE
  5
18C0
330
1331
100
AcDbEntity
  8
0
  6
Continuous
 62
     3
100
AcDbLine
 10
212.699001124
 20
247.199999997
 30
0.0
 11
212.699001124
 21
244.199999997
 31
0.0
  0
LINE
  5
18C1
330
1331
100
AcDbEntity
  8
0
  6
Continuous
 62
     3
100
AcDbLine
 10
212.699001124
 20
244.199999997
 30
0.0
 11
215.699001124
 21
244.199999997
 31
0.0
  0
LINE
  5
18C2
330
1331
100
AcDbEntity
  8
0
  6
Continuous
 62
     3
100
AcDbLine
 10
215.699001124
 20
244.199999997
 30
0.0
 11
216.949001124
 21
243.699999997
 31
0.0
  0
LINE
  5
18C3
330
1331
100
AcDbEntity
  8
0
  6
Continuous
 62
     3
100
AcDbLine
 10
216.949001124
 20
247.699999997
 30
0.0
 11
215.699001124
 21
247.199999997
 31
0.0
  0
LINE
  5
18C4
330
1331
100
AcDbEntity
  8
0
  6
Continuous
 62
     3
100
AcDbLine
 10
212.699001124
 20
247.199999997
 30
0.0
 11
211.449001124
 21
247.699999997
 31
0.0
  0
LINE
  5
18C5
330
1331
100
AcDbEntity
  8
0
  6
Continuous
 62
     3
100
AcDbLine
 10
212.699001124
 20
244.199999997
 30
0.0
 11
211.449001124
 21
243.699999997
 31
0.0
  0
LINE
  5
18C6
330
1331
100
AcDbEntity
  8
0
  6
Continuous
 62
     3
100
AcDbLine
 10
215.699001123
 20
234.0399999969998
 30
0.0
 11
215.699001123
 21
237.039999997
 31
0.0
  0
LINE
  5
18C7
330
1331
100
AcDbEntity
  8
0
  6
Continuous
 62
     3
100
AcDbLine
 10
215.699001123
 20
237.039999997
 30
0.0
 11
212.6990011229996
 21
237.039999997
 31
0.0
  0
LINE
  5
18C8
330
1331
100
AcDbEntity
  8
0
  6
Continuous
 62
     3
100
AcDbLine
 10
212.6990011229996
 20
237.039999997
 30
0.0
 11
212.6990011229996
 21
234.0399999969998
 31
0.0
  0
LINE
  5
18C9
330
1331
100
AcDbEntity
  8
0
  6
Continuous
 62
     3
100
AcDbLine
 10
212.6990011229996
 20
234.0399999969998
 30
0.0
 11
215.699001123
 21
234.0399999969998
 31
0.0
  0
LINE
  5
18CA
330
1331
100
AcDbEntity
  8
0
  6
Continuous
 62
     3
100
AcDbLine
 10
215.699001123
 20
234.0399999969998
 30
0.0
 11
216.9490011229999
 21
233.5399999969999
 31
0.0
  0
LINE
  5
18CB
330
1331
100
AcDbEntity
  8
0
  6
Continuous
 62
     3
100
AcDbLine
 10
216.9490011229999
 20
237.5399999969999
 30
0.0
 11
215.699001123
 21
237.039999997
 31
0.0
  0
LINE
  5
18CC
330
1331
100
AcDbEntity
  8
0
  6
Continuous
 62
     3
100
AcDbLine
 10
212.6990011229996
 20
237.039999997
 30
0.0
 11
211.449001123
 21
237.5399999969999
 31
0.0
  0
LINE
  5
18CD
330
1331
100
AcDbEntity
  8
0
  6
Continuous
 62
     3
100
AcDbLine
 10
212.6990011229996
 20
234.0399999969998
 30
0.0
 11
211.449001123
 21
233.5399999969999
 31
0.0
  0
LINE
  5
18CE
330
1331
100
AcDbEntity
  8
0
  6
Continuous
 62
     3
100
AcDbLine
 10
215.699001123
 20
239.1199999969999
 30
0.0
 11
215.699001124
 21
242.119999997
 31
0.0
  0
LINE
  5
18CF
330
1331
100
AcDbEntity
  8
0
  6
Continuous
 62
     3
100
AcDbLine
 10
215.699001124
 20
242.119999997
 30
0.0
 11
212.699001124
 21
242.119999997
 31
0.0
  0
LINE
  5
18D0
330
1331
100
AcDbEntity
  8
0
  6
Continuous
 62
     3
100
AcDbLine
 10
212.699001124
 20
242.119999997
 30
0.0
 11
212.6990011229996
 21
239.1199999969999
 31
0.0
  0
LINE
  5
18D1
330
1331
100
AcDbEntity
  8
0
  6
Continuous
 62
     3
100
AcDbLine
 10
212.6990011229996
 20
239.1199999969999
 30
0.0
 11
215.699001123
 21
239.1199999969999
 31
0.0
  0
LINE
  5
18D2
330
1331
100
AcDbEntity
  8
0
  6
Continuous
 62
     3
100
AcDbLine
 10
215.699001123
 20
239.1199999969999
 30
0.0
 11
216.9490011229999
 21
238.619999997
 31
0.0
  0
LINE
  5
18D3
330
1331
100
AcDbEntity
  8
0
  6
Continuous
 62
     3
100
AcDbLine
 10
216.949001124
 20
242.619999997
 30
0.0
 11
215.699001124
 21
242.119999997
 31
0.0
  0
LINE
  5
18D4
330
1331
100
AcDbEntity
  8
0
  6
Continuous
 62
     3
100
AcDbLine
 10
212.699001124
 20
242.119999997
 30
0.0
 11
211.449001124
 21
242.619999997
 31
0.0
  0
LINE
  5
18D5
330
1331
100
AcDbEntity
  8
0
  6
Continuous
 62
     3
100
AcDbLine
 10
212.6990011229996
 20
239.1199999969999
 30
0.0
 11
211.449001123
 21
238.619999997
 31
0.0
  0
LINE
  5
18D6
330
1331
100
AcDbEntity
  8
0
  6
Continuous
 62
     3
100
AcDbLine
 10
210.449001122
 20
217.7599999969998
 30
0.0
 11
210.449001124
 21
248.239999997
 31
0.0
  0
LINE
  5
18D7
330
1331
100
AcDbEntity
  8
0
  6
Continuous
 62
     3
100
AcDbLine
 10
203.4490011229999
 20
219.854633673
 30
0.0
 11
204.2490011229999
 21
219.8448724409998
 31
0.0
  0
LINE
  5
18D8
330
1331
100
AcDbEntity
  8
0
  6
Continuous
 62
     3
100
AcDbLine
 10
204.2490011219999
 20
218.1551275549999
 30
0.0
 11
203.4490011229999
 21
218.145366323
 31
0.0
  0
LINE
  5
18D9
330
1331
100
AcDbEntity
  8
0
  6
Continuous
 62
     3
100
AcDbLine
 10
204.2490011229999
 20
221.655127555
 30
0.0
 11
203.4490011229999
 21
221.6453663229996
 31
0.0
  0
LINE
  5
18DA
330
1331
100
AcDbEntity
  8
0
  6
Continuous
 62
     3
100
AcDbLine
 10
203.4490011229999
 20
223.3546336729999
 30
0.0
 11
204.2490011229999
 21
223.3448724409998
 31
0.0
  0
LINE
  5
18DB
330
1331
100
AcDbEntity
  8
0
  6
Continuous
 62
     3
100
AcDbLine
 10
204.2490011229999
 20
225.155127555
 30
0.0
 11
203.4490011229999
 21
225.1453663229999
 31
0.0
  0
LINE
  5
18DC
330
1331
100
AcDbEntity
  8
0
  6
Continuous
 62
     3
100
AcDbLine
 10
203.4490011229999
 20
226.854633673
 30
0.0
 11
204.2490011229999
 21
226.8448724409998
 31
0.0
  0
LINE
  5
18DD
330
1331
100
AcDbEntity
  8
0
  6
Continuous
 62
     3
100
AcDbLine
 10
204.2490011229999
 20
228.6551275549999
 30
0.0
 11
203.4490011229999
 21
228.645366323
 31
0.0
  0
LINE
  5
18DE
330
1331
100
AcDbEntity
  8
0
  6
Continuous
 62
     3
100
AcDbLine
 10
203.4490011229999
 20
230.354633673
 30
0.0
 11
204.2490011229999
 21
230.3448724409998
 31
0.0
  0
LINE
  5
18DF
330
1331
100
AcDbEntity
  8
0
  6
Continuous
 62
     3
100
AcDbLine
 10
204.2490011229999
 20
232.155127555
 30
0.0
 11
203.4490011229999
 21
232.1453663229996
 31
0.0
  0
LINE
  5
18E0
330
1331
100
AcDbEntity
  8
0
  6
Continuous
 62
     3
100
AcDbLine
 10
203.4490011229999
 20
233.8546336729999
 30
0.0
 11
204.2490011229999
 21
233.8448724409998
 31
0.0
  0
LINE
  5
18E1
330
1331
100
AcDbEntity
  8
0
  6
Continuous
 62
     3
100
AcDbLine
 10
204.2490011229999
 20
235.655127555
 30
0.0
 11
203.4490011229999
 21
235.6453663229999
 31
0.0
  0
LINE
  5
18E2
330
1331
100
AcDbEntity
  8
0
  6
Continuous
 62
     3
100
AcDbLine
 10
203.4490011229999
 20
237.354633673
 30
0.0
 11
204.2490011229999
 21
237.3448724409996
 31
0.0
  0
LINE
  5
18E3
330
1331
100
AcDbEntity
  8
0
  6
Continuous
 62
     3
100
AcDbLine
 10
204.2490011229999
 20
239.1551275549999
 30
0.0
 11
203.4490011229999
 21
239.145366323
 31
0.0
  0
LINE
  5
18E4
330
1331
100
AcDbEntity
  8
0
  6
Continuous
 62
     3
100
AcDbLine
 10
203.4490011239998
 20
240.854633673
 30
0.0
 11
204.249001124
 21
240.8448724409998
 31
0.0
  0
LINE
  5
18E5
330
1331
100
AcDbEntity
  8
0
  6
Continuous
 62
     3
100
AcDbLine
 10
204.249001124
 20
242.655127555
 30
0.0
 11
203.4490011239998
 21
242.6453663229996
 31
0.0
  0
LINE
  5
18E6
330
1331
100
AcDbEntity
  8
0
  6
Continuous
 62
     3
100
AcDbLine
 10
203.4490011239998
 20
244.3546336729998
 30
0.0
 11
204.249001124
 21
244.344872441
 31
0.0
  0
LINE
  5
18E7
330
1331
100
AcDbEntity
  8
0
  6
Continuous
 62
     3
100
AcDbLine
 10
204.249001124
 20
246.155127555
 30
0.0
 11
203.4490011239998
 21
246.1453663229999
 31
0.0
  0
LINE
  5
18E8
330
1331
100
AcDbEntity
  8
0
  6
Continuous
 62
     3
100
AcDbLine
 10
203.4490011239998
 20
247.854633673
 30
0.0
 11
204.249001124
 21
247.8448724409996
 31
0.0
  0
LINE
  5
18E9
330
1331
100
AcDbEntity
  8
0
  6
Continuous
 62
     3
100
AcDbLine
 10
206.049001124
 20
248.239999998
 30
0.0
 11
206.049001122
 21
217.7599999979999
 31
0.0
  0
LINE
  5
18EA
330
1331
100
AcDbEntity
  8
0
  6
Continuous
 62
     3
100
AcDbLine
 10
206.449001124
 20
247.739999998
 30
0.0
 11
206.449001122
 21
218.2599999979999
 31
0.0
  0
LINE
  5
18EB
330
1331
100
AcDbEntity
  8
0
  6
Continuous
 62
     3
100
AcDbLine
 10
206.449001122
 20
218.2599999979999
 30
0.0
 11
210.449001122
 21
218.2599999969998
 31
0.0
  0
LINE
  5
18EC
330
1331
100
AcDbEntity
  8
0
  6
Continuous
 62
     3
100
AcDbLine
 10
210.449001124
 20
247.739999997
 30
0.0
 11
206.449001124
 21
247.739999998
 31
0.0
  0
LINE
  5
18ED
330
1331
100
AcDbEntity
  8
0
  6
Continuous
 62
     1
100
AcDbLine
 10
244.249001122
 20
208.9999999959996
 30
0.0
 11
244.249001124
 21
256.9999999959998
 31
0.0
  0
LINE
  5
18EE
330
1331
100
AcDbEntity
  8
0
  6
Continuous
 62
     1
100
AcDbLine
 10
244.249001124
 20
256.9999999959998
 30
0.0
 11
204.449001124
 21
256.9999999979996
 31
0.0
  0
ARC
  5
18EF
330
1331
100
AcDbEntity
  8
0
  6
Continuous
 62
     1
100
AcDbCircle
 10
227.849001122
 20
209.999999997
 30
0.0
 40
1.0
100
AcDbArc
 50
180.0
 51
270.0
  0
LINE
  5
18F0
330
1331
100
AcDbEntity
  8
0
  6
Continuous
 62
     1
100
AcDbLine
 10
203.4490011239998
 20
255.999999998
 30
0.0
 11
203.4490011219999
 21
209.999999998
 31
0.0
  0
ARC
  5
18F1
330
1331
100
AcDbEntity
  8
0
  6
Continuous
 62
     1
100
AcDbCircle
 10
204.449001122
 20
209.999999998
 30
0.0
 40
1.0
100
AcDbArc
 50
180.0
 51
270.0
  0
LINE
  5
18F2
330
1331
100
AcDbEntity
  8
0
  6
Continuous
 62
     1
100
AcDbLine
 10
204.449001122
 20
208.9999999979996
 30
0.0
 11
244.249001122
 21
208.9999999959996
 31
0.0
  0
ARC
  5
18F3
330
1331
100
AcDbEntity
  8
0
  6
Continuous
 62
     1
100
AcDbCircle
 10
204.449001124
 20
255.999999998
 30
0.0
 40
1.0
100
AcDbArc
 50
90.0
 51
180.0
  0
LINE
  5
18F4
330
1331
100
AcDbEntity
  8
0
  6
Continuous
 62
     1
100
AcDbLine
 10
210.449001124
 20
248.239999997
 30
0.0
 11
204.249001124
 21
248.239999998
 31
0.0
  0
LINE
  5
18F5
330
1331
100
AcDbEntity
  8
0
  6
Continuous
 62
     1
100
AcDbLine
 10
204.249001124
 20
248.239999998
 30
0.0
 11
204.2490011219999
 21
217.7599999979999
 31
0.0
  0
LINE
  5
18F6
330
1331
100
AcDbEntity
  8
0
  6
Continuous
 62
     1
100
AcDbLine
 10
221.849001124
 20
248.239999997
 30
0.0
 11
217.9490011239998
 21
248.239999997
 31
0.0
  0
LINE
  5
18F7
330
1331
100
AcDbEntity
  8
0
  6
Continuous
 62
     1
100
AcDbLine
 10
217.9490011239998
 20
248.239999997
 30
0.0
 11
210.449001124
 21
248.239999997
 31
0.0
  0
LINE
  5
18F8
330
1331
100
AcDbEntity
  8
0
  6
Continuous
 62
     1
100
AcDbLine
 10
217.9490011219999
 20
217.7599999969998
 30
0.0
 11
217.9490011239998
 21
248.239999997
 31
0.0
  0
LINE
  5
18F9
330
1331
100
AcDbEntity
  8
0
  6
Continuous
 62
     1
100
AcDbLine
 10
204.2490011219999
 20
217.7599999979999
 30
0.0
 11
221.849001122
 21
217.7599999969998
 31
0.0
  0
ARC
  5
18FA
330
1331
100
AcDbEntity
  8
0
  6
Continuous
 62
     1
100
AcDbCircle
 10
227.849001124
 20
255.999999997
 30
0.0
 40
1.0
100
AcDbArc
 50
90.0
 51
180.0
  0
LINE
  5
18FB
330
1331
100
AcDbEntity
  8
0
  6
Continuous
 62
     1
100
AcDbLine
 10
226.849001124
 20
255.999999997
 30
0.0
 11
226.8490011219999
 21
209.999999997
 31
0.0
  0
LINE
  5
18FC
330
1331
100
AcDbEntity
  8
0
  6
Continuous
 62
     1
100
AcDbLine
 10
226.849001124
 20
249.9999999969999
 30
0.0
 11
222.349001124
 21
249.9999999969999
 31
0.0
  0
ARC
  5
18FD
330
1331
100
AcDbEntity
  8
0
  6
Continuous
 62
     1
100
AcDbCircle
 10
222.349001124
 20
249.499999997
 30
0.0
 40
0.5
100
AcDbArc
 50
90.0
 51
180.0
  0
LINE
  5
18FE
330
1331
100
AcDbEntity
  8
0
  6
Continuous
 62
     1
100
AcDbLine
 10
221.849001124
 20
249.499999997
 30
0.0
 11
221.849001124
 21
248.239999997
 31
0.0
  0
ARC
  5
18FF
330
1331
100
AcDbEntity
  8
0
  6
Continuous
 62
     1
100
AcDbCircle
 10
225.349001124
 20
249.499999997
 30
0.0
 40
0.5
100
AcDbArc
 50
90.0
 51
180.0
  0
LINE
  5
1900
330
1331
100
AcDbEntity
  8
0
  6
Continuous
 62
     1
100
AcDbLine
 10
221.849001124
 20
248.239999997
 30
0.0
 11
224.849001124
 21
248.239999997
 31
0.0
  0
ARC
  5
1901
330
1331
100
AcDbEntity
  8
0
  6
Continuous
 62
     1
100
AcDbCircle
 10
225.349001124
 20
245.399999997
 30
0.0
 40
0.5
100
AcDbArc
 50
180.0
 51
270.0
  0
LINE
  5
1902
330
1331
100
AcDbEntity
  8
0
  6
Continuous
 62
     1
100
AcDbLine
 10
225.349001124
 20
244.899999997
 30
0.0
 11
226.849001124
 21
244.899999997
 31
0.0
  0
LINE
  5
1903
330
1331
100
AcDbEntity
  8
0
  6
Continuous
 62
     1
100
AcDbLine
 10
221.849001124
 20
244.739999997
 30
0.0
 11
226.849001124
 21
244.739999997
 31
0.0
  0
LINE
  5
1904
330
1331
100
AcDbEntity
  8
0
  6
Continuous
 62
     1
100
AcDbLine
 10
221.849001122
 20
217.7599999969998
 30
0.0
 11
221.849001124
 21
248.239999997
 31
0.0
  0
LINE
  5
1905
330
1331
100
AcDbEntity
  8
0
  6
Continuous
 62
     1
100
AcDbLine
 10
226.849001124
 20
243.099999997
 30
0.0
 11
225.349001124
 21
243.099999997
 31
0.0
  0
LINE
  5
1906
330
1331
100
AcDbEntity
  8
0
  6
Continuous
 62
     1
100
AcDbLine
 10
226.849001124
 20
243.239999997
 30
0.0
 11
221.849001124
 21
243.239999997
 31
0.0
  0
LINE
  5
1907
330
1331
100
AcDbEntity
  8
0
  6
Continuous
 62
     1
100
AcDbLine
 10
225.6490011229999
 20
235.4999999969999
 30
0.0
 11
225.6490011229999
 21
230.499999997
 31
0.0
  0
LINE
  5
1908
330
1331
100
AcDbEntity
  8
0
  6
Continuous
 62
     1
100
AcDbLine
 10
224.8490011229999
 20
235.4999999969999
 30
0.0
 11
225.6490011229999
 21
235.4999999969999
 31
0.0
  0
LINE
  5
1909
330
1331
100
AcDbEntity
  8
0
  6
Continuous
 62
     1
100
AcDbLine
 10
225.6490011229999
 20
230.499999997
 30
0.0
 11
224.8490011229999
 21
230.499999997
 31
0.0
  0
LINE
  5
190A
330
1331
100
AcDbEntity
  8
0
  6
Continuous
 62
     1
100
AcDbLine
 10
222.349001122
 20
215.499999997
 30
0.0
 11
226.8490011219999
 21
215.499999997
 31
0.0
  0
ARC
  5
190B
330
1331
100
AcDbEntity
  8
0
  6
Continuous
 62
     1
100
AcDbCircle
 10
222.349001122
 20
215.999999997
 30
0.0
 40
0.5
100
AcDbArc
 50
180.0
 51
270.0
  0
LINE
  5
190C
330
1331
100
AcDbEntity
  8
0
  6
Continuous
 62
     1
100
AcDbLine
 10
221.849001123
 20
217.7599999969998
 30
0.0
 11
221.849001122
 21
215.999999997
 31
0.0
  0
LINE
  5
190D
330
1331
100
AcDbEntity
  8
0
  6
Continuous
 62
     1
100
AcDbLine
 10
224.8490011219999
 20
217.7599999969998
 30
0.0
 11
221.849001122
 21
217.7599999969998
 31
0.0
  0
ARC
  5
190E
330
1331
100
AcDbEntity
  8
0
  6
Continuous
 62
     1
100
AcDbCircle
 10
225.349001122
 20
215.999999997
 30
0.0
 40
0.5
100
AcDbArc
 50
180.0
 51
270.0
  0
ARC
  5
190F
330
1331
100
AcDbEntity
  8
0
  6
Continuous
 62
     1
100
AcDbCircle
 10
225.3490011229996
 20
220.5999999969999
 30
0.0
 40
0.5
100
AcDbArc
 50
90.0
 51
180.0
  0
LINE
  5
1910
330
1331
100
AcDbEntity
  8
0
  6
Continuous
 62
     1
100
AcDbLine
 10
224.8490011229999
 20
221.259999997
 30
0.0
 11
224.8490011219999
 21
217.7599999969998
 31
0.0
  0
LINE
  5
1911
330
1331
100
AcDbEntity
  8
0
  6
Continuous
 62
     1
100
AcDbLine
 10
224.8490011229999
 20
220.5999999969999
 30
0.0
 11
224.8490011219999
 21
215.999999997
 31
0.0
  0
LINE
  5
1912
330
1331
100
AcDbEntity
  8
0
  6
Continuous
 62
     1
100
AcDbLine
 10
226.8490011229999
 20
221.0999999969998
 30
0.0
 11
225.3490011229996
 21
221.0999999969998
 31
0.0
  0
LINE
  5
1913
330
1331
100
AcDbEntity
  8
0
  6
Continuous
 62
     1
100
AcDbLine
 10
221.849001123
 20
221.259999997
 30
0.0
 11
226.8490011229999
 21
221.259999997
 31
0.0
  0
LINE
  5
1914
330
1331
100
AcDbEntity
  8
0
  6
Continuous
 62
     1
100
AcDbLine
 10
224.8490011229999
 20
230.499999997
 30
0.0
 11
224.8490011229999
 21
223.3999999969999
 31
0.0
  0
LINE
  5
1915
330
1331
100
AcDbEntity
  8
0
  6
Continuous
 62
     1
100
AcDbLine
 10
225.3490011229996
 20
222.899999997
 30
0.0
 11
226.8490011229999
 21
222.899999997
 31
0.0
  0
ARC
  5
1916
330
1331
100
AcDbEntity
  8
0
  6
Continuous
 62
     1
100
AcDbCircle
 10
225.3490011229996
 20
223.3999999969999
 30
0.0
 40
0.5
100
AcDbArc
 50
180.0
 51
270.0
  0
LINE
  5
1917
330
1331
100
AcDbEntity
  8
0
  6
Continuous
 62
     1
100
AcDbLine
 10
226.8490011229999
 20
222.7599999969998
 30
0.0
 11
221.849001123
 21
222.7599999969998
 31
0.0
  0
LINE
  5
1918
330
1331
100
AcDbEntity
  8
0
  6
Continuous
 62
     1
100
AcDbLine
 10
224.849001124
 20
242.599999997
 30
0.0
 11
224.8490011229999
 21
235.4999999969999
 31
0.0
  0
ARC
  5
1919
330
1331
100
AcDbEntity
  8
0
  6
Continuous
 62
     1
100
AcDbCircle
 10
225.349001124
 20
242.599999997
 30
0.0
 40
0.5
100
AcDbArc
 50
90.0
 51
180.0
  0
LINE
  5
191A
330
1331
100
AcDbEntity
  8
0
  6
Continuous
 62
     1
100
AcDbLine
 10
224.849001124
 20
243.239999997
 30
0.0
 11
224.8490011229999
 21
222.7599999969998
 31
0.0
  0
LINE
  5
191B
330
1331
100
AcDbEntity
  8
0
  6
Continuous
 62
     1
100
AcDbLine
 10
224.849001124
 20
248.239999997
 30
0.0
 11
224.849001124
 21
244.739999997
 31
0.0
  0
LINE
  5
191C
330
1331
100
AcDbEntity
  8
0
  6
Continuous
 62
     1
100
AcDbLine
 10
224.849001124
 20
249.499999997
 30
0.0
 11
224.849001124
 21
245.399999997
 31
0.0
  0
LINE
  5
191D
330
1331
100
AcDbEntity
  8
0
  6
Continuous
 62
     1
100
AcDbLine
 10
216.949001122
 20
218.299999997
 30
0.0
 11
216.9490011229999
 21
222.299999997
 31
0.0
  0
LINE
  5
191E
330
1331
100
AcDbEntity
  8
0
  6
Continuous
 62
     1
100
AcDbLine
 10
216.9490011229999
 20
222.299999997
 30
0.0
 11
211.449001123
 21
222.299999997
 31
0.0
  0
LINE
  5
191F
330
1331
100
AcDbEntity
  8
0
  6
Continuous
 62
     1
100
AcDbLine
 10
211.449001123
 20
223.379999997
 30
0.0
 11
216.9490011229999
 21
223.379999997
 31
0.0
  0
LINE
  5
1920
330
1331
100
AcDbEntity
  8
0
  6
Continuous
 62
     1
100
AcDbLine
 10
211.449001123
 20
222.299999997
 30
0.0
 11
211.449001122
 21
218.299999997
 31
0.0
  0
LINE
  5
1921
330
1331
100
AcDbEntity
  8
0
  6
Continuous
 62
     1
100
AcDbLine
 10
211.449001122
 20
218.299999997
 30
0.0
 11
216.949001122
 21
218.299999997
 31
0.0
  0
LINE
  5
1922
330
1331
100
AcDbEntity
  8
0
  6
Continuous
 62
     1
100
AcDbLine
 10
211.449001123
 20
227.379999997
 30
0.0
 11
211.449001123
 21
223.379999997
 31
0.0
  0
LINE
  5
1923
330
1331
100
AcDbEntity
  8
0
  6
Continuous
 62
     1
100
AcDbLine
 10
216.9490011229999
 20
227.379999997
 30
0.0
 11
211.449001123
 21
227.379999997
 31
0.0
  0
LINE
  5
1924
330
1331
100
AcDbEntity
  8
0
  6
Continuous
 62
     1
100
AcDbLine
 10
216.9490011229999
 20
223.379999997
 30
0.0
 11
216.9490011229999
 21
227.379999997
 31
0.0
  0
LINE
  5
1925
330
1331
100
AcDbEntity
  8
0
  6
Continuous
 62
     1
100
AcDbLine
 10
216.9490011229999
 20
228.459999997
 30
0.0
 11
216.9490011229999
 21
232.459999997
 31
0.0
  0
LINE
  5
1926
330
1331
100
AcDbEntity
  8
0
  6
Continuous
 62
     1
100
AcDbLine
 10
211.449001123
 20
228.459999997
 30
0.0
 11
216.9490011229999
 21
228.459999997
 31
0.0
  0
LINE
  5
1927
330
1331
100
AcDbEntity
  8
0
  6
Continuous
 62
     1
100
AcDbLine
 10
211.449001123
 20
232.459999997
 30
0.0
 11
211.449001123
 21
228.459999997
 31
0.0
  0
LINE
  5
1928
330
1331
100
AcDbEntity
  8
0
  6
Continuous
 62
     1
100
AcDbLine
 10
216.9490011229999
 20
232.459999997
 30
0.0
 11
211.449001123
 21
232.459999997
 31
0.0
  0
LINE
  5
1929
330
1331
100
AcDbEntity
  8
0
  6
Continuous
 62
     1
100
AcDbLine
 10
211.449001123
 20
233.5399999969999
 30
0.0
 11
216.9490011229999
 21
233.5399999969999
 31
0.0
  0
LINE
  5
192A
330
1331
100
AcDbEntity
  8
0
  6
Continuous
 62
     1
100
AcDbLine
 10
216.9490011229999
 20
233.5399999969999
 30
0.0
 11
216.9490011229999
 21
237.5399999969999
 31
0.0
  0
LINE
  5
192B
330
1331
100
AcDbEntity
  8
0
  6
Continuous
 62
     1
100
AcDbLine
 10
211.449001123
 20
237.5399999969999
 30
0.0
 11
211.449001123
 21
233.5399999969999
 31
0.0
  0
LINE
  5
192C
330
1331
100
AcDbEntity
  8
0
  6
Continuous
 62
     1
100
AcDbLine
 10
216.9490011229999
 20
237.5399999969999
 30
0.0
 11
211.449001123
 21
237.5399999969999
 31
0.0
  0
LINE
  5
192D
330
1331
100
AcDbEntity
  8
0
  6
Continuous
 62
     1
100
AcDbLine
 10
211.449001123
 20
238.619999997
 30
0.0
 11
216.9490011229999
 21
238.619999997
 31
0.0
  0
LINE
  5
192E
330
1331
100
AcDbEntity
  8
0
  6
Continuous
 62
     1
100
AcDbLine
 10
211.449001124
 20
242.619999997
 30
0.0
 11
211.449001123
 21
238.619999997
 31
0.0
  0
LINE
  5
192F
330
1331
100
AcDbEntity
  8
0
  6
Continuous
 62
     1
100
AcDbLine
 10
216.9490011229999
 20
238.619999997
 30
0.0
 11
216.949001124
 21
242.619999997
 31
0.0
  0
LINE
  5
1930
330
1331
100
AcDbEntity
  8
0
  6
Continuous
 62
     1
100
AcDbLine
 10
211.449001124
 20
243.699999997
 30
0.0
 11
216.949001124
 21
243.699999997
 31
0.0
  0
LINE
  5
1931
330
1331
100
AcDbEntity
  8
0
  6
Continuous
 62
     1
100
AcDbLine
 10
216.949001124
 20
242.619999997
 30
0.0
 11
211.449001124
 21
242.619999997
 31
0.0
  0
LINE
  5
1932
330
1331
100
AcDbEntity
  8
0
  6
Continuous
 62
     1
100
AcDbLine
 10
211.449001124
 20
247.699999997
 30
0.0
 11
211.449001124
 21
243.699999997
 31
0.0
  0
LINE
  5
1933
330
1331
100
AcDbEntity
  8
0
  6
Continuous
 62
     1
100
AcDbLine
 10
216.949001124
 20
247.699999997
 30
0.0
 11
211.449001124
 21
247.699999997
 31
0.0
  0
LINE
  5
1934
330
1331
100
AcDbEntity
  8
0
  6
Continuous
 62
     1
100
AcDbLine
 10
216.949001124
 20
243.699999997
 30
0.0
 11
216.949001124
 21
247.699999997
 31
0.0
  0
LINE
  5
1935
330
1331
100
AcDbEntity
  8
0
  6
Continuous
 62
     3
100
AcDbLine
 10
274.9150000029998
 20
136.000000002
 30
0.0
 11
269.0
 21
136.000000002
 31
0.0
  0
LINE
  5
1936
330
1331
100
AcDbEntity
  8
0
  6
Continuous
 62
     3
100
AcDbLine
 10
270.0
 20
136.000000002
 30
0.0
 11
269.48236191
 21
134.06814835
 31
0.0
  0
LINE
  5
1937
330
1331
100
AcDbEntity
  8
0
  6
Continuous
 62
     3
100
AcDbLine
 10
270.0
 20
136.000000002
 30
0.0
 11
270.5176380899998
 21
134.06814835
 31
0.0
  0
LINE
  5
1938
330
1331
100
AcDbEntity
  8
0
  6
Continuous
 62
     3
100
AcDbLine
 10
270.0
 20
133.000000002
 30
0.0
 11
270.0
 21
136.000000002
 31
0.0
  0
LINE
  5
1939
330
1331
100
AcDbEntity
  8
0
  6
Continuous
 62
     3
100
AcDbLine
 10
270.0
 20
136.000000002
 30
0.0
 11
270.0
 21
140.300000002
 31
0.0
  0
LINE
  5
193A
330
1331
100
AcDbEntity
  8
0
  6
Continuous
 62
     3
100
AcDbLine
 10
270.0
 20
140.300000002
 30
0.0
 11
270.0
 21
149.300000002
 31
0.0
  0
LINE
  5
193B
330
1331
100
AcDbEntity
  8
0
  6
Continuous
 62
     3
100
AcDbLine
 10
270.0
 20
140.300000002
 30
0.0
 11
270.5176380899998
 21
142.231851655
 31
0.0
  0
LINE
  5
193C
330
1331
100
AcDbEntity
  8
0
  6
Continuous
 62
     3
100
AcDbLine
 10
270.0
 20
140.300000002
 30
0.0
 11
269.48236191
 21
142.231851655
 31
0.0
  0
LINE
  5
193D
330
1331
100
AcDbEntity
  8
0
  6
Continuous
 62
     3
100
AcDbLine
 10
274.9150000029998
 20
140.300000002
 30
0.0
 11
269.0
 21
140.300000002
 31
0.0
  0
TEXT
  5
193E
330
1331
100
AcDbEntity
  8
0
  6
Continuous
 62
     1
100
AcDbText
 10
209.959001122
 20
218.739999998
 30
0.0
 40
3.0
  1
６
 50
90.0
  7
KANJI1
100
AcDbText
  0
TEXT
  5
193F
330
1331
100
AcDbEntity
  8
0
  6
Continuous
 62
     1
100
AcDbText
 10
209.9590011229998
 20
223.8199999979999
 30
0.0
 40
3.0
  1
５
 50
90.0
  7
KANJI1
100
AcDbText
  0
TEXT
  5
1940
330
1331
100
AcDbEntity
  8
0
  6
Continuous
 62
     1
100
AcDbText
 10
209.9590011229998
 20
228.899999998
 30
0.0
 40
3.0
  1
４
 50
90.0
  7
KANJI1
100
AcDbText
  0
TEXT
  5
1941
330
1331
100
AcDbEntity
  8
0
  6
Continuous
 62
     1
100
AcDbText
 10
209.9590011229998
 20
233.9799999979999
 30
0.0
 40
3.0
  1
３
 50
90.0
  7
KANJI1
100
AcDbText
  0
TEXT
  5
1942
330
1331
100
AcDbEntity
  8
0
  6
Continuous
 62
     1
100
AcDbText
 10
209.9590011229998
 20
239.059999998
 30
0.0
 40
3.0
  1
２
 50
90.0
  7
KANJI1
100
AcDbText
  0
TEXT
  5
1943
330
1331
100
AcDbEntity
  8
0
  6
Continuous
 62
     1
100
AcDbText
 10
209.959001124
 20
244.1399999979998
 30
0.0
 40
3.0
  1
１
 50
90.0
  7
KANJI1
100
AcDbText
  0
ARC
  5
1944
330
1331
100
AcDbEntity
  8
0
  6
Continuous
 62
     1
100
AcDbCircle
 10
220.0
 20
198.0
 30
0.0
 40
2.0
100
AcDbArc
 50
90.0
 51
180.0000000009999
  0
LINE
  5
1945
330
1331
100
AcDbEntity
  8
0
  6
Continuous
 62
     1
100
AcDbLine
 10
218.0
 20
198.0
 30
0.0
 11
218.0
 21
42.0
 31
0.0
  0
ARC
  5
1946
330
1331
100
AcDbEntity
  8
0
  6
Continuous
 62
     1
100
AcDbCircle
 10
220.0
 20
42.0
 30
0.0
 40
2.0
100
AcDbArc
 50
180.0000000009999
 51
270.0
  0
LINE
  5
1947
330
1331
100
AcDbEntity
  8
0
  6
Continuous
 62
     1
100
AcDbLine
 10
220.0
 20
40.0
 30
0.0
 11
394.0
 21
40.0
 31
0.0
  0
ARC
  5
1948
330
1331
100
AcDbEntity
  8
0
  6
Continuous
 62
     1
100
AcDbCircle
 10
394.0
 20
42.0
 30
0.0
 40
2.0
100
AcDbArc
 50
270.0
 51
0.0
  0
LINE
  5
1949
330
1331
100
AcDbEntity
  8
0
  6
Continuous
 62
     1
100
AcDbLine
 10
394.0
 20
200.0
 30
0.0
 11
220.0
 21
200.0
 31
0.0
  0
LINE
  5
194A
330
1331
100
AcDbEntity
  8
0
  6
Continuous
 62
     1
100
AcDbLine
 10
396.0
 20
42.0
 30
0.0
 11
396.0
 21
198.0
 31
0.0
  0
ARC
  5
194B
330
1331
100
AcDbEntity
  8
0
  6
Continuous
 62
     1
100
AcDbCircle
 10
394.0
 20
198.0
 30
0.0
 40
2.0
100
AcDbArc
 50
0.0
 51
90.0
  0
TEXT
  5
194C
330
1331
100
AcDbEntity
  8
0
  6
Continuous
 62
     1
100
AcDbText
 10
234.0
 20
164.0
 30
0.0
 40
5.0
  1
端子カバー付
 41
0.8
  7
KANJI3
100
AcDbText
  0
TEXT
  5
194D
330
1331
100
AcDbEntity
  8
0
  6
Continuous
 62
     3
100
AcDbText
 10
138.1575000039999
 20
196.5
 30
0.1
 40
2.0
  1
９６～９８スライド
 41
0.8
  7
KANJI0
100
AcDbText
  0
TEXT
  5
194E
330
1331
100
AcDbEntity
  8
0
  6
Continuous
 62
     3
100
AcDbText
 10
206.5000000019999
 20
154.549999998
 30
0.1
 40
2.0
  1
４１
 50
90.0
 41
0.8
  7
KANJI0
100
AcDbText
  0
LINE
  5
194F
330
1331
100
AcDbEntity
  8
0
  6
Continuous
 62
     3
100
AcDbLine
 10
127.400000002
 20
141.500000001
 30
0.1
 11
127.400000002
 21
145.5499999979998
 31
0.1
  0
LINE
  5
1950
330
1331
100
AcDbEntity
  8
0
  6
Continuous
 62
     3
100
AcDbLine
 10
127.400000002
 20
143.549999998
 30
0.0
 11
129.814814568
 21
142.9029523849998
 31
0.0
  0
LINE
  5
1951
330
1331
100
AcDbEntity
  8
0
  6
Continuous
 62
     3
100
AcDbLine
 10
127.400000002
 20
143.549999998
 30
0.0
 11
129.814814568
 21
144.19704761
 31
0.0
  0
LINE
  5
1952
330
1331
100
AcDbEntity
  8
0
  6
Continuous
 62
     3
100
AcDbLine
 10
127.400000002
 20
143.549999998
 30
0.0
 11
162.600000002
 21
143.549999998
 31
0.0
  0
LINE
  5
1953
330
1331
100
AcDbEntity
  8
0
  6
Continuous
 62
     3
100
AcDbLine
 10
162.600000002
 20
143.549999998
 30
0.0
 11
160.185185436
 21
144.19704761
 31
0.0
  0
LINE
  5
1954
330
1331
100
AcDbEntity
  8
0
  6
Continuous
 62
     3
100
AcDbLine
 10
162.600000002
 20
143.549999998
 30
0.0
 11
160.185185436
 21
142.9029523849998
 31
0.0
  0
LINE
  5
1955
330
1331
100
AcDbEntity
  8
0
  6
Continuous
 62
     3
100
AcDbLine
 10
162.600000002
 20
141.4999999989998
 30
0.0
 11
162.600000002
 21
145.5499999979998
 31
0.0
  0
LINE
  5
1956
330
1331
100
AcDbEntity
  8
0
  6
Continuous
 62
     3
100
AcDbLine
 10
127.000000002
 20
136.000000001
 30
0.0
 11
127.400000002
 21
140.500000001
 31
0.0
  0
LINE
  5
1957
330
1331
100
AcDbEntity
  8
0
  6
Continuous
 62
     3
100
AcDbLine
 10
127.000000002
 20
136.000000001
 30
0.0
 11
98.000000002
 21
136.000000002
 31
0.0
  0
LINE
  5
1958
330
1331
100
AcDbEntity
  8
0
  6
Continuous
 62
     3
100
AcDbLine
 10
163.000000002
 20
135.9999999989998
 30
0.0
 11
192.000000002
 21
135.9999999979999
 31
0.0
  0
LINE
  5
1959
330
1331
100
AcDbEntity
  8
0
  6
Continuous
 62
     3
100
AcDbLine
 10
162.600000002
 20
140.4999999989998
 30
0.0
 11
163.000000002
 21
135.9999999989998
 31
0.0
  0
LINE
  5
195A
330
1331
100
AcDbEntity
  8
0
  6
Continuous
 62
     3
100
AcDbLine
 10
127.000000002
 20
135.000000001
 30
0.0
 11
127.000000002
 21
129.15
 31
0.0
  0
LINE
  5
195B
330
1331
100
AcDbEntity
  8
0
  6
Continuous
 62
     3
100
AcDbLine
 10
127.000000002
 20
131.15
 30
0.0
 11
129.414814567
 21
130.5029523879998
 31
0.0
  0
LINE
  5
195C
330
1331
100
AcDbEntity
  8
0
  6
Continuous
 62
     3
100
AcDbLine
 10
127.000000002
 20
131.15
 30
0.0
 11
129.414814567
 21
131.7970476129999
 31
0.0
  0
LINE
  5
195D
330
1331
100
AcDbEntity
  8
0
  6
Continuous
 62
     3
100
AcDbLine
 10
127.000000002
 20
131.15
 30
0.0
 11
163.000000002
 21
131.15
 31
0.0
  0
LINE
  5
195E
330
1331
100
AcDbEntity
  8
0
  6
Continuous
 62
     3
100
AcDbLine
 10
163.000000002
 20
131.15
 30
0.0
 11
160.585185436
 21
131.7970476129999
 31
0.0
  0
LINE
  5
195F
330
1331
100
AcDbEntity
  8
0
  6
Continuous
 62
     3
100
AcDbLine
 10
163.000000002
 20
131.15
 30
0.0
 11
160.585185436
 21
130.5029523879998
 31
0.0
  0
LINE
  5
1960
330
1331
100
AcDbEntity
  8
0
  6
Continuous
 62
     3
100
AcDbLine
 10
163.000000002
 20
134.9999999989998
 30
0.0
 11
163.000000002
 21
129.15
 31
0.0
  0
TEXT
  5
1961
330
1331
100
AcDbEntity
  8
0
  6
Continuous
 62
     3
100
AcDbText
 10
269.4999999999997
 20
143.300000002
 30
0.0
 40
2.5
  1
４.５
 50
90.0
 41
0.8
  7
KANJI4
100
AcDbText
  0
TEXT
  5
1962
330
1331
100
AcDbEntity
  8
0
  6
Continuous
 62
     3
100
AcDbText
 10
321.6500000099998
 20
113.499999993
 30
0.1
 40
2.0
  1
６４.５
 41
0.8
  7
KANJI0
100
AcDbText
  0
TEXT
  5
1963
330
1331
100
AcDbEntity
  8
0
  6
Continuous
 62
     3
100
AcDbText
 10
317.657500004
 20
47.5
 30
0.1
 40
2.0
  1
９６～９８スライド
 41
0.8
  7
KANJI0
100
AcDbText
  0
TEXT
  5
1964
330
1331
100
AcDbEntity
  8
0
  6
Continuous
 62
     3
100
AcDbText
 10
141.850000004
 20
144.500002697
 30
0.1
 40
2.0
  1
３５.２
 41
0.8
  7
KANJI0
100
AcDbText
  0
TEXT
  5
1965
330
1331
100
AcDbEntity
  8
0
  6
Continuous
 62
     3
100
AcDbText
 10
141.850000004
 20
132.000002697
 30
0.1
 40
2.0
  1
３５.４
 41
0.8
  7
KANJI0
100
AcDbText
  0
LINE
  5
1966
330
1331
100
AcDbEntity
  8
0
  6
Continuous
 62
     6
100
AcDbLine
 10
94.849664944
 20
595.856822211
 30
0.1
 11
276.449664944
 21
595.8568222
 31
0.1
  0
LINE
  5
1967
330
1331
100
AcDbEntity
  8
0
  6
Continuous
 62
     1
100
AcDbLine
 10
78.864664944
 20
595.856822212
 30
0.0
 11
94.864664944
 21
595.856822211
 31
0.0
  0
TEXT
  5
1968
330
1331
100
AcDbEntity
  8
0
  6
Continuous
 62
     3
100
AcDbText
 10
386.500000003
 20
153.0499999959999
 30
0.1
 40
2.0
  1
４１
 50
90.0
 41
0.8
  7
KANJI0
100
AcDbText
  0
TEXT
  5
1969
330
1331
100
AcDbEntity
  8
0
  6
Continuous
 62
     3
100
AcDbText
 10
379.500000003
 20
153.1999999979998
 30
0.0
 40
2.5
  1
４２.５
 50
90.0
 41
0.8
  7
KANJI4
100
AcDbText
  0
ENDSEC
  0
SECTION
  2
OBJECTS
  0
DICTIONARY
  5
131F
330
0
100
AcDbDictionary
281
     1
  3
ACAD_GROUP
350
1320
  3
ACAD_PLOTSTYLENAME
350
1321
  3
ACAD_MLINESTYLE
350
1329
  3
ACAD_PLOTSETTINGS
350
132B
  3
ACAD_LAYOUT
350
132C
  0
DICTIONARY
  5
1320
102
{ACAD_REACTORS
330
131F
102
}
330
131F
100
AcDbDictionary
281
     1
  0
ACDBDICTIONARYWDFLT
  5
1321
102
{ACAD_REACTORS
330
131F
102
}
330
131F
100
AcDbDictionary
281
     1
  3
Normal
350
1322
100
AcDbDictionaryWithDefault
340
1322
  0
DICTIONARY
  5
1329
102
{ACAD_REACTORS
330
131F
102
}
330
131F
100
AcDbDictionary
281
     1
  3
Standard
350
132A
  0
DICTIONARY
  5
132B
102
{ACAD_REACTORS
330
131F
102
}
330
131F
100
AcDbDictionary
281
     1
  0
DICTIONARY
  5
132C
102
{ACAD_REACTORS
330
131F
102
}
330
131F
100
AcDbDictionary
281
     1
  3
ﾚｲｱｳﾄ1
350
1330
  3
Model
350
1334
  0
ACDBPLACEHOLDER
  5
1322
102
{ACAD_REACTORS
330
1321
102
}
330
1321
  0
MLINESTYLE
  5
132A
102
{ACAD_REACTORS
330
1329
102
}
330
1329
100
AcDbMlineStyle
  2
STANDARD
 70
     0
  3

 62
   256
 51
90.0
 52
90.0
 71
     2
 49
0.5
 62
   256
  6
BYLAYER
 49
-0.5
 62
   256
  6
BYLAYER
  0
LAYOUT
  5
1330
102
{ACAD_REACTORS
330
132C
102
}
330
132C
100
AcDbPlotSettings
  1

  2
Canon LASER SHOT LBP-880
  4

  6

 40
0.0
 41
0.0
 42
0.0
 43
0.0
 44
0.0
 45
0.0
 46
0.0
 47
0.0
 48
0.0
 49
0.0
140
0.0
141
0.0
142
1.0
143
1.0
 70
   688
 72
     0
 73
     0
 74
     5
  7

 75
    16
147
1.0
148
0.0
149
0.0
100
AcDbLayout
  1
ﾚｲｱｳﾄ1
 70
     1
 71
     1
 10
0.0
 20
0.0
 11
12.0
 21
9.0
 12
0.0
 22
0.0
 32
0.0
 14
1.000000000000000E+20
 24
1.000000000000000E+20
 34
1.000000000000000E+20
 15
-1.000000000000000E+20
 25
-1.000000000000000E+20
 35
-1.000000000000000E+20
146
0.0
 13
0.0
 23
0.0
 33
0.0
 16
1.0
 26
0.0
 36
0.0
 17
0.0
 27
1.0
 37
0.0
 76
     0
330
132D
  0
LAYOUT
  5
1334
102
{ACAD_REACTORS
330
132C
102
}
330
132C
100
AcDbPlotSettings
  1

  2
Canon LASER SHOT LBP-880
  4

  6

 40
0.0
 41
0.0
 42
0.0
 43
0.0
 44
0.0
 45
0.0
 46
0.0
 47
0.0
 48
0.0
 49
0.0
140
0.0
141
0.0
142
1.0
143
1.0
 70
  1712
 72
     0
 73
     0
 74
     0
  7

 75
     0
147
1.0
148
0.0
149
0.0
100
AcDbLayout
  1
Model
 70
     1
 71
     0
 10
0.0
 20
0.0
 11
12.0
 21
9.0
 12
0.0
 22
0.0
 32
0.0
 14
0.0
 24
0.0
 34
0.0
 15
0.0
 25
0.0
 35
0.0
146
0.0
 13
0.0
 23
0.0
 33
0.0
 16
1.0
 26
0.0
 36
0.0
 17
0.0
 27
1.0
 37
0.0
 76
     0
330
1331
  0
ENDSEC
  0
EOF
