  0
SECTION
  2
HEADER
  9
$EXTMIN
 10
0.0
 20
0.0
 30
0.0
  9
$EXTMAX
 10
420.0
 20
297.0
 30
0.0
  9
$LIMMIN
 10
0.0
 20
0.0
  9
$LIMMAX
 10
420.0
 20
297.0
  9
$LTSCALE
 40
1.0
  9
$PDMODE
 70
     0
  0
ENDSEC
  0
SECTION
  2
TABLES
  0
TABLE
  2
LTYPE
 70
     2
  0
LTYPE
  2
CONTINUOUS
 70
    64
  3
Solid line
 72
    65
 73
     0
 40
0.0
  0
LTYPE
  2
LTYPE1
 70
    64
  3
CENTER
 72
    65
 73
     4
 40
15.0
 49
10.5
 49
-1.5
 49
1.5
 49
-1.5
  0
ENDTAB
  0
TABLE
  2
LAYER
 70
   128
  0
LAYER
  2
0
 70
     0
 62
     7
  6
CONTINUOUS
  0
LAYER
  2
1
 70
     0
 62
     7
  6
CONTINUOUS
  0
LAYER
  2
2
 70
     0
 62
     7
  6
CONTINUOUS
  0
LAYER
  2
3
 70
     0
 62
     7
  6
CONTINUOUS
  0
LAYER
  2
4
 70
     0
 62
     7
  6
CONTINUOUS
  0
LAYER
  2
5
 70
     0
 62
     7
  6
CONTINUOUS
  0
LAYER
  2
6
 70
     0
 62
     7
  6
CONTINUOUS
  0
LAYER
  2
7
 70
     0
 62
     7
  6
CONTINUOUS
  0
LAYER
  2
8
 70
     0
 62
     7
  6
CONTINUOUS
  0
LAYER
  2
9
 70
     0
 62
     7
  6
CONTINUOUS
  0
LAYER
  2
10
 70
     0
 62
     7
  6
CONTINUOUS
  0
LAYER
  2
11
 70
     0
 62
     7
  6
CONTINUOUS
  0
LAYER
  2
12
 70
     0
 62
     7
  6
CONTINUOUS
  0
LAYER
  2
13
 70
     0
 62
     7
  6
CONTINUOUS
  0
LAYER
  2
14
 70
     0
 62
     7
  6
CONTINUOUS
  0
LAYER
  2
15
 70
     0
 62
     7
  6
CONTINUOUS
  0
LAYER
  2
16
 70
     0
 62
     7
  6
CONTINUOUS
  0
LAYER
  2
17
 70
     0
 62
     7
  6
CONTINUOUS
  0
LAYER
  2
18
 70
     0
 62
     7
  6
CONTINUOUS
  0
LAYER
  2
19
 70
     0
 62
     7
  6
CONTINUOUS
  0
LAYER
  2
20
 70
     0
 62
     7
  6
CONTINUOUS
  0
LAYER
  2
21
 70
     0
 62
     7
  6
CONTINUOUS
  0
LAYER
  2
22
 70
     0
 62
     7
  6
CONTINUOUS
  0
LAYER
  2
23
 70
     0
 62
     7
  6
CONTINUOUS
  0
LAYER
  2
24
 70
     0
 62
     7
  6
CONTINUOUS
  0
LAYER
  2
25
 70
     0
 62
     7
  6
CONTINUOUS
  0
LAYER
  2
26
 70
     0
 62
     7
  6
CONTINUOUS
  0
LAYER
  2
27
 70
     0
 62
     7
  6
CONTINUOUS
  0
LAYER
  2
28
 70
     0
 62
     7
  6
CONTINUOUS
  0
LAYER
  2
29
 70
     0
 62
     7
  6
CONTINUOUS
  0
LAYER
  2
30
 70
     0
 62
     7
  6
CONTINUOUS
  0
LAYER
  2
31
 70
     0
 62
     7
  6
CONTINUOUS
  0
LAYER
  2
32
 70
     0
 62
     7
  6
CONTINUOUS
  0
LAYER
  2
33
 70
     0
 62
     7
  6
CONTINUOUS
  0
LAYER
  2
34
 70
     0
 62
     7
  6
CONTINUOUS
  0
LAYER
  2
35
 70
     0
 62
     7
  6
CONTINUOUS
  0
LAYER
  2
36
 70
     0
 62
     7
  6
CONTINUOUS
  0
LAYER
  2
37
 70
     0
 62
     7
  6
CONTINUOUS
  0
LAYER
  2
38
 70
     0
 62
     7
  6
CONTINUOUS
  0
LAYER
  2
39
 70
     0
 62
     7
  6
CONTINUOUS
  0
LAYER
  2
40
 70
     0
 62
     7
  6
CONTINUOUS
  0
LAYER
  2
41
 70
     0
 62
     7
  6
CONTINUOUS
  0
LAYER
  2
42
 70
     0
 62
     7
  6
CONTINUOUS
  0
LAYER
  2
43
 70
     0
 62
     7
  6
CONTINUOUS
  0
LAYER
  2
44
 70
     0
 62
     7
  6
CONTINUOUS
  0
LAYER
  2
45
 70
     0
 62
     7
  6
CONTINUOUS
  0
LAYER
  2
46
 70
     0
 62
     7
  6
CONTINUOUS
  0
LAYER
  2
47
 70
     0
 62
     7
  6
CONTINUOUS
  0
LAYER
  2
48
 70
     0
 62
     7
  6
CONTINUOUS
  0
LAYER
  2
49
 70
     0
 62
     7
  6
CONTINUOUS
  0
LAYER
  2
50
 70
     0
 62
     7
  6
CONTINUOUS
  0
LAYER
  2
51
 70
     0
 62
     7
  6
CONTINUOUS
  0
LAYER
  2
52
 70
     0
 62
     7
  6
CONTINUOUS
  0
LAYER
  2
53
 70
     0
 62
     7
  6
CONTINUOUS
  0
LAYER
  2
54
 70
     0
 62
     7
  6
CONTINUOUS
  0
LAYER
  2
55
 70
     0
 62
     7
  6
CONTINUOUS
  0
LAYER
  2
56
 70
     0
 62
     7
  6
CONTINUOUS
  0
LAYER
  2
57
 70
     0
 62
     7
  6
CONTINUOUS
  0
LAYER
  2
58
 70
     0
 62
     7
  6
CONTINUOUS
  0
LAYER
  2
59
 70
     0
 62
     7
  6
CONTINUOUS
  0
LAYER
  2
60
 70
     0
 62
     7
  6
CONTINUOUS
  0
LAYER
  2
61
 70
     0
 62
     7
  6
CONTINUOUS
  0
LAYER
  2
62
 70
     0
 62
     7
  6
CONTINUOUS
  0
LAYER
  2
63
 70
     0
 62
     7
  6
CONTINUOUS
  0
LAYER
  2
64
 70
     0
 62
     7
  6
CONTINUOUS
  0
LAYER
  2
65
 70
     0
 62
     7
  6
CONTINUOUS
  0
LAYER
  2
66
 70
     0
 62
     7
  6
CONTINUOUS
  0
LAYER
  2
67
 70
     0
 62
     7
  6
CONTINUOUS
  0
LAYER
  2
68
 70
     0
 62
     7
  6
CONTINUOUS
  0
LAYER
  2
69
 70
     0
 62
     7
  6
CONTINUOUS
  0
LAYER
  2
70
 70
     0
 62
     7
  6
CONTINUOUS
  0
LAYER
  2
71
 70
     0
 62
     7
  6
CONTINUOUS
  0
LAYER
  2
72
 70
     0
 62
     7
  6
CONTINUOUS
  0
LAYER
  2
73
 70
     0
 62
     7
  6
CONTINUOUS
  0
LAYER
  2
74
 70
     0
 62
     7
  6
CONTINUOUS
  0
LAYER
  2
75
 70
     0
 62
     7
  6
CONTINUOUS
  0
LAYER
  2
76
 70
     0
 62
     7
  6
CONTINUOUS
  0
LAYER
  2
77
 70
     0
 62
     7
  6
CONTINUOUS
  0
LAYER
  2
78
 70
     0
 62
     7
  6
CONTINUOUS
  0
LAYER
  2
79
 70
     0
 62
     7
  6
CONTINUOUS
  0
LAYER
  2
80
 70
     0
 62
     7
  6
CONTINUOUS
  0
LAYER
  2
81
 70
     0
 62
     7
  6
CONTINUOUS
  0
LAYER
  2
82
 70
     0
 62
     7
  6
CONTINUOUS
  0
LAYER
  2
83
 70
     0
 62
     7
  6
CONTINUOUS
  0
LAYER
  2
84
 70
     0
 62
     7
  6
CONTINUOUS
  0
LAYER
  2
85
 70
     0
 62
     7
  6
CONTINUOUS
  0
LAYER
  2
86
 70
     0
 62
     7
  6
CONTINUOUS
  0
LAYER
  2
87
 70
     0
 62
     7
  6
CONTINUOUS
  0
LAYER
  2
88
 70
     0
 62
     7
  6
CONTINUOUS
  0
LAYER
  2
89
 70
     0
 62
     7
  6
CONTINUOUS
  0
LAYER
  2
90
 70
     0
 62
     7
  6
CONTINUOUS
  0
LAYER
  2
91
 70
     0
 62
     7
  6
CONTINUOUS
  0
LAYER
  2
92
 70
     0
 62
     7
  6
CONTINUOUS
  0
LAYER
  2
93
 70
     0
 62
     7
  6
CONTINUOUS
  0
LAYER
  2
94
 70
     0
 62
     7
  6
CONTINUOUS
  0
LAYER
  2
95
 70
     0
 62
     7
  6
CONTINUOUS
  0
LAYER
  2
96
 70
     0
 62
     7
  6
CONTINUOUS
  0
LAYER
  2
97
 70
     0
 62
     7
  6
CONTINUOUS
  0
LAYER
  2
98
 70
     0
 62
     7
  6
CONTINUOUS
  0
LAYER
  2
99
 70
     0
 62
     7
  6
CONTINUOUS
  0
LAYER
  2
100
 70
     0
 62
     7
  6
CONTINUOUS
  0
LAYER
  2
101
 70
     0
 62
     7
  6
CONTINUOUS
  0
LAYER
  2
102
 70
     0
 62
     7
  6
CONTINUOUS
  0
LAYER
  2
103
 70
     0
 62
     7
  6
CONTINUOUS
  0
LAYER
  2
104
 70
     0
 62
     7
  6
CONTINUOUS
  0
LAYER
  2
105
 70
     0
 62
     7
  6
CONTINUOUS
  0
LAYER
  2
106
 70
     0
 62
     7
  6
CONTINUOUS
  0
LAYER
  2
107
 70
     0
 62
     7
  6
CONTINUOUS
  0
LAYER
  2
108
 70
     0
 62
     7
  6
CONTINUOUS
  0
LAYER
  2
109
 70
     0
 62
     7
  6
CONTINUOUS
  0
LAYER
  2
110
 70
     0
 62
     7
  6
CONTINUOUS
  0
LAYER
  2
111
 70
     0
 62
     7
  6
CONTINUOUS
  0
LAYER
  2
112
 70
     0
 62
     7
  6
CONTINUOUS
  0
LAYER
  2
113
 70
     0
 62
     7
  6
CONTINUOUS
  0
LAYER
  2
114
 70
     0
 62
     7
  6
CONTINUOUS
  0
LAYER
  2
115
 70
     0
 62
     7
  6
CONTINUOUS
  0
LAYER
  2
116
 70
     0
 62
     7
  6
CONTINUOUS
  0
LAYER
  2
117
 70
     0
 62
     7
  6
CONTINUOUS
  0
LAYER
  2
118
 70
     0
 62
     7
  6
CONTINUOUS
  0
LAYER
  2
119
 70
     0
 62
     7
  6
CONTINUOUS
  0
LAYER
  2
120
 70
     0
 62
     7
  6
CONTINUOUS
  0
LAYER
  2
121
 70
     0
 62
     7
  6
CONTINUOUS
  0
LAYER
  2
122
 70
     0
 62
     7
  6
CONTINUOUS
  0
LAYER
  2
123
 70
     0
 62
     7
  6
CONTINUOUS
  0
LAYER
  2
124
 70
     0
 62
     7
  6
CONTINUOUS
  0
LAYER
  2
125
 70
     0
 62
     7
  6
CONTINUOUS
  0
LAYER
  2
126
 70
     0
 62
     7
  6
CONTINUOUS
  0
LAYER
  2
127
 70
     0
 62
     7
  6
CONTINUOUS
  0
ENDTAB
  0
TABLE
  2
STYLE
 70
     5
  0
STYLE
  2
STANDARD
 70
     0
 40
0.0
 41
1.0
 50
0.0
 71
     0
 42
0.2
  3
txt
  4

  0
STYLE
  2
KANJI0
 70
     0
 40
3.5
 41
0.914285714
 50
0.0
 71
     0
 42
3.5
  3

  4
bigfont
  0
STYLE
  2
KANJI1
 70
     0
 40
3.6
 41
1.0
 50
0.0
 71
     0
 42
3.6
  3

  4
bigfont
  0
STYLE
  2
KANJI2
 70
     0
 40
2.16
 41
1.0
 50
0.0
 71
     0
 42
2.16
  3

  4
bigfont
  0
STYLE
  2
KANJI3
 70
     0
 40
3.2
 41
0.84375
 50
0.0
 71
     0
 42
3.2
  3

  4
bigfont
  0
ENDTAB
  0
TABLE
  2
VIEW
 70
     0
  0
ENDTAB
  0
ENDSEC
  0
SECTION
  2
BLOCKS
  0
ENDSEC
  0
SECTION
  2
ENTITIES
  0
LINE
  8
0
  6
CONTINUOUS
 62
     3
 10
89.64
 20
222.105185185
 11
89.64
 21
220.534814815
  0
LINE
  8
0
  6
CONTINUOUS
 62
     3
 10
89.64
 20
218.605185185
 11
89.64
 21
217.034814815
  0
LINE
  8
0
  6
CONTINUOUS
 62
     3
 10
89.64
 20
215.105185185
 11
89.64
 21
213.534814815
  0
LINE
  8
0
  6
CONTINUOUS
 62
     3
 10
89.64
 20
211.605185185
 11
89.64
 21
210.034814815
  0
LINE
  8
0
  6
CONTINUOUS
 62
     3
 10
89.64
 20
208.105185185
 11
89.64
 21
206.534814815
  0
LINE
  8
0
  6
CONTINUOUS
 62
     3
 10
89.64
 20
204.605185185
 11
89.64
 21
203.034814815
  0
LINE
  8
0
  6
CONTINUOUS
 62
     3
 10
79.84
 20
203.07
 11
91.64
 21
202.97
  0
LINE
  8
0
  6
CONTINUOUS
 62
     3
 10
89.64
 20
201.105185185
 11
89.64
 21
199.534814815
  0
LINE
  8
0
  6
CONTINUOUS
 62
     3
 10
79.84
 20
200.32
 11
79.84
 21
201.07
  0
LINE
  8
0
  6
CONTINUOUS
 62
     3
 10
79.84
 20
201.07
 11
91.64
 21
201.17
  0
LINE
  8
0
  6
CONTINUOUS
 62
     3
 10
79.84
 20
200.32
 11
79.84
 21
199.57
  0
LINE
  8
0
  6
CONTINUOUS
 62
     3
 10
79.84
 20
199.57
 11
91.64
 21
199.47
  0
LINE
  8
0
  6
CONTINUOUS
 62
     3
 10
89.64
 20
224.034814815
 11
89.64
 21
225.605185185
  0
LINE
  8
0
  6
CONTINUOUS
 62
     3
 10
89.64
 20
227.534814815
 11
89.64
 21
229.105185185
  0
LINE
  8
0
  6
CONTINUOUS
 62
     3
 10
89.64
 20
231.034814815
 11
89.64
 21
232.605185185
  0
LINE
  8
0
  6
CONTINUOUS
 62
     3
 10
89.64
 20
234.534814815
 11
89.64
 21
236.105185185
  0
LINE
  8
0
  6
CONTINUOUS
 62
     3
 10
89.64
 20
238.034814815
 11
89.64
 21
239.605185185
  0
LINE
  8
0
  6
CONTINUOUS
 62
     3
 10
79.84
 20
239.57
 11
91.64
 21
239.67
  0
LINE
  8
0
  6
CONTINUOUS
 62
     3
 10
89.64
 20
241.534814815
 11
89.64
 21
243.105185185
  0
LINE
  8
0
  6
CONTINUOUS
 62
     3
 10
79.84
 20
242.32
 11
79.84
 21
241.57
  0
LINE
  8
0
  6
CONTINUOUS
 62
     3
 10
79.84
 20
241.57
 11
91.64
 21
241.47
  0
LINE
  8
0
  6
CONTINUOUS
 62
     3
 10
79.84
 20
242.32
 11
79.84
 21
243.07
  0
LINE
  8
0
  6
CONTINUOUS
 62
     3
 10
79.84
 20
243.07
 11
91.64
 21
243.17
  0
LINE
  8
0
  6
CONTINUOUS
 62
     3
 10
69.44
 20
221.32
 11
69.44
 21
223.82
  0
LINE
  8
0
  6
CONTINUOUS
 62
     3
 10
69.44
 20
223.82
 11
70.24
 21
223.82
  0
LINE
  8
0
  6
CONTINUOUS
 62
     3
 10
50.84
 20
245.32
 11
50.84
 21
221.32
  0
LINE
  8
0
  6
CONTINUOUS
 62
     3
 10
69.74
 20
231.42
 11
68.24
 21
231.42
  0
ARC
  8
0
  6
CONTINUOUS
 62
     3
 10
69.74
 20
230.92
 40
0.5
 50
0.0
 51
90.0
  0
LINE
  8
0
  6
CONTINUOUS
 62
     3
 10
69.74
 20
233.22
 11
68.24
 21
233.22
  0
ARC
  8
0
  6
CONTINUOUS
 62
     3
 10
69.74
 20
233.72
 40
0.5
 50
270.0
 51
0.0
  0
LINE
  8
0
  6
CONTINUOUS
 62
     3
 10
70.24
 20
223.82
 11
70.24
 21
230.92
  0
LINE
  8
0
  6
CONTINUOUS
 62
     3
 10
68.24
 20
221.32
 11
68.24
 21
244.32
  0
LINE
  8
0
  6
CONTINUOUS
 62
     3
 10
67.24
 20
245.32
 11
50.84
 21
245.32
  0
ARC
  8
0
  6
CONTINUOUS
 62
     3
 10
67.24
 20
244.32
 40
1.0
 50
0.0
 51
90.0
  0
LINE
  8
0
  6
CONTINUOUS
 62
     3
 10
90.64
 20
245.32
 11
67.04
 21
245.32
  0
LINE
  8
0
  6
CONTINUOUS
 62
     3
 10
69.74
 20
211.22
 11
68.24
 21
211.22
  0
ARC
  8
0
  6
CONTINUOUS
 62
     3
 10
69.74
 20
211.72
 40
0.5
 50
270.0
 51
0.0
  0
LINE
  8
0
  6
CONTINUOUS
 62
     3
 10
69.74
 20
209.42
 11
68.24
 21
209.42
  0
ARC
  8
0
  6
CONTINUOUS
 62
     3
 10
69.74
 20
208.92
 40
0.5
 50
0.0
 51
90.0
  0
LINE
  8
0
  6
CONTINUOUS
 62
     3
 10
70.24
 20
218.82
 11
70.24
 21
211.72
  0
LINE
  8
0
  6
CONTINUOUS
 62
     3
 10
68.24
 20
221.32
 11
68.24
 21
198.32
  0
ARC
  8
0
  6
CONTINUOUS
 62
     3
 10
67.24
 20
198.32
 40
1.0
 50
270.0
 51
0.0
  0
LINE
  8
0
  6
CONTINUOUS
 62
     3
 10
90.64
 20
197.32
 11
67.04
 21
197.32
  0
LINE
  8
0
  6
CONTINUOUS
 62
     3
 10
50.84
 20
197.32
 11
50.84
 21
221.32
  0
LINE
  8
0
  6
CONTINUOUS
 62
     3
 10
67.24
 20
197.32
 11
50.84
 21
197.32
  0
LINE
  8
0
  6
CONTINUOUS
 62
     3
 10
70.24
 20
208.92
 11
70.24
 21
204.82
  0
LINE
  8
0
  6
CONTINUOUS
 62
     3
 10
70.24
 20
233.72
 11
70.24
 21
237.82
  0
LINE
  8
0
  6
CONTINUOUS
 62
     3
 10
69.81
 20
241.37
 11
72.688110735
 21
241.37
  0
LINE
  8
0
  6
CONTINUOUS
 62
     3
 10
68.24
 20
241.37
 11
69.74
 21
241.37
  0
ARC
  8
0
  6
CONTINUOUS
 62
     3
 10
69.74
 20
240.87
 40
0.5
 50
0.0
 51
90.0
  0
ARC
  8
0
  6
CONTINUOUS
 62
     3
 10
72.688110735
 20
201.77
 40
0.5
 50
270.0
 51
359.819825187
  0
LINE
  8
0
  6
CONTINUOUS
 62
     3
 10
68.24
 20
201.27
 11
69.74
 21
201.27
  0
ARC
  8
0
  6
CONTINUOUS
 62
     3
 10
69.74
 20
201.77
 40
0.5
 50
270.0
 51
0.0
  0
LINE
  8
0
  6
CONTINUOUS
 62
     3
 10
69.63
 20
201.27
 11
72.688110735
 21
201.27
  0
LINE
  8
0
  6
CONTINUOUS
 62
     3
 10
70.24
 20
237.82
 11
70.24
 21
240.87
  0
LINE
  8
0
  6
CONTINUOUS
 62
     3
 10
70.24
 20
204.82
 11
70.24
 21
201.77
  0
LINE
  8
0
  6
CONTINUOUS
 62
     3
 10
70.24
 20
239.77
 11
73.188108263
 21
239.77
  0
LINE
  8
0
  6
CONTINUOUS
 62
     3
 10
70.24
 20
202.87
 11
73.188108263
 21
202.87
  0
LINE
  8
0
  6
CONTINUOUS
 62
     3
 10
91.64
 20
221.32
 11
91.64
 21
198.32
  0
ARC
  8
0
  6
CONTINUOUS
 62
     3
 10
90.64
 20
198.32
 40
1.0
 50
270.0
 51
0.0
  0
LINE
  8
0
  6
CONTINUOUS
 62
     3
 10
91.64
 20
221.32
 11
91.64
 21
244.32
  0
ARC
  8
0
  6
CONTINUOUS
 62
     3
 10
90.64
 20
244.32
 40
1.0
 50
0.0
 51
90.0
  0
LINE
  8
0
  6
CONTINUOUS
 62
     3
 10
50.84
 20
197.32
 11
50.84
 21
221.32
  0
LINE
  8
0
  6
CONTINUOUS
 62
     3
 10
77.64
 20
237.97
 11
70.94
 21
237.97
  0
LINE
  8
0
  6
CONTINUOUS
 62
     3
 10
70.94
 20
230.77
 11
78.94
 21
230.77
  0
LINE
  8
0
  6
CONTINUOUS
 62
     3
 10
70.94
 20
237.97
 11
70.94
 21
230.77
  0
LINE
  8
0
  6
CONTINUOUS
 62
     3
 10
71.44
 20
237.97
 11
71.44
 21
230.77
  0
LINE
  8
0
  6
CONTINUOUS
 62
     3
 10
70.94
 20
236.97
 11
71.44
 21
236.97
  0
LINE
  8
0
  6
CONTINUOUS
 62
     3
 10
70.94
 20
231.77
 11
71.44
 21
231.77
  0
LINE
  8
0
  6
CONTINUOUS
 62
     3
 10
71.44
 20
234.87
 11
72.44
 21
234.87
  0
LINE
  8
0
  6
CONTINUOUS
 62
     3
 10
72.44
 20
234.87
 11
71.44
 21
237.37
  0
LINE
  8
0
  6
CONTINUOUS
 62
     3
 10
71.44
 20
237.37
 11
73.44
 21
237.37
  0
LINE
  8
0
  6
CONTINUOUS
 62
     3
 10
73.44
 20
237.37
 11
73.44
 21
234.37
  0
LINE
  8
0
  6
CONTINUOUS
 62
     3
 10
72.94
 20
234.37
 11
72.94
 21
235.37
  0
LINE
  8
0
  6
CONTINUOUS
 62
     3
 10
72.94
 20
235.37
 11
73.44
 21
235.37
  0
LINE
  8
0
  6
CONTINUOUS
 62
     3
 10
70.94
 20
231.77
 11
71.44
 21
231.77
  0
LINE
  8
0
  6
CONTINUOUS
 62
     3
 10
71.44
 20
233.87
 11
72.44
 21
233.87
  0
LINE
  8
0
  6
CONTINUOUS
 62
     3
 10
72.44
 20
233.87
 11
71.44
 21
231.37
  0
LINE
  8
0
  6
CONTINUOUS
 62
     3
 10
71.44
 20
231.37
 11
73.44
 21
231.37
  0
LINE
  8
0
  6
CONTINUOUS
 62
     3
 10
73.44
 20
231.37
 11
73.44
 21
234.37
  0
LINE
  8
0
  6
CONTINUOUS
 62
     3
 10
72.94
 20
234.37
 11
72.94
 21
233.37
  0
LINE
  8
0
  6
CONTINUOUS
 62
     3
 10
72.94
 20
233.37
 11
73.44
 21
233.37
  0
LINE
  8
0
  6
CONTINUOUS
 62
     3
 10
73.44
 20
234.37
 11
73.44
 21
237.17
  0
LINE
  8
0
  6
CONTINUOUS
 62
     3
 10
73.44
 20
237.17
 11
75.44
 21
237.17
  0
LINE
  8
0
  6
CONTINUOUS
 62
     3
 10
75.64
 20
234.37
 11
75.64
 21
234.97
  0
LINE
  8
0
  6
CONTINUOUS
 62
     3
 10
75.64
 20
234.97
 11
75.44
 21
237.17
  0
LINE
  8
0
  6
CONTINUOUS
 62
     3
 10
73.44
 20
231.37
 11
73.44
 21
234.37
  0
LINE
  8
0
  6
CONTINUOUS
 62
     3
 10
73.44
 20
234.37
 11
73.44
 21
231.57
  0
LINE
  8
0
  6
CONTINUOUS
 62
     3
 10
73.44
 20
231.57
 11
75.44
 21
231.57
  0
LINE
  8
0
  6
CONTINUOUS
 62
     3
 10
75.64
 20
234.37
 11
75.64
 21
233.77
  0
LINE
  8
0
  6
CONTINUOUS
 62
     3
 10
75.64
 20
233.77
 11
75.44
 21
231.57
  0
LINE
  8
0
  6
CONTINUOUS
 62
     3
 10
78.94
 20
229.27
 11
70.94
 21
229.27
  0
LINE
  8
0
  6
CONTINUOUS
 62
     3
 10
78.94
 20
229.27
 11
70.94
 21
229.27
  0
LINE
  8
0
  6
CONTINUOUS
 62
     3
 10
70.94
 20
229.27
 11
70.94
 21
222.07
  0
LINE
  8
0
  6
CONTINUOUS
 62
     3
 10
70.94
 20
222.07
 11
78.94
 21
222.07
  0
LINE
  8
0
  6
CONTINUOUS
 62
     3
 10
71.44
 20
229.27
 11
71.44
 21
222.07
  0
LINE
  8
0
  6
CONTINUOUS
 62
     3
 10
70.94
 20
228.27
 11
71.44
 21
228.27
  0
LINE
  8
0
  6
CONTINUOUS
 62
     3
 10
70.94
 20
223.07
 11
71.44
 21
223.07
  0
LINE
  8
0
  6
CONTINUOUS
 62
     3
 10
71.44
 20
226.17
 11
72.44
 21
226.17
  0
LINE
  8
0
  6
CONTINUOUS
 62
     3
 10
72.44
 20
226.17
 11
71.44
 21
228.67
  0
LINE
  8
0
  6
CONTINUOUS
 62
     3
 10
71.44
 20
228.67
 11
73.44
 21
228.67
  0
LINE
  8
0
  6
CONTINUOUS
 62
     3
 10
73.44
 20
228.67
 11
73.44
 21
225.67
  0
LINE
  8
0
  6
CONTINUOUS
 62
     3
 10
72.94
 20
225.67
 11
72.94
 21
226.67
  0
LINE
  8
0
  6
CONTINUOUS
 62
     3
 10
72.94
 20
226.67
 11
73.44
 21
226.67
  0
LINE
  8
0
  6
CONTINUOUS
 62
     3
 10
70.94
 20
223.07
 11
71.44
 21
223.07
  0
LINE
  8
0
  6
CONTINUOUS
 62
     3
 10
71.44
 20
225.17
 11
72.44
 21
225.17
  0
LINE
  8
0
  6
CONTINUOUS
 62
     3
 10
72.44
 20
225.17
 11
71.44
 21
222.67
  0
LINE
  8
0
  6
CONTINUOUS
 62
     3
 10
71.44
 20
222.67
 11
73.44
 21
222.67
  0
LINE
  8
0
  6
CONTINUOUS
 62
     3
 10
73.44
 20
222.67
 11
73.44
 21
225.67
  0
LINE
  8
0
  6
CONTINUOUS
 62
     3
 10
72.94
 20
225.67
 11
72.94
 21
224.67
  0
LINE
  8
0
  6
CONTINUOUS
 62
     3
 10
72.94
 20
224.67
 11
73.44
 21
224.67
  0
LINE
  8
0
  6
CONTINUOUS
 62
     3
 10
73.44
 20
225.67
 11
73.44
 21
228.47
  0
LINE
  8
0
  6
CONTINUOUS
 62
     3
 10
73.44
 20
228.47
 11
75.44
 21
228.47
  0
LINE
  8
0
  6
CONTINUOUS
 62
     3
 10
75.64
 20
225.67
 11
75.64
 21
226.27
  0
LINE
  8
0
  6
CONTINUOUS
 62
     3
 10
75.64
 20
226.27
 11
75.44
 21
228.47
  0
LINE
  8
0
  6
CONTINUOUS
 62
     3
 10
73.44
 20
222.67
 11
73.44
 21
225.67
  0
LINE
  8
0
  6
CONTINUOUS
 62
     3
 10
73.44
 20
225.67
 11
73.44
 21
222.87
  0
LINE
  8
0
  6
CONTINUOUS
 62
     3
 10
73.44
 20
222.87
 11
75.44
 21
222.87
  0
LINE
  8
0
  6
CONTINUOUS
 62
     3
 10
75.64
 20
225.67
 11
75.64
 21
225.07
  0
LINE
  8
0
  6
CONTINUOUS
 62
     3
 10
75.64
 20
225.07
 11
75.44
 21
222.87
  0
LINE
  8
0
  6
CONTINUOUS
 62
     3
 10
77.64
 20
222.07
 11
75.84
 21
222.07
  0
LINE
  8
0
  6
CONTINUOUS
 62
     3
 10
78.94
 20
220.57
 11
70.94
 21
220.57
  0
LINE
  8
0
  6
CONTINUOUS
 62
     3
 10
70.94
 20
220.57
 11
70.94
 21
213.37
  0
LINE
  8
0
  6
CONTINUOUS
 62
     3
 10
70.94
 20
213.37
 11
77.64
 21
213.37
  0
LINE
  8
0
  6
CONTINUOUS
 62
     3
 10
71.44
 20
220.57
 11
71.44
 21
213.37
  0
LINE
  8
0
  6
CONTINUOUS
 62
     3
 10
70.94
 20
219.57
 11
71.44
 21
219.57
  0
LINE
  8
0
  6
CONTINUOUS
 62
     3
 10
70.94
 20
214.37
 11
71.44
 21
214.37
  0
LINE
  8
0
  6
CONTINUOUS
 62
     3
 10
71.44
 20
217.47
 11
72.44
 21
217.47
  0
LINE
  8
0
  6
CONTINUOUS
 62
     3
 10
72.44
 20
217.47
 11
71.44
 21
219.97
  0
LINE
  8
0
  6
CONTINUOUS
 62
     3
 10
71.44
 20
219.97
 11
73.44
 21
219.97
  0
LINE
  8
0
  6
CONTINUOUS
 62
     3
 10
73.44
 20
219.97
 11
73.44
 21
216.97
  0
LINE
  8
0
  6
CONTINUOUS
 62
     3
 10
72.94
 20
216.97
 11
72.94
 21
217.97
  0
LINE
  8
0
  6
CONTINUOUS
 62
     3
 10
72.94
 20
217.97
 11
73.44
 21
217.97
  0
LINE
  8
0
  6
CONTINUOUS
 62
     3
 10
70.94
 20
214.37
 11
71.44
 21
214.37
  0
LINE
  8
0
  6
CONTINUOUS
 62
     3
 10
71.44
 20
216.47
 11
72.44
 21
216.47
  0
LINE
  8
0
  6
CONTINUOUS
 62
     3
 10
72.44
 20
216.47
 11
71.44
 21
213.97
  0
LINE
  8
0
  6
CONTINUOUS
 62
     3
 10
71.44
 20
213.97
 11
73.44
 21
213.97
  0
LINE
  8
0
  6
CONTINUOUS
 62
     3
 10
73.44
 20
213.97
 11
73.44
 21
216.97
  0
LINE
  8
0
  6
CONTINUOUS
 62
     3
 10
72.94
 20
216.97
 11
72.94
 21
215.97
  0
LINE
  8
0
  6
CONTINUOUS
 62
     3
 10
72.94
 20
215.97
 11
73.44
 21
215.97
  0
LINE
  8
0
  6
CONTINUOUS
 62
     3
 10
73.44
 20
216.97
 11
73.44
 21
219.77
  0
LINE
  8
0
  6
CONTINUOUS
 62
     3
 10
73.44
 20
219.77
 11
75.44
 21
219.77
  0
LINE
  8
0
  6
CONTINUOUS
 62
     3
 10
75.64
 20
216.97
 11
75.64
 21
217.57
  0
LINE
  8
0
  6
CONTINUOUS
 62
     3
 10
75.64
 20
217.57
 11
75.44
 21
219.77
  0
LINE
  8
0
  6
CONTINUOUS
 62
     3
 10
73.44
 20
213.97
 11
73.44
 21
216.97
  0
LINE
  8
0
  6
CONTINUOUS
 62
     3
 10
73.44
 20
216.97
 11
73.44
 21
214.17
  0
LINE
  8
0
  6
CONTINUOUS
 62
     3
 10
73.44
 20
214.17
 11
75.44
 21
214.17
  0
LINE
  8
0
  6
CONTINUOUS
 62
     3
 10
75.64
 20
216.97
 11
75.64
 21
216.37
  0
LINE
  8
0
  6
CONTINUOUS
 62
     3
 10
75.64
 20
216.37
 11
75.44
 21
214.17
  0
LINE
  8
0
  6
CONTINUOUS
 62
     3
 10
77.64
 20
211.87
 11
70.94
 21
211.87
  0
LINE
  8
0
  6
CONTINUOUS
 62
     3
 10
70.94
 20
204.67
 11
78.94
 21
204.67
  0
LINE
  8
0
  6
CONTINUOUS
 62
     3
 10
71.44
 20
211.87
 11
71.44
 21
204.67
  0
LINE
  8
0
  6
CONTINUOUS
 62
     3
 10
70.94
 20
211.87
 11
70.94
 21
204.67
  0
LINE
  8
0
  6
CONTINUOUS
 62
     3
 10
70.94
 20
204.67
 11
77.64
 21
204.67
  0
LINE
  8
0
  6
CONTINUOUS
 62
     3
 10
71.44
 20
211.87
 11
71.44
 21
204.67
  0
LINE
  8
0
  6
CONTINUOUS
 62
     3
 10
70.94
 20
210.87
 11
71.44
 21
210.87
  0
LINE
  8
0
  6
CONTINUOUS
 62
     3
 10
70.94
 20
205.67
 11
71.44
 21
205.67
  0
LINE
  8
0
  6
CONTINUOUS
 62
     3
 10
71.44
 20
208.77
 11
72.44
 21
208.77
  0
LINE
  8
0
  6
CONTINUOUS
 62
     3
 10
72.44
 20
208.77
 11
71.44
 21
211.27
  0
LINE
  8
0
  6
CONTINUOUS
 62
     3
 10
71.44
 20
211.27
 11
73.44
 21
211.27
  0
LINE
  8
0
  6
CONTINUOUS
 62
     3
 10
73.44
 20
211.27
 11
73.44
 21
208.27
  0
LINE
  8
0
  6
CONTINUOUS
 62
     3
 10
72.94
 20
208.27
 11
72.94
 21
209.27
  0
LINE
  8
0
  6
CONTINUOUS
 62
     3
 10
72.94
 20
209.27
 11
73.44
 21
209.27
  0
LINE
  8
0
  6
CONTINUOUS
 62
     3
 10
70.94
 20
205.67
 11
71.44
 21
205.67
  0
LINE
  8
0
  6
CONTINUOUS
 62
     3
 10
71.44
 20
207.77
 11
72.44
 21
207.77
  0
LINE
  8
0
  6
CONTINUOUS
 62
     3
 10
72.44
 20
207.77
 11
71.44
 21
205.27
  0
LINE
  8
0
  6
CONTINUOUS
 62
     3
 10
71.44
 20
205.27
 11
73.44
 21
205.27
  0
LINE
  8
0
  6
CONTINUOUS
 62
     3
 10
73.44
 20
205.27
 11
73.44
 21
208.27
  0
LINE
  8
0
  6
CONTINUOUS
 62
     3
 10
72.94
 20
208.27
 11
72.94
 21
207.27
  0
LINE
  8
0
  6
CONTINUOUS
 62
     3
 10
72.94
 20
207.27
 11
73.44
 21
207.27
  0
LINE
  8
0
  6
CONTINUOUS
 62
     3
 10
73.44
 20
208.27
 11
73.44
 21
211.07
  0
LINE
  8
0
  6
CONTINUOUS
 62
     3
 10
73.44
 20
211.07
 11
75.44
 21
211.07
  0
LINE
  8
0
  6
CONTINUOUS
 62
     3
 10
75.64
 20
208.27
 11
75.64
 21
208.87
  0
LINE
  8
0
  6
CONTINUOUS
 62
     3
 10
75.64
 20
208.87
 11
75.44
 21
211.07
  0
LINE
  8
0
  6
CONTINUOUS
 62
     3
 10
73.44
 20
205.27
 11
73.44
 21
208.27
  0
LINE
  8
0
  6
CONTINUOUS
 62
     3
 10
73.44
 20
208.27
 11
73.44
 21
205.47
  0
LINE
  8
0
  6
CONTINUOUS
 62
     3
 10
73.44
 20
205.47
 11
75.44
 21
205.47
  0
LINE
  8
0
  6
CONTINUOUS
 62
     3
 10
75.64
 20
208.27
 11
75.64
 21
207.67
  0
LINE
  8
0
  6
CONTINUOUS
 62
     3
 10
75.64
 20
207.67
 11
75.44
 21
205.47
  0
LINE
  8
0
  6
CONTINUOUS
 62
     3
 10
77.64
 20
204.67
 11
75.84
 21
204.67
  0
LINE
  8
0
  6
CONTINUOUS
 62
     3
 10
78.94
 20
230.77
 11
78.94
 21
229.27
  0
LINE
  8
0
  6
CONTINUOUS
 62
     3
 10
77.64
 20
229.27
 11
77.64
 21
230.77
  0
LINE
  8
0
  6
CONTINUOUS
 62
     3
 10
78.94
 20
222.07
 11
78.94
 21
220.57
  0
LINE
  8
0
  6
CONTINUOUS
 62
     3
 10
77.64
 20
220.57
 11
77.64
 21
222.07
  0
LINE
  8
0
  6
CONTINUOUS
 62
     3
 10
75.84
 20
222.07
 11
75.84
 21
220.57
  0
LINE
  8
0
  6
CONTINUOUS
 62
     3
 10
77.64
 20
213.37
 11
77.64
 21
211.87
  0
LINE
  8
0
  6
CONTINUOUS
 62
     3
 10
77.64
 20
239.47
 11
77.64
 21
237.97
  0
LINE
  8
0
  6
CONTINUOUS
 62
     3
 10
75.64
 20
203.17
 11
80.64
 21
203.17
  0
LINE
  8
0
  6
CONTINUOUS
 62
     3
 10
78.94
 20
204.67
 11
78.94
 21
203.17
  0
LINE
  8
0
  6
CONTINUOUS
 62
     3
 10
77.64
 20
203.17
 11
77.64
 21
204.67
  0
LINE
  8
0
  6
CONTINUOUS
 62
     3
 10
80.64
 20
239.47
 11
80.64
 21
203.17
  0
LINE
  8
0
  6
CONTINUOUS
 62
     3
 10
77.64
 20
203.17
 11
77.64
 21
204.67
  0
LINE
  8
0
  6
CONTINUOUS
 62
     3
 10
70.94
 20
211.87
 11
70.94
 21
204.67
  0
LINE
  8
0
  6
CONTINUOUS
 62
     3
 10
75.64
 20
203.17
 11
75.64
 21
239.47
  0
ARC
  8
0
  6
CONTINUOUS
 62
     3
 10
72.688110735
 20
240.87
 40
0.5
 50
344.213321256
 51
90.0
  0
LINE
  8
0
  6
CONTINUOUS
 62
     3
 10
73.188108263
 20
239.47
 11
73.188108263
 21
240.871572319
  0
LINE
  8
0
  6
CONTINUOUS
 62
     3
 10
73.188108263
 20
201.768427681
 11
73.188108263
 21
203.17
  0
LINE
  8
0
  6
CONTINUOUS
 62
     3
 10
70.24
 20
203.17
 11
78.94
 21
203.17
  0
LINE
  8
0
  6
CONTINUOUS
 62
     3
 10
80.64
 20
239.47
 11
70.24
 21
239.47
  0
LINE
  8
0
  6
CONTINUOUS
 62
     3
 10
80.64
 20
204.576779661
 11
91.64
 21
204.67
  0
LINE
  8
0
  6
CONTINUOUS
 62
     3
 10
80.64
 20
206.563220339
 11
91.64
 21
206.47
  0
LINE
  8
0
  6
CONTINUOUS
 62
     3
 10
80.64
 20
208.076779661
 11
91.64
 21
208.17
  0
LINE
  8
0
  6
CONTINUOUS
 62
     3
 10
80.64
 20
210.063220339
 11
91.64
 21
209.97
  0
LINE
  8
0
  6
CONTINUOUS
 62
     3
 10
80.64
 20
211.576779661
 11
91.64
 21
211.67
  0
LINE
  8
0
  6
CONTINUOUS
 62
     3
 10
80.64
 20
213.563220339
 11
91.64
 21
213.47
  0
LINE
  8
0
  6
CONTINUOUS
 62
     3
 10
80.64
 20
215.076779661
 11
91.64
 21
215.17
  0
LINE
  8
0
  6
CONTINUOUS
 62
     3
 10
80.64
 20
217.063220339
 11
91.64
 21
216.97
  0
LINE
  8
0
  6
CONTINUOUS
 62
     3
 10
80.64
 20
218.576779661
 11
91.64
 21
218.67
  0
LINE
  8
0
  6
CONTINUOUS
 62
     3
 10
80.64
 20
220.563220339
 11
91.64
 21
220.47
  0
LINE
  8
0
  6
CONTINUOUS
 62
     3
 10
80.64
 20
222.076779661
 11
91.64
 21
222.17
  0
LINE
  8
0
  6
CONTINUOUS
 62
     3
 10
80.64
 20
224.063220339
 11
91.64
 21
223.97
  0
LINE
  8
0
  6
CONTINUOUS
 62
     3
 10
80.64
 20
225.576779661
 11
91.64
 21
225.67
  0
LINE
  8
0
  6
CONTINUOUS
 62
     3
 10
80.64
 20
227.563220339
 11
91.64
 21
227.47
  0
LINE
  8
0
  6
CONTINUOUS
 62
     3
 10
80.64
 20
229.076779661
 11
91.64
 21
229.17
  0
LINE
  8
0
  6
CONTINUOUS
 62
     3
 10
80.64
 20
231.063220339
 11
91.64
 21
230.97
  0
LINE
  8
0
  6
CONTINUOUS
 62
     3
 10
80.64
 20
232.576779661
 11
91.64
 21
232.67
  0
LINE
  8
0
  6
CONTINUOUS
 62
     3
 10
80.64
 20
234.563220339
 11
91.64
 21
234.47
  0
LINE
  8
0
  6
CONTINUOUS
 62
     3
 10
80.64
 20
236.076779661
 11
91.64
 21
236.17
  0
LINE
  8
0
  6
CONTINUOUS
 62
     3
 10
80.64
 20
238.063220339
 11
91.64
 21
237.97
  0
LINE
  8
0
  6
CONTINUOUS
 62
     3
 10
255.74
 20
220.534814815
 11
255.74
 21
222.105185185
  0
LINE
  8
0
  6
CONTINUOUS
 62
     3
 10
255.74
 20
224.034814815
 11
255.74
 21
225.605185185
  0
LINE
  8
0
  6
CONTINUOUS
 62
     3
 10
255.74
 20
227.534814815
 11
255.74
 21
229.105185185
  0
LINE
  8
0
  6
CONTINUOUS
 62
     3
 10
255.74
 20
231.034814815
 11
255.74
 21
232.605185185
  0
LINE
  8
0
  6
CONTINUOUS
 62
     3
 10
255.74
 20
234.534814815
 11
255.74
 21
236.105185185
  0
LINE
  8
0
  6
CONTINUOUS
 62
     3
 10
255.74
 20
238.034814815
 11
255.74
 21
239.605185185
  0
LINE
  8
0
  6
CONTINUOUS
 62
     3
 10
265.54
 20
239.57
 11
253.74
 21
239.67
  0
LINE
  8
0
  6
CONTINUOUS
 62
     3
 10
255.74
 20
241.534814815
 11
255.74
 21
243.105185185
  0
LINE
  8
0
  6
CONTINUOUS
 62
     3
 10
265.54
 20
242.32
 11
265.54
 21
241.57
  0
LINE
  8
0
  6
CONTINUOUS
 62
     3
 10
265.54
 20
241.57
 11
253.74
 21
241.47
  0
LINE
  8
0
  6
CONTINUOUS
 62
     3
 10
265.54
 20
242.32
 11
265.54
 21
243.07
  0
LINE
  8
0
  6
CONTINUOUS
 62
     3
 10
265.54
 20
243.07
 11
253.74
 21
243.17
  0
LINE
  8
0
  6
CONTINUOUS
 62
     3
 10
255.74
 20
218.605185185
 11
255.74
 21
217.034814815
  0
LINE
  8
0
  6
CONTINUOUS
 62
     3
 10
255.74
 20
215.105185185
 11
255.74
 21
213.534814815
  0
LINE
  8
0
  6
CONTINUOUS
 62
     3
 10
255.74
 20
211.605185185
 11
255.74
 21
210.034814815
  0
LINE
  8
0
  6
CONTINUOUS
 62
     3
 10
255.74
 20
208.105185185
 11
255.74
 21
206.534814815
  0
LINE
  8
0
  6
CONTINUOUS
 62
     3
 10
255.74
 20
204.605185185
 11
255.74
 21
203.034814815
  0
LINE
  8
0
  6
CONTINUOUS
 62
     3
 10
265.54
 20
203.07
 11
253.74
 21
202.97
  0
LINE
  8
0
  6
CONTINUOUS
 62
     3
 10
255.74
 20
201.105185185
 11
255.74
 21
199.534814815
  0
LINE
  8
0
  6
CONTINUOUS
 62
     3
 10
265.54
 20
200.32
 11
265.54
 21
201.07
  0
LINE
  8
0
  6
CONTINUOUS
 62
     3
 10
265.54
 20
201.07
 11
253.74
 21
201.17
  0
LINE
  8
0
  6
CONTINUOUS
 62
     3
 10
265.54
 20
200.32
 11
265.54
 21
199.57
  0
LINE
  8
0
  6
CONTINUOUS
 62
     3
 10
265.54
 20
199.57
 11
253.74
 21
199.47
  0
LINE
  8
0
  6
CONTINUOUS
 62
     3
 10
275.94
 20
221.32
 11
275.94
 21
218.82
  0
LINE
  8
0
  6
CONTINUOUS
 62
     3
 10
275.94
 20
218.82
 11
275.14
 21
218.82
  0
LINE
  8
0
  6
CONTINUOUS
 62
     3
 10
294.54
 20
197.32
 11
294.54
 21
221.32
  0
LINE
  8
0
  6
CONTINUOUS
 62
     3
 10
275.64
 20
211.22
 11
277.14
 21
211.22
  0
ARC
  8
0
  6
CONTINUOUS
 62
     3
 10
275.64
 20
211.72
 40
0.5
 50
180.0
 51
270.0
  0
LINE
  8
0
  6
CONTINUOUS
 62
     3
 10
275.64
 20
209.42
 11
277.14
 21
209.42
  0
ARC
  8
0
  6
CONTINUOUS
 62
     3
 10
275.64
 20
208.92
 40
0.5
 50
90.0
 51
180.0
  0
LINE
  8
0
  6
CONTINUOUS
 62
     3
 10
275.14
 20
218.82
 11
275.14
 21
211.72
  0
LINE
  8
0
  6
CONTINUOUS
 62
     3
 10
277.14
 20
221.32
 11
277.14
 21
198.32
  0
LINE
  8
0
  6
CONTINUOUS
 62
     3
 10
278.14
 20
197.32
 11
294.54
 21
197.32
  0
ARC
  8
0
  6
CONTINUOUS
 62
     3
 10
278.14
 20
198.32
 40
1.0
 50
180.0
 51
270.0
  0
LINE
  8
0
  6
CONTINUOUS
 62
     3
 10
254.74
 20
197.32
 11
278.34
 21
197.32
  0
LINE
  8
0
  6
CONTINUOUS
 62
     3
 10
275.64
 20
231.42
 11
277.14
 21
231.42
  0
ARC
  8
0
  6
CONTINUOUS
 62
     3
 10
275.64
 20
230.92
 40
0.5
 50
90.0
 51
180.0
  0
LINE
  8
0
  6
CONTINUOUS
 62
     3
 10
275.64
 20
233.22
 11
277.14
 21
233.22
  0
ARC
  8
0
  6
CONTINUOUS
 62
     3
 10
275.64
 20
233.72
 40
0.5
 50
180.0
 51
270.0
  0
LINE
  8
0
  6
CONTINUOUS
 62
     3
 10
275.14
 20
223.82
 11
275.14
 21
230.92
  0
LINE
  8
0
  6
CONTINUOUS
 62
     3
 10
277.14
 20
221.32
 11
277.14
 21
244.32
  0
ARC
  8
0
  6
CONTINUOUS
 62
     3
 10
278.14
 20
244.32
 40
1.0
 50
90.0
 51
180.0
  0
LINE
  8
0
  6
CONTINUOUS
 62
     3
 10
254.74
 20
245.32
 11
278.34
 21
245.32
  0
LINE
  8
0
  6
CONTINUOUS
 62
     3
 10
294.54
 20
245.32
 11
294.54
 21
221.32
  0
LINE
  8
0
  6
CONTINUOUS
 62
     3
 10
278.14
 20
245.32
 11
294.54
 21
245.32
  0
LINE
  8
0
  6
CONTINUOUS
 62
     3
 10
275.14
 20
233.72
 11
275.14
 21
237.82
  0
LINE
  8
0
  6
CONTINUOUS
 62
     3
 10
275.14
 20
208.92
 11
275.14
 21
204.82
  0
LINE
  8
0
  6
CONTINUOUS
 62
     3
 10
275.57
 20
201.27
 11
272.691889265
 21
201.27
  0
LINE
  8
0
  6
CONTINUOUS
 62
     3
 10
277.14
 20
201.27
 11
275.64
 21
201.27
  0
ARC
  8
0
  6
CONTINUOUS
 62
     3
 10
275.64
 20
201.77
 40
0.5
 50
180.0
 51
270.0
  0
ARC
  8
0
  6
CONTINUOUS
 62
     3
 10
272.691889265
 20
240.87
 40
0.5
 50
90.0
 51
179.819825187
  0
LINE
  8
0
  6
CONTINUOUS
 62
     3
 10
277.14
 20
241.37
 11
275.64
 21
241.37
  0
ARC
  8
0
  6
CONTINUOUS
 62
     3
 10
275.64
 20
240.87
 40
0.5
 50
90.0
 51
180.0
  0
LINE
  8
0
  6
CONTINUOUS
 62
     3
 10
275.75
 20
241.37
 11
272.691889265
 21
241.37
  0
LINE
  8
0
  6
CONTINUOUS
 62
     3
 10
275.14
 20
204.82
 11
275.14
 21
201.77
  0
LINE
  8
0
  6
CONTINUOUS
 62
     3
 10
275.14
 20
237.82
 11
275.14
 21
240.87
  0
LINE
  8
0
  6
CONTINUOUS
 62
     3
 10
275.14
 20
202.87
 11
272.191891737
 21
202.87
  0
LINE
  8
0
  6
CONTINUOUS
 62
     3
 10
275.14
 20
239.77
 11
272.191891737
 21
239.77
  0
LINE
  8
0
  6
CONTINUOUS
 62
     3
 10
253.74
 20
221.32
 11
253.74
 21
244.32
  0
ARC
  8
0
  6
CONTINUOUS
 62
     3
 10
254.74
 20
244.32
 40
1.0
 50
90.0
 51
180.0
  0
LINE
  8
0
  6
CONTINUOUS
 62
     3
 10
253.74
 20
221.32
 11
253.74
 21
198.32
  0
ARC
  8
0
  6
CONTINUOUS
 62
     3
 10
254.74
 20
198.32
 40
1.0
 50
180.0
 51
270.0
  0
LINE
  8
0
  6
CONTINUOUS
 62
     3
 10
294.54
 20
245.32
 11
294.54
 21
221.32
  0
LINE
  8
0
  6
CONTINUOUS
 62
     3
 10
267.74
 20
204.67
 11
274.44
 21
204.67
  0
LINE
  8
0
  6
CONTINUOUS
 62
     3
 10
274.44
 20
211.87
 11
266.44
 21
211.87
  0
LINE
  8
0
  6
CONTINUOUS
 62
     3
 10
274.44
 20
204.67
 11
274.44
 21
211.87
  0
LINE
  8
0
  6
CONTINUOUS
 62
     3
 10
273.94
 20
204.67
 11
273.94
 21
211.87
  0
LINE
  8
0
  6
CONTINUOUS
 62
     3
 10
274.44
 20
205.67
 11
273.94
 21
205.67
  0
LINE
  8
0
  6
CONTINUOUS
 62
     3
 10
274.44
 20
210.87
 11
273.94
 21
210.87
  0
LINE
  8
0
  6
CONTINUOUS
 62
     3
 10
273.94
 20
207.77
 11
272.94
 21
207.77
  0
LINE
  8
0
  6
CONTINUOUS
 62
     3
 10
272.94
 20
207.77
 11
273.94
 21
205.27
  0
LINE
  8
0
  6
CONTINUOUS
 62
     3
 10
273.94
 20
205.27
 11
271.94
 21
205.27
  0
LINE
  8
0
  6
CONTINUOUS
 62
     3
 10
271.94
 20
205.27
 11
271.94
 21
208.27
  0
LINE
  8
0
  6
CONTINUOUS
 62
     3
 10
272.44
 20
208.27
 11
272.44
 21
207.27
  0
LINE
  8
0
  6
CONTINUOUS
 62
     3
 10
272.44
 20
207.27
 11
271.94
 21
207.27
  0
LINE
  8
0
  6
CONTINUOUS
 62
     3
 10
274.44
 20
210.87
 11
273.94
 21
210.87
  0
LINE
  8
0
  6
CONTINUOUS
 62
     3
 10
273.94
 20
208.77
 11
272.94
 21
208.77
  0
LINE
  8
0
  6
CONTINUOUS
 62
     3
 10
272.94
 20
208.77
 11
273.94
 21
211.27
  0
LINE
  8
0
  6
CONTINUOUS
 62
     3
 10
273.94
 20
211.27
 11
271.94
 21
211.27
  0
LINE
  8
0
  6
CONTINUOUS
 62
     3
 10
271.94
 20
211.27
 11
271.94
 21
208.27
  0
LINE
  8
0
  6
CONTINUOUS
 62
     3
 10
272.44
 20
208.27
 11
272.44
 21
209.27
  0
LINE
  8
0
  6
CONTINUOUS
 62
     3
 10
272.44
 20
209.27
 11
271.94
 21
209.27
  0
LINE
  8
0
  6
CONTINUOUS
 62
     3
 10
271.94
 20
208.27
 11
271.94
 21
205.47
  0
LINE
  8
0
  6
CONTINUOUS
 62
     3
 10
271.94
 20
205.47
 11
269.94
 21
205.47
  0
LINE
  8
0
  6
CONTINUOUS
 62
     3
 10
269.74
 20
208.27
 11
269.74
 21
207.67
  0
LINE
  8
0
  6
CONTINUOUS
 62
     3
 10
269.74
 20
207.67
 11
269.94
 21
205.47
  0
LINE
  8
0
  6
CONTINUOUS
 62
     3
 10
271.94
 20
211.27
 11
271.94
 21
208.27
  0
LINE
  8
0
  6
CONTINUOUS
 62
     3
 10
271.94
 20
208.27
 11
271.94
 21
211.07
  0
LINE
  8
0
  6
CONTINUOUS
 62
     3
 10
271.94
 20
211.07
 11
269.94
 21
211.07
  0
LINE
  8
0
  6
CONTINUOUS
 62
     3
 10
269.74
 20
208.27
 11
269.74
 21
208.87
  0
LINE
  8
0
  6
CONTINUOUS
 62
     3
 10
269.74
 20
208.87
 11
269.94
 21
211.07
  0
LINE
  8
0
  6
CONTINUOUS
 62
     3
 10
266.44
 20
213.37
 11
274.44
 21
213.37
  0
LINE
  8
0
  6
CONTINUOUS
 62
     3
 10
266.44
 20
213.37
 11
274.44
 21
213.37
  0
LINE
  8
0
  6
CONTINUOUS
 62
     3
 10
274.44
 20
213.37
 11
274.44
 21
220.57
  0
LINE
  8
0
  6
CONTINUOUS
 62
     3
 10
274.44
 20
220.57
 11
266.44
 21
220.57
  0
LINE
  8
0
  6
CONTINUOUS
 62
     3
 10
273.94
 20
213.37
 11
273.94
 21
220.57
  0
LINE
  8
0
  6
CONTINUOUS
 62
     3
 10
274.44
 20
214.37
 11
273.94
 21
214.37
  0
LINE
  8
0
  6
CONTINUOUS
 62
     3
 10
274.44
 20
219.57
 11
273.94
 21
219.57
  0
LINE
  8
0
  6
CONTINUOUS
 62
     3
 10
273.94
 20
216.47
 11
272.94
 21
216.47
  0
LINE
  8
0
  6
CONTINUOUS
 62
     3
 10
272.94
 20
216.47
 11
273.94
 21
213.97
  0
LINE
  8
0
  6
CONTINUOUS
 62
     3
 10
273.94
 20
213.97
 11
271.94
 21
213.97
  0
LINE
  8
0
  6
CONTINUOUS
 62
     3
 10
271.94
 20
213.97
 11
271.94
 21
216.97
  0
LINE
  8
0
  6
CONTINUOUS
 62
     3
 10
272.44
 20
216.97
 11
272.44
 21
215.97
  0
LINE
  8
0
  6
CONTINUOUS
 62
     3
 10
272.44
 20
215.97
 11
271.94
 21
215.97
  0
LINE
  8
0
  6
CONTINUOUS
 62
     3
 10
274.44
 20
219.57
 11
273.94
 21
219.57
  0
LINE
  8
0
  6
CONTINUOUS
 62
     3
 10
273.94
 20
217.47
 11
272.94
 21
217.47
  0
LINE
  8
0
  6
CONTINUOUS
 62
     3
 10
272.94
 20
217.47
 11
273.94
 21
219.97
  0
LINE
  8
0
  6
CONTINUOUS
 62
     3
 10
273.94
 20
219.97
 11
271.94
 21
219.97
  0
LINE
  8
0
  6
CONTINUOUS
 62
     3
 10
271.94
 20
219.97
 11
271.94
 21
216.97
  0
LINE
  8
0
  6
CONTINUOUS
 62
     3
 10
272.44
 20
216.97
 11
272.44
 21
217.97
  0
LINE
  8
0
  6
CONTINUOUS
 62
     3
 10
272.44
 20
217.97
 11
271.94
 21
217.97
  0
LINE
  8
0
  6
CONTINUOUS
 62
     3
 10
271.94
 20
216.97
 11
271.94
 21
214.17
  0
LINE
  8
0
  6
CONTINUOUS
 62
     3
 10
271.94
 20
214.17
 11
269.94
 21
214.17
  0
LINE
  8
0
  6
CONTINUOUS
 62
     3
 10
269.74
 20
216.97
 11
269.74
 21
216.37
  0
LINE
  8
0
  6
CONTINUOUS
 62
     3
 10
269.74
 20
216.37
 11
269.94
 21
214.17
  0
LINE
  8
0
  6
CONTINUOUS
 62
     3
 10
271.94
 20
219.97
 11
271.94
 21
216.97
  0
LINE
  8
0
  6
CONTINUOUS
 62
     3
 10
271.94
 20
216.97
 11
271.94
 21
219.77
  0
LINE
  8
0
  6
CONTINUOUS
 62
     3
 10
271.94
 20
219.77
 11
269.94
 21
219.77
  0
LINE
  8
0
  6
CONTINUOUS
 62
     3
 10
269.74
 20
216.97
 11
269.74
 21
217.57
  0
LINE
  8
0
  6
CONTINUOUS
 62
     3
 10
269.74
 20
217.57
 11
269.94
 21
219.77
  0
LINE
  8
0
  6
CONTINUOUS
 62
     3
 10
267.74
 20
220.57
 11
269.54
 21
220.57
  0
LINE
  8
0
  6
CONTINUOUS
 62
     3
 10
266.44
 20
222.07
 11
274.44
 21
222.07
  0
LINE
  8
0
  6
CONTINUOUS
 62
     3
 10
274.44
 20
222.07
 11
274.44
 21
229.27
  0
LINE
  8
0
  6
CONTINUOUS
 62
     3
 10
274.44
 20
229.27
 11
267.74
 21
229.27
  0
LINE
  8
0
  6
CONTINUOUS
 62
     3
 10
273.94
 20
222.07
 11
273.94
 21
229.27
  0
LINE
  8
0
  6
CONTINUOUS
 62
     3
 10
274.44
 20
223.07
 11
273.94
 21
223.07
  0
LINE
  8
0
  6
CONTINUOUS
 62
     3
 10
274.44
 20
228.27
 11
273.94
 21
228.27
  0
LINE
  8
0
  6
CONTINUOUS
 62
     3
 10
273.94
 20
225.17
 11
272.94
 21
225.17
  0
LINE
  8
0
  6
CONTINUOUS
 62
     3
 10
272.94
 20
225.17
 11
273.94
 21
222.67
  0
LINE
  8
0
  6
CONTINUOUS
 62
     3
 10
273.94
 20
222.67
 11
271.94
 21
222.67
  0
LINE
  8
0
  6
CONTINUOUS
 62
     3
 10
271.94
 20
222.67
 11
271.94
 21
225.67
  0
LINE
  8
0
  6
CONTINUOUS
 62
     3
 10
272.44
 20
225.67
 11
272.44
 21
224.67
  0
LINE
  8
0
  6
CONTINUOUS
 62
     3
 10
272.44
 20
224.67
 11
271.94
 21
224.67
  0
LINE
  8
0
  6
CONTINUOUS
 62
     3
 10
274.44
 20
228.27
 11
273.94
 21
228.27
  0
LINE
  8
0
  6
CONTINUOUS
 62
     3
 10
273.94
 20
226.17
 11
272.94
 21
226.17
  0
LINE
  8
0
  6
CONTINUOUS
 62
     3
 10
272.94
 20
226.17
 11
273.94
 21
228.67
  0
LINE
  8
0
  6
CONTINUOUS
 62
     3
 10
273.94
 20
228.67
 11
271.94
 21
228.67
  0
LINE
  8
0
  6
CONTINUOUS
 62
     3
 10
271.94
 20
228.67
 11
271.94
 21
225.67
  0
LINE
  8
0
  6
CONTINUOUS
 62
     3
 10
272.44
 20
225.67
 11
272.44
 21
226.67
  0
LINE
  8
0
  6
CONTINUOUS
 62
     3
 10
272.44
 20
226.67
 11
271.94
 21
226.67
  0
LINE
  8
0
  6
CONTINUOUS
 62
     3
 10
271.94
 20
225.67
 11
271.94
 21
222.87
  0
LINE
  8
0
  6
CONTINUOUS
 62
     3
 10
271.94
 20
222.87
 11
269.94
 21
222.87
  0
LINE
  8
0
  6
CONTINUOUS
 62
     3
 10
269.74
 20
225.67
 11
269.74
 21
225.07
  0
LINE
  8
0
  6
CONTINUOUS
 62
     3
 10
269.74
 20
225.07
 11
269.94
 21
222.87
  0
LINE
  8
0
  6
CONTINUOUS
 62
     3
 10
271.94
 20
228.67
 11
271.94
 21
225.67
  0
LINE
  8
0
  6
CONTINUOUS
 62
     3
 10
271.94
 20
225.67
 11
271.94
 21
228.47
  0
LINE
  8
0
  6
CONTINUOUS
 62
     3
 10
271.94
 20
228.47
 11
269.94
 21
228.47
  0
LINE
  8
0
  6
CONTINUOUS
 62
     3
 10
269.74
 20
225.67
 11
269.74
 21
226.27
  0
LINE
  8
0
  6
CONTINUOUS
 62
     3
 10
269.74
 20
226.27
 11
269.94
 21
228.47
  0
LINE
  8
0
  6
CONTINUOUS
 62
     3
 10
267.74
 20
230.77
 11
274.44
 21
230.77
  0
LINE
  8
0
  6
CONTINUOUS
 62
     3
 10
274.44
 20
237.97
 11
266.44
 21
237.97
  0
LINE
  8
0
  6
CONTINUOUS
 62
     3
 10
273.94
 20
230.77
 11
273.94
 21
237.97
  0
LINE
  8
0
  6
CONTINUOUS
 62
     3
 10
274.44
 20
230.77
 11
274.44
 21
237.97
  0
LINE
  8
0
  6
CONTINUOUS
 62
     3
 10
274.44
 20
237.97
 11
267.74
 21
237.97
  0
LINE
  8
0
  6
CONTINUOUS
 62
     3
 10
273.94
 20
230.77
 11
273.94
 21
237.97
  0
LINE
  8
0
  6
CONTINUOUS
 62
     3
 10
274.44
 20
231.77
 11
273.94
 21
231.77
  0
LINE
  8
0
  6
CONTINUOUS
 62
     3
 10
274.44
 20
236.97
 11
273.94
 21
236.97
  0
LINE
  8
0
  6
CONTINUOUS
 62
     3
 10
273.94
 20
233.87
 11
272.94
 21
233.87
  0
LINE
  8
0
  6
CONTINUOUS
 62
     3
 10
272.94
 20
233.87
 11
273.94
 21
231.37
  0
LINE
  8
0
  6
CONTINUOUS
 62
     3
 10
273.94
 20
231.37
 11
271.94
 21
231.37
  0
LINE
  8
0
  6
CONTINUOUS
 62
     3
 10
271.94
 20
231.37
 11
271.94
 21
234.37
  0
LINE
  8
0
  6
CONTINUOUS
 62
     3
 10
272.44
 20
234.37
 11
272.44
 21
233.37
  0
LINE
  8
0
  6
CONTINUOUS
 62
     3
 10
272.44
 20
233.37
 11
271.94
 21
233.37
  0
LINE
  8
0
  6
CONTINUOUS
 62
     3
 10
274.44
 20
236.97
 11
273.94
 21
236.97
  0
LINE
  8
0
  6
CONTINUOUS
 62
     3
 10
273.94
 20
234.87
 11
272.94
 21
234.87
  0
LINE
  8
0
  6
CONTINUOUS
 62
     3
 10
272.94
 20
234.87
 11
273.94
 21
237.37
  0
LINE
  8
0
  6
CONTINUOUS
 62
     3
 10
273.94
 20
237.37
 11
271.94
 21
237.37
  0
LINE
  8
0
  6
CONTINUOUS
 62
     3
 10
271.94
 20
237.37
 11
271.94
 21
234.37
  0
LINE
  8
0
  6
CONTINUOUS
 62
     3
 10
272.44
 20
234.37
 11
272.44
 21
235.37
  0
LINE
  8
0
  6
CONTINUOUS
 62
     3
 10
272.44
 20
235.37
 11
271.94
 21
235.37
  0
LINE
  8
0
  6
CONTINUOUS
 62
     3
 10
271.94
 20
234.37
 11
271.94
 21
231.57
  0
LINE
  8
0
  6
CONTINUOUS
 62
     3
 10
271.94
 20
231.57
 11
269.94
 21
231.57
  0
LINE
  8
0
  6
CONTINUOUS
 62
     3
 10
269.74
 20
234.37
 11
269.74
 21
233.77
  0
LINE
  8
0
  6
CONTINUOUS
 62
     3
 10
269.74
 20
233.77
 11
269.94
 21
231.57
  0
LINE
  8
0
  6
CONTINUOUS
 62
     3
 10
271.94
 20
237.37
 11
271.94
 21
234.37
  0
LINE
  8
0
  6
CONTINUOUS
 62
     3
 10
271.94
 20
234.37
 11
271.94
 21
237.17
  0
LINE
  8
0
  6
CONTINUOUS
 62
     3
 10
271.94
 20
237.17
 11
269.94
 21
237.17
  0
LINE
  8
0
  6
CONTINUOUS
 62
     3
 10
269.74
 20
234.37
 11
269.74
 21
234.97
  0
LINE
  8
0
  6
CONTINUOUS
 62
     3
 10
269.74
 20
234.97
 11
269.94
 21
237.17
  0
LINE
  8
0
  6
CONTINUOUS
 62
     3
 10
267.74
 20
237.97
 11
269.54
 21
237.97
  0
LINE
  8
0
  6
CONTINUOUS
 62
     3
 10
266.44
 20
211.87
 11
266.44
 21
213.37
  0
LINE
  8
0
  6
CONTINUOUS
 62
     3
 10
267.74
 20
213.37
 11
267.74
 21
211.87
  0
LINE
  8
0
  6
CONTINUOUS
 62
     3
 10
266.44
 20
220.57
 11
266.44
 21
222.07
  0
LINE
  8
0
  6
CONTINUOUS
 62
     3
 10
267.74
 20
222.07
 11
267.74
 21
220.57
  0
LINE
  8
0
  6
CONTINUOUS
 62
     3
 10
269.54
 20
220.57
 11
269.54
 21
222.07
  0
LINE
  8
0
  6
CONTINUOUS
 62
     3
 10
267.74
 20
229.27
 11
267.74
 21
230.77
  0
LINE
  8
0
  6
CONTINUOUS
 62
     3
 10
267.74
 20
203.17
 11
267.74
 21
204.67
  0
LINE
  8
0
  6
CONTINUOUS
 62
     3
 10
269.74
 20
239.47
 11
264.74
 21
239.47
  0
LINE
  8
0
  6
CONTINUOUS
 62
     3
 10
266.44
 20
237.97
 11
266.44
 21
239.47
  0
LINE
  8
0
  6
CONTINUOUS
 62
     3
 10
267.74
 20
239.47
 11
267.74
 21
237.97
  0
LINE
  8
0
  6
CONTINUOUS
 62
     3
 10
264.74
 20
203.17
 11
264.74
 21
239.47
  0
LINE
  8
0
  6
CONTINUOUS
 62
     3
 10
267.74
 20
239.47
 11
267.74
 21
237.97
  0
LINE
  8
0
  6
CONTINUOUS
 62
     3
 10
274.44
 20
230.77
 11
274.44
 21
237.97
  0
LINE
  8
0
  6
CONTINUOUS
 62
     3
 10
269.74
 20
239.47
 11
269.74
 21
203.17
  0
ARC
  8
0
  6
CONTINUOUS
 62
     3
 10
272.691889265
 20
201.77
 40
0.5
 50
164.213321256
 51
270.0
  0
LINE
  8
0
  6
CONTINUOUS
 62
     3
 10
272.191891737
 20
203.17
 11
272.191891737
 21
201.768427681
  0
LINE
  8
0
  6
CONTINUOUS
 62
     3
 10
272.191891737
 20
240.871572319
 11
272.191891737
 21
239.47
  0
LINE
  8
0
  6
CONTINUOUS
 62
     3
 10
275.14
 20
239.47
 11
266.44
 21
239.47
  0
LINE
  8
0
  6
CONTINUOUS
 62
     3
 10
264.74
 20
203.17
 11
275.14
 21
203.17
  0
LINE
  8
0
  6
CONTINUOUS
 62
     3
 10
264.74
 20
238.063220339
 11
253.74
 21
237.97
  0
LINE
  8
0
  6
CONTINUOUS
 62
     3
 10
264.74
 20
236.076779661
 11
253.74
 21
236.17
  0
LINE
  8
0
  6
CONTINUOUS
 62
     3
 10
264.74
 20
234.563220339
 11
253.74
 21
234.47
  0
LINE
  8
0
  6
CONTINUOUS
 62
     3
 10
264.74
 20
232.576779661
 11
253.74
 21
232.67
  0
LINE
  8
0
  6
CONTINUOUS
 62
     3
 10
264.74
 20
231.063220339
 11
253.74
 21
230.97
  0
LINE
  8
0
  6
CONTINUOUS
 62
     3
 10
264.74
 20
229.076779661
 11
253.74
 21
229.17
  0
LINE
  8
0
  6
CONTINUOUS
 62
     3
 10
264.74
 20
227.563220339
 11
253.74
 21
227.47
  0
LINE
  8
0
  6
CONTINUOUS
 62
     3
 10
264.74
 20
225.576779661
 11
253.74
 21
225.67
  0
LINE
  8
0
  6
CONTINUOUS
 62
     3
 10
264.74
 20
224.063220339
 11
253.74
 21
223.97
  0
LINE
  8
0
  6
CONTINUOUS
 62
     3
 10
264.74
 20
222.076779661
 11
253.74
 21
222.17
  0
LINE
  8
0
  6
CONTINUOUS
 62
     3
 10
264.74
 20
220.563220339
 11
253.74
 21
220.47
  0
LINE
  8
0
  6
CONTINUOUS
 62
     3
 10
264.74
 20
218.576779661
 11
253.74
 21
218.67
  0
LINE
  8
0
  6
CONTINUOUS
 62
     3
 10
264.74
 20
217.063220339
 11
253.74
 21
216.97
  0
LINE
  8
0
  6
CONTINUOUS
 62
     3
 10
264.74
 20
215.076779661
 11
253.74
 21
215.17
  0
LINE
  8
0
  6
CONTINUOUS
 62
     3
 10
264.74
 20
213.563220339
 11
253.74
 21
213.47
  0
LINE
  8
0
  6
CONTINUOUS
 62
     3
 10
264.74
 20
211.576779661
 11
253.74
 21
211.67
  0
LINE
  8
0
  6
CONTINUOUS
 62
     3
 10
264.74
 20
210.063220339
 11
253.74
 21
209.97
  0
LINE
  8
0
  6
CONTINUOUS
 62
     3
 10
264.74
 20
208.076779661
 11
253.74
 21
208.17
  0
LINE
  8
0
  6
CONTINUOUS
 62
     3
 10
264.74
 20
206.563220339
 11
253.74
 21
206.47
  0
LINE
  8
0
  6
CONTINUOUS
 62
     3
 10
264.74
 20
204.576779661
 11
253.74
 21
204.67
  0
LINE
  8
0
  6
CONTINUOUS
 62
     3
 10
204.915000001
 20
225.67
 11
203.115000001
 21
225.67
  0
LINE
  8
0
  6
CONTINUOUS
 62
     3
 10
203.115000001
 20
223.97
 11
204.915000001
 21
223.97
  0
LINE
  8
0
  6
CONTINUOUS
 62
     3
 10
204.915000001
 20
229.17
 11
203.115000001
 21
229.17
  0
LINE
  8
0
  6
CONTINUOUS
 62
     3
 10
203.115000001
 20
227.47
 11
204.915000001
 21
227.47
  0
LINE
  8
0
  6
CONTINUOUS
 62
     3
 10
204.915000001
 20
232.67
 11
203.115000001
 21
232.67
  0
LINE
  8
0
  6
CONTINUOUS
 62
     3
 10
203.115000001
 20
230.97
 11
204.915000001
 21
230.97
  0
LINE
  8
0
  6
CONTINUOUS
 62
     3
 10
204.915000001
 20
222.17
 11
203.115000001
 21
222.17
  0
LINE
  8
0
  6
CONTINUOUS
 62
     3
 10
203.115000001
 20
220.47
 11
204.915000001
 21
220.47
  0
LINE
  8
0
  6
CONTINUOUS
 62
     3
 10
203.115000001
 20
218.67
 11
204.915000001
 21
218.67
  0
LINE
  8
0
  6
CONTINUOUS
 62
     3
 10
204.915000001
 20
216.97
 11
203.115000001
 21
216.97
  0
LINE
  8
0
  6
CONTINUOUS
 62
     3
 10
204.915000001
 20
213.47
 11
203.115000001
 21
213.47
  0
LINE
  8
0
  6
CONTINUOUS
 62
     3
 10
203.115000001
 20
215.17
 11
204.915000001
 21
215.17
  0
LINE
  8
0
  6
CONTINUOUS
 62
     3
 10
204.915000001
 20
209.97
 11
203.115000001
 21
209.97
  0
LINE
  8
0
  6
CONTINUOUS
 62
     3
 10
203.115000001
 20
211.67
 11
204.915000001
 21
211.67
  0
LINE
  8
0
  6
CONTINUOUS
 62
     3
 10
204.915000001
 20
206.47
 11
203.115000001
 21
206.47
  0
LINE
  8
0
  6
CONTINUOUS
 62
     3
 10
203.115000001
 20
208.17
 11
204.915000001
 21
208.17
  0
LINE
  8
0
  6
CONTINUOUS
 62
     3
 10
204.915000001
 20
243.17
 11
203.115000001
 21
243.17
  0
LINE
  8
0
  6
CONTINUOUS
 62
     3
 10
203.115000001
 20
241.47
 11
204.915000001
 21
241.47
  0
LINE
  8
0
  6
CONTINUOUS
 62
     3
 10
204.915000001
 20
239.67
 11
203.115000001
 21
239.67
  0
LINE
  8
0
  6
CONTINUOUS
 62
     3
 10
204.915000001
 20
236.17
 11
203.115000001
 21
236.17
  0
LINE
  8
0
  6
CONTINUOUS
 62
     3
 10
203.115000001
 20
237.97
 11
204.915000001
 21
237.97
  0
LINE
  8
0
  6
CONTINUOUS
 62
     3
 10
203.115000001
 20
234.47
 11
204.915000001
 21
234.47
  0
LINE
  8
0
  6
CONTINUOUS
 62
     3
 10
203.115000001
 20
243.17
 11
203.115000001
 21
241.47
  0
LINE
  8
0
  6
CONTINUOUS
 62
     3
 10
203.115000001
 20
239.67
 11
203.115000001
 21
237.97
  0
LINE
  8
0
  6
CONTINUOUS
 62
     3
 10
203.115000001
 20
225.67
 11
203.115000001
 21
223.97
  0
LINE
  8
0
  6
CONTINUOUS
 62
     3
 10
203.115000001
 20
229.17
 11
203.115000001
 21
227.47
  0
LINE
  8
0
  6
CONTINUOUS
 62
     3
 10
203.115000001
 20
232.67
 11
203.115000001
 21
230.97
  0
LINE
  8
0
  6
CONTINUOUS
 62
     3
 10
203.115000001
 20
236.17
 11
203.115000001
 21
234.47
  0
LINE
  8
0
  6
CONTINUOUS
 62
     3
 10
203.115000001
 20
222.17
 11
203.115000001
 21
220.47
  0
LINE
  8
0
  6
CONTINUOUS
 62
     3
 10
203.115000001
 20
216.97
 11
203.115000001
 21
218.67
  0
LINE
  8
0
  6
CONTINUOUS
 62
     3
 10
203.115000001
 20
213.47
 11
203.115000001
 21
215.17
  0
LINE
  8
0
  6
CONTINUOUS
 62
     3
 10
203.115000001
 20
209.97
 11
203.115000001
 21
211.67
  0
LINE
  8
0
  6
CONTINUOUS
 62
     3
 10
203.115000001
 20
206.47
 11
203.115000001
 21
208.17
  0
LINE
  8
0
  6
CONTINUOUS
 62
     3
 10
140.215000001
 20
225.67
 11
142.015000001
 21
225.67
  0
LINE
  8
0
  6
CONTINUOUS
 62
     3
 10
142.015000001
 20
223.97
 11
140.215000001
 21
223.97
  0
LINE
  8
0
  6
CONTINUOUS
 62
     3
 10
140.215000001
 20
229.17
 11
142.015000001
 21
229.17
  0
LINE
  8
0
  6
CONTINUOUS
 62
     3
 10
140.215000001
 20
232.67
 11
142.015000001
 21
232.67
  0
LINE
  8
0
  6
CONTINUOUS
 62
     3
 10
142.015000001
 20
230.97
 11
140.215000001
 21
230.97
  0
LINE
  8
0
  6
CONTINUOUS
 62
     3
 10
140.215000001
 20
222.17
 11
142.015000001
 21
222.17
  0
LINE
  8
0
  6
CONTINUOUS
 62
     3
 10
142.015000001
 20
220.47
 11
140.215000001
 21
220.47
  0
LINE
  8
0
  6
CONTINUOUS
 62
     3
 10
142.015000001
 20
218.67
 11
140.215000001
 21
218.67
  0
LINE
  8
0
  6
CONTINUOUS
 62
     3
 10
140.215000001
 20
216.97
 11
142.015000001
 21
216.97
  0
LINE
  8
0
  6
CONTINUOUS
 62
     3
 10
140.215000001
 20
213.47
 11
142.015000001
 21
213.47
  0
LINE
  8
0
  6
CONTINUOUS
 62
     3
 10
142.015000001
 20
215.17
 11
140.215000001
 21
215.17
  0
LINE
  8
0
  6
CONTINUOUS
 62
     3
 10
140.215000001
 20
209.97
 11
142.015000001
 21
209.97
  0
LINE
  8
0
  6
CONTINUOUS
 62
     3
 10
142.015000001
 20
211.67
 11
140.215000001
 21
211.67
  0
LINE
  8
0
  6
CONTINUOUS
 62
     3
 10
140.215000001
 20
206.47
 11
142.015000001
 21
206.47
  0
LINE
  8
0
  6
CONTINUOUS
 62
     3
 10
142.015000001
 20
208.17
 11
140.215000001
 21
208.17
  0
LINE
  8
0
  6
CONTINUOUS
 62
     3
 10
140.215000001
 20
243.17
 11
142.015000001
 21
243.17
  0
LINE
  8
0
  6
CONTINUOUS
 62
     3
 10
142.015000001
 20
241.47
 11
140.215000001
 21
241.47
  0
LINE
  8
0
  6
CONTINUOUS
 62
     3
 10
140.215000001
 20
239.67
 11
142.015000001
 21
239.67
  0
LINE
  8
0
  6
CONTINUOUS
 62
     3
 10
140.215000001
 20
236.17
 11
142.015000001
 21
236.17
  0
LINE
  8
0
  6
CONTINUOUS
 62
     3
 10
142.015000001
 20
237.97
 11
140.215000001
 21
237.97
  0
LINE
  8
0
  6
CONTINUOUS
 62
     3
 10
142.015000001
 20
234.47
 11
140.215000001
 21
234.47
  0
LINE
  8
0
  6
CONTINUOUS
 62
     3
 10
142.015000001
 20
243.17
 11
142.015000001
 21
241.47
  0
LINE
  8
0
  6
CONTINUOUS
 62
     3
 10
142.015000001
 20
239.67
 11
142.015000001
 21
237.97
  0
LINE
  8
0
  6
CONTINUOUS
 62
     3
 10
142.015000001
 20
225.67
 11
142.015000001
 21
223.97
  0
LINE
  8
0
  6
CONTINUOUS
 62
     3
 10
142.015000001
 20
229.17
 11
142.015000001
 21
227.47
  0
LINE
  8
0
  6
CONTINUOUS
 62
     3
 10
142.015000001
 20
232.67
 11
142.015000001
 21
230.97
  0
LINE
  8
0
  6
CONTINUOUS
 62
     3
 10
142.015000001
 20
236.17
 11
142.015000001
 21
234.47
  0
LINE
  8
0
  6
CONTINUOUS
 62
     3
 10
142.015000001
 20
222.17
 11
142.015000001
 21
220.47
  0
LINE
  8
0
  6
CONTINUOUS
 62
     3
 10
142.015000001
 20
216.97
 11
142.015000001
 21
218.67
  0
LINE
  8
0
  6
CONTINUOUS
 62
     3
 10
142.015000001
 20
213.47
 11
142.015000001
 21
215.17
  0
LINE
  8
0
  6
CONTINUOUS
 62
     3
 10
142.015000001
 20
209.97
 11
142.015000001
 21
211.67
  0
LINE
  8
0
  6
CONTINUOUS
 62
     3
 10
142.015000001
 20
206.47
 11
142.015000001
 21
208.17
  0
LINE
  8
0
  6
CONTINUOUS
 62
     3
 10
204.915000001
 20
202.97
 11
203.115000001
 21
202.97
  0
LINE
  8
0
  6
CONTINUOUS
 62
     3
 10
203.115000001
 20
204.67
 11
204.915000001
 21
204.67
  0
LINE
  8
0
  6
CONTINUOUS
 62
     3
 10
204.915000001
 20
199.47
 11
203.115000001
 21
199.47
  0
LINE
  8
0
  6
CONTINUOUS
 62
     3
 10
203.115000001
 20
201.17
 11
204.915000001
 21
201.17
  0
LINE
  8
0
  6
CONTINUOUS
 62
     3
 10
203.115000001
 20
202.97
 11
203.115000001
 21
204.67
  0
LINE
  8
0
  6
CONTINUOUS
 62
     3
 10
203.115000001
 20
199.47
 11
203.115000001
 21
201.17
  0
LINE
  8
0
  6
CONTINUOUS
 62
     3
 10
140.215000001
 20
202.97
 11
142.015000001
 21
202.97
  0
LINE
  8
0
  6
CONTINUOUS
 62
     3
 10
142.015000001
 20
204.67
 11
140.215000001
 21
204.67
  0
LINE
  8
0
  6
CONTINUOUS
 62
     3
 10
140.215000001
 20
199.47
 11
142.015000001
 21
199.47
  0
LINE
  8
0
  6
CONTINUOUS
 62
     3
 10
142.015000001
 20
201.17
 11
140.215000001
 21
201.17
  0
LINE
  8
0
  6
CONTINUOUS
 62
     3
 10
142.015000001
 20
202.97
 11
142.015000001
 21
204.67
  0
LINE
  8
0
  6
CONTINUOUS
 62
     3
 10
142.015000001
 20
199.47
 11
142.015000001
 21
201.17
  0
ARC
  8
0
  6
CONTINUOUS
 62
     3
 10
143.365000001
 20
242.97
 40
0.5
 50
90.0
 51
180.0
  0
LINE
  8
0
  6
CONTINUOUS
 62
     3
 10
142.865000001
 20
204.17
 11
142.865000001
 21
242.97
  0
LINE
  8
0
  6
CONTINUOUS
 62
     3
 10
127.065000001
 20
230.92
 11
127.065000001
 21
221.32
  0
LINE
  8
0
  6
CONTINUOUS
 62
     3
 10
130.065000001
 20
201.27
 11
130.065000001
 21
202.27
  0
LINE
  8
0
  6
CONTINUOUS
 62
     3
 10
130.065000001
 20
202.27
 11
132.565000001
 21
202.27
  0
LINE
  8
0
  6
CONTINUOUS
 62
     3
 10
136.065000001
 20
201.27
 11
136.065000001
 21
202.77
  0
LINE
  8
0
  6
CONTINUOUS
 62
     3
 10
135.065000001
 20
201.27
 11
135.065000001
 21
202.27
  0
LINE
  8
0
  6
CONTINUOUS
 62
     3
 10
135.065000001
 20
202.27
 11
132.565000001
 21
202.27
  0
LINE
  8
0
  6
CONTINUOUS
 62
     3
 10
130.065000001
 20
241.37
 11
130.065000001
 21
240.37
  0
LINE
  8
0
  6
CONTINUOUS
 62
     3
 10
130.065000001
 20
240.37
 11
132.565000001
 21
240.37
  0
LINE
  8
0
  6
CONTINUOUS
 62
     3
 10
135.065000001
 20
241.37
 11
135.065000001
 21
240.37
  0
LINE
  8
0
  6
CONTINUOUS
 62
     3
 10
135.065000001
 20
240.37
 11
132.565000001
 21
240.37
  0
POINT
  8
0
  6
CONTINUOUS
 62
     3
 10
130.065000001
 20
241.37
  0
LINE
  8
0
  6
CONTINUOUS
 62
     3
 10
130.065000001
 20
241.37
 11
130.065000001
 21
240.37
  0
LINE
  8
0
  6
CONTINUOUS
 62
     3
 10
130.065000001
 20
240.37
 11
135.065000001
 21
240.37
  0
LINE
  8
0
  6
CONTINUOUS
 62
     3
 10
135.065000001
 20
240.37
 11
135.065000001
 21
241.37
  0
LINE
  8
0
  6
CONTINUOUS
 62
     3
 10
135.065000001
 20
241.37
 11
136.065000001
 21
241.37
  0
LINE
  8
0
  6
CONTINUOUS
 62
     3
 10
129.065000001
 20
241.37
 11
135.065000001
 21
241.37
  0
POINT
  8
0
  6
CONTINUOUS
 62
     3
 10
130.065000001
 20
201.27
  0
LINE
  8
0
  6
CONTINUOUS
 62
     3
 10
130.065000001
 20
201.27
 11
130.065000001
 21
202.27
  0
LINE
  8
0
  6
CONTINUOUS
 62
     3
 10
130.065000001
 20
202.27
 11
135.065000001
 21
202.27
  0
LINE
  8
0
  6
CONTINUOUS
 62
     3
 10
135.065000001
 20
202.27
 11
135.065000001
 21
201.27
  0
LINE
  8
0
  6
CONTINUOUS
 62
     3
 10
135.065000001
 20
201.27
 11
136.065000001
 21
201.27
  0
LINE
  8
0
  6
CONTINUOUS
 62
     3
 10
129.065000001
 20
201.27
 11
135.065000001
 21
201.27
  0
LINE
  8
0
  6
CONTINUOUS
 62
     3
 10
136.065000001
 20
201.27
 11
136.065000001
 21
202.87
  0
LINE
  8
0
  6
CONTINUOUS
 62
     3
 10
138.415000001
 20
202.87
 11
136.065000001
 21
202.87
  0
LINE
  8
0
  6
CONTINUOUS
 62
     3
 10
142.015000001
 20
227.47
 11
140.215000001
 21
227.47
  0
LINE
  8
0
  6
CONTINUOUS
 62
     3
 10
129.115000001
 20
239.47
 11
138.415000001
 21
239.47
  0
LINE
  8
0
  6
CONTINUOUS
 62
     3
 10
138.415000001
 20
239.47
 11
138.415000001
 21
203.17
  0
LINE
  8
0
  6
CONTINUOUS
 62
     3
 10
138.415000001
 20
203.17
 11
129.115000001
 21
203.17
  0
LINE
  8
0
  6
CONTINUOUS
 62
     3
 10
129.115000001
 20
239.47
 11
128.515000001
 21
239.47
  0
LINE
  8
0
  6
CONTINUOUS
 62
     3
 10
138.415000001
 20
239.47
 11
137.215000001
 21
239.47
  0
LINE
  8
0
  6
CONTINUOUS
 62
     3
 10
128.515000001
 20
239.47
 11
128.515000001
 21
220.57
  0
LINE
  8
0
  6
CONTINUOUS
 62
     3
 10
128.515000001
 20
204.67
 11
128.515000001
 21
203.17
  0
LINE
  8
0
  6
CONTINUOUS
 62
     3
 10
128.515000001
 20
213.37
 11
128.515000001
 21
211.87
  0
LINE
  8
0
  6
CONTINUOUS
 62
     3
 10
128.515000001
 20
203.17
 11
129.115000001
 21
203.17
  0
LINE
  8
0
  6
CONTINUOUS
 62
     3
 10
136.915000001
 20
234.37
 11
136.915000001
 21
237.37
  0
LINE
  8
0
  6
CONTINUOUS
 62
     3
 10
136.915000001
 20
231.37
 11
136.915000001
 21
234.87
  0
CIRCLE
  8
0
  6
CONTINUOUS
 62
     3
 10
133.915000001
 20
234.37
 40
2.9
  0
LINE
  8
0
  6
CONTINUOUS
 62
     3
 10
129.115000001
 20
239.47
 11
129.115000001
 21
203.17
  0
LINE
  8
0
  6
CONTINUOUS
 62
     3
 10
138.415000001
 20
239.47
 11
137.415000001
 21
239.47
  0
LINE
  8
0
  6
CONTINUOUS
 62
     3
 10
128.515000001
 20
230.77
 11
137.415000001
 21
230.77
  0
LINE
  8
0
  6
CONTINUOUS
 62
     3
 10
128.515000001
 20
229.27
 11
137.415000001
 21
229.27
  0
LINE
  8
0
  6
CONTINUOUS
 62
     3
 10
128.515000001
 20
222.07
 11
137.415000001
 21
222.07
  0
LINE
  8
0
  6
CONTINUOUS
 62
     3
 10
128.515000001
 20
220.57
 11
137.415000001
 21
220.57
  0
LINE
  8
0
  6
CONTINUOUS
 62
     3
 10
128.515000001
 20
213.37
 11
137.415000001
 21
213.37
  0
LINE
  8
0
  6
CONTINUOUS
 62
     3
 10
128.515000001
 20
211.87
 11
137.415000001
 21
211.87
  0
LINE
  8
0
  6
CONTINUOUS
 62
     3
 10
128.515000001
 20
204.67
 11
137.415000001
 21
204.67
  0
LINE
  8
0
  6
CONTINUOUS
 62
     3
 10
136.915000001
 20
237.37
 11
130.415000001
 21
237.37
  0
LINE
  8
0
  6
CONTINUOUS
 62
     3
 10
130.415000001
 20
231.37
 11
136.915000001
 21
231.37
  0
LINE
  8
0
  6
CONTINUOUS
 62
     3
 10
130.415000001
 20
237.37
 11
130.415000001
 21
231.37
  0
LINE
  8
0
  6
CONTINUOUS
 62
     3
 10
128.515000001
 20
237.97
 11
137.415000001
 21
237.97
  0
LINE
  8
0
  6
CONTINUOUS
 62
     3
 10
137.415000001
 20
237.97
 11
137.415000001
 21
204.67
  0
CIRCLE
  8
0
  6
CONTINUOUS
 62
     3
 10
133.915000001
 20
234.37
 40
2.9
  0
LINE
  8
0
  6
CONTINUOUS
 62
     3
 10
134.622106782
 20
234.37
 11
135.682766954
 21
235.430660172
  0
LINE
  8
0
  6
CONTINUOUS
 62
     3
 10
135.682766954
 20
235.430660172
 11
134.975660172
 21
236.137766953
  0
LINE
  8
0
  6
CONTINUOUS
 62
     3
 10
134.975660172
 20
236.137766953
 11
133.915000001
 21
235.077106781
  0
LINE
  8
0
  6
CONTINUOUS
 62
     3
 10
133.207893219
 20
234.37
 11
132.147233048
 21
233.309339828
  0
LINE
  8
0
  6
CONTINUOUS
 62
     3
 10
132.147233048
 20
233.309339828
 11
132.854339829
 21
232.602233047
  0
LINE
  8
0
  6
CONTINUOUS
 62
     3
 10
132.854339829
 20
232.602233047
 11
133.915000001
 21
233.662893219
  0
LINE
  8
0
  6
CONTINUOUS
 62
     3
 10
133.915000001
 20
235.077106781
 11
132.288654404
 21
236.703452378
  0
LINE
  8
0
  6
CONTINUOUS
 62
     3
 10
136.248452378
 20
232.743654403
 11
134.622106782
 21
234.37
  0
LINE
  8
0
  6
CONTINUOUS
 62
     3
 10
133.915000001
 20
233.662893219
 11
135.541345597
 21
232.036547622
  0
LINE
  8
0
  6
CONTINUOUS
 62
     3
 10
131.581547623
 20
235.996345597
 11
133.207893219
 21
234.37
  0
LINE
  8
0
  6
CONTINUOUS
 62
     3
 10
132.147233048
 20
235.430660172
 11
132.854339829
 21
236.137766953
  0
LINE
  8
0
  6
CONTINUOUS
 62
     3
 10
135.682766954
 20
233.309339828
 11
134.975660172
 21
232.602233047
  0
LINE
  8
0
  6
CONTINUOUS
 62
     3
 10
136.915000001
 20
225.67
 11
136.915000001
 21
228.67
  0
LINE
  8
0
  6
CONTINUOUS
 62
     3
 10
136.915000001
 20
222.67
 11
136.915000001
 21
226.17
  0
CIRCLE
  8
0
  6
CONTINUOUS
 62
     3
 10
133.915000001
 20
225.67
 40
2.9
  0
LINE
  8
0
  6
CONTINUOUS
 62
     3
 10
136.915000001
 20
228.67
 11
130.415000001
 21
228.67
  0
LINE
  8
0
  6
CONTINUOUS
 62
     3
 10
130.415000001
 20
222.67
 11
136.915000001
 21
222.67
  0
LINE
  8
0
  6
CONTINUOUS
 62
     3
 10
130.415000001
 20
228.67
 11
130.415000001
 21
222.67
  0
CIRCLE
  8
0
  6
CONTINUOUS
 62
     3
 10
133.915000001
 20
225.67
 40
2.9
  0
LINE
  8
0
  6
CONTINUOUS
 62
     3
 10
134.622106782
 20
225.67
 11
135.682766954
 21
226.730660172
  0
LINE
  8
0
  6
CONTINUOUS
 62
     3
 10
135.682766954
 20
226.730660172
 11
134.975660172
 21
227.437766953
  0
LINE
  8
0
  6
CONTINUOUS
 62
     3
 10
134.975660172
 20
227.437766953
 11
133.915000001
 21
226.377106781
  0
LINE
  8
0
  6
CONTINUOUS
 62
     3
 10
133.207893219
 20
225.67
 11
132.147233048
 21
224.609339828
  0
LINE
  8
0
  6
CONTINUOUS
 62
     3
 10
132.147233048
 20
224.609339828
 11
132.854339829
 21
223.902233047
  0
LINE
  8
0
  6
CONTINUOUS
 62
     3
 10
132.854339829
 20
223.902233047
 11
133.915000001
 21
224.962893219
  0
LINE
  8
0
  6
CONTINUOUS
 62
     3
 10
133.915000001
 20
226.377106781
 11
132.288654404
 21
228.003452378
  0
LINE
  8
0
  6
CONTINUOUS
 62
     3
 10
136.248452378
 20
224.043654403
 11
134.622106782
 21
225.67
  0
LINE
  8
0
  6
CONTINUOUS
 62
     3
 10
133.915000001
 20
224.962893219
 11
135.541345597
 21
223.336547622
  0
LINE
  8
0
  6
CONTINUOUS
 62
     3
 10
131.581547623
 20
227.296345597
 11
133.207893219
 21
225.67
  0
LINE
  8
0
  6
CONTINUOUS
 62
     3
 10
132.147233048
 20
226.730660172
 11
132.854339829
 21
227.437766953
  0
LINE
  8
0
  6
CONTINUOUS
 62
     3
 10
135.682766954
 20
224.609339828
 11
134.975660172
 21
223.902233047
  0
LINE
  8
0
  6
CONTINUOUS
 62
     3
 10
136.915000001
 20
216.97
 11
136.915000001
 21
219.97
  0
LINE
  8
0
  6
CONTINUOUS
 62
     3
 10
136.915000001
 20
213.97
 11
136.915000001
 21
217.47
  0
CIRCLE
  8
0
  6
CONTINUOUS
 62
     3
 10
133.915000001
 20
216.97
 40
2.9
  0
LINE
  8
0
  6
CONTINUOUS
 62
     3
 10
136.915000001
 20
219.97
 11
130.415000001
 21
219.97
  0
LINE
  8
0
  6
CONTINUOUS
 62
     3
 10
130.415000001
 20
213.97
 11
136.915000001
 21
213.97
  0
LINE
  8
0
  6
CONTINUOUS
 62
     3
 10
130.415000001
 20
219.97
 11
130.415000001
 21
213.97
  0
CIRCLE
  8
0
  6
CONTINUOUS
 62
     3
 10
133.915000001
 20
216.97
 40
2.9
  0
LINE
  8
0
  6
CONTINUOUS
 62
     3
 10
134.622106782
 20
216.97
 11
135.682766954
 21
218.030660172
  0
LINE
  8
0
  6
CONTINUOUS
 62
     3
 10
135.682766954
 20
218.030660172
 11
134.975660172
 21
218.737766953
  0
LINE
  8
0
  6
CONTINUOUS
 62
     3
 10
134.975660172
 20
218.737766953
 11
133.915000001
 21
217.677106781
  0
LINE
  8
0
  6
CONTINUOUS
 62
     3
 10
133.207893219
 20
216.97
 11
132.147233048
 21
215.909339828
  0
LINE
  8
0
  6
CONTINUOUS
 62
     3
 10
132.147233048
 20
215.909339828
 11
132.854339829
 21
215.202233047
  0
LINE
  8
0
  6
CONTINUOUS
 62
     3
 10
132.854339829
 20
215.202233047
 11
133.915000001
 21
216.262893219
  0
LINE
  8
0
  6
CONTINUOUS
 62
     3
 10
133.915000001
 20
217.677106781
 11
132.288654404
 21
219.303452378
  0
LINE
  8
0
  6
CONTINUOUS
 62
     3
 10
136.248452378
 20
215.343654403
 11
134.622106782
 21
216.97
  0
LINE
  8
0
  6
CONTINUOUS
 62
     3
 10
133.915000001
 20
216.262893219
 11
135.541345597
 21
214.636547622
  0
LINE
  8
0
  6
CONTINUOUS
 62
     3
 10
131.581547623
 20
218.596345597
 11
133.207893219
 21
216.97
  0
LINE
  8
0
  6
CONTINUOUS
 62
     3
 10
132.147233048
 20
218.030660172
 11
132.854339829
 21
218.737766953
  0
LINE
  8
0
  6
CONTINUOUS
 62
     3
 10
135.682766954
 20
215.909339828
 11
134.975660172
 21
215.202233047
  0
LINE
  8
0
  6
CONTINUOUS
 62
     3
 10
136.915000001
 20
208.27
 11
136.915000001
 21
211.27
  0
LINE
  8
0
  6
CONTINUOUS
 62
     3
 10
136.915000001
 20
205.27
 11
136.915000001
 21
208.77
  0
CIRCLE
  8
0
  6
CONTINUOUS
 62
     3
 10
133.915000001
 20
208.27
 40
2.9
  0
LINE
  8
0
  6
CONTINUOUS
 62
     3
 10
136.915000001
 20
211.27
 11
130.415000001
 21
211.27
  0
LINE
  8
0
  6
CONTINUOUS
 62
     3
 10
130.415000001
 20
205.27
 11
136.915000001
 21
205.27
  0
LINE
  8
0
  6
CONTINUOUS
 62
     3
 10
130.415000001
 20
211.27
 11
130.415000001
 21
205.27
  0
CIRCLE
  8
0
  6
CONTINUOUS
 62
     3
 10
133.915000001
 20
208.27
 40
2.9
  0
LINE
  8
0
  6
CONTINUOUS
 62
     3
 10
134.622106782
 20
208.27
 11
135.682766954
 21
209.330660172
  0
LINE
  8
0
  6
CONTINUOUS
 62
     3
 10
135.682766954
 20
209.330660172
 11
134.975660172
 21
210.037766953
  0
LINE
  8
0
  6
CONTINUOUS
 62
     3
 10
134.975660172
 20
210.037766953
 11
133.915000001
 21
208.977106781
  0
LINE
  8
0
  6
CONTINUOUS
 62
     3
 10
133.207893219
 20
208.27
 11
132.147233048
 21
207.209339828
  0
LINE
  8
0
  6
CONTINUOUS
 62
     3
 10
132.147233048
 20
207.209339828
 11
132.854339829
 21
206.502233047
  0
LINE
  8
0
  6
CONTINUOUS
 62
     3
 10
132.854339829
 20
206.502233047
 11
133.915000001
 21
207.562893219
  0
LINE
  8
0
  6
CONTINUOUS
 62
     3
 10
133.915000001
 20
208.977106781
 11
132.288654404
 21
210.603452378
  0
LINE
  8
0
  6
CONTINUOUS
 62
     3
 10
136.248452378
 20
206.643654403
 11
134.622106782
 21
208.27
  0
LINE
  8
0
  6
CONTINUOUS
 62
     3
 10
133.915000001
 20
207.562893219
 11
135.541345597
 21
205.936547622
  0
LINE
  8
0
  6
CONTINUOUS
 62
     3
 10
131.581547623
 20
209.896345597
 11
133.207893219
 21
208.27
  0
LINE
  8
0
  6
CONTINUOUS
 62
     3
 10
132.147233048
 20
209.330660172
 11
132.854339829
 21
210.037766953
  0
LINE
  8
0
  6
CONTINUOUS
 62
     3
 10
135.682766954
 20
207.209339828
 11
134.975660172
 21
206.502233047
  0
LINE
  8
0
  6
LTYPE1
 62
     3
 10
129.115000001
 20
203.17
 11
128.115000001
 21
203.17
  0
LINE
  8
0
  6
LTYPE1
 62
     3
 10
128.115000001
 20
239.47
 11
137.915000001
 21
239.47
  0
POINT
  8
0
  6
CONTINUOUS
 62
     3
 10
215.065000001
 20
201.27
  0
LINE
  8
0
  6
CONTINUOUS
 62
     3
 10
215.065000001
 20
201.27
 11
215.065000001
 21
202.27
  0
LINE
  8
0
  6
CONTINUOUS
 62
     3
 10
215.065000001
 20
202.27
 11
210.065000001
 21
202.27
  0
LINE
  8
0
  6
CONTINUOUS
 62
     3
 10
210.065000001
 20
202.27
 11
210.065000001
 21
201.27
  0
LINE
  8
0
  6
CONTINUOUS
 62
     3
 10
210.065000001
 20
201.27
 11
209.065000001
 21
201.27
  0
POINT
  8
0
  6
CONTINUOUS
 62
     3
 10
215.065000001
 20
241.37
  0
LINE
  8
0
  6
CONTINUOUS
 62
     3
 10
210.065000001
 20
240.37
 11
210.065000001
 21
241.37
  0
LINE
  8
0
  6
CONTINUOUS
 62
     3
 10
210.065000001
 20
241.37
 11
209.065000001
 21
241.37
  0
LINE
  8
0
  6
CONTINUOUS
 62
     3
 10
216.065000001
 20
241.37
 11
210.065000001
 21
241.37
  0
LINE
  8
0
  6
CONTINUOUS
 62
     3
 10
209.065000001
 20
241.37
 11
209.065000001
 21
239.77
  0
LINE
  8
0
  6
CONTINUOUS
 62
     3
 10
216.015000001
 20
203.17
 11
206.715000001
 21
203.17
  0
LINE
  8
0
  6
CONTINUOUS
 62
     3
 10
206.715000001
 20
203.17
 11
206.715000001
 21
239.47
  0
LINE
  8
0
  6
CONTINUOUS
 62
     3
 10
206.715000001
 20
239.47
 11
216.015000001
 21
239.47
  0
LINE
  8
0
  6
CONTINUOUS
 62
     3
 10
216.015000001
 20
203.17
 11
216.615000001
 21
203.17
  0
LINE
  8
0
  6
CONTINUOUS
 62
     3
 10
206.715000001
 20
203.17
 11
207.915000001
 21
203.17
  0
LINE
  8
0
  6
CONTINUOUS
 62
     3
 10
216.615000001
 20
203.17
 11
216.615000001
 21
222.07
  0
LINE
  8
0
  6
CONTINUOUS
 62
     3
 10
216.615000001
 20
237.97
 11
216.615000001
 21
239.47
  0
LINE
  8
0
  6
CONTINUOUS
 62
     3
 10
216.615000001
 20
229.27
 11
216.615000001
 21
230.77
  0
LINE
  8
0
  6
CONTINUOUS
 62
     3
 10
216.615000001
 20
239.47
 11
216.015000001
 21
239.47
  0
LINE
  8
0
  6
CONTINUOUS
 62
     3
 10
208.215000001
 20
208.27
 11
208.215000001
 21
205.27
  0
LINE
  8
0
  6
CONTINUOUS
 62
     3
 10
208.215000001
 20
211.27
 11
208.215000001
 21
207.77
  0
CIRCLE
  8
0
  6
CONTINUOUS
 62
     3
 10
211.215000001
 20
208.27
 40
2.9
  0
LINE
  8
0
  6
CONTINUOUS
 62
     3
 10
216.015000001
 20
203.17
 11
216.015000001
 21
239.47
  0
LINE
  8
0
  6
CONTINUOUS
 62
     3
 10
206.715000001
 20
203.17
 11
207.715000001
 21
203.17
  0
LINE
  8
0
  6
CONTINUOUS
 62
     3
 10
216.615000001
 20
211.87
 11
207.715000001
 21
211.87
  0
LINE
  8
0
  6
CONTINUOUS
 62
     3
 10
216.615000001
 20
213.37
 11
207.715000001
 21
213.37
  0
LINE
  8
0
  6
CONTINUOUS
 62
     3
 10
216.615000001
 20
220.57
 11
207.715000001
 21
220.57
  0
LINE
  8
0
  6
CONTINUOUS
 62
     3
 10
216.615000001
 20
222.07
 11
207.715000001
 21
222.07
  0
LINE
  8
0
  6
CONTINUOUS
 62
     3
 10
216.615000001
 20
229.27
 11
207.715000001
 21
229.27
  0
LINE
  8
0
  6
CONTINUOUS
 62
     3
 10
216.615000001
 20
230.77
 11
207.715000001
 21
230.77
  0
LINE
  8
0
  6
CONTINUOUS
 62
     3
 10
216.615000001
 20
237.97
 11
207.715000001
 21
237.97
  0
LINE
  8
0
  6
CONTINUOUS
 62
     3
 10
208.215000001
 20
205.27
 11
214.715000001
 21
205.27
  0
LINE
  8
0
  6
CONTINUOUS
 62
     3
 10
214.715000001
 20
211.27
 11
208.215000001
 21
211.27
  0
LINE
  8
0
  6
CONTINUOUS
 62
     3
 10
214.715000001
 20
205.27
 11
214.715000001
 21
211.27
  0
LINE
  8
0
  6
CONTINUOUS
 62
     3
 10
216.615000001
 20
204.67
 11
207.715000001
 21
204.67
  0
LINE
  8
0
  6
CONTINUOUS
 62
     3
 10
207.715000001
 20
204.67
 11
207.715000001
 21
237.97
  0
CIRCLE
  8
0
  6
CONTINUOUS
 62
     3
 10
211.215000001
 20
208.27
 40
2.9
  0
LINE
  8
0
  6
CONTINUOUS
 62
     3
 10
210.507893219
 20
208.27
 11
209.447233048
 21
207.209339828
  0
LINE
  8
0
  6
CONTINUOUS
 62
     3
 10
209.447233048
 20
207.209339828
 11
210.154339829
 21
206.502233047
  0
LINE
  8
0
  6
CONTINUOUS
 62
     3
 10
210.154339829
 20
206.502233047
 11
211.215000001
 21
207.562893219
  0
LINE
  8
0
  6
CONTINUOUS
 62
     3
 10
211.922106782
 20
208.27
 11
212.982766954
 21
209.330660172
  0
LINE
  8
0
  6
CONTINUOUS
 62
     3
 10
212.982766954
 20
209.330660172
 11
212.275660172
 21
210.037766953
  0
LINE
  8
0
  6
CONTINUOUS
 62
     3
 10
212.275660172
 20
210.037766953
 11
211.215000001
 21
208.977106781
  0
LINE
  8
0
  6
CONTINUOUS
 62
     3
 10
211.215000001
 20
207.562893219
 11
212.841345597
 21
205.936547622
  0
LINE
  8
0
  6
CONTINUOUS
 62
     3
 10
208.881547623
 20
209.896345597
 11
210.507893219
 21
208.27
  0
LINE
  8
0
  6
CONTINUOUS
 62
     3
 10
211.215000001
 20
208.977106781
 11
209.588654404
 21
210.603452378
  0
LINE
  8
0
  6
CONTINUOUS
 62
     3
 10
213.548452378
 20
206.643654403
 11
211.922106782
 21
208.27
  0
LINE
  8
0
  6
CONTINUOUS
 62
     3
 10
212.982766954
 20
207.209339828
 11
212.275660172
 21
206.502233047
  0
LINE
  8
0
  6
CONTINUOUS
 62
     3
 10
209.447233048
 20
209.330660172
 11
210.154339829
 21
210.037766953
  0
LINE
  8
0
  6
CONTINUOUS
 62
     3
 10
208.215000001
 20
216.97
 11
208.215000001
 21
213.97
  0
LINE
  8
0
  6
CONTINUOUS
 62
     3
 10
208.215000001
 20
219.97
 11
208.215000001
 21
216.47
  0
CIRCLE
  8
0
  6
CONTINUOUS
 62
     3
 10
211.215000001
 20
216.97
 40
2.9
  0
LINE
  8
0
  6
CONTINUOUS
 62
     3
 10
208.215000001
 20
213.97
 11
214.715000001
 21
213.97
  0
LINE
  8
0
  6
CONTINUOUS
 62
     3
 10
214.715000001
 20
219.97
 11
208.215000001
 21
219.97
  0
LINE
  8
0
  6
CONTINUOUS
 62
     3
 10
214.715000001
 20
213.97
 11
214.715000001
 21
219.97
  0
CIRCLE
  8
0
  6
CONTINUOUS
 62
     3
 10
211.215000001
 20
216.97
 40
2.9
  0
LINE
  8
0
  6
CONTINUOUS
 62
     3
 10
210.507893219
 20
216.97
 11
209.447233048
 21
215.909339828
  0
LINE
  8
0
  6
CONTINUOUS
 62
     3
 10
209.447233048
 20
215.909339828
 11
210.154339829
 21
215.202233047
  0
LINE
  8
0
  6
CONTINUOUS
 62
     3
 10
210.154339829
 20
215.202233047
 11
211.215000001
 21
216.262893219
  0
LINE
  8
0
  6
CONTINUOUS
 62
     3
 10
211.922106782
 20
216.97
 11
212.982766954
 21
218.030660172
  0
LINE
  8
0
  6
CONTINUOUS
 62
     3
 10
212.982766954
 20
218.030660172
 11
212.275660172
 21
218.737766953
  0
LINE
  8
0
  6
CONTINUOUS
 62
     3
 10
212.275660172
 20
218.737766953
 11
211.215000001
 21
217.677106781
  0
LINE
  8
0
  6
CONTINUOUS
 62
     3
 10
211.215000001
 20
216.262893219
 11
212.841345597
 21
214.636547622
  0
LINE
  8
0
  6
CONTINUOUS
 62
     3
 10
208.881547623
 20
218.596345597
 11
210.507893219
 21
216.97
  0
LINE
  8
0
  6
CONTINUOUS
 62
     3
 10
211.215000001
 20
217.677106781
 11
209.588654404
 21
219.303452378
  0
LINE
  8
0
  6
CONTINUOUS
 62
     3
 10
213.548452378
 20
215.343654403
 11
211.922106782
 21
216.97
  0
LINE
  8
0
  6
CONTINUOUS
 62
     3
 10
212.982766954
 20
215.909339828
 11
212.275660172
 21
215.202233047
  0
LINE
  8
0
  6
CONTINUOUS
 62
     3
 10
209.447233048
 20
218.030660172
 11
210.154339829
 21
218.737766953
  0
LINE
  8
0
  6
CONTINUOUS
 62
     3
 10
208.215000001
 20
225.67
 11
208.215000001
 21
222.67
  0
LINE
  8
0
  6
CONTINUOUS
 62
     3
 10
208.215000001
 20
228.67
 11
208.215000001
 21
225.17
  0
CIRCLE
  8
0
  6
CONTINUOUS
 62
     3
 10
211.215000001
 20
225.67
 40
2.9
  0
LINE
  8
0
  6
CONTINUOUS
 62
     3
 10
208.215000001
 20
222.67
 11
214.715000001
 21
222.67
  0
LINE
  8
0
  6
CONTINUOUS
 62
     3
 10
214.715000001
 20
228.67
 11
208.215000001
 21
228.67
  0
LINE
  8
0
  6
CONTINUOUS
 62
     3
 10
214.715000001
 20
222.67
 11
214.715000001
 21
228.67
  0
CIRCLE
  8
0
  6
CONTINUOUS
 62
     3
 10
211.215000001
 20
225.67
 40
2.9
  0
LINE
  8
0
  6
CONTINUOUS
 62
     3
 10
210.507893219
 20
225.67
 11
209.447233048
 21
224.609339828
  0
LINE
  8
0
  6
CONTINUOUS
 62
     3
 10
209.447233048
 20
224.609339828
 11
210.154339829
 21
223.902233047
  0
LINE
  8
0
  6
CONTINUOUS
 62
     3
 10
210.154339829
 20
223.902233047
 11
211.215000001
 21
224.962893219
  0
LINE
  8
0
  6
CONTINUOUS
 62
     3
 10
211.922106782
 20
225.67
 11
212.982766954
 21
226.730660172
  0
LINE
  8
0
  6
CONTINUOUS
 62
     3
 10
212.982766954
 20
226.730660172
 11
212.275660172
 21
227.437766953
  0
LINE
  8
0
  6
CONTINUOUS
 62
     3
 10
212.275660172
 20
227.437766953
 11
211.215000001
 21
226.377106781
  0
LINE
  8
0
  6
CONTINUOUS
 62
     3
 10
211.215000001
 20
224.962893219
 11
212.841345597
 21
223.336547622
  0
LINE
  8
0
  6
CONTINUOUS
 62
     3
 10
208.881547623
 20
227.296345597
 11
210.507893219
 21
225.67
  0
LINE
  8
0
  6
CONTINUOUS
 62
     3
 10
211.215000001
 20
226.377106781
 11
209.588654404
 21
228.003452378
  0
LINE
  8
0
  6
CONTINUOUS
 62
     3
 10
213.548452378
 20
224.043654403
 11
211.922106782
 21
225.67
  0
LINE
  8
0
  6
CONTINUOUS
 62
     3
 10
212.982766954
 20
224.609339828
 11
212.275660172
 21
223.902233047
  0
LINE
  8
0
  6
CONTINUOUS
 62
     3
 10
209.447233048
 20
226.730660172
 11
210.154339829
 21
227.437766953
  0
LINE
  8
0
  6
CONTINUOUS
 62
     3
 10
208.215000001
 20
234.37
 11
208.215000001
 21
231.37
  0
LINE
  8
0
  6
CONTINUOUS
 62
     3
 10
208.215000001
 20
237.37
 11
208.215000001
 21
233.87
  0
CIRCLE
  8
0
  6
CONTINUOUS
 62
     3
 10
211.215000001
 20
234.37
 40
2.9
  0
LINE
  8
0
  6
CONTINUOUS
 62
     3
 10
208.215000001
 20
231.37
 11
214.715000001
 21
231.37
  0
LINE
  8
0
  6
CONTINUOUS
 62
     3
 10
214.715000001
 20
237.37
 11
208.215000001
 21
237.37
  0
LINE
  8
0
  6
CONTINUOUS
 62
     3
 10
214.715000001
 20
231.37
 11
214.715000001
 21
237.37
  0
CIRCLE
  8
0
  6
CONTINUOUS
 62
     3
 10
211.215000001
 20
234.37
 40
2.9
  0
LINE
  8
0
  6
CONTINUOUS
 62
     3
 10
210.507893219
 20
234.37
 11
209.447233048
 21
233.309339828
  0
LINE
  8
0
  6
CONTINUOUS
 62
     3
 10
209.447233048
 20
233.309339828
 11
210.154339829
 21
232.602233047
  0
LINE
  8
0
  6
CONTINUOUS
 62
     3
 10
210.154339829
 20
232.602233047
 11
211.215000001
 21
233.662893219
  0
LINE
  8
0
  6
CONTINUOUS
 62
     3
 10
211.922106782
 20
234.37
 11
212.982766954
 21
235.430660172
  0
LINE
  8
0
  6
CONTINUOUS
 62
     3
 10
212.982766954
 20
235.430660172
 11
212.275660172
 21
236.137766953
  0
LINE
  8
0
  6
CONTINUOUS
 62
     3
 10
212.275660172
 20
236.137766953
 11
211.215000001
 21
235.077106781
  0
LINE
  8
0
  6
CONTINUOUS
 62
     3
 10
211.215000001
 20
233.662893219
 11
212.841345597
 21
232.036547622
  0
LINE
  8
0
  6
CONTINUOUS
 62
     3
 10
208.881547623
 20
235.996345597
 11
210.507893219
 21
234.37
  0
LINE
  8
0
  6
CONTINUOUS
 62
     3
 10
211.215000001
 20
235.077106781
 11
209.588654404
 21
236.703452378
  0
LINE
  8
0
  6
CONTINUOUS
 62
     3
 10
213.548452378
 20
232.743654403
 11
211.922106782
 21
234.37
  0
LINE
  8
0
  6
CONTINUOUS
 62
     3
 10
212.982766954
 20
233.309339828
 11
212.275660172
 21
232.602233047
  0
LINE
  8
0
  6
CONTINUOUS
 62
     3
 10
209.447233048
 20
235.430660172
 11
210.154339829
 21
236.137766953
  0
LINE
  8
0
  6
LTYPE1
 62
     3
 10
216.015000001
 20
239.47
 11
217.015000001
 21
239.47
  0
LINE
  8
0
  6
LTYPE1
 62
     3
 10
217.015000001
 20
203.17
 11
207.215000001
 21
203.17
  0
LINE
  8
0
  6
CONTINUOUS
 62
     3
 10
207.215000001
 20
203.17
 11
207.215000001
 21
203.92
  0
LINE
  8
0
  6
CONTINUOUS
 62
     3
 10
207.715000001
 20
211.87
 11
207.715000001
 21
212.62
  0
LINE
  8
0
  6
CONTINUOUS
 62
     3
 10
207.715000001
 20
229.27
 11
207.715000001
 21
230.02
  0
LINE
  8
0
  6
CONTINUOUS
 62
     3
 10
142.865000001
 20
204.17
 11
147.865000001
 21
199.17
  0
ARC
  8
0
  6
CONTINUOUS
 62
     3
 10
124.140000001
 20
230.32
 40
1.0
 50
90.0
 51
180.0
  0
LINE
  8
0
  6
CONTINUOUS
 62
     3
 10
124.140000001
 20
231.32
 11
125.725000001
 21
231.32
  0
LINE
  8
0
  6
CONTINUOUS
 62
     3
 10
123.140000002
 20
212.32
 11
123.140000001
 21
230.32
  0
ARC
  8
0
  6
CONTINUOUS
 62
     3
 10
124.140000002
 20
212.32
 40
1.0
 50
180.0
 51
270.0
  0
LINE
  8
0
  6
CONTINUOUS
 62
     3
 10
125.725000002
 20
211.32
 11
124.140000002
 21
211.32
  0
LINE
  8
0
  6
CONTINUOUS
 62
     3
 10
140.515000001
 20
197.32
 11
126.725000001
 21
197.32
  0
LINE
  8
0
  6
CONTINUOUS
 62
     3
 10
125.725000001
 20
198.32
 11
125.725000001
 21
244.32
  0
ARC
  8
0
  6
CONTINUOUS
 62
     3
 10
126.725000001
 20
198.32
 40
1.0
 50
180.0
 51
270.0
  0
LINE
  8
0
  6
CONTINUOUS
 62
     3
 10
203.915000001
 20
197.32
 11
141.215000001
 21
197.32
  0
ARC
  8
0
  6
CONTINUOUS
 62
     3
 10
141.215000001
 20
198.32
 40
1.0
 50
180.0
 51
269.999999999
  0
LINE
  8
0
  6
CONTINUOUS
 62
     3
 10
140.215000001
 20
244.32
 11
140.215000001
 21
198.32
  0
LINE
  8
0
  6
CONTINUOUS
 62
     3
 10
126.725000001
 20
245.32
 11
140.615000001
 21
245.32
  0
ARC
  8
0
  6
CONTINUOUS
 62
     3
 10
126.725000001
 20
244.32
 40
1.0
 50
90.0
 51
180.0
  0
LINE
  8
0
  6
CONTINUOUS
 62
     3
 10
141.215000001
 20
245.32
 11
203.915000001
 21
245.32
  0
ARC
  8
0
  6
CONTINUOUS
 62
     3
 10
141.215000001
 20
244.32
 40
1.0
 50
90.0
 51
180.000000001
  0
LINE
  8
0
  6
CONTINUOUS
 62
     3
 10
204.615000001
 20
245.32
 11
218.405000001
 21
245.32
  0
LINE
  8
0
  6
CONTINUOUS
 62
     3
 10
204.915000001
 20
244.32
 11
204.915000001
 21
198.32
  0
ARC
  8
0
  6
CONTINUOUS
 62
     3
 10
203.915000001
 20
244.32
 40
1.0
 50
0.0
 51
90.0
  0
LINE
  8
0
  6
CONTINUOUS
 62
     3
 10
219.405000001
 20
244.32
 11
219.405000001
 21
198.32
  0
ARC
  8
0
  6
CONTINUOUS
 62
     3
 10
218.405000001
 20
244.32
 40
1.0
 50
0.0
 51
90.0
  0
LINE
  8
0
  6
CONTINUOUS
 62
     3
 10
218.405000001
 20
197.32
 11
204.515000001
 21
197.32
  0
ARC
  8
0
  6
CONTINUOUS
 62
     3
 10
218.405000001
 20
198.32
 40
1.0
 50
270.0
 51
0.0
  0
ARC
  8
0
  6
CONTINUOUS
 62
     3
 10
203.915000001
 20
198.32
 40
1.0
 50
270.0
 51
0.0
  0
LINE
  8
0
  6
CONTINUOUS
 62
     3
 10
132.565000001
 20
201.27
 11
136.065000001
 21
201.27
  0
LINE
  8
0
  6
CONTINUOUS
 62
     3
 10
140.215000001
 20
201.27
 11
136.065000001
 21
201.27
  0
LINE
  8
0
  6
CONTINUOUS
 62
     3
 10
132.565000001
 20
201.27
 11
129.065000001
 21
201.27
  0
LINE
  8
0
  6
CONTINUOUS
 62
     3
 10
127.065000001
 20
240.87
 11
127.065000001
 21
201.77
  0
ARC
  8
0
  6
CONTINUOUS
 62
     3
 10
127.565000001
 20
201.77
 40
0.5
 50
180.0
 51
270.0
  0
LINE
  8
0
  6
CONTINUOUS
 62
     3
 10
127.565000001
 20
201.27
 11
129.384000001
 21
201.27
  0
LINE
  8
0
  6
CONTINUOUS
 62
     3
 10
129.065000001
 20
241.37
 11
127.565000001
 21
241.37
  0
ARC
  8
0
  6
CONTINUOUS
 62
     3
 10
127.565000001
 20
240.87
 40
0.5
 50
90.0
 51
180.0
  0
LINE
  8
0
  6
CONTINUOUS
 62
     3
 10
132.565000001
 20
241.37
 11
129.065000001
 21
241.37
  0
LINE
  8
0
  6
CONTINUOUS
 62
     3
 10
132.565000001
 20
241.37
 11
136.065000001
 21
241.37
  0
LINE
  8
0
  6
CONTINUOUS
 62
     3
 10
136.065000001
 20
241.37
 11
136.065000001
 21
239.87
  0
LINE
  8
0
  6
CONTINUOUS
 62
     3
 10
136.065000001
 20
241.37
 11
140.215000001
 21
241.37
  0
LINE
  8
0
  6
CONTINUOUS
 62
     3
 10
138.415000001
 20
239.77
 11
136.065000001
 21
239.77
  0
LINE
  8
0
  6
CONTINUOUS
 62
     3
 10
136.065000001
 20
241.37
 11
136.065000001
 21
239.77
  0
LINE
  8
0
  6
CONTINUOUS
 62
     3
 10
138.415000001
 20
202.87
 11
138.415000001
 21
239.77
  0
LINE
  8
0
  6
CONTINUOUS
 62
     3
 10
209.065000001
 20
201.27
 11
204.915000001
 21
201.27
  0
LINE
  8
0
  6
CONTINUOUS
 62
     3
 10
212.565000001
 20
201.27
 11
209.065000001
 21
201.27
  0
LINE
  8
0
  6
CONTINUOUS
 62
     3
 10
212.565000001
 20
201.27
 11
216.065000001
 21
201.27
  0
LINE
  8
0
  6
CONTINUOUS
 62
     3
 10
216.065000001
 20
201.27
 11
210.065000001
 21
201.27
  0
LINE
  8
0
  6
CONTINUOUS
 62
     3
 10
216.065000001
 20
201.27
 11
217.565000001
 21
201.27
  0
ARC
  8
0
  6
CONTINUOUS
 62
     3
 10
217.565000001
 20
201.77
 40
0.5
 50
270.0
 51
0.0
  0
LINE
  8
0
  6
CONTINUOUS
 62
     3
 10
218.065000001
 20
201.77
 11
218.065000001
 21
240.87
  0
ARC
  8
0
  6
CONTINUOUS
 62
     3
 10
217.565000001
 20
240.87
 40
0.5
 50
0.0
 51
90.0
  0
LINE
  8
0
  6
CONTINUOUS
 62
     3
 10
217.565000001
 20
241.37
 11
215.746000001
 21
241.37
  0
LINE
  8
0
  6
CONTINUOUS
 62
     3
 10
212.565000001
 20
241.37
 11
216.065000001
 21
241.37
  0
LINE
  8
0
  6
CONTINUOUS
 62
     3
 10
212.565000001
 20
241.37
 11
209.065000001
 21
241.37
  0
LINE
  8
0
  6
CONTINUOUS
 62
     3
 10
204.915000001
 20
241.37
 11
209.065000001
 21
241.37
  0
LINE
  8
0
  6
CONTINUOUS
 62
     3
 10
209.065000001
 20
241.37
 11
209.065000001
 21
239.87
  0
LINE
  8
0
  6
CONTINUOUS
 62
     3
 10
206.715000001
 20
239.77
 11
209.065000001
 21
239.77
  0
LINE
  8
0
  6
CONTINUOUS
 62
     3
 10
206.715000001
 20
239.77
 11
206.715000001
 21
202.87
  0
LINE
  8
0
  6
CONTINUOUS
 62
     3
 10
209.065000001
 20
201.27
 11
209.065000001
 21
202.77
  0
LINE
  8
0
  6
CONTINUOUS
 62
     3
 10
210.065000001
 20
201.27
 11
210.065000001
 21
202.27
  0
LINE
  8
0
  6
CONTINUOUS
 62
     3
 10
210.065000001
 20
202.27
 11
212.565000001
 21
202.27
  0
LINE
  8
0
  6
CONTINUOUS
 62
     3
 10
215.065000001
 20
202.27
 11
212.565000001
 21
202.27
  0
LINE
  8
0
  6
CONTINUOUS
 62
     3
 10
215.065000001
 20
201.27
 11
215.065000001
 21
202.27
  0
LINE
  8
0
  6
CONTINUOUS
 62
     3
 10
206.715000001
 20
202.87
 11
209.065000001
 21
202.87
  0
LINE
  8
0
  6
CONTINUOUS
 62
     3
 10
209.065000001
 20
201.27
 11
209.065000001
 21
202.87
  0
LINE
  8
0
  6
CONTINUOUS
 62
     3
 10
210.065000001
 20
241.37
 11
210.065000001
 21
240.37
  0
LINE
  8
0
  6
CONTINUOUS
 62
     3
 10
210.065000001
 20
240.37
 11
212.565000001
 21
240.37
  0
LINE
  8
0
  6
CONTINUOUS
 62
     3
 10
215.065000001
 20
240.37
 11
212.565000001
 21
240.37
  0
LINE
  8
0
  6
CONTINUOUS
 62
     3
 10
215.065000001
 20
241.37
 11
215.065000001
 21
240.37
  0
ARC
  8
0
  6
CONTINUOUS
 62
     3
 10
217.565000001
 20
208.92
 40
0.5
 50
0.0
 51
90.0
  0
LINE
  8
0
  6
CONTINUOUS
 62
     3
 10
218.065000001
 20
211.72
 11
218.065000001
 21
221.32
  0
ARC
  8
0
  6
CONTINUOUS
 62
     3
 10
217.565000001
 20
211.72
 40
0.5
 50
270.0
 51
0.0
  0
LINE
  8
0
  6
CONTINUOUS
 62
     3
 10
218.065000001
 20
230.92
 11
218.065000001
 21
221.32
  0
ARC
  8
0
  6
CONTINUOUS
 62
     3
 10
217.565000001
 20
230.92
 40
0.5
 50
0.0
 51
90.0
  0
ARC
  8
0
  6
CONTINUOUS
 62
     3
 10
217.565000001
 20
233.72
 40
0.5
 50
270.0
 51
0.0
  0
ARC
  8
0
  6
CONTINUOUS
 62
     3
 10
127.565000001
 20
233.72
 40
0.5
 50
180.0
 51
270.0
  0
ARC
  8
0
  6
CONTINUOUS
 62
     3
 10
127.565000001
 20
230.92
 40
0.5
 50
90.0
 51
180.0
  0
LINE
  8
0
  6
CONTINUOUS
 62
     3
 10
127.065000001
 20
211.72
 11
127.065000001
 21
221.32
  0
ARC
  8
0
  6
CONTINUOUS
 62
     3
 10
127.565000001
 20
211.72
 40
0.5
 50
180.0
 51
270.0
  0
ARC
  8
0
  6
CONTINUOUS
 62
     3
 10
127.565000001
 20
208.92
 40
0.5
 50
90.0
 51
180.0
  0
ARC
  8
0
  6
CONTINUOUS
 62
     3
 10
218.574153127
 20
140.720000007
 40
1.0
 50
0.526842894
 51
90.0
  0
LINE
  8
0
  6
CONTINUOUS
 62
     3
 10
190.325000001
 20
128.820000007
 11
190.725000001
 21
124.320000007
  0
LINE
  8
0
  6
CONTINUOUS
 62
     3
 10
218.225000001
 20
143.220000007
 11
218.225000001
 21
141.720000007
  0
ARC
  8
0
  6
CONTINUOUS
 62
     3
 10
217.725000001
 20
143.220000007
 40
0.5
 50
0.0
 51
90.000109283
  0
POINT
  8
0
  6
CONTINUOUS
 62
     3
 10
216.725000001
 20
143.720000007
  0
LINE
  8
0
  6
CONTINUOUS
 62
     3
 10
216.725000001
 20
143.720000007
 11
216.725000001
 21
141.720000007
  0
LINE
  8
0
  6
CONTINUOUS
 62
     3
 10
217.725000001
 20
143.720000007
 11
216.725000001
 21
143.720000007
  0
LINE
  8
0
  6
CONTINUOUS
 62
     3
 10
188.725000001
 20
126.120000006
 11
188.725000001
 21
127.620000006
  0
LINE
  8
0
  6
CONTINUOUS
 62
     3
 10
190.362525533
 20
124.520000006
 11
190.707222223
 21
124.520000006
  0
LINE
  8
0
  6
CONTINUOUS
 62
     3
 10
190.325000001
 20
128.820000006
 11
190.725000001
 21
124.320000006
  0
LINE
  8
0
  6
CONTINUOUS
 62
     3
 10
190.362525533
 20
124.520000006
 11
188.725000001
 21
126.120000006
  0
ARC
  8
0
  6
CONTINUOUS
 62
     3
 10
218.569677071
 20
140.720000007
 40
1.0
 50
0.0
 51
90.0
  0
POINT
  8
0
  6
CONTINUOUS
 62
     3
 10
216.725000001
 20
143.720000007
  0
ARC
  8
0
  6
CONTINUOUS
 62
     3
 10
218.574153127
 20
140.720000007
 40
1.0
 50
0.526842894
 51
90.0
  0
LINE
  8
0
  6
CONTINUOUS
 62
     3
 10
218.225000001
 20
141.720000007
 11
218.225000001
 21
143.220000007
  0
ARC
  8
0
  6
CONTINUOUS
 62
     3
 10
217.725000001
 20
143.220000007
 40
0.5
 50
0.0
 51
90.0
  0
LINE
  8
0
  6
CONTINUOUS
 62
     3
 10
216.725000001
 20
143.720000007
 11
216.725000001
 21
141.720000007
  0
LINE
  8
0
  6
CONTINUOUS
 62
     3
 10
217.725000001
 20
143.720000007
 11
216.725000001
 21
143.720000007
  0
LINE
  8
0
  6
CONTINUOUS
 62
     3
 10
216.714526584
 20
149.220000006
 11
217.714526584
 21
149.220000006
  0
LINE
  8
0
  6
CONTINUOUS
 62
     3
 10
207.414526584
 20
151.020000006
 11
217.714526584
 21
151.020000006
  0
LINE
  8
0
  6
CONTINUOUS
 62
     3
 10
216.714526584
 20
144.320000006
 11
214.214526584
 21
144.320000006
  0
LINE
  8
0
  6
CONTINUOUS
 62
     3
 10
208.914526584
 20
151.020000006
 11
208.914526584
 21
152.320000006
  0
LINE
  8
0
  6
CONTINUOUS
 62
     3
 10
208.914526584
 20
152.320000006
 11
209.914526584
 21
152.320000006
  0
LINE
  8
0
  6
CONTINUOUS
 62
     3
 10
209.914526584
 20
152.320000006
 11
209.914526584
 21
151.020000006
  0
LINE
  8
0
  6
CONTINUOUS
 62
     3
 10
217.714526584
 20
149.220000006
 11
217.714526584
 21
151.020000006
  0
LINE
  8
0
  6
CONTINUOUS
 62
     3
 10
207.914526584
 20
151.020000006
 11
207.914526584
 21
154.020000006
  0
LINE
  8
0
  6
CONTINUOUS
 62
     3
 10
207.914526584
 20
154.020000006
 11
217.714526584
 21
154.020000006
  0
LINE
  8
0
  6
CONTINUOUS
 62
     3
 10
217.714526584
 20
154.020000006
 11
218.714526584
 21
153.720000006
  0
LINE
  8
0
  6
CONTINUOUS
 62
     3
 10
218.714526584
 20
149.020000006
 11
218.714526584
 21
153.720000006
  0
LINE
  8
0
  6
CONTINUOUS
 62
     3
 10
216.714526584
 20
149.020000006
 11
218.714526584
 21
149.020000006
  0
LINE
  8
0
  6
CONTINUOUS
 62
     3
 10
216.725000001
 20
141.720000007
 11
218.574153127
 21
141.720000007
  0
LINE
  8
0
  6
CONTINUOUS
 62
     3
 10
205.110326088
 20
141.720000007
 11
216.725000001
 21
141.720000007
  0
LINE
  8
0
  6
CONTINUOUS
 62
     3
 10
209.414526584
 20
144.320000006
 11
209.414526584
 21
141.720000007
  0
LINE
  8
0
  6
CONTINUOUS
 62
     3
 10
214.214526584
 20
144.320000006
 11
214.214526584
 21
141.720000007
  0
LINE
  8
0
  6
CONTINUOUS
 62
     3
 10
216.714526584
 20
141.720000007
 11
216.714526584
 21
149.220000006
  0
LINE
  8
0
  6
CONTINUOUS
 62
     3
 10
207.414526584
 20
151.020000006
 11
207.414526584
 21
146.720000007
  0
LINE
  8
0
  6
CONTINUOUS
 62
     3
 10
216.714526584
 20
144.320000006
 11
209.075000001
 21
144.320000006
  0
LINE
  8
0
  6
CONTINUOUS
 62
     3
 10
208.414526584
 20
151.020000006
 11
208.414526584
 21
146.720000007
  0
LINE
  8
0
  6
CONTINUOUS
 62
     3
 10
205.075000001
 20
146.720000007
 11
208.575000001
 21
146.720000007
  0
LINE
  8
0
  6
CONTINUOUS
 62
     3
 10
190.725000001
 20
124.320000007
 11
219.725000001
 21
124.320000007
  0
LINE
  8
0
  6
CONTINUOUS
 62
     3
 10
219.574110852
 20
140.729195021
 11
219.725000001
 21
124.320000007
  0
LINE
  8
0
  6
CONTINUOUS
 62
     3
 10
218.565000001
 20
141.720000007
 11
205.110326088
 21
141.720000007
  0
ARC
  8
0
  6
CONTINUOUS
 62
     3
 10
218.565000001
 20
140.720000007
 40
1.0
 50
0.0
 51
90.0
  0
LINE
  8
0
  6
CONTINUOUS
 62
     3
 10
205.110326088
 20
141.720000007
 11
204.952015302
 21
164.127065048
  0
ARC
  8
0
  6
CONTINUOUS
 62
     3
 10
203.95204026
 20
164.120000007
 40
1.0
 50
0.404800402
 51
90.0
  0
LINE
  8
0
  6
CONTINUOUS
 62
     3
 10
203.95204026
 20
165.120000007
 11
172.725000001
 21
165.120000007
  0
LINE
  8
0
  6
CONTINUOUS
 62
     3
 10
207.414526584
 20
146.720000007
 11
205.075000001
 21
146.720000007
  0
LINE
  8
0
  6
CONTINUOUS
 62
     3
 10
209.075000001
 20
146.220000007
 11
209.075000001
 21
141.720000007
  0
ARC
  8
0
  6
CONTINUOUS
 62
     3
 10
208.575000001
 20
146.220000007
 40
0.5
 50
0.0
 51
90.0
  0
LINE
  8
0
  6
CONTINUOUS
 62
     3
 10
123.140000001
 20
124.320000007
 11
125.725000001
 21
124.320000007
  0
LINE
  8
0
  6
CONTINUOUS
 62
     3
 10
125.725000001
 20
128.620000007
 11
123.140000002
 21
128.620000007
  0
LINE
  8
0
  6
CONTINUOUS
 62
     3
 10
123.140000001
 20
124.320000007
 11
123.140000002
 21
128.620000007
  0
POINT
  8
0
  6
CONTINUOUS
 62
     3
 10
128.725000001
 20
143.720000007
  0
LINE
  8
0
  6
CONTINUOUS
 62
     3
 10
125.875889151
 20
140.729195021
 11
125.725000001
 21
124.320000007
  0
LINE
  8
0
  6
CONTINUOUS
 62
     3
 10
155.125000001
 20
128.820000007
 11
154.725000001
 21
124.320000007
  0
LINE
  8
0
  6
CONTINUOUS
 62
     3
 10
127.225000001
 20
141.720000007
 11
127.225000001
 21
143.220000007
  0
ARC
  8
0
  6
CONTINUOUS
 62
     3
 10
127.725000001
 20
143.220000007
 40
0.5
 50
90.0
 51
180.0
  0
LINE
  8
0
  6
CONTINUOUS
 62
     3
 10
128.725000001
 20
143.720000007
 11
128.725000001
 21
141.720000007
  0
LINE
  8
0
  6
CONTINUOUS
 62
     3
 10
127.725000001
 20
143.720000007
 11
128.725000001
 21
143.720000007
  0
LINE
  8
0
  6
CONTINUOUS
 62
     3
 10
156.640000002
 20
126.820000007
 11
156.640000002
 21
127.320000007
  0
LINE
  8
0
  6
CONTINUOUS
 62
     3
 10
155.140000002
 20
127.520000007
 11
155.140000002
 21
128.620000007
  0
LINE
  8
0
  6
CONTINUOUS
 62
     3
 10
154.725000001
 20
124.320000007
 11
155.125000001
 21
128.820000007
  0
LINE
  8
0
  6
CONTINUOUS
 62
     3
 10
156.640000002
 20
127.320000007
 11
155.140000002
 21
127.520000007
  0
LINE
  8
0
  6
CONTINUOUS
 62
     3
 10
128.735473418
 20
149.220000006
 11
127.735473418
 21
149.220000006
  0
LINE
  8
0
  6
CONTINUOUS
 62
     3
 10
138.035473418
 20
151.020000006
 11
127.735473418
 21
151.020000006
  0
LINE
  8
0
  6
CONTINUOUS
 62
     3
 10
128.735473418
 20
144.320000006
 11
131.235473418
 21
144.320000006
  0
LINE
  8
0
  6
CONTINUOUS
 62
     3
 10
136.535473418
 20
151.020000006
 11
136.535473418
 21
152.320000006
  0
LINE
  8
0
  6
CONTINUOUS
 62
     3
 10
136.535473418
 20
152.320000006
 11
135.535473418
 21
152.320000006
  0
LINE
  8
0
  6
CONTINUOUS
 62
     3
 10
135.535473418
 20
152.320000006
 11
135.535473418
 21
151.020000006
  0
LINE
  8
0
  6
CONTINUOUS
 62
     3
 10
127.735473418
 20
149.220000006
 11
127.735473418
 21
151.020000006
  0
LINE
  8
0
  6
CONTINUOUS
 62
     3
 10
137.535473418
 20
151.020000006
 11
137.535473418
 21
154.020000006
  0
LINE
  8
0
  6
CONTINUOUS
 62
     3
 10
137.535473418
 20
154.020000006
 11
127.735473418
 21
154.020000006
  0
LINE
  8
0
  6
CONTINUOUS
 62
     3
 10
127.735473418
 20
154.020000006
 11
126.735473418
 21
153.720000006
  0
LINE
  8
0
  6
CONTINUOUS
 62
     3
 10
126.735473418
 20
149.020000006
 11
126.735473418
 21
153.720000006
  0
LINE
  8
0
  6
CONTINUOUS
 62
     3
 10
128.735473418
 20
149.020000006
 11
126.735473418
 21
149.020000006
  0
LINE
  8
0
  6
CONTINUOUS
 62
     3
 10
136.035473418
 20
144.320000006
 11
136.035473418
 21
141.720000007
  0
LINE
  8
0
  6
CONTINUOUS
 62
     3
 10
131.235473418
 20
144.320000006
 11
131.235473418
 21
141.720000007
  0
LINE
  8
0
  6
CONTINUOUS
 62
     3
 10
128.735473418
 20
141.720000007
 11
128.735473418
 21
149.220000006
  0
LINE
  8
0
  6
CONTINUOUS
 62
     3
 10
138.035473418
 20
151.020000006
 11
138.035473418
 21
146.720000007
  0
LINE
  8
0
  6
CONTINUOUS
 62
     3
 10
128.735473418
 20
144.320000006
 11
136.375000001
 21
144.320000006
  0
LINE
  8
0
  6
CONTINUOUS
 62
     3
 10
137.035473418
 20
151.020000006
 11
137.035473418
 21
146.720000007
  0
LINE
  8
0
  6
CONTINUOUS
 62
     3
 10
141.497959742
 20
165.120000007
 11
172.725000001
 21
165.120000007
  0
LINE
  8
0
  6
CONTINUOUS
 62
     3
 10
140.339673914
 20
141.720000007
 11
140.4979847
 21
164.127065048
  0
LINE
  8
0
  6
CONTINUOUS
 62
     3
 10
140.339673914
 20
141.720000007
 11
128.725000001
 21
141.720000007
  0
LINE
  8
0
  6
CONTINUOUS
 62
     3
 10
125.725000001
 20
124.320000007
 11
125.880322931
 21
140.720000007
  0
ARC
  8
0
  6
CONTINUOUS
 62
     3
 10
126.880322931
 20
140.720000007
 40
1.0
 50
90.0
 51
180.0
  0
ARC
  8
0
  6
CONTINUOUS
 62
     3
 10
126.875846876
 20
140.720000007
 40
1.0
 50
90.0
 51
179.473157106
  0
LINE
  8
0
  6
CONTINUOUS
 62
     3
 10
128.725000001
 20
141.720000007
 11
126.875846876
 21
141.720000007
  0
LINE
  8
0
  6
CONTINUOUS
 62
     3
 10
154.725000001
 20
124.320000006
 11
125.725000001
 21
124.320000007
  0
LINE
  8
0
  6
CONTINUOUS
 62
     3
 10
125.725000001
 20
124.320000007
 11
154.725000001
 21
124.320000007
  0
LINE
  8
0
  6
CONTINUOUS
 62
     3
 10
156.640000002
 20
126.820000007
 11
154.799952324
 21
125.163213636
  0
LINE
  8
0
  6
CONTINUOUS
 62
     3
 10
146.475000001
 20
126.320000007
 11
146.475000001
 21
128.820000007
  0
LINE
  8
0
  6
CONTINUOUS
 62
     3
 10
141.975000001
 20
126.320000007
 11
146.475000001
 21
126.320000007
  0
LINE
  8
0
  6
CONTINUOUS
 62
     3
 10
138.035473418
 20
146.720000007
 11
140.375000001
 21
146.720000007
  0
LINE
  8
0
  6
CONTINUOUS
 62
     3
 10
140.375000001
 20
146.720000007
 11
136.875000001
 21
146.720000007
  0
ARC
  8
0
  6
CONTINUOUS
 62
     3
 10
136.875000001
 20
146.220000007
 40
0.5
 50
90.0
 51
180.0
  0
LINE
  8
0
  6
CONTINUOUS
 62
     3
 10
136.375000001
 20
146.220000007
 11
136.375000001
 21
141.720000007
  0
ARC
  8
0
  6
CONTINUOUS
 62
     3
 10
141.497959742
 20
164.120000007
 40
1.0
 50
90.0
 51
179.595199598
  0
LINE
  8
0
  6
CONTINUOUS
 62
     3
 10
155.125000001
 20
128.820000007
 11
190.325000001
 21
128.820000007
  0
LINE
  8
0
  6
CONTINUOUS
 62
     3
 10
155.125000001
 20
128.820000007
 11
190.325000001
 21
128.820000006
  0
ARC
  8
0
  6
CONTINUOUS
 62
     3
 10
218.725
 20
95.320000004
 40
1.0
 50
0.0
 51
89.999999999
  0
LINE
  8
0
  6
CONTINUOUS
 62
     3
 10
219.725
 20
95.320000004
 11
219.724999998
 21
49.320000004
  0
ARC
  8
0
  6
CONTINUOUS
 62
     3
 10
218.724999998
 20
49.320000004
 40
1.0
 50
270.0
 51
0.000000001
  0
LINE
  8
0
  6
CONTINUOUS
 62
     3
 10
198.224999998
 20
49.870000005
 11
198.224999998
 21
50.870000005
  0
LINE
  8
0
  6
CONTINUOUS
 62
     3
 10
198.224999998
 20
50.870000005
 11
204.224999998
 21
50.870000004
  0
LINE
  8
0
  6
CONTINUOUS
 62
     3
 10
204.224999998
 20
50.870000004
 11
204.224999998
 21
49.870000004
  0
ARC
  8
0
  6
CONTINUOUS
 62
     3
 10
217.059999998
 20
50.870000004
 40
1.0
 50
270.0
 51
0.0
  0
LINE
  8
0
  6
CONTINUOUS
 62
     3
 10
218.06
 20
93.770000004
 11
218.059999998
 21
50.870000004
  0
LINE
  8
0
  6
CONTINUOUS
 62
     3
 10
218.224999998
 20
49.820000004
 11
218.225
 21
94.820000004
  0
LINE
  8
0
  6
CONTINUOUS
 62
     3
 10
128.39
 20
94.770000008
 11
217.06
 21
94.770000004
  0
ARC
  8
0
  6
CONTINUOUS
 62
     3
 10
217.06
 20
93.770000004
 40
1.0
 50
0.000000001
 51
90.0
  0
LINE
  8
0
  6
CONTINUOUS
 62
     3
 10
218.225
 20
94.820000004
 11
127.225
 21
94.820000008
  0
LINE
  8
0
  6
CONTINUOUS
 62
     3
 10
204.225
 20
94.770000004
 11
204.225
 21
93.770000004
  0
LINE
  8
0
  6
CONTINUOUS
 62
     3
 10
204.225
 20
93.770000004
 11
198.225
 21
93.770000005
  0
LINE
  8
0
  6
CONTINUOUS
 62
     3
 10
198.225
 20
93.770000005
 11
198.225
 21
94.770000005
  0
LINE
  8
0
  6
CONTINUOUS
 62
     3
 10
190.31
 20
92.020000005
 11
188.71
 21
92.020000005
  0
LINE
  8
0
  6
CONTINUOUS
 62
     3
 10
188.71
 20
84.020000005
 11
190.31
 21
84.020000005
  0
LINE
  8
0
  6
CONTINUOUS
 62
     3
 10
188.21
 20
92.520000005
 11
190.31
 21
92.520000005
  0
LINE
  8
0
  6
CONTINUOUS
 62
     3
 10
188.21
 20
83.520000005
 11
190.31
 21
83.520000005
  0
LINE
  8
0
  6
CONTINUOUS
 62
     3
 10
188.71
 20
92.020000005
 11
188.71
 21
84.020000005
  0
LINE
  8
0
  6
CONTINUOUS
 62
     3
 10
188.21
 20
83.520000005
 11
188.21
 21
92.520000005
  0
LINE
  8
0
  6
CONTINUOUS
 62
     3
 10
188.21
 20
78.070000005
 11
188.21
 21
81.570000005
  0
LINE
  8
0
  6
CONTINUOUS
 62
     3
 10
188.21
 20
81.570000005
 11
186.31
 21
81.570000005
  0
LINE
  8
0
  6
CONTINUOUS
 62
     3
 10
186.31
 20
81.570000005
 11
186.31
 21
78.070000005
  0
LINE
  8
0
  6
CONTINUOUS
 62
     3
 10
186.31
 20
78.070000005
 11
188.21
 21
78.070000005
  0
LINE
  8
0
  6
CONTINUOUS
 62
     3
 10
188.209999999
 20
66.570000005
 11
188.209999999
 21
63.070000005
  0
LINE
  8
0
  6
CONTINUOUS
 62
     3
 10
188.209999999
 20
63.070000005
 11
186.309999999
 21
63.070000005
  0
LINE
  8
0
  6
CONTINUOUS
 62
     3
 10
186.309999999
 20
63.070000005
 11
186.309999999
 21
66.570000005
  0
LINE
  8
0
  6
CONTINUOUS
 62
     3
 10
186.309999999
 20
66.570000005
 11
188.209999999
 21
66.570000005
  0
LINE
  8
0
  6
CONTINUOUS
 62
     3
 10
188.709999998
 20
52.620000005
 11
188.709999999
 21
60.620000005
  0
LINE
  8
0
  6
CONTINUOUS
 62
     3
 10
188.709999999
 20
60.620000005
 11
190.309999999
 21
60.620000005
  0
LINE
  8
0
  6
CONTINUOUS
 62
     3
 10
188.209999998
 20
52.120000005
 11
188.209999999
 21
61.120000005
  0
LINE
  8
0
  6
CONTINUOUS
 62
     3
 10
188.209999999
 20
61.120000005
 11
190.309999999
 21
61.120000005
  0
LINE
  8
0
  6
CONTINUOUS
 62
     3
 10
190.309999998
 20
52.620000005
 11
188.709999998
 21
52.620000005
  0
LINE
  8
0
  6
CONTINUOUS
 62
     3
 10
188.209999998
 20
52.120000005
 11
190.309999998
 21
52.120000005
  0
LINE
  8
0
  6
CONTINUOUS
 62
     3
 10
190.31
 20
94.770000005
 11
190.309999998
 21
49.870000005
  0
LINE
  8
0
  6
CONTINUOUS
 62
     3
 10
141.224999998
 20
49.870000007
 11
141.224999998
 21
50.870000007
  0
LINE
  8
0
  6
CONTINUOUS
 62
     3
 10
141.224999998
 20
50.870000007
 11
147.224999998
 21
50.870000007
  0
LINE
  8
0
  6
CONTINUOUS
 62
     3
 10
147.224999998
 20
50.870000007
 11
147.224999998
 21
49.870000007
  0
ARC
  8
0
  6
CONTINUOUS
 62
     3
 10
128.389999998
 20
50.870000008
 40
1.0
 50
180.0
 51
270.0
  0
ARC
  8
0
  6
CONTINUOUS
 62
     3
 10
126.724999998
 20
49.320000008
 40
1.0
 50
180.0
 51
270.0
  0
LINE
  8
0
  6
CONTINUOUS
 62
     3
 10
127.389999998
 20
50.870000008
 11
127.389999999
 21
62.320000008
  0
LINE
  8
0
  6
CONTINUOUS
 62
     3
 10
127.224999999
 20
62.320000008
 11
127.224999998
 21
49.820000008
  0
LINE
  8
0
  6
CONTINUOUS
 62
     3
 10
125.724999998
 20
49.320000008
 11
125.724999999
 21
62.320000008
  0
LINE
  8
0
  6
CONTINUOUS
 62
     3
 10
218.724999998
 20
48.320000004
 11
126.724999998
 21
48.320000008
  0
LINE
  8
0
  6
CONTINUOUS
 62
     3
 10
217.059999998
 20
49.870000004
 11
128.389999998
 21
49.870000008
  0
LINE
  8
0
  6
CONTINUOUS
 62
     3
 10
127.224999998
 20
49.820000008
 11
218.224999998
 21
49.820000004
  0
LINE
  8
0
  6
CONTINUOUS
 62
     3
 10
156.639999999
 20
61.070000007
 11
156.64
 21
83.570000007
  0
LINE
  8
0
  6
CONTINUOUS
 62
     3
 10
155.139999999
 20
60.970000007
 11
154.139999999
 21
60.970000007
  0
LINE
  8
0
  6
CONTINUOUS
 62
     3
 10
156.639999999
 20
61.070000007
 11
154.139999999
 21
61.070000007
  0
LINE
  8
0
  6
CONTINUOUS
 62
     3
 10
155.139999999
 20
60.970000007
 11
155.139999998
 21
49.870000007
  0
LINE
  8
0
  6
CONTINUOUS
 62
     3
 10
154.139999999
 20
60.970000007
 11
154.139999999
 21
62.220000007
  0
LINE
  8
0
  6
CONTINUOUS
 62
     3
 10
155.14
 20
94.770000007
 11
155.14
 21
83.670000007
  0
LINE
  8
0
  6
CONTINUOUS
 62
     3
 10
135.24
 20
82.420000008
 11
154.14
 21
82.420000007
  0
LINE
  8
0
  6
CONTINUOUS
 62
     3
 10
155.14
 20
83.670000007
 11
154.14
 21
83.670000007
  0
LINE
  8
0
  6
CONTINUOUS
 62
     3
 10
156.64
 20
83.570000007
 11
154.14
 21
83.570000007
  0
LINE
  8
0
  6
CONTINUOUS
 62
     3
 10
154.14
 20
83.670000007
 11
154.14
 21
82.420000007
  0
LINE
  8
0
  6
CONTINUOUS
 62
     3
 10
141.225
 20
94.770000007
 11
141.225
 21
93.770000007
  0
LINE
  8
0
  6
CONTINUOUS
 62
     3
 10
141.225
 20
93.770000007
 11
147.225
 21
93.770000007
  0
LINE
  8
0
  6
CONTINUOUS
 62
     3
 10
147.225
 20
93.770000007
 11
147.225
 21
94.770000007
  0
ARC
  8
0
  6
CONTINUOUS
 62
     3
 10
128.39
 20
93.770000008
 40
1.0
 50
90.0
 51
180.0
  0
LINE
  8
0
  6
CONTINUOUS
 62
     3
 10
127.39
 20
82.320000008
 11
127.39
 21
93.770000008
  0
LINE
  8
0
  6
CONTINUOUS
 62
     3
 10
127.225
 20
94.820000008
 11
127.225
 21
82.320000008
  0
LINE
  8
0
  6
CONTINUOUS
 62
     3
 10
131.24
 20
83.670000008
 11
129.990000003
 21
82.420000008
  0
LINE
  8
0
  6
CONTINUOUS
 62
     3
 10
135.24
 20
83.670000008
 11
131.24
 21
83.670000008
  0
LINE
  8
0
  6
CONTINUOUS
 62
     3
 10
135.24
 20
83.670000008
 11
135.24
 21
82.420000008
  0
LINE
  8
0
  6
CONTINUOUS
 62
     3
 10
127.39
 20
82.420000008
 11
129.990000003
 21
82.420000008
  0
LINE
  8
0
  6
CONTINUOUS
 62
     3
 10
156.257381042
 20
82.320000007
 11
125.725
 21
82.320000008
  0
LINE
  8
0
  6
CONTINUOUS
 62
     3
 10
131.239999999
 20
60.970000008
 11
129.990000002
 21
62.220000008
  0
LINE
  8
0
  6
CONTINUOUS
 62
     3
 10
127.389999999
 20
62.220000008
 11
129.990000002
 21
62.220000008
  0
LINE
  8
0
  6
CONTINUOUS
 62
     3
 10
135.239999999
 20
60.970000008
 11
131.239999999
 21
60.970000008
  0
LINE
  8
0
  6
CONTINUOUS
 62
     3
 10
135.239999999
 20
60.970000008
 11
135.239999999
 21
62.220000008
  0
LINE
  8
0
  6
CONTINUOUS
 62
     3
 10
135.239999999
 20
62.220000008
 11
154.139999999
 21
62.220000007
  0
LINE
  8
0
  6
CONTINUOUS
 62
     3
 10
125.724999999
 20
62.320000008
 11
156.257381041
 21
62.320000007
  0
ARC
  8
0
  6
CONTINUOUS
 62
     3
 10
124.139999999
 20
63.320000008
 40
1.0
 50
180.0
 51
270.0
  0
LINE
  8
0
  6
CONTINUOUS
 62
     3
 10
123.14
 20
81.320000008
 11
123.139999999
 21
63.320000008
  0
LINE
  8
0
  6
CONTINUOUS
 62
     3
 10
124.139999999
 20
62.320000008
 11
125.724999999
 21
62.320000008
  0
LINE
  8
0
  6
CONTINUOUS
 62
     3
 10
125.725
 20
82.320000008
 11
125.725
 21
95.320000008
  0
ARC
  8
0
  6
CONTINUOUS
 62
     3
 10
126.725
 20
95.320000008
 40
1.0
 50
90.0
 51
180.0
  0
LINE
  8
0
  6
CONTINUOUS
 62
     3
 10
126.725
 20
96.320000008
 11
218.725
 21
96.320000004
  0
LINE
  8
0
  6
CONTINUOUS
 62
     3
 10
135.24
 20
83.570000008
 11
133.99
 21
82.320000008
  0
LINE
  8
0
  6
CONTINUOUS
 62
     3
 10
153.641346211
 20
62.320000007
 11
153.641346212
 21
82.320000007
  0
LINE
  8
0
  6
CONTINUOUS
 62
     3
 10
156.257381042
 20
83.570000007
 11
156.257381042
 21
82.320000007
  0
LINE
  8
0
  6
CONTINUOUS
 62
     3
 10
154.64
 20
83.670000007
 11
154.64
 21
94.770000007
  0
LINE
  8
0
  6
CONTINUOUS
 62
     3
 10
135.239999999
 20
61.070000008
 11
133.989999999
 21
62.320000008
  0
LINE
  8
0
  6
CONTINUOUS
 62
     3
 10
156.257381041
 20
61.070000007
 11
156.257381041
 21
62.320000007
  0
LINE
  8
0
  6
CONTINUOUS
 62
     3
 10
154.639999999
 20
60.970000007
 11
154.639999998
 21
49.870000007
  0
LINE
  8
0
  6
CONTINUOUS
 62
     3
 10
50.84
 20
231.52
 11
55.34
 21
231.52
  0
LINE
  8
0
  6
CONTINUOUS
 62
     3
 10
55.34
 20
231.52
 11
55.34
 21
221.32
  0
LINE
  8
0
  6
CONTINUOUS
 62
     3
 10
50.84
 20
211.12
 11
55.34
 21
211.12
  0
LINE
  8
0
  6
CONTINUOUS
 62
     3
 10
55.34
 20
211.12
 11
55.34
 21
221.32
  0
LINE
  8
0
  6
CONTINUOUS
 62
     3
 10
147.865000001
 20
199.17
 11
202.265000001
 21
199.17
  0
LINE
  8
0
  6
CONTINUOUS
 62
     3
 10
202.265000001
 20
243.47
 11
143.365000001
 21
243.47
  0
LINE
  8
0
  6
CONTINUOUS
 62
     3
 10
202.265000001
 20
199.17
 11
202.265000001
 21
243.47
  0
LINE
  8
0
  6
CONTINUOUS
 62
     3
 10
128.115000001
 20
203.17
 11
128.115000001
 21
239.47
  0
LINE
  8
0
  6
CONTINUOUS
 62
     3
 10
128.08506983
 20
233.22
 11
127.565000001
 21
233.22
  0
LINE
  8
0
  6
CONTINUOUS
 62
     3
 10
128.08506983
 20
231.42
 11
127.565000001
 21
231.42
  0
LINE
  8
0
  6
CONTINUOUS
 62
     3
 10
128.11506983
 20
223.82
 11
127.065000001
 21
223.82
  0
LINE
  8
0
  6
CONTINUOUS
 62
     3
 10
128.14506983
 20
218.82
 11
127.065000001
 21
218.82
  0
LINE
  8
0
  6
CONTINUOUS
 62
     3
 10
128.17506983
 20
211.22
 11
127.565000001
 21
211.22
  0
LINE
  8
0
  6
CONTINUOUS
 62
     3
 10
128.07506983
 20
209.42
 11
127.565000001
 21
209.42
  0
LINE
  8
0
  6
CONTINUOUS
 62
     3
 10
137.915000001
 20
239.47
 11
137.915000001
 21
203.17
  0
LINE
  8
0
  6
CONTINUOUS
 62
     3
 10
207.215000001
 20
203.17
 11
207.215000001
 21
239.47
  0
LINE
  8
0
  6
CONTINUOUS
 62
     3
 10
217.015000001
 20
239.47
 11
217.015000001
 21
203.17
  0
LINE
  8
0
  6
CONTINUOUS
 62
     3
 10
217.03506983
 20
233.22
 11
217.565000001
 21
233.22
  0
LINE
  8
0
  6
CONTINUOUS
 62
     3
 10
217.00506983
 20
231.42
 11
217.565000001
 21
231.42
  0
LINE
  8
0
  6
CONTINUOUS
 62
     3
 10
217.03506983
 20
223.82
 11
218.065000001
 21
223.82
  0
LINE
  8
0
  6
CONTINUOUS
 62
     3
 10
217.07506983
 20
218.82
 11
218.065000001
 21
218.82
  0
LINE
  8
0
  6
CONTINUOUS
 62
     3
 10
217.05506983
 20
211.22
 11
217.565000001
 21
211.22
  0
LINE
  8
0
  6
CONTINUOUS
 62
     3
 10
217.05506983
 20
209.42
 11
217.565000001
 21
209.42
  0
TEXT
  8
1
  6
CONTINUOUS
 62
     3
 10
304.139949823
 20
163.298045586
 30
0.31104
 40
3.5
  1
■　入力部及び電源部コネクタ
 50
0.0
 41
0.914285714
 51
0.0
  7
KANJI0
  0
LINE
  8
0
  6
CONTINUOUS
 62
     3
 10
345.936384247
 20
140.428755413
 11
345.936384247
 21
149.728755413
  0
LINE
  8
0
  6
CONTINUOUS
 62
     3
 10
309.636384247
 20
149.728755413
 11
309.636384247
 21
150.328755413
  0
LINE
  8
0
  6
CONTINUOUS
 62
     3
 10
344.436384247
 20
150.328755413
 11
345.936384247
 21
150.328755413
  0
LINE
  8
0
  6
CONTINUOUS
 62
     3
 10
335.736384247
 20
150.328755413
 11
337.236384247
 21
150.328755413
  0
LINE
  8
0
  6
CONTINUOUS
 62
     3
 10
345.936384247
 20
150.328755413
 11
345.936384247
 21
149.728755413
  0
LINE
  8
0
  6
CONTINUOUS
 62
     3
 10
314.736384247
 20
141.928755413
 11
311.736384247
 21
141.928755413
  0
LINE
  8
0
  6
CONTINUOUS
 62
     3
 10
317.736384247
 20
141.928755413
 11
314.236384247
 21
141.928755413
  0
CIRCLE
  8
0
  6
CONTINUOUS
 62
     3
 10
314.736384247
 20
144.928755413
 40
2.9
  0
LINE
  8
0
  6
CONTINUOUS
 62
     3
 10
309.636384247
 20
149.728755413
 11
345.936384247
 21
149.728755413
  0
LINE
  8
0
  6
CONTINUOUS
 62
     3
 10
318.336384247
 20
150.328755413
 11
318.336384247
 21
141.428755413
  0
LINE
  8
0
  6
CONTINUOUS
 62
     3
 10
319.836384247
 20
150.328755413
 11
319.836384247
 21
141.428755413
  0
LINE
  8
0
  6
CONTINUOUS
 62
     3
 10
327.036384247
 20
150.328755413
 11
327.036384247
 21
141.428755413
  0
LINE
  8
0
  6
CONTINUOUS
 62
     3
 10
328.536384247
 20
150.328755413
 11
328.536384247
 21
141.428755413
  0
LINE
  8
0
  6
CONTINUOUS
 62
     3
 10
335.736384247
 20
150.328755413
 11
335.736384247
 21
141.428755413
  0
LINE
  8
0
  6
CONTINUOUS
 62
     3
 10
337.236384247
 20
150.328755413
 11
337.236384247
 21
141.428755413
  0
LINE
  8
0
  6
CONTINUOUS
 62
     3
 10
344.436384247
 20
150.328755413
 11
344.436384247
 21
141.428755413
  0
LINE
  8
0
  6
CONTINUOUS
 62
     3
 10
311.736384247
 20
141.928755413
 11
311.736384247
 21
148.428755413
  0
LINE
  8
0
  6
CONTINUOUS
 62
     3
 10
317.736384247
 20
148.428755413
 11
317.736384247
 21
141.928755413
  0
LINE
  8
0
  6
CONTINUOUS
 62
     3
 10
311.736384247
 20
148.428755413
 11
317.736384247
 21
148.428755413
  0
LINE
  8
0
  6
CONTINUOUS
 62
     3
 10
311.136384247
 20
150.328755413
 11
311.136384247
 21
141.428755413
  0
LINE
  8
0
  6
CONTINUOUS
 62
     3
 10
311.136384247
 20
141.428755413
 11
344.436384247
 21
141.428755413
  0
CIRCLE
  8
0
  6
CONTINUOUS
 62
     3
 10
314.736384247
 20
144.928755413
 40
2.9
  0
LINE
  8
0
  6
CONTINUOUS
 62
     3
 10
323.436384247
 20
141.928755413
 11
320.436384247
 21
141.928755413
  0
LINE
  8
0
  6
CONTINUOUS
 62
     3
 10
326.436384247
 20
141.928755413
 11
322.936384247
 21
141.928755413
  0
CIRCLE
  8
0
  6
CONTINUOUS
 62
     3
 10
323.436384247
 20
144.928755413
 40
2.9
  0
LINE
  8
0
  6
CONTINUOUS
 62
     3
 10
320.436384247
 20
141.928755413
 11
320.436384247
 21
148.428755413
  0
LINE
  8
0
  6
CONTINUOUS
 62
     3
 10
326.436384247
 20
148.428755413
 11
326.436384247
 21
141.928755413
  0
LINE
  8
0
  6
CONTINUOUS
 62
     3
 10
320.436384247
 20
148.428755413
 11
326.436384247
 21
148.428755413
  0
CIRCLE
  8
0
  6
CONTINUOUS
 62
     3
 10
323.436384247
 20
144.928755413
 40
2.9
  0
LINE
  8
0
  6
CONTINUOUS
 62
     3
 10
332.136384247
 20
141.928755413
 11
329.136384247
 21
141.928755413
  0
LINE
  8
0
  6
CONTINUOUS
 62
     3
 10
335.136384247
 20
141.928755413
 11
331.636384247
 21
141.928755413
  0
CIRCLE
  8
0
  6
CONTINUOUS
 62
     3
 10
332.136384247
 20
144.928755413
 40
2.9
  0
LINE
  8
0
  6
CONTINUOUS
 62
     3
 10
329.136384247
 20
141.928755413
 11
329.136384247
 21
148.428755413
  0
LINE
  8
0
  6
CONTINUOUS
 62
     3
 10
335.136384247
 20
148.428755413
 11
335.136384247
 21
141.928755413
  0
LINE
  8
0
  6
CONTINUOUS
 62
     3
 10
329.136384247
 20
148.428755413
 11
335.136384247
 21
148.428755413
  0
CIRCLE
  8
0
  6
CONTINUOUS
 62
     3
 10
332.136384247
 20
144.928755413
 40
2.9
  0
LINE
  8
0
  6
CONTINUOUS
 62
     3
 10
340.836384247
 20
141.928755413
 11
337.836384247
 21
141.928755413
  0
LINE
  8
0
  6
CONTINUOUS
 62
     3
 10
343.836384247
 20
141.928755413
 11
340.336384247
 21
141.928755413
  0
CIRCLE
  8
0
  6
CONTINUOUS
 62
     3
 10
340.836384247
 20
144.928755413
 40
2.9
  0
LINE
  8
0
  6
CONTINUOUS
 62
     3
 10
337.836384247
 20
141.928755413
 11
337.836384247
 21
148.428755413
  0
LINE
  8
0
  6
CONTINUOUS
 62
     3
 10
343.836384247
 20
148.428755413
 11
343.836384247
 21
141.928755413
  0
LINE
  8
0
  6
CONTINUOUS
 62
     3
 10
337.836384247
 20
148.428755413
 11
343.836384247
 21
148.428755413
  0
CIRCLE
  8
0
  6
CONTINUOUS
 62
     3
 10
340.836384247
 20
144.928755413
 40
2.9
  0
LINE
  8
0
  6
CONTINUOUS
 62
     3
 10
309.636384247
 20
140.928755413
 11
310.386384247
 21
140.928755413
  0
LINE
  8
0
  6
CONTINUOUS
 62
     3
 10
318.336384247
 20
141.428755413
 11
319.086384247
 21
141.428755413
  0
LINE
  8
0
  6
CONTINUOUS
 62
     3
 10
335.736384247
 20
141.428755413
 11
336.486384247
 21
141.428755413
  0
LINE
  8
0
  6
CONTINUOUS
 62
     3
 10
309.636384247
 20
140.928755413
 11
345.936384247
 21
140.928755413
  0
LINE
  8
0
  6
CONTINUOUS
 62
     3
 10
309.636384247
 20
150.328755413
 11
311.136384247
 21
150.328755413
  0
LINE
  8
0
  6
CONTINUOUS
 62
     3
 10
318.336384247
 20
150.328755413
 11
319.836384247
 21
150.328755413
  0
LINE
  8
0
  6
CONTINUOUS
 62
     3
 10
327.036384247
 20
150.328755413
 11
328.536384247
 21
150.328755413
  0
LINE
  8
0
  6
CONTINUOUS
 62
     3
 10
309.636384247
 20
149.938755413
 11
309.636384247
 21
140.638755413
  0
LINE
  8
0
  6
CONTINUOUS
 62
     3
 10
309.636384247
 20
140.638755413
 11
345.936384247
 21
140.638755413
  0
LINE
  8
0
  6
CONTINUOUS
 62
     3
 10
309.636384247
 20
140.638755413
 11
309.636384247
 21
141.838755413
  0
LINE
  8
0
  6
CONTINUOUS
 62
     3
 10
309.636384247
 20
140.638755413
 11
309.636384247
 21
141.638755413
  0
TEXT
  8
0
  6
CONTINUOUS
 62
     3
 10
313.025069823
 20
142.768755413
 30
0.0
 40
3.6
  1
１
 50
0.0
 41
1.0
 51
0.0
  7
KANJI1
  0
TEXT
  8
0
  6
CONTINUOUS
 62
     3
 10
321.561069823
 20
142.978825241
 30
0.0
 40
3.6
  1
２
 50
0.0
 41
1.0
 51
0.0
  7
KANJI1
  0
TEXT
  8
0
  6
CONTINUOUS
 62
     3
 10
330.425069823
 20
143.188825241
 30
0.0
 40
3.6
  1
３
 50
0.0
 41
1.0
 51
0.0
  7
KANJI1
  0
TEXT
  8
0
  6
CONTINUOUS
 62
     3
 10
338.975069823
 20
142.978825241
 30
0.0
 40
3.6
  1
４
 50
0.0
 41
1.0
 51
0.0
  7
KANJI1
  0
LINE
  8
0
  6
CONTINUOUS
 62
     3
 10
345.936384247
 20
111.448755413
 11
345.936384247
 21
102.148755413
  0
LINE
  8
0
  6
CONTINUOUS
 62
     3
 10
309.636384247
 20
102.148755413
 11
309.636384247
 21
101.548755413
  0
LINE
  8
0
  6
CONTINUOUS
 62
     3
 10
344.436384247
 20
101.548755413
 11
345.936384247
 21
101.548755413
  0
LINE
  8
0
  6
CONTINUOUS
 62
     3
 10
335.736384247
 20
101.548755413
 11
337.236384247
 21
101.548755413
  0
LINE
  8
0
  6
CONTINUOUS
 62
     3
 10
345.936384247
 20
101.548755413
 11
345.936384247
 21
102.148755413
  0
LINE
  8
0
  6
CONTINUOUS
 62
     3
 10
314.736384247
 20
109.948755413
 11
311.736384247
 21
109.948755413
  0
LINE
  8
0
  6
CONTINUOUS
 62
     3
 10
317.736384247
 20
109.948755413
 11
314.236384247
 21
109.948755413
  0
CIRCLE
  8
0
  6
CONTINUOUS
 62
     3
 10
314.736384247
 20
106.948755413
 40
2.9
  0
LINE
  8
0
  6
CONTINUOUS
 62
     3
 10
309.636384247
 20
102.148755413
 11
345.936384247
 21
102.148755413
  0
LINE
  8
0
  6
CONTINUOUS
 62
     3
 10
318.336384247
 20
101.548755413
 11
318.336384247
 21
110.448755413
  0
LINE
  8
0
  6
CONTINUOUS
 62
     3
 10
319.836384247
 20
101.548755413
 11
319.836384247
 21
110.448755413
  0
LINE
  8
0
  6
CONTINUOUS
 62
     3
 10
327.036384247
 20
101.548755413
 11
327.036384247
 21
110.448755413
  0
LINE
  8
0
  6
CONTINUOUS
 62
     3
 10
328.536384247
 20
101.548755413
 11
328.536384247
 21
110.448755413
  0
LINE
  8
0
  6
CONTINUOUS
 62
     3
 10
335.736384247
 20
101.548755413
 11
335.736384247
 21
110.448755413
  0
LINE
  8
0
  6
CONTINUOUS
 62
     3
 10
337.236384247
 20
101.548755413
 11
337.236384247
 21
110.448755413
  0
LINE
  8
0
  6
CONTINUOUS
 62
     3
 10
344.436384247
 20
101.548755413
 11
344.436384247
 21
110.448755413
  0
LINE
  8
0
  6
CONTINUOUS
 62
     3
 10
311.736384247
 20
109.948755413
 11
311.736384247
 21
103.448755413
  0
LINE
  8
0
  6
CONTINUOUS
 62
     3
 10
317.736384247
 20
103.448755413
 11
317.736384247
 21
109.948755413
  0
LINE
  8
0
  6
CONTINUOUS
 62
     3
 10
311.736384247
 20
103.448755413
 11
317.736384247
 21
103.448755413
  0
LINE
  8
0
  6
CONTINUOUS
 62
     3
 10
311.136384247
 20
101.548755413
 11
311.136384247
 21
110.448755413
  0
LINE
  8
0
  6
CONTINUOUS
 62
     3
 10
311.136384247
 20
110.448755413
 11
344.436384247
 21
110.448755413
  0
CIRCLE
  8
0
  6
CONTINUOUS
 62
     3
 10
314.736384247
 20
106.948755413
 40
2.9
  0
LINE
  8
0
  6
CONTINUOUS
 62
     3
 10
323.436384247
 20
109.948755413
 11
320.436384247
 21
109.948755413
  0
LINE
  8
0
  6
CONTINUOUS
 62
     3
 10
326.436384247
 20
109.948755413
 11
322.936384247
 21
109.948755413
  0
CIRCLE
  8
0
  6
CONTINUOUS
 62
     3
 10
323.436384247
 20
106.948755413
 40
2.9
  0
LINE
  8
0
  6
CONTINUOUS
 62
     3
 10
320.436384247
 20
109.948755413
 11
320.436384247
 21
103.448755413
  0
LINE
  8
0
  6
CONTINUOUS
 62
     3
 10
326.436384247
 20
103.448755413
 11
326.436384247
 21
109.948755413
  0
LINE
  8
0
  6
CONTINUOUS
 62
     3
 10
320.436384247
 20
103.448755413
 11
326.436384247
 21
103.448755413
  0
CIRCLE
  8
0
  6
CONTINUOUS
 62
     3
 10
323.436384247
 20
106.948755413
 40
2.9
  0
LINE
  8
0
  6
CONTINUOUS
 62
     3
 10
332.136384247
 20
109.948755413
 11
329.136384247
 21
109.948755413
  0
LINE
  8
0
  6
CONTINUOUS
 62
     3
 10
335.136384247
 20
109.948755413
 11
331.636384247
 21
109.948755413
  0
CIRCLE
  8
0
  6
CONTINUOUS
 62
     3
 10
332.136384247
 20
106.948755413
 40
2.9
  0
LINE
  8
0
  6
CONTINUOUS
 62
     3
 10
329.136384247
 20
109.948755413
 11
329.136384247
 21
103.448755413
  0
LINE
  8
0
  6
CONTINUOUS
 62
     3
 10
335.136384247
 20
103.448755413
 11
335.136384247
 21
109.948755413
  0
LINE
  8
0
  6
CONTINUOUS
 62
     3
 10
329.136384247
 20
103.448755413
 11
335.136384247
 21
103.448755413
  0
CIRCLE
  8
0
  6
CONTINUOUS
 62
     3
 10
332.136384247
 20
106.948755413
 40
2.9
  0
LINE
  8
0
  6
CONTINUOUS
 62
     3
 10
340.836384247
 20
109.948755413
 11
337.836384247
 21
109.948755413
  0
LINE
  8
0
  6
CONTINUOUS
 62
     3
 10
343.836384247
 20
109.948755413
 11
340.336384247
 21
109.948755413
  0
CIRCLE
  8
0
  6
CONTINUOUS
 62
     3
 10
340.836384247
 20
106.948755413
 40
2.9
  0
LINE
  8
0
  6
CONTINUOUS
 62
     3
 10
337.836384247
 20
109.948755413
 11
337.836384247
 21
103.448755413
  0
LINE
  8
0
  6
CONTINUOUS
 62
     3
 10
343.836384247
 20
103.448755413
 11
343.836384247
 21
109.948755413
  0
LINE
  8
0
  6
CONTINUOUS
 62
     3
 10
337.836384247
 20
103.448755413
 11
343.836384247
 21
103.448755413
  0
CIRCLE
  8
0
  6
CONTINUOUS
 62
     3
 10
340.836384247
 20
106.948755413
 40
2.9
  0
LINE
  8
0
  6
CONTINUOUS
 62
     3
 10
309.636384247
 20
110.948755413
 11
310.386384247
 21
110.948755413
  0
LINE
  8
0
  6
CONTINUOUS
 62
     3
 10
318.336384247
 20
110.448755413
 11
319.086384247
 21
110.448755413
  0
LINE
  8
0
  6
CONTINUOUS
 62
     3
 10
335.736384247
 20
110.448755413
 11
336.486384247
 21
110.448755413
  0
LINE
  8
0
  6
CONTINUOUS
 62
     3
 10
309.636384247
 20
110.948755413
 11
345.936384247
 21
110.948755413
  0
LINE
  8
0
  6
CONTINUOUS
 62
     3
 10
309.636384247
 20
101.548755413
 11
311.136384247
 21
101.548755413
  0
LINE
  8
0
  6
CONTINUOUS
 62
     3
 10
318.336384247
 20
101.548755413
 11
319.836384247
 21
101.548755413
  0
LINE
  8
0
  6
CONTINUOUS
 62
     3
 10
327.036384247
 20
101.548755413
 11
328.536384247
 21
101.548755413
  0
LINE
  8
0
  6
CONTINUOUS
 62
     3
 10
309.636384247
 20
101.938755413
 11
309.636384247
 21
111.238755413
  0
LINE
  8
0
  6
CONTINUOUS
 62
     3
 10
309.636384247
 20
111.238755413
 11
345.936384247
 21
111.238755413
  0
LINE
  8
0
  6
CONTINUOUS
 62
     3
 10
309.636384247
 20
111.238755413
 11
309.636384247
 21
110.038755413
  0
LINE
  8
0
  6
CONTINUOUS
 62
     3
 10
309.636384247
 20
111.238755413
 11
309.636384247
 21
110.238755413
  0
TEXT
  8
0
  6
CONTINUOUS
 62
     3
 10
313.025069823
 20
105.508755413
 30
0.0
 40
3.6
  1
５
 50
0.0
 41
1.0
 51
0.0
  7
KANJI1
  0
TEXT
  8
0
  6
CONTINUOUS
 62
     3
 10
321.561069823
 20
105.298685586
 30
0.0
 40
3.6
  1
６
 50
0.0
 41
1.0
 51
0.0
  7
KANJI1
  0
TEXT
  8
0
  6
CONTINUOUS
 62
     3
 10
330.425069823
 20
105.088685586
 30
0.0
 40
3.6
  1
７
 50
0.0
 41
1.0
 51
0.0
  7
KANJI1
  0
TEXT
  8
0
  6
CONTINUOUS
 62
     3
 10
338.975069823
 20
105.298685586
 30
0.0
 40
3.6
  1
８
 50
0.0
 41
1.0
 51
0.0
  7
KANJI1
  0
LINE
  8
0
  6
CONTINUOUS
 62
     4
 10
332.136384247
 20
114.218685586
 11
332.136384247
 21
113.018685586
  0
LINE
  8
0
  6
CONTINUOUS
 62
     4
 10
340.836384247
 20
114.218685586
 11
332.136384247
 21
114.218685586
  0
LINE
  8
0
  6
CONTINUOUS
 62
     4
 10
340.836384247
 20
113.018685586
 11
340.836384247
 21
114.218685586
  0
LINE
  8
0
  6
CONTINUOUS
 62
     4
 10
314.736384247
 20
114.218685586
 11
314.736384247
 21
113.018685586
  0
TEXT
  8
0
  6
CONTINUOUS
 62
     4
 10
316.238384247
 20
115.628685586
 30
-0.48
 40
2.16
  1
ＯＵＴ
 50
0.0
 41
1.0
 51
0.0
  7
KANJI2
  0
TEXT
  8
0
  6
CONTINUOUS
 62
     4
 10
311.981069823
 20
95.648685586
 30
-0.48
 40
2.16
  1
（＋）
 50
0.0
 41
1.0
 51
0.0
  7
KANJI2
  0
TEXT
  8
0
  6
CONTINUOUS
 62
     4
 10
320.611069823
 20
95.718685586
 30
-0.48
 40
2.16
  1
（－）
 50
0.0
 41
1.0
 51
0.0
  7
KANJI2
  0
TEXT
  8
0
  6
CONTINUOUS
 62
     4
 10
329.295069823
 20
95.728685586
 30
-0.48
 40
2.16
  1
（＋）
 50
0.0
 41
1.0
 51
0.0
  7
KANJI2
  0
TEXT
  8
0
  6
CONTINUOUS
 62
     4
 10
338.095069823
 20
95.658685586
 30
-0.48
 40
2.16
  1
（－）
 50
0.0
 41
1.0
 51
0.0
  7
KANJI2
  0
TEXT
  8
0
  6
CONTINUOUS
 62
     4
 10
330.405069823
 20
117.138685586
 30
-0.48
 40
2.16
  1
ＡＣ　ＰＯＷＥＲ
 50
0.0
 41
1.0
 51
0.0
  7
KANJI2
  0
TEXT
  8
0
  6
CONTINUOUS
 62
     4
 10
328.805069823
 20
114.568685586
 30
-0.48
 40
2.16
  1
（１００～　２４０Ｖ）
 50
0.0
 41
1.0
 51
0.0
  7
KANJI2
  0
LINE
  8
0
  6
CONTINUOUS
 62
     4
 10
140.215000001
 20
244.17
 11
140.215000001
 21
260.498685586
  0
LINE
  8
0
  6
CONTINUOUS
 62
     4
 10
140.215000001
 20
259.498685586
 11
143.112777479
 21
258.72222845
  0
LINE
  8
0
  6
CONTINUOUS
 62
     4
 10
140.215000001
 20
259.498685586
 11
143.112777479
 21
260.275142721
  0
LINE
  8
0
  6
CONTINUOUS
 62
     4
 10
140.215000001
 20
259.498685586
 11
204.915000001
 21
259.498685586
  0
LINE
  8
0
  6
CONTINUOUS
 62
     4
 10
204.915000001
 20
259.498685586
 11
202.017222522
 21
260.275142721
  0
LINE
  8
0
  6
CONTINUOUS
 62
     4
 10
204.915000001
 20
259.498685586
 11
202.017222522
 21
258.72222845
  0
LINE
  8
0
  6
CONTINUOUS
 62
     4
 10
204.915000001
 20
244.17
 11
204.915000001
 21
260.498685586
  0
TEXT
  8
0
  6
CONTINUOUS
 62
     4
 10
167.165000001
 20
260.498685586
 30
0.0
 40
3.2
  1
６４．８
 50
0.0
 41
0.84375
 51
0.0
  7
KANJI3
  0
LINE
  8
0
  6
CONTINUOUS
 62
     4
 10
125.725000003
 20
197.32
 11
125.725000003
 21
188.93
  0
LINE
  8
0
  6
CONTINUOUS
 62
     4
 10
125.725000003
 20
189.93
 11
128.622777482
 21
189.153542865
  0
LINE
  8
0
  6
CONTINUOUS
 62
     4
 10
125.725000003
 20
189.93
 11
128.622777482
 21
190.706457135
  0
LINE
  8
0
  6
CONTINUOUS
 62
     4
 10
125.725000003
 20
189.93
 11
219.405000001
 21
189.93
  0
LINE
  8
0
  6
CONTINUOUS
 62
     4
 10
219.405000001
 20
189.93
 11
216.507222522
 21
190.706457135
  0
LINE
  8
0
  6
CONTINUOUS
 62
     4
 10
219.405000001
 20
189.93
 11
216.507222522
 21
189.153542865
  0
LINE
  8
0
  6
CONTINUOUS
 62
     4
 10
219.405000001
 20
197.32
 11
219.405000001
 21
188.93
  0
TEXT
  8
0
  6
CONTINUOUS
 62
     4
 10
169.865000002
 20
190.93
 30
0.0
 40
3.2
  1
９４
 50
0.0
 41
0.84375
 51
0.0
  7
KANJI3
  0
LINE
  8
0
  6
CONTINUOUS
 62
     4
 10
123.140000002
 20
211.32
 11
123.140000002
 21
179.72
  0
LINE
  8
0
  6
CONTINUOUS
 62
     4
 10
123.140000002
 20
180.72
 11
126.037777481
 21
179.943542865
  0
LINE
  8
0
  6
CONTINUOUS
 62
     4
 10
123.140000002
 20
180.72
 11
126.037777481
 21
181.496457135
  0
LINE
  8
0
  6
CONTINUOUS
 62
     4
 10
123.140000002
 20
180.72
 11
219.405000001
 21
180.72
  0
LINE
  8
0
  6
CONTINUOUS
 62
     4
 10
219.405000001
 20
180.72
 11
216.507222522
 21
181.496457135
  0
LINE
  8
0
  6
CONTINUOUS
 62
     4
 10
219.405000001
 20
180.72
 11
216.507222522
 21
179.943542865
  0
LINE
  8
0
  6
CONTINUOUS
 62
     4
 10
219.405000001
 20
188.93
 11
219.405000001
 21
179.72
  0
LINE
  8
0
  6
CONTINUOUS
 62
     4
 10
220.725000001
 20
124.320000007
 11
233.355000001
 21
124.320000007
  0
LINE
  8
0
  6
CONTINUOUS
 62
     4
 10
232.355000001
 20
124.320000007
 11
233.131457136
 21
127.217777486
  0
LINE
  8
0
  6
CONTINUOUS
 62
     4
 10
232.355000001
 20
124.320000007
 11
231.578542865
 21
127.217777486
  0
LINE
  8
0
  6
CONTINUOUS
 62
     4
 10
232.355000001
 20
124.320000007
 11
232.355000001
 21
154.020000006
  0
LINE
  8
0
  6
CONTINUOUS
 62
     4
 10
232.355000001
 20
154.020000006
 11
231.578542865
 21
151.122222527
  0
LINE
  8
0
  6
CONTINUOUS
 62
     4
 10
232.355000001
 20
154.020000006
 11
233.131457136
 21
151.122222527
  0
LINE
  8
0
  6
CONTINUOUS
 62
     4
 10
218.714526584
 20
154.020000006
 11
233.355000001
 21
154.020000006
  0
TEXT
  8
0
  6
CONTINUOUS
 62
     4
 10
231.355000001
 20
136.470000007
 30
0.0
 40
3.2
  1
３０
 50
90.0
 41
0.84375
 51
0.0
  7
KANJI3
  0
LINE
  8
0
  6
CONTINUOUS
 62
     4
 10
204.95204026
 20
165.120000007
 11
241.574526584
 21
165.120000007
  0
LINE
  8
0
  6
CONTINUOUS
 62
     4
 10
240.574526584
 20
165.120000007
 11
239.798069449
 21
162.222222528
  0
LINE
  8
0
  6
CONTINUOUS
 62
     4
 10
240.574526584
 20
165.120000007
 11
241.350983719
 21
162.222222528
  0
LINE
  8
0
  6
CONTINUOUS
 62
     4
 10
240.574526584
 20
165.120000007
 11
240.574526584
 21
124.320000007
  0
LINE
  8
0
  6
CONTINUOUS
 62
     4
 10
240.574526584
 20
124.320000007
 11
241.350983719
 21
127.217777486
  0
LINE
  8
0
  6
CONTINUOUS
 62
     4
 10
240.574526584
 20
124.320000007
 11
239.798069449
 21
127.217777486
  0
LINE
  8
0
  6
CONTINUOUS
 62
     4
 10
234.355000001
 20
124.320000007
 11
241.574526584
 21
124.320000007
  0
TEXT
  8
0
  6
CONTINUOUS
 62
     4
 10
239.574526584
 20
142.020000007
 30
0.0
 40
3.2
  1
４１
 50
90.0
 41
0.84375
 51
0.0
  7
KANJI3
  0
LINE
  8
0
  6
CONTINUOUS
 62
     4
 10
219.725
 20
96.320000004
 11
241.574526584
 21
96.320000004
  0
LINE
  8
0
  6
CONTINUOUS
 62
     4
 10
240.574526584
 20
96.320000004
 11
239.798069449
 21
93.422222525
  0
LINE
  8
0
  6
CONTINUOUS
 62
     4
 10
240.574526584
 20
96.320000004
 11
241.350983719
 21
93.422222525
  0
LINE
  8
0
  6
CONTINUOUS
 62
     4
 10
240.574526584
 20
96.320000004
 11
240.574526584
 21
48.320000004
  0
LINE
  8
0
  6
CONTINUOUS
 62
     4
 10
240.574526584
 20
48.320000004
 11
241.350983719
 21
51.217777483
  0
LINE
  8
0
  6
CONTINUOUS
 62
     4
 10
240.574526584
 20
48.320000004
 11
239.798069449
 21
51.217777483
  0
LINE
  8
0
  6
CONTINUOUS
 62
     4
 10
219.724999998
 20
48.320000004
 11
241.574526584
 21
48.320000004
  0
TEXT
  8
0
  6
CONTINUOUS
 62
     4
 10
239.574526584
 20
69.620000004
 30
0.0
 40
3.2
  1
４８
 50
90.0
 41
0.84375
 51
0.0
  7
KANJI3
  0
LINE
  8
0
  6
CONTINUOUS
 62
     4
 10
109.526384247
 20
82.320000008
 11
108.749927112
 21
79.422222529
  0
LINE
  8
0
  6
CONTINUOUS
 62
     4
 10
109.526384247
 20
82.320000008
 11
110.302841382
 21
79.422222529
  0
LINE
  8
0
  6
CONTINUOUS
 62
     4
 10
109.526384247
 20
82.320000008
 11
109.526384247
 21
62.320000008
  0
LINE
  8
0
  6
CONTINUOUS
 62
     4
 10
109.526384247
 20
62.320000008
 11
110.302841382
 21
65.217777487
  0
LINE
  8
0
  6
CONTINUOUS
 62
     4
 10
109.526384247
 20
62.320000008
 11
108.749927112
 21
65.217777487
  0
LINE
  8
0
  6
CONTINUOUS
 62
     4
 10
123.139999999
 20
62.320000008
 11
108.526384247
 21
62.320000008
  0
TEXT
  8
0
  6
CONTINUOUS
 62
     4
 10
108.526384247
 20
69.620000008
 30
0.0
 40
3.2
  1
２０
 50
90.0
 41
0.84375
 51
0.0
  7
KANJI3
  0
LINE
  8
0
  6
CONTINUOUS
 62
     4
 10
123.14
 20
82.320000008
 11
108.526384247
 21
82.320000008
  0
LINE
  8
0
  6
CONTINUOUS
 62
     4
 10
155.125000001
 20
129.820000007
 11
155.125000001
 21
142.358685586
  0
LINE
  8
0
  6
CONTINUOUS
 62
     4
 10
155.125000001
 20
141.358685586
 11
158.02277748
 21
140.58222845
  0
LINE
  8
0
  6
CONTINUOUS
 62
     4
 10
155.125000001
 20
141.358685586
 11
158.02277748
 21
142.135142721
  0
LINE
  8
0
  6
CONTINUOUS
 62
     4
 10
155.125000001
 20
141.358685586
 11
190.325000001
 21
141.358685586
  0
LINE
  8
0
  6
CONTINUOUS
 62
     4
 10
190.325000001
 20
141.358685586
 11
187.427222522
 21
142.135142721
  0
LINE
  8
0
  6
CONTINUOUS
 62
     4
 10
190.325000001
 20
141.358685586
 11
187.427222522
 21
140.58222845
  0
LINE
  8
0
  6
CONTINUOUS
 62
     4
 10
190.325000001
 20
129.820000007
 11
190.325000001
 21
142.358685586
  0
TEXT
  8
0
  6
CONTINUOUS
 62
     4
 10
167.325000001
 20
142.358685586
 30
0.0
 40
3.2
  1
３５．２
 50
0.0
 41
0.84375
 51
0.0
  7
KANJI3
  0
LINE
  8
0
  6
CONTINUOUS
 62
     4
 10
154.725000001
 20
123.320000007
 11
154.725000001
 21
109.720000007
  0
LINE
  8
0
  6
CONTINUOUS
 62
     4
 10
154.725000001
 20
110.720000007
 11
157.62277748
 21
109.943542872
  0
LINE
  8
0
  6
CONTINUOUS
 62
     4
 10
154.725000001
 20
110.720000007
 11
157.62277748
 21
111.496457143
  0
LINE
  8
0
  6
CONTINUOUS
 62
     4
 10
154.725000001
 20
110.720000007
 11
190.725000001
 21
110.720000007
  0
LINE
  8
0
  6
CONTINUOUS
 62
     4
 10
190.725000001
 20
110.720000007
 11
187.827222522
 21
111.496457143
  0
LINE
  8
0
  6
CONTINUOUS
 62
     4
 10
190.725000001
 20
110.720000007
 11
187.827222522
 21
109.943542872
  0
LINE
  8
0
  6
CONTINUOUS
 62
     4
 10
190.725000001
 20
123.320000007
 11
190.725000001
 21
109.720000007
  0
TEXT
  8
0
  6
CONTINUOUS
 62
     4
 10
167.325000001
 20
111.720000007
 30
0.0
 40
3.2
  1
３５．４
 50
0.0
 41
0.84375
 51
0.0
  7
KANJI3
  0
ARC
  8
0
  6
CONTINUOUS
 62
     3
 10
147.889999999
 20
71.260000003
 40
2.0
 50
179.999999999
 51
270.0
  0
LINE
  8
0
  6
CONTINUOUS
 62
     3
 10
147.889999999
 20
69.260000003
 11
150.639999999
 21
69.260000003
  0
ARC
  8
0
  6
CONTINUOUS
 62
     3
 10
150.639999999
 20
71.260000003
 40
2.0
 50
270.0
 51
336.153311249
  0
LINE
  8
0
  6
CONTINUOUS
 62
     3
 10
152.639999999
 20
71.760000003
 11
152.639999999
 21
72.760000003
  0
ARC
  8
0
  6
CONTINUOUS
 62
     3
 10
147.539999999
 20
71.760000003
 40
5.1
 50
270.0
 51
0.0
  0
ARC
  8
0
  6
CONTINUOUS
 62
     3
 10
147.539999999
 20
72.760000003
 40
5.1
 50
0.0
 51
90.0
  0
ARC
  8
0
  6
CONTINUOUS
 62
     3
 10
142.739999999
 20
71.760000003
 40
5.1
 50
180.0
 51
270.0
  0
ARC
  8
0
  6
CONTINUOUS
 62
     3
 10
142.389999999
 20
71.260000003
 40
2.0
 50
270.0
 51
0.0
  0
LINE
  8
0
  6
CONTINUOUS
 62
     3
 10
142.389999999
 20
69.260000003
 11
139.639999999
 21
69.260000003
  0
ARC
  8
0
  6
CONTINUOUS
 62
     3
 10
139.639999999
 20
71.260000003
 40
2.0
 50
203.846688751
 51
270.0
  0
LINE
  8
0
  6
CONTINUOUS
 62
     3
 10
142.739999999
 20
66.660000003
 11
147.539999999
 21
66.660000003
  0
LINE
  8
0
  6
CONTINUOUS
 62
     3
 10
137.639999999
 20
71.760000003
 11
137.639999999
 21
72.760000003
  0
ARC
  8
0
  6
CONTINUOUS
 62
     3
 10
142.739999999
 20
72.760000003
 40
5.1
 50
90.0
 51
180.0
  0
LINE
  8
0
  6
CONTINUOUS
 62
     3
 10
146.289999999
 20
76.310000003
 11
146.289999999
 21
75.310000003
  0
LINE
  8
0
  6
CONTINUOUS
 62
     3
 10
143.989999999
 20
76.310000003
 11
143.989999999
 21
75.310000003
  0
ARC
  8
0
  6
CONTINUOUS
 62
     3
 10
145.139999999
 20
75.810000003
 40
1.1
 50
312.98588608
 51
227.01411392
  0
ARC
  8
0
  6
CONTINUOUS
 62
     3
 10
145.139999999
 20
75.310000003
 40
1.15
 50
310.705706831
 51
0.0
  0
ARC
  8
0
  6
CONTINUOUS
 62
     3
 10
145.139999999
 20
75.310000003
 40
1.15
 50
180.0
 51
229.294293169
  0
LINE
  8
0
  6
CONTINUOUS
 62
     3
 10
145.889999999
 20
71.260000003
 11
145.889999999
 21
75.005326156
  0
LINE
  8
0
  6
CONTINUOUS
 62
     3
 10
144.389999999
 20
75.005326156
 11
144.389999999
 21
71.260000003
  0
LINE
  8
0
  6
CONTINUOUS
 62
     3
 10
147.54
 20
77.860000003
 11
142.74
 21
77.860000003
  0
ARC
  8
0
  6
CONTINUOUS
 62
     3
 10
145.139999999
 20
76.310000003
 40
1.15
 50
0.0
 51
180.0
  0
TEXT
  8
0
  6
CONTINUOUS
 62
     4
 10
165.872500001
 20
181.72
 30
0.0
 40
3.2
  1
９６～９８（スライド）
 50
0.0
 41
0.84375
 51
0.0
  7
KANJI3
  0
TEXT
  8
0
  6
CONTINUOUS
 62
     4
 10
316.743698671
 20
152.508685586
 30
-0.48
 40
2.16
  1
Ｎ　Ｃ
 50
0.0
 41
1.0
 51
0.0
  7
KANJI2
  0
LINE
  8
0
  6
CONTINUOUS
 62
     4
 10
323.336384247
 20
152.088685586
 11
323.336384247
 21
150.888685586
  0
LINE
  8
0
  6
CONTINUOUS
 62
     4
 10
314.636384247
 20
152.088685586
 11
323.336384247
 21
152.088685586
  0
LINE
  8
0
  6
CONTINUOUS
 62
     4
 10
314.636384247
 20
152.088685586
 11
316.127698671
 21
152.088685586
  0
LINE
  8
0
  6
CONTINUOUS
 62
     4
 10
314.636384247
 20
150.888685586
 11
314.636384247
 21
152.088685586
  0
LINE
  8
0
  6
CONTINUOUS
 62
     4
 10
340.736384247
 20
152.088685586
 11
340.736384247
 21
150.888685586
  0
LINE
  8
0
  6
CONTINUOUS
 62
     4
 10
332.036384247
 20
152.088685586
 11
340.736384247
 21
152.088685586
  0
LINE
  8
0
  6
CONTINUOUS
 62
     4
 10
332.036384247
 20
150.888685586
 11
332.036384247
 21
152.088685586
  0
TEXT
  8
0
  6
CONTINUOUS
 62
     4
 10
332.433698671
 20
152.508685586
 30
-0.48
 40
2.16
  1
　ＩＮ
 50
0.0
 41
1.0
 51
0.0
  7
KANJI2
  0
TEXT
  8
0
  6
CONTINUOUS
 62
     4
 10
330.089069823
 20
136.128685586
 30
-0.48
 40
2.16
  1
（＋）
 50
0.0
 41
1.0
 51
0.0
  7
KANJI2
  0
TEXT
  8
0
  6
CONTINUOUS
 62
     4
 10
338.289069823
 20
136.198685586
 30
-0.48
 40
2.16
  1
（－）
 50
0.0
 41
1.0
 51
0.0
  7
KANJI2
  0
ENDSEC
  0
EOF
