  0
SECTION
  2
HEADER
  9
$ACADVER
  1
AC1015
  9
$ACADMAINTVER
 70
     6
  9
$DWGCODEPAGE
  3
ANSI_932
  9
$INSBASE
 10
0.0
 20
0.0
 30
0.0
  9
$EXTMIN
 10
45.2
 20
45.49999999999999
 30
0.0
  9
$EXTMAX
 10
397.3
 20
277.0124999999998
 30
0.3
  9
$LIMMIN
 10
0.0
 20
0.0
  9
$LIMMAX
 10
12.0
 20
9.0
  9
$ORTHOMODE
 70
     0
  9
$REGENMODE
 70
     1
  9
$FILLMODE
 70
     1
  9
$QTEXTMODE
 70
     0
  9
$MIRRTEXT
 70
     1
  9
$LTSCALE
 40
1.0
  9
$ATTMODE
 70
     1
  9
$TEXTSIZE
 40
0.2
  9
$TRACEWID
 40
0.05
  9
$TEXTSTYLE
  7
STANDARD
  9
$CLAYER
  8
0
  9
$CELTYPE
  6
CONTINUOUS
  9
$CECOLOR
 62
   256
  9
$CELTSCALE
 40
1.0
  9
$DISPSILH
 70
     0
  9
$DIMSCALE
 40
1.0
  9
$DIMASZ
 40
0.18
  9
$DIMEXO
 40
0.0625
  9
$DIMDLI
 40
0.38
  9
$DIMRND
 40
0.0
  9
$DIMDLE
 40
0.0
  9
$DIMEXE
 40
0.18
  9
$DIMTP
 40
0.0
  9
$DIMTM
 40
0.0
  9
$DIMTXT
 40
0.18
  9
$DIMCEN
 40
0.09
  9
$DIMTSZ
 40
0.0
  9
$DIMTOL
 70
     0
  9
$DIMLIM
 70
     0
  9
$DIMTIH
 70
     1
  9
$DIMTOH
 70
     1
  9
$DIMSE1
 70
     0
  9
$DIMSE2
 70
     0
  9
$DIMTAD
 70
     0
  9
$DIMZIN
 70
     0
  9
$DIMBLK
  1

  9
$DIMASO
 70
     1
  9
$DIMSHO
 70
     1
  9
$DIMPOST
  1

  9
$DIMAPOST
  1

  9
$DIMALT
 70
     0
  9
$DIMALTD
 70
     2
  9
$DIMALTF
 40
25.4
  9
$DIMLFAC
 40
1.0
  9
$DIMTOFL
 70
     0
  9
$DIMTVP
 40
0.0
  9
$DIMTIX
 70
     0
  9
$DIMSOXD
 70
     0
  9
$DIMSAH
 70
     0
  9
$DIMBLK1
  1

  9
$DIMBLK2
  1

  9
$DIMSTYLE
  2
STANDARD
  9
$DIMCLRD
 70
     0
  9
$DIMCLRE
 70
     0
  9
$DIMCLRT
 70
     0
  9
$DIMTFAC
 40
1.0
  9
$DIMGAP
 40
0.09
  9
$DIMJUST
 70
     0
  9
$DIMSD1
 70
     0
  9
$DIMSD2
 70
     0
  9
$DIMTOLJ
 70
     1
  9
$DIMTZIN
 70
     0
  9
$DIMALTZ
 70
     0
  9
$DIMALTTZ
 70
     0
  9
$DIMUPT
 70
     0
  9
$DIMDEC
 70
     4
  9
$DIMTDEC
 70
     4
  9
$DIMALTU
 70
     2
  9
$DIMALTTD
 70
     2
  9
$DIMTXSTY
  7
STANDARD
  9
$DIMAUNIT
 70
     0
  9
$DIMADEC
 70
     0
  9
$DIMALTRND
 40
0.0
  9
$DIMAZIN
 70
     0
  9
$DIMDSEP
 70
    46
  9
$DIMATFIT
 70
     3
  9
$DIMFRAC
 70
     0
  9
$DIMLDRBLK
  1

  9
$DIMLUNIT
 70
     2
  9
$DIMLWD
 70
    -2
  9
$DIMLWE
 70
    -2
  9
$DIMTMOVE
 70
     0
  9
$LUNITS
 70
     2
  9
$LUPREC
 70
     4
  9
$SKETCHINC
 40
0.1
  9
$FILLETRAD
 40
0.0
  9
$AUNITS
 70
     0
  9
$AUPREC
 70
     0
  9
$MENU
  1
.
  9
$ELEVATION
 40
0.0
  9
$PELEVATION
 40
0.0
  9
$THICKNESS
 40
0.0
  9
$LIMCHECK
 70
     0
  9
$CHAMFERA
 40
0.0
  9
$CHAMFERB
 40
0.0
  9
$CHAMFERC
 40
0.0
  9
$CHAMFERD
 40
0.0
  9
$SKPOLY
 70
     0
  9
$TDCREATE
 40
2452152.842921689
  9
$TDUCREATE
 40
2452152.467921689
  9
$TDUPDATE
 40
2452723.620380902
  9
$TDUUPDATE
 40
2452723.245380902
  9
$TDINDWG
 40
0.0150887731
  9
$TDUSRTIMER
 40
0.0150865625
  9
$USRTIMER
 70
     1
  9
$ANGBASE
 50
0.0
  9
$ANGDIR
 70
     0
  9
$PDMODE
 70
     0
  9
$PDSIZE
 40
0.0
  9
$PLINEWID
 40
0.0
  9
$SPLFRAME
 70
     0
  9
$SPLINETYPE
 70
     6
  9
$SPLINESEGS
 70
     8
  9
$HANDSEED
  5
C25
  9
$SURFTAB1
 70
     6
  9
$SURFTAB2
 70
     6
  9
$SURFTYPE
 70
     6
  9
$SURFU
 70
     6
  9
$SURFV
 70
     6
  9
$UCSBASE
  2

  9
$UCSNAME
  2

  9
$UCSORG
 10
0.0
 20
0.0
 30
0.0
  9
$UCSXDIR
 10
1.0
 20
0.0
 30
0.0
  9
$UCSYDIR
 10
0.0
 20
1.0
 30
0.0
  9
$UCSORTHOREF
  2

  9
$UCSORTHOVIEW
 70
     0
  9
$UCSORGTOP
 10
0.0
 20
0.0
 30
0.0
  9
$UCSORGBOTTOM
 10
0.0
 20
0.0
 30
0.0
  9
$UCSORGLEFT
 10
0.0
 20
0.0
 30
0.0
  9
$UCSORGRIGHT
 10
0.0
 20
0.0
 30
0.0
  9
$UCSORGFRONT
 10
0.0
 20
0.0
 30
0.0
  9
$UCSORGBACK
 10
0.0
 20
0.0
 30
0.0
  9
$PUCSBASE
  2

  9
$PUCSNAME
  2

  9
$PUCSORG
 10
0.0
 20
0.0
 30
0.0
  9
$PUCSXDIR
 10
1.0
 20
0.0
 30
0.0
  9
$PUCSYDIR
 10
0.0
 20
1.0
 30
0.0
  9
$PUCSORTHOREF
  2

  9
$PUCSORTHOVIEW
 70
     0
  9
$PUCSORGTOP
 10
0.0
 20
0.0
 30
0.0
  9
$PUCSORGBOTTOM
 10
0.0
 20
0.0
 30
0.0
  9
$PUCSORGLEFT
 10
0.0
 20
0.0
 30
0.0
  9
$PUCSORGRIGHT
 10
0.0
 20
0.0
 30
0.0
  9
$PUCSORGFRONT
 10
0.0
 20
0.0
 30
0.0
  9
$PUCSORGBACK
 10
0.0
 20
0.0
 30
0.0
  9
$USERI1
 70
     0
  9
$USERI2
 70
     0
  9
$USERI3
 70
     0
  9
$USERI4
 70
     0
  9
$USERI5
 70
     0
  9
$USERR1
 40
0.0
  9
$USERR2
 40
0.0
  9
$USERR3
 40
0.0
  9
$USERR4
 40
0.0
  9
$USERR5
 40
0.0
  9
$WORLDVIEW
 70
     1
  9
$SHADEDGE
 70
     3
  9
$SHADEDIF
 70
    70
  9
$TILEMODE
 70
     1
  9
$MAXACTVP
 70
    64
  9
$PINSBASE
 10
0.0
 20
0.0
 30
0.0
  9
$PLIMCHECK
 70
     0
  9
$PEXTMIN
 10
1.000000000000000E+20
 20
1.000000000000000E+20
 30
1.000000000000000E+20
  9
$PEXTMAX
 10
-1.000000000000000E+20
 20
-1.000000000000000E+20
 30
-1.000000000000000E+20
  9
$PLIMMIN
 10
0.0
 20
0.0
  9
$PLIMMAX
 10
12.0
 20
9.0
  9
$UNITMODE
 70
     0
  9
$VISRETAIN
 70
     1
  9
$PLINEGEN
 70
     0
  9
$PSLTSCALE
 70
     1
  9
$TREEDEPTH
 70
  3020
  9
$CMLSTYLE
  2
Standard
  9
$CMLJUST
 70
     0
  9
$CMLSCALE
 40
1.0
  9
$PROXYGRAPHICS
 70
     1
  9
$MEASUREMENT
 70
     0
  9
$CELWEIGHT
370
    -1
  9
$ENDCAPS
280
     0
  9
$JOINSTYLE
280
     0
  9
$LWDISPLAY
290
     0
  9
$INSUNITS
 70
     0
  9
$HYPERLINKBASE
  1

  9
$STYLESHEET
  1

  9
$XEDIT
290
     1
  9
$CEPSNTYPE
380
     0
  9
$PSTYLEMODE
290
     1
  9
$FINGERPRINTGUID
  2
{1E0AC0FB-A351-4F83-84C0-5160CD19E608}
  9
$VERSIONGUID
  2
{7F459417-5E06-11D7-9C19-0040267F10D4}
  9
$EXTNAMES
290
     1
  9
$PSVPSCALE
 40
0.0
  9
$OLESTARTUP
290
     0
  0
ENDSEC
  0
SECTION
  2
CLASSES
  0
CLASS
  1
ACDBDICTIONARYWDFLT
  2
AcDbDictionaryWithDefault
  3
AutoCAD 2000
 90
        0
280
     0
281
     0
  0
CLASS
  1
ACDBPLACEHOLDER
  2
AcDbPlaceHolder
  3
AutoCAD 2000
 90
        0
280
     0
281
     0
  0
CLASS
  1
LAYOUT
  2
AcDbLayout
  3
AutoCAD 2000
 90
        0
280
     0
281
     0
  0
ENDSEC
  0
SECTION
  2
TABLES
  0
TABLE
  2
VPORT
  5
614
330
0
100
AcDbSymbolTable
 70
     3
  0
VPORT
  5
C24
330
614
100
AcDbSymbolTableRecord
100
AcDbViewportTableRecord
  2
*Active
 70
     0
 10
0.0
 20
0.0
 11
1.0
 21
1.0
 12
310.4840488231349
 22
178.1477191352436
 13
0.0
 23
0.0
 14
1.0
 24
1.0
 15
0.0
 25
0.0
 16
0.0
 26
0.0
 36
1.0
 17
0.0
 27
0.0
 37
0.0
 40
285.0291017372548
 41
2.210374639769452
 42
50.0
 43
0.0
 44
0.0
 50
0.0
 51
0.0
 71
     0
 72
   100
 73
     1
 74
     1
 75
     0
 76
     0
 77
     0
 78
     0
281
     0
 65
     0
110
0.0
120
0.0
130
0.0
111
1.0
121
0.0
131
0.0
112
0.0
122
1.0
132
0.0
 79
     0
146
0.0
  0
ENDTAB
  0
TABLE
  2
LTYPE
  5
611
330
0
100
AcDbSymbolTable
 70
     3
  0
LTYPE
  5
61F
330
611
100
AcDbSymbolTableRecord
100
AcDbLinetypeTableRecord
  2
ByBlock
 70
     0
  3

 72
    65
 73
     0
 40
0.0
  0
LTYPE
  5
620
330
611
100
AcDbSymbolTableRecord
100
AcDbLinetypeTableRecord
  2
ByLayer
 70
     0
  3

 72
    65
 73
     0
 40
0.0
  0
LTYPE
  5
621
330
611
100
AcDbSymbolTableRecord
100
AcDbLinetypeTableRecord
  2
CONTINUOUS
 70
     0
  3
Solid line
 72
    65
 73
     0
 40
0.0
  0
LTYPE
  5
62F
330
611
100
AcDbSymbolTableRecord
100
AcDbLinetypeTableRecord
  2
LTYPE1
 70
     0
  3
CENTER
 72
    65
 73
     4
 40
10.0
 49
7.0
 74
     0
 49
-1.0
 74
     0
 49
1.0
 74
     0
 49
-1.0
 74
     0
  0
LTYPE
  5
630
330
611
100
AcDbSymbolTableRecord
100
AcDbLinetypeTableRecord
  2
LTYPE2
 70
     0
  3
HIDDEN
 72
    65
 73
     2
 40
3.0
 49
1.8
 74
     0
 49
-1.199999999999999
 74
     0
  0
ENDTAB
  0
TABLE
  2
LAYER
  5
60E
330
0
100
AcDbSymbolTable
 70
   128
  0
LAYER
  5
61C
330
60E
100
AcDbSymbolTableRecord
100
AcDbLayerTableRecord
  2
0
 70
     0
 62
     7
  6
CONTINUOUS
370
    -3
390
61B
  0
LAYER
  5
631
330
60E
100
AcDbSymbolTableRecord
100
AcDbLayerTableRecord
  2
1
 70
     0
 62
     7
  6
CONTINUOUS
370
    -3
390
61B
  0
LAYER
  5
632
330
60E
100
AcDbSymbolTableRecord
100
AcDbLayerTableRecord
  2
2
 70
     0
 62
     7
  6
CONTINUOUS
370
    -3
390
61B
  0
LAYER
  5
633
330
60E
100
AcDbSymbolTableRecord
100
AcDbLayerTableRecord
  2
3
 70
     0
 62
     7
  6
CONTINUOUS
370
    -3
390
61B
  0
LAYER
  5
634
330
60E
100
AcDbSymbolTableRecord
100
AcDbLayerTableRecord
  2
4
 70
     0
 62
     7
  6
CONTINUOUS
370
    -3
390
61B
  0
LAYER
  5
635
330
60E
100
AcDbSymbolTableRecord
100
AcDbLayerTableRecord
  2
5
 70
     0
 62
     7
  6
CONTINUOUS
370
    -3
390
61B
  0
LAYER
  5
636
330
60E
100
AcDbSymbolTableRecord
100
AcDbLayerTableRecord
  2
6
 70
     0
 62
     7
  6
CONTINUOUS
370
    -3
390
61B
  0
LAYER
  5
637
330
60E
100
AcDbSymbolTableRecord
100
AcDbLayerTableRecord
  2
7
 70
     0
 62
     7
  6
CONTINUOUS
370
    -3
390
61B
  0
LAYER
  5
638
330
60E
100
AcDbSymbolTableRecord
100
AcDbLayerTableRecord
  2
8
 70
     0
 62
     7
  6
CONTINUOUS
370
    -3
390
61B
  0
LAYER
  5
639
330
60E
100
AcDbSymbolTableRecord
100
AcDbLayerTableRecord
  2
9
 70
     0
 62
     7
  6
CONTINUOUS
370
    -3
390
61B
  0
LAYER
  5
63A
330
60E
100
AcDbSymbolTableRecord
100
AcDbLayerTableRecord
  2
10
 70
     0
 62
     7
  6
CONTINUOUS
370
    -3
390
61B
  0
LAYER
  5
63B
330
60E
100
AcDbSymbolTableRecord
100
AcDbLayerTableRecord
  2
11
 70
     0
 62
     7
  6
CONTINUOUS
370
    -3
390
61B
  0
LAYER
  5
63C
330
60E
100
AcDbSymbolTableRecord
100
AcDbLayerTableRecord
  2
12
 70
     0
 62
     7
  6
CONTINUOUS
370
    -3
390
61B
  0
LAYER
  5
63D
330
60E
100
AcDbSymbolTableRecord
100
AcDbLayerTableRecord
  2
13
 70
     0
 62
     7
  6
CONTINUOUS
370
    -3
390
61B
  0
LAYER
  5
63E
330
60E
100
AcDbSymbolTableRecord
100
AcDbLayerTableRecord
  2
14
 70
     0
 62
     7
  6
CONTINUOUS
370
    -3
390
61B
  0
LAYER
  5
63F
330
60E
100
AcDbSymbolTableRecord
100
AcDbLayerTableRecord
  2
15
 70
     0
 62
     7
  6
CONTINUOUS
370
    -3
390
61B
  0
LAYER
  5
640
330
60E
100
AcDbSymbolTableRecord
100
AcDbLayerTableRecord
  2
16
 70
     0
 62
     7
  6
CONTINUOUS
370
    -3
390
61B
  0
LAYER
  5
641
330
60E
100
AcDbSymbolTableRecord
100
AcDbLayerTableRecord
  2
17
 70
     0
 62
     7
  6
CONTINUOUS
370
    -3
390
61B
  0
LAYER
  5
642
330
60E
100
AcDbSymbolTableRecord
100
AcDbLayerTableRecord
  2
18
 70
     0
 62
     7
  6
CONTINUOUS
370
    -3
390
61B
  0
LAYER
  5
643
330
60E
100
AcDbSymbolTableRecord
100
AcDbLayerTableRecord
  2
19
 70
     0
 62
     7
  6
CONTINUOUS
370
    -3
390
61B
  0
LAYER
  5
644
330
60E
100
AcDbSymbolTableRecord
100
AcDbLayerTableRecord
  2
20
 70
     0
 62
     7
  6
CONTINUOUS
370
    -3
390
61B
  0
LAYER
  5
645
330
60E
100
AcDbSymbolTableRecord
100
AcDbLayerTableRecord
  2
21
 70
     0
 62
     7
  6
CONTINUOUS
370
    -3
390
61B
  0
LAYER
  5
646
330
60E
100
AcDbSymbolTableRecord
100
AcDbLayerTableRecord
  2
22
 70
     0
 62
     7
  6
CONTINUOUS
370
    -3
390
61B
  0
LAYER
  5
647
330
60E
100
AcDbSymbolTableRecord
100
AcDbLayerTableRecord
  2
23
 70
     0
 62
     7
  6
CONTINUOUS
370
    -3
390
61B
  0
LAYER
  5
648
330
60E
100
AcDbSymbolTableRecord
100
AcDbLayerTableRecord
  2
24
 70
     0
 62
     7
  6
CONTINUOUS
370
    -3
390
61B
  0
LAYER
  5
649
330
60E
100
AcDbSymbolTableRecord
100
AcDbLayerTableRecord
  2
25
 70
     0
 62
     7
  6
CONTINUOUS
370
    -3
390
61B
  0
LAYER
  5
64A
330
60E
100
AcDbSymbolTableRecord
100
AcDbLayerTableRecord
  2
26
 70
     0
 62
     7
  6
CONTINUOUS
370
    -3
390
61B
  0
LAYER
  5
64B
330
60E
100
AcDbSymbolTableRecord
100
AcDbLayerTableRecord
  2
27
 70
     0
 62
     7
  6
CONTINUOUS
370
    -3
390
61B
  0
LAYER
  5
64C
330
60E
100
AcDbSymbolTableRecord
100
AcDbLayerTableRecord
  2
28
 70
     0
 62
     7
  6
CONTINUOUS
370
    -3
390
61B
  0
LAYER
  5
64D
330
60E
100
AcDbSymbolTableRecord
100
AcDbLayerTableRecord
  2
29
 70
     0
 62
     7
  6
CONTINUOUS
370
    -3
390
61B
  0
LAYER
  5
64E
330
60E
100
AcDbSymbolTableRecord
100
AcDbLayerTableRecord
  2
30
 70
     0
 62
     7
  6
CONTINUOUS
370
    -3
390
61B
  0
LAYER
  5
64F
330
60E
100
AcDbSymbolTableRecord
100
AcDbLayerTableRecord
  2
31
 70
     0
 62
     7
  6
CONTINUOUS
370
    -3
390
61B
  0
LAYER
  5
650
330
60E
100
AcDbSymbolTableRecord
100
AcDbLayerTableRecord
  2
32
 70
     0
 62
     7
  6
CONTINUOUS
370
    -3
390
61B
  0
LAYER
  5
651
330
60E
100
AcDbSymbolTableRecord
100
AcDbLayerTableRecord
  2
33
 70
     0
 62
     7
  6
CONTINUOUS
370
    -3
390
61B
  0
LAYER
  5
652
330
60E
100
AcDbSymbolTableRecord
100
AcDbLayerTableRecord
  2
34
 70
     0
 62
     7
  6
CONTINUOUS
370
    -3
390
61B
  0
LAYER
  5
653
330
60E
100
AcDbSymbolTableRecord
100
AcDbLayerTableRecord
  2
35
 70
     0
 62
     7
  6
CONTINUOUS
370
    -3
390
61B
  0
LAYER
  5
654
330
60E
100
AcDbSymbolTableRecord
100
AcDbLayerTableRecord
  2
36
 70
     0
 62
     7
  6
CONTINUOUS
370
    -3
390
61B
  0
LAYER
  5
655
330
60E
100
AcDbSymbolTableRecord
100
AcDbLayerTableRecord
  2
37
 70
     0
 62
     7
  6
CONTINUOUS
370
    -3
390
61B
  0
LAYER
  5
656
330
60E
100
AcDbSymbolTableRecord
100
AcDbLayerTableRecord
  2
38
 70
     0
 62
     7
  6
CONTINUOUS
370
    -3
390
61B
  0
LAYER
  5
657
330
60E
100
AcDbSymbolTableRecord
100
AcDbLayerTableRecord
  2
39
 70
     0
 62
     7
  6
CONTINUOUS
370
    -3
390
61B
  0
LAYER
  5
658
330
60E
100
AcDbSymbolTableRecord
100
AcDbLayerTableRecord
  2
40
 70
     0
 62
     7
  6
CONTINUOUS
370
    -3
390
61B
  0
LAYER
  5
659
330
60E
100
AcDbSymbolTableRecord
100
AcDbLayerTableRecord
  2
41
 70
     0
 62
     7
  6
CONTINUOUS
370
    -3
390
61B
  0
LAYER
  5
65A
330
60E
100
AcDbSymbolTableRecord
100
AcDbLayerTableRecord
  2
42
 70
     0
 62
     7
  6
CONTINUOUS
370
    -3
390
61B
  0
LAYER
  5
65B
330
60E
100
AcDbSymbolTableRecord
100
AcDbLayerTableRecord
  2
43
 70
     0
 62
     7
  6
CONTINUOUS
370
    -3
390
61B
  0
LAYER
  5
65C
330
60E
100
AcDbSymbolTableRecord
100
AcDbLayerTableRecord
  2
44
 70
     0
 62
     7
  6
CONTINUOUS
370
    -3
390
61B
  0
LAYER
  5
65D
330
60E
100
AcDbSymbolTableRecord
100
AcDbLayerTableRecord
  2
45
 70
     0
 62
     7
  6
CONTINUOUS
370
    -3
390
61B
  0
LAYER
  5
65E
330
60E
100
AcDbSymbolTableRecord
100
AcDbLayerTableRecord
  2
46
 70
     0
 62
     7
  6
CONTINUOUS
370
    -3
390
61B
  0
LAYER
  5
65F
330
60E
100
AcDbSymbolTableRecord
100
AcDbLayerTableRecord
  2
47
 70
     0
 62
     7
  6
CONTINUOUS
370
    -3
390
61B
  0
LAYER
  5
660
330
60E
100
AcDbSymbolTableRecord
100
AcDbLayerTableRecord
  2
48
 70
     0
 62
     7
  6
CONTINUOUS
370
    -3
390
61B
  0
LAYER
  5
661
330
60E
100
AcDbSymbolTableRecord
100
AcDbLayerTableRecord
  2
49
 70
     0
 62
     7
  6
CONTINUOUS
370
    -3
390
61B
  0
LAYER
  5
662
330
60E
100
AcDbSymbolTableRecord
100
AcDbLayerTableRecord
  2
50
 70
     0
 62
     7
  6
CONTINUOUS
370
    -3
390
61B
  0
LAYER
  5
663
330
60E
100
AcDbSymbolTableRecord
100
AcDbLayerTableRecord
  2
51
 70
     0
 62
     7
  6
CONTINUOUS
370
    -3
390
61B
  0
LAYER
  5
664
330
60E
100
AcDbSymbolTableRecord
100
AcDbLayerTableRecord
  2
52
 70
     0
 62
     7
  6
CONTINUOUS
370
    -3
390
61B
  0
LAYER
  5
665
330
60E
100
AcDbSymbolTableRecord
100
AcDbLayerTableRecord
  2
53
 70
     0
 62
     7
  6
CONTINUOUS
370
    -3
390
61B
  0
LAYER
  5
666
330
60E
100
AcDbSymbolTableRecord
100
AcDbLayerTableRecord
  2
54
 70
     0
 62
     7
  6
CONTINUOUS
370
    -3
390
61B
  0
LAYER
  5
667
330
60E
100
AcDbSymbolTableRecord
100
AcDbLayerTableRecord
  2
55
 70
     0
 62
     7
  6
CONTINUOUS
370
    -3
390
61B
  0
LAYER
  5
668
330
60E
100
AcDbSymbolTableRecord
100
AcDbLayerTableRecord
  2
56
 70
     0
 62
     7
  6
CONTINUOUS
370
    -3
390
61B
  0
LAYER
  5
669
330
60E
100
AcDbSymbolTableRecord
100
AcDbLayerTableRecord
  2
57
 70
     0
 62
     7
  6
CONTINUOUS
370
    -3
390
61B
  0
LAYER
  5
66A
330
60E
100
AcDbSymbolTableRecord
100
AcDbLayerTableRecord
  2
58
 70
     0
 62
     7
  6
CONTINUOUS
370
    -3
390
61B
  0
LAYER
  5
66B
330
60E
100
AcDbSymbolTableRecord
100
AcDbLayerTableRecord
  2
59
 70
     0
 62
     7
  6
CONTINUOUS
370
    -3
390
61B
  0
LAYER
  5
66C
330
60E
100
AcDbSymbolTableRecord
100
AcDbLayerTableRecord
  2
60
 70
     0
 62
     7
  6
CONTINUOUS
370
    -3
390
61B
  0
LAYER
  5
66D
330
60E
100
AcDbSymbolTableRecord
100
AcDbLayerTableRecord
  2
61
 70
     0
 62
     7
  6
CONTINUOUS
370
    -3
390
61B
  0
LAYER
  5
66E
330
60E
100
AcDbSymbolTableRecord
100
AcDbLayerTableRecord
  2
62
 70
     0
 62
     7
  6
CONTINUOUS
370
    -3
390
61B
  0
LAYER
  5
66F
330
60E
100
AcDbSymbolTableRecord
100
AcDbLayerTableRecord
  2
63
 70
     0
 62
     7
  6
CONTINUOUS
370
    -3
390
61B
  0
LAYER
  5
670
330
60E
100
AcDbSymbolTableRecord
100
AcDbLayerTableRecord
  2
64
 70
     0
 62
     7
  6
CONTINUOUS
370
    -3
390
61B
  0
LAYER
  5
671
330
60E
100
AcDbSymbolTableRecord
100
AcDbLayerTableRecord
  2
65
 70
     0
 62
     7
  6
CONTINUOUS
370
    -3
390
61B
  0
LAYER
  5
672
330
60E
100
AcDbSymbolTableRecord
100
AcDbLayerTableRecord
  2
66
 70
     0
 62
     7
  6
CONTINUOUS
370
    -3
390
61B
  0
LAYER
  5
673
330
60E
100
AcDbSymbolTableRecord
100
AcDbLayerTableRecord
  2
67
 70
     0
 62
     7
  6
CONTINUOUS
370
    -3
390
61B
  0
LAYER
  5
674
330
60E
100
AcDbSymbolTableRecord
100
AcDbLayerTableRecord
  2
68
 70
     0
 62
     7
  6
CONTINUOUS
370
    -3
390
61B
  0
LAYER
  5
675
330
60E
100
AcDbSymbolTableRecord
100
AcDbLayerTableRecord
  2
69
 70
     0
 62
     7
  6
CONTINUOUS
370
    -3
390
61B
  0
LAYER
  5
676
330
60E
100
AcDbSymbolTableRecord
100
AcDbLayerTableRecord
  2
70
 70
     0
 62
     7
  6
CONTINUOUS
370
    -3
390
61B
  0
LAYER
  5
677
330
60E
100
AcDbSymbolTableRecord
100
AcDbLayerTableRecord
  2
71
 70
     0
 62
     7
  6
CONTINUOUS
370
    -3
390
61B
  0
LAYER
  5
678
330
60E
100
AcDbSymbolTableRecord
100
AcDbLayerTableRecord
  2
72
 70
     0
 62
     7
  6
CONTINUOUS
370
    -3
390
61B
  0
LAYER
  5
679
330
60E
100
AcDbSymbolTableRecord
100
AcDbLayerTableRecord
  2
73
 70
     0
 62
     7
  6
CONTINUOUS
370
    -3
390
61B
  0
LAYER
  5
67A
330
60E
100
AcDbSymbolTableRecord
100
AcDbLayerTableRecord
  2
74
 70
     0
 62
     7
  6
CONTINUOUS
370
    -3
390
61B
  0
LAYER
  5
67B
330
60E
100
AcDbSymbolTableRecord
100
AcDbLayerTableRecord
  2
75
 70
     0
 62
     7
  6
CONTINUOUS
370
    -3
390
61B
  0
LAYER
  5
67C
330
60E
100
AcDbSymbolTableRecord
100
AcDbLayerTableRecord
  2
76
 70
     0
 62
     7
  6
CONTINUOUS
370
    -3
390
61B
  0
LAYER
  5
67D
330
60E
100
AcDbSymbolTableRecord
100
AcDbLayerTableRecord
  2
77
 70
     0
 62
     7
  6
CONTINUOUS
370
    -3
390
61B
  0
LAYER
  5
67E
330
60E
100
AcDbSymbolTableRecord
100
AcDbLayerTableRecord
  2
78
 70
     0
 62
     7
  6
CONTINUOUS
370
    -3
390
61B
  0
LAYER
  5
67F
330
60E
100
AcDbSymbolTableRecord
100
AcDbLayerTableRecord
  2
79
 70
     0
 62
     7
  6
CONTINUOUS
370
    -3
390
61B
  0
LAYER
  5
680
330
60E
100
AcDbSymbolTableRecord
100
AcDbLayerTableRecord
  2
80
 70
     0
 62
     7
  6
CONTINUOUS
370
    -3
390
61B
  0
LAYER
  5
681
330
60E
100
AcDbSymbolTableRecord
100
AcDbLayerTableRecord
  2
81
 70
     0
 62
     7
  6
CONTINUOUS
370
    -3
390
61B
  0
LAYER
  5
682
330
60E
100
AcDbSymbolTableRecord
100
AcDbLayerTableRecord
  2
82
 70
     0
 62
     7
  6
CONTINUOUS
370
    -3
390
61B
  0
LAYER
  5
683
330
60E
100
AcDbSymbolTableRecord
100
AcDbLayerTableRecord
  2
83
 70
     0
 62
     7
  6
CONTINUOUS
370
    -3
390
61B
  0
LAYER
  5
684
330
60E
100
AcDbSymbolTableRecord
100
AcDbLayerTableRecord
  2
84
 70
     0
 62
     7
  6
CONTINUOUS
370
    -3
390
61B
  0
LAYER
  5
685
330
60E
100
AcDbSymbolTableRecord
100
AcDbLayerTableRecord
  2
85
 70
     0
 62
     7
  6
CONTINUOUS
370
    -3
390
61B
  0
LAYER
  5
686
330
60E
100
AcDbSymbolTableRecord
100
AcDbLayerTableRecord
  2
86
 70
     0
 62
     7
  6
CONTINUOUS
370
    -3
390
61B
  0
LAYER
  5
687
330
60E
100
AcDbSymbolTableRecord
100
AcDbLayerTableRecord
  2
87
 70
     0
 62
     7
  6
CONTINUOUS
370
    -3
390
61B
  0
LAYER
  5
688
330
60E
100
AcDbSymbolTableRecord
100
AcDbLayerTableRecord
  2
88
 70
     0
 62
     7
  6
CONTINUOUS
370
    -3
390
61B
  0
LAYER
  5
689
330
60E
100
AcDbSymbolTableRecord
100
AcDbLayerTableRecord
  2
89
 70
     0
 62
     7
  6
CONTINUOUS
370
    -3
390
61B
  0
LAYER
  5
68A
330
60E
100
AcDbSymbolTableRecord
100
AcDbLayerTableRecord
  2
90
 70
     0
 62
     7
  6
CONTINUOUS
370
    -3
390
61B
  0
LAYER
  5
68B
330
60E
100
AcDbSymbolTableRecord
100
AcDbLayerTableRecord
  2
91
 70
     0
 62
     7
  6
CONTINUOUS
370
    -3
390
61B
  0
LAYER
  5
68C
330
60E
100
AcDbSymbolTableRecord
100
AcDbLayerTableRecord
  2
92
 70
     0
 62
     7
  6
CONTINUOUS
370
    -3
390
61B
  0
LAYER
  5
68D
330
60E
100
AcDbSymbolTableRecord
100
AcDbLayerTableRecord
  2
93
 70
     0
 62
     7
  6
CONTINUOUS
370
    -3
390
61B
  0
LAYER
  5
68E
330
60E
100
AcDbSymbolTableRecord
100
AcDbLayerTableRecord
  2
94
 70
     0
 62
     7
  6
CONTINUOUS
370
    -3
390
61B
  0
LAYER
  5
68F
330
60E
100
AcDbSymbolTableRecord
100
AcDbLayerTableRecord
  2
95
 70
     0
 62
     7
  6
CONTINUOUS
370
    -3
390
61B
  0
LAYER
  5
690
330
60E
100
AcDbSymbolTableRecord
100
AcDbLayerTableRecord
  2
96
 70
     0
 62
     7
  6
CONTINUOUS
370
    -3
390
61B
  0
LAYER
  5
691
330
60E
100
AcDbSymbolTableRecord
100
AcDbLayerTableRecord
  2
97
 70
     0
 62
     7
  6
CONTINUOUS
370
    -3
390
61B
  0
LAYER
  5
692
330
60E
100
AcDbSymbolTableRecord
100
AcDbLayerTableRecord
  2
98
 70
     0
 62
     7
  6
CONTINUOUS
370
    -3
390
61B
  0
LAYER
  5
693
330
60E
100
AcDbSymbolTableRecord
100
AcDbLayerTableRecord
  2
99
 70
     0
 62
     7
  6
CONTINUOUS
370
    -3
390
61B
  0
LAYER
  5
694
330
60E
100
AcDbSymbolTableRecord
100
AcDbLayerTableRecord
  2
100
 70
     0
 62
     7
  6
CONTINUOUS
370
    -3
390
61B
  0
LAYER
  5
695
330
60E
100
AcDbSymbolTableRecord
100
AcDbLayerTableRecord
  2
101
 70
     0
 62
     7
  6
CONTINUOUS
370
    -3
390
61B
  0
LAYER
  5
696
330
60E
100
AcDbSymbolTableRecord
100
AcDbLayerTableRecord
  2
102
 70
     0
 62
     7
  6
CONTINUOUS
370
    -3
390
61B
  0
LAYER
  5
697
330
60E
100
AcDbSymbolTableRecord
100
AcDbLayerTableRecord
  2
103
 70
     0
 62
     7
  6
CONTINUOUS
370
    -3
390
61B
  0
LAYER
  5
698
330
60E
100
AcDbSymbolTableRecord
100
AcDbLayerTableRecord
  2
104
 70
     0
 62
     7
  6
CONTINUOUS
370
    -3
390
61B
  0
LAYER
  5
699
330
60E
100
AcDbSymbolTableRecord
100
AcDbLayerTableRecord
  2
105
 70
     0
 62
     7
  6
CONTINUOUS
370
    -3
390
61B
  0
LAYER
  5
69A
330
60E
100
AcDbSymbolTableRecord
100
AcDbLayerTableRecord
  2
106
 70
     0
 62
     7
  6
CONTINUOUS
370
    -3
390
61B
  0
LAYER
  5
69B
330
60E
100
AcDbSymbolTableRecord
100
AcDbLayerTableRecord
  2
107
 70
     0
 62
     7
  6
CONTINUOUS
370
    -3
390
61B
  0
LAYER
  5
69C
330
60E
100
AcDbSymbolTableRecord
100
AcDbLayerTableRecord
  2
108
 70
     0
 62
     7
  6
CONTINUOUS
370
    -3
390
61B
  0
LAYER
  5
69D
330
60E
100
AcDbSymbolTableRecord
100
AcDbLayerTableRecord
  2
109
 70
     0
 62
     7
  6
CONTINUOUS
370
    -3
390
61B
  0
LAYER
  5
69E
330
60E
100
AcDbSymbolTableRecord
100
AcDbLayerTableRecord
  2
110
 70
     0
 62
     7
  6
CONTINUOUS
370
    -3
390
61B
  0
LAYER
  5
69F
330
60E
100
AcDbSymbolTableRecord
100
AcDbLayerTableRecord
  2
111
 70
     0
 62
     7
  6
CONTINUOUS
370
    -3
390
61B
  0
LAYER
  5
6A0
330
60E
100
AcDbSymbolTableRecord
100
AcDbLayerTableRecord
  2
112
 70
     0
 62
     7
  6
CONTINUOUS
370
    -3
390
61B
  0
LAYER
  5
6A1
330
60E
100
AcDbSymbolTableRecord
100
AcDbLayerTableRecord
  2
113
 70
     0
 62
     7
  6
CONTINUOUS
370
    -3
390
61B
  0
LAYER
  5
6A2
330
60E
100
AcDbSymbolTableRecord
100
AcDbLayerTableRecord
  2
114
 70
     0
 62
     7
  6
CONTINUOUS
370
    -3
390
61B
  0
LAYER
  5
6A3
330
60E
100
AcDbSymbolTableRecord
100
AcDbLayerTableRecord
  2
115
 70
     0
 62
     7
  6
CONTINUOUS
370
    -3
390
61B
  0
LAYER
  5
6A4
330
60E
100
AcDbSymbolTableRecord
100
AcDbLayerTableRecord
  2
116
 70
     0
 62
     7
  6
CONTINUOUS
370
    -3
390
61B
  0
LAYER
  5
6A5
330
60E
100
AcDbSymbolTableRecord
100
AcDbLayerTableRecord
  2
117
 70
     0
 62
     7
  6
CONTINUOUS
370
    -3
390
61B
  0
LAYER
  5
6A6
330
60E
100
AcDbSymbolTableRecord
100
AcDbLayerTableRecord
  2
118
 70
     0
 62
     7
  6
CONTINUOUS
370
    -3
390
61B
  0
LAYER
  5
6A7
330
60E
100
AcDbSymbolTableRecord
100
AcDbLayerTableRecord
  2
119
 70
     0
 62
     7
  6
CONTINUOUS
370
    -3
390
61B
  0
LAYER
  5
6A8
330
60E
100
AcDbSymbolTableRecord
100
AcDbLayerTableRecord
  2
120
 70
     0
 62
     7
  6
CONTINUOUS
370
    -3
390
61B
  0
LAYER
  5
6A9
330
60E
100
AcDbSymbolTableRecord
100
AcDbLayerTableRecord
  2
121
 70
     0
 62
     7
  6
CONTINUOUS
370
    -3
390
61B
  0
LAYER
  5
6AA
330
60E
100
AcDbSymbolTableRecord
100
AcDbLayerTableRecord
  2
122
 70
     0
 62
     7
  6
CONTINUOUS
370
    -3
390
61B
  0
LAYER
  5
6AB
330
60E
100
AcDbSymbolTableRecord
100
AcDbLayerTableRecord
  2
123
 70
     0
 62
     7
  6
CONTINUOUS
370
    -3
390
61B
  0
LAYER
  5
6AC
330
60E
100
AcDbSymbolTableRecord
100
AcDbLayerTableRecord
  2
124
 70
     0
 62
     7
  6
CONTINUOUS
370
    -3
390
61B
  0
LAYER
  5
6AD
330
60E
100
AcDbSymbolTableRecord
100
AcDbLayerTableRecord
  2
125
 70
     0
 62
     7
  6
CONTINUOUS
370
    -3
390
61B
  0
LAYER
  5
6AE
330
60E
100
AcDbSymbolTableRecord
100
AcDbLayerTableRecord
  2
126
 70
     0
 62
     7
  6
CONTINUOUS
370
    -3
390
61B
  0
LAYER
  5
6AF
330
60E
100
AcDbSymbolTableRecord
100
AcDbLayerTableRecord
  2
127
 70
     0
 62
     7
  6
CONTINUOUS
370
    -3
390
61B
  0
ENDTAB
  0
TABLE
  2
STYLE
  5
60F
330
0
100
AcDbSymbolTable
 70
    14
  0
STYLE
  5
61D
330
60F
100
AcDbSymbolTableRecord
100
AcDbTextStyleTableRecord
  2
STANDARD
 70
     0
 40
0.0
 41
1.0
 50
0.0
 71
     0
 42
0.2
  3
txt
  4

  0
STYLE
  5
6B0
330
60F
100
AcDbSymbolTableRecord
100
AcDbTextStyleTableRecord
  2
KANJI0
 70
     0
 40
2.5
 41
0.8
 50
0.0
 71
     0
 42
2.5
  3
txt
  4
bigfont
  0
STYLE
  5
6B1
330
60F
100
AcDbSymbolTableRecord
100
AcDbTextStyleTableRecord
  2
KANJI1
 70
     0
 40
2.5
 41
0.8
 50
0.0
 71
     0
 42
2.5
  3
txt
  4
bigfont
  0
STYLE
  5
6B2
330
60F
100
AcDbSymbolTableRecord
100
AcDbTextStyleTableRecord
  2
KANJI2
 70
     0
 40
3.0
 41
0.833333333
 50
0.0
 71
     0
 42
3.0
  3
txt
  4
bigfont
  0
STYLE
  5
6B3
330
60F
100
AcDbSymbolTableRecord
100
AcDbTextStyleTableRecord
  2
KANJI3
 70
     0
 40
1.0
 41
0.7
 50
0.0
 71
     0
 42
1.0
  3
txt
  4
bigfont
  0
STYLE
  5
6B4
330
60F
100
AcDbSymbolTableRecord
100
AcDbTextStyleTableRecord
  2
KANJI4
 70
     0
 40
0.5
 41
0.7
 50
0.0
 71
     0
 42
0.5
  3
txt
  4
bigfont
  0
STYLE
  5
6B5
330
60F
100
AcDbSymbolTableRecord
100
AcDbTextStyleTableRecord
  2
KANJI5
 70
     0
 40
1.5
 41
0.75
 50
0.0
 71
     0
 42
1.5
  3
txt
  4
bigfont
  0
STYLE
  5
6B6
330
60F
100
AcDbSymbolTableRecord
100
AcDbTextStyleTableRecord
  2
KANJI6
 70
     0
 40
2.5
 41
0.8
 50
0.0
 71
     0
 42
2.5
  3
txt
  4
bigfont
  0
STYLE
  5
6B7
330
60F
100
AcDbSymbolTableRecord
100
AcDbTextStyleTableRecord
  2
KANJI7
 70
     0
 40
2.759999999999998
 41
0.739130435
 50
0.0
 71
     0
 42
2.759999999999998
  3
txt
  4
bigfont
  0
STYLE
  5
6B8
330
60F
100
AcDbSymbolTableRecord
100
AcDbTextStyleTableRecord
  2
KANJI8
 70
     0
 40
2.483999999999999
 41
0.739130435
 50
0.0
 71
     0
 42
2.483999999999999
  3
txt
  4
bigfont
  0
STYLE
  5
6B9
330
60F
100
AcDbSymbolTableRecord
100
AcDbTextStyleTableRecord
  2
KANJI9
 70
     0
 40
2.483999999999999
 41
0.739130435
 50
0.0
 71
     0
 42
2.483999999999999
  3
txt
  4
bigfont
  0
STYLE
  5
6BA
330
60F
100
AcDbSymbolTableRecord
100
AcDbTextStyleTableRecord
  2
KANJI10
 70
     0
 40
3.0
 41
0.6
 50
0.0
 71
     0
 42
3.0
  3
txt
  4
bigfont
  0
STYLE
  5
6BB
330
60F
100
AcDbSymbolTableRecord
100
AcDbTextStyleTableRecord
  2
KANJI11
 70
     0
 40
3.0
 41
0.6
 50
0.0
 71
     0
 42
3.0
  3
txt
  4
bigfont
  0
STYLE
  5
6BC
330
60F
100
AcDbSymbolTableRecord
100
AcDbTextStyleTableRecord
  2
KANJI12
 70
     0
 40
4.0
 41
0.75
 50
0.0
 71
     0
 42
4.0
  3
txt
  4
bigfont
  0
ENDTAB
  0
TABLE
  2
VIEW
  5
612
330
0
100
AcDbSymbolTable
 70
     0
  0
ENDTAB
  0
TABLE
  2
UCS
  5
613
330
0
100
AcDbSymbolTable
 70
     0
  0
ENDTAB
  0
TABLE
  2
APPID
  5
615
330
0
100
AcDbSymbolTable
 70
     1
  0
APPID
  5
61E
330
615
100
AcDbSymbolTableRecord
100
AcDbRegAppTableRecord
  2
ACAD
 70
     0
  0
ENDTAB
  0
TABLE
  2
DIMSTYLE
  5
616
330
0
100
AcDbSymbolTable
 70
     1
100
AcDbDimStyleTable
 71
     0
  0
DIMSTYLE
105
6BD
330
616
100
AcDbSymbolTableRecord
100
AcDbDimStyleTableRecord
  2
STANDARD
 70
     0
279
     2
340
61D
  0
ENDTAB
  0
TABLE
  2
BLOCK_RECORD
  5
60D
330
0
100
AcDbSymbolTable
 70
     2
  0
BLOCK_RECORD
  5
62A
330
60D
100
AcDbSymbolTableRecord
100
AcDbBlockTableRecord
  2
*Model_Space
340
62D
  0
BLOCK_RECORD
  5
626
330
60D
100
AcDbSymbolTableRecord
100
AcDbBlockTableRecord
  2
*Paper_Space
340
629
  0
BLOCK_RECORD
  5
6C0
330
60D
100
AcDbSymbolTableRecord
100
AcDbBlockTableRecord
  2
$MODEL_SPACE
340
0
  0
BLOCK_RECORD
  5
6C3
330
60D
100
AcDbSymbolTableRecord
100
AcDbBlockTableRecord
  2
$PAPER_SPACE
340
0
  0
ENDTAB
  0
ENDSEC
  0
SECTION
  2
BLOCKS
  0
BLOCK
  5
62B
330
62A
100
AcDbEntity
  8
0
100
AcDbBlockBegin
  2
*Model_Space
 70
     0
 10
0.0
 20
0.0
 30
0.0
  3
*Model_Space
  1

  0
ENDBLK
  5
62C
330
62A
100
AcDbEntity
  8
0
100
AcDbBlockEnd
  0
BLOCK
  5
627
330
626
100
AcDbEntity
 67
     1
  8
0
100
AcDbBlockBegin
  2
*Paper_Space
 70
     0
 10
0.0
 20
0.0
 30
0.0
  3
*Paper_Space
  1

  0
ENDBLK
  5
628
330
626
100
AcDbEntity
 67
     1
  8
0
100
AcDbBlockEnd
  0
BLOCK
  5
6C1
330
6C0
100
AcDbEntity
  8
0
100
AcDbBlockBegin
  2
$MODEL_SPACE
 70
     0
 10
0.0
 20
0.0
 30
0.0
  3
$MODEL_SPACE
  1

  0
ENDBLK
  5
6C2
330
6C0
100
AcDbEntity
  8
0
100
AcDbBlockEnd
  0
BLOCK
  5
6C4
330
6C3
100
AcDbEntity
  8
0
100
AcDbBlockBegin
  2
$PAPER_SPACE
 70
     0
 10
0.0
 20
0.0
 30
0.0
  3
$PAPER_SPACE
  1

  0
ENDBLK
  5
6C5
330
6C3
100
AcDbEntity
  8
0
100
AcDbBlockEnd
  0
ENDSEC
  0
SECTION
  2
ENTITIES
  0
LINE
  5
6C6
330
62A
100
AcDbEntity
  8
0
  6
Continuous
 62
     3
100
AcDbLine
 10
64.0
 20
127.0
 30
0.0
 11
160.0
 21
127.0
 31
0.0
  0
LINE
  5
6C7
330
62A
100
AcDbEntity
  8
0
  6
Continuous
 62
     3
100
AcDbLine
 10
160.0
 20
127.0
 30
0.0
 11
160.0
 21
128.4999999999998
 31
0.0
  0
LINE
  5
6C8
330
62A
100
AcDbEntity
  8
0
  6
Continuous
 62
     3
100
AcDbLine
 10
160.0
 20
128.4999999999998
 30
0.0
 11
64.0
 21
128.4999999999998
 31
0.0
  0
LINE
  5
6C9
330
62A
100
AcDbEntity
  8
0
  6
Continuous
 62
     3
100
AcDbLine
 10
64.0
 20
128.4999999999998
 30
0.0
 11
64.0
 21
127.0
 31
0.0
  0
LINE
  5
6CA
330
62A
100
AcDbEntity
  8
0
  6
Continuous
 62
     3
100
AcDbLine
 10
64.0
 20
122.0
 30
0.0
 11
160.0
 21
122.0
 31
0.0
  0
LINE
  5
6CB
330
62A
100
AcDbEntity
  8
0
  6
Continuous
 62
     3
100
AcDbLine
 10
160.0
 20
122.0
 30
0.0
 11
160.0
 21
127.0
 31
0.0
  0
LINE
  5
6CC
330
62A
100
AcDbEntity
  8
0
  6
Continuous
 62
     3
100
AcDbLine
 10
160.0
 20
127.0
 30
0.0
 11
64.0
 21
127.0
 31
0.0
  0
LINE
  5
6CD
330
62A
100
AcDbEntity
  8
0
  6
Continuous
 62
     3
100
AcDbLine
 10
64.0
 20
127.0
 30
0.0
 11
64.0
 21
122.0
 31
0.0
  0
POINT
  5
6CE
330
62A
100
AcDbEntity
  8
0
  6
Continuous
 62
     3
100
AcDbPoint
 10
157.5
 20
198.5
 30
0.0
  0
LINE
  5
6CF
330
62A
100
AcDbEntity
  8
0
  6
Continuous
 62
     3
100
AcDbLine
 10
160.0
 20
127.0
 30
0.0
 11
64.0
 21
127.0
 31
0.0
  0
LINE
  5
6D0
330
62A
100
AcDbEntity
  8
0
  6
Continuous
 62
     3
100
AcDbLine
 10
64.0
 20
128.4999999999998
 30
0.0
 11
160.0
 21
128.4999999999998
 31
0.0
  0
LINE
  5
6D1
330
62A
100
AcDbEntity
  8
0
  6
Continuous
 62
     3
100
AcDbLine
 10
64.0
 20
127.0
 30
0.0
 11
160.0
 21
127.0
 31
0.0
  0
POINT
  5
6D2
330
62A
100
AcDbEntity
  8
0
  6
Continuous
 62
     3
100
AcDbPoint
 10
66.5
 20
199.0
 30
0.0
  0
LINE
  5
6D3
330
62A
100
AcDbEntity
  8
0
  6
Continuous
 62
     3
100
AcDbLine
 10
65.59999999999999
 20
199.0
 30
0.0
 11
66.6
 21
199.0
 31
0.0
  0
LINE
  5
6D4
330
62A
100
AcDbEntity
  8
0
  6
Continuous
 62
     3
100
AcDbLine
 10
158.4
 20
199.0
 30
0.0
 11
157.5
 21
199.0
 31
0.0
  0
LINE
  5
6D5
330
62A
100
AcDbEntity
  8
0
  6
Continuous
 62
     3
100
AcDbLine
 10
65.59999999999999
 20
128.6
 30
0.0
 11
64.0
 21
128.6
 31
0.0
  0
ARC
  5
6D6
330
62A
100
AcDbEntity
  8
0
  6
Continuous
 62
     3
100
AcDbCircle
 10
65.0
 20
199.6
 30
0.0
 40
1.0
100
AcDbArc
 50
90.0
 51
180.0
  0
LINE
  5
6D7
330
62A
100
AcDbEntity
  8
0
  6
Continuous
 62
     3
100
AcDbLine
 10
64.0
 20
128.6
 30
0.0
 11
64.0
 21
199.6
 31
0.0
  0
LINE
  5
6D8
330
62A
100
AcDbEntity
  8
0
  6
Continuous
 62
     3
100
AcDbLine
 10
65.0
 20
200.5999999999999
 30
0.0
 11
159.0
 21
200.5999999999999
 31
0.0
  0
ARC
  5
6D9
330
62A
100
AcDbEntity
  8
0
  6
Continuous
 62
     3
100
AcDbCircle
 10
159.0
 20
199.6
 30
0.0
 40
1.0
100
AcDbArc
 50
0.0
 51
90.0
  0
LINE
  5
6DA
330
62A
100
AcDbEntity
  8
0
  6
Continuous
 62
     3
100
AcDbLine
 10
160.0
 20
199.6
 30
0.0
 11
160.0
 21
128.6
 31
0.0
  0
LINE
  5
6DB
330
62A
100
AcDbEntity
  8
0
  6
Continuous
 62
     3
100
AcDbLine
 10
160.0
 20
128.6
 30
0.0
 11
158.4
 21
128.6
 31
0.0
  0
LINE
  5
6E2
330
62A
100
AcDbEntity
  8
0
  6
Continuous
 62
     3
100
AcDbLine
 10
158.0
 20
136.2125
 30
0.2
 11
156.0681483469998
 21
136.73013809
 31
0.2
  0
LINE
  5
6E3
330
62A
100
AcDbEntity
  8
0
  6
Continuous
 62
     3
100
AcDbLine
 10
158.0
 20
136.2125
 30
0.0
 11
156.0681483469998
 21
135.6948619099999
 31
0.0
  0
LINE
  5
6E4
330
62A
100
AcDbEntity
  8
0
  6
Continuous
 62
     3
100
AcDbLine
 10
66.0
 20
136.2125
 30
0.0
 11
67.93185165299999
 21
135.6948619099999
 31
0.0
  0
LINE
  5
6E5
330
62A
100
AcDbEntity
  8
0
  6
Continuous
 62
     3
100
AcDbLine
 10
66.0
 20
136.2125
 30
0.0
 11
67.93185165299999
 21
136.73013809
 31
0.0
  0
LINE
  5
6E6
330
62A
100
AcDbEntity
  8
0
  6
Continuous
 62
     3
100
AcDbLine
 10
66.0
 20
136.2125
 30
0.0
 11
158.0
 21
136.2125
 31
0.0
  0
LINE
  5
6E7
330
62A
100
AcDbEntity
  8
0
  6
Continuous
 62
     3
100
AcDbLine
 10
66.0
 20
128.4999999999998
 30
0.0
 11
66.5
 21
199.0
 31
0.0
  0
LINE
  5
6E8
330
62A
100
AcDbEntity
  8
0
  6
Continuous
 62
     3
100
AcDbLine
 10
65.59999999999999
 20
128.6
 30
0.0
 11
65.59999999999999
 21
199.0
 31
0.0
  0
LINE
  5
6E9
330
62A
100
AcDbEntity
  8
0
  6
Continuous
 62
     3
100
AcDbLine
 10
66.0
 20
128.4999999999998
 30
0.0
 11
66.0
 21
137.2125
 31
0.0
  0
LINE
  5
6EA
330
62A
100
AcDbEntity
  8
0
  6
Continuous
 62
     3
100
AcDbLine
 10
158.0
 20
128.4999999999998
 30
0.0
 11
157.4964285709999
 21
199.0
 31
0.0
  0
LINE
  5
6EB
330
62A
100
AcDbEntity
  8
0
  6
Continuous
 62
     3
100
AcDbLine
 10
158.4
 20
128.6
 30
0.0
 11
158.4
 21
199.0
 31
0.0
  0
LINE
  5
6EC
330
62A
100
AcDbEntity
  8
0
  6
Continuous
 62
     3
100
AcDbLine
 10
158.0
 20
128.4999999999998
 30
0.0
 11
158.0
 21
137.2125
 31
0.0
  0
LINE
  5
6ED
330
62A
100
AcDbEntity
  8
0
  6
Continuous
 62
     3
100
AcDbLine
 10
66.5
 20
199.0
 30
0.0
 11
157.5
 21
199.0
 31
0.0
  0
LINE
  5
6EE
330
62A
100
AcDbEntity
  8
0
  6
Continuous
 62
     3
100
AcDbLine
 10
144.9964285709999
 20
199.0
 30
0.0
 11
154.4
 21
199.0
 31
0.0
  0
LINE
  5
6EF
330
62A
100
AcDbEntity
  8
0
  6
Continuous
 62
     3
100
AcDbLine
 10
153.3999999999998
 20
199.0
 30
0.0
 11
152.8823619099999
 21
197.068148347
 31
0.0
  0
LINE
  5
6F0
330
62A
100
AcDbEntity
  8
0
  6
Continuous
 62
     3
100
AcDbLine
 10
153.3999999999998
 20
199.0
 30
0.0
 11
153.91763809
 21
197.068148347
 31
0.0
  0
LINE
  5
6F1
330
62A
100
AcDbEntity
  8
0
  6
Continuous
 62
     3
100
AcDbLine
 10
153.3999999999998
 20
199.0
 30
0.0
 11
153.3999999999998
 21
194.0
 31
0.0
  0
LINE
  5
6F2
330
62A
100
AcDbEntity
  8
0
  6
Continuous
 62
     3
100
AcDbLine
 10
153.3999999999998
 20
194.0
 30
0.0
 11
153.91763809
 21
195.9318516529999
 31
0.0
  0
LINE
  5
6F3
330
62A
100
AcDbEntity
  8
0
  6
Continuous
 62
     3
100
AcDbLine
 10
153.3999999999998
 20
194.0
 30
0.0
 11
152.8823619099999
 21
195.9318516529999
 31
0.0
  0
LINE
  5
6F4
330
62A
100
AcDbEntity
  8
0
  6
Continuous
 62
     3
100
AcDbLine
 10
145.0
 20
194.0
 30
0.0
 11
154.4
 21
194.0
 31
0.0
  0
TEXT
  5
6F5
330
62A
100
AcDbEntity
  8
0
  6
Continuous
 62
     3
100
AcDbText
 10
152.4
 20
195.35
 30
0.3
 40
3.0
  1
５
 50
90.0
 41
0.833333333
  7
KANJI2
100
AcDbText
  0
LINE
  5
6F6
330
62A
100
AcDbEntity
  8
0
  6
Continuous
 62
     3
100
AcDbLine
 10
64.0
 20
107.0
 30
0.3
 11
64.0
 21
59.0
 31
0.3
  0
LINE
  5
6F7
330
62A
100
AcDbEntity
  8
0
  6
Continuous
 62
     3
100
AcDbLine
 10
64.0
 20
59.0
 30
0.0
 11
160.0
 21
59.0
 31
0.0
  0
LINE
  5
6F8
330
62A
100
AcDbEntity
  8
0
  6
Continuous
 62
     3
100
AcDbLine
 10
160.0
 20
59.0
 30
0.0
 11
160.0
 21
107.0
 31
0.0
  0
LINE
  5
6F9
330
62A
100
AcDbEntity
  8
0
  6
Continuous
 62
     3
100
AcDbLine
 10
64.0
 20
59.5
 30
0.0
 11
160.0
 21
59.5
 31
0.0
  0
LINE
  5
6FA
330
62A
100
AcDbEntity
  8
0
  6
Continuous
 62
     3
100
AcDbLine
 10
112.0
 20
98.50000000000001
 30
0.0
 11
67.0
 21
98.50000000000001
 31
0.0
  0
LINE
  5
6FB
330
62A
100
AcDbEntity
  8
0
  6
Continuous
 62
     3
100
AcDbLine
 10
112.0
 20
98.50000000000001
 30
0.0
 11
157.0
 21
98.50000000000001
 31
0.0
  0
LINE
  5
6FC
330
62A
100
AcDbEntity
  8
0
  6
Continuous
 62
     3
100
AcDbLine
 10
157.0
 20
67.5
 30
0.0
 11
67.0
 21
67.5
 31
0.0
  0
LINE
  5
6FD
330
62A
100
AcDbEntity
  8
0
  6
Continuous
 62
     3
100
AcDbLine
 10
67.0
 20
97.0
 30
0.0
 11
157.0
 21
97.0
 31
0.0
  0
LINE
  5
6FE
330
62A
100
AcDbEntity
  8
0
  6
Continuous
 62
     3
100
AcDbLine
 10
157.0
 20
69.0
 30
0.0
 11
67.0
 21
69.0
 31
0.0
  0
POINT
  5
6FF
330
62A
100
AcDbEntity
  8
0
  6
Continuous
 62
     3
100
AcDbPoint
 10
67.0
 20
69.0
 30
0.0
  0
LINE
  5
700
330
62A
100
AcDbEntity
  8
0
  6
Continuous
 62
     3
100
AcDbLine
 10
157.0
 20
96.5
 30
0.0
 11
67.0
 21
96.5
 31
0.0
  0
LINE
  5
701
330
62A
100
AcDbEntity
  8
0
  6
Continuous
 62
     3
100
AcDbLine
 10
157.0
 20
67.5
 30
0.0
 11
157.0
 21
98.50000000000001
 31
0.0
  0
LINE
  5
702
330
62A
100
AcDbEntity
  8
0
  6
Continuous
 62
     3
100
AcDbLine
 10
67.0
 20
98.50000000000001
 30
0.0
 11
67.0
 21
67.5
 31
0.0
  0
LINE
  5
708
330
62A
100
AcDbEntity
  8
0
  6
Continuous
 62
     3
100
AcDbLine
 10
157.0
 20
69.5
 30
0.0
 11
67.0
 21
69.5
 31
0.0
  0
LINE
  5
709
330
62A
100
AcDbEntity
  8
0
  6
Continuous
 62
     3
100
AcDbLine
 10
64.0
 20
248.0125
 30
0.0
 11
64.0
 21
258.0124999999998
 31
0.0
  0
LINE
  5
70A
330
62A
100
AcDbEntity
  8
0
  6
Continuous
 62
     3
100
AcDbLine
 10
64.0
 20
258.0124999999998
 30
0.0
 11
64.0
 21
277.0124999999998
 31
0.0
  0
LINE
  5
70B
330
62A
100
AcDbEntity
  8
0
  6
Continuous
 62
     3
100
AcDbLine
 10
64.0
 20
277.0124999999998
 30
0.0
 11
160.0
 21
277.0124999999998
 31
0.0
  0
LINE
  5
70C
330
62A
100
AcDbEntity
  8
0
  6
Continuous
 62
     3
100
AcDbLine
 10
160.0
 20
229.0124999999999
 30
0.0
 11
64.0
 21
229.0124999999999
 31
0.0
  0
LINE
  5
70D
330
62A
100
AcDbEntity
  8
0
  6
Continuous
 62
     3
100
AcDbLine
 10
64.0
 20
229.0124999999999
 30
0.0
 11
64.0
 21
248.0125
 31
0.0
  0
LINE
  5
70E
330
62A
100
AcDbEntity
  8
0
  6
Continuous
 62
     3
100
AcDbLine
 10
66.6
 20
241.5124999999999
 30
0.0
 11
68.59999999999999
 21
241.5124999999999
 31
0.0
  0
LINE
  5
70F
330
62A
100
AcDbEntity
  8
0
  6
Continuous
 62
     3
100
AcDbLine
 10
68.59999999999999
 20
241.5124999999999
 30
0.0
 11
68.59999999999999
 21
243.5124999999999
 31
0.0
  0
LINE
  5
710
330
62A
100
AcDbEntity
  8
0
  6
Continuous
 62
     3
100
AcDbLine
 10
68.59999999999999
 20
243.5124999999999
 30
0.0
 11
66.6
 21
243.5124999999999
 31
0.0
  0
LINE
  5
711
330
62A
100
AcDbEntity
  8
0
  6
Continuous
 62
     3
100
AcDbLine
 10
66.6
 20
246.7624999999999
 30
0.0
 11
68.59999999999999
 21
246.7624999999999
 31
0.0
  0
LINE
  5
712
330
62A
100
AcDbEntity
  8
0
  6
Continuous
 62
     3
100
AcDbLine
 10
68.59999999999999
 20
246.7624999999999
 30
0.0
 11
68.59999999999999
 21
248.0125
 31
0.0
  0
LINE
  5
713
330
62A
100
AcDbEntity
  8
0
  6
Continuous
 62
     3
100
AcDbLine
 10
66.6
 20
259.2624999999998
 30
0.0
 11
68.59999999999999
 21
259.2624999999998
 31
0.0
  0
LINE
  5
714
330
62A
100
AcDbEntity
  8
0
  6
Continuous
 62
     3
100
AcDbLine
 10
68.59999999999999
 20
259.2624999999998
 30
0.0
 11
68.59999999999999
 21
258.0124999999998
 31
0.0
  0
LINE
  5
715
330
62A
100
AcDbEntity
  8
0
  6
Continuous
 62
     3
100
AcDbLine
 10
66.6
 20
264.5124999999998
 30
0.0
 11
68.59999999999999
 21
264.5124999999998
 31
0.0
  0
LINE
  5
716
330
62A
100
AcDbEntity
  8
0
  6
Continuous
 62
     3
100
AcDbLine
 10
68.59999999999999
 20
264.5124999999998
 30
0.0
 11
68.59999999999999
 21
262.5125
 31
0.0
  0
LINE
  5
717
330
62A
100
AcDbEntity
  8
0
  6
Continuous
 62
     3
100
AcDbLine
 10
68.59999999999999
 20
262.5125
 30
0.0
 11
66.6
 21
262.5125
 31
0.0
  0
LINE
  5
718
330
62A
100
AcDbEntity
  8
0
  6
Continuous
 62
     3
100
AcDbLine
 10
66.6
 20
275.0125
 30
0.0
 11
66.6
 21
258.0124999999998
 31
0.0
  0
LINE
  5
719
330
62A
100
AcDbEntity
  8
0
  6
Continuous
 62
     3
100
AcDbLine
 10
66.6
 20
248.0125
 30
0.0
 11
66.6
 21
231.0124999999999
 31
0.0
  0
LINE
  5
71A
330
62A
100
AcDbEntity
  8
0
  6
Continuous
 62
     3
100
AcDbLine
 10
66.6
 20
231.0124999999999
 30
0.0
 11
157.4
 21
231.0124999999999
 31
0.0
  0
LINE
  5
71B
330
62A
100
AcDbEntity
  8
0
  6
Continuous
 62
     3
100
AcDbLine
 10
157.4
 20
275.0125
 30
0.0
 11
66.6
 21
275.0125
 31
0.0
  0
LINE
  5
71C
330
62A
100
AcDbEntity
  8
0
  6
Continuous
 62
     3
100
AcDbLine
 10
73.0
 20
255.0124999999999
 30
0.0
 11
73.0
 21
251.0124999999999
 31
0.0
  0
LINE
  5
71D
330
62A
100
AcDbEntity
  8
0
  6
Continuous
 62
     3
100
AcDbLine
 10
71.0
 20
253.0124999999999
 30
0.0
 11
75.0
 21
253.0124999999999
 31
0.0
  0
CIRCLE
  5
71E
330
62A
100
AcDbEntity
  8
0
  6
Continuous
 62
     3
100
AcDbCircle
 10
73.0
 20
253.0124999999999
 30
0.0
 40
2.5
  0
LINE
  5
71F
330
62A
100
AcDbEntity
  8
0
  6
Continuous
 62
     3
100
AcDbLine
 10
154.0
 20
232.0124999999999
 30
0.0
 11
70.0
 21
232.0124999999999
 31
0.0
  0
LINE
  5
720
330
62A
100
AcDbEntity
  8
0
  6
Continuous
 62
     3
100
AcDbLine
 10
70.0
 20
232.0124999999999
 30
0.0
 11
70.0
 21
247.0124999999999
 31
0.0
  0
LINE
  5
721
330
62A
100
AcDbEntity
  8
0
  6
Continuous
 62
     3
100
AcDbLine
 10
70.0
 20
275.0125
 30
0.0
 11
70.0
 21
262.5125
 31
0.0
  0
CIRCLE
  5
722
330
62A
100
AcDbEntity
  8
0
  6
Continuous
 62
     3
100
AcDbCircle
 10
73.9
 20
269.0125
 30
0.0
 40
2.5
  0
CIRCLE
  5
723
330
62A
100
AcDbEntity
  8
0
  6
Continuous
 62
     3
100
AcDbCircle
 10
81.51999999999999
 20
269.0125
 30
0.0
 40
2.5
  0
CIRCLE
  5
724
330
62A
100
AcDbEntity
  8
0
  6
Continuous
 62
     3
100
AcDbCircle
 10
89.13999999999999
 20
269.0125
 30
0.0
 40
2.5
  0
CIRCLE
  5
725
330
62A
100
AcDbEntity
  8
0
  6
Continuous
 62
     3
100
AcDbCircle
 10
96.76000000000001
 20
269.0125
 30
0.0
 40
2.5
  0
CIRCLE
  5
726
330
62A
100
AcDbEntity
  8
0
  6
Continuous
 62
     3
100
AcDbCircle
 10
104.38
 20
269.0125
 30
0.0
 40
2.5
  0
CIRCLE
  5
727
330
62A
100
AcDbEntity
  8
0
  6
Continuous
 62
     3
100
AcDbCircle
 10
112.0
 20
269.0125
 30
0.0
 40
2.5
  0
CIRCLE
  5
728
330
62A
100
AcDbEntity
  8
0
  6
Continuous
 62
     3
100
AcDbCircle
 10
119.62
 20
269.0125
 30
0.0
 40
2.5
  0
CIRCLE
  5
729
330
62A
100
AcDbEntity
  8
0
  6
Continuous
 62
     3
100
AcDbCircle
 10
127.2399999999999
 20
269.0125
 30
0.0
 40
2.5
  0
LINE
  5
72A
330
62A
100
AcDbEntity
  8
0
  6
Continuous
 62
     3
100
AcDbLine
 10
131.61
 20
263.6324999999998
 30
0.0
 11
131.61
 21
275.0125
 31
0.0
  0
LINE
  5
72B
330
62A
100
AcDbEntity
  8
0
  6
Continuous
 62
     3
100
AcDbLine
 10
130.49
 20
275.0125
 30
0.0
 11
130.49
 21
263.6324999999998
 31
0.0
  0
LINE
  5
72C
330
62A
100
AcDbEntity
  8
0
  6
Continuous
 62
     3
100
AcDbLine
 10
130.49
 20
263.6324999999998
 30
0.0
 11
123.99
 21
263.6324999999998
 31
0.0
  0
LINE
  5
72D
330
62A
100
AcDbEntity
  8
0
  6
Continuous
 62
     3
100
AcDbLine
 10
123.99
 20
263.6324999999998
 30
0.0
 11
123.99
 21
275.0125
 31
0.0
  0
LINE
  5
72E
330
62A
100
AcDbEntity
  8
0
  6
Continuous
 62
     3
100
AcDbLine
 10
122.87
 20
275.0125
 30
0.0
 11
122.87
 21
263.6324999999998
 31
0.0
  0
LINE
  5
72F
330
62A
100
AcDbEntity
  8
0
  6
Continuous
 62
     3
100
AcDbLine
 10
122.87
 20
263.6324999999998
 30
0.0
 11
116.37
 21
263.6324999999998
 31
0.0
  0
LINE
  5
730
330
62A
100
AcDbEntity
  8
0
  6
Continuous
 62
     3
100
AcDbLine
 10
116.37
 20
263.6324999999998
 30
0.0
 11
116.37
 21
275.0125
 31
0.0
  0
LINE
  5
731
330
62A
100
AcDbEntity
  8
0
  6
Continuous
 62
     3
100
AcDbLine
 10
115.25
 20
275.0125
 30
0.0
 11
115.25
 21
263.6324999999998
 31
0.0
  0
LINE
  5
732
330
62A
100
AcDbEntity
  8
0
  6
Continuous
 62
     3
100
AcDbLine
 10
115.25
 20
263.6324999999998
 30
0.0
 11
108.75
 21
263.6324999999998
 31
0.0
  0
LINE
  5
733
330
62A
100
AcDbEntity
  8
0
  6
Continuous
 62
     3
100
AcDbLine
 10
108.75
 20
263.6324999999998
 30
0.0
 11
108.75
 21
275.0125
 31
0.0
  0
LINE
  5
734
330
62A
100
AcDbEntity
  8
0
  6
Continuous
 62
     3
100
AcDbLine
 10
107.63
 20
275.0125
 30
0.0
 11
107.63
 21
263.6324999999998
 31
0.0
  0
LINE
  5
735
330
62A
100
AcDbEntity
  8
0
  6
Continuous
 62
     3
100
AcDbLine
 10
107.63
 20
263.6324999999998
 30
0.0
 11
101.1299999999999
 21
263.6324999999998
 31
0.0
  0
LINE
  5
736
330
62A
100
AcDbEntity
  8
0
  6
Continuous
 62
     3
100
AcDbLine
 10
101.1299999999999
 20
263.6324999999998
 30
0.0
 11
101.1299999999999
 21
275.0125
 31
0.0
  0
LINE
  5
737
330
62A
100
AcDbEntity
  8
0
  6
Continuous
 62
     3
100
AcDbLine
 10
100.0099999999999
 20
275.0125
 30
0.0
 11
100.0099999999999
 21
263.6324999999998
 31
0.0
  0
LINE
  5
738
330
62A
100
AcDbEntity
  8
0
  6
Continuous
 62
     3
100
AcDbLine
 10
100.0099999999999
 20
263.6324999999998
 30
0.0
 11
93.51
 21
263.6324999999998
 31
0.0
  0
LINE
  5
739
330
62A
100
AcDbEntity
  8
0
  6
Continuous
 62
     3
100
AcDbLine
 10
93.51
 20
263.6324999999998
 30
0.0
 11
93.51
 21
275.0125
 31
0.0
  0
LINE
  5
73A
330
62A
100
AcDbEntity
  8
0
  6
Continuous
 62
     3
100
AcDbLine
 10
92.39
 20
275.0125
 30
0.0
 11
92.39
 21
263.6324999999998
 31
0.0
  0
LINE
  5
73B
330
62A
100
AcDbEntity
  8
0
  6
Continuous
 62
     3
100
AcDbLine
 10
92.39
 20
263.6324999999998
 30
0.0
 11
85.89
 21
263.6324999999998
 31
0.0
  0
LINE
  5
73C
330
62A
100
AcDbEntity
  8
0
  6
Continuous
 62
     3
100
AcDbLine
 10
85.89
 20
263.6324999999998
 30
0.0
 11
85.89
 21
275.0125
 31
0.0
  0
LINE
  5
73D
330
62A
100
AcDbEntity
  8
0
  6
Continuous
 62
     3
100
AcDbLine
 10
78.0
 20
262.5125
 30
0.0
 11
78.0
 21
275.0125
 31
0.0
  0
LINE
  5
73E
330
62A
100
AcDbEntity
  8
0
  6
Continuous
 62
     3
100
AcDbLine
 10
84.76999999999998
 20
275.0125
 30
0.0
 11
84.76999999999998
 21
263.6324999999998
 31
0.0
  0
LINE
  5
73F
330
62A
100
AcDbEntity
  8
0
  6
Continuous
 62
     3
100
AcDbLine
 10
84.76999999999998
 20
263.6324999999998
 30
0.0
 11
78.0
 21
263.6324999999998
 31
0.0
  0
LINE
  5
740
330
62A
100
AcDbEntity
  8
0
  6
Continuous
 62
     3
100
AcDbLine
 10
73.9
 20
269.0125
 30
0.0
 11
75.597056275
 21
270.709556275
 31
0.0
  0
LINE
  5
741
330
62A
100
AcDbEntity
  8
0
  6
Continuous
 62
     3
100
AcDbLine
 10
73.9
 20
269.0125
 30
0.0
 11
72.20294372499998
 21
270.709556275
 31
0.0
  0
LINE
  5
742
330
62A
100
AcDbEntity
  8
0
  6
Continuous
 62
     3
100
AcDbLine
 10
73.9
 20
269.0125
 30
0.0
 11
72.20294372499998
 21
267.315443725
 31
0.0
  0
LINE
  5
743
330
62A
100
AcDbEntity
  8
0
  6
Continuous
 62
     3
100
AcDbLine
 10
73.9
 20
269.0125
 30
0.0
 11
75.597056275
 21
267.315443725
 31
0.0
  0
LINE
  5
744
330
62A
100
AcDbEntity
  8
0
  6
Continuous
 62
     3
100
AcDbLine
 10
132.86
 20
269.0125
 30
0.0
 11
136.86
 21
269.0125
 31
0.0
  0
LINE
  5
745
330
62A
100
AcDbEntity
  8
0
  6
Continuous
 62
     3
100
AcDbLine
 10
134.86
 20
270.5124999999998
 30
0.0
 11
134.86
 21
267.5124999999998
 31
0.0
  0
LINE
  5
746
330
62A
100
AcDbEntity
  8
0
  6
Continuous
 62
     3
100
AcDbLine
 10
127.2399999999999
 20
270.5124999999998
 30
0.0
 11
127.2399999999999
 21
267.5124999999998
 31
0.0
  0
LINE
  5
747
330
62A
100
AcDbEntity
  8
0
  6
Continuous
 62
     3
100
AcDbLine
 10
125.2399999999999
 20
269.0125
 30
0.0
 11
129.24
 21
269.0125
 31
0.0
  0
LINE
  5
748
330
62A
100
AcDbEntity
  8
0
  6
Continuous
 62
     3
100
AcDbLine
 10
119.62
 20
270.5124999999998
 30
0.0
 11
119.62
 21
267.5124999999998
 31
0.0
  0
LINE
  5
749
330
62A
100
AcDbEntity
  8
0
  6
Continuous
 62
     3
100
AcDbLine
 10
121.62
 20
269.0125
 30
0.0
 11
117.62
 21
269.0125
 31
0.0
  0
LINE
  5
74A
330
62A
100
AcDbEntity
  8
0
  6
Continuous
 62
     3
100
AcDbLine
 10
112.0
 20
270.5124999999998
 30
0.0
 11
112.0
 21
267.5124999999998
 31
0.0
  0
LINE
  5
74B
330
62A
100
AcDbEntity
  8
0
  6
Continuous
 62
     3
100
AcDbLine
 10
114.0
 20
269.0125
 30
0.0
 11
110.0
 21
269.0125
 31
0.0
  0
LINE
  5
74C
330
62A
100
AcDbEntity
  8
0
  6
Continuous
 62
     3
100
AcDbLine
 10
104.38
 20
270.5124999999998
 30
0.0
 11
104.38
 21
267.5124999999998
 31
0.0
  0
LINE
  5
74D
330
62A
100
AcDbEntity
  8
0
  6
Continuous
 62
     3
100
AcDbLine
 10
106.38
 20
269.0125
 30
0.0
 11
102.38
 21
269.0125
 31
0.0
  0
LINE
  5
74E
330
62A
100
AcDbEntity
  8
0
  6
Continuous
 62
     3
100
AcDbLine
 10
96.76000000000001
 20
270.5124999999998
 30
0.0
 11
96.76000000000001
 21
267.5124999999998
 31
0.0
  0
LINE
  5
74F
330
62A
100
AcDbEntity
  8
0
  6
Continuous
 62
     3
100
AcDbLine
 10
98.76000000000001
 20
269.0125
 30
0.0
 11
94.76
 21
269.0125
 31
0.0
  0
LINE
  5
750
330
62A
100
AcDbEntity
  8
0
  6
Continuous
 62
     3
100
AcDbLine
 10
91.14
 20
269.0125
 30
0.0
 11
87.14
 21
269.0125
 31
0.0
  0
LINE
  5
751
330
62A
100
AcDbEntity
  8
0
  6
Continuous
 62
     3
100
AcDbLine
 10
89.13999999999999
 20
270.5124999999998
 30
0.0
 11
89.13999999999999
 21
267.5124999999998
 31
0.0
  0
LINE
  5
752
330
62A
100
AcDbEntity
  8
0
  6
Continuous
 62
     3
100
AcDbLine
 10
83.51999999999998
 20
269.0125
 30
0.0
 11
79.51999999999998
 21
269.0125
 31
0.0
  0
LINE
  5
753
330
62A
100
AcDbEntity
  8
0
  6
Continuous
 62
     3
100
AcDbLine
 10
81.51999999999999
 20
270.5124999999998
 30
0.0
 11
81.51999999999999
 21
267.5124999999998
 31
0.0
  0
ARC
  5
754
330
62A
100
AcDbEntity
  8
0
  6
Continuous
 62
     3
100
AcDbCircle
 10
73.9
 20
269.0125
 30
0.0
 40
3.0
100
AcDbArc
 50
270.0
 51
90.0
  0
LINE
  5
755
330
62A
100
AcDbEntity
  8
0
  6
Continuous
 62
     3
100
AcDbLine
 10
73.9
 20
272.0124999999999
 30
0.0
 11
70.0
 21
272.0124999999999
 31
0.0
  0
LINE
  5
756
330
62A
100
AcDbEntity
  8
0
  6
Continuous
 62
     3
100
AcDbLine
 10
73.9
 20
266.0124999999998
 30
0.0
 11
70.0
 21
266.0124999999998
 31
0.0
  0
LINE
  5
757
330
62A
100
AcDbEntity
  8
0
  6
Continuous
 62
     3
100
AcDbLine
 10
76.0
 20
262.5125
 30
0.0
 11
76.0
 21
266.9125
 31
0.0
  0
LINE
  5
758
330
62A
100
AcDbEntity
  8
0
  6
Continuous
 62
     3
100
AcDbLine
 10
76.0
 20
271.154928529
 30
0.0
 11
76.0
 21
275.0125
 31
0.0
  0
LINE
  5
75D
330
62A
100
AcDbEntity
  8
0
  6
Continuous
 62
     3
100
AcDbLine
 10
64.0
 20
258.0124999999998
 30
0.0
 11
160.0
 21
258.0124999999998
 31
0.0
  0
LINE
  5
75E
330
62A
100
AcDbEntity
  8
0
  6
Continuous
 62
     3
100
AcDbLine
 10
160.0
 20
258.0124999999998
 30
0.0
 11
160.0
 21
248.0125
 31
0.0
  0
LINE
  5
75F
330
62A
100
AcDbEntity
  8
0
  6
Continuous
 62
     3
100
AcDbLine
 10
160.0
 20
248.0125
 30
0.0
 11
64.0
 21
248.0125
 31
0.0
  0
LINE
  5
760
330
62A
100
AcDbEntity
  8
0
  6
Continuous
 62
     3
100
AcDbLine
 10
160.0
 20
277.0124999999998
 30
0.0
 11
160.0
 21
258.0124999999998
 31
0.0
  0
LINE
  5
761
330
62A
100
AcDbEntity
  8
0
  6
Continuous
 62
     3
100
AcDbLine
 10
160.0
 20
248.0125
 30
0.0
 11
160.0
 21
229.0124999999999
 31
0.0
  0
LINE
  5
762
330
62A
100
AcDbEntity
  8
0
  6
Continuous
 62
     3
100
AcDbLine
 10
157.4
 20
264.5124999999998
 30
0.0
 11
155.4
 21
264.5124999999998
 31
0.0
  0
LINE
  5
763
330
62A
100
AcDbEntity
  8
0
  6
Continuous
 62
     3
100
AcDbLine
 10
155.4
 20
264.5124999999998
 30
0.0
 11
155.4
 21
262.5125
 31
0.0
  0
LINE
  5
764
330
62A
100
AcDbEntity
  8
0
  6
Continuous
 62
     3
100
AcDbLine
 10
155.4
 20
262.5125
 30
0.0
 11
157.4
 21
262.5125
 31
0.0
  0
LINE
  5
765
330
62A
100
AcDbEntity
  8
0
  6
Continuous
 62
     3
100
AcDbLine
 10
157.4
 20
259.2624999999998
 30
0.0
 11
155.4
 21
259.2624999999998
 31
0.0
  0
LINE
  5
766
330
62A
100
AcDbEntity
  8
0
  6
Continuous
 62
     3
100
AcDbLine
 10
155.4
 20
259.2624999999998
 30
0.0
 11
155.4
 21
258.0124999999998
 31
0.0
  0
LINE
  5
767
330
62A
100
AcDbEntity
  8
0
  6
Continuous
 62
     3
100
AcDbLine
 10
157.4
 20
246.7624999999999
 30
0.0
 11
155.4
 21
246.7624999999999
 31
0.0
  0
LINE
  5
768
330
62A
100
AcDbEntity
  8
0
  6
Continuous
 62
     3
100
AcDbLine
 10
155.4
 20
246.7624999999999
 30
0.0
 11
155.4
 21
248.0125
 31
0.0
  0
LINE
  5
769
330
62A
100
AcDbEntity
  8
0
  6
Continuous
 62
     3
100
AcDbLine
 10
157.4
 20
241.5124999999999
 30
0.0
 11
155.4
 21
241.5124999999999
 31
0.0
  0
LINE
  5
76A
330
62A
100
AcDbEntity
  8
0
  6
Continuous
 62
     3
100
AcDbLine
 10
155.4
 20
241.5124999999999
 30
0.0
 11
155.4
 21
243.5124999999999
 31
0.0
  0
LINE
  5
76B
330
62A
100
AcDbEntity
  8
0
  6
Continuous
 62
     3
100
AcDbLine
 10
155.4
 20
243.5124999999999
 30
0.0
 11
157.4
 21
243.5124999999999
 31
0.0
  0
LINE
  5
76C
330
62A
100
AcDbEntity
  8
0
  6
Continuous
 62
     3
100
AcDbLine
 10
157.4
 20
231.0124999999999
 30
0.0
 11
157.4
 21
248.0125
 31
0.0
  0
LINE
  5
76D
330
62A
100
AcDbEntity
  8
0
  6
Continuous
 62
     3
100
AcDbLine
 10
157.4
 20
258.0124999999998
 30
0.0
 11
157.4
 21
275.0125
 31
0.0
  0
CIRCLE
  5
76E
330
62A
100
AcDbEntity
  8
0
  6
Continuous
 62
     3
100
AcDbCircle
 10
151.0
 20
253.0124999999999
 30
0.0
 40
2.5
  0
LINE
  5
76F
330
62A
100
AcDbEntity
  8
0
  6
Continuous
 62
     3
100
AcDbLine
 10
149.0
 20
253.0124999999999
 30
0.0
 11
153.0
 21
253.0124999999999
 31
0.0
  0
LINE
  5
770
330
62A
100
AcDbEntity
  8
0
  6
Continuous
 62
     3
100
AcDbLine
 10
151.0
 20
255.0124999999999
 30
0.0
 11
151.0
 21
251.0124999999999
 31
0.0
  0
LINE
  5
771
330
62A
100
AcDbEntity
  8
0
  6
Continuous
 62
     3
100
AcDbLine
 10
70.0
 20
247.0124999999999
 30
0.0
 11
154.0
 21
247.0124999999999
 31
0.0
  0
LINE
  5
772
330
62A
100
AcDbEntity
  8
0
  6
Continuous
 62
     3
100
AcDbLine
 10
154.0
 20
247.0124999999999
 30
0.0
 11
154.0
 21
232.0124999999999
 31
0.0
  0
LINE
  5
773
330
62A
100
AcDbEntity
  8
0
  6
Continuous
 62
     3
100
AcDbLine
 10
70.0
 20
262.5125
 30
0.0
 11
154.0
 21
262.5125
 31
0.0
  0
LINE
  5
774
330
62A
100
AcDbEntity
  8
0
  6
Continuous
 62
     3
100
AcDbLine
 10
154.0
 20
262.5125
 30
0.0
 11
154.0
 21
275.0125
 31
0.0
  0
CIRCLE
  5
775
330
62A
100
AcDbEntity
  8
0
  6
Continuous
 62
     3
100
AcDbCircle
 10
134.86
 20
269.0125
 30
0.0
 40
2.5
  0
CIRCLE
  5
776
330
62A
100
AcDbEntity
  8
0
  6
Continuous
 62
     3
100
AcDbCircle
 10
142.4799999999999
 20
269.0125
 30
0.0
 40
2.5
  0
CIRCLE
  5
777
330
62A
100
AcDbEntity
  8
0
  6
Continuous
 62
     3
100
AcDbCircle
 10
150.0999999999999
 20
269.0125
 30
0.0
 40
2.5
  0
LINE
  5
778
330
62A
100
AcDbEntity
  8
0
  6
Continuous
 62
     3
100
AcDbLine
 10
146.0
 20
263.6324999999998
 30
0.0
 11
139.2299999999994
 21
263.6324999999998
 31
0.0
  0
LINE
  5
779
330
62A
100
AcDbEntity
  8
0
  6
Continuous
 62
     3
100
AcDbLine
 10
139.2299999999994
 20
263.6324999999998
 30
0.0
 11
139.2299999999994
 21
275.0125
 31
0.0
  0
LINE
  5
77A
330
62A
100
AcDbEntity
  8
0
  6
Continuous
 62
     3
100
AcDbLine
 10
138.11
 20
275.0125
 30
0.0
 11
138.11
 21
263.6324999999998
 31
0.0
  0
LINE
  5
77B
330
62A
100
AcDbEntity
  8
0
  6
Continuous
 62
     3
100
AcDbLine
 10
138.11
 20
263.6324999999998
 30
0.0
 11
131.61
 21
263.6324999999998
 31
0.0
  0
LINE
  5
77C
330
62A
100
AcDbEntity
  8
0
  6
Continuous
 62
     3
100
AcDbLine
 10
146.0
 20
275.0125
 30
0.0
 11
146.0
 21
262.5125
 31
0.0
  0
LINE
  5
77D
330
62A
100
AcDbEntity
  8
0
  6
Continuous
 62
     3
100
AcDbLine
 10
150.0999999999999
 20
269.0125
 30
0.0
 11
151.7970562749999
 21
267.315443725
 31
0.0
  0
LINE
  5
77E
330
62A
100
AcDbEntity
  8
0
  6
Continuous
 62
     3
100
AcDbLine
 10
150.0999999999999
 20
269.0125
 30
0.0
 11
151.7970562749999
 21
270.709556275
 31
0.0
  0
LINE
  5
77F
330
62A
100
AcDbEntity
  8
0
  6
Continuous
 62
     3
100
AcDbLine
 10
150.0999999999999
 20
269.0125
 30
0.0
 11
148.402943725
 21
270.709556275
 31
0.0
  0
LINE
  5
780
330
62A
100
AcDbEntity
  8
0
  6
Continuous
 62
     3
100
AcDbLine
 10
150.0999999999999
 20
269.0125
 30
0.0
 11
148.402943725
 21
267.315443725
 31
0.0
  0
LINE
  5
781
330
62A
100
AcDbEntity
  8
0
  6
Continuous
 62
     3
100
AcDbLine
 10
140.4799999999999
 20
269.0125
 30
0.0
 11
144.4799999999998
 21
269.0125
 31
0.0
  0
LINE
  5
782
330
62A
100
AcDbEntity
  8
0
  6
Continuous
 62
     3
100
AcDbLine
 10
142.4799999999999
 20
270.5124999999998
 30
0.0
 11
142.4799999999999
 21
267.5124999999998
 31
0.0
  0
ARC
  5
783
330
62A
100
AcDbEntity
  8
0
  6
Continuous
 62
     3
100
AcDbCircle
 10
150.0999999999999
 20
269.0125
 30
0.0
 40
3.0
100
AcDbArc
 50
90.0
 51
270.0
  0
LINE
  5
784
330
62A
100
AcDbEntity
  8
0
  6
Continuous
 62
     3
100
AcDbLine
 10
148.0
 20
262.5125
 30
0.0
 11
148.0
 21
266.8700714709999
 31
0.0
  0
LINE
  5
785
330
62A
100
AcDbEntity
  8
0
  6
Continuous
 62
     3
100
AcDbLine
 10
148.0
 20
271.154928529
 30
0.0
 11
148.0
 21
275.0125
 31
0.0
  0
LINE
  5
786
330
62A
100
AcDbEntity
  8
0
  6
Continuous
 62
     3
100
AcDbLine
 10
150.0999999999999
 20
272.0124999999999
 30
0.0
 11
154.0
 21
272.0124999999999
 31
0.0
  0
LINE
  5
787
330
62A
100
AcDbEntity
  8
0
  6
Continuous
 62
     3
100
AcDbLine
 10
150.0999999999999
 20
266.0124999999998
 30
0.0
 11
154.0
 21
266.0124999999998
 31
0.0
  0
ARC
  5
78B
330
62A
100
AcDbEntity
  8
0
  6
Continuous
 62
     3
100
AcDbCircle
 10
76.5
 20
192.0
 30
0.0
 40
2.0
100
AcDbArc
 50
90.0
 51
180.0
  0
ARC
  5
78C
330
62A
100
AcDbEntity
  8
0
  6
Continuous
 62
     3
100
AcDbCircle
 10
147.5
 20
192.0
 30
0.0
 40
2.0
100
AcDbArc
 50
0.0
 51
90.0
  0
LINE
  5
78D
330
62A
100
AcDbEntity
  8
0
  6
Continuous
 62
     3
100
AcDbLine
 10
147.5
 20
194.0
 30
0.0
 11
76.5
 21
194.0
 31
0.0
  0
ARC
  5
78E
330
62A
100
AcDbEntity
  8
0
  6
Continuous
 62
     3
100
AcDbCircle
 10
76.5
 20
168.0
 30
0.0
 40
2.0
100
AcDbArc
 50
180.0
 51
270.0
  0
ARC
  5
78F
330
62A
100
AcDbEntity
  8
0
  6
Continuous
 62
     3
100
AcDbCircle
 10
147.5
 20
168.0
 30
0.0
 40
2.0
100
AcDbArc
 50
270.0
 51
0.0
  0
LINE
  5
790
330
62A
100
AcDbEntity
  8
0
  6
Continuous
 62
     3
100
AcDbLine
 10
147.5
 20
166.0
 30
0.0
 11
76.5
 21
166.0
 31
0.0
  0
LINE
  5
791
330
62A
100
AcDbEntity
  8
0
  6
Continuous
 62
     3
100
AcDbLine
 10
149.5
 20
192.0
 30
0.0
 11
149.5
 21
168.0
 31
0.0
  0
LINE
  5
792
330
62A
100
AcDbEntity
  8
0
  6
Continuous
 62
     3
100
AcDbLine
 10
74.5
 20
168.0
 30
0.0
 11
74.5
 21
192.0
 31
0.0
  0
TEXT
  5
793
330
62A
100
AcDbEntity
  8
0
  6
Continuous
 62
     3
100
AcDbText
 10
113.3
 20
137.2125
 30
0.3
 40
3.0
  1
９１.８
 41
0.833333333
  7
KANJI2
100
AcDbText
  0
LINE
  5
798
330
62A
100
AcDbEntity
  8
0
  6
Continuous
 62
     4
100
AcDbLine
 10
64.0
 20
122.0
 30
0.0
 11
48.0
 21
122.0
 31
0.0
  0
LINE
  5
799
330
62A
100
AcDbEntity
  8
0
  6
Continuous
 62
     4
100
AcDbLine
 10
64.0
 20
128.4999999999998
 30
0.0
 11
55.7
 21
128.4999999999998
 31
0.0
  0
LINE
  5
79A
330
62A
100
AcDbEntity
  8
0
  6
Continuous
 62
     4
100
AcDbLine
 10
56.7
 20
128.4999999999998
 30
0.0
 11
57.21763809
 21
130.4318516529999
 31
0.0
  0
LINE
  5
79B
330
62A
100
AcDbEntity
  8
0
  6
Continuous
 62
     4
100
AcDbLine
 10
56.7
 20
128.4999999999998
 30
0.0
 11
56.18236191
 21
130.4318516529999
 31
0.0
  0
LINE
  5
79C
330
62A
100
AcDbEntity
  8
0
  6
Continuous
 62
     4
100
AcDbLine
 10
56.7
 20
128.4999999999998
 30
0.0
 11
56.7
 21
199.0
 31
0.0
  0
LINE
  5
79D
330
62A
100
AcDbEntity
  8
0
  6
Continuous
 62
     4
100
AcDbLine
 10
56.7
 20
199.0
 30
0.0
 11
56.18236191
 21
197.068148347
 31
0.0
  0
LINE
  5
79E
330
62A
100
AcDbEntity
  8
0
  6
Continuous
 62
     4
100
AcDbLine
 10
56.7
 20
199.0
 30
0.0
 11
57.21763809
 21
197.068148347
 31
0.0
  0
LINE
  5
79F
330
62A
100
AcDbEntity
  8
0
  6
Continuous
 62
     4
100
AcDbLine
 10
66.5
 20
199.0
 30
0.0
 11
55.7
 21
199.0
 31
0.0
  0
LINE
  5
7A0
330
62A
100
AcDbEntity
  8
0
  6
Continuous
 62
     4
100
AcDbLine
 10
64.0
 20
107.0
 30
0.0
 11
48.0
 21
107.0
 31
0.0
  0
LINE
  5
7A1
330
62A
100
AcDbEntity
  8
0
  6
Continuous
 62
     4
100
AcDbLine
 10
49.0
 20
107.0
 30
0.0
 11
48.48236191
 21
105.068148347
 31
0.0
  0
LINE
  5
7A2
330
62A
100
AcDbEntity
  8
0
  6
Continuous
 62
     4
100
AcDbLine
 10
49.0
 20
107.0
 30
0.0
 11
49.51763809
 21
105.068148347
 31
0.0
  0
LINE
  5
7A3
330
62A
100
AcDbEntity
  8
0
  6
Continuous
 62
     4
100
AcDbLine
 10
49.0
 20
107.0
 30
0.0
 11
49.0
 21
59.0
 31
0.0
  0
LINE
  5
7A4
330
62A
100
AcDbEntity
  8
0
  6
Continuous
 62
     4
100
AcDbLine
 10
49.0
 20
59.0
 30
0.0
 11
49.51763809
 21
60.931851653
 31
0.0
  0
LINE
  5
7A5
330
62A
100
AcDbEntity
  8
0
  6
Continuous
 62
     4
100
AcDbLine
 10
49.0
 20
59.0
 30
0.0
 11
48.48236191
 21
60.931851653
 31
0.0
  0
LINE
  5
7A6
330
62A
100
AcDbEntity
  8
0
  6
Continuous
 62
     4
100
AcDbLine
 10
64.0
 20
59.0
 30
0.0
 11
48.0
 21
59.0
 31
0.0
  0
TEXT
  5
7A7
330
62A
100
AcDbEntity
  8
0
  6
Continuous
 62
     4
100
AcDbText
 10
48.0
 20
80.4
 30
0.3
 40
3.0
  1
４８
 50
90.0
 41
0.833333333
  7
KANJI2
100
AcDbText
  0
LINE
  5
7A8
330
62A
100
AcDbEntity
  8
0
  6
Continuous
 62
     4
100
AcDbLine
 10
64.0
 20
59.5
 30
0.3
 11
64.0
 21
45.49999999999999
 31
0.3
  0
LINE
  5
7A9
330
62A
100
AcDbEntity
  8
0
  6
Continuous
 62
     4
100
AcDbLine
 10
64.0
 20
46.5
 30
0.0
 11
65.93185165299999
 21
45.98236191
 31
0.0
  0
LINE
  5
7AA
330
62A
100
AcDbEntity
  8
0
  6
Continuous
 62
     4
100
AcDbLine
 10
64.0
 20
46.5
 30
0.0
 11
65.93185165299999
 21
47.01763809
 31
0.0
  0
LINE
  5
7AB
330
62A
100
AcDbEntity
  8
0
  6
Continuous
 62
     4
100
AcDbLine
 10
160.0
 20
46.5
 30
0.0
 11
158.068148347
 21
47.01763809
 31
0.0
  0
LINE
  5
7AC
330
62A
100
AcDbEntity
  8
0
  6
Continuous
 62
     4
100
AcDbLine
 10
160.0
 20
46.5
 30
0.0
 11
158.068148347
 21
45.98236191
 31
0.0
  0
LINE
  5
7AD
330
62A
100
AcDbEntity
  8
0
  6
Continuous
 62
     4
100
AcDbLine
 10
160.0
 20
59.0
 30
0.0
 11
160.0
 21
45.49999999999999
 31
0.0
  0
TEXT
  5
7AE
330
62A
100
AcDbEntity
  8
0
  6
Continuous
 62
     4
100
AcDbText
 10
114.4
 20
47.5
 30
0.3
 40
3.0
  1
９６
 41
0.833333333
  7
KANJI2
100
AcDbText
  0
LINE
  5
7AF
330
62A
100
AcDbEntity
  8
0
  6
Continuous
 62
     4
100
AcDbLine
 10
64.0
 20
46.5
 30
0.3
 11
160.0
 21
46.5
 31
0.3
  0
LINE
  5
A69
330
62A
100
AcDbEntity
  8
0
  6
Continuous
 62
     3
100
AcDbLine
 10
160.0
 20
107.0
 30
0.0
 11
64.0
 21
107.0
 31
0.0
  0
LINE
  5
A6A
330
62A
100
AcDbEntity
  8
0
  6
Continuous
 62
     3
100
AcDbLine
 10
160.0
 20
106.4999999999999
 30
0.0
 11
64.0
 21
106.4999999999999
 31
0.0
  0
LINE
  5
A70
330
62A
100
AcDbEntity
  8
0
  6
Continuous
 62
     4
100
AcDbLine
 10
49.0
 20
217.0999999999999
 30
0.0
 11
48.48236191
 21
215.1681483469999
 31
0.0
  0
LINE
  5
A71
330
62A
100
AcDbEntity
  8
0
  6
Continuous
 62
     4
100
AcDbLine
 10
49.0
 20
217.0999999999999
 30
0.0
 11
49.51763809
 21
215.1681483469999
 31
0.0
  0
LINE
  5
A72
330
62A
100
AcDbEntity
  8
0
  6
Continuous
 62
     3
100
AcDbLine
 10
70.0
 20
200.5999999999999
 30
0.0
 11
70.0
 21
217.0
 31
0.0
  0
LINE
  5
A73
330
62A
100
AcDbEntity
  8
0
  6
Continuous
 62
     4
100
AcDbLine
 10
69.0
 20
217.0999999999999
 30
0.0
 11
48.0
 21
217.0999999999999
 31
0.0
  0
LINE
  5
A74
330
62A
100
AcDbEntity
  8
0
  6
Continuous
 62
     3
100
AcDbLine
 10
154.0
 20
217.0999999999999
 30
0.0
 11
154.0
 21
200.5999999999999
 31
0.0
  0
LINE
  5
A75
330
62A
100
AcDbEntity
  8
0
  6
Continuous
 62
     3
100
AcDbLine
 10
154.0
 20
217.0999999999999
 30
0.0
 11
70.0
 21
217.0999999999999
 31
0.0
  0
LINE
  5
A76
330
62A
100
AcDbEntity
  8
0
  6
Continuous
 62
     3
100
AcDbLine
 10
70.0
 20
215.0
 30
0.0
 11
154.0
 21
215.0
 31
0.0
  0
LINE
  5
A77
330
62A
100
AcDbEntity
  8
0
  6
Continuous
 62
     4
100
AcDbLine
 10
56.7
 20
128.4999999999998
 30
0.0
 11
56.18236191
 21
126.568148347
 31
0.0
  0
LINE
  5
A78
330
62A
100
AcDbEntity
  8
0
  6
Continuous
 62
     4
100
AcDbLine
 10
56.7
 20
128.4999999999998
 30
0.0
 11
57.21763809
 21
126.568148347
 31
0.0
  0
LINE
  5
A79
330
62A
100
AcDbEntity
  8
0
  6
Continuous
 62
     4
100
AcDbLine
 10
56.7
 20
128.4999999999998
 30
0.0
 11
56.7
 21
122.0
 31
0.0
  0
LINE
  5
A7A
330
62A
100
AcDbEntity
  8
0
  6
Continuous
 62
     4
100
AcDbLine
 10
56.7
 20
122.0
 30
0.0
 11
57.21763809
 21
123.931851653
 31
0.0
  0
LINE
  5
A7B
330
62A
100
AcDbEntity
  8
0
  6
Continuous
 62
     4
100
AcDbLine
 10
56.7
 20
122.0
 30
0.0
 11
56.18236191
 21
123.931851653
 31
0.0
  0
TEXT
  5
A7C
330
62A
100
AcDbEntity
  8
0
  6
Continuous
 62
     4
100
AcDbText
 10
55.7
 20
122.5
 30
0.25
 40
2.5
  1
６.５
 50
90.0
 41
0.8
  7
KANJI6
100
AcDbText
  0
LINE
  5
A7D
330
62A
100
AcDbEntity
  8
0
  6
Continuous
 62
     4
100
AcDbLine
 10
64.0
 20
128.4999999999998
 30
0.25
 11
55.7
 21
128.4999999999998
 31
0.25
  0
LINE
  5
A7E
330
62A
100
AcDbEntity
  8
0
  6
Continuous
 62
     4
100
AcDbLine
 10
49.0
 20
122.0
 30
0.0
 11
49.51763809
 21
123.931851653
 31
0.0
  0
LINE
  5
A7F
330
62A
100
AcDbEntity
  8
0
  6
Continuous
 62
     4
100
AcDbLine
 10
49.0
 20
122.0
 30
0.0
 11
48.48236191
 21
123.931851653
 31
0.0
  0
LINE
  5
A80
330
62A
100
AcDbEntity
  8
0
  6
Continuous
 62
     4
100
AcDbLine
 10
49.0
 20
122.0
 30
0.0
 11
49.0
 21
217.0999999999999
 31
0.0
  0
TEXT
  5
A81
330
62A
100
AcDbEntity
  8
0
  6
Continuous
 62
     4
100
AcDbText
 10
48.0
 20
169.35
 30
0.3
 40
3.0
  1
９５
 50
90.0
 41
0.833333333
  7
KANJI2
100
AcDbText
  0
TEXT
  5
A82
330
62A
100
AcDbEntity
  8
0
  6
Continuous
 62
     4
100
AcDbText
 10
55.7
 20
160.05
 30
0.3
 40
3.0
  1
７１
 50
90.0
 41
0.833333333
  7
KANJI2
100
AcDbText
  0
LINE
  5
A83
330
62A
100
AcDbEntity
  8
0
  6
Continuous
 62
     1
100
AcDbLine
 10
298.0599999999999
 20
168.832
 30
0.3
 11
298.0599999999999
 21
186.8319999999999
 31
0.3
  0
LINE
  5
A84
330
62A
100
AcDbEntity
  8
0
  6
Continuous
 62
     1
100
AcDbLine
 10
298.0599999999999
 20
186.8319999999999
 30
0.0
 11
334.06
 21
186.8319999999999
 31
0.0
  0
LINE
  5
A85
330
62A
100
AcDbEntity
  8
0
  6
Continuous
 62
     1
100
AcDbLine
 10
334.06
 20
186.8319999999999
 30
0.0
 11
334.06
 21
168.832
 31
0.0
  0
LINE
  5
A86
330
62A
100
AcDbEntity
  8
0
  6
Continuous
 62
     1
100
AcDbLine
 10
346.0599999999997
 20
186.8319999999999
 30
0.0
 11
382.06
 21
186.8319999999999
 31
0.0
  0
LINE
  5
A87
330
62A
100
AcDbEntity
  8
0
  6
Continuous
 62
     1
100
AcDbLine
 10
346.0599999999997
 20
168.832
 30
0.0
 11
346.0599999999997
 21
186.8319999999999
 31
0.0
  0
LINE
  5
A88
330
62A
100
AcDbEntity
  8
0
  6
Continuous
 62
     1
100
AcDbLine
 10
382.06
 20
186.8319999999999
 30
0.0
 11
382.06
 21
168.832
 31
0.0
  0
LINE
  5
A89
330
62A
100
AcDbEntity
  8
0
  6
Continuous
 62
     1
100
AcDbLine
 10
382.06
 20
159.2319999999999
 30
0.0
 11
382.06
 21
141.232
 31
0.0
  0
LINE
  5
A8A
330
62A
100
AcDbEntity
  8
0
  6
Continuous
 62
     1
100
AcDbLine
 10
382.06
 20
168.832
 30
0.0
 11
346.0599999999997
 21
168.832
 31
0.0
  0
LINE
  5
A8B
330
62A
100
AcDbEntity
  8
0
  6
Continuous
 62
     1
100
AcDbLine
 10
346.0599999999997
 20
159.2319999999999
 30
0.0
 11
382.06
 21
159.2319999999999
 31
0.0
  0
LINE
  5
A8C
330
62A
100
AcDbEntity
  8
0
  6
Continuous
 62
     1
100
AcDbLine
 10
334.06
 20
159.2319999999999
 30
0.0
 11
334.06
 21
141.232
 31
0.0
  0
LINE
  5
A8D
330
62A
100
AcDbEntity
  8
0
  6
Continuous
 62
     1
100
AcDbLine
 10
334.06
 20
141.232
 30
0.0
 11
298.0599999999999
 21
141.232
 31
0.0
  0
LINE
  5
A8E
330
62A
100
AcDbEntity
  8
0
  6
Continuous
 62
     1
100
AcDbLine
 10
382.06
 20
141.232
 30
0.0
 11
346.0599999999997
 21
141.232
 31
0.0
  0
LINE
  5
A8F
330
62A
100
AcDbEntity
  8
0
  6
Continuous
 62
     1
100
AcDbLine
 10
346.0599999999997
 20
141.232
 30
0.0
 11
346.0599999999997
 21
159.2319999999999
 31
0.0
  0
LINE
  5
A90
330
62A
100
AcDbEntity
  8
0
  6
Continuous
 62
     1
100
AcDbLine
 10
298.0599999999999
 20
159.2319999999999
 30
0.0
 11
334.06
 21
159.2319999999999
 31
0.0
  0
LINE
  5
A91
330
62A
100
AcDbEntity
  8
0
  6
Continuous
 62
     1
100
AcDbLine
 10
298.0599999999999
 20
141.232
 30
0.0
 11
298.0599999999999
 21
159.2319999999999
 31
0.0
  0
LINE
  5
A92
330
62A
100
AcDbEntity
  8
0
  6
Continuous
 62
     1
100
AcDbLine
 10
334.06
 20
168.832
 30
0.0
 11
298.0599999999999
 21
168.832
 31
0.0
  0
LINE
  5
A93
330
62A
100
AcDbEntity
  8
0
  6
Continuous
 62
     4
100
AcDbLine
 10
364.06
 20
130.7119999999999
 30
0.0
 11
361.7417780169996
 21
131.3331657079999
 31
0.0
  0
LINE
  5
A94
330
62A
100
AcDbEntity
  8
0
  6
Continuous
 62
     4
100
AcDbLine
 10
364.06
 20
130.7119999999999
 30
0.0
 11
361.7417780169996
 21
130.090834292
 31
0.0
  0
LINE
  5
A95
330
62A
100
AcDbEntity
  8
0
  6
Continuous
 62
     4
100
AcDbLine
 10
364.06
 20
130.7119999999999
 30
0.0
 11
316.06
 21
130.7119999999999
 31
0.0
  0
LINE
  5
A96
330
62A
100
AcDbEntity
  8
0
  6
Continuous
 62
     4
100
AcDbLine
 10
316.06
 20
130.7119999999999
 30
0.0
 11
318.378221983
 21
130.090834292
 31
0.0
  0
LINE
  5
A97
330
62A
100
AcDbEntity
  8
0
  6
Continuous
 62
     4
100
AcDbLine
 10
316.06
 20
130.7119999999999
 30
0.0
 11
318.378221983
 21
131.3331657079999
 31
0.0
  0
TEXT
  5
A98
330
62A
100
AcDbEntity
  8
0
  6
Continuous
 62
     4
100
AcDbText
 10
332.56
 20
131.6719999999999
 30
0.12
 40
2.759999999999998
  1
ＭＩＮ.１２０
 41
0.739130435
  7
KANJI7
100
AcDbText
  0
LINE
  5
A99
330
62A
100
AcDbEntity
  8
0
  6
Continuous
 62
     4
100
AcDbLine
 10
316.06
 20
144.217
 30
0.12
 11
316.06
 21
128.312
 31
0.12
  0
LINE
  5
A9A
330
62A
100
AcDbEntity
  8
0
  6
Continuous
 62
     4
100
AcDbLine
 10
364.06
 20
144.217
 30
0.0
 11
364.06
 21
128.312
 31
0.0
  0
TEXT
  5
A9B
330
62A
100
AcDbEntity
  8
0
  6
Continuous
 62
     4
100
AcDbText
 10
395.1399999999998
 20
157.6119999999999
 30
0.12
 40
2.759999999999998
  1
ＭＩＮ．７０
 50
90.0
 41
0.739130435
  7
KANJI7
100
AcDbText
  0
LINE
  5
A9C
330
62A
100
AcDbEntity
  8
0
  6
Continuous
 62
     4
100
AcDbLine
 10
396.1
 20
177.8319999999999
 30
0.12
 11
395.478834292
 21
175.513778017
 31
0.12
  0
LINE
  5
A9D
330
62A
100
AcDbEntity
  8
0
  6
Continuous
 62
     4
100
AcDbLine
 10
396.1
 20
177.8319999999999
 30
0.0
 11
396.721165708
 21
175.513778017
 31
0.0
  0
LINE
  5
A9E
330
62A
100
AcDbEntity
  8
0
  6
Continuous
 62
     4
100
AcDbLine
 10
396.1
 20
150.232
 30
0.0
 11
396.721165708
 21
152.550221983
 31
0.0
  0
LINE
  5
A9F
330
62A
100
AcDbEntity
  8
0
  6
Continuous
 62
     4
100
AcDbLine
 10
396.1
 20
150.232
 30
0.0
 11
395.478834292
 21
152.550221983
 31
0.0
  0
LINE
  5
AA0
330
62A
100
AcDbEntity
  8
0
  6
Continuous
 62
     4
100
AcDbLine
 10
396.1
 20
177.8319999999999
 30
0.0
 11
396.1
 21
150.232
 31
0.0
  0
LINE
  5
AA1
330
62A
100
AcDbEntity
  8
0
  6
Continuous
 62
     4
100
AcDbLine
 10
370.0359999999997
 20
177.8319999999999
 30
0.0
 11
397.3
 21
177.8319999999999
 31
0.0
  0
LINE
  5
AA2
330
62A
100
AcDbEntity
  8
0
  6
Continuous
 62
     4
100
AcDbLine
 10
373.12
 20
150.232
 30
0.0
 11
397.3
 21
150.232
 31
0.0
  0
LINE
  5
AA3
330
62A
100
AcDbEntity
  8
0
  6
Continuous
 62
     4
100
AcDbLine
 10
321.4359999999998
 20
150.232
 30
0.0
 11
356.32
 21
150.232
 31
0.0
  0
LINE
  5
AA4
330
62A
100
AcDbEntity
  8
0
  6
Continuous
 62
     4
100
AcDbLine
 10
313.036
 20
150.232
 30
0.0
 11
319.6359999999998
 21
150.232
 31
0.0
  0
LINE
  5
AA5
330
62A
100
AcDbEntity
  8
0
  6
Continuous
 62
     4
100
AcDbLine
 10
292.1559999999999
 20
150.232
 30
0.0
 11
311.2359999999998
 21
150.232
 31
0.0
  0
LINE
  5
AA6
330
62A
100
AcDbEntity
  8
0
  6
Continuous
 62
     4
100
AcDbLine
 10
316.06
 20
154.2879999999998
 30
0.0
 11
316.06
 21
146.217
 31
0.0
  0
LINE
  5
AA7
330
62A
100
AcDbEntity
  8
0
  6
Continuous
 62
     4
100
AcDbLine
 10
358.7200000000001
 20
150.232
 30
0.0
 11
370.72
 21
150.232
 31
0.0
  0
LINE
  5
AA8
330
62A
100
AcDbEntity
  8
0
  6
Continuous
 62
     4
100
AcDbLine
 10
364.06
 20
173.7279999999999
 30
0.0
 11
364.06
 21
154.888
 31
0.0
  0
LINE
  5
AA9
330
62A
100
AcDbEntity
  8
0
  6
Continuous
 62
     4
100
AcDbLine
 10
364.06
 20
153.0879999999999
 30
0.0
 11
364.06
 21
146.6879999999999
 31
0.0
  0
LINE
  5
AAA
330
62A
100
AcDbEntity
  8
0
  6
Continuous
 62
     4
100
AcDbLine
 10
364.06
 20
182.1279999999999
 30
0.0
 11
364.06
 21
175.4079999999999
 31
0.0
  0
LINE
  5
AAB
330
62A
100
AcDbEntity
  8
0
  6
Continuous
 62
     4
100
AcDbLine
 10
361.6359999999998
 20
177.8319999999999
 30
0.0
 11
368.236
 21
177.8319999999999
 31
0.0
  0
LINE
  5
AAC
330
62A
100
AcDbEntity
  8
0
  6
Continuous
 62
     4
100
AcDbLine
 10
364.06
 20
192.472
 30
0.0
 11
364.06
 21
183.6879999999999
 31
0.0
  0
LINE
  5
AAD
330
62A
100
AcDbEntity
  8
0
  6
Continuous
 62
     4
100
AcDbLine
 10
313.6359999999999
 20
177.8319999999999
 30
0.0
 11
319.036
 21
177.8319999999999
 31
0.0
  0
LINE
  5
AAE
330
62A
100
AcDbEntity
  8
0
  6
Continuous
 62
     4
100
AcDbLine
 10
316.06
 20
192.472
 30
0.0
 11
316.06
 21
181.888
 31
0.0
  0
LINE
  5
AAF
330
62A
100
AcDbEntity
  8
0
  6
Continuous
 62
     4
100
AcDbLine
 10
316.06
 20
180.088
 30
0.0
 11
316.06
 21
174.6879999999999
 31
0.0
  0
LINE
  5
AB0
330
62A
100
AcDbEntity
  8
0
  6
Continuous
 62
     4
100
AcDbLine
 10
320.836
 20
177.8319999999999
 30
0.0
 11
359.836
 21
177.8319999999999
 31
0.0
  0
TEXT
  5
AB1
330
62A
100
AcDbEntity
  8
0
  6
Continuous
 62
     4
100
AcDbText
 10
310.9599999999998
 20
163.792
 30
0.12
 40
2.759999999999998
  1
９２
 41
0.739130435
  7
KANJI7
100
AcDbText
  0
TEXT
  5
AB2
330
62A
100
AcDbEntity
  8
0
  6
Continuous
 62
     4
100
AcDbText
 10
317.6739999999998
 20
162.8439999999999
 30
0.108
 40
2.483999999999999
  1
－０
 41
0.739130435
  7
KANJI8
100
AcDbText
  0
LINE
  5
AB3
330
62A
100
AcDbEntity
  8
0
  6
Continuous
 62
     4
100
AcDbLine
 10
334.06
 20
162.232
 30
0.108
 11
331.7417780169999
 21
162.853165708
 31
0.108
  0
LINE
  5
AB4
330
62A
100
AcDbEntity
  8
0
  6
Continuous
 62
     4
100
AcDbLine
 10
334.06
 20
162.232
 30
0.0
 11
331.7417780169999
 21
161.610834292
 31
0.0
  0
LINE
  5
AB5
330
62A
100
AcDbEntity
  8
0
  6
Continuous
 62
     4
100
AcDbLine
 10
334.06
 20
167.632
 30
0.0
 11
334.06
 21
161.032
 31
0.0
  0
TEXT
  5
AB6
330
62A
100
AcDbEntity
  8
0
  6
Continuous
 62
     4
100
AcDbText
 10
317.6739999999998
 20
165.676
 30
0.0
 40
2.483999999999999
  1
＋０.８
 41
0.739130435
  7
KANJI9
100
AcDbText
  0
LINE
  5
AB7
330
62A
100
AcDbEntity
  8
0
  6
Continuous
 62
     4
100
AcDbLine
 10
316.06
 20
172.888
 30
0.0
 11
316.06
 21
156.088
 31
0.0
  0
LINE
  5
AB8
330
62A
100
AcDbEntity
  8
0
  6
Continuous
 62
     4
100
AcDbLine
 10
298.0599999999999
 20
162.232
 30
0.0
 11
300.378221983
 21
161.610834292
 31
0.0
  0
LINE
  5
AB9
330
62A
100
AcDbEntity
  8
0
  6
Continuous
 62
     4
100
AcDbLine
 10
298.0599999999999
 20
162.232
 30
0.0
 11
300.378221983
 21
162.853165708
 31
0.0
  0
LINE
  5
ABA
330
62A
100
AcDbEntity
  8
0
  6
Continuous
 62
     4
100
AcDbLine
 10
298.0599999999999
 20
162.232
 30
0.0
 11
334.06
 21
162.232
 31
0.0
  0
LINE
  5
ABB
330
62A
100
AcDbEntity
  8
0
  6
Continuous
 62
     4
100
AcDbLine
 10
298.0599999999999
 20
167.632
 30
0.0
 11
298.0599999999999
 21
161.032
 31
0.0
  0
LINE
  5
ABC
330
62A
100
AcDbEntity
  8
0
  6
Continuous
 62
     4
100
AcDbLine
 10
296.86
 20
186.8319999999999
 30
0.0
 11
287.2599999999998
 21
186.8319999999999
 31
0.0
  0
LINE
  5
ABD
330
62A
100
AcDbEntity
  8
0
  6
Continuous
 62
     4
100
AcDbLine
 10
289.66
 20
186.8319999999999
 30
0.0
 11
289.038834292
 21
184.513778017
 31
0.0
  0
LINE
  5
ABE
330
62A
100
AcDbEntity
  8
0
  6
Continuous
 62
     4
100
AcDbLine
 10
289.66
 20
186.8319999999999
 30
0.0
 11
290.2811657079999
 21
184.513778017
 31
0.0
  0
LINE
  5
ABF
330
62A
100
AcDbEntity
  8
0
  6
Continuous
 62
     4
100
AcDbLine
 10
289.66
 20
186.8319999999999
 30
0.0
 11
289.66
 21
168.832
 31
0.0
  0
LINE
  5
AC0
330
62A
100
AcDbEntity
  8
0
  6
Continuous
 62
     4
100
AcDbLine
 10
289.66
 20
168.832
 30
0.0
 11
290.2811657079999
 21
171.150221983
 31
0.0
  0
LINE
  5
AC1
330
62A
100
AcDbEntity
  8
0
  6
Continuous
 62
     4
100
AcDbLine
 10
289.66
 20
168.832
 30
0.0
 11
289.038834292
 21
171.150221983
 31
0.0
  0
LINE
  5
AC2
330
62A
100
AcDbEntity
  8
0
  6
Continuous
 62
     4
100
AcDbLine
 10
296.86
 20
168.832
 30
0.0
 11
287.2599999999998
 21
168.832
 31
0.0
  0
TEXT
  5
AC3
330
62A
100
AcDbEntity
  8
0
  6
Continuous
 62
     4
100
AcDbText
 10
289.168
 20
177.1659999999999
 30
0.108
 40
2.483999999999999
  1
－０
 50
90.0
 41
0.739130435
  7
KANJI8
100
AcDbText
  0
TEXT
  5
AC4
330
62A
100
AcDbEntity
  8
0
  6
Continuous
 62
     4
100
AcDbText
 10
286.336
 20
177.1659999999999
 30
0.108
 40
2.483999999999999
  1
＋０.６
 50
90.0
 41
0.739130435
  7
KANJI8
100
AcDbText
  0
TEXT
  5
AC5
330
62A
100
AcDbEntity
  8
0
  6
Continuous
 62
     4
100
AcDbText
 10
287.62
 20
172.6119999999999
 30
0.12
 40
2.759999999999998
  1
４５
 50
90.0
 41
0.739130435
  7
KANJI7
100
AcDbText
  0
LINE
  5
AC6
330
62A
100
AcDbEntity
  8
0
  6
Continuous
 62
     4
100
AcDbLine
 10
292.3
 20
177.8319999999999
 30
0.12
 11
311.836
 21
177.8319999999999
 31
0.12
  0
LINE
  5
AC7
330
62A
100
AcDbEntity
  8
0
  6
Continuous
 62
     3
100
AcDbLine
 10
234.6
 20
122.3
 30
0.0
 11
212.3499999999999
 21
122.3
 31
0.0
  0
LINE
  5
AC8
330
62A
100
AcDbEntity
  8
0
  6
Continuous
 62
     3
100
AcDbLine
 10
212.3499999999999
 20
122.3
 30
0.0
 11
212.3499999999999
 21
122.0
 31
0.0
  0
LINE
  5
AC9
330
62A
100
AcDbEntity
  8
0
  6
Continuous
 62
     3
100
AcDbLine
 10
212.3499999999999
 20
122.0
 30
0.0
 11
210.0999999999999
 21
122.0
 31
0.0
  0
LINE
  5
ACA
330
62A
100
AcDbEntity
  8
0
  6
Continuous
 62
     3
100
AcDbLine
 10
210.0999999999999
 20
122.0
 30
0.0
 11
209.6
 21
122.5
 31
0.0
  0
LINE
  5
ACB
330
62A
100
AcDbEntity
  8
0
  6
Continuous
 62
     3
100
AcDbLine
 10
209.6
 20
122.5
 30
0.0
 11
209.6
 21
127.0
 31
0.0
  0
LINE
  5
ACC
330
62A
100
AcDbEntity
  8
0
  6
Continuous
 62
     3
100
AcDbLine
 10
209.6
 20
127.0
 30
0.0
 11
209.6
 21
128.4999999999998
 31
0.0
  0
POINT
  5
ACD
330
62A
100
AcDbEntity
  8
0
  6
Continuous
 62
     3
100
AcDbPoint
 10
209.6
 20
128.4999999999998
 30
0.0
  0
LINE
  5
ACE
330
62A
100
AcDbEntity
  8
0
  6
Continuous
 62
     3
100
AcDbLine
 10
209.6
 20
128.4999999999998
 30
0.0
 11
211.2
 21
128.4999999999998
 31
0.0
  0
POINT
  5
ACF
330
62A
100
AcDbEntity
  8
0
  6
Continuous
 62
     3
100
AcDbPoint
 10
211.2
 20
128.4999999999998
 30
0.0
  0
POINT
  5
AD0
330
62A
100
AcDbEntity
  8
0
  6
Continuous
 62
     3
100
AcDbPoint
 10
212.5999999999999
 20
199.0
 30
0.0
  0
LINE
  5
AD1
330
62A
100
AcDbEntity
  8
0
  6
Continuous
 62
     3
100
AcDbLine
 10
234.6
 20
122.3
 30
0.0
 11
256.85
 21
122.3
 31
0.0
  0
LINE
  5
AD2
330
62A
100
AcDbEntity
  8
0
  6
Continuous
 62
     3
100
AcDbLine
 10
256.85
 20
122.3
 30
0.0
 11
256.85
 21
122.0
 31
0.0
  0
LINE
  5
AD3
330
62A
100
AcDbEntity
  8
0
  6
Continuous
 62
     3
100
AcDbLine
 10
256.85
 20
122.0
 30
0.0
 11
259.1
 21
122.0
 31
0.0
  0
LINE
  5
AD4
330
62A
100
AcDbEntity
  8
0
  6
Continuous
 62
     3
100
AcDbLine
 10
259.1
 20
122.0
 30
0.0
 11
259.6
 21
122.5
 31
0.0
  0
LINE
  5
AD5
330
62A
100
AcDbEntity
  8
0
  6
Continuous
 62
     3
100
AcDbLine
 10
259.6
 20
122.5
 30
0.0
 11
259.6
 21
127.0
 31
0.0
  0
LINE
  5
AD6
330
62A
100
AcDbEntity
  8
0
  6
Continuous
 62
     3
100
AcDbLine
 10
259.6
 20
127.0
 30
0.0
 11
259.6
 21
128.4999999999998
 31
0.0
  0
POINT
  5
AD7
330
62A
100
AcDbEntity
  8
0
  6
Continuous
 62
     3
100
AcDbPoint
 10
259.6
 20
128.4999999999998
 30
0.0
  0
LINE
  5
AD8
330
62A
100
AcDbEntity
  8
0
  6
Continuous
 62
     3
100
AcDbLine
 10
259.6
 20
128.4999999999998
 30
0.0
 11
258.0
 21
128.4999999999998
 31
0.0
  0
POINT
  5
AD9
330
62A
100
AcDbEntity
  8
0
  6
Continuous
 62
     3
100
AcDbPoint
 10
258.0
 20
128.4999999999998
 30
0.0
  0
POINT
  5
ADA
330
62A
100
AcDbEntity
  8
0
  6
Continuous
 62
     3
100
AcDbPoint
 10
256.6
 20
199.0
 30
0.0
  0
LINE
  5
ADB
330
62A
100
AcDbEntity
  8
0
  6
Continuous
 62
     3
100
AcDbLine
 10
211.2
 20
128.4999999999998
 30
0.0
 11
258.0
 21
128.4999999999998
 31
0.0
  0
LINE
  5
ADC
330
62A
100
AcDbEntity
  8
0
  6
Continuous
 62
     3
100
AcDbLine
 10
259.6
 20
127.0
 30
0.0
 11
209.6
 21
127.0
 31
0.0
  0
LINE
  5
ADD
330
62A
100
AcDbEntity
  8
0
  6
Continuous
 62
     3
100
AcDbLine
 10
246.6
 20
128.4999999999998
 30
0.0
 11
246.6
 21
131.4999999999995
 31
0.0
  0
LINE
  5
ADE
330
62A
100
AcDbEntity
  8
0
  6
Continuous
 62
     3
100
AcDbLine
 10
246.6
 20
131.4999999999995
 30
0.0
 11
250.5999999999999
 21
131.4999999999995
 31
0.0
  0
LINE
  5
ADF
330
62A
100
AcDbEntity
  8
0
  6
Continuous
 62
     3
100
AcDbLine
 10
250.5999999999999
 20
131.4999999999995
 30
0.0
 11
250.5999999999999
 21
128.4999999999998
 31
0.0
  0
LINE
  5
AE0
330
62A
100
AcDbEntity
  8
0
  6
Continuous
 62
     3
100
AcDbLine
 10
222.5999999999999
 20
128.4999999999998
 30
0.0
 11
222.5999999999999
 21
131.4999999999995
 31
0.0
  0
LINE
  5
AE1
330
62A
100
AcDbEntity
  8
0
  6
Continuous
 62
     3
100
AcDbLine
 10
222.5999999999999
 20
131.4999999999995
 30
0.0
 11
218.5999999999999
 21
131.4999999999995
 31
0.0
  0
LINE
  5
AE2
330
62A
100
AcDbEntity
  8
0
  6
Continuous
 62
     3
100
AcDbLine
 10
218.5999999999999
 20
131.4999999999995
 30
0.0
 11
218.5999999999999
 21
128.4999999999998
 31
0.0
  0
LINE
  5
AE3
330
62A
100
AcDbEntity
  8
0
  6
Continuous
 62
     3
100
AcDbLine
 10
229.5999999999999
 20
128.6
 30
0.0
 11
239.5999999999999
 21
128.6
 31
0.0
  0
LINE
  5
AE4
330
62A
100
AcDbEntity
  8
0
  6
Continuous
 62
     3
100
AcDbLine
 10
239.5999999999999
 20
200.5999999999999
 30
0.0
 11
229.5999999999999
 21
200.5999999999999
 31
0.0
  0
LINE
  5
AE5
330
62A
100
AcDbEntity
  8
0
  6
Continuous
 62
     3
100
AcDbLine
 10
229.5999999999999
 20
200.5999999999999
 30
0.0
 11
229.5999999999999
 21
128.6
 31
0.0
  0
LINE
  5
AE6
330
62A
100
AcDbEntity
  8
0
  6
Continuous
 62
     3
100
AcDbLine
 10
212.5999999999999
 20
199.0
 30
0.0
 11
229.5999999999999
 21
199.0
 31
0.0
  0
LINE
  5
AE7
330
62A
100
AcDbEntity
  8
0
  6
Continuous
 62
     3
100
AcDbLine
 10
232.1
 20
200.5999999999999
 30
0.0
 11
232.1
 21
201.1
 31
0.0
  0
LINE
  5
AE8
330
62A
100
AcDbEntity
  8
0
  6
Continuous
 62
     3
100
AcDbLine
 10
232.1
 20
201.1
 30
0.0
 11
237.0999999999999
 21
201.1
 31
0.0
  0
LINE
  5
AE9
330
62A
100
AcDbEntity
  8
0
  6
Continuous
 62
     3
100
AcDbLine
 10
237.0999999999999
 20
201.1
 30
0.0
 11
237.0999999999999
 21
200.5999999999999
 31
0.0
  0
ARC
  5
AEA
330
62A
100
AcDbEntity
  8
0
  6
Continuous
 62
     3
100
AcDbCircle
 10
233.5999999999999
 20
201.1
 30
0.0
 40
1.5
100
AcDbArc
 50
90.0
 51
180.0
  0
ARC
  5
AEB
330
62A
100
AcDbEntity
  8
0
  6
Continuous
 62
     3
100
AcDbCircle
 10
235.5999999999999
 20
201.1
 30
0.0
 40
1.5
100
AcDbArc
 50
0.0
 51
90.0
  0
LINE
  5
AEC
330
62A
100
AcDbEntity
  8
0
  6
Continuous
 62
     3
100
AcDbLine
 10
235.5999999999999
 20
202.5999999999999
 30
0.0
 11
233.5999999999999
 21
202.5999999999999
 31
0.0
  0
LINE
  5
AED
330
62A
100
AcDbEntity
  8
0
  6
Continuous
 62
     3
100
AcDbLine
 10
256.6
 20
199.0
 30
0.0
 11
239.5999999999999
 21
199.0
 31
0.0
  0
LINE
  5
AEF
330
62A
100
AcDbEntity
  8
0
  6
Continuous
 62
     3
100
AcDbLine
 10
223.0999999999999
 20
199.0
 30
0.0
 11
223.0999999999999
 21
177.0
 31
0.0
  0
LINE
  5
AF0
330
62A
100
AcDbEntity
  8
0
  6
Continuous
 62
     3
100
AcDbLine
 10
225.0999999999999
 20
177.0
 30
0.0
 11
225.0999999999999
 21
199.0
 31
0.0
  0
LINE
  5
AF1
330
62A
100
AcDbEntity
  8
0
  6
Continuous
 62
     3
100
AcDbLine
 10
228.35
 20
199.0
 30
0.0
 11
228.35
 21
177.0
 31
0.0
  0
LINE
  5
AF2
330
62A
100
AcDbEntity
  8
0
  6
Continuous
 62
     3
100
AcDbLine
 10
240.85
 20
199.0
 30
0.0
 11
240.85
 21
177.0
 31
0.0
  0
LINE
  5
AF3
330
62A
100
AcDbEntity
  8
0
  6
Continuous
 62
     3
100
AcDbLine
 10
244.0999999999999
 20
199.0
 30
0.0
 11
244.0999999999999
 21
177.0
 31
0.0
  0
LINE
  5
AF4
330
62A
100
AcDbEntity
  8
0
  6
Continuous
 62
     3
100
AcDbLine
 10
246.0999999999999
 20
177.0
 30
0.0
 11
246.0999999999999
 21
199.0
 31
0.0
  0
ARC
  5
AF5
330
62A
100
AcDbEntity
  8
0
  6
Continuous
 62
     3
100
AcDbCircle
 10
245.1
 20
177.0
 30
0.0
 40
1.0
100
AcDbArc
 50
180.0
 51
0.0
  0
ARC
  5
AF6
330
62A
100
AcDbEntity
  8
0
  6
Continuous
 62
     3
100
AcDbCircle
 10
239.8499999999999
 20
177.0
 30
0.0
 40
1.0
100
AcDbArc
 50
255.522487814
 51
0.0
  0
ARC
  5
AF7
330
62A
100
AcDbEntity
  8
0
  6
Continuous
 62
     3
100
AcDbCircle
 10
229.3499999999999
 20
177.0
 30
0.0
 40
1.0
100
AcDbArc
 50
180.0
 51
284.477512187
  0
ARC
  5
AF8
330
62A
100
AcDbEntity
  8
0
  6
Continuous
 62
     3
100
AcDbCircle
 10
224.1
 20
177.0
 30
0.0
 40
1.0
100
AcDbArc
 50
180.0
 51
0.0
  0
LINE
  5
AFE
330
62A
100
AcDbEntity
  8
0
  6
Continuous
 62
     3
100
AcDbLine
 10
258.06875
 20
128.4999999999998
 30
0.0
 11
256.6
 21
199.0
 31
0.0
  0
LINE
  5
AFF
330
62A
100
AcDbEntity
  8
0
  6
Continuous
 62
     3
100
AcDbLine
 10
239.5999999999999
 20
128.6
 30
0.0
 11
239.5999999999999
 21
200.5999999999999
 31
0.0
  0
LINE
  5
B00
330
62A
100
AcDbEntity
  8
0
  6
Continuous
 62
     3
100
AcDbLine
 10
211.1312499999999
 20
128.4999999999998
 30
0.0
 11
212.5999999999999
 21
199.0
 31
0.0
  0
LINE
  5
B01
330
62A
100
AcDbEntity
  8
0
  6
Continuous
 62
     3
100
AcDbLine
 10
211.2
 20
128.4999999999998
 30
0.0
 11
258.0
 21
128.4999999999998
 31
0.0
  0
TEXT
  5
B03
330
62A
100
AcDbEntity
  8
0
  6
Continuous
 62
     4
100
AcDbText
 10
240.9
 20
144.0
 30
0.3
 40
3.0
  1
４４.８
 41
0.833333333
  7
KANJI2
100
AcDbText
  0
LINE
  5
B04
330
62A
100
AcDbEntity
  8
0
  6
Continuous
 62
     4
100
AcDbLine
 10
258.0
 20
143.0
 30
0.3
 11
256.068148347
 21
143.5176380899999
 31
0.3
  0
LINE
  5
B05
330
62A
100
AcDbEntity
  8
0
  6
Continuous
 62
     4
100
AcDbLine
 10
258.0
 20
143.0
 30
0.0
 11
256.068148347
 21
142.48236191
 31
0.0
  0
LINE
  5
B06
330
62A
100
AcDbEntity
  8
0
  6
Continuous
 62
     4
100
AcDbLine
 10
258.0
 20
128.4999999999998
 30
0.0
 11
258.0
 21
144.0
 31
0.0
  0
LINE
  5
B07
330
62A
100
AcDbEntity
  8
0
  6
Continuous
 62
     4
100
AcDbLine
 10
211.2
 20
128.4999999999998
 30
0.0
 11
211.2
 21
144.0
 31
0.0
  0
LINE
  5
B08
330
62A
100
AcDbEntity
  8
0
  6
Continuous
 62
     4
100
AcDbLine
 10
211.2
 20
143.0
 30
0.0
 11
213.1318516529999
 21
142.48236191
 31
0.0
  0
LINE
  5
B09
330
62A
100
AcDbEntity
  8
0
  6
Continuous
 62
     4
100
AcDbLine
 10
211.2
 20
143.0
 30
0.0
 11
213.1318516529999
 21
143.5176380899999
 31
0.0
  0
LINE
  5
B0A
330
62A
100
AcDbEntity
  8
0
  6
Continuous
 62
     4
100
AcDbLine
 10
211.2
 20
143.0
 30
0.0
 11
258.0
 21
143.0
 31
0.0
  0
LINE
  5
B0B
330
62A
100
AcDbEntity
  8
0
  6
Continuous
 62
     3
100
AcDbLine
 10
256.6
 20
213.0
 30
0.0
 11
254.5999999999999
 21
215.5
 31
0.0
  0
LINE
  5
B0C
330
62A
100
AcDbEntity
  8
0
  6
Continuous
 62
     3
100
AcDbLine
 10
246.0999999999999
 20
215.5
 30
0.0
 11
244.0999999999999
 21
213.0
 31
0.0
  0
LINE
  5
B0D
330
62A
100
AcDbEntity
  8
0
  6
Continuous
 62
     3
100
AcDbLine
 10
256.6
 20
199.0
 30
0.0
 11
256.6
 21
213.0
 31
0.0
  0
LINE
  5
B0E
330
62A
100
AcDbEntity
  8
0
  6
Continuous
 62
     3
100
AcDbLine
 10
244.0999999999999
 20
199.0
 30
0.0
 11
244.0999999999999
 21
213.0
 31
0.0
  0
ARC
  5
B0F
330
62A
100
AcDbEntity
  8
0
  6
Continuous
 62
     3
100
AcDbCircle
 10
244.6
 20
216.5
 30
0.0
 40
0.5
100
AcDbArc
 50
90.0
 51
180.0
  0
LINE
  5
B10
330
62A
100
AcDbEntity
  8
0
  6
Continuous
 62
     3
100
AcDbLine
 10
244.6
 20
215.5
 30
0.0
 11
246.0999999999999
 21
215.5
 31
0.0
  0
LINE
  5
B11
330
62A
100
AcDbEntity
  8
0
  6
Continuous
 62
     3
100
AcDbLine
 10
244.0999999999999
 20
216.0
 30
0.0
 11
244.0999999999999
 21
216.5
 31
0.0
  0
ARC
  5
B12
330
62A
100
AcDbEntity
  8
0
  6
Continuous
 62
     3
100
AcDbCircle
 10
244.6
 20
216.0
 30
0.0
 40
0.5
100
AcDbArc
 50
180.0
 51
270.0
  0
LINE
  5
B13
330
62A
100
AcDbEntity
  8
0
  6
Continuous
 62
     3
100
AcDbLine
 10
256.1
 20
217.0
 30
0.0
 11
244.6
 21
217.0
 31
0.0
  0
ARC
  5
B14
330
62A
100
AcDbEntity
  8
0
  6
Continuous
 62
     3
100
AcDbCircle
 10
256.1
 20
216.5
 30
0.0
 40
0.5
100
AcDbArc
 50
0.0
 51
90.0
  0
LINE
  5
B15
330
62A
100
AcDbEntity
  8
0
  6
Continuous
 62
     3
100
AcDbLine
 10
254.5999999999999
 20
215.5
 30
0.0
 11
256.1
 21
215.5
 31
0.0
  0
LINE
  5
B16
330
62A
100
AcDbEntity
  8
0
  6
Continuous
 62
     3
100
AcDbLine
 10
256.6
 20
216.0
 30
0.0
 11
256.6
 21
216.5
 31
0.0
  0
ARC
  5
B17
330
62A
100
AcDbEntity
  8
0
  6
Continuous
 62
     3
100
AcDbCircle
 10
256.1
 20
216.0
 30
0.0
 40
0.5
100
AcDbArc
 50
270.0
 51
0.0
  0
LINE
  5
B1D
330
62A
100
AcDbEntity
  8
0
  6
Continuous
 62
     3
100
AcDbLine
 10
71.0
 20
200.5999999999999
 30
0.3
 11
71.0
 21
201.1
 31
0.3
  0
LINE
  5
B1E
330
62A
100
AcDbEntity
  8
0
  6
Continuous
 62
     3
100
AcDbLine
 10
71.0
 20
201.1
 30
0.0
 11
76.0
 21
201.1
 31
0.0
  0
LINE
  5
B1F
330
62A
100
AcDbEntity
  8
0
  6
Continuous
 62
     3
100
AcDbLine
 10
76.0
 20
201.1
 30
0.0
 11
76.0
 21
200.5999999999999
 31
0.0
  0
ARC
  5
B20
330
62A
100
AcDbEntity
  8
0
  6
Continuous
 62
     3
100
AcDbCircle
 10
72.5
 20
201.1
 30
0.0
 40
1.5
100
AcDbArc
 50
90.0
 51
180.0
  0
ARC
  5
B21
330
62A
100
AcDbEntity
  8
0
  6
Continuous
 62
     3
100
AcDbCircle
 10
74.5
 20
201.1
 30
0.0
 40
1.5
100
AcDbArc
 50
0.0
 51
90.0
  0
LINE
  5
B22
330
62A
100
AcDbEntity
  8
0
  6
Continuous
 62
     3
100
AcDbLine
 10
74.5
 20
202.5999999999999
 30
0.0
 11
72.5
 21
202.5999999999999
 31
0.0
  0
LINE
  5
B23
330
62A
100
AcDbEntity
  8
0
  6
Continuous
 62
     3
100
AcDbLine
 10
148.0
 20
200.5999999999999
 30
0.0
 11
148.0
 21
201.1
 31
0.0
  0
LINE
  5
B24
330
62A
100
AcDbEntity
  8
0
  6
Continuous
 62
     3
100
AcDbLine
 10
148.0
 20
201.1
 30
0.0
 11
153.0
 21
201.1
 31
0.0
  0
LINE
  5
B25
330
62A
100
AcDbEntity
  8
0
  6
Continuous
 62
     3
100
AcDbLine
 10
153.0
 20
201.1
 30
0.0
 11
153.0
 21
200.5999999999999
 31
0.0
  0
ARC
  5
B26
330
62A
100
AcDbEntity
  8
0
  6
Continuous
 62
     3
100
AcDbCircle
 10
149.5
 20
201.1
 30
0.0
 40
1.5
100
AcDbArc
 50
90.0
 51
180.0
  0
ARC
  5
B27
330
62A
100
AcDbEntity
  8
0
  6
Continuous
 62
     3
100
AcDbCircle
 10
151.5
 20
201.1
 30
0.0
 40
1.5
100
AcDbArc
 50
0.0
 51
90.0
  0
LINE
  5
B28
330
62A
100
AcDbEntity
  8
0
  6
Continuous
 62
     3
100
AcDbLine
 10
151.5
 20
202.5999999999999
 30
0.0
 11
149.5
 21
202.5999999999999
 31
0.0
  0
LINE
  5
B29
330
62A
100
AcDbEntity
  8
0
  6
Continuous
 62
     3
100
AcDbLine
 10
105.2999999999999
 20
83.65
 30
0.0
 11
103.0
 21
83.65
 31
0.0
  0
LINE
  5
B2A
330
62A
100
AcDbEntity
  8
0
  6
Continuous
 62
     3
100
AcDbLine
 10
102.9
 20
82.15000000000001
 30
0.0
 11
107.9
 21
82.15000000000001
 31
0.0
  0
LINE
  5
B2B
330
62A
100
AcDbEntity
  8
0
  6
Continuous
 62
     3
100
AcDbLine
 10
107.9
 20
83.84999999999998
 30
0.0
 11
109.2
 21
82.84999999999998
 31
0.0
  0
LINE
  5
B2C
330
62A
100
AcDbEntity
  8
0
  6
Continuous
 62
     3
100
AcDbLine
 10
107.8
 20
83.54999999999998
 30
0.0
 11
109.0999999999997
 21
82.54999999999999
 31
0.0
  0
LINE
  5
B2D
330
62A
100
AcDbEntity
  8
0
  6
Continuous
 62
     3
100
AcDbLine
 10
109.0999999999997
 20
82.54999999999999
 30
0.0
 11
107.6999999999999
 21
82.15000000000001
 31
0.0
  0
LINE
  5
B2E
330
62A
100
AcDbEntity
  8
0
  6
Continuous
 62
     3
100
AcDbLine
 10
107.6999999999999
 20
81.84999999999998
 30
0.0
 11
109.2
 21
82.24999999999999
 31
0.0
  0
LINE
  5
B2F
330
62A
100
AcDbEntity
  8
0
  6
Continuous
 62
     3
100
AcDbLine
 10
102.9
 20
83.65
 30
0.0
 11
101.6
 21
83.04999999999997
 31
0.0
  0
LINE
  5
B30
330
62A
100
AcDbEntity
  8
0
  6
Continuous
 62
     3
100
AcDbLine
 10
101.6
 20
83.04999999999997
 30
0.0
 11
102.8
 21
82.15000000000001
 31
0.0
  0
LINE
  5
B31
330
62A
100
AcDbEntity
  8
0
  6
Continuous
 62
     3
100
AcDbLine
 10
101.4
 20
83.25000000000001
 30
0.0
 11
102.9
 21
84.04999999999999
 31
0.0
  0
LINE
  5
B32
330
62A
100
AcDbEntity
  8
0
  6
Continuous
 62
     3
100
AcDbLine
 10
107.6999999999999
 20
83.65
 30
0.0
 11
105.4
 21
83.65
 31
0.0
  0
POINT
  5
B33
330
62A
100
AcDbEntity
  8
0
  6
Continuous
 62
     3
100
AcDbPoint
 10
108.8
 20
89.95
 30
0.0
  0
LINE
  5
B34
330
62A
100
AcDbEntity
  8
0
  6
Continuous
 62
     3
100
AcDbLine
 10
109.8999999999999
 20
89.54999999999998
 30
0.0
 11
108.6999999999999
 21
88.04999999999997
 31
0.0
  0
LINE
  5
B35
330
62A
100
AcDbEntity
  8
0
  6
Continuous
 62
     3
100
AcDbLine
 10
103.6
 20
88.15000000000003
 30
0.0
 11
102.6
 21
89.45
 31
0.0
  0
LINE
  5
B36
330
62A
100
AcDbEntity
  8
0
  6
Continuous
 62
     3
100
AcDbLine
 10
102.9593749999996
 20
84.22499999999997
 30
0.0
 11
103.571875
 21
88.125
 31
0.0
  0
LINE
  5
B37
330
62A
100
AcDbEntity
  8
0
  6
Continuous
 62
     3
100
AcDbLine
 10
102.4999999999999
 20
89.421428571
 30
0.0
 11
102.2999999999999
 21
89.25
 31
0.0
  0
LINE
  5
B38
330
62A
100
AcDbEntity
  8
0
  6
Continuous
 62
     3
100
AcDbLine
 10
103.0
 20
89.84999999999997
 30
0.0
 11
102.9
 21
89.76428571399997
 31
0.0
  0
LINE
  5
B39
330
62A
100
AcDbEntity
  8
0
  6
Continuous
 62
     3
100
AcDbLine
 10
101.3343749999995
 20
83.22499999999998
 30
0.0
 11
102.196875
 21
89.12499999999999
 31
0.0
  0
LINE
  5
B3A
330
62A
100
AcDbEntity
  8
0
  6
Continuous
 62
     3
100
AcDbLine
 10
108.5468749999999
 20
87.92499999999998
 30
0.0
 11
107.9093749999999
 21
83.825
 31
0.0
  0
LINE
  5
B3B
330
62A
100
AcDbEntity
  8
0
  6
Continuous
 62
     3
100
AcDbLine
 10
110.0
 20
89.56428571399998
 30
0.0
 11
110.2
 21
89.45
 31
0.0
  0
LINE
  5
B3C
330
62A
100
AcDbEntity
  8
0
  6
Continuous
 62
     3
100
AcDbLine
 10
103.0999999999997
 20
89.95
 30
0.0
 11
109.4
 21
89.95
 31
0.0
  0
LINE
  5
B3D
330
62A
100
AcDbEntity
  8
0
  6
Continuous
 62
     3
100
AcDbLine
 10
110.2343749999999
 20
89.42499999999999
 30
0.0
 11
109.2843749999999
 21
82.825
 31
0.0
  0
LINE
  5
B3E
330
62A
100
AcDbEntity
  8
0
  6
Continuous
 62
     3
100
AcDbLine
 10
92.3
 20
83.65
 30
0.0
 11
90.0
 21
83.65
 31
0.0
  0
LINE
  5
B3F
330
62A
100
AcDbEntity
  8
0
  6
Continuous
 62
     3
100
AcDbLine
 10
89.9
 20
82.15000000000001
 30
0.0
 11
94.9
 21
82.15000000000001
 31
0.0
  0
LINE
  5
B40
330
62A
100
AcDbEntity
  8
0
  6
Continuous
 62
     3
100
AcDbLine
 10
94.9
 20
83.84999999999998
 30
0.0
 11
96.2
 21
82.84999999999998
 31
0.0
  0
LINE
  5
B41
330
62A
100
AcDbEntity
  8
0
  6
Continuous
 62
     3
100
AcDbLine
 10
94.8
 20
83.54999999999998
 30
0.0
 11
96.09999999999999
 21
82.54999999999999
 31
0.0
  0
LINE
  5
B42
330
62A
100
AcDbEntity
  8
0
  6
Continuous
 62
     3
100
AcDbLine
 10
96.09999999999999
 20
82.54999999999999
 30
0.0
 11
94.7
 21
82.15000000000001
 31
0.0
  0
LINE
  5
B43
330
62A
100
AcDbEntity
  8
0
  6
Continuous
 62
     3
100
AcDbLine
 10
94.7
 20
81.84999999999998
 30
0.0
 11
96.2
 21
82.24999999999999
 31
0.0
  0
LINE
  5
B44
330
62A
100
AcDbEntity
  8
0
  6
Continuous
 62
     3
100
AcDbLine
 10
89.9
 20
83.65
 30
0.0
 11
88.59999999999997
 21
83.04999999999997
 31
0.0
  0
LINE
  5
B45
330
62A
100
AcDbEntity
  8
0
  6
Continuous
 62
     3
100
AcDbLine
 10
88.59999999999997
 20
83.04999999999997
 30
0.0
 11
89.79999999999998
 21
82.15000000000001
 31
0.0
  0
LINE
  5
B46
330
62A
100
AcDbEntity
  8
0
  6
Continuous
 62
     3
100
AcDbLine
 10
88.40000000000001
 20
83.25000000000001
 30
0.0
 11
89.9
 21
84.04999999999999
 31
0.0
  0
LINE
  5
B47
330
62A
100
AcDbEntity
  8
0
  6
Continuous
 62
     3
100
AcDbLine
 10
94.7
 20
83.65
 30
0.0
 11
92.4
 21
83.65
 31
0.0
  0
POINT
  5
B48
330
62A
100
AcDbEntity
  8
0
  6
Continuous
 62
     3
100
AcDbPoint
 10
95.8
 20
89.95
 30
0.0
  0
LINE
  5
B49
330
62A
100
AcDbEntity
  8
0
  6
Continuous
 62
     3
100
AcDbLine
 10
95.5
 20
88.45
 30
0.0
 11
96.5
 21
89.65000000000001
 31
0.0
  0
LINE
  5
B4A
330
62A
100
AcDbEntity
  8
0
  6
Continuous
 62
     3
100
AcDbLine
 10
96.90000000000001
 20
89.54999999999998
 30
0.0
 11
95.7
 21
88.04999999999997
 31
0.0
  0
LINE
  5
B4B
330
62A
100
AcDbEntity
  8
0
  6
Continuous
 62
     3
100
AcDbLine
 10
90.8
 20
88.54999999999998
 30
0.0
 11
89.9
 21
89.65000000000001
 31
0.0
  0
LINE
  5
B4C
330
62A
100
AcDbEntity
  8
0
  6
Continuous
 62
     3
100
AcDbLine
 10
90.6
 20
88.15000000000003
 30
0.0
 11
89.59999999999999
 21
89.45
 31
0.0
  0
LINE
  5
B4D
330
62A
100
AcDbEntity
  8
0
  6
Continuous
 62
     3
100
AcDbLine
 10
89.95937499999998
 20
84.22499999999997
 30
0.0
 11
90.57187500000001
 21
88.125
 31
0.0
  0
LINE
  5
B4E
330
62A
100
AcDbEntity
  8
0
  6
Continuous
 62
     3
100
AcDbLine
 10
89.50000000000001
 20
89.421428571
 30
0.0
 11
89.29999999999997
 21
89.25
 31
0.0
  0
LINE
  5
B4F
330
62A
100
AcDbEntity
  8
0
  6
Continuous
 62
     3
100
AcDbLine
 10
90.0
 20
89.84999999999997
 30
0.0
 11
89.9
 21
89.76428571399997
 31
0.0
  0
LINE
  5
B50
330
62A
100
AcDbEntity
  8
0
  6
Continuous
 62
     3
100
AcDbLine
 10
88.33437499999998
 20
83.22499999999998
 30
0.0
 11
89.196875
 21
89.12499999999999
 31
0.0
  0
LINE
  5
B51
330
62A
100
AcDbEntity
  8
0
  6
Continuous
 62
     3
100
AcDbLine
 10
90.90000000000001
 20
88.45
 30
0.0
 11
95.6
 21
88.45
 31
0.0
  0
LINE
  5
B52
330
62A
100
AcDbEntity
  8
0
  6
Continuous
 62
     3
100
AcDbLine
 10
95.546875
 20
87.92499999999998
 30
0.0
 11
94.90937499999999
 21
83.825
 31
0.0
  0
LINE
  5
B53
330
62A
100
AcDbEntity
  8
0
  6
Continuous
 62
     3
100
AcDbLine
 10
97.0
 20
89.56428571399998
 30
0.0
 11
97.2
 21
89.45
 31
0.0
  0
LINE
  5
B54
330
62A
100
AcDbEntity
  8
0
  6
Continuous
 62
     3
100
AcDbLine
 10
96.5
 20
89.84999999999997
 30
0.0
 11
96.6
 21
89.79285714299999
 31
0.0
  0
LINE
  5
B55
330
62A
100
AcDbEntity
  8
0
  6
Continuous
 62
     3
100
AcDbLine
 10
90.09999999999999
 20
89.95
 30
0.0
 11
96.4
 21
89.95
 31
0.0
  0
LINE
  5
B56
330
62A
100
AcDbEntity
  8
0
  6
Continuous
 62
     3
100
AcDbLine
 10
97.23437500000001
 20
89.42499999999999
 30
0.0
 11
96.284375
 21
82.825
 31
0.0
  0
LINE
  5
B57
330
62A
100
AcDbEntity
  8
0
  6
Continuous
 62
     3
100
AcDbLine
 10
79.29999999999998
 20
83.65
 30
0.0
 11
77.0
 21
83.65
 31
0.0
  0
LINE
  5
B58
330
62A
100
AcDbEntity
  8
0
  6
Continuous
 62
     3
100
AcDbLine
 10
76.90000000000002
 20
82.15000000000001
 30
0.0
 11
81.90000000000003
 21
82.15000000000001
 31
0.0
  0
LINE
  5
B59
330
62A
100
AcDbEntity
  8
0
  6
Continuous
 62
     3
100
AcDbLine
 10
81.90000000000003
 20
83.84999999999998
 30
0.0
 11
83.2
 21
82.84999999999998
 31
0.0
  0
LINE
  5
B5A
330
62A
100
AcDbEntity
  8
0
  6
Continuous
 62
     3
100
AcDbLine
 10
81.79999999999997
 20
83.54999999999998
 30
0.0
 11
83.09999999999998
 21
82.54999999999999
 31
0.0
  0
LINE
  5
B5B
330
62A
100
AcDbEntity
  8
0
  6
Continuous
 62
     3
100
AcDbLine
 10
83.09999999999998
 20
82.54999999999999
 30
0.0
 11
81.69999999999998
 21
82.15000000000001
 31
0.0
  0
LINE
  5
B5C
330
62A
100
AcDbEntity
  8
0
  6
Continuous
 62
     3
100
AcDbLine
 10
81.69999999999998
 20
81.84999999999998
 30
0.0
 11
83.2
 21
82.24999999999999
 31
0.0
  0
LINE
  5
B5D
330
62A
100
AcDbEntity
  8
0
  6
Continuous
 62
     3
100
AcDbLine
 10
76.90000000000002
 20
83.65
 30
0.0
 11
75.59999999999998
 21
83.04999999999997
 31
0.0
  0
LINE
  5
B5E
330
62A
100
AcDbEntity
  8
0
  6
Continuous
 62
     3
100
AcDbLine
 10
75.59999999999998
 20
83.04999999999997
 30
0.0
 11
76.79999999999998
 21
82.15000000000001
 31
0.0
  0
LINE
  5
B5F
330
62A
100
AcDbEntity
  8
0
  6
Continuous
 62
     3
100
AcDbLine
 10
75.4
 20
83.25000000000001
 30
0.0
 11
76.90000000000002
 21
84.04999999999999
 31
0.0
  0
LINE
  5
B60
330
62A
100
AcDbEntity
  8
0
  6
Continuous
 62
     3
100
AcDbLine
 10
81.69999999999998
 20
83.65
 30
0.0
 11
79.40000000000002
 21
83.65
 31
0.0
  0
POINT
  5
B61
330
62A
100
AcDbEntity
  8
0
  6
Continuous
 62
     3
100
AcDbPoint
 10
82.79999999999999
 20
89.95
 30
0.0
  0
LINE
  5
B62
330
62A
100
AcDbEntity
  8
0
  6
Continuous
 62
     3
100
AcDbLine
 10
82.5
 20
88.45
 30
0.0
 11
83.49999999999999
 21
89.65000000000001
 31
0.0
  0
LINE
  5
B63
330
62A
100
AcDbEntity
  8
0
  6
Continuous
 62
     3
100
AcDbLine
 10
83.9
 20
89.54999999999998
 30
0.0
 11
82.70000000000001
 21
88.04999999999997
 31
0.0
  0
LINE
  5
B64
330
62A
100
AcDbEntity
  8
0
  6
Continuous
 62
     3
100
AcDbLine
 10
77.79999999999998
 20
88.54999999999998
 30
0.0
 11
76.90000000000002
 21
89.65000000000001
 31
0.0
  0
LINE
  5
B65
330
62A
100
AcDbEntity
  8
0
  6
Continuous
 62
     3
100
AcDbLine
 10
77.59999999999998
 20
88.15000000000003
 30
0.0
 11
76.59999999999998
 21
89.45
 31
0.0
  0
LINE
  5
B66
330
62A
100
AcDbEntity
  8
0
  6
Continuous
 62
     3
100
AcDbLine
 10
76.95937499999998
 20
84.22499999999997
 30
0.0
 11
77.571875
 21
88.125
 31
0.0
  0
LINE
  5
B67
330
62A
100
AcDbEntity
  8
0
  6
Continuous
 62
     3
100
AcDbLine
 10
76.5
 20
89.421428571
 30
0.0
 11
76.29999999999999
 21
89.25
 31
0.0
  0
LINE
  5
B68
330
62A
100
AcDbEntity
  8
0
  6
Continuous
 62
     3
100
AcDbLine
 10
77.0
 20
89.84999999999997
 30
0.0
 11
76.90000000000002
 21
89.76428571399997
 31
0.0
  0
LINE
  5
B69
330
62A
100
AcDbEntity
  8
0
  6
Continuous
 62
     3
100
AcDbLine
 10
75.33437499999998
 20
83.22499999999998
 30
0.0
 11
76.19687500000002
 21
89.12499999999999
 31
0.0
  0
LINE
  5
B6A
330
62A
100
AcDbEntity
  8
0
  6
Continuous
 62
     3
100
AcDbLine
 10
77.9
 20
88.45
 30
0.0
 11
82.59999999999998
 21
88.45
 31
0.0
  0
LINE
  5
B6B
330
62A
100
AcDbEntity
  8
0
  6
Continuous
 62
     3
100
AcDbLine
 10
82.54687500000001
 20
87.92499999999998
 30
0.0
 11
81.90937499999998
 21
83.825
 31
0.0
  0
LINE
  5
B6C
330
62A
100
AcDbEntity
  8
0
  6
Continuous
 62
     3
100
AcDbLine
 10
84.0
 20
89.56428571399998
 30
0.0
 11
84.19999999999998
 21
89.45
 31
0.0
  0
LINE
  5
B6D
330
62A
100
AcDbEntity
  8
0
  6
Continuous
 62
     3
100
AcDbLine
 10
83.49999999999999
 20
89.84999999999997
 30
0.0
 11
83.59999999999997
 21
89.79285714299999
 31
0.0
  0
LINE
  5
B6E
330
62A
100
AcDbEntity
  8
0
  6
Continuous
 62
     3
100
AcDbLine
 10
77.09999999999998
 20
89.95
 30
0.0
 11
83.40000000000001
 21
89.95
 31
0.0
  0
LINE
  5
B6F
330
62A
100
AcDbEntity
  8
0
  6
Continuous
 62
     3
100
AcDbLine
 10
84.234375
 20
89.42499999999999
 30
0.0
 11
83.28437499999997
 21
82.825
 31
0.0
  0
POINT
  5
B70
330
62A
100
AcDbEntity
  8
0
  6
Continuous
 62
     3
100
AcDbPoint
 10
101.8
 20
75.95
 30
0.0
  0
LINE
  5
B71
330
62A
100
AcDbEntity
  8
0
  6
Continuous
 62
     3
100
AcDbLine
 10
107.0
 20
77.65
 30
0.0
 11
108.0999999999997
 21
76.54999999999998
 31
0.0
  0
LINE
  5
B72
330
62A
100
AcDbEntity
  8
0
  6
Continuous
 62
     3
100
AcDbLine
 10
106.8
 20
77.45
 30
0.0
 11
107.9
 21
76.34999999999998
 31
0.0
  0
LINE
  5
B73
330
62A
100
AcDbEntity
  8
0
  6
Continuous
 62
     3
100
AcDbLine
 10
100.8
 20
76.45
 30
0.0
 11
102.0
 21
77.34999999999998
 31
0.0
  0
LINE
  5
B74
330
62A
100
AcDbEntity
  8
0
  6
Continuous
 62
     3
100
AcDbLine
 10
100.7333333329998
 20
76.34999999999998
 30
0.0
 11
101.0
 21
75.95
 31
0.0
  0
LINE
  5
B75
330
62A
100
AcDbEntity
  8
0
  6
Continuous
 62
     3
100
AcDbLine
 10
106.8
 20
77.45
 30
0.0
 11
102.0
 21
77.45
 31
0.0
  0
LINE
  5
B76
330
62A
100
AcDbEntity
  8
0
  6
Continuous
 62
     3
100
AcDbLine
 10
108.0999999999997
 20
76.49444444399998
 30
0.0
 11
108.2999999999999
 21
76.65
 31
0.0
  0
LINE
  5
B77
330
62A
100
AcDbEntity
  8
0
  6
Continuous
 62
     3
100
AcDbLine
 10
107.4
 20
75.95
 30
0.0
 11
107.9
 21
76.338888889
 31
0.0
  0
LINE
  5
B78
330
62A
100
AcDbEntity
  8
0
  6
Continuous
 62
     3
100
AcDbLine
 10
107.4
 20
75.95
 30
0.0
 11
100.9
 21
75.95
 31
0.0
  0
LINE
  5
B79
330
62A
100
AcDbEntity
  8
0
  6
Continuous
 62
     3
100
AcDbLine
 10
109.2093749999998
 20
82.22499999999998
 30
0.0
 11
108.3843749999999
 21
76.625
 31
0.0
  0
POINT
  5
B7A
330
62A
100
AcDbEntity
  8
0
  6
Continuous
 62
     3
100
AcDbPoint
 10
88.79999999999999
 20
75.95
 30
0.0
  0
LINE
  5
B7B
330
62A
100
AcDbEntity
  8
0
  6
Continuous
 62
     3
100
AcDbLine
 10
94.0
 20
77.65
 30
0.0
 11
95.09999999999999
 21
76.54999999999998
 31
0.0
  0
LINE
  5
B7C
330
62A
100
AcDbEntity
  8
0
  6
Continuous
 62
     3
100
AcDbLine
 10
93.8
 20
77.45
 30
0.0
 11
94.9
 21
76.34999999999998
 31
0.0
  0
LINE
  5
B7D
330
62A
100
AcDbEntity
  8
0
  6
Continuous
 62
     3
100
AcDbLine
 10
87.79999999999999
 20
76.45
 30
0.0
 11
89.0
 21
77.34999999999998
 31
0.0
  0
LINE
  5
B7E
330
62A
100
AcDbEntity
  8
0
  6
Continuous
 62
     3
100
AcDbLine
 10
87.733333333
 20
76.34999999999998
 30
0.0
 11
88.0
 21
75.95
 31
0.0
  0
LINE
  5
B7F
330
62A
100
AcDbEntity
  8
0
  6
Continuous
 62
     3
100
AcDbLine
 10
93.8
 20
77.45
 30
0.0
 11
89.0
 21
77.45
 31
0.0
  0
LINE
  5
B80
330
62A
100
AcDbEntity
  8
0
  6
Continuous
 62
     3
100
AcDbLine
 10
95.09999999999999
 20
76.49444444399998
 30
0.0
 11
95.29999999999999
 21
76.65
 31
0.0
  0
LINE
  5
B81
330
62A
100
AcDbEntity
  8
0
  6
Continuous
 62
     3
100
AcDbLine
 10
94.40000000000001
 20
75.95
 30
0.0
 11
94.9
 21
76.338888889
 31
0.0
  0
LINE
  5
B82
330
62A
100
AcDbEntity
  8
0
  6
Continuous
 62
     3
100
AcDbLine
 10
94.40000000000001
 20
75.95
 30
0.0
 11
87.9
 21
75.95
 31
0.0
  0
LINE
  5
B83
330
62A
100
AcDbEntity
  8
0
  6
Continuous
 62
     3
100
AcDbLine
 10
96.209375
 20
82.22499999999998
 30
0.0
 11
95.384375
 21
76.625
 31
0.0
  0
POINT
  5
B84
330
62A
100
AcDbEntity
  8
0
  6
Continuous
 62
     3
100
AcDbPoint
 10
75.79999999999998
 20
75.95
 30
0.0
  0
LINE
  5
B85
330
62A
100
AcDbEntity
  8
0
  6
Continuous
 62
     3
100
AcDbLine
 10
81.0
 20
77.65
 30
0.0
 11
82.09999999999999
 21
76.54999999999998
 31
0.0
  0
LINE
  5
B86
330
62A
100
AcDbEntity
  8
0
  6
Continuous
 62
     3
100
AcDbLine
 10
80.79999999999998
 20
77.45
 30
0.0
 11
81.90000000000003
 21
76.34999999999998
 31
0.0
  0
LINE
  5
B87
330
62A
100
AcDbEntity
  8
0
  6
Continuous
 62
     3
100
AcDbLine
 10
74.79999999999998
 20
76.45
 30
0.0
 11
76.0
 21
77.34999999999998
 31
0.0
  0
LINE
  5
B88
330
62A
100
AcDbEntity
  8
0
  6
Continuous
 62
     3
100
AcDbLine
 10
74.73333333300001
 20
76.34999999999998
 30
0.0
 11
75.0
 21
75.95
 31
0.0
  0
LINE
  5
B89
330
62A
100
AcDbEntity
  8
0
  6
Continuous
 62
     3
100
AcDbLine
 10
80.79999999999998
 20
77.45
 30
0.0
 11
76.0
 21
77.45
 31
0.0
  0
LINE
  5
B8A
330
62A
100
AcDbEntity
  8
0
  6
Continuous
 62
     3
100
AcDbLine
 10
82.09999999999999
 20
76.49444444399998
 30
0.0
 11
82.29999999999998
 21
76.65
 31
0.0
  0
LINE
  5
B8B
330
62A
100
AcDbEntity
  8
0
  6
Continuous
 62
     3
100
AcDbLine
 10
81.4
 20
75.95
 30
0.0
 11
81.90000000000003
 21
76.338888889
 31
0.0
  0
LINE
  5
B8C
330
62A
100
AcDbEntity
  8
0
  6
Continuous
 62
     3
100
AcDbLine
 10
81.4
 20
75.95
 30
0.0
 11
74.90000000000001
 21
75.95
 31
0.0
  0
LINE
  5
B8D
330
62A
100
AcDbEntity
  8
0
  6
Continuous
 62
     3
100
AcDbLine
 10
83.20937499999997
 20
82.22499999999998
 30
0.0
 11
82.38437500000001
 21
76.625
 31
0.0
  0
LINE
  5
B8E
330
62A
100
AcDbEntity
  8
0
  6
Continuous
 62
     3
100
AcDbLine
 10
81.04999999999998
 20
77.7
 30
0.0
 11
81.54999999999999
 21
81.69999999999998
 31
0.0
  0
LINE
  5
B8F
330
62A
100
AcDbEntity
  8
0
  6
Continuous
 62
     3
100
AcDbLine
 10
94.55
 20
81.69999999999998
 30
0.0
 11
94.04999999999999
 21
77.7
 31
0.0
  0
LINE
  5
B90
330
62A
100
AcDbEntity
  8
0
  6
Continuous
 62
     3
100
AcDbLine
 10
107.5499999999999
 20
81.69999999999998
 30
0.0
 11
107.05
 21
77.7
 31
0.0
  0
LINE
  5
B91
330
62A
100
AcDbEntity
  8
0
  6
Continuous
 62
     3
100
AcDbLine
 10
103.9
 20
88.45
 30
0.0
 11
108.4999999999999
 21
88.45
 31
0.0
  0
LINE
  5
B92
330
62A
100
AcDbEntity
  8
0
  6
Continuous
 62
     3
100
AcDbLine
 10
103.8818181819999
 20
88.45
 30
0.0
 11
102.9
 21
89.65000000000001
 31
0.0
  0
LINE
  5
B93
330
62A
100
AcDbEntity
  8
0
  6
Continuous
 62
     3
100
AcDbLine
 10
108.4999999999999
 20
88.45
 30
0.0
 11
109.583333333
 21
89.74999999999999
 31
0.0
  0
LINE
  5
B94
330
62A
100
AcDbEntity
  8
0
  6
Continuous
 62
     3
100
AcDbLine
 10
109.4
 20
89.90714285700001
 30
0.0
 11
109.5999999999998
 21
89.79285714299999
 31
0.0
  0
LINE
  5
B95
330
62A
100
AcDbEntity
  8
0
  6
Continuous
 62
     3
100
AcDbLine
 10
118.3
 20
83.65
 30
0.0
 11
116.0
 21
83.65
 31
0.0
  0
LINE
  5
B96
330
62A
100
AcDbEntity
  8
0
  6
Continuous
 62
     3
100
AcDbLine
 10
115.9
 20
82.15000000000001
 30
0.0
 11
120.9
 21
82.15000000000001
 31
0.0
  0
LINE
  5
B97
330
62A
100
AcDbEntity
  8
0
  6
Continuous
 62
     3
100
AcDbLine
 10
120.9
 20
83.84999999999998
 30
0.0
 11
122.1999999999999
 21
82.84999999999998
 31
0.0
  0
LINE
  5
B98
330
62A
100
AcDbEntity
  8
0
  6
Continuous
 62
     3
100
AcDbLine
 10
120.7999999999999
 20
83.54999999999998
 30
0.0
 11
122.0999999999998
 21
82.54999999999999
 31
0.0
  0
LINE
  5
B99
330
62A
100
AcDbEntity
  8
0
  6
Continuous
 62
     3
100
AcDbLine
 10
122.0999999999998
 20
82.54999999999999
 30
0.0
 11
120.7
 21
82.15000000000001
 31
0.0
  0
LINE
  5
B9A
330
62A
100
AcDbEntity
  8
0
  6
Continuous
 62
     3
100
AcDbLine
 10
120.7
 20
81.84999999999998
 30
0.0
 11
122.1999999999999
 21
82.24999999999999
 31
0.0
  0
LINE
  5
B9B
330
62A
100
AcDbEntity
  8
0
  6
Continuous
 62
     3
100
AcDbLine
 10
115.9
 20
83.65
 30
0.0
 11
114.5999999999997
 21
83.04999999999997
 31
0.0
  0
LINE
  5
B9C
330
62A
100
AcDbEntity
  8
0
  6
Continuous
 62
     3
100
AcDbLine
 10
114.5999999999997
 20
83.04999999999997
 30
0.0
 11
115.7999999999999
 21
82.15000000000001
 31
0.0
  0
LINE
  5
B9D
330
62A
100
AcDbEntity
  8
0
  6
Continuous
 62
     3
100
AcDbLine
 10
114.4
 20
83.25000000000001
 30
0.0
 11
115.9
 21
84.04999999999999
 31
0.0
  0
LINE
  5
B9E
330
62A
100
AcDbEntity
  8
0
  6
Continuous
 62
     3
100
AcDbLine
 10
120.7
 20
83.65
 30
0.0
 11
118.4
 21
83.65
 31
0.0
  0
POINT
  5
B9F
330
62A
100
AcDbEntity
  8
0
  6
Continuous
 62
     3
100
AcDbPoint
 10
121.7999999999999
 20
89.95
 30
0.0
  0
LINE
  5
BA0
330
62A
100
AcDbEntity
  8
0
  6
Continuous
 62
     3
100
AcDbLine
 10
122.9
 20
89.54999999999998
 30
0.0
 11
121.7
 21
88.04999999999997
 31
0.0
  0
LINE
  5
BA1
330
62A
100
AcDbEntity
  8
0
  6
Continuous
 62
     3
100
AcDbLine
 10
116.5999999999997
 20
88.15000000000003
 30
0.0
 11
115.5999999999997
 21
89.45
 31
0.0
  0
LINE
  5
BA2
330
62A
100
AcDbEntity
  8
0
  6
Continuous
 62
     3
100
AcDbLine
 10
115.9593749999997
 20
84.22499999999997
 30
0.0
 11
116.571875
 21
88.125
 31
0.0
  0
LINE
  5
BA3
330
62A
100
AcDbEntity
  8
0
  6
Continuous
 62
     3
100
AcDbLine
 10
115.5
 20
89.421428571
 30
0.0
 11
115.3
 21
89.25
 31
0.0
  0
LINE
  5
BA4
330
62A
100
AcDbEntity
  8
0
  6
Continuous
 62
     3
100
AcDbLine
 10
116.0
 20
89.84999999999997
 30
0.0
 11
115.9
 21
89.76428571399997
 31
0.0
  0
LINE
  5
BA5
330
62A
100
AcDbEntity
  8
0
  6
Continuous
 62
     3
100
AcDbLine
 10
114.3343749999995
 20
83.22499999999998
 30
0.0
 11
115.1968749999999
 21
89.12499999999999
 31
0.0
  0
LINE
  5
BA6
330
62A
100
AcDbEntity
  8
0
  6
Continuous
 62
     3
100
AcDbLine
 10
121.546875
 20
87.92499999999998
 30
0.0
 11
120.909375
 21
83.825
 31
0.0
  0
LINE
  5
BA7
330
62A
100
AcDbEntity
  8
0
  6
Continuous
 62
     3
100
AcDbLine
 10
123.0
 20
89.56428571399998
 30
0.0
 11
123.1999999999999
 21
89.45
 31
0.0
  0
LINE
  5
BA8
330
62A
100
AcDbEntity
  8
0
  6
Continuous
 62
     3
100
AcDbLine
 10
116.1
 20
89.95
 30
0.0
 11
122.3999999999999
 21
89.95
 31
0.0
  0
LINE
  5
BA9
330
62A
100
AcDbEntity
  8
0
  6
Continuous
 62
     3
100
AcDbLine
 10
123.234375
 20
89.42499999999999
 30
0.0
 11
122.284375
 21
82.825
 31
0.0
  0
POINT
  5
BAA
330
62A
100
AcDbEntity
  8
0
  6
Continuous
 62
     3
100
AcDbPoint
 10
114.7999999999999
 20
75.95
 30
0.0
  0
LINE
  5
BAB
330
62A
100
AcDbEntity
  8
0
  6
Continuous
 62
     3
100
AcDbLine
 10
120.0
 20
77.65
 30
0.0
 11
121.1
 21
76.54999999999998
 31
0.0
  0
LINE
  5
BAC
330
62A
100
AcDbEntity
  8
0
  6
Continuous
 62
     3
100
AcDbLine
 10
119.7999999999999
 20
77.45
 30
0.0
 11
120.9
 21
76.34999999999998
 31
0.0
  0
LINE
  5
BAD
330
62A
100
AcDbEntity
  8
0
  6
Continuous
 62
     3
100
AcDbLine
 10
113.7999999999999
 20
76.45
 30
0.0
 11
115.0
 21
77.34999999999998
 31
0.0
  0
LINE
  5
BAE
330
62A
100
AcDbEntity
  8
0
  6
Continuous
 62
     3
100
AcDbLine
 10
113.7333333329997
 20
76.34999999999998
 30
0.0
 11
114.0
 21
75.95
 31
0.0
  0
LINE
  5
BAF
330
62A
100
AcDbEntity
  8
0
  6
Continuous
 62
     3
100
AcDbLine
 10
119.7999999999999
 20
77.45
 30
0.0
 11
115.0
 21
77.45
 31
0.0
  0
LINE
  5
BB0
330
62A
100
AcDbEntity
  8
0
  6
Continuous
 62
     3
100
AcDbLine
 10
121.1
 20
76.49444444399998
 30
0.0
 11
121.3
 21
76.65
 31
0.0
  0
LINE
  5
BB1
330
62A
100
AcDbEntity
  8
0
  6
Continuous
 62
     3
100
AcDbLine
 10
120.4
 20
75.95
 30
0.0
 11
120.9
 21
76.338888889
 31
0.0
  0
LINE
  5
BB2
330
62A
100
AcDbEntity
  8
0
  6
Continuous
 62
     3
100
AcDbLine
 10
120.4
 20
75.95
 30
0.0
 11
113.9
 21
75.95
 31
0.0
  0
LINE
  5
BB3
330
62A
100
AcDbEntity
  8
0
  6
Continuous
 62
     3
100
AcDbLine
 10
122.2093749999997
 20
82.22499999999998
 30
0.0
 11
121.384375
 21
76.625
 31
0.0
  0
LINE
  5
BB4
330
62A
100
AcDbEntity
  8
0
  6
Continuous
 62
     3
100
AcDbLine
 10
120.55
 20
81.69999999999998
 30
0.0
 11
120.0499999999999
 21
77.7
 31
0.0
  0
LINE
  5
BB5
330
62A
100
AcDbEntity
  8
0
  6
Continuous
 62
     3
100
AcDbLine
 10
116.9
 20
88.45
 30
0.0
 11
121.5
 21
88.45
 31
0.0
  0
LINE
  5
BB6
330
62A
100
AcDbEntity
  8
0
  6
Continuous
 62
     3
100
AcDbLine
 10
116.881818182
 20
88.45
 30
0.0
 11
115.9
 21
89.65000000000001
 31
0.0
  0
LINE
  5
BB7
330
62A
100
AcDbEntity
  8
0
  6
Continuous
 62
     3
100
AcDbLine
 10
121.5
 20
88.45
 30
0.0
 11
122.5833333329999
 21
89.74999999999999
 31
0.0
  0
LINE
  5
BB8
330
62A
100
AcDbEntity
  8
0
  6
Continuous
 62
     3
100
AcDbLine
 10
122.3999999999999
 20
89.90714285700001
 30
0.0
 11
122.5999999999997
 21
89.79285714299999
 31
0.0
  0
LINE
  5
BB9
330
62A
100
AcDbEntity
  8
0
  6
Continuous
 62
     3
100
AcDbLine
 10
144.3
 20
83.65
 30
0.0
 11
142.0
 21
83.65
 31
0.0
  0
LINE
  5
BBA
330
62A
100
AcDbEntity
  8
0
  6
Continuous
 62
     3
100
AcDbLine
 10
141.9
 20
82.15000000000001
 30
0.0
 11
146.9
 21
82.15000000000001
 31
0.0
  0
LINE
  5
BBB
330
62A
100
AcDbEntity
  8
0
  6
Continuous
 62
     3
100
AcDbLine
 10
146.9
 20
83.84999999999998
 30
0.0
 11
148.2
 21
82.84999999999998
 31
0.0
  0
LINE
  5
BBC
330
62A
100
AcDbEntity
  8
0
  6
Continuous
 62
     3
100
AcDbLine
 10
146.8
 20
83.54999999999998
 30
0.0
 11
148.0999999999999
 21
82.54999999999999
 31
0.0
  0
LINE
  5
BBD
330
62A
100
AcDbEntity
  8
0
  6
Continuous
 62
     3
100
AcDbLine
 10
148.0999999999999
 20
82.54999999999999
 30
0.0
 11
146.6999999999998
 21
82.15000000000001
 31
0.0
  0
LINE
  5
BBE
330
62A
100
AcDbEntity
  8
0
  6
Continuous
 62
     3
100
AcDbLine
 10
146.6999999999998
 20
81.84999999999998
 30
0.0
 11
148.2
 21
82.24999999999999
 31
0.0
  0
LINE
  5
BBF
330
62A
100
AcDbEntity
  8
0
  6
Continuous
 62
     3
100
AcDbLine
 10
141.9
 20
83.65
 30
0.0
 11
140.5999999999995
 21
83.04999999999997
 31
0.0
  0
LINE
  5
BC0
330
62A
100
AcDbEntity
  8
0
  6
Continuous
 62
     3
100
AcDbLine
 10
140.5999999999995
 20
83.04999999999997
 30
0.0
 11
141.8
 21
82.15000000000001
 31
0.0
  0
LINE
  5
BC1
330
62A
100
AcDbEntity
  8
0
  6
Continuous
 62
     3
100
AcDbLine
 10
140.4
 20
83.25000000000001
 30
0.0
 11
141.9
 21
84.04999999999999
 31
0.0
  0
LINE
  5
BC2
330
62A
100
AcDbEntity
  8
0
  6
Continuous
 62
     3
100
AcDbLine
 10
146.6999999999998
 20
83.65
 30
0.0
 11
144.4
 21
83.65
 31
0.0
  0
POINT
  5
BC3
330
62A
100
AcDbEntity
  8
0
  6
Continuous
 62
     3
100
AcDbPoint
 10
147.8
 20
89.95
 30
0.0
  0
LINE
  5
BC4
330
62A
100
AcDbEntity
  8
0
  6
Continuous
 62
     3
100
AcDbLine
 10
148.9
 20
89.54999999999998
 30
0.0
 11
147.6999999999998
 21
88.04999999999997
 31
0.0
  0
LINE
  5
BC5
330
62A
100
AcDbEntity
  8
0
  6
Continuous
 62
     3
100
AcDbLine
 10
142.5999999999999
 20
88.15000000000003
 30
0.0
 11
141.5999999999999
 21
89.45
 31
0.0
  0
LINE
  5
BC6
330
62A
100
AcDbEntity
  8
0
  6
Continuous
 62
     3
100
AcDbLine
 10
141.9593749999999
 20
84.22499999999997
 30
0.0
 11
142.571875
 21
88.125
 31
0.0
  0
LINE
  5
BC7
330
62A
100
AcDbEntity
  8
0
  6
Continuous
 62
     3
100
AcDbLine
 10
141.5
 20
89.421428571
 30
0.0
 11
141.3
 21
89.25
 31
0.0
  0
LINE
  5
BC8
330
62A
100
AcDbEntity
  8
0
  6
Continuous
 62
     3
100
AcDbLine
 10
142.0
 20
89.84999999999997
 30
0.0
 11
141.9
 21
89.76428571399997
 31
0.0
  0
LINE
  5
BC9
330
62A
100
AcDbEntity
  8
0
  6
Continuous
 62
     3
100
AcDbLine
 10
140.3343749999999
 20
83.22499999999998
 30
0.0
 11
141.1968749999996
 21
89.12499999999999
 31
0.0
  0
LINE
  5
BCA
330
62A
100
AcDbEntity
  8
0
  6
Continuous
 62
     3
100
AcDbLine
 10
147.546875
 20
87.92499999999998
 30
0.0
 11
146.909375
 21
83.825
 31
0.0
  0
LINE
  5
BCB
330
62A
100
AcDbEntity
  8
0
  6
Continuous
 62
     3
100
AcDbLine
 10
149.0
 20
89.56428571399998
 30
0.0
 11
149.1999999999999
 21
89.45
 31
0.0
  0
LINE
  5
BCC
330
62A
100
AcDbEntity
  8
0
  6
Continuous
 62
     3
100
AcDbLine
 10
142.1
 20
89.95
 30
0.0
 11
148.3999999999998
 21
89.95
 31
0.0
  0
LINE
  5
BCD
330
62A
100
AcDbEntity
  8
0
  6
Continuous
 62
     3
100
AcDbLine
 10
149.234375
 20
89.42499999999999
 30
0.0
 11
148.284375
 21
82.825
 31
0.0
  0
LINE
  5
BCE
330
62A
100
AcDbEntity
  8
0
  6
Continuous
 62
     3
100
AcDbLine
 10
131.3
 20
83.65
 30
0.0
 11
129.0
 21
83.65
 31
0.0
  0
LINE
  5
BCF
330
62A
100
AcDbEntity
  8
0
  6
Continuous
 62
     3
100
AcDbLine
 10
128.9
 20
82.15000000000001
 30
0.0
 11
133.9
 21
82.15000000000001
 31
0.0
  0
LINE
  5
BD0
330
62A
100
AcDbEntity
  8
0
  6
Continuous
 62
     3
100
AcDbLine
 10
133.9
 20
83.84999999999998
 30
0.0
 11
135.1999999999994
 21
82.84999999999998
 31
0.0
  0
LINE
  5
BD1
330
62A
100
AcDbEntity
  8
0
  6
Continuous
 62
     3
100
AcDbLine
 10
133.8
 20
83.54999999999998
 30
0.0
 11
135.0999999999999
 21
82.54999999999999
 31
0.0
  0
LINE
  5
BD2
330
62A
100
AcDbEntity
  8
0
  6
Continuous
 62
     3
100
AcDbLine
 10
135.0999999999999
 20
82.54999999999999
 30
0.0
 11
133.6999999999999
 21
82.15000000000001
 31
0.0
  0
LINE
  5
BD3
330
62A
100
AcDbEntity
  8
0
  6
Continuous
 62
     3
100
AcDbLine
 10
133.6999999999999
 20
81.84999999999998
 30
0.0
 11
135.1999999999994
 21
82.24999999999999
 31
0.0
  0
LINE
  5
BD4
330
62A
100
AcDbEntity
  8
0
  6
Continuous
 62
     3
100
AcDbLine
 10
128.9
 20
83.65
 30
0.0
 11
127.6
 21
83.04999999999997
 31
0.0
  0
LINE
  5
BD5
330
62A
100
AcDbEntity
  8
0
  6
Continuous
 62
     3
100
AcDbLine
 10
127.6
 20
83.04999999999997
 30
0.0
 11
128.8
 21
82.15000000000001
 31
0.0
  0
LINE
  5
BD6
330
62A
100
AcDbEntity
  8
0
  6
Continuous
 62
     3
100
AcDbLine
 10
127.4
 20
83.25000000000001
 30
0.0
 11
128.9
 21
84.04999999999999
 31
0.0
  0
LINE
  5
BD7
330
62A
100
AcDbEntity
  8
0
  6
Continuous
 62
     3
100
AcDbLine
 10
133.6999999999999
 20
83.65
 30
0.0
 11
131.4
 21
83.65
 31
0.0
  0
POINT
  5
BD8
330
62A
100
AcDbEntity
  8
0
  6
Continuous
 62
     3
100
AcDbPoint
 10
134.8
 20
89.95
 30
0.0
  0
LINE
  5
BD9
330
62A
100
AcDbEntity
  8
0
  6
Continuous
 62
     3
100
AcDbLine
 10
134.4999999999995
 20
88.45
 30
0.0
 11
135.4999999999995
 21
89.65000000000001
 31
0.0
  0
LINE
  5
BDA
330
62A
100
AcDbEntity
  8
0
  6
Continuous
 62
     3
100
AcDbLine
 10
135.8999999999996
 20
89.54999999999998
 30
0.0
 11
134.6999999999999
 21
88.04999999999997
 31
0.0
  0
LINE
  5
BDB
330
62A
100
AcDbEntity
  8
0
  6
Continuous
 62
     3
100
AcDbLine
 10
129.8
 20
88.54999999999998
 30
0.0
 11
128.9
 21
89.65000000000001
 31
0.0
  0
LINE
  5
BDC
330
62A
100
AcDbEntity
  8
0
  6
Continuous
 62
     3
100
AcDbLine
 10
129.6
 20
88.15000000000003
 30
0.0
 11
128.6
 21
89.45
 31
0.0
  0
LINE
  5
BDD
330
62A
100
AcDbEntity
  8
0
  6
Continuous
 62
     3
100
AcDbLine
 10
128.9593749999999
 20
84.22499999999997
 30
0.0
 11
129.571875
 21
88.125
 31
0.0
  0
LINE
  5
BDE
330
62A
100
AcDbEntity
  8
0
  6
Continuous
 62
     3
100
AcDbLine
 10
128.4999999999998
 20
89.421428571
 30
0.0
 11
128.3
 21
89.25
 31
0.0
  0
LINE
  5
BDF
330
62A
100
AcDbEntity
  8
0
  6
Continuous
 62
     3
100
AcDbLine
 10
129.0
 20
89.84999999999997
 30
0.0
 11
128.9
 21
89.76428571399997
 31
0.0
  0
LINE
  5
BE0
330
62A
100
AcDbEntity
  8
0
  6
Continuous
 62
     3
100
AcDbLine
 10
127.3343749999995
 20
83.22499999999998
 30
0.0
 11
128.196875
 21
89.12499999999999
 31
0.0
  0
LINE
  5
BE1
330
62A
100
AcDbEntity
  8
0
  6
Continuous
 62
     3
100
AcDbLine
 10
129.9
 20
88.45
 30
0.0
 11
134.5999999999999
 21
88.45
 31
0.0
  0
LINE
  5
BE2
330
62A
100
AcDbEntity
  8
0
  6
Continuous
 62
     3
100
AcDbLine
 10
134.5468749999995
 20
87.92499999999998
 30
0.0
 11
133.909375
 21
83.825
 31
0.0
  0
LINE
  5
BE3
330
62A
100
AcDbEntity
  8
0
  6
Continuous
 62
     3
100
AcDbLine
 10
136.0
 20
89.56428571399998
 30
0.0
 11
136.1999999999994
 21
89.45
 31
0.0
  0
LINE
  5
BE4
330
62A
100
AcDbEntity
  8
0
  6
Continuous
 62
     3
100
AcDbLine
 10
135.4999999999995
 20
89.84999999999997
 30
0.0
 11
135.5999999999999
 21
89.79285714299999
 31
0.0
  0
LINE
  5
BE5
330
62A
100
AcDbEntity
  8
0
  6
Continuous
 62
     3
100
AcDbLine
 10
129.0999999999999
 20
89.95
 30
0.0
 11
135.4
 21
89.95
 31
0.0
  0
LINE
  5
BE6
330
62A
100
AcDbEntity
  8
0
  6
Continuous
 62
     3
100
AcDbLine
 10
136.2343749999995
 20
89.42499999999999
 30
0.0
 11
135.284375
 21
82.825
 31
0.0
  0
POINT
  5
BE7
330
62A
100
AcDbEntity
  8
0
  6
Continuous
 62
     3
100
AcDbPoint
 10
140.8
 20
75.95
 30
0.0
  0
LINE
  5
BE8
330
62A
100
AcDbEntity
  8
0
  6
Continuous
 62
     3
100
AcDbLine
 10
146.0
 20
77.65
 30
0.0
 11
147.0999999999999
 21
76.54999999999998
 31
0.0
  0
LINE
  5
BE9
330
62A
100
AcDbEntity
  8
0
  6
Continuous
 62
     3
100
AcDbLine
 10
145.8
 20
77.45
 30
0.0
 11
146.9
 21
76.34999999999998
 31
0.0
  0
LINE
  5
BEA
330
62A
100
AcDbEntity
  8
0
  6
Continuous
 62
     3
100
AcDbLine
 10
139.8
 20
76.45
 30
0.0
 11
141.0
 21
77.34999999999998
 31
0.0
  0
LINE
  5
BEB
330
62A
100
AcDbEntity
  8
0
  6
Continuous
 62
     3
100
AcDbLine
 10
139.7333333329999
 20
76.34999999999998
 30
0.0
 11
140.0
 21
75.95
 31
0.0
  0
LINE
  5
BEC
330
62A
100
AcDbEntity
  8
0
  6
Continuous
 62
     3
100
AcDbLine
 10
145.8
 20
77.45
 30
0.0
 11
141.0
 21
77.45
 31
0.0
  0
LINE
  5
BED
330
62A
100
AcDbEntity
  8
0
  6
Continuous
 62
     3
100
AcDbLine
 10
147.0999999999999
 20
76.49444444399998
 30
0.0
 11
147.3
 21
76.65
 31
0.0
  0
LINE
  5
BEE
330
62A
100
AcDbEntity
  8
0
  6
Continuous
 62
     3
100
AcDbLine
 10
146.4
 20
75.95
 30
0.0
 11
146.9
 21
76.338888889
 31
0.0
  0
LINE
  5
BEF
330
62A
100
AcDbEntity
  8
0
  6
Continuous
 62
     3
100
AcDbLine
 10
146.4
 20
75.95
 30
0.0
 11
139.9
 21
75.95
 31
0.0
  0
LINE
  5
BF0
330
62A
100
AcDbEntity
  8
0
  6
Continuous
 62
     3
100
AcDbLine
 10
148.2093749999999
 20
82.22499999999998
 30
0.0
 11
147.384375
 21
76.625
 31
0.0
  0
POINT
  5
BF1
330
62A
100
AcDbEntity
  8
0
  6
Continuous
 62
     3
100
AcDbPoint
 10
127.8
 20
75.95
 30
0.0
  0
LINE
  5
BF2
330
62A
100
AcDbEntity
  8
0
  6
Continuous
 62
     3
100
AcDbLine
 10
133.0
 20
77.65
 30
0.0
 11
134.0999999999999
 21
76.54999999999998
 31
0.0
  0
LINE
  5
BF3
330
62A
100
AcDbEntity
  8
0
  6
Continuous
 62
     3
100
AcDbLine
 10
132.8
 20
77.45
 30
0.0
 11
133.9
 21
76.34999999999998
 31
0.0
  0
LINE
  5
BF4
330
62A
100
AcDbEntity
  8
0
  6
Continuous
 62
     3
100
AcDbLine
 10
126.8
 20
76.45
 30
0.0
 11
128.0
 21
77.34999999999998
 31
0.0
  0
LINE
  5
BF5
330
62A
100
AcDbEntity
  8
0
  6
Continuous
 62
     3
100
AcDbLine
 10
126.7333333329998
 20
76.34999999999998
 30
0.0
 11
127.0
 21
75.95
 31
0.0
  0
LINE
  5
BF6
330
62A
100
AcDbEntity
  8
0
  6
Continuous
 62
     3
100
AcDbLine
 10
132.8
 20
77.45
 30
0.0
 11
128.0
 21
77.45
 31
0.0
  0
LINE
  5
BF7
330
62A
100
AcDbEntity
  8
0
  6
Continuous
 62
     3
100
AcDbLine
 10
134.0999999999999
 20
76.49444444399998
 30
0.0
 11
134.3
 21
76.65
 31
0.0
  0
LINE
  5
BF8
330
62A
100
AcDbEntity
  8
0
  6
Continuous
 62
     3
100
AcDbLine
 10
133.4
 20
75.95
 30
0.0
 11
133.9
 21
76.338888889
 31
0.0
  0
LINE
  5
BF9
330
62A
100
AcDbEntity
  8
0
  6
Continuous
 62
     3
100
AcDbLine
 10
133.4
 20
75.95
 30
0.0
 11
126.9
 21
75.95
 31
0.0
  0
LINE
  5
BFA
330
62A
100
AcDbEntity
  8
0
  6
Continuous
 62
     3
100
AcDbLine
 10
135.2093749999999
 20
82.22499999999998
 30
0.0
 11
134.384375
 21
76.625
 31
0.0
  0
LINE
  5
BFB
330
62A
100
AcDbEntity
  8
0
  6
Continuous
 62
     3
100
AcDbLine
 10
133.55
 20
81.69999999999998
 30
0.0
 11
133.05
 21
77.7
 31
0.0
  0
LINE
  5
BFC
330
62A
100
AcDbEntity
  8
0
  6
Continuous
 62
     3
100
AcDbLine
 10
146.55
 20
81.69999999999998
 30
0.0
 11
146.05
 21
77.7
 31
0.0
  0
LINE
  5
BFD
330
62A
100
AcDbEntity
  8
0
  6
Continuous
 62
     3
100
AcDbLine
 10
142.9
 20
88.45
 30
0.0
 11
147.5
 21
88.45
 31
0.0
  0
LINE
  5
BFE
330
62A
100
AcDbEntity
  8
0
  6
Continuous
 62
     3
100
AcDbLine
 10
142.881818182
 20
88.45
 30
0.0
 11
141.9
 21
89.65000000000001
 31
0.0
  0
LINE
  5
BFF
330
62A
100
AcDbEntity
  8
0
  6
Continuous
 62
     3
100
AcDbLine
 10
147.5
 20
88.45
 30
0.0
 11
148.5833333329999
 21
89.74999999999999
 31
0.0
  0
LINE
  5
C00
330
62A
100
AcDbEntity
  8
0
  6
Continuous
 62
     3
100
AcDbLine
 10
148.3999999999998
 20
89.90714285700001
 30
0.0
 11
148.5999999999999
 21
89.79285714299999
 31
0.0
  0
TEXT
  5
C0C
330
62A
100
AcDbEntity
  8
0
  6
Continuous
 62
     3
100
AcDbText
 10
325.9599999999998
 20
201.732
 30
0.1
 40
4.0
  1
ＰＡＮＥＬ　ＣＵＴ
 41
0.75
  7
KANJI12
100
AcDbText
  0
ENDSEC
  0
SECTION
  2
OBJECTS
  0
DICTIONARY
  5
618
330
0
100
AcDbDictionary
281
     1
  3
ACAD_GROUP
350
619
  3
ACAD_PLOTSTYLENAME
350
61A
  3
ACAD_MLINESTYLE
350
622
  3
ACAD_PLOTSETTINGS
350
624
  3
ACAD_LAYOUT
350
625
  0
DICTIONARY
  5
619
102
{ACAD_REACTORS
330
618
102
}
330
618
100
AcDbDictionary
281
     1
  0
ACDBDICTIONARYWDFLT
  5
61A
102
{ACAD_REACTORS
330
618
102
}
330
618
100
AcDbDictionary
281
     1
  3
Normal
350
61B
100
AcDbDictionaryWithDefault
340
61B
  0
DICTIONARY
  5
622
102
{ACAD_REACTORS
330
618
102
}
330
618
100
AcDbDictionary
281
     1
  3
Standard
350
623
  0
DICTIONARY
  5
624
102
{ACAD_REACTORS
330
618
102
}
330
618
100
AcDbDictionary
281
     1
  0
DICTIONARY
  5
625
102
{ACAD_REACTORS
330
618
102
}
330
618
100
AcDbDictionary
281
     1
  3
ﾚｲｱｳﾄ1
350
629
  3
Model
350
62D
  0
ACDBPLACEHOLDER
  5
61B
102
{ACAD_REACTORS
330
61A
102
}
330
61A
  0
MLINESTYLE
  5
623
102
{ACAD_REACTORS
330
622
102
}
330
622
100
AcDbMlineStyle
  2
STANDARD
 70
     0
  3

 62
   256
 51
90.0
 52
90.0
 71
     2
 49
0.5
 62
   256
  6
BYLAYER
 49
-0.5
 62
   256
  6
BYLAYER
  0
LAYOUT
  5
629
102
{ACAD_REACTORS
330
625
102
}
330
625
100
AcDbPlotSettings
  1

  2
Canon LASER SHOT LBP-880
  4

  6

 40
0.0
 41
0.0
 42
0.0
 43
0.0
 44
0.0
 45
0.0
 46
0.0
 47
0.0
 48
0.0
 49
0.0
140
0.0
141
0.0
142
1.0
143
1.0
 70
   688
 72
     0
 73
     0
 74
     5
  7

 75
    16
147
1.0
148
0.0
149
0.0
100
AcDbLayout
  1
ﾚｲｱｳﾄ1
 70
     1
 71
     1
 10
0.0
 20
0.0
 11
12.0
 21
9.0
 12
0.0
 22
0.0
 32
0.0
 14
1.000000000000000E+20
 24
1.000000000000000E+20
 34
1.000000000000000E+20
 15
-1.000000000000000E+20
 25
-1.000000000000000E+20
 35
-1.000000000000000E+20
146
0.0
 13
0.0
 23
0.0
 33
0.0
 16
1.0
 26
0.0
 36
0.0
 17
0.0
 27
1.0
 37
0.0
 76
     0
330
626
  0
LAYOUT
  5
62D
102
{ACAD_REACTORS
330
625
102
}
330
625
100
AcDbPlotSettings
  1

  2
Canon LASER SHOT LBP-880
  4

  6

 40
0.0
 41
0.0
 42
0.0
 43
0.0
 44
0.0
 45
0.0
 46
0.0
 47
0.0
 48
0.0
 49
0.0
140
0.0
141
0.0
142
1.0
143
1.0
 70
  1712
 72
     0
 73
     0
 74
     0
  7

 75
     0
147
1.0
148
0.0
149
0.0
100
AcDbLayout
  1
Model
 70
     1
 71
     0
 10
0.0
 20
0.0
 11
12.0
 21
9.0
 12
0.0
 22
0.0
 32
0.0
 14
0.0
 24
0.0
 34
0.0
 15
0.0
 25
0.0
 35
0.0
146
0.0
 13
0.0
 23
0.0
 33
0.0
 16
1.0
 26
0.0
 36
0.0
 17
0.0
 27
1.0
 37
0.0
 76
     0
330
62A
  0
ENDSEC
  0
EOF
