  0
SECTION
  2
HEADER
  9
$ACADVER
  1
AC1015
  9
$ACADMAINTVER
 70
     6
  9
$DWGCODEPAGE
  3
ANSI_932
  9
$INSBASE
 10
0.0
 20
0.0
 30
0.0
  9
$EXTMIN
 10
71.5102285
 20
140.889239
 30
0.0
  9
$EXTMAX
 10
232.97457
 20
263.9910400000001
 30
0.5454
  9
$LIMMIN
 10
0.0
 20
0.0
  9
$LIMMAX
 10
12.0
 20
9.0
  9
$ORTHOMODE
 70
     0
  9
$REGENMODE
 70
     1
  9
$FILLMODE
 70
     1
  9
$QTEXTMODE
 70
     0
  9
$MIRRTEXT
 70
     1
  9
$LTSCALE
 40
1.0
  9
$ATTMODE
 70
     1
  9
$TEXTSIZE
 40
0.2
  9
$TRACEWID
 40
0.05
  9
$TEXTSTYLE
  7
STANDARD
  9
$CLAYER
  8
0
  9
$CELTYPE
  6
CONTINUOUS
  9
$CECOLOR
 62
   256
  9
$CELTSCALE
 40
1.0
  9
$DISPSILH
 70
     0
  9
$DIMSCALE
 40
1.0
  9
$DIMASZ
 40
0.18
  9
$DIMEXO
 40
0.0625
  9
$DIMDLI
 40
0.38
  9
$DIMRND
 40
0.0
  9
$DIMDLE
 40
0.0
  9
$DIMEXE
 40
0.18
  9
$DIMTP
 40
0.0
  9
$DIMTM
 40
0.0
  9
$DIMTXT
 40
0.18
  9
$DIMCEN
 40
0.09
  9
$DIMTSZ
 40
0.0
  9
$DIMTOL
 70
     0
  9
$DIMLIM
 70
     0
  9
$DIMTIH
 70
     1
  9
$DIMTOH
 70
     1
  9
$DIMSE1
 70
     0
  9
$DIMSE2
 70
     0
  9
$DIMTAD
 70
     0
  9
$DIMZIN
 70
     0
  9
$DIMBLK
  1

  9
$DIMASO
 70
     1
  9
$DIMSHO
 70
     1
  9
$DIMPOST
  1

  9
$DIMAPOST
  1

  9
$DIMALT
 70
     0
  9
$DIMALTD
 70
     2
  9
$DIMALTF
 40
25.4
  9
$DIMLFAC
 40
1.0
  9
$DIMTOFL
 70
     0
  9
$DIMTVP
 40
0.0
  9
$DIMTIX
 70
     0
  9
$DIMSOXD
 70
     0
  9
$DIMSAH
 70
     0
  9
$DIMBLK1
  1

  9
$DIMBLK2
  1

  9
$DIMSTYLE
  2
STANDARD
  9
$DIMCLRD
 70
     0
  9
$DIMCLRE
 70
     0
  9
$DIMCLRT
 70
     0
  9
$DIMTFAC
 40
1.0
  9
$DIMGAP
 40
0.09
  9
$DIMJUST
 70
     0
  9
$DIMSD1
 70
     0
  9
$DIMSD2
 70
     0
  9
$DIMTOLJ
 70
     1
  9
$DIMTZIN
 70
     0
  9
$DIMALTZ
 70
     0
  9
$DIMALTTZ
 70
     0
  9
$DIMUPT
 70
     0
  9
$DIMDEC
 70
     4
  9
$DIMTDEC
 70
     4
  9
$DIMALTU
 70
     2
  9
$DIMALTTD
 70
     2
  9
$DIMTXSTY
  7
STANDARD
  9
$DIMAUNIT
 70
     0
  9
$DIMADEC
 70
     0
  9
$DIMALTRND
 40
0.0
  9
$DIMAZIN
 70
     0
  9
$DIMDSEP
 70
    46
  9
$DIMATFIT
 70
     3
  9
$DIMFRAC
 70
     0
  9
$DIMLDRBLK
  1

  9
$DIMLUNIT
 70
     2
  9
$DIMLWD
 70
    -2
  9
$DIMLWE
 70
    -2
  9
$DIMTMOVE
 70
     0
  9
$LUNITS
 70
     2
  9
$LUPREC
 70
     4
  9
$SKETCHINC
 40
0.1
  9
$FILLETRAD
 40
0.0
  9
$AUNITS
 70
     0
  9
$AUPREC
 70
     0
  9
$MENU
  1
.
  9
$ELEVATION
 40
0.0
  9
$PELEVATION
 40
0.0
  9
$THICKNESS
 40
0.0
  9
$LIMCHECK
 70
     0
  9
$CHAMFERA
 40
0.0
  9
$CHAMFERB
 40
0.0
  9
$CHAMFERC
 40
0.0
  9
$CHAMFERD
 40
0.0
  9
$SKPOLY
 70
     0
  9
$TDCREATE
 40
2452152.848643923
  9
$TDUCREATE
 40
2452152.473643923
  9
$TDUPDATE
 40
2453159.539585648
  9
$TDUUPDATE
 40
2453159.164585648
  9
$TDINDWG
 40
0.1204815741
  9
$TDUSRTIMER
 40
0.1204779861
  9
$USRTIMER
 70
     1
  9
$ANGBASE
 50
0.0
  9
$ANGDIR
 70
     0
  9
$PDMODE
 70
     0
  9
$PDSIZE
 40
0.0
  9
$PLINEWID
 40
0.0
  9
$SPLFRAME
 70
     0
  9
$SPLINETYPE
 70
     6
  9
$SPLINESEGS
 70
     8
  9
$HANDSEED
  5
54C
  9
$SURFTAB1
 70
     6
  9
$SURFTAB2
 70
     6
  9
$SURFTYPE
 70
     6
  9
$SURFU
 70
     6
  9
$SURFV
 70
     6
  9
$UCSBASE
  2

  9
$UCSNAME
  2

  9
$UCSORG
 10
0.0
 20
0.0
 30
0.0
  9
$UCSXDIR
 10
1.0
 20
0.0
 30
0.0
  9
$UCSYDIR
 10
0.0
 20
1.0
 30
0.0
  9
$UCSORTHOREF
  2

  9
$UCSORTHOVIEW
 70
     0
  9
$UCSORGTOP
 10
0.0
 20
0.0
 30
0.0
  9
$UCSORGBOTTOM
 10
0.0
 20
0.0
 30
0.0
  9
$UCSORGLEFT
 10
0.0
 20
0.0
 30
0.0
  9
$UCSORGRIGHT
 10
0.0
 20
0.0
 30
0.0
  9
$UCSORGFRONT
 10
0.0
 20
0.0
 30
0.0
  9
$UCSORGBACK
 10
0.0
 20
0.0
 30
0.0
  9
$PUCSBASE
  2

  9
$PUCSNAME
  2

  9
$PUCSORG
 10
0.0
 20
0.0
 30
0.0
  9
$PUCSXDIR
 10
1.0
 20
0.0
 30
0.0
  9
$PUCSYDIR
 10
0.0
 20
1.0
 30
0.0
  9
$PUCSORTHOREF
  2

  9
$PUCSORTHOVIEW
 70
     0
  9
$PUCSORGTOP
 10
0.0
 20
0.0
 30
0.0
  9
$PUCSORGBOTTOM
 10
0.0
 20
0.0
 30
0.0
  9
$PUCSORGLEFT
 10
0.0
 20
0.0
 30
0.0
  9
$PUCSORGRIGHT
 10
0.0
 20
0.0
 30
0.0
  9
$PUCSORGFRONT
 10
0.0
 20
0.0
 30
0.0
  9
$PUCSORGBACK
 10
0.0
 20
0.0
 30
0.0
  9
$USERI1
 70
     0
  9
$USERI2
 70
     0
  9
$USERI3
 70
     0
  9
$USERI4
 70
     0
  9
$USERI5
 70
     0
  9
$USERR1
 40
0.0
  9
$USERR2
 40
0.0
  9
$USERR3
 40
0.0
  9
$USERR4
 40
0.0
  9
$USERR5
 40
0.0
  9
$WORLDVIEW
 70
     1
  9
$SHADEDGE
 70
     3
  9
$SHADEDIF
 70
    70
  9
$TILEMODE
 70
     1
  9
$MAXACTVP
 70
    64
  9
$PINSBASE
 10
0.0
 20
0.0
 30
0.0
  9
$PLIMCHECK
 70
     0
  9
$PEXTMIN
 10
1.000000000000000E+20
 20
1.000000000000000E+20
 30
1.000000000000000E+20
  9
$PEXTMAX
 10
-1.000000000000000E+20
 20
-1.000000000000000E+20
 30
-1.000000000000000E+20
  9
$PLIMMIN
 10
0.0
 20
0.0
  9
$PLIMMAX
 10
12.0
 20
9.0
  9
$UNITMODE
 70
     0
  9
$VISRETAIN
 70
     1
  9
$PLINEGEN
 70
     0
  9
$PSLTSCALE
 70
     1
  9
$TREEDEPTH
 70
  3020
  9
$CMLSTYLE
  2
Standard
  9
$CMLJUST
 70
     0
  9
$CMLSCALE
 40
1.0
  9
$PROXYGRAPHICS
 70
     1
  9
$MEASUREMENT
 70
     0
  9
$CELWEIGHT
370
    -1
  9
$ENDCAPS
280
     0
  9
$JOINSTYLE
280
     0
  9
$LWDISPLAY
290
     0
  9
$INSUNITS
 70
     0
  9
$HYPERLINKBASE
  1

  9
$STYLESHEET
  1

  9
$XEDIT
290
     1
  9
$CEPSNTYPE
380
     0
  9
$PSTYLEMODE
290
     1
  9
$FINGERPRINTGUID
  2
{F46CB110-D726-468C-A392-B14DB83C4D60}
  9
$VERSIONGUID
  2
{209866C4-B47D-11D8-8921-00E018182E32}
  9
$EXTNAMES
290
     1
  9
$PSVPSCALE
 40
0.0
  9
$OLESTARTUP
290
     0
  0
ENDSEC
  0
SECTION
  2
CLASSES
  0
CLASS
  1
ACDBDICTIONARYWDFLT
  2
AcDbDictionaryWithDefault
  3
AutoCAD 2000
 90
        0
280
     0
281
     0
  0
CLASS
  1
ACDBPLACEHOLDER
  2
AcDbPlaceHolder
  3
AutoCAD 2000
 90
        0
280
     0
281
     0
  0
CLASS
  1
LAYOUT
  2
AcDbLayout
  3
AutoCAD 2000
 90
        0
280
     0
281
     0
  0
ENDSEC
  0
SECTION
  2
TABLES
  0
TABLE
  2
VPORT
  5
2C1
330
0
100
AcDbSymbolTable
 70
     3
  0
VPORT
  5
54B
330
2C1
100
AcDbSymbolTableRecord
100
AcDbViewportTableRecord
  2
*Active
 70
     0
 10
0.0
 20
0.0
 11
1.0
 21
1.0
 12
188.3333591260743
 22
213.5865639133799
 13
0.0
 23
0.0
 14
1.0
 24
1.0
 15
0.0
 25
0.0
 16
0.0
 26
0.0
 36
1.0
 17
0.0
 27
0.0
 37
0.0
 40
168.7927727782795
 41
1.902534113060428
 42
50.0
 43
0.0
 44
0.0
 50
0.0
 51
0.0
 71
     0
 72
   100
 73
     1
 74
     1
 75
     0
 76
     0
 77
     0
 78
     0
281
     0
 65
     0
110
0.0
120
0.0
130
0.0
111
1.0
121
0.0
131
0.0
112
0.0
122
1.0
132
0.0
 79
     0
146
0.0
  0
ENDTAB
  0
TABLE
  2
LTYPE
  5
2BE
330
0
100
AcDbSymbolTable
 70
     4
  0
LTYPE
  5
2CC
330
2BE
100
AcDbSymbolTableRecord
100
AcDbLinetypeTableRecord
  2
ByBlock
 70
     0
  3

 72
    65
 73
     0
 40
0.0
  0
LTYPE
  5
2CD
330
2BE
100
AcDbSymbolTableRecord
100
AcDbLinetypeTableRecord
  2
ByLayer
 70
     0
  3

 72
    65
 73
     0
 40
0.0
  0
LTYPE
  5
2CE
330
2BE
100
AcDbSymbolTableRecord
100
AcDbLinetypeTableRecord
  2
CONTINUOUS
 70
     0
  3
Solid line
 72
    65
 73
     0
 40
0.0
  0
LTYPE
  5
2DC
330
2BE
100
AcDbSymbolTableRecord
100
AcDbLinetypeTableRecord
  2
LTYPE1
 70
     0
  3
HIDDEN
 72
    65
 73
     2
 40
2.0
 49
1.199999999999999
 74
     0
 49
-0.8
 74
     0
  0
LTYPE
  5
2DD
330
2BE
100
AcDbSymbolTableRecord
100
AcDbLinetypeTableRecord
  2
LTYPE2
 70
     0
  3
CENTER
 72
    65
 73
     4
 40
15.0
 49
10.5
 74
     0
 49
-1.5
 74
     0
 49
1.5
 74
     0
 49
-1.5
 74
     0
  0
LTYPE
  5
2DE
330
2BE
100
AcDbSymbolTableRecord
100
AcDbLinetypeTableRecord
  2
LTYPE3
 70
     0
  3
HIDDEN
 72
    65
 73
     2
 40
3.0
 49
1.8
 74
     0
 49
-1.199999999999999
 74
     0
  0
ENDTAB
  0
TABLE
  2
LAYER
  5
2BB
330
0
100
AcDbSymbolTable
 70
   128
  0
LAYER
  5
2C9
330
2BB
100
AcDbSymbolTableRecord
100
AcDbLayerTableRecord
  2
0
 70
     0
 62
     7
  6
CONTINUOUS
370
    -3
390
2C8
  0
LAYER
  5
2DF
330
2BB
100
AcDbSymbolTableRecord
100
AcDbLayerTableRecord
  2
1
 70
     0
 62
     7
  6
CONTINUOUS
370
    -3
390
2C8
  0
LAYER
  5
2E0
330
2BB
100
AcDbSymbolTableRecord
100
AcDbLayerTableRecord
  2
2
 70
     0
 62
     7
  6
CONTINUOUS
370
    -3
390
2C8
  0
LAYER
  5
2E1
330
2BB
100
AcDbSymbolTableRecord
100
AcDbLayerTableRecord
  2
3
 70
     0
 62
     7
  6
CONTINUOUS
370
    -3
390
2C8
  0
LAYER
  5
2E2
330
2BB
100
AcDbSymbolTableRecord
100
AcDbLayerTableRecord
  2
4
 70
     0
 62
     7
  6
CONTINUOUS
370
    -3
390
2C8
  0
LAYER
  5
2E3
330
2BB
100
AcDbSymbolTableRecord
100
AcDbLayerTableRecord
  2
5
 70
     0
 62
     7
  6
CONTINUOUS
370
    -3
390
2C8
  0
LAYER
  5
2E4
330
2BB
100
AcDbSymbolTableRecord
100
AcDbLayerTableRecord
  2
6
 70
     0
 62
     7
  6
CONTINUOUS
370
    -3
390
2C8
  0
LAYER
  5
2E5
330
2BB
100
AcDbSymbolTableRecord
100
AcDbLayerTableRecord
  2
7
 70
     0
 62
     7
  6
CONTINUOUS
370
    -3
390
2C8
  0
LAYER
  5
2E6
330
2BB
100
AcDbSymbolTableRecord
100
AcDbLayerTableRecord
  2
8
 70
     0
 62
     7
  6
CONTINUOUS
370
    -3
390
2C8
  0
LAYER
  5
2E7
330
2BB
100
AcDbSymbolTableRecord
100
AcDbLayerTableRecord
  2
9
 70
     0
 62
     7
  6
CONTINUOUS
370
    -3
390
2C8
  0
LAYER
  5
2E8
330
2BB
100
AcDbSymbolTableRecord
100
AcDbLayerTableRecord
  2
10
 70
     0
 62
     7
  6
CONTINUOUS
370
    -3
390
2C8
  0
LAYER
  5
2E9
330
2BB
100
AcDbSymbolTableRecord
100
AcDbLayerTableRecord
  2
11
 70
     0
 62
     7
  6
CONTINUOUS
370
    -3
390
2C8
  0
LAYER
  5
2EA
330
2BB
100
AcDbSymbolTableRecord
100
AcDbLayerTableRecord
  2
12
 70
     0
 62
     7
  6
CONTINUOUS
370
    -3
390
2C8
  0
LAYER
  5
2EB
330
2BB
100
AcDbSymbolTableRecord
100
AcDbLayerTableRecord
  2
13
 70
     0
 62
     7
  6
CONTINUOUS
370
    -3
390
2C8
  0
LAYER
  5
2EC
330
2BB
100
AcDbSymbolTableRecord
100
AcDbLayerTableRecord
  2
14
 70
     0
 62
     7
  6
CONTINUOUS
370
    -3
390
2C8
  0
LAYER
  5
2ED
330
2BB
100
AcDbSymbolTableRecord
100
AcDbLayerTableRecord
  2
15
 70
     0
 62
     7
  6
CONTINUOUS
370
    -3
390
2C8
  0
LAYER
  5
2EE
330
2BB
100
AcDbSymbolTableRecord
100
AcDbLayerTableRecord
  2
16
 70
     0
 62
     7
  6
CONTINUOUS
370
    -3
390
2C8
  0
LAYER
  5
2EF
330
2BB
100
AcDbSymbolTableRecord
100
AcDbLayerTableRecord
  2
17
 70
     0
 62
     7
  6
CONTINUOUS
370
    -3
390
2C8
  0
LAYER
  5
2F0
330
2BB
100
AcDbSymbolTableRecord
100
AcDbLayerTableRecord
  2
18
 70
     0
 62
     7
  6
CONTINUOUS
370
    -3
390
2C8
  0
LAYER
  5
2F1
330
2BB
100
AcDbSymbolTableRecord
100
AcDbLayerTableRecord
  2
19
 70
     0
 62
     7
  6
CONTINUOUS
370
    -3
390
2C8
  0
LAYER
  5
2F2
330
2BB
100
AcDbSymbolTableRecord
100
AcDbLayerTableRecord
  2
20
 70
     0
 62
     7
  6
CONTINUOUS
370
    -3
390
2C8
  0
LAYER
  5
2F3
330
2BB
100
AcDbSymbolTableRecord
100
AcDbLayerTableRecord
  2
21
 70
     0
 62
     7
  6
CONTINUOUS
370
    -3
390
2C8
  0
LAYER
  5
2F4
330
2BB
100
AcDbSymbolTableRecord
100
AcDbLayerTableRecord
  2
22
 70
     0
 62
     7
  6
CONTINUOUS
370
    -3
390
2C8
  0
LAYER
  5
2F5
330
2BB
100
AcDbSymbolTableRecord
100
AcDbLayerTableRecord
  2
23
 70
     0
 62
     7
  6
CONTINUOUS
370
    -3
390
2C8
  0
LAYER
  5
2F6
330
2BB
100
AcDbSymbolTableRecord
100
AcDbLayerTableRecord
  2
24
 70
     0
 62
     7
  6
CONTINUOUS
370
    -3
390
2C8
  0
LAYER
  5
2F7
330
2BB
100
AcDbSymbolTableRecord
100
AcDbLayerTableRecord
  2
25
 70
     0
 62
     7
  6
CONTINUOUS
370
    -3
390
2C8
  0
LAYER
  5
2F8
330
2BB
100
AcDbSymbolTableRecord
100
AcDbLayerTableRecord
  2
26
 70
     0
 62
     7
  6
CONTINUOUS
370
    -3
390
2C8
  0
LAYER
  5
2F9
330
2BB
100
AcDbSymbolTableRecord
100
AcDbLayerTableRecord
  2
27
 70
     0
 62
     7
  6
CONTINUOUS
370
    -3
390
2C8
  0
LAYER
  5
2FA
330
2BB
100
AcDbSymbolTableRecord
100
AcDbLayerTableRecord
  2
28
 70
     0
 62
     7
  6
CONTINUOUS
370
    -3
390
2C8
  0
LAYER
  5
2FB
330
2BB
100
AcDbSymbolTableRecord
100
AcDbLayerTableRecord
  2
29
 70
     0
 62
     7
  6
CONTINUOUS
370
    -3
390
2C8
  0
LAYER
  5
2FC
330
2BB
100
AcDbSymbolTableRecord
100
AcDbLayerTableRecord
  2
30
 70
     0
 62
     7
  6
CONTINUOUS
370
    -3
390
2C8
  0
LAYER
  5
2FD
330
2BB
100
AcDbSymbolTableRecord
100
AcDbLayerTableRecord
  2
31
 70
     0
 62
     7
  6
CONTINUOUS
370
    -3
390
2C8
  0
LAYER
  5
2FE
330
2BB
100
AcDbSymbolTableRecord
100
AcDbLayerTableRecord
  2
32
 70
     0
 62
     7
  6
CONTINUOUS
370
    -3
390
2C8
  0
LAYER
  5
2FF
330
2BB
100
AcDbSymbolTableRecord
100
AcDbLayerTableRecord
  2
33
 70
     0
 62
     7
  6
CONTINUOUS
370
    -3
390
2C8
  0
LAYER
  5
300
330
2BB
100
AcDbSymbolTableRecord
100
AcDbLayerTableRecord
  2
34
 70
     0
 62
     7
  6
CONTINUOUS
370
    -3
390
2C8
  0
LAYER
  5
301
330
2BB
100
AcDbSymbolTableRecord
100
AcDbLayerTableRecord
  2
35
 70
     0
 62
     7
  6
CONTINUOUS
370
    -3
390
2C8
  0
LAYER
  5
302
330
2BB
100
AcDbSymbolTableRecord
100
AcDbLayerTableRecord
  2
36
 70
     0
 62
     7
  6
CONTINUOUS
370
    -3
390
2C8
  0
LAYER
  5
303
330
2BB
100
AcDbSymbolTableRecord
100
AcDbLayerTableRecord
  2
37
 70
     0
 62
     7
  6
CONTINUOUS
370
    -3
390
2C8
  0
LAYER
  5
304
330
2BB
100
AcDbSymbolTableRecord
100
AcDbLayerTableRecord
  2
38
 70
     0
 62
     7
  6
CONTINUOUS
370
    -3
390
2C8
  0
LAYER
  5
305
330
2BB
100
AcDbSymbolTableRecord
100
AcDbLayerTableRecord
  2
39
 70
     0
 62
     7
  6
CONTINUOUS
370
    -3
390
2C8
  0
LAYER
  5
306
330
2BB
100
AcDbSymbolTableRecord
100
AcDbLayerTableRecord
  2
40
 70
     0
 62
     7
  6
CONTINUOUS
370
    -3
390
2C8
  0
LAYER
  5
307
330
2BB
100
AcDbSymbolTableRecord
100
AcDbLayerTableRecord
  2
41
 70
     0
 62
     7
  6
CONTINUOUS
370
    -3
390
2C8
  0
LAYER
  5
308
330
2BB
100
AcDbSymbolTableRecord
100
AcDbLayerTableRecord
  2
42
 70
     0
 62
     7
  6
CONTINUOUS
370
    -3
390
2C8
  0
LAYER
  5
309
330
2BB
100
AcDbSymbolTableRecord
100
AcDbLayerTableRecord
  2
43
 70
     0
 62
     7
  6
CONTINUOUS
370
    -3
390
2C8
  0
LAYER
  5
30A
330
2BB
100
AcDbSymbolTableRecord
100
AcDbLayerTableRecord
  2
44
 70
     0
 62
     7
  6
CONTINUOUS
370
    -3
390
2C8
  0
LAYER
  5
30B
330
2BB
100
AcDbSymbolTableRecord
100
AcDbLayerTableRecord
  2
45
 70
     0
 62
     7
  6
CONTINUOUS
370
    -3
390
2C8
  0
LAYER
  5
30C
330
2BB
100
AcDbSymbolTableRecord
100
AcDbLayerTableRecord
  2
46
 70
     0
 62
     7
  6
CONTINUOUS
370
    -3
390
2C8
  0
LAYER
  5
30D
330
2BB
100
AcDbSymbolTableRecord
100
AcDbLayerTableRecord
  2
47
 70
     0
 62
     7
  6
CONTINUOUS
370
    -3
390
2C8
  0
LAYER
  5
30E
330
2BB
100
AcDbSymbolTableRecord
100
AcDbLayerTableRecord
  2
48
 70
     0
 62
     7
  6
CONTINUOUS
370
    -3
390
2C8
  0
LAYER
  5
30F
330
2BB
100
AcDbSymbolTableRecord
100
AcDbLayerTableRecord
  2
49
 70
     0
 62
     7
  6
CONTINUOUS
370
    -3
390
2C8
  0
LAYER
  5
310
330
2BB
100
AcDbSymbolTableRecord
100
AcDbLayerTableRecord
  2
50
 70
     0
 62
     7
  6
CONTINUOUS
370
    -3
390
2C8
  0
LAYER
  5
311
330
2BB
100
AcDbSymbolTableRecord
100
AcDbLayerTableRecord
  2
51
 70
     0
 62
     7
  6
CONTINUOUS
370
    -3
390
2C8
  0
LAYER
  5
312
330
2BB
100
AcDbSymbolTableRecord
100
AcDbLayerTableRecord
  2
52
 70
     0
 62
     7
  6
CONTINUOUS
370
    -3
390
2C8
  0
LAYER
  5
313
330
2BB
100
AcDbSymbolTableRecord
100
AcDbLayerTableRecord
  2
53
 70
     0
 62
     7
  6
CONTINUOUS
370
    -3
390
2C8
  0
LAYER
  5
314
330
2BB
100
AcDbSymbolTableRecord
100
AcDbLayerTableRecord
  2
54
 70
     0
 62
     7
  6
CONTINUOUS
370
    -3
390
2C8
  0
LAYER
  5
315
330
2BB
100
AcDbSymbolTableRecord
100
AcDbLayerTableRecord
  2
55
 70
     0
 62
     7
  6
CONTINUOUS
370
    -3
390
2C8
  0
LAYER
  5
316
330
2BB
100
AcDbSymbolTableRecord
100
AcDbLayerTableRecord
  2
56
 70
     0
 62
     7
  6
CONTINUOUS
370
    -3
390
2C8
  0
LAYER
  5
317
330
2BB
100
AcDbSymbolTableRecord
100
AcDbLayerTableRecord
  2
57
 70
     0
 62
     7
  6
CONTINUOUS
370
    -3
390
2C8
  0
LAYER
  5
318
330
2BB
100
AcDbSymbolTableRecord
100
AcDbLayerTableRecord
  2
58
 70
     0
 62
     7
  6
CONTINUOUS
370
    -3
390
2C8
  0
LAYER
  5
319
330
2BB
100
AcDbSymbolTableRecord
100
AcDbLayerTableRecord
  2
59
 70
     0
 62
     7
  6
CONTINUOUS
370
    -3
390
2C8
  0
LAYER
  5
31A
330
2BB
100
AcDbSymbolTableRecord
100
AcDbLayerTableRecord
  2
60
 70
     0
 62
     7
  6
CONTINUOUS
370
    -3
390
2C8
  0
LAYER
  5
31B
330
2BB
100
AcDbSymbolTableRecord
100
AcDbLayerTableRecord
  2
61
 70
     0
 62
     7
  6
CONTINUOUS
370
    -3
390
2C8
  0
LAYER
  5
31C
330
2BB
100
AcDbSymbolTableRecord
100
AcDbLayerTableRecord
  2
62
 70
     0
 62
     7
  6
CONTINUOUS
370
    -3
390
2C8
  0
LAYER
  5
31D
330
2BB
100
AcDbSymbolTableRecord
100
AcDbLayerTableRecord
  2
63
 70
     0
 62
     7
  6
CONTINUOUS
370
    -3
390
2C8
  0
LAYER
  5
31E
330
2BB
100
AcDbSymbolTableRecord
100
AcDbLayerTableRecord
  2
64
 70
     0
 62
     7
  6
CONTINUOUS
370
    -3
390
2C8
  0
LAYER
  5
31F
330
2BB
100
AcDbSymbolTableRecord
100
AcDbLayerTableRecord
  2
65
 70
     0
 62
     7
  6
CONTINUOUS
370
    -3
390
2C8
  0
LAYER
  5
320
330
2BB
100
AcDbSymbolTableRecord
100
AcDbLayerTableRecord
  2
66
 70
     0
 62
     7
  6
CONTINUOUS
370
    -3
390
2C8
  0
LAYER
  5
321
330
2BB
100
AcDbSymbolTableRecord
100
AcDbLayerTableRecord
  2
67
 70
     0
 62
     7
  6
CONTINUOUS
370
    -3
390
2C8
  0
LAYER
  5
322
330
2BB
100
AcDbSymbolTableRecord
100
AcDbLayerTableRecord
  2
68
 70
     0
 62
     7
  6
CONTINUOUS
370
    -3
390
2C8
  0
LAYER
  5
323
330
2BB
100
AcDbSymbolTableRecord
100
AcDbLayerTableRecord
  2
69
 70
     0
 62
     7
  6
CONTINUOUS
370
    -3
390
2C8
  0
LAYER
  5
324
330
2BB
100
AcDbSymbolTableRecord
100
AcDbLayerTableRecord
  2
70
 70
     0
 62
     7
  6
CONTINUOUS
370
    -3
390
2C8
  0
LAYER
  5
325
330
2BB
100
AcDbSymbolTableRecord
100
AcDbLayerTableRecord
  2
71
 70
     0
 62
     7
  6
CONTINUOUS
370
    -3
390
2C8
  0
LAYER
  5
326
330
2BB
100
AcDbSymbolTableRecord
100
AcDbLayerTableRecord
  2
72
 70
     0
 62
     7
  6
CONTINUOUS
370
    -3
390
2C8
  0
LAYER
  5
327
330
2BB
100
AcDbSymbolTableRecord
100
AcDbLayerTableRecord
  2
73
 70
     0
 62
     7
  6
CONTINUOUS
370
    -3
390
2C8
  0
LAYER
  5
328
330
2BB
100
AcDbSymbolTableRecord
100
AcDbLayerTableRecord
  2
74
 70
     0
 62
     7
  6
CONTINUOUS
370
    -3
390
2C8
  0
LAYER
  5
329
330
2BB
100
AcDbSymbolTableRecord
100
AcDbLayerTableRecord
  2
75
 70
     0
 62
     7
  6
CONTINUOUS
370
    -3
390
2C8
  0
LAYER
  5
32A
330
2BB
100
AcDbSymbolTableRecord
100
AcDbLayerTableRecord
  2
76
 70
     0
 62
     7
  6
CONTINUOUS
370
    -3
390
2C8
  0
LAYER
  5
32B
330
2BB
100
AcDbSymbolTableRecord
100
AcDbLayerTableRecord
  2
77
 70
     0
 62
     7
  6
CONTINUOUS
370
    -3
390
2C8
  0
LAYER
  5
32C
330
2BB
100
AcDbSymbolTableRecord
100
AcDbLayerTableRecord
  2
78
 70
     0
 62
     7
  6
CONTINUOUS
370
    -3
390
2C8
  0
LAYER
  5
32D
330
2BB
100
AcDbSymbolTableRecord
100
AcDbLayerTableRecord
  2
79
 70
     0
 62
     7
  6
CONTINUOUS
370
    -3
390
2C8
  0
LAYER
  5
32E
330
2BB
100
AcDbSymbolTableRecord
100
AcDbLayerTableRecord
  2
80
 70
     0
 62
     7
  6
CONTINUOUS
370
    -3
390
2C8
  0
LAYER
  5
32F
330
2BB
100
AcDbSymbolTableRecord
100
AcDbLayerTableRecord
  2
81
 70
     0
 62
     7
  6
CONTINUOUS
370
    -3
390
2C8
  0
LAYER
  5
330
330
2BB
100
AcDbSymbolTableRecord
100
AcDbLayerTableRecord
  2
82
 70
     0
 62
     7
  6
CONTINUOUS
370
    -3
390
2C8
  0
LAYER
  5
331
330
2BB
100
AcDbSymbolTableRecord
100
AcDbLayerTableRecord
  2
83
 70
     0
 62
     7
  6
CONTINUOUS
370
    -3
390
2C8
  0
LAYER
  5
332
330
2BB
100
AcDbSymbolTableRecord
100
AcDbLayerTableRecord
  2
84
 70
     0
 62
     7
  6
CONTINUOUS
370
    -3
390
2C8
  0
LAYER
  5
333
330
2BB
100
AcDbSymbolTableRecord
100
AcDbLayerTableRecord
  2
85
 70
     0
 62
     7
  6
CONTINUOUS
370
    -3
390
2C8
  0
LAYER
  5
334
330
2BB
100
AcDbSymbolTableRecord
100
AcDbLayerTableRecord
  2
86
 70
     0
 62
     7
  6
CONTINUOUS
370
    -3
390
2C8
  0
LAYER
  5
335
330
2BB
100
AcDbSymbolTableRecord
100
AcDbLayerTableRecord
  2
87
 70
     0
 62
     7
  6
CONTINUOUS
370
    -3
390
2C8
  0
LAYER
  5
336
330
2BB
100
AcDbSymbolTableRecord
100
AcDbLayerTableRecord
  2
88
 70
     0
 62
     7
  6
CONTINUOUS
370
    -3
390
2C8
  0
LAYER
  5
337
330
2BB
100
AcDbSymbolTableRecord
100
AcDbLayerTableRecord
  2
89
 70
     0
 62
     7
  6
CONTINUOUS
370
    -3
390
2C8
  0
LAYER
  5
338
330
2BB
100
AcDbSymbolTableRecord
100
AcDbLayerTableRecord
  2
90
 70
     0
 62
     7
  6
CONTINUOUS
370
    -3
390
2C8
  0
LAYER
  5
339
330
2BB
100
AcDbSymbolTableRecord
100
AcDbLayerTableRecord
  2
91
 70
     0
 62
     7
  6
CONTINUOUS
370
    -3
390
2C8
  0
LAYER
  5
33A
330
2BB
100
AcDbSymbolTableRecord
100
AcDbLayerTableRecord
  2
92
 70
     0
 62
     7
  6
CONTINUOUS
370
    -3
390
2C8
  0
LAYER
  5
33B
330
2BB
100
AcDbSymbolTableRecord
100
AcDbLayerTableRecord
  2
93
 70
     0
 62
     7
  6
CONTINUOUS
370
    -3
390
2C8
  0
LAYER
  5
33C
330
2BB
100
AcDbSymbolTableRecord
100
AcDbLayerTableRecord
  2
94
 70
     0
 62
     7
  6
CONTINUOUS
370
    -3
390
2C8
  0
LAYER
  5
33D
330
2BB
100
AcDbSymbolTableRecord
100
AcDbLayerTableRecord
  2
95
 70
     0
 62
     7
  6
CONTINUOUS
370
    -3
390
2C8
  0
LAYER
  5
33E
330
2BB
100
AcDbSymbolTableRecord
100
AcDbLayerTableRecord
  2
96
 70
     0
 62
     7
  6
CONTINUOUS
370
    -3
390
2C8
  0
LAYER
  5
33F
330
2BB
100
AcDbSymbolTableRecord
100
AcDbLayerTableRecord
  2
97
 70
     0
 62
     7
  6
CONTINUOUS
370
    -3
390
2C8
  0
LAYER
  5
340
330
2BB
100
AcDbSymbolTableRecord
100
AcDbLayerTableRecord
  2
98
 70
     0
 62
     7
  6
CONTINUOUS
370
    -3
390
2C8
  0
LAYER
  5
341
330
2BB
100
AcDbSymbolTableRecord
100
AcDbLayerTableRecord
  2
99
 70
     0
 62
     7
  6
CONTINUOUS
370
    -3
390
2C8
  0
LAYER
  5
342
330
2BB
100
AcDbSymbolTableRecord
100
AcDbLayerTableRecord
  2
100
 70
     0
 62
     7
  6
CONTINUOUS
370
    -3
390
2C8
  0
LAYER
  5
343
330
2BB
100
AcDbSymbolTableRecord
100
AcDbLayerTableRecord
  2
101
 70
     0
 62
     7
  6
CONTINUOUS
370
    -3
390
2C8
  0
LAYER
  5
344
330
2BB
100
AcDbSymbolTableRecord
100
AcDbLayerTableRecord
  2
102
 70
     0
 62
     7
  6
CONTINUOUS
370
    -3
390
2C8
  0
LAYER
  5
345
330
2BB
100
AcDbSymbolTableRecord
100
AcDbLayerTableRecord
  2
103
 70
     0
 62
     7
  6
CONTINUOUS
370
    -3
390
2C8
  0
LAYER
  5
346
330
2BB
100
AcDbSymbolTableRecord
100
AcDbLayerTableRecord
  2
104
 70
     0
 62
     7
  6
CONTINUOUS
370
    -3
390
2C8
  0
LAYER
  5
347
330
2BB
100
AcDbSymbolTableRecord
100
AcDbLayerTableRecord
  2
105
 70
     0
 62
     7
  6
CONTINUOUS
370
    -3
390
2C8
  0
LAYER
  5
348
330
2BB
100
AcDbSymbolTableRecord
100
AcDbLayerTableRecord
  2
106
 70
     0
 62
     7
  6
CONTINUOUS
370
    -3
390
2C8
  0
LAYER
  5
349
330
2BB
100
AcDbSymbolTableRecord
100
AcDbLayerTableRecord
  2
107
 70
     0
 62
     7
  6
CONTINUOUS
370
    -3
390
2C8
  0
LAYER
  5
34A
330
2BB
100
AcDbSymbolTableRecord
100
AcDbLayerTableRecord
  2
108
 70
     0
 62
     7
  6
CONTINUOUS
370
    -3
390
2C8
  0
LAYER
  5
34B
330
2BB
100
AcDbSymbolTableRecord
100
AcDbLayerTableRecord
  2
109
 70
     0
 62
     7
  6
CONTINUOUS
370
    -3
390
2C8
  0
LAYER
  5
34C
330
2BB
100
AcDbSymbolTableRecord
100
AcDbLayerTableRecord
  2
110
 70
     0
 62
     7
  6
CONTINUOUS
370
    -3
390
2C8
  0
LAYER
  5
34D
330
2BB
100
AcDbSymbolTableRecord
100
AcDbLayerTableRecord
  2
111
 70
     0
 62
     7
  6
CONTINUOUS
370
    -3
390
2C8
  0
LAYER
  5
34E
330
2BB
100
AcDbSymbolTableRecord
100
AcDbLayerTableRecord
  2
112
 70
     0
 62
     7
  6
CONTINUOUS
370
    -3
390
2C8
  0
LAYER
  5
34F
330
2BB
100
AcDbSymbolTableRecord
100
AcDbLayerTableRecord
  2
113
 70
     0
 62
     7
  6
CONTINUOUS
370
    -3
390
2C8
  0
LAYER
  5
350
330
2BB
100
AcDbSymbolTableRecord
100
AcDbLayerTableRecord
  2
114
 70
     0
 62
     7
  6
CONTINUOUS
370
    -3
390
2C8
  0
LAYER
  5
351
330
2BB
100
AcDbSymbolTableRecord
100
AcDbLayerTableRecord
  2
115
 70
     0
 62
     7
  6
CONTINUOUS
370
    -3
390
2C8
  0
LAYER
  5
352
330
2BB
100
AcDbSymbolTableRecord
100
AcDbLayerTableRecord
  2
116
 70
     0
 62
     7
  6
CONTINUOUS
370
    -3
390
2C8
  0
LAYER
  5
353
330
2BB
100
AcDbSymbolTableRecord
100
AcDbLayerTableRecord
  2
117
 70
     0
 62
     7
  6
CONTINUOUS
370
    -3
390
2C8
  0
LAYER
  5
354
330
2BB
100
AcDbSymbolTableRecord
100
AcDbLayerTableRecord
  2
118
 70
     0
 62
     7
  6
CONTINUOUS
370
    -3
390
2C8
  0
LAYER
  5
355
330
2BB
100
AcDbSymbolTableRecord
100
AcDbLayerTableRecord
  2
119
 70
     0
 62
     7
  6
CONTINUOUS
370
    -3
390
2C8
  0
LAYER
  5
356
330
2BB
100
AcDbSymbolTableRecord
100
AcDbLayerTableRecord
  2
120
 70
     0
 62
     7
  6
CONTINUOUS
370
    -3
390
2C8
  0
LAYER
  5
357
330
2BB
100
AcDbSymbolTableRecord
100
AcDbLayerTableRecord
  2
121
 70
     0
 62
     7
  6
CONTINUOUS
370
    -3
390
2C8
  0
LAYER
  5
358
330
2BB
100
AcDbSymbolTableRecord
100
AcDbLayerTableRecord
  2
122
 70
     0
 62
     7
  6
CONTINUOUS
370
    -3
390
2C8
  0
LAYER
  5
359
330
2BB
100
AcDbSymbolTableRecord
100
AcDbLayerTableRecord
  2
123
 70
     0
 62
     7
  6
CONTINUOUS
370
    -3
390
2C8
  0
LAYER
  5
35A
330
2BB
100
AcDbSymbolTableRecord
100
AcDbLayerTableRecord
  2
124
 70
     0
 62
     7
  6
CONTINUOUS
370
    -3
390
2C8
  0
LAYER
  5
35B
330
2BB
100
AcDbSymbolTableRecord
100
AcDbLayerTableRecord
  2
125
 70
     0
 62
     7
  6
CONTINUOUS
370
    -3
390
2C8
  0
LAYER
  5
35C
330
2BB
100
AcDbSymbolTableRecord
100
AcDbLayerTableRecord
  2
126
 70
     0
 62
     7
  6
CONTINUOUS
370
    -3
390
2C8
  0
LAYER
  5
35D
330
2BB
100
AcDbSymbolTableRecord
100
AcDbLayerTableRecord
  2
127
 70
     0
 62
     7
  6
CONTINUOUS
370
    -3
390
2C8
  0
ENDTAB
  0
TABLE
  2
STYLE
  5
2BC
330
0
100
AcDbSymbolTable
 70
     7
  0
STYLE
  5
2CA
330
2BC
100
AcDbSymbolTableRecord
100
AcDbTextStyleTableRecord
  2
STANDARD
 70
     0
 40
0.0
 41
1.0
 50
0.0
 71
     0
 42
0.2
  3
txt
  4

  0
STYLE
  5
35E
330
2BC
100
AcDbSymbolTableRecord
100
AcDbTextStyleTableRecord
  2
KANJI0
 70
     0
 40
3.636
 41
1.0
 50
0.0
 71
     0
 42
3.636
  3
txt
  4
bigfont
  0
STYLE
  5
35F
330
2BC
100
AcDbSymbolTableRecord
100
AcDbTextStyleTableRecord
  2
KANJI1
 70
     0
 40
3.636
 41
0.5
 50
0.0
 71
     0
 42
3.636
  3
txt
  4
bigfont
  0
STYLE
  5
360
330
2BC
100
AcDbSymbolTableRecord
100
AcDbTextStyleTableRecord
  2
KANJI2
 70
     0
 40
2.181599999999999
 41
0.625
 50
0.0
 71
     0
 42
2.181599999999999
  3
txt
  4
bigfont
  0
STYLE
  5
361
330
2BC
100
AcDbSymbolTableRecord
100
AcDbTextStyleTableRecord
  2
KANJI3
 70
     0
 40
3.636
 41
0.5
 50
0.0
 71
     0
 42
3.636
  3
txt
  4
bigfont
  0
STYLE
  5
362
330
2BC
100
AcDbSymbolTableRecord
100
AcDbTextStyleTableRecord
  2
KANJI4
 70
     0
 40
3.0
 41
0.6
 50
0.0
 71
     0
 42
3.0
  3
txt
  4
bigfont
  0
STYLE
  5
363
330
2BC
100
AcDbSymbolTableRecord
100
AcDbTextStyleTableRecord
  2
KANJI5
 70
     0
 40
2.0
 41
0.5
 50
0.0
 71
     0
 42
2.0
  3
txt
  4
bigfont
  0
ENDTAB
  0
TABLE
  2
VIEW
  5
2BF
330
0
100
AcDbSymbolTable
 70
     0
  0
ENDTAB
  0
TABLE
  2
UCS
  5
2C0
330
0
100
AcDbSymbolTable
 70
     0
  0
ENDTAB
  0
TABLE
  2
APPID
  5
2C2
330
0
100
AcDbSymbolTable
 70
     1
  0
APPID
  5
2CB
330
2C2
100
AcDbSymbolTableRecord
100
AcDbRegAppTableRecord
  2
ACAD
 70
     0
  0
ENDTAB
  0
TABLE
  2
DIMSTYLE
  5
2C3
330
0
100
AcDbSymbolTable
 70
     1
100
AcDbDimStyleTable
 71
     0
  0
DIMSTYLE
105
364
330
2C3
100
AcDbSymbolTableRecord
100
AcDbDimStyleTableRecord
  2
STANDARD
 70
     0
279
     2
340
2CA
  0
ENDTAB
  0
TABLE
  2
BLOCK_RECORD
  5
2BA
330
0
100
AcDbSymbolTable
 70
     2
  0
BLOCK_RECORD
  5
2D7
330
2BA
100
AcDbSymbolTableRecord
100
AcDbBlockTableRecord
  2
*Model_Space
340
2DA
  0
BLOCK_RECORD
  5
2D3
330
2BA
100
AcDbSymbolTableRecord
100
AcDbBlockTableRecord
  2
*Paper_Space
340
2D6
  0
BLOCK_RECORD
  5
367
330
2BA
100
AcDbSymbolTableRecord
100
AcDbBlockTableRecord
  2
$MODEL_SPACE
340
0
  0
BLOCK_RECORD
  5
36A
330
2BA
100
AcDbSymbolTableRecord
100
AcDbBlockTableRecord
  2
$PAPER_SPACE
340
0
  0
ENDTAB
  0
ENDSEC
  0
SECTION
  2
BLOCKS
  0
BLOCK
  5
2D8
330
2D7
100
AcDbEntity
  8
0
100
AcDbBlockBegin
  2
*Model_Space
 70
     0
 10
0.0
 20
0.0
 30
0.0
  3
*Model_Space
  1

  0
ENDBLK
  5
2D9
330
2D7
100
AcDbEntity
  8
0
100
AcDbBlockEnd
  0
BLOCK
  5
2D4
330
2D3
100
AcDbEntity
 67
     1
  8
0
100
AcDbBlockBegin
  2
*Paper_Space
 70
     0
 10
0.0
 20
0.0
 30
0.0
  3
*Paper_Space
  1

  0
ENDBLK
  5
2D5
330
2D3
100
AcDbEntity
 67
     1
  8
0
100
AcDbBlockEnd
  0
BLOCK
  5
368
330
367
100
AcDbEntity
  8
0
100
AcDbBlockBegin
  2
$MODEL_SPACE
 70
     0
 10
0.0
 20
0.0
 30
0.0
  3
$MODEL_SPACE
  1

  0
ENDBLK
  5
369
330
367
100
AcDbEntity
  8
0
100
AcDbBlockEnd
  0
BLOCK
  5
36B
330
36A
100
AcDbEntity
  8
0
100
AcDbBlockBegin
  2
$PAPER_SPACE
 70
     0
 10
0.0
 20
0.0
 30
0.0
  3
$PAPER_SPACE
  1

  0
ENDBLK
  5
36C
330
36A
100
AcDbEntity
  8
0
100
AcDbBlockEnd
  0
ENDSEC
  0
SECTION
  2
ENTITIES
  0
LINE
  5
36D
330
2D7
100
AcDbEntity
  8
0
  6
Continuous
 62
     3
100
AcDbLine
 10
105.50395
 20
192.6711239999999
 30
0.0
 11
105.50395
 21
192.171174
 31
0.0
  0
LINE
  5
36E
330
2D7
100
AcDbEntity
  8
0
  6
Continuous
 62
     3
100
AcDbLine
 10
130.50145
 20
163.1740739999998
 30
0.0
 11
130.50145
 21
163.6740239999998
 31
0.0
  0
LINE
  5
36F
330
2D7
100
AcDbEntity
  8
0
  6
Continuous
 62
     4
100
AcDbLine
 10
105.50395
 20
192.6711239999999
 30
0.0
 11
85.755925
 21
192.6711239999999
 31
0.0
  0
LINE
  5
370
330
2D7
100
AcDbEntity
  8
0
  6
Continuous
 62
     4
100
AcDbLine
 10
105.50395
 20
192.171174
 30
0.0
 11
130.50145
 21
192.171174
 31
0.0
  0
LINE
  5
371
330
2D7
100
AcDbEntity
  8
0
  6
Continuous
 62
     4
100
AcDbLine
 10
130.50145
 20
192.171174
 30
0.0
 11
130.50145
 21
192.6711239999999
 31
0.0
  0
LINE
  5
372
330
2D7
100
AcDbEntity
  8
0
  6
Continuous
 62
     4
100
AcDbLine
 10
149.2495749999999
 20
183.921999
 30
0.0
 11
150.2494749999998
 21
183.921999
 31
0.0
  0
LINE
  5
373
330
2D7
100
AcDbEntity
  8
0
  6
Continuous
 62
     4
100
AcDbLine
 10
150.2494749999998
 20
183.872004
 30
0.0
 11
150.2494749999998
 21
192.6711239999999
 31
0.0
  0
LINE
  5
374
330
2D7
100
AcDbEntity
  8
0
  6
Continuous
 62
     4
100
AcDbLine
 10
150.2494749999998
 20
192.6711239999999
 30
0.0
 11
130.5514449999997
 21
192.6711239999999
 31
0.0
  0
LINE
  5
375
330
2D7
100
AcDbEntity
  8
0
  6
Continuous
 62
     4
100
AcDbLine
 10
150.2494749999998
 20
171.923199
 30
0.0
 11
149.2495749999999
 21
171.923199
 31
0.0
  0
LINE
  5
376
330
2D7
100
AcDbEntity
  8
0
  6
Continuous
 62
     4
100
AcDbLine
 10
150.2494749999998
 20
163.1740739999998
 30
0.0
 11
150.2494749999998
 21
171.923199
 31
0.0
  0
LINE
  5
377
330
2D7
100
AcDbEntity
  8
0
  6
Continuous
 62
     4
100
AcDbLine
 10
149.2495749999999
 20
171.923199
 30
0.0
 11
149.2495749999999
 21
183.921999
 31
0.0
  0
CIRCLE
  5
378
330
2D7
100
AcDbEntity
  8
0
  6
Continuous
 62
     4
100
AcDbCircle
 10
147.49975
 20
189.4214489999999
 30
0.0
 40
1.39986
  0
CIRCLE
  5
379
330
2D7
100
AcDbEntity
  8
0
  6
Continuous
 62
     4
100
AcDbCircle
 10
147.49975
 20
166.4237489999998
 30
0.0
 40
1.39986
  0
LINE
  5
37A
330
2D7
100
AcDbEntity
  8
0
  6
Continuous
 62
     4
100
AcDbLine
 10
130.50145
 20
163.1740739999998
 30
0.0
 11
150.2494749999998
 21
163.1740739999998
 31
0.0
  0
LINE
  5
37B
330
2D7
100
AcDbEntity
  8
0
  6
Continuous
 62
     4
100
AcDbLine
 10
105.50395
 20
163.6740239999998
 30
0.0
 11
105.50395
 21
163.1740739999998
 31
0.0
  0
LINE
  5
37C
330
2D7
100
AcDbEntity
  8
0
  6
Continuous
 62
     4
100
AcDbLine
 10
130.50145
 20
163.6740239999998
 30
0.0
 11
105.50395
 21
163.6740239999998
 31
0.0
  0
CIRCLE
  5
37D
330
2D7
100
AcDbEntity
  8
0
  6
Continuous
 62
     4
100
AcDbCircle
 10
88.50565000000001
 20
166.4237489999998
 30
0.0
 40
1.39986
  0
LINE
  5
37E
330
2D7
100
AcDbEntity
  8
0
  6
Continuous
 62
     4
100
AcDbLine
 10
85.755925
 20
163.1740739999998
 30
0.0
 11
105.50395
 21
163.1740739999998
 31
0.0
  0
LINE
  5
37F
330
2D7
100
AcDbEntity
  8
0
  6
Continuous
 62
     4
100
AcDbLine
 10
86.755825
 20
183.921999
 30
0.0
 11
86.755825
 21
171.923199
 31
0.0
  0
LINE
  5
380
330
2D7
100
AcDbEntity
  8
0
  6
Continuous
 62
     4
100
AcDbLine
 10
85.755925
 20
183.921999
 30
0.0
 11
86.755825
 21
183.921999
 31
0.0
  0
LINE
  5
381
330
2D7
100
AcDbEntity
  8
0
  6
Continuous
 62
     4
100
AcDbLine
 10
85.755925
 20
192.6711239999999
 30
0.0
 11
85.755925
 21
183.921999
 31
0.0
  0
LINE
  5
382
330
2D7
100
AcDbEntity
  8
0
  6
Continuous
 62
     4
100
AcDbLine
 10
86.755825
 20
171.923199
 30
0.0
 11
85.755925
 21
171.923199
 31
0.0
  0
LINE
  5
383
330
2D7
100
AcDbEntity
  8
0
  6
Continuous
 62
     4
100
AcDbLine
 10
85.755925
 20
171.923199
 30
0.0
 11
85.755925
 21
163.1740739999998
 31
0.0
  0
CIRCLE
  5
384
330
2D7
100
AcDbEntity
  8
0
  6
Continuous
 62
     4
100
AcDbCircle
 10
88.50565000000001
 20
189.4214489999999
 30
0.0
 40
1.39986
  0
CIRCLE
  5
385
330
2D7
100
AcDbEntity
  8
0
  6
Continuous
 62
     4
100
AcDbCircle
 10
88.50565000000001
 20
177.922599
 30
0.0
 40
0.79992
  0
CIRCLE
  5
386
330
2D7
100
AcDbEntity
  8
0
  6
Continuous
 62
     4
100
AcDbCircle
 10
88.50565000000001
 20
180.462345
 30
0.0
 40
0.79992
  0
CIRCLE
  5
387
330
2D7
100
AcDbEntity
  8
0
  6
Continuous
 62
     4
100
AcDbCircle
 10
88.50565000000001
 20
183.0020909999998
 30
0.0
 40
0.79992
  0
CIRCLE
  5
388
330
2D7
100
AcDbEntity
  8
0
  6
Continuous
 62
     4
100
AcDbCircle
 10
88.50565000000001
 20
185.5418369999999
 30
0.0
 40
0.79992
  0
CIRCLE
  5
389
330
2D7
100
AcDbEntity
  8
0
  6
Continuous
 62
     4
100
AcDbCircle
 10
88.50565000000001
 20
175.382853
 30
0.0
 40
0.79992
  0
LINE
  5
38A
330
2D7
100
AcDbEntity
  8
0
  6
Continuous
 62
     3
100
AcDbLine
 10
91.50535000000001
 20
189.4214489999999
 30
0.0
 11
80.50645000000001
 21
189.4214489999999
 31
0.0
  0
LINE
  5
38B
330
2D7
100
AcDbEntity
  8
0
  6
Continuous
 62
     3
100
AcDbLine
 10
80.50645000000001
 20
166.4237489999998
 30
0.0
 11
91.50535000000001
 21
166.4237489999998
 31
0.0
  0
LINE
  5
38C
330
2D7
100
AcDbEntity
  8
0
  6
Continuous
 62
     3
100
AcDbLine
 10
81.50634999999999
 20
166.4237489999998
 30
0.0
 11
81.50634999999999
 21
189.4214489999999
 31
0.0
  0
LINE
  5
38D
330
2D7
100
AcDbEntity
  8
0
  6
Continuous
 62
     3
100
AcDbLine
 10
144.5000499999999
 20
189.4214489999999
 30
0.0
 11
149.8995099999999
 21
189.4214489999999
 31
0.0
  0
LINE
  5
38E
330
2D7
100
AcDbEntity
  8
0
  6
Continuous
 62
     3
100
AcDbLine
 10
149.8995099999999
 20
166.4237489999998
 30
0.0
 11
144.70003
 21
166.4237489999998
 31
0.0
  0
LINE
  5
38F
330
2D7
100
AcDbEntity
  8
0
  6
Continuous
 62
     3
100
AcDbLine
 10
148.49965
 20
165.3238589999999
 30
0.0
 11
156.1988799999998
 21
156.924699
 31
0.0
  0
LINE
  5
390
330
2D7
100
AcDbEntity
  8
0
  6
Continuous
 62
     3
100
AcDbLine
 10
81.50634999999999
 20
189.4214489999999
 30
0.0
 11
81.0064
 21
187.9215989999999
 31
0.0
  0
LINE
  5
391
330
2D7
100
AcDbEntity
  8
0
  6
Continuous
 62
     3
100
AcDbLine
 10
82.00629999999998
 20
187.9215989999999
 30
0.0
 11
81.50634999999999
 21
189.4214489999999
 31
0.0
  0
LINE
  5
392
330
2D7
100
AcDbEntity
  8
0
  6
Continuous
 62
     3
100
AcDbLine
 10
81.50634999999999
 20
166.4237489999998
 30
0.0
 11
81.0064
 21
167.923599
 31
0.0
  0
LINE
  5
393
330
2D7
100
AcDbEntity
  8
0
  6
Continuous
 62
     3
100
AcDbLine
 10
82.00629999999998
 20
167.923599
 30
0.0
 11
81.50634999999999
 21
166.4237489999998
 31
0.0
  0
LINE
  5
394
330
2D7
100
AcDbEntity
  8
0
  6
Continuous
 62
     3
100
AcDbLine
 10
148.49965
 20
165.3238589999999
 30
0.0
 11
150.549445
 21
164.4239489999999
 31
0.0
  0
CIRCLE
  5
395
330
2D7
100
AcDbEntity
  8
0
  6
Continuous
 62
     4
100
AcDbCircle
 10
88.50565000000001
 20
172.843107
 30
0.0
 40
0.79992
  0
CIRCLE
  5
396
330
2D7
100
AcDbEntity
  8
0
  6
Continuous
 62
     4
100
AcDbCircle
 10
88.50565000000001
 20
170.303361
 30
0.0
 40
0.79992
  0
LINE
  5
397
330
2D7
100
AcDbEntity
  8
0
  6
LTYPE1
 62
     4
100
AcDbLine
 10
90.70543
 20
186.8217089999999
 30
0.0
 11
90.70543
 21
169.0234889999999
 31
0.0
  0
LINE
  5
398
330
2D7
100
AcDbEntity
  8
0
  6
LTYPE1
 62
     4
100
AcDbLine
 10
90.70543
 20
169.0234889999999
 30
0.0
 11
86.50584999999997
 21
169.0234889999999
 31
0.0
  0
LINE
  5
399
330
2D7
100
AcDbEntity
  8
0
  6
LTYPE1
 62
     4
100
AcDbLine
 10
86.50584999999997
 20
186.8217089999999
 30
0.0
 11
90.70543
 21
186.8217089999999
 31
0.0
  0
LINE
  5
39A
330
2D7
100
AcDbEntity
  8
0
  6
LTYPE1
 62
     4
100
AcDbLine
 10
86.50584999999997
 20
169.0234889999999
 30
0.0
 11
86.50584999999997
 21
186.8217089999999
 31
0.0
  0
TEXT
  5
39B
330
2D7
100
AcDbEntity
  8
0
  6
Continuous
 62
     3
100
AcDbText
 10
157.2137784999999
 20
157.364655
 30
0.0
 40
3.636
  1
４－φ２.８
  7
KANJI0
100
AcDbText
  0
LINE
  5
39C
330
2D7
100
AcDbEntity
  8
0
  6
Continuous
 62
     3
100
AcDbLine
 10
76.347775
 20
192.6711239999999
 30
0.0
 11
76.347775
 21
163.1740739999998
 31
0.0
  0
LINE
  5
39D
330
2D7
100
AcDbEntity
  8
0
  6
Continuous
 62
     3
100
AcDbLine
 10
76.347775
 20
163.1740739999998
 30
0.0
 11
75.847825
 21
164.673924
 31
0.0
  0
LINE
  5
39E
330
2D7
100
AcDbEntity
  8
0
  6
Continuous
 62
     3
100
AcDbLine
 10
76.84772499999998
 20
164.673924
 30
0.0
 11
76.347775
 21
163.1740739999998
 31
0.0
  0
LINE
  5
39F
330
2D7
100
AcDbEntity
  8
0
  6
Continuous
 62
     3
100
AcDbLine
 10
76.31277849999998
 20
192.661125
 30
0.0
 11
75.81282849999998
 21
191.1612749999999
 31
0.0
  0
LINE
  5
3A0
330
2D7
100
AcDbEntity
  8
0
  6
Continuous
 62
     3
100
AcDbLine
 10
76.8127285
 20
191.1612749999999
 30
0.0
 11
76.31277849999998
 21
192.661125
 31
0.0
  0
TEXT
  5
3A1
330
2D7
100
AcDbEntity
  8
0
  6
Continuous
 62
     3
100
AcDbText
 10
74.9038285
 20
174.0766199999999
 30
0.0
 40
3.636
  1
２９.５
 50
90.0
 41
0.5
  7
KANJI1
100
AcDbText
  0
TEXT
  5
3A2
330
2D7
100
AcDbEntity
  8
0
  6
Continuous
 62
     3
100
AcDbText
 10
80.7896035
 20
179.0533949999999
 30
0.0
 40
3.636
  1
２３
 50
90.0
 41
0.5
  7
KANJI1
100
AcDbText
  0
LINE
  5
3A3
330
2D7
100
AcDbEntity
  8
0
  6
Continuous
 62
     3
100
AcDbLine
 10
85.25597500000001
 20
192.6711239999999
 30
0.0
 11
74.79792999999998
 21
192.6711239999999
 31
0.0
  0
LINE
  5
3A4
330
2D7
100
AcDbEntity
  8
0
  6
Continuous
 62
     3
100
AcDbLine
 10
74.43433
 20
163.1740739999998
 30
0.0
 11
85.25597500000001
 21
163.1740739999998
 31
0.0
  0
LINE
  5
3A5
330
2D7
100
AcDbEntity
  8
0
  6
LTYPE2
 62
     3
100
AcDbLine
 10
85.70592999999998
 20
177.922599
 30
0.0
 11
150.06313
 21
177.922599
 31
0.0
  0
LINE
  5
3A6
330
2D7
100
AcDbEntity
  8
0
  6
LTYPE2
 62
     3
100
AcDbLine
 10
79.43837499999998
 20
177.922599
 30
0.0
 11
83.16073000000001
 21
177.922599
 31
0.0
  0
TEXT
  5
3A7
330
2D7
100
AcDbEntity
  8
0
  6
Continuous
 62
     3
100
AcDbText
 10
83.81066500000001
 20
177.0272339999999
 30
0.5454
 40
2.181599999999999
  1
４
 41
0.625
  7
KANJI2
100
AcDbText
  0
TEXT
  5
3A8
330
2D7
100
AcDbEntity
  8
0
  6
Continuous
 62
     3
100
AcDbText
 10
83.81066500000001
 20
169.209834
 30
0.5454
 40
2.181599999999999
  1
７
 41
0.625
  7
KANJI2
100
AcDbText
  0
TEXT
  5
3A9
330
2D7
100
AcDbEntity
  8
0
  6
Continuous
 62
     3
100
AcDbText
 10
83.81066500000001
 20
171.755034
 30
0.5454
 40
2.181599999999999
  1
６
 41
0.625
  7
KANJI2
100
AcDbText
  0
TEXT
  5
3AA
330
2D7
100
AcDbEntity
  8
0
  6
Continuous
 62
     3
100
AcDbText
 10
83.81066500000001
 20
174.3002339999999
 30
0.5454
 40
2.181599999999999
  1
５
 41
0.625
  7
KANJI2
100
AcDbText
  0
TEXT
  5
3AB
330
2D7
100
AcDbEntity
  8
0
  6
Continuous
 62
     3
100
AcDbText
 10
83.81066500000001
 20
184.662834
 30
0.5454
 40
2.181599999999999
  1
１
 41
0.625
  7
KANJI2
100
AcDbText
  0
TEXT
  5
3AC
330
2D7
100
AcDbEntity
  8
0
  6
Continuous
 62
     3
100
AcDbText
 10
83.81066500000001
 20
181.9358339999998
 30
0.5454
 40
2.181599999999999
  1
２
 41
0.625
  7
KANJI2
100
AcDbText
  0
TEXT
  5
3AD
330
2D7
100
AcDbEntity
  8
0
  6
Continuous
 62
     3
100
AcDbText
 10
83.81066500000001
 20
179.390634
 30
0.5454
 40
2.181599999999999
  1
３
 41
0.625
  7
KANJI2
100
AcDbText
  0
LINE
  5
3AE
330
2D7
100
AcDbEntity
  8
0
  6
Continuous
 62
     3
100
AcDbLine
 10
187.647285
 20
187.421649
 30
0.5454
 11
180.7629734999999
 21
187.421649
 31
0.5454
  0
LINE
  5
3AF
330
2D7
100
AcDbEntity
  8
0
  6
Continuous
 62
     3
100
AcDbLine
 10
181.7628735
 20
187.421649
 30
0.0
 11
181.7628735
 21
168.423549
 31
0.0
  0
LINE
  5
3B0
330
2D7
100
AcDbEntity
  8
0
  6
Continuous
 62
     3
100
AcDbLine
 10
187.647285
 20
168.423549
 30
0.0
 11
180.7629734999999
 21
168.423549
 31
0.0
  0
LINE
  5
3B1
330
2D7
100
AcDbEntity
  8
0
  6
Continuous
 62
     3
100
AcDbLine
 10
201.2059289999998
 20
186.81171
 30
0.0
 11
220.414008
 21
186.81171
 31
0.0
  0
LINE
  5
3B2
330
2D7
100
AcDbEntity
  8
0
  6
Continuous
 62
     3
100
AcDbLine
 10
201.2059289999998
 20
169.0334879999998
 30
0.0
 11
220.414008
 21
169.0334879999998
 31
0.0
  0
LINE
  5
3B3
330
2D7
100
AcDbEntity
  8
0
  6
Continuous
 62
     3
100
AcDbLine
 10
219.414108
 20
186.81171
 30
0.0
 11
219.414108
 21
169.0334879999998
 31
0.0
  0
LINE
  5
3B4
330
2D7
100
AcDbEntity
  8
0
  6
Continuous
 62
     3
100
AcDbLine
 10
205.305519
 20
182.9920919999999
 30
0.0
 11
211.2599234999999
 21
182.9920919999999
 31
0.0
  0
LINE
  5
3B5
330
2D7
100
AcDbEntity
  8
0
  6
Continuous
 62
     3
100
AcDbLine
 10
205.305519
 20
185.5318379999999
 30
0.0
 11
211.2599234999999
 21
185.5318379999999
 31
0.0
  0
LINE
  5
3B6
330
2D7
100
AcDbEntity
  8
0
  6
Continuous
 62
     3
100
AcDbLine
 10
207.2053289999999
 20
175.702821
 30
0.0
 11
211.2599234999999
 21
175.702821
 31
0.0
  0
LINE
  5
3B7
330
2D7
100
AcDbEntity
  8
0
  6
Continuous
 62
     3
100
AcDbLine
 10
207.2053289999999
 20
175.062885
 30
0.0
 11
211.2599234999999
 21
175.062885
 31
0.0
  0
LINE
  5
3B8
330
2D7
100
AcDbEntity
  8
0
  6
Continuous
 62
     3
100
AcDbLine
 10
210.2600234999999
 20
178.202571
 30
0.0
 11
210.2600234999999
 21
169.573434
 31
0.0
  0
LINE
  5
3B9
330
2D7
100
AcDbEntity
  8
0
  6
Continuous
 62
     4
100
AcDbLine
 10
196.39641
 20
187.421649
 30
0.0
 11
188.39721
 21
187.421649
 31
0.0
  0
LINE
  5
3BA
330
2D7
100
AcDbEntity
  8
0
  6
Continuous
 62
     4
100
AcDbLine
 10
188.39721
 20
187.421649
 30
0.0
 11
188.39721
 21
168.423549
 31
0.0
  0
LINE
  5
3BB
330
2D7
100
AcDbEntity
  8
0
  6
Continuous
 62
     4
100
AcDbLine
 10
200.456004
 20
169.0334879999998
 30
0.0
 11
197.906259
 21
169.0334879999998
 31
0.0
  0
LINE
  5
3BC
330
2D7
100
AcDbEntity
  8
0
  6
Continuous
 62
     4
100
AcDbLine
 10
188.39721
 20
168.423549
 30
0.0
 11
196.39641
 21
168.423549
 31
0.0
  0
LINE
  5
3BD
330
2D7
100
AcDbEntity
  8
0
  6
Continuous
 62
     4
100
AcDbLine
 10
196.39641
 20
163.1740739999998
 30
0.0
 11
197.89626
 21
163.1740739999998
 31
0.0
  0
LINE
  5
3BE
330
2D7
100
AcDbEntity
  8
0
  6
Continuous
 62
     4
100
AcDbLine
 10
200.446005
 20
174.5979314999999
 30
0.0
 11
200.456004
 21
174.5979314999999
 31
0.0
  0
LINE
  5
3BF
330
2D7
100
AcDbEntity
  8
0
  6
Continuous
 62
     4
100
AcDbLine
 10
206.4554039999999
 20
175.702821
 30
0.0
 11
206.4554039999999
 21
175.062885
 31
0.0
  0
LINE
  5
3C0
330
2D7
100
AcDbEntity
  8
0
  6
Continuous
 62
     4
100
AcDbLine
 10
200.456004
 20
175.702821
 30
0.0
 11
206.4554039999999
 21
175.702821
 31
0.0
  0
LINE
  5
3C1
330
2D7
100
AcDbEntity
  8
0
  6
Continuous
 62
     4
100
AcDbLine
 10
206.4554039999999
 20
175.062885
 30
0.0
 11
200.456004
 21
175.062885
 31
0.0
  0
LINE
  5
3C2
330
2D7
100
AcDbEntity
  8
0
  6
Continuous
 62
     4
100
AcDbLine
 10
200.456004
 20
178.2425669999998
 30
0.0
 11
206.4554039999999
 21
178.2425669999998
 31
0.0
  0
LINE
  5
3C3
330
2D7
100
AcDbEntity
  8
0
  6
Continuous
 62
     4
100
AcDbLine
 10
200.456004
 20
180.7823129999999
 30
0.0
 11
206.4554039999999
 21
180.7823129999999
 31
0.0
  0
LINE
  5
3C4
330
2D7
100
AcDbEntity
  8
0
  6
Continuous
 62
     4
100
AcDbLine
 10
206.4554039999999
 20
180.142377
 30
0.0
 11
200.456004
 21
180.142377
 31
0.0
  0
LINE
  5
3C5
330
2D7
100
AcDbEntity
  8
0
  6
Continuous
 62
     4
100
AcDbLine
 10
206.4554039999999
 20
182.682123
 30
0.0
 11
200.456004
 21
182.682123
 31
0.0
  0
LINE
  5
3C6
330
2D7
100
AcDbEntity
  8
0
  6
Continuous
 62
     4
100
AcDbLine
 10
200.456004
 20
185.861805
 30
0.0
 11
206.4554039999999
 21
185.861805
 31
0.0
  0
LINE
  5
3C7
330
2D7
100
AcDbEntity
  8
0
  6
Continuous
 62
     4
100
AcDbLine
 10
200.456004
 20
186.81171
 30
0.0
 11
200.456004
 21
169.0334879999998
 31
0.0
  0
LINE
  5
3C8
330
2D7
100
AcDbEntity
  8
0
  6
Continuous
 62
     4
100
AcDbLine
 10
197.89626
 20
183.921999
 30
0.0
 11
196.39641
 21
183.921999
 31
0.0
  0
LINE
  5
3C9
330
2D7
100
AcDbEntity
  8
0
  6
Continuous
 62
     4
100
AcDbLine
 10
197.89626
 20
186.81171
 30
0.0
 11
200.456004
 21
186.81171
 31
0.0
  0
LINE
  5
3CA
330
2D7
100
AcDbEntity
  8
0
  6
Continuous
 62
     4
100
AcDbLine
 10
196.39641
 20
171.923199
 30
0.0
 11
197.89626
 21
171.923199
 31
0.0
  0
LINE
  5
3CB
330
2D7
100
AcDbEntity
  8
0
  6
Continuous
 62
     4
100
AcDbLine
 10
206.4554039999999
 20
183.3220589999999
 30
0.0
 11
206.4554039999999
 21
182.682123
 31
0.0
  0
LINE
  5
3CC
330
2D7
100
AcDbEntity
  8
0
  6
Continuous
 62
     4
100
AcDbLine
 10
206.4554039999999
 20
185.861805
 30
0.0
 11
206.4554039999999
 21
185.2218689999999
 31
0.0
  0
LINE
  5
3CD
330
2D7
100
AcDbEntity
  8
0
  6
Continuous
 62
     4
100
AcDbLine
 10
200.456004
 20
183.3220589999999
 30
0.0
 11
206.4554039999999
 21
183.3220589999999
 31
0.0
  0
LINE
  5
3CE
330
2D7
100
AcDbEntity
  8
0
  6
Continuous
 62
     4
100
AcDbLine
 10
206.4554039999999
 20
185.2218689999999
 30
0.0
 11
200.456004
 21
185.2218689999999
 31
0.0
  0
LINE
  5
3CF
330
2D7
100
AcDbEntity
  8
0
  6
Continuous
 62
     4
100
AcDbLine
 10
206.4554039999999
 20
180.7823129999999
 30
0.0
 11
206.4554039999999
 21
180.142377
 31
0.0
  0
LINE
  5
3D0
330
2D7
100
AcDbEntity
  8
0
  6
Continuous
 62
     4
100
AcDbLine
 10
206.4554039999999
 20
178.2425669999998
 30
0.0
 11
206.4554039999999
 21
177.6026309999997
 31
0.0
  0
LINE
  5
3D1
330
2D7
100
AcDbEntity
  8
0
  6
Continuous
 62
     4
100
AcDbLine
 10
206.4554039999999
 20
177.6026309999997
 30
0.0
 11
200.456004
 21
177.6026309999997
 31
0.0
  0
LINE
  5
3D2
330
2D7
100
AcDbEntity
  8
0
  6
Continuous
 62
     4
100
AcDbLine
 10
197.89626
 20
192.6711239999999
 30
0.0
 11
196.39641
 21
192.6711239999999
 31
0.0
  0
LINE
  5
3D3
330
2D7
100
AcDbEntity
  8
0
  6
Continuous
 62
     4
100
AcDbLine
 10
196.39641
 20
192.6711239999999
 30
0.0
 11
196.39641
 21
163.1740739999998
 31
0.0
  0
LINE
  5
3D4
330
2D7
100
AcDbEntity
  8
0
  6
Continuous
 62
     4
100
AcDbLine
 10
197.89626
 20
163.1740739999998
 30
0.0
 11
197.89626
 21
192.6711239999999
 31
0.0
  0
LINE
  5
3D5
330
2D7
100
AcDbEntity
  8
0
  6
Continuous
 62
     3
100
AcDbLine
 10
181.69788
 20
187.421649
 30
0.0
 11
181.19793
 21
185.9217989999999
 31
0.0
  0
LINE
  5
3D6
330
2D7
100
AcDbEntity
  8
0
  6
Continuous
 62
     3
100
AcDbLine
 10
182.1978299999999
 20
185.9217989999999
 30
0.0
 11
181.69788
 21
187.421649
 31
0.0
  0
LINE
  5
3D7
330
2D7
100
AcDbEntity
  8
0
  6
Continuous
 62
     3
100
AcDbLine
 10
181.7978699999999
 20
168.473544
 30
0.0
 11
181.29792
 21
169.9733939999999
 31
0.0
  0
LINE
  5
3D8
330
2D7
100
AcDbEntity
  8
0
  6
Continuous
 62
     3
100
AcDbLine
 10
182.29782
 20
169.9733939999999
 30
0.0
 11
181.7978699999999
 21
168.473544
 31
0.0
  0
LINE
  5
3D9
330
2D7
100
AcDbEntity
  8
0
  6
Continuous
 62
     3
100
AcDbLine
 10
210.2600234999999
 20
185.5318379999999
 30
0.0
 11
209.7600734999998
 21
187.031688
 31
0.0
  0
LINE
  5
3DA
330
2D7
100
AcDbEntity
  8
0
  6
Continuous
 62
     3
100
AcDbLine
 10
210.7599734999999
 20
187.031688
 30
0.0
 11
210.2600234999999
 21
185.5318379999999
 31
0.0
  0
LINE
  5
3DB
330
2D7
100
AcDbEntity
  8
0
  6
Continuous
 62
     3
100
AcDbLine
 10
210.2600234999999
 20
182.9820929999999
 30
0.0
 11
209.7600734999998
 21
181.4822429999999
 31
0.0
  0
LINE
  5
3DC
330
2D7
100
AcDbEntity
  8
0
  6
Continuous
 62
     3
100
AcDbLine
 10
210.7599734999999
 20
181.4822429999999
 30
0.0
 11
210.2600234999999
 21
182.9820929999999
 31
0.0
  0
LINE
  5
3DD
330
2D7
100
AcDbEntity
  8
0
  6
Continuous
 62
     3
100
AcDbLine
 10
210.2600234999999
 20
175.702821
 30
0.0
 11
209.7600734999998
 21
177.202671
 31
0.0
  0
LINE
  5
3DE
330
2D7
100
AcDbEntity
  8
0
  6
Continuous
 62
     3
100
AcDbLine
 10
210.7599734999999
 20
177.202671
 30
0.0
 11
210.2600234999999
 21
175.702821
 31
0.0
  0
LINE
  5
3DF
330
2D7
100
AcDbEntity
  8
0
  6
Continuous
 62
     3
100
AcDbLine
 10
210.2600234999999
 20
175.062885
 30
0.0
 11
209.7600734999998
 21
173.563035
 31
0.0
  0
LINE
  5
3E0
330
2D7
100
AcDbEntity
  8
0
  6
Continuous
 62
     3
100
AcDbLine
 10
210.7599734999999
 20
173.563035
 30
0.0
 11
210.2600234999999
 21
175.062885
 31
0.0
  0
LINE
  5
3E2
330
2D7
100
AcDbEntity
  8
0
  6
Continuous
 62
     3
100
AcDbLine
 10
219.4091085
 20
186.7617149999999
 30
0.0
 11
218.9091584999999
 21
185.261865
 31
0.0
  0
LINE
  5
3E3
330
2D7
100
AcDbEntity
  8
0
  6
Continuous
 62
     3
100
AcDbLine
 10
219.9090584999999
 20
185.261865
 30
0.0
 11
219.4091085
 21
186.7617149999999
 31
0.0
  0
LINE
  5
3E4
330
2D7
100
AcDbEntity
  8
0
  6
Continuous
 62
     3
100
AcDbLine
 10
219.4091085
 20
169.0634849999999
 30
0.0
 11
218.9091584999999
 21
170.563335
 31
0.0
  0
LINE
  5
3E5
330
2D7
100
AcDbEntity
  8
0
  6
Continuous
 62
     3
100
AcDbLine
 10
219.9090584999999
 20
170.563335
 30
0.0
 11
219.4091085
 21
169.0634849999999
 31
0.0
  0
LINE
  5
3E6
330
2D7
100
AcDbEntity
  8
0
  6
LTYPE1
 62
     4
100
AcDbLine
 10
206.4554039999999
 20
170.623329
 30
0.0
 11
206.4554039999999
 21
169.983393
 31
0.0
  0
LINE
  5
3E7
330
2D7
100
AcDbEntity
  8
0
  6
LTYPE1
 62
     4
100
AcDbLine
 10
206.4554039999999
 20
173.1630749999999
 30
0.0
 11
206.4554039999999
 21
172.5231389999999
 31
0.0
  0
LINE
  5
3EA
330
2D7
100
AcDbEntity
  8
0
  6
LTYPE2
 62
     3
100
AcDbLine
 10
225.7434749999999
 20
177.922599
 30
0.0
 11
232.97457
 21
177.922599
 31
0.0
  0
TEXT
  5
3EB
330
2D7
100
AcDbEntity
  8
0
  6
Continuous
 62
     3
100
AcDbText
 10
224.2631685
 20
172.799475
 30
0.0
 40
3.636
  1
１７.７８
 50
90.0
 41
0.5
  7
KANJI1
100
AcDbText
  0
LINE
  5
3EC
330
2D7
100
AcDbEntity
  8
0
  6
LTYPE2
 62
     3
100
AcDbLine
 10
216.289875
 20
177.922599
 30
0.0
 11
220.1076749999999
 21
177.922599
 31
0.0
  0
LINE
  5
3ED
330
2D7
100
AcDbEntity
  8
0
  6
LTYPE2
 62
     3
100
AcDbLine
 10
212.108475
 20
177.922599
 30
0.0
 11
185.9974499999999
 21
177.922599
 31
0.0
  0
TEXT
  5
3EE
330
2D7
100
AcDbEntity
  8
0
  6
Continuous
 62
     3
100
AcDbText
 10
214.5186884999999
 20
187.5661799999998
 30
0.0
 40
3.636
  1
２.５４
 50
90.0
 41
0.5
  7
KANJI1
100
AcDbText
  0
TEXT
  5
3EF
330
2D7
100
AcDbEntity
  8
0
  6
Continuous
 62
     3
100
AcDbText
 10
181.1129385
 20
173.390325
 30
0.0
 40
3.636
  1
１７.０２
 50
90.0
 41
0.5
  7
KANJI1
100
AcDbText
  0
LINE
  5
3F1
330
2D7
100
AcDbEntity
  8
0
  6
Continuous
 62
     3
100
AcDbLine
 10
76.23687700000002
 20
253.1381859999999
 30
0.0
 11
76.23687700000002
 21
244.589041
 31
0.0
  0
LINE
  5
3F2
330
2D7
100
AcDbEntity
  8
0
  6
Continuous
 62
     3
100
AcDbLine
 10
85.50594999999999
 20
247.1387859999999
 30
0.0
 11
82.13628699999999
 21
247.1387859999999
 31
0.0
  0
LINE
  5
3F3
330
2D7
100
AcDbEntity
  8
0
  6
Continuous
 62
     3
100
AcDbLine
 10
85.006
 20
244.589041
 30
0.0
 11
75.23697699999998
 21
244.589041
 31
0.0
  0
LINE
  5
3F4
330
2D7
100
AcDbEntity
  8
0
  6
Continuous
 62
     3
100
AcDbLine
 10
82.58624199999998
 20
251.49835
 30
0.0
 11
82.58624199999998
 21
242.089291
 31
0.0
  0
LINE
  5
3F5
330
2D7
100
AcDbEntity
  8
0
  6
Continuous
 62
     3
100
AcDbLine
 10
87.28577199999998
 20
253.1381859999999
 30
0.0
 11
75.186982
 21
253.1381859999999
 31
0.0
  0
LINE
  5
3F6
330
2D7
100
AcDbEntity
  8
0
  6
Continuous
 62
     3
100
AcDbLine
 10
150.9994
 20
244.5990399999999
 30
0.0
 11
157.8487149999999
 21
244.5990399999999
 31
0.0
  0
LINE
  5
3F7
330
2D7
100
AcDbEntity
  8
0
  6
Continuous
 62
     3
100
AcDbLine
 10
150.9994
 20
242.9991999999999
 30
0.0
 11
157.8487149999999
 21
242.9991999999999
 31
0.0
  0
LINE
  5
3F8
330
2D7
100
AcDbEntity
  8
0
  6
Continuous
 62
     3
100
AcDbLine
 10
86.25587499999996
 20
247.888711
 30
0.0
 11
86.25587499999996
 21
260.1874809999998
 31
0.0
  0
LINE
  5
3F9
330
2D7
100
AcDbEntity
  8
0
  6
Continuous
 62
     3
100
AcDbLine
 10
83.75612499999999
 20
259.187581
 30
0.0
 11
92.955205
 21
259.187581
 31
0.0
  0
LINE
  5
3FA
330
2D7
100
AcDbEntity
  8
0
  6
Continuous
 62
     3
100
AcDbLine
 10
90.45545500000001
 20
247.888711
 30
0.0
 11
90.45545500000001
 21
260.1874809999998
 31
0.0
  0
LINE
  5
3FC
330
2D7
100
AcDbEntity
  8
0
  6
Continuous
 62
     4
100
AcDbLine
 10
86.25587499999996
 20
247.1387859999999
 30
0.0
 11
90.45545500000001
 21
247.1387859999999
 31
0.0
  0
LINE
  5
3FD
330
2D7
100
AcDbEntity
  8
0
  6
Continuous
 62
     4
100
AcDbLine
 10
88.035697
 20
247.1387859999999
 30
0.0
 11
88.035697
 21
253.1381859999999
 31
0.0
  0
LINE
  5
3FE
330
2D7
100
AcDbEntity
  8
0
  6
Continuous
 62
     4
100
AcDbLine
 10
88.035697
 20
253.1381859999999
 30
0.0
 11
88.67563299999996
 21
253.1381859999999
 31
0.0
  0
LINE
  5
3FF
330
2D7
100
AcDbEntity
  8
0
  6
Continuous
 62
     4
100
AcDbLine
 10
88.67563299999996
 20
253.1381859999999
 30
0.0
 11
88.67563299999996
 21
247.1387859999999
 31
0.0
  0
LINE
  5
400
330
2D7
100
AcDbEntity
  8
0
  6
Continuous
 62
     4
100
AcDbLine
 10
85.755925
 20
242.9991999999999
 30
0.0
 11
85.755925
 21
244.5990399999999
 31
0.0
  0
LINE
  5
401
330
2D7
100
AcDbEntity
  8
0
  6
Continuous
 62
     4
100
AcDbLine
 10
86.25587499999996
 20
244.6240374999999
 30
0.0
 11
86.25587499999996
 21
247.1387859999999
 31
0.0
  0
LINE
  5
402
330
2D7
100
AcDbEntity
  8
0
  6
Continuous
 62
     4
100
AcDbLine
 10
150.2494749999998
 20
242.9991999999999
 30
0.0
 11
85.755925
 21
242.9991999999999
 31
0.0
  0
LINE
  5
403
330
2D7
100
AcDbEntity
  8
0
  6
Continuous
 62
     4
100
AcDbLine
 10
90.45545500000001
 20
247.1387859999999
 30
0.0
 11
90.45545500000001
 21
244.5740424999999
 31
0.0
  0
LINE
  5
404
330
2D7
100
AcDbEntity
  8
0
  6
Continuous
 62
     4
100
AcDbLine
 10
150.2494749999998
 20
244.5990399999999
 30
0.0
 11
150.2494749999998
 21
242.9991999999999
 31
0.0
  0
LINE
  5
405
330
2D7
100
AcDbEntity
  8
0
  6
Continuous
 62
     4
100
AcDbLine
 10
85.755925
 20
244.5990399999999
 30
0.0
 11
150.2494749999998
 21
244.5990399999999
 31
0.0
  0
LINE
  5
406
330
2D7
100
AcDbEntity
  8
0
  6
LTYPE3
 62
     4
100
AcDbLine
 10
142.5502449999999
 20
247.108789
 30
0.0
 11
142.5502449999999
 21
244.609039
 31
0.0
  0
LINE
  5
407
330
2D7
100
AcDbEntity
  8
0
  6
LTYPE3
 62
     4
100
AcDbLine
 10
91.45535499999999
 20
244.5990399999999
 30
0.0
 11
91.45535499999999
 21
247.0987899999999
 31
0.0
  0
LINE
  5
408
330
2D7
100
AcDbEntity
  8
0
  6
LTYPE3
 62
     4
100
AcDbLine
 10
91.45535499999999
 20
247.0987899999999
 30
0.0
 11
142.5502449999999
 21
247.108789
 31
0.0
  0
LINE
  5
409
330
2D7
100
AcDbEntity
  8
0
  6
Continuous
 62
     3
100
AcDbLine
 10
76.23687700000002
 20
244.589041
 30
0.0
 11
76.736827
 21
246.0888909999999
 31
0.0
  0
LINE
  5
40A
330
2D7
100
AcDbEntity
  8
0
  6
Continuous
 62
     3
100
AcDbLine
 10
75.73692700000002
 20
246.0888909999999
 30
0.0
 11
76.23687700000002
 21
244.589041
 31
0.0
  0
LINE
  5
40B
330
2D7
100
AcDbEntity
  8
0
  6
Continuous
 62
     3
100
AcDbLine
 10
82.58624199999998
 20
244.589041
 30
0.0
 11
82.086292
 21
243.089191
 31
0.0
  0
LINE
  5
40C
330
2D7
100
AcDbEntity
  8
0
  6
Continuous
 62
     3
100
AcDbLine
 10
83.08619199999998
 20
243.089191
 30
0.0
 11
82.58624199999998
 21
244.589041
 31
0.0
  0
LINE
  5
40D
330
2D7
100
AcDbEntity
  8
0
  6
Continuous
 62
     3
100
AcDbLine
 10
82.58624199999998
 20
247.1387859999999
 30
0.0
 11
82.086292
 21
248.638636
 31
0.0
  0
LINE
  5
40E
330
2D7
100
AcDbEntity
  8
0
  6
Continuous
 62
     3
100
AcDbLine
 10
83.08619199999998
 20
248.638636
 30
0.0
 11
82.58624199999998
 21
247.1387859999999
 31
0.0
  0
LINE
  5
40F
330
2D7
100
AcDbEntity
  8
0
  6
Continuous
 62
     3
100
AcDbLine
 10
76.23687700000002
 20
253.1381859999999
 30
0.0
 11
75.73692700000002
 21
251.6383359999999
 31
0.0
  0
LINE
  5
410
330
2D7
100
AcDbEntity
  8
0
  6
Continuous
 62
     3
100
AcDbLine
 10
76.736827
 20
251.6383359999999
 30
0.0
 11
76.23687700000002
 21
253.1381859999999
 31
0.0
  0
LINE
  5
411
330
2D7
100
AcDbEntity
  8
0
  6
Continuous
 62
     3
100
AcDbLine
 10
86.25587499999996
 20
259.187581
 30
0.0
 11
84.75602499999999
 21
258.687631
 31
0.0
  0
LINE
  5
412
330
2D7
100
AcDbEntity
  8
0
  6
Continuous
 62
     3
100
AcDbLine
 10
84.75602499999999
 20
259.6875309999999
 30
0.0
 11
86.25587499999996
 21
259.187581
 31
0.0
  0
LINE
  5
413
330
2D7
100
AcDbEntity
  8
0
  6
Continuous
 62
     3
100
AcDbLine
 10
90.45545500000001
 20
259.187581
 30
0.0
 11
91.95530500000002
 21
259.6875309999999
 31
0.0
  0
LINE
  5
414
330
2D7
100
AcDbEntity
  8
0
  6
Continuous
 62
     3
100
AcDbLine
 10
91.95530500000002
 20
258.687631
 30
0.0
 11
90.45545500000001
 21
259.187581
 31
0.0
  0
LINE
  5
416
330
2D7
100
AcDbEntity
  8
0
  6
Continuous
 62
     3
100
AcDbLine
 10
156.848815
 20
244.5990399999999
 30
0.0
 11
156.348865
 21
246.0988899999999
 31
0.0
  0
LINE
  5
417
330
2D7
100
AcDbEntity
  8
0
  6
Continuous
 62
     3
100
AcDbLine
 10
157.3487649999998
 20
246.0988899999999
 30
0.0
 11
156.848815
 21
244.5990399999999
 31
0.0
  0
LINE
  5
418
330
2D7
100
AcDbEntity
  8
0
  6
Continuous
 62
     3
100
AcDbLine
 10
156.848815
 20
242.9991999999999
 30
0.0
 11
156.348865
 21
241.49935
 31
0.0
  0
LINE
  5
419
330
2D7
100
AcDbEntity
  8
0
  6
Continuous
 62
     3
100
AcDbLine
 10
157.3487649999998
 20
241.49935
 30
0.0
 11
156.848815
 21
242.9991999999999
 31
0.0
  0
TEXT
  5
41B
330
2D7
100
AcDbEntity
  8
0
  6
Continuous
 62
     3
100
AcDbText
 10
155.9275435
 20
245.68075
 30
0.0
 40
3.636
  1
１.６
 50
90.0
 41
0.5
  7
KANJI1
100
AcDbText
  0
TEXT
  5
41D
330
2D7
100
AcDbEntity
  8
0
  6
Continuous
 62
     3
100
AcDbText
 10
85.52549350000003
 20
260.59744
 30
0.0
 40
3.636
  1
４.２
 41
0.5
  7
KANJI1
100
AcDbText
  0
TEXT
  5
41E
330
2D7
100
AcDbEntity
  8
0
  6
Continuous
 62
     3
100
AcDbText
 10
81.7213285
 20
245.3171499999999
 30
0.0
 40
3.636
  1
２.５４
 50
90.0
 41
0.5
  7
KANJI1
100
AcDbText
  0
TEXT
  5
41F
330
2D7
100
AcDbEntity
  8
0
  6
Continuous
 62
     3
100
AcDbText
 10
74.92200849999997
 20
245.0899
 30
0.1818
 40
3.636
  1
８.５４
 50
90.0
 41
0.5
  7
KANJI3
100
AcDbText
  0
LINE
  5
420
330
2D7
100
AcDbEntity
  8
0
  6
Continuous
 62
     3
100
AcDbLine
 10
105.50395
 20
194.171124
 30
0.1818
 11
105.50395
 21
204.671124
 31
0.1818
  0
LINE
  5
421
330
2D7
100
AcDbEntity
  8
0
  6
Continuous
 62
     3
100
AcDbLine
 10
130.50395
 20
194.171124
 30
0.0
 11
130.50395
 21
204.671124
 31
0.0
  0
LINE
  5
422
330
2D7
100
AcDbEntity
  8
0
  6
LTYPE2
 62
     3
100
AcDbLine
 10
175.50395
 20
177.922599
 30
0.0
 11
196.244875
 21
177.922599
 31
0.0
  0
LINE
  5
423
330
2D7
100
AcDbEntity
  8
0
  6
Continuous
 62
     3
100
AcDbLine
 10
168.6440899999998
 20
170.727864
 30
0.0
 11
168.1441399999999
 21
172.2277139999999
 31
0.0
  0
LINE
  5
424
330
2D7
100
AcDbEntity
  8
0
  6
Continuous
 62
     3
100
AcDbLine
 10
169.1440399999999
 20
172.0459139999999
 30
0.0
 11
168.6440899999998
 21
170.546064
 31
0.0
  0
LINE
  5
425
330
2D7
100
AcDbEntity
  8
0
  6
Continuous
 62
     3
100
AcDbLine
 10
168.65318
 20
170.705139
 30
0.0
 11
168.65318
 21
184.9764389999999
 31
0.0
  0
LINE
  5
426
330
2D7
100
AcDbEntity
  8
0
  6
Continuous
 62
     3
100
AcDbLine
 10
168.6440899999998
 20
185.026434
 30
0.0
 11
168.1441399999999
 21
183.526584
 31
0.0
  0
LINE
  5
427
330
2D7
100
AcDbEntity
  8
0
  6
Continuous
 62
     3
100
AcDbLine
 10
169.1440399999999
 20
183.526584
 30
0.0
 11
168.6440899999998
 21
185.026434
 31
0.0
  0
TEXT
  5
428
330
2D7
100
AcDbEntity
  8
0
  6
Continuous
 62
     3
100
AcDbText
 10
168.3091235
 20
173.735745
 30
0.0
 40
3.636
  1
１４.２
 50
90.0
 41
0.5
  7
KANJI1
100
AcDbText
  0
LINE
  5
429
330
2D7
100
AcDbEntity
  8
0
  6
Continuous
 62
     3
100
AcDbLine
 10
144.3184345689996
 20
184.9764389999999
 30
0.0
 11
169.1985799999999
 21
184.9764389999999
 31
0.0
  0
LINE
  5
42A
330
2D7
100
AcDbEntity
  8
0
  6
Continuous
 62
     3
100
AcDbLine
 10
169.1985799999999
 20
170.777859
 30
0.0
 11
141.818434569
 21
170.777859
 31
0.0
  0
LINE
  5
42B
330
2D7
100
AcDbEntity
  8
0
  6
Continuous
 62
     3
100
AcDbLine
 10
151.749475
 20
183.921999
 30
0.0
 11
162.2494749999999
 21
183.921999
 31
0.0
  0
LINE
  5
42C
330
2D7
100
AcDbEntity
  8
0
  6
Continuous
 62
     3
100
AcDbLine
 10
160.2494749999999
 20
183.921999
 30
0.0
 11
159.602427387
 21
181.507184434
 31
0.0
  0
LINE
  5
42D
330
2D7
100
AcDbEntity
  8
0
  6
Continuous
 62
     3
100
AcDbLine
 10
160.2494749999999
 20
183.921999
 30
0.0
 11
160.896522613
 21
181.507184434
 31
0.0
  0
LINE
  5
42E
330
2D7
100
AcDbEntity
  8
0
  6
Continuous
 62
     3
100
AcDbLine
 10
160.2494749999999
 20
183.921999
 30
0.0
 11
160.2494749999999
 21
171.921999
 31
0.0
  0
LINE
  5
42F
330
2D7
100
AcDbEntity
  8
0
  6
Continuous
 62
     3
100
AcDbLine
 10
160.2494749999999
 20
171.921999
 30
0.0
 11
160.896522613
 21
174.3368135659999
 31
0.0
  0
LINE
  5
430
330
2D7
100
AcDbEntity
  8
0
  6
Continuous
 62
     3
100
AcDbLine
 10
160.2494749999999
 20
171.921999
 30
0.0
 11
159.602427387
 21
174.3368135659999
 31
0.0
  0
LINE
  5
431
330
2D7
100
AcDbEntity
  8
0
  6
Continuous
 62
     3
100
AcDbLine
 10
151.749475
 20
171.921999
 30
0.0
 11
162.2494749999999
 21
171.921999
 31
0.0
  0
TEXT
  5
432
330
2D7
100
AcDbEntity
  8
0
  6
Continuous
 62
     3
100
AcDbText
 10
159.249475
 20
175.971999
 30
0.3
 40
3.0
  1
１２
 50
90.0
 41
0.6
  7
KANJI4
100
AcDbText
  0
LINE
  5
433
330
2D7
100
AcDbEntity
  8
0
  6
Continuous
 62
     3
100
AcDbLine
 10
88.50565000000001
 20
148.4248489999996
 30
0.3
 11
147.49975
 21
148.4248489999996
 31
0.3
  0
LINE
  5
434
330
2D7
100
AcDbEntity
  8
0
  6
Continuous
 62
     3
100
AcDbLine
 10
147.49975
 20
148.4248489999996
 30
0.0
 11
145.9999
 21
148.924799
 31
0.0
  0
LINE
  5
435
330
2D7
100
AcDbEntity
  8
0
  6
Continuous
 62
     3
100
AcDbLine
 10
145.9999
 20
147.924899
 30
0.0
 11
147.49975
 21
148.4248489999996
 31
0.0
  0
LINE
  5
436
330
2D7
100
AcDbEntity
  8
0
  6
Continuous
 62
     3
100
AcDbLine
 10
88.50565000000001
 20
148.4248489999996
 30
0.0
 11
90.0055
 21
148.924799
 31
0.0
  0
LINE
  5
437
330
2D7
100
AcDbEntity
  8
0
  6
Continuous
 62
     3
100
AcDbLine
 10
90.0055
 20
147.924899
 30
0.0
 11
88.50565000000001
 21
148.4248489999996
 31
0.0
  0
LINE
  5
438
330
2D7
100
AcDbEntity
  8
0
  6
Continuous
 62
     3
100
AcDbLine
 10
85.755925
 20
142.6754239999999
 30
0.0
 11
150.2494749999998
 21
142.6754239999999
 31
0.0
  0
LINE
  5
439
330
2D7
100
AcDbEntity
  8
0
  6
Continuous
 62
     3
100
AcDbLine
 10
85.70592999999998
 20
142.6754239999999
 30
0.0
 11
87.20578000000001
 21
143.1753739999996
 31
0.0
  0
LINE
  5
43A
330
2D7
100
AcDbEntity
  8
0
  6
Continuous
 62
     3
100
AcDbLine
 10
87.20578000000001
 20
142.175474
 30
0.0
 11
85.70592999999998
 21
142.6754239999999
 31
0.0
  0
LINE
  5
43B
330
2D7
100
AcDbEntity
  8
0
  6
Continuous
 62
     3
100
AcDbLine
 10
150.2494749999998
 20
142.725419
 30
0.0
 11
148.749625
 21
143.225369
 31
0.0
  0
LINE
  5
43C
330
2D7
100
AcDbEntity
  8
0
  6
Continuous
 62
     3
100
AcDbLine
 10
148.749625
 20
142.225469
 30
0.0
 11
150.2494749999998
 21
142.725419
 31
0.0
  0
TEXT
  5
43D
330
2D7
100
AcDbEntity
  8
0
  6
Continuous
 62
     3
100
AcDbText
 10
112.7822585
 20
143.410805
 30
0.0
 40
3.636
  1
６４.５
 41
0.5
  7
KANJI1
100
AcDbText
  0
LINE
  5
43E
330
2D7
100
AcDbEntity
  8
0
  6
Continuous
 62
     3
100
AcDbLine
 10
147.49975
 20
147.424949
 30
0.0
 11
147.49975
 21
191.1711239999999
 31
0.0
  0
LINE
  5
43F
330
2D7
100
AcDbEntity
  8
0
  6
Continuous
 62
     3
100
AcDbLine
 10
88.50565000000001
 20
191.6711239999999
 30
0.0
 11
88.50565000000001
 21
147.3249589999998
 31
0.0
  0
LINE
  5
440
330
2D7
100
AcDbEntity
  8
0
  6
Continuous
 62
     3
100
AcDbLine
 10
85.755925
 20
162.1711239999999
 30
0.0
 11
85.755925
 21
140.889239
 31
0.0
  0
LINE
  5
441
330
2D7
100
AcDbEntity
  8
0
  6
Continuous
 62
     3
100
AcDbLine
 10
150.2494749999998
 20
140.889239
 30
0.0
 11
150.2494749999998
 21
162.1711239999999
 31
0.0
  0
LINE
  5
442
330
2D7
100
AcDbEntity
  8
0
  6
Continuous
 62
     3
100
AcDbLine
 10
86.749475
 20
170.6711239999999
 30
0.0
 11
86.749475
 21
150.1711239999998
 31
0.0
  0
LINE
  5
443
330
2D7
100
AcDbEntity
  8
0
  6
Continuous
 62
     3
100
AcDbLine
 10
86.749475
 20
155.671124
 30
0.0
 11
89.16428956599999
 21
155.024076387
 31
0.0
  0
LINE
  5
444
330
2D7
100
AcDbEntity
  8
0
  6
Continuous
 62
     3
100
AcDbLine
 10
86.749475
 20
155.671124
 30
0.0
 11
89.16428956599999
 21
156.318171613
 31
0.0
  0
LINE
  5
445
330
2D7
100
AcDbEntity
  8
0
  6
Continuous
 62
     3
100
AcDbLine
 10
90.499475
 20
155.671124
 30
0.0
 11
86.749475
 21
155.671124
 31
0.0
  0
LINE
  5
446
330
2D7
100
AcDbEntity
  8
0
  6
Continuous
 62
     3
100
AcDbLine
 10
86.749475
 20
155.671124
 30
0.0
 11
85.749475
 21
155.671124
 31
0.0
  0
LINE
  5
447
330
2D7
100
AcDbEntity
  8
0
  6
Continuous
 62
     3
100
AcDbLine
 10
85.749475
 20
155.671124
 30
0.0
 11
83.33466043399999
 21
156.318171613
 31
0.0
  0
LINE
  5
448
330
2D7
100
AcDbEntity
  8
0
  6
Continuous
 62
     3
100
AcDbLine
 10
85.749475
 20
155.671124
 30
0.0
 11
83.33466043399999
 21
155.024076387
 31
0.0
  0
LINE
  5
449
330
2D7
100
AcDbEntity
  8
0
  6
Continuous
 62
     3
100
AcDbLine
 10
85.749475
 20
155.671124
 30
0.0
 11
76.999475
 21
155.671124
 31
0.0
  0
TEXT
  5
44A
330
2D7
100
AcDbEntity
  8
0
  6
Continuous
 62
     3
100
AcDbText
 10
79.849475
 20
156.1711239999999
 30
0.3
 40
3.0
  1
１
 41
0.6
  7
KANJI4
100
AcDbText
  0
TEXT
  5
44B
330
2D7
100
AcDbEntity
  8
0
  6
Continuous
 62
     3
100
AcDbText
 10
114.9091685
 20
149.4601999999999
 30
0.0
 40
3.636
  1
５９
 41
0.5
  7
KANJI1
100
AcDbText
  0
TEXT
  5
44C
330
2D7
100
AcDbEntity
  8
0
  6
Continuous
 62
     3
100
AcDbText
 10
216.1048935
 20
170.30427
 30
0.0
 40
3.636
  1
０.６４
 50
90.0
 41
0.5
  7
KANJI1
100
AcDbText
  0
LINE
  5
44D
330
2D7
100
AcDbEntity
  8
0
  6
Continuous
 62
     3
100
AcDbLine
 10
210.2600234999999
 20
180.4923419999999
 30
0.0
 11
210.2600234999999
 21
195.702821
 31
0.0
  0
CIRCLE
  5
44E
330
2D7
100
AcDbEntity
  8
0
  6
Continuous
 62
     4
100
AcDbCircle
 10
98.0
 20
183.4999999999998
 30
0.0
 40
1.5
  0
CIRCLE
  5
44F
330
2D7
100
AcDbEntity
  8
0
  6
Continuous
 62
     4
100
AcDbCircle
 10
98.0
 20
172.5
 30
0.0
 40
1.5
  0
TEXT
  5
450
330
2D7
100
AcDbEntity
  8
0
  6
Continuous
 62
     3
100
AcDbText
 10
92.42344000000001
 20
183.958259
 30
0.0
 40
2.0
  1
ＯＶＲ
 41
0.5
  7
KANJI5
100
AcDbText
  0
TEXT
  5
451
330
2D7
100
AcDbEntity
  8
0
  6
Continuous
 62
     3
100
AcDbText
 10
92.42344000000001
 20
170.458259
 30
0.0
 40
2.0
  1
ＰＯＬ
 41
0.5
  7
KANJI5
100
AcDbText
  0
LINE
  5
452
330
2D7
100
AcDbEntity
  8
0
  6
Continuous
 62
     4
100
AcDbLine
 10
103.021944569
 20
171.4732439999998
 30
0.0
 11
102.671979569
 21
171.8732039999999
 31
0.0
  0
LINE
  5
453
330
2D7
100
AcDbEntity
  8
0
  6
Continuous
 62
     4
100
AcDbLine
 10
139.18178
 20
186.5217389999999
 30
0.0
 11
139.18178
 21
169.323459
 31
0.0
  0
LINE
  5
454
330
2D7
100
AcDbEntity
  8
0
  6
Continuous
 62
     4
100
AcDbLine
 10
131.0191445689999
 20
185.0218889999999
 30
0.0
 11
137.4185045689999
 21
185.0218889999999
 31
0.0
  0
LINE
  5
455
330
2D7
100
AcDbEntity
  8
0
  6
Continuous
 62
     4
100
AcDbLine
 10
137.4185045689999
 20
185.0218889999999
 30
0.0
 11
137.6684795689999
 21
184.6719239999999
 31
0.0
  0
LINE
  5
456
330
2D7
100
AcDbEntity
  8
0
  6
Continuous
 62
     4
100
AcDbLine
 10
137.6684795689999
 20
184.6719239999999
 30
0.0
 11
136.2186245689999
 21
183.4220489999999
 31
0.0
  0
LINE
  5
457
330
2D7
100
AcDbEntity
  8
0
  6
Continuous
 62
     4
100
AcDbLine
 10
136.2186245689999
 20
183.4220489999999
 30
0.0
 11
131.819064569
 21
183.4220489999999
 31
0.0
  0
LINE
  5
458
330
2D7
100
AcDbEntity
  8
0
  6
Continuous
 62
     4
100
AcDbLine
 10
131.819064569
 20
183.4220489999999
 30
0.0
 11
130.7191745689999
 21
184.7219189999999
 31
0.0
  0
LINE
  5
459
330
2D7
100
AcDbEntity
  8
0
  6
Continuous
 62
     4
100
AcDbLine
 10
130.7191745689999
 20
184.7219189999999
 30
0.0
 11
131.0191445689999
 21
185.0218889999999
 31
0.0
  0
LINE
  5
45A
330
2D7
100
AcDbEntity
  8
0
  6
Continuous
 62
     4
100
AcDbLine
 10
137.868459569
 20
184.471944
 30
0.0
 11
136.368609569
 21
183.172074
 31
0.0
  0
LINE
  5
45B
330
2D7
100
AcDbEntity
  8
0
  6
Continuous
 62
     4
100
AcDbLine
 10
136.368609569
 20
183.172074
 30
0.0
 11
135.668679569
 21
178.8725039999999
 31
0.0
  0
LINE
  5
45C
330
2D7
100
AcDbEntity
  8
0
  6
Continuous
 62
     4
100
AcDbLine
 10
135.668679569
 20
178.8725039999999
 30
0.0
 11
136.318614569
 21
178.122579
 31
0.0
  0
LINE
  5
45D
330
2D7
100
AcDbEntity
  8
0
  6
Continuous
 62
     4
100
AcDbLine
 10
136.318614569
 20
178.122579
 30
0.0
 11
137.3185145689996
 21
178.9224989999999
 31
0.0
  0
LINE
  5
45E
330
2D7
100
AcDbEntity
  8
0
  6
Continuous
 62
     4
100
AcDbLine
 10
137.3185145689996
 20
178.9224989999999
 30
0.0
 11
138.1184345689999
 21
184.121979
 31
0.0
  0
LINE
  5
45F
330
2D7
100
AcDbEntity
  8
0
  6
Continuous
 62
     4
100
AcDbLine
 10
138.1184345689999
 20
184.121979
 30
0.0
 11
137.868459569
 21
184.471944
 31
0.0
  0
LINE
  5
460
330
2D7
100
AcDbEntity
  8
0
  6
Continuous
 62
     4
100
AcDbLine
 10
131.0191445689999
 20
178.722519
 30
0.0
 11
135.468699569
 21
178.722519
 31
0.0
  0
LINE
  5
461
330
2D7
100
AcDbEntity
  8
0
  6
Continuous
 62
     4
100
AcDbLine
 10
135.468699569
 20
178.722519
 30
0.0
 11
136.1686295689999
 21
177.922599
 31
0.0
  0
LINE
  5
462
330
2D7
100
AcDbEntity
  8
0
  6
Continuous
 62
     4
100
AcDbLine
 10
136.1686295689999
 20
177.922599
 30
0.0
 11
135.2187245689999
 21
177.122679
 31
0.0
  0
LINE
  5
463
330
2D7
100
AcDbEntity
  8
0
  6
Continuous
 62
     4
100
AcDbLine
 10
135.2187245689999
 20
177.122679
 30
0.0
 11
130.7691695689999
 21
177.122679
 31
0.0
  0
LINE
  5
464
330
2D7
100
AcDbEntity
  8
0
  6
Continuous
 62
     4
100
AcDbLine
 10
130.7691695689999
 20
177.122679
 30
0.0
 11
130.1192345689998
 21
177.922599
 31
0.0
  0
LINE
  5
465
330
2D7
100
AcDbEntity
  8
0
  6
Continuous
 62
     4
100
AcDbLine
 10
130.1192345689998
 20
177.922599
 30
0.0
 11
131.0191445689999
 21
178.722519
 31
0.0
  0
LINE
  5
466
330
2D7
100
AcDbEntity
  8
0
  6
Continuous
 62
     4
100
AcDbLine
 10
135.368709569
 20
176.9226989999999
 30
0.0
 11
136.318614569
 21
177.7226189999999
 31
0.0
  0
LINE
  5
467
330
2D7
100
AcDbEntity
  8
0
  6
Continuous
 62
     4
100
AcDbLine
 10
136.318614569
 20
177.7226189999999
 30
0.0
 11
136.9685495689995
 21
176.9226989999999
 31
0.0
  0
LINE
  5
468
330
2D7
100
AcDbEntity
  8
0
  6
Continuous
 62
     4
100
AcDbLine
 10
136.9685495689995
 20
176.9226989999999
 30
0.0
 11
136.1686295689999
 21
171.8732039999999
 31
0.0
  0
LINE
  5
469
330
2D7
100
AcDbEntity
  8
0
  6
Continuous
 62
     4
100
AcDbLine
 10
136.1686295689999
 20
171.8732039999999
 30
0.0
 11
135.618684569
 21
171.423249
 31
0.0
  0
LINE
  5
46A
330
2D7
100
AcDbEntity
  8
0
  6
Continuous
 62
     4
100
AcDbLine
 10
135.618684569
 20
171.423249
 30
0.0
 11
134.668779569
 21
172.573134
 31
0.0
  0
LINE
  5
46B
330
2D7
100
AcDbEntity
  8
0
  6
Continuous
 62
     4
100
AcDbLine
 10
134.668779569
 20
172.573134
 30
0.0
 11
135.368709569
 21
176.9226989999999
 31
0.0
  0
LINE
  5
46C
330
2D7
100
AcDbEntity
  8
0
  6
Continuous
 62
     4
100
AcDbLine
 10
130.019244569
 20
172.423149
 30
0.0
 11
134.4687995689999
 21
172.423149
 31
0.0
  0
LINE
  5
46D
330
2D7
100
AcDbEntity
  8
0
  6
Continuous
 62
     4
100
AcDbLine
 10
134.4687995689999
 20
172.423149
 30
0.0
 11
135.5186945689995
 21
171.1232789999999
 31
0.0
  0
LINE
  5
46E
330
2D7
100
AcDbEntity
  8
0
  6
Continuous
 62
     4
100
AcDbLine
 10
135.5186945689995
 20
171.1232789999999
 30
0.0
 11
135.118734569
 21
170.823309
 31
0.0
  0
LINE
  5
46F
330
2D7
100
AcDbEntity
  8
0
  6
Continuous
 62
     4
100
AcDbLine
 10
135.118734569
 20
170.823309
 30
0.0
 11
129.0693395689999
 21
170.823309
 31
0.0
  0
LINE
  5
470
330
2D7
100
AcDbEntity
  8
0
  6
Continuous
 62
     4
100
AcDbLine
 10
129.0693395689999
 20
170.823309
 30
0.0
 11
128.7193745689999
 21
171.223269
 31
0.0
  0
LINE
  5
471
330
2D7
100
AcDbEntity
  8
0
  6
Continuous
 62
     4
100
AcDbLine
 10
128.7193745689999
 20
171.223269
 30
0.0
 11
130.019244569
 21
172.423149
 31
0.0
  0
LINE
  5
472
330
2D7
100
AcDbEntity
  8
0
  6
Continuous
 62
     4
100
AcDbLine
 10
129.869259569
 20
172.573134
 30
0.0
 11
128.5193945689998
 21
171.4732439999998
 31
0.0
  0
LINE
  5
473
330
2D7
100
AcDbEntity
  8
0
  6
Continuous
 62
     4
100
AcDbLine
 10
128.5193945689998
 20
171.4732439999998
 30
0.0
 11
128.1694295689999
 21
171.8732039999999
 31
0.0
  0
LINE
  5
474
330
2D7
100
AcDbEntity
  8
0
  6
Continuous
 62
     4
100
AcDbLine
 10
128.1694295689999
 20
171.8732039999999
 30
0.0
 11
129.0193445689999
 21
176.9726939999999
 31
0.0
  0
LINE
  5
475
330
2D7
100
AcDbEntity
  8
0
  6
Continuous
 62
     4
100
AcDbLine
 10
129.0193445689999
 20
176.9726939999999
 30
0.0
 11
129.9192545689995
 21
177.7226189999999
 31
0.0
  0
LINE
  5
476
330
2D7
100
AcDbEntity
  8
0
  6
Continuous
 62
     4
100
AcDbLine
 10
129.9192545689995
 20
177.7226189999999
 30
0.0
 11
130.569189569
 21
176.9226989999999
 31
0.0
  0
LINE
  5
477
330
2D7
100
AcDbEntity
  8
0
  6
Continuous
 62
     4
100
AcDbLine
 10
130.569189569
 20
176.9226989999999
 30
0.0
 11
129.869259569
 21
172.573134
 31
0.0
  0
LINE
  5
478
330
2D7
100
AcDbEntity
  8
0
  6
Continuous
 62
     4
100
AcDbLine
 10
129.319314569
 20
178.8725039999999
 30
0.0
 11
129.969249569
 21
178.122579
 31
0.0
  0
LINE
  5
479
330
2D7
100
AcDbEntity
  8
0
  6
Continuous
 62
     4
100
AcDbLine
 10
129.969249569
 20
178.122579
 30
0.0
 11
130.869159569
 21
178.8725039999999
 31
0.0
  0
LINE
  5
47A
330
2D7
100
AcDbEntity
  8
0
  6
Continuous
 62
     4
100
AcDbLine
 10
130.869159569
 20
178.8725039999999
 30
0.0
 11
131.6190845689999
 21
183.2720639999998
 31
0.0
  0
LINE
  5
47B
330
2D7
100
AcDbEntity
  8
0
  6
Continuous
 62
     4
100
AcDbLine
 10
131.6190845689999
 20
183.2720639999998
 30
0.0
 11
130.519194569
 21
184.521939
 31
0.0
  0
LINE
  5
47C
330
2D7
100
AcDbEntity
  8
0
  6
Continuous
 62
     4
100
AcDbLine
 10
130.519194569
 20
184.521939
 30
0.0
 11
130.169229569
 21
184.271964
 31
0.0
  0
LINE
  5
47D
330
2D7
100
AcDbEntity
  8
0
  6
Continuous
 62
     4
100
AcDbLine
 10
130.169229569
 20
184.271964
 30
0.0
 11
129.319314569
 21
178.8725039999999
 31
0.0
  0
LINE
  5
47E
330
2D7
100
AcDbEntity
  8
0
  6
Continuous
 62
     4
100
AcDbLine
 10
118.2704195689999
 20
185.0218889999999
 30
0.0
 11
124.669779569
 21
185.0218889999999
 31
0.0
  0
LINE
  5
47F
330
2D7
100
AcDbEntity
  8
0
  6
Continuous
 62
     4
100
AcDbLine
 10
124.669779569
 20
185.0218889999999
 30
0.0
 11
124.9197545689999
 21
184.6719239999999
 31
0.0
  0
LINE
  5
480
330
2D7
100
AcDbEntity
  8
0
  6
Continuous
 62
     4
100
AcDbLine
 10
124.9197545689999
 20
184.6719239999999
 30
0.0
 11
123.4698995689999
 21
183.4220489999999
 31
0.0
  0
LINE
  5
481
330
2D7
100
AcDbEntity
  8
0
  6
Continuous
 62
     4
100
AcDbLine
 10
123.4698995689999
 20
183.4220489999999
 30
0.0
 11
119.0703395689999
 21
183.4220489999999
 31
0.0
  0
LINE
  5
482
330
2D7
100
AcDbEntity
  8
0
  6
Continuous
 62
     4
100
AcDbLine
 10
119.0703395689999
 20
183.4220489999999
 30
0.0
 11
117.970449569
 21
184.7219189999999
 31
0.0
  0
LINE
  5
483
330
2D7
100
AcDbEntity
  8
0
  6
Continuous
 62
     4
100
AcDbLine
 10
117.970449569
 20
184.7219189999999
 30
0.0
 11
118.2704195689999
 21
185.0218889999999
 31
0.0
  0
LINE
  5
484
330
2D7
100
AcDbEntity
  8
0
  6
Continuous
 62
     4
100
AcDbLine
 10
125.119734569
 20
184.471944
 30
0.0
 11
123.6198845689998
 21
183.172074
 31
0.0
  0
LINE
  5
485
330
2D7
100
AcDbEntity
  8
0
  6
Continuous
 62
     4
100
AcDbLine
 10
123.6198845689998
 20
183.172074
 30
0.0
 11
122.919954569
 21
178.8725039999999
 31
0.0
  0
LINE
  5
486
330
2D7
100
AcDbEntity
  8
0
  6
Continuous
 62
     4
100
AcDbLine
 10
122.919954569
 20
178.8725039999999
 30
0.0
 11
123.5698895689999
 21
178.122579
 31
0.0
  0
LINE
  5
487
330
2D7
100
AcDbEntity
  8
0
  6
Continuous
 62
     4
100
AcDbLine
 10
123.5698895689999
 20
178.122579
 30
0.0
 11
124.569789569
 21
178.9224989999999
 31
0.0
  0
LINE
  5
488
330
2D7
100
AcDbEntity
  8
0
  6
Continuous
 62
     4
100
AcDbLine
 10
124.569789569
 20
178.9224989999999
 30
0.0
 11
125.3697095689998
 21
184.121979
 31
0.0
  0
LINE
  5
489
330
2D7
100
AcDbEntity
  8
0
  6
Continuous
 62
     4
100
AcDbLine
 10
125.3697095689998
 20
184.121979
 30
0.0
 11
125.119734569
 21
184.471944
 31
0.0
  0
LINE
  5
48A
330
2D7
100
AcDbEntity
  8
0
  6
Continuous
 62
     4
100
AcDbLine
 10
118.2704195689999
 20
178.722519
 30
0.0
 11
122.719974569
 21
178.722519
 31
0.0
  0
LINE
  5
48B
330
2D7
100
AcDbEntity
  8
0
  6
Continuous
 62
     4
100
AcDbLine
 10
122.719974569
 20
178.722519
 30
0.0
 11
123.419904569
 21
177.922599
 31
0.0
  0
LINE
  5
48C
330
2D7
100
AcDbEntity
  8
0
  6
Continuous
 62
     4
100
AcDbLine
 10
123.419904569
 20
177.922599
 30
0.0
 11
122.4699995689998
 21
177.122679
 31
0.0
  0
LINE
  5
48D
330
2D7
100
AcDbEntity
  8
0
  6
Continuous
 62
     4
100
AcDbLine
 10
122.4699995689998
 20
177.122679
 30
0.0
 11
118.020444569
 21
177.122679
 31
0.0
  0
LINE
  5
48E
330
2D7
100
AcDbEntity
  8
0
  6
Continuous
 62
     4
100
AcDbLine
 10
118.020444569
 20
177.122679
 30
0.0
 11
117.3705095689999
 21
177.922599
 31
0.0
  0
LINE
  5
48F
330
2D7
100
AcDbEntity
  8
0
  6
Continuous
 62
     4
100
AcDbLine
 10
117.3705095689999
 20
177.922599
 30
0.0
 11
118.2704195689999
 21
178.722519
 31
0.0
  0
LINE
  5
490
330
2D7
100
AcDbEntity
  8
0
  6
Continuous
 62
     4
100
AcDbLine
 10
122.619984569
 20
176.9226989999999
 30
0.0
 11
123.5698895689999
 21
177.7226189999999
 31
0.0
  0
LINE
  5
491
330
2D7
100
AcDbEntity
  8
0
  6
Continuous
 62
     4
100
AcDbLine
 10
123.5698895689999
 20
177.7226189999999
 30
0.0
 11
124.219824569
 21
176.9226989999999
 31
0.0
  0
LINE
  5
492
330
2D7
100
AcDbEntity
  8
0
  6
Continuous
 62
     4
100
AcDbLine
 10
124.219824569
 20
176.9226989999999
 30
0.0
 11
123.419904569
 21
171.8732039999999
 31
0.0
  0
LINE
  5
493
330
2D7
100
AcDbEntity
  8
0
  6
Continuous
 62
     4
100
AcDbLine
 10
123.419904569
 20
171.8732039999999
 30
0.0
 11
122.8699595689999
 21
171.423249
 31
0.0
  0
LINE
  5
494
330
2D7
100
AcDbEntity
  8
0
  6
Continuous
 62
     4
100
AcDbLine
 10
122.8699595689999
 20
171.423249
 30
0.0
 11
121.920054569
 21
172.573134
 31
0.0
  0
LINE
  5
495
330
2D7
100
AcDbEntity
  8
0
  6
Continuous
 62
     4
100
AcDbLine
 10
121.920054569
 20
172.573134
 30
0.0
 11
122.619984569
 21
176.9226989999999
 31
0.0
  0
LINE
  5
496
330
2D7
100
AcDbEntity
  8
0
  6
Continuous
 62
     4
100
AcDbLine
 10
117.270519569
 20
172.423149
 30
0.0
 11
121.720074569
 21
172.423149
 31
0.0
  0
LINE
  5
497
330
2D7
100
AcDbEntity
  8
0
  6
Continuous
 62
     4
100
AcDbLine
 10
121.720074569
 20
172.423149
 30
0.0
 11
122.7699695689999
 21
171.1232789999999
 31
0.0
  0
LINE
  5
498
330
2D7
100
AcDbEntity
  8
0
  6
Continuous
 62
     4
100
AcDbLine
 10
122.7699695689999
 20
171.1232789999999
 30
0.0
 11
122.3700095689999
 21
170.823309
 31
0.0
  0
LINE
  5
499
330
2D7
100
AcDbEntity
  8
0
  6
Continuous
 62
     4
100
AcDbLine
 10
122.3700095689999
 20
170.823309
 30
0.0
 11
116.320614569
 21
170.823309
 31
0.0
  0
LINE
  5
49A
330
2D7
100
AcDbEntity
  8
0
  6
Continuous
 62
     4
100
AcDbLine
 10
116.320614569
 20
170.823309
 30
0.0
 11
115.970649569
 21
171.223269
 31
0.0
  0
LINE
  5
49B
330
2D7
100
AcDbEntity
  8
0
  6
Continuous
 62
     4
100
AcDbLine
 10
115.970649569
 20
171.223269
 30
0.0
 11
117.270519569
 21
172.423149
 31
0.0
  0
LINE
  5
49C
330
2D7
100
AcDbEntity
  8
0
  6
Continuous
 62
     4
100
AcDbLine
 10
117.120534569
 20
172.573134
 30
0.0
 11
115.7706695689999
 21
171.4732439999998
 31
0.0
  0
LINE
  5
49D
330
2D7
100
AcDbEntity
  8
0
  6
Continuous
 62
     4
100
AcDbLine
 10
115.7706695689999
 20
171.4732439999998
 30
0.0
 11
115.4207045689998
 21
171.8732039999999
 31
0.0
  0
LINE
  5
49E
330
2D7
100
AcDbEntity
  8
0
  6
Continuous
 62
     4
100
AcDbLine
 10
115.4207045689998
 20
171.8732039999999
 30
0.0
 11
116.2706195689999
 21
176.9726939999999
 31
0.0
  0
LINE
  5
49F
330
2D7
100
AcDbEntity
  8
0
  6
Continuous
 62
     4
100
AcDbLine
 10
116.2706195689999
 20
176.9726939999999
 30
0.0
 11
117.170529569
 21
177.7226189999999
 31
0.0
  0
LINE
  5
4A0
330
2D7
100
AcDbEntity
  8
0
  6
Continuous
 62
     4
100
AcDbLine
 10
117.170529569
 20
177.7226189999999
 30
0.0
 11
117.8204645689999
 21
176.9226989999999
 31
0.0
  0
LINE
  5
4A1
330
2D7
100
AcDbEntity
  8
0
  6
Continuous
 62
     4
100
AcDbLine
 10
117.8204645689999
 20
176.9226989999999
 30
0.0
 11
117.120534569
 21
172.573134
 31
0.0
  0
LINE
  5
4A2
330
2D7
100
AcDbEntity
  8
0
  6
Continuous
 62
     4
100
AcDbLine
 10
116.5705895689999
 20
178.8725039999999
 30
0.0
 11
117.2205245689999
 21
178.122579
 31
0.0
  0
LINE
  5
4A3
330
2D7
100
AcDbEntity
  8
0
  6
Continuous
 62
     4
100
AcDbLine
 10
117.2205245689999
 20
178.122579
 30
0.0
 11
118.120434569
 21
178.8725039999999
 31
0.0
  0
LINE
  5
4A4
330
2D7
100
AcDbEntity
  8
0
  6
Continuous
 62
     4
100
AcDbLine
 10
118.120434569
 20
178.8725039999999
 30
0.0
 11
118.870359569
 21
183.2720639999998
 31
0.0
  0
LINE
  5
4A5
330
2D7
100
AcDbEntity
  8
0
  6
Continuous
 62
     4
100
AcDbLine
 10
118.870359569
 20
183.2720639999998
 30
0.0
 11
117.7704695689999
 21
184.521939
 31
0.0
  0
LINE
  5
4A6
330
2D7
100
AcDbEntity
  8
0
  6
Continuous
 62
     4
100
AcDbLine
 10
117.7704695689999
 20
184.521939
 30
0.0
 11
117.4205045689999
 21
184.271964
 31
0.0
  0
LINE
  5
4A7
330
2D7
100
AcDbEntity
  8
0
  6
Continuous
 62
     4
100
AcDbLine
 10
117.4205045689999
 20
184.271964
 30
0.0
 11
116.5705895689999
 21
178.8725039999999
 31
0.0
  0
CIRCLE
  5
4A8
330
2D7
100
AcDbEntity
  8
0
  6
Continuous
 62
     4
100
AcDbCircle
 10
124.9697495689999
 20
171.8732039999999
 30
0.0
 40
0.79992
  0
LINE
  5
4A9
330
2D7
100
AcDbEntity
  8
0
  6
Continuous
 62
     4
100
AcDbLine
 10
111.9210545689999
 20
185.0218889999999
 30
0.0
 11
112.171029569
 21
184.6719239999999
 31
0.0
  0
LINE
  5
4AA
330
2D7
100
AcDbEntity
  8
0
  6
Continuous
 62
     4
100
AcDbLine
 10
112.171029569
 20
184.6719239999999
 30
0.0
 11
110.7211745689999
 21
183.4220489999999
 31
0.0
  0
LINE
  5
4AB
330
2D7
100
AcDbEntity
  8
0
  6
Continuous
 62
     4
100
AcDbLine
 10
112.3710095689999
 20
184.471944
 30
0.0
 11
110.8711595689999
 21
183.172074
 31
0.0
  0
LINE
  5
4AC
330
2D7
100
AcDbEntity
  8
0
  6
Continuous
 62
     4
100
AcDbLine
 10
110.8711595689999
 20
183.172074
 30
0.0
 11
110.1712295689999
 21
178.8725039999999
 31
0.0
  0
LINE
  5
4AD
330
2D7
100
AcDbEntity
  8
0
  6
Continuous
 62
     4
100
AcDbLine
 10
110.1712295689999
 20
178.8725039999999
 30
0.0
 11
110.8211645689999
 21
178.122579
 31
0.0
  0
LINE
  5
4AE
330
2D7
100
AcDbEntity
  8
0
  6
Continuous
 62
     4
100
AcDbLine
 10
110.8211645689999
 20
178.122579
 30
0.0
 11
111.821064569
 21
178.9224989999999
 31
0.0
  0
LINE
  5
4AF
330
2D7
100
AcDbEntity
  8
0
  6
Continuous
 62
     4
100
AcDbLine
 10
111.821064569
 20
178.9224989999999
 30
0.0
 11
112.620984569
 21
184.121979
 31
0.0
  0
LINE
  5
4B0
330
2D7
100
AcDbEntity
  8
0
  6
Continuous
 62
     4
100
AcDbLine
 10
112.620984569
 20
184.121979
 30
0.0
 11
112.3710095689999
 21
184.471944
 31
0.0
  0
LINE
  5
4B1
330
2D7
100
AcDbEntity
  8
0
  6
Continuous
 62
     4
100
AcDbLine
 10
105.521694569
 20
178.722519
 30
0.0
 11
109.9712495689998
 21
178.722519
 31
0.0
  0
LINE
  5
4B2
330
2D7
100
AcDbEntity
  8
0
  6
Continuous
 62
     4
100
AcDbLine
 10
109.9712495689998
 20
178.722519
 30
0.0
 11
110.671179569
 21
177.922599
 31
0.0
  0
LINE
  5
4B3
330
2D7
100
AcDbEntity
  8
0
  6
Continuous
 62
     4
100
AcDbLine
 10
110.671179569
 20
177.922599
 30
0.0
 11
109.721274569
 21
177.122679
 31
0.0
  0
LINE
  5
4B4
330
2D7
100
AcDbEntity
  8
0
  6
Continuous
 62
     4
100
AcDbLine
 10
104.6217845689999
 20
177.922599
 30
0.0
 11
105.521694569
 21
178.722519
 31
0.0
  0
LINE
  5
4B5
330
2D7
100
AcDbEntity
  8
0
  6
Continuous
 62
     4
100
AcDbLine
 10
109.871259569
 20
176.9226989999999
 30
0.0
 11
110.8211645689999
 21
177.7226189999999
 31
0.0
  0
LINE
  5
4B6
330
2D7
100
AcDbEntity
  8
0
  6
Continuous
 62
     4
100
AcDbLine
 10
110.8211645689999
 20
177.7226189999999
 30
0.0
 11
111.471099569
 21
176.9226989999999
 31
0.0
  0
LINE
  5
4B7
330
2D7
100
AcDbEntity
  8
0
  6
Continuous
 62
     4
100
AcDbLine
 10
111.471099569
 20
176.9226989999999
 30
0.0
 11
110.671179569
 21
171.8732039999999
 31
0.0
  0
LINE
  5
4B8
330
2D7
100
AcDbEntity
  8
0
  6
Continuous
 62
     4
100
AcDbLine
 10
110.671179569
 20
171.8732039999999
 30
0.0
 11
110.121234569
 21
171.423249
 31
0.0
  0
LINE
  5
4B9
330
2D7
100
AcDbEntity
  8
0
  6
Continuous
 62
     4
100
AcDbLine
 10
110.121234569
 20
171.423249
 30
0.0
 11
109.1713295689998
 21
172.573134
 31
0.0
  0
LINE
  5
4BA
330
2D7
100
AcDbEntity
  8
0
  6
Continuous
 62
     4
100
AcDbLine
 10
109.1713295689998
 20
172.573134
 30
0.0
 11
109.871259569
 21
176.9226989999999
 31
0.0
  0
LINE
  5
4BB
330
2D7
100
AcDbEntity
  8
0
  6
Continuous
 62
     4
100
AcDbLine
 10
108.971349569
 20
172.423149
 30
0.0
 11
110.0212445689999
 21
171.1232789999999
 31
0.0
  0
LINE
  5
4BC
330
2D7
100
AcDbEntity
  8
0
  6
Continuous
 62
     4
100
AcDbLine
 10
110.0212445689999
 20
171.1232789999999
 30
0.0
 11
109.621284569
 21
170.823309
 31
0.0
  0
LINE
  5
4BD
330
2D7
100
AcDbEntity
  8
0
  6
Continuous
 62
     4
100
AcDbLine
 10
103.8218645689999
 20
178.8725039999999
 30
0.0
 11
104.4717995689999
 21
178.122579
 31
0.0
  0
LINE
  5
4BE
330
2D7
100
AcDbEntity
  8
0
  6
Continuous
 62
     4
100
AcDbLine
 10
104.4717995689999
 20
178.122579
 30
0.0
 11
105.3717095689999
 21
178.8725039999999
 31
0.0
  0
CIRCLE
  5
4BF
330
2D7
100
AcDbEntity
  8
0
  6
Continuous
 62
     4
100
AcDbCircle
 10
112.221024569
 20
171.8732039999999
 30
0.0
 40
0.79992
  0
LINE
  5
4C0
330
2D7
100
AcDbEntity
  8
0
  6
Continuous
 62
     4
100
AcDbLine
 10
105.521694569
 20
185.0218889999999
 30
0.0
 11
111.9210545689999
 21
185.0218889999999
 31
0.0
  0
LINE
  5
4C1
330
2D7
100
AcDbEntity
  8
0
  6
Continuous
 62
     4
100
AcDbLine
 10
110.7211745689999
 20
183.4220489999999
 30
0.0
 11
106.321614569
 21
183.4220489999999
 31
0.0
  0
LINE
  5
4C2
330
2D7
100
AcDbEntity
  8
0
  6
Continuous
 62
     4
100
AcDbLine
 10
106.321614569
 20
183.4220489999999
 30
0.0
 11
105.221724569
 21
184.7219189999999
 31
0.0
  0
LINE
  5
4C3
330
2D7
100
AcDbEntity
  8
0
  6
Continuous
 62
     4
100
AcDbLine
 10
105.221724569
 20
184.7219189999999
 30
0.0
 11
105.521694569
 21
185.0218889999999
 31
0.0
  0
LINE
  5
4C4
330
2D7
100
AcDbEntity
  8
0
  6
Continuous
 62
     4
100
AcDbLine
 10
105.3717095689999
 20
178.8725039999999
 30
0.0
 11
106.1216345689998
 21
183.2720639999998
 31
0.0
  0
LINE
  5
4C5
330
2D7
100
AcDbEntity
  8
0
  6
Continuous
 62
     4
100
AcDbLine
 10
106.1216345689998
 20
183.2720639999998
 30
0.0
 11
105.0217445689999
 21
184.521939
 31
0.0
  0
LINE
  5
4C6
330
2D7
100
AcDbEntity
  8
0
  6
Continuous
 62
     4
100
AcDbLine
 10
105.0217445689999
 20
184.521939
 30
0.0
 11
104.671779569
 21
184.271964
 31
0.0
  0
LINE
  5
4C7
330
2D7
100
AcDbEntity
  8
0
  6
Continuous
 62
     4
100
AcDbLine
 10
104.671779569
 20
184.271964
 30
0.0
 11
103.8218645689999
 21
178.8725039999999
 31
0.0
  0
LINE
  5
4C8
330
2D7
100
AcDbEntity
  8
0
  6
Continuous
 62
     4
100
AcDbLine
 10
109.721274569
 20
177.122679
 30
0.0
 11
105.271719569
 21
177.122679
 31
0.0
  0
LINE
  5
4C9
330
2D7
100
AcDbEntity
  8
0
  6
Continuous
 62
     4
100
AcDbLine
 10
105.271719569
 20
177.122679
 30
0.0
 11
104.6217845689999
 21
177.922599
 31
0.0
  0
LINE
  5
4CA
330
2D7
100
AcDbEntity
  8
0
  6
Continuous
 62
     4
100
AcDbLine
 10
104.5217945689998
 20
172.423149
 30
0.0
 11
108.971349569
 21
172.423149
 31
0.0
  0
LINE
  5
4CB
330
2D7
100
AcDbEntity
  8
0
  6
Continuous
 62
     4
100
AcDbLine
 10
109.621284569
 20
170.823309
 30
0.0
 11
103.5718895689998
 21
170.823309
 31
0.0
  0
LINE
  5
4CC
330
2D7
100
AcDbEntity
  8
0
  6
Continuous
 62
     4
100
AcDbLine
 10
103.5718895689998
 20
170.823309
 30
0.0
 11
103.2219245689999
 21
171.223269
 31
0.0
  0
LINE
  5
4CD
330
2D7
100
AcDbEntity
  8
0
  6
Continuous
 62
     4
100
AcDbLine
 10
103.2219245689999
 20
171.223269
 30
0.0
 11
104.5217945689998
 21
172.423149
 31
0.0
  0
LINE
  5
4CE
330
2D7
100
AcDbEntity
  8
0
  6
Continuous
 62
     4
100
AcDbLine
 10
104.3718095689998
 20
172.573134
 30
0.0
 11
103.021944569
 21
171.4732439999998
 31
0.0
  0
LINE
  5
4CF
330
2D7
100
AcDbEntity
  8
0
  6
Continuous
 62
     4
100
AcDbLine
 10
102.671979569
 20
171.8732039999999
 30
0.0
 11
103.521894569
 21
176.9726939999999
 31
0.0
  0
LINE
  5
4D0
330
2D7
100
AcDbEntity
  8
0
  6
Continuous
 62
     4
100
AcDbLine
 10
103.521894569
 20
176.9726939999999
 30
0.0
 11
104.421804569
 21
177.7226189999999
 31
0.0
  0
LINE
  5
4D1
330
2D7
100
AcDbEntity
  8
0
  6
Continuous
 62
     4
100
AcDbLine
 10
104.421804569
 20
177.7226189999999
 30
0.0
 11
105.071739569
 21
176.9226989999999
 31
0.0
  0
LINE
  5
4D2
330
2D7
100
AcDbEntity
  8
0
  6
Continuous
 62
     4
100
AcDbLine
 10
105.071739569
 20
176.9226989999999
 30
0.0
 11
104.3718095689998
 21
172.573134
 31
0.0
  0
LINE
  5
4D3
330
2D7
100
AcDbEntity
  8
0
  6
Continuous
 62
     4
100
AcDbLine
 10
113.8025
 20
186.5035589999999
 30
0.0
 11
113.8025
 21
169.4143589999999
 31
0.0
  0
LINE
  5
4D4
330
2D7
100
AcDbEntity
  8
0
  6
Continuous
 62
     4
100
AcDbLine
 10
101.3027
 20
186.4225989999999
 30
0.0
 11
101.3027
 21
169.4225989999999
 31
0.0
  0
LINE
  5
4D5
330
2D7
100
AcDbEntity
  8
0
  6
Continuous
 62
     4
100
AcDbLine
 10
126.3025
 20
169.4225989999999
 30
0.0
 11
126.3025
 21
186.4225989999999
 31
0.0
  0
LINE
  5
4D6
330
2D7
100
AcDbEntity
  8
0
  6
Continuous
 62
     4
100
AcDbLine
 10
114.3024999999999
 20
186.4225989999999
 30
0.0
 11
114.3024999999999
 21
169.4225989999999
 31
0.0
  0
LINE
  5
4D7
330
2D7
100
AcDbEntity
  8
0
  6
Continuous
 62
     4
100
AcDbLine
 10
113.8025
 20
169.323459
 30
0.0
 11
101.3027
 21
169.323459
 31
0.0
  0
LINE
  5
4D8
330
2D7
100
AcDbEntity
  8
0
  6
Continuous
 62
     4
100
AcDbLine
 10
101.3027
 20
186.5217389999999
 30
0.0
 11
113.8025
 21
186.5217389999999
 31
0.0
  0
LINE
  5
4D9
330
2D7
100
AcDbEntity
  8
0
  6
Continuous
 62
     4
100
AcDbLine
 10
126.8024999999999
 20
186.4225989999999
 30
0.0
 11
126.8024999999999
 21
169.4225989999999
 31
0.0
  0
LINE
  5
4DA
330
2D7
100
AcDbEntity
  8
0
  6
Continuous
 62
     4
100
AcDbLine
 10
126.3025
 20
169.323459
 30
0.0
 11
114.3024999999999
 21
169.323459
 31
0.0
  0
LINE
  5
4DB
330
2D7
100
AcDbEntity
  8
0
  6
Continuous
 62
     4
100
AcDbLine
 10
139.18178
 20
169.323459
 30
0.0
 11
126.8024999999999
 21
169.323459
 31
0.0
  0
LINE
  5
4DC
330
2D7
100
AcDbEntity
  8
0
  6
Continuous
 62
     4
100
AcDbLine
 10
126.8024999999999
 20
186.5217389999999
 30
0.0
 11
139.18178
 21
186.5217389999999
 31
0.0
  0
LINE
  5
4DD
330
2D7
100
AcDbEntity
  8
0
  6
Continuous
 62
     4
100
AcDbLine
 10
114.3024999999999
 20
186.5217389999999
 30
0.0
 11
126.3025
 21
186.5217389999999
 31
0.0
  0
LINE
  5
4E0
330
2D7
100
AcDbEntity
  8
0
  6
LTYPE2
 62
     3
100
AcDbLine
 10
100.5
 20
183.4999999999998
 30
0.0
 11
93.49999999999999
 21
183.4999999999998
 31
0.0
  0
LINE
  5
4E1
330
2D7
100
AcDbEntity
  8
0
  6
LTYPE2
 62
     3
100
AcDbLine
 10
93.49999999999999
 20
172.5
 30
0.0
 11
100.5
 21
172.5
 31
0.0
  0
LINE
  5
4E2
330
2D7
100
AcDbEntity
  8
0
  6
Continuous
 62
     3
100
AcDbLine
 10
95.5
 20
172.5999999999999
 30
0.0
 11
96.147047613
 21
175.0148145659996
 31
0.0
  0
LINE
  5
4E3
330
2D7
100
AcDbEntity
  8
0
  6
Continuous
 62
     3
100
AcDbLine
 10
95.5
 20
172.5999999999999
 30
0.0
 11
94.852952387
 21
175.0148145659996
 31
0.0
  0
LINE
  5
4E4
330
2D7
100
AcDbEntity
  8
0
  6
Continuous
 62
     3
100
AcDbLine
 10
95.5
 20
172.5999999999999
 30
0.0
 11
95.5
 21
183.6
 31
0.0
  0
LINE
  5
4E5
330
2D7
100
AcDbEntity
  8
0
  6
Continuous
 62
     3
100
AcDbLine
 10
95.5
 20
183.4999999999998
 30
0.0
 11
94.852952387
 21
181.085185434
 31
0.0
  0
LINE
  5
4E6
330
2D7
100
AcDbEntity
  8
0
  6
Continuous
 62
     3
100
AcDbLine
 10
95.5
 20
183.4999999999998
 30
0.0
 11
96.147047613
 21
181.085185434
 31
0.0
  0
TEXT
  5
4E7
330
2D7
100
AcDbEntity
  8
0
  6
Continuous
 62
     3
100
AcDbText
 10
94.78960349999999
 20
178.0533949999999
 30
0.0
 40
3.636
  1
１１
 50
90.0
 41
0.5
  7
KANJI1
100
AcDbText
  0
CIRCLE
  5
4E8
330
2D7
100
AcDbEntity
  8
0
  6
Continuous
 62
     4
100
AcDbCircle
 10
99.42344000000002
 20
188.4582589999999
 30
0.0
 40
1.09989
  0
LINE
  5
4E9
330
2D7
100
AcDbEntity
  8
0
  6
Continuous
 62
     3
100
AcDbLine
 10
141.249475
 20
192.171124
 30
0.0
 11
140.602427387
 21
189.756309434
 31
0.0
  0
LINE
  5
4EA
330
2D7
100
AcDbEntity
  8
0
  6
Continuous
 62
     3
100
AcDbLine
 10
141.249475
 20
192.171124
 30
0.0
 11
141.896522613
 21
189.756309434
 31
0.0
  0
LINE
  5
4EB
330
2D7
100
AcDbEntity
  8
0
  6
Continuous
 62
     3
100
AcDbLine
 10
141.249475
 20
188.4211239999999
 30
0.0
 11
141.249475
 21
192.171124
 31
0.0
  0
LINE
  5
4EC
330
2D7
100
AcDbEntity
  8
0
  6
Continuous
 62
     3
100
AcDbLine
 10
141.249475
 20
192.171124
 30
0.0
 11
141.249475
 21
192.6711239999999
 31
0.0
  0
LINE
  5
4ED
330
2D7
100
AcDbEntity
  8
0
  6
Continuous
 62
     3
100
AcDbLine
 10
141.249475
 20
192.6711239999999
 30
0.0
 11
141.896522613
 21
195.0859385659999
 31
0.0
  0
LINE
  5
4EE
330
2D7
100
AcDbEntity
  8
0
  6
Continuous
 62
     3
100
AcDbLine
 10
141.249475
 20
192.6711239999999
 30
0.0
 11
140.602427387
 21
195.0859385659999
 31
0.0
  0
TEXT
  5
4EF
330
2D7
100
AcDbEntity
  8
0
  6
Continuous
 62
     3
100
AcDbText
 10
140.2494749999999
 20
195.9211239999999
 30
0.3
 40
3.0
  1
０.５
 50
90.0
 41
0.6
  7
KANJI4
100
AcDbText
  0
LINE
  5
4F0
330
2D7
100
AcDbEntity
  8
0
  6
Continuous
 62
     3
100
AcDbLine
 10
141.249475
 20
192.6711239999999
 30
0.3
 11
141.249475
 21
203.4211239999999
 31
0.3
  0
LINE
  5
4F1
330
2D7
100
AcDbEntity
  8
0
  6
Continuous
 62
     3
100
AcDbLine
 10
131.2494749999999
 20
192.171124
 30
0.0
 11
142.249475
 21
192.171124
 31
0.0
  0
LINE
  5
4F2
330
2D7
100
AcDbEntity
  8
0
  6
Continuous
 62
     3
100
AcDbLine
 10
120.3211645689999
 20
197.6225789999998
 30
0.0
 11
122.735979135
 21
196.975531387
 31
0.0
  0
LINE
  5
4F3
330
2D7
100
AcDbEntity
  8
0
  6
Continuous
 62
     3
100
AcDbLine
 10
120.3211645689999
 20
197.6225789999998
 30
0.0
 11
122.735979135
 21
198.2696266129999
 31
0.0
  0
LINE
  5
4F4
330
2D7
100
AcDbEntity
  8
0
  6
Continuous
 62
     3
100
AcDbLine
 10
120.3211645689999
 20
197.6225789999998
 30
0.0
 11
133.021164569
 21
197.6225789999998
 31
0.0
  0
LINE
  5
4F5
330
2D7
100
AcDbEntity
  8
0
  6
Continuous
 62
     3
100
AcDbLine
 10
133.021164569
 20
197.6225789999998
 30
0.0
 11
130.6063500029999
 21
198.2696266129999
 31
0.0
  0
LINE
  5
4F6
330
2D7
100
AcDbEntity
  8
0
  6
Continuous
 62
     3
100
AcDbLine
 10
133.021164569
 20
197.6225789999998
 30
0.0
 11
130.6063500029999
 21
196.975531387
 31
0.0
  0
LINE
  5
4F7
330
2D7
100
AcDbEntity
  8
0
  6
Continuous
 62
     3
100
AcDbLine
 10
120.3211645689999
 20
197.6225789999998
 30
0.0
 11
117.9063500029998
 21
198.2696266129999
 31
0.0
  0
LINE
  5
4F8
330
2D7
100
AcDbEntity
  8
0
  6
Continuous
 62
     3
100
AcDbLine
 10
120.3211645689999
 20
197.6225789999998
 30
0.0
 11
117.9063500029998
 21
196.975531387
 31
0.0
  0
LINE
  5
4F9
330
2D7
100
AcDbEntity
  8
0
  6
Continuous
 62
     3
100
AcDbLine
 10
120.3211645689999
 20
197.6225789999998
 30
0.0
 11
107.6211645689999
 21
197.6225789999998
 31
0.0
  0
LINE
  5
4FA
330
2D7
100
AcDbEntity
  8
0
  6
Continuous
 62
     3
100
AcDbLine
 10
107.6211645689999
 20
197.6225789999998
 30
0.0
 11
110.035979135
 21
196.975531387
 31
0.0
  0
LINE
  5
4FB
330
2D7
100
AcDbEntity
  8
0
  6
Continuous
 62
     3
100
AcDbLine
 10
107.6211645689999
 20
197.6225789999998
 30
0.0
 11
110.035979135
 21
198.2696266129999
 31
0.0
  0
TEXT
  5
4FC
330
2D7
100
AcDbEntity
  8
0
  6
Continuous
 62
     3
100
AcDbText
 10
120.05395
 20
199.1711239999999
 30
0.3
 40
3.0
  1
１２.７５
 41
0.6
  7
KANJI4
100
AcDbText
  0
LINE
  5
4FD
330
2D7
100
AcDbEntity
  8
0
  6
Continuous
 62
     3
100
AcDbLine
 10
105.50395
 20
203.6711239999999
 30
0.3
 11
107.918764566
 21
203.024076387
 31
0.3
  0
LINE
  5
4FE
330
2D7
100
AcDbEntity
  8
0
  6
Continuous
 62
     3
100
AcDbLine
 10
105.50395
 20
203.6711239999999
 30
0.0
 11
107.918764566
 21
204.3181716129998
 31
0.0
  0
LINE
  5
4FF
330
2D7
100
AcDbEntity
  8
0
  6
Continuous
 62
     3
100
AcDbLine
 10
105.50395
 20
203.6711239999999
 30
0.0
 11
130.50395
 21
203.6711239999999
 31
0.0
  0
TEXT
  5
500
330
2D7
100
AcDbEntity
  8
0
  6
Continuous
 62
     3
100
AcDbText
 10
116.05395
 20
204.671124
 30
0.3
 40
3.0
  1
２５
 41
0.6
  7
KANJI4
100
AcDbText
  0
LINE
  5
501
330
2D7
100
AcDbEntity
  8
0
  6
Continuous
 62
     3
100
AcDbLine
 10
130.50395
 20
203.6711239999999
 30
0.3
 11
128.0891354339999
 21
204.3181716129998
 31
0.3
  0
LINE
  5
502
330
2D7
100
AcDbEntity
  8
0
  6
Continuous
 62
     3
100
AcDbLine
 10
130.50395
 20
203.6711239999999
 30
0.0
 11
128.0891354339999
 21
203.024076387
 31
0.0
  0
TEXT
  5
503
330
2D7
100
AcDbEntity
  8
0
  6
Continuous
 62
     3
100
AcDbText
 10
107.0539499999999
 20
199.1711239999999
 30
0.3
 40
3.0
  1
１２.７５
 41
0.6
  7
KANJI4
100
AcDbText
  0
LINE
  5
504
330
2D7
100
AcDbEntity
  8
0
  6
Continuous
 62
     3
100
AcDbLine
 10
107.6211645689999
 20
168.6225789999998
 30
0.3
 11
107.6211645689999
 21
198.6711239999999
 31
0.3
  0
LINE
  5
505
330
2D7
100
AcDbEntity
  8
0
  6
Continuous
 62
     3
100
AcDbLine
 10
133.021164569
 20
167.622579
 30
0.0
 11
133.021164569
 21
198.6711239999999
 31
0.0
  0
LINE
  5
506
330
2D7
100
AcDbEntity
  8
0
  6
Continuous
 62
     3
100
AcDbLine
 10
156.1988799999998
 20
156.924699
 30
0.0
 11
180.50395
 21
156.924699
 31
0.0
  0
LINE
  5
507
330
2D7
100
AcDbEntity
  8
0
  6
Continuous
 62
     4
100
AcDbLine
 10
200.456004
 20
170.623329
 30
0.0
 11
206.4554039999999
 21
170.623329
 31
0.0
  0
LINE
  5
508
330
2D7
100
AcDbEntity
  8
0
  6
Continuous
 62
     4
100
AcDbLine
 10
206.4554039999999
 20
169.983393
 30
0.0
 11
200.456004
 21
169.983393
 31
0.0
  0
LINE
  5
509
330
2D7
100
AcDbEntity
  8
0
  6
Continuous
 62
     4
100
AcDbLine
 10
200.456004
 20
173.1630749999999
 30
0.0
 11
206.4554039999999
 21
173.1630749999999
 31
0.0
  0
LINE
  5
50A
330
2D7
100
AcDbEntity
  8
0
  6
Continuous
 62
     4
100
AcDbLine
 10
206.4554039999999
 20
172.5231389999999
 30
0.0
 11
200.456004
 21
172.5231389999999
 31
0.0
  0
LINE
  5
50B
330
2D7
100
AcDbEntity
  8
0
  6
Continuous
 62
     4
100
AcDbLine
 10
101.3027
 20
234.9225989999999
 30
0.0
 11
101.3027
 21
242.9225989999999
 31
0.0
  0
LINE
  5
50C
330
2D7
100
AcDbEntity
  8
0
  6
Continuous
 62
     4
100
AcDbLine
 10
113.8027
 20
242.9225989999999
 30
0.0
 11
113.8027
 21
234.9225989999999
 31
0.0
  0
LINE
  5
50D
330
2D7
100
AcDbEntity
  8
0
  6
Continuous
 62
     4
100
AcDbLine
 10
114.3027
 20
234.9225989999999
 30
0.0
 11
114.3027
 21
242.9225989999999
 31
0.0
  0
LINE
  5
50E
330
2D7
100
AcDbEntity
  8
0
  6
Continuous
 62
     4
100
AcDbLine
 10
126.3027
 20
242.9225989999999
 30
0.0
 11
126.3027
 21
234.9225989999999
 31
0.0
  0
LINE
  5
50F
330
2D7
100
AcDbEntity
  8
0
  6
Continuous
 62
     4
100
AcDbLine
 10
126.8027
 20
234.9225989999999
 30
0.0
 11
126.8027
 21
242.9225989999999
 31
0.0
  0
LINE
  5
510
330
2D7
100
AcDbEntity
  8
0
  6
Continuous
 62
     4
100
AcDbLine
 10
139.3026999999999
 20
242.9225989999999
 30
0.0
 11
139.3026999999999
 21
234.9225989999999
 31
0.0
  0
LINE
  5
511
330
2D7
100
AcDbEntity
  8
0
  6
Continuous
 62
     4
100
AcDbLine
 10
101.3027
 20
234.9225989999999
 30
0.0
 11
113.8027
 21
234.9225989999999
 31
0.0
  0
LINE
  5
512
330
2D7
100
AcDbEntity
  8
0
  6
Continuous
 62
     4
100
AcDbLine
 10
114.3027
 20
234.9225989999999
 30
0.0
 11
126.3027
 21
234.9225989999999
 31
0.0
  0
LINE
  5
513
330
2D7
100
AcDbEntity
  8
0
  6
Continuous
 62
     4
100
AcDbLine
 10
126.8027
 20
234.9225989999999
 30
0.0
 11
139.3026999999999
 21
234.9225989999999
 31
0.0
  0
LINE
  5
514
330
2D7
100
AcDbEntity
  8
0
  6
Continuous
 62
     3
100
AcDbLine
 10
156.848815
 20
235.0
 30
0.0
 11
156.348865
 21
236.49985
 31
0.0
  0
LINE
  5
515
330
2D7
100
AcDbEntity
  8
0
  6
Continuous
 62
     3
100
AcDbLine
 10
157.3487649999998
 20
236.49985
 30
0.0
 11
156.848815
 21
235.0
 31
0.0
  0
LINE
  5
516
330
2D7
100
AcDbEntity
  8
0
  6
Continuous
 62
     3
100
AcDbLine
 10
156.848815
 20
235.0
 30
0.0
 11
156.848815
 21
250.4999999999999
 31
0.0
  0
TEXT
  5
517
330
2D7
100
AcDbEntity
  8
0
  6
Continuous
 62
     3
100
AcDbText
 10
155.6775685
 20
236.686245
 30
0.0
 40
3.636
  1
８.０
 50
90.0
 41
0.5
  7
KANJI1
100
AcDbText
  0
LINE
  5
518
330
2D7
100
AcDbEntity
  8
0
  6
Continuous
 62
     3
100
AcDbLine
 10
139.848815
 20
235.0
 30
0.0
 11
157.8487149999999
 21
235.0
 31
0.0
  0
LINE
  5
519
330
2D7
100
AcDbEntity
  8
0
  6
Continuous
 62
     3
100
AcDbLine
 10
139.348815
 20
227.4999999999999
 30
0.0
 11
136.9340004339999
 21
228.1470476129999
 31
0.0
  0
LINE
  5
51A
330
2D7
100
AcDbEntity
  8
0
  6
Continuous
 62
     3
100
AcDbLine
 10
139.348815
 20
227.4999999999999
 30
0.0
 11
136.9340004339999
 21
226.852952387
 31
0.0
  0
LINE
  5
51B
330
2D7
100
AcDbEntity
  8
0
  6
Continuous
 62
     3
100
AcDbLine
 10
139.348815
 20
227.4999999999999
 30
0.0
 11
126.8488149999999
 21
227.4999999999999
 31
0.0
  0
LINE
  5
51C
330
2D7
100
AcDbEntity
  8
0
  6
Continuous
 62
     3
100
AcDbLine
 10
126.8488149999999
 20
227.4999999999999
 30
0.0
 11
129.2636295659999
 21
226.852952387
 31
0.0
  0
LINE
  5
51D
330
2D7
100
AcDbEntity
  8
0
  6
Continuous
 62
     3
100
AcDbLine
 10
126.8488149999999
 20
227.4999999999999
 30
0.0
 11
129.2636295659999
 21
228.1470476129999
 31
0.0
  0
LINE
  5
51E
330
2D7
100
AcDbEntity
  8
0
  6
Continuous
 62
     3
100
AcDbLine
 10
126.3027
 20
233.922599
 30
0.0
 11
126.3027
 21
225.4999999999999
 31
0.0
  0
LINE
  5
51F
330
2D7
100
AcDbEntity
  8
0
  6
Continuous
 62
     3
100
AcDbLine
 10
126.3027
 20
227.4999999999999
 30
0.0
 11
123.887885434
 21
228.1470476129999
 31
0.0
  0
LINE
  5
520
330
2D7
100
AcDbEntity
  8
0
  6
Continuous
 62
     3
100
AcDbLine
 10
126.3027
 20
227.4999999999999
 30
0.0
 11
123.887885434
 21
226.852952387
 31
0.0
  0
LINE
  5
521
330
2D7
100
AcDbEntity
  8
0
  6
Continuous
 62
     3
100
AcDbLine
 10
126.3027
 20
227.4999999999999
 30
0.0
 11
114.3027
 21
227.4999999999999
 31
0.0
  0
LINE
  5
522
330
2D7
100
AcDbEntity
  8
0
  6
Continuous
 62
     3
100
AcDbLine
 10
114.3027
 20
227.4999999999999
 30
0.0
 11
116.717514566
 21
226.852952387
 31
0.0
  0
LINE
  5
523
330
2D7
100
AcDbEntity
  8
0
  6
Continuous
 62
     3
100
AcDbLine
 10
114.3027
 20
227.4999999999999
 30
0.0
 11
116.717514566
 21
228.1470476129999
 31
0.0
  0
LINE
  5
524
330
2D7
100
AcDbEntity
  8
0
  6
Continuous
 62
     3
100
AcDbLine
 10
114.3027
 20
233.922599
 30
0.0
 11
114.3027
 21
225.4999999999999
 31
0.0
  0
LINE
  5
525
330
2D7
100
AcDbEntity
  8
0
  6
Continuous
 62
     3
100
AcDbLine
 10
113.8027
 20
233.922599
 30
0.0
 11
113.8027
 21
225.422599
 31
0.0
  0
LINE
  5
526
330
2D7
100
AcDbEntity
  8
0
  6
Continuous
 62
     3
100
AcDbLine
 10
113.8027
 20
227.422599
 30
0.0
 11
111.387885434
 21
228.069646613
 31
0.0
  0
LINE
  5
527
330
2D7
100
AcDbEntity
  8
0
  6
Continuous
 62
     3
100
AcDbLine
 10
113.8027
 20
227.422599
 30
0.0
 11
111.387885434
 21
226.775551387
 31
0.0
  0
LINE
  5
528
330
2D7
100
AcDbEntity
  8
0
  6
Continuous
 62
     3
100
AcDbLine
 10
113.8027
 20
227.422599
 30
0.0
 11
101.3027
 21
227.422599
 31
0.0
  0
LINE
  5
529
330
2D7
100
AcDbEntity
  8
0
  6
Continuous
 62
     3
100
AcDbLine
 10
101.3027
 20
227.422599
 30
0.0
 11
103.717514566
 21
226.775551387
 31
0.0
  0
LINE
  5
52A
330
2D7
100
AcDbEntity
  8
0
  6
Continuous
 62
     3
100
AcDbLine
 10
101.3027
 20
227.422599
 30
0.0
 11
103.717514566
 21
228.069646613
 31
0.0
  0
LINE
  5
52B
330
2D7
100
AcDbEntity
  8
0
  6
Continuous
 62
     3
100
AcDbLine
 10
101.3027
 20
233.922599
 30
0.0
 11
101.3027
 21
225.422599
 31
0.0
  0
LINE
  5
52C
330
2D7
100
AcDbEntity
  8
0
  6
Continuous
 62
     3
100
AcDbLine
 10
126.8488149999999
 20
234.0
 30
0.0
 11
126.8488149999999
 21
225.4999999999999
 31
0.0
  0
LINE
  5
52D
330
2D7
100
AcDbEntity
  8
0
  6
Continuous
 62
     3
100
AcDbLine
 10
139.348815
 20
234.0
 30
0.0
 11
139.348815
 21
225.4999999999999
 31
0.0
  0
LINE
  5
52E
330
2D7
100
AcDbEntity
  8
0
  6
LTYPE2
 62
     3
100
AcDbLine
 10
118.0027
 20
253.7989689999998
 30
0.0
 11
118.0027
 21
232.5
 31
0.0
  0
TEXT
  5
52F
330
2D7
100
AcDbEntity
  8
0
  6
Continuous
 62
     3
100
AcDbText
 10
102.5354854309999
 20
228.971144
 30
0.3
 40
3.0
  1
１２.４７
 41
0.6
  7
KANJI4
100
AcDbText
  0
TEXT
  5
530
330
2D7
100
AcDbEntity
  8
0
  6
Continuous
 62
     3
100
AcDbText
 10
115.535485431
 20
229.0485449999999
 30
0.3
 40
3.0
  1
１２.４７
 41
0.6
  7
KANJI4
100
AcDbText
  0
TEXT
  5
531
330
2D7
100
AcDbEntity
  8
0
  6
Continuous
 62
     3
100
AcDbText
 10
128.081600431
 20
229.0485449999999
 30
0.3
 40
3.0
  1
１２.４７
 41
0.6
  7
KANJI4
100
AcDbText
  0
LINE
  5
532
330
2D7
100
AcDbEntity
  8
0
  6
Continuous
 62
     3
100
AcDbLine
 10
120.3211645689999
 20
156.1225789999998
 30
0.3
 11
122.735979135
 21
155.475531387
 31
0.3
  0
LINE
  5
533
330
2D7
100
AcDbEntity
  8
0
  6
Continuous
 62
     3
100
AcDbLine
 10
120.3211645689999
 20
156.1225789999998
 30
0.0
 11
122.735979135
 21
156.7696266129999
 31
0.0
  0
LINE
  5
534
330
2D7
100
AcDbEntity
  8
0
  6
Continuous
 62
     3
100
AcDbLine
 10
120.3211645689999
 20
156.1225789999998
 30
0.0
 11
117.821164569
 21
156.1225789999998
 31
0.0
  0
LINE
  5
535
330
2D7
100
AcDbEntity
  8
0
  6
Continuous
 62
     3
100
AcDbLine
 10
134.0711645689999
 20
156.1225789999998
 30
0.0
 11
120.3211645689999
 21
156.1225789999998
 31
0.0
  0
TEXT
  5
536
330
2D7
100
AcDbEntity
  8
0
  6
Continuous
 62
     3
100
AcDbText
 10
124.9091685
 20
156.9601999999999
 30
0.0
 40
3.636
  1
２.２５
 41
0.5
  7
KANJI1
100
AcDbText
  0
LINE
  5
537
330
2D7
100
AcDbEntity
  8
0
  6
Continuous
 62
     3
100
AcDbLine
 10
118.0
 20
156.0999999999999
 30
0.0
 11
115.585185434
 21
156.747047613
 31
0.0
  0
LINE
  5
538
330
2D7
100
AcDbEntity
  8
0
  6
Continuous
 62
     3
100
AcDbLine
 10
118.0
 20
156.0999999999999
 30
0.0
 11
115.585185434
 21
155.452952387
 31
0.0
  0
LINE
  5
539
330
2D7
100
AcDbEntity
  8
0
  6
Continuous
 62
     3
100
AcDbLine
 10
118.0
 20
156.0999999999999
 30
0.0
 11
98.0
 21
156.0999999999999
 31
0.0
  0
LINE
  5
53A
330
2D7
100
AcDbEntity
  8
0
  6
Continuous
 62
     3
100
AcDbLine
 10
98.0
 20
156.0999999999999
 30
0.0
 11
100.414814566
 21
155.452952387
 31
0.0
  0
LINE
  5
53B
330
2D7
100
AcDbEntity
  8
0
  6
Continuous
 62
     3
100
AcDbLine
 10
98.0
 20
156.0999999999999
 30
0.0
 11
100.414814566
 21
156.747047613
 31
0.0
  0
TEXT
  5
53C
330
2D7
100
AcDbEntity
  8
0
  6
Continuous
 62
     3
100
AcDbText
 10
106.4091685
 20
156.4601999999998
 30
0.0
 40
3.636
  1
２０
 41
0.5
  7
KANJI1
100
AcDbText
  0
LINE
  5
53D
330
2D7
100
AcDbEntity
  8
0
  6
LTYPE2
 62
     3
100
AcDbLine
 10
98.0
 20
155.4999999999997
 30
0.0
 11
98.0
 21
186.5
 31
0.0
  0
LINE
  5
53E
330
2D7
100
AcDbEntity
  8
0
  6
Continuous
 62
     3
100
AcDbLine
 10
120.3211645689999
 20
198.6225789999997
 30
0.0
 11
120.3211645689999
 21
155.4999999999997
 31
0.0
  0
LINE
  5
53F
330
2D7
100
AcDbEntity
  8
0
  6
LTYPE2
 62
     3
100
AcDbLine
 10
118.0027
 20
194.5
 30
0.0
 11
118.0027
 21
155.4601999999999
 31
0.0
  0
ENDSEC
  0
SECTION
  2
OBJECTS
  0
DICTIONARY
  5
2C5
330
0
100
AcDbDictionary
281
     1
  3
ACAD_GROUP
350
2C6
  3
ACAD_PLOTSTYLENAME
350
2C7
  3
ACAD_MLINESTYLE
350
2CF
  3
ACAD_PLOTSETTINGS
350
2D1
  3
ACAD_LAYOUT
350
2D2
  0
DICTIONARY
  5
2C6
102
{ACAD_REACTORS
330
2C5
102
}
330
2C5
100
AcDbDictionary
281
     1
  0
ACDBDICTIONARYWDFLT
  5
2C7
102
{ACAD_REACTORS
330
2C5
102
}
330
2C5
100
AcDbDictionary
281
     1
  3
Normal
350
2C8
100
AcDbDictionaryWithDefault
340
2C8
  0
DICTIONARY
  5
2CF
102
{ACAD_REACTORS
330
2C5
102
}
330
2C5
100
AcDbDictionary
281
     1
  3
Standard
350
2D0
  0
DICTIONARY
  5
2D1
102
{ACAD_REACTORS
330
2C5
102
}
330
2C5
100
AcDbDictionary
281
     1
  0
DICTIONARY
  5
2D2
102
{ACAD_REACTORS
330
2C5
102
}
330
2C5
100
AcDbDictionary
281
     1
  3
ﾚｲｱｳﾄ1
350
2D6
  3
Model
350
2DA
  0
ACDBPLACEHOLDER
  5
2C8
102
{ACAD_REACTORS
330
2C7
102
}
330
2C7
  0
MLINESTYLE
  5
2D0
102
{ACAD_REACTORS
330
2CF
102
}
330
2CF
100
AcDbMlineStyle
  2
STANDARD
 70
     0
  3

 62
   256
 51
90.0
 52
90.0
 71
     2
 49
0.5
 62
   256
  6
BYLAYER
 49
-0.5
 62
   256
  6
BYLAYER
  0
LAYOUT
  5
2D6
102
{ACAD_REACTORS
330
2D2
102
}
330
2D2
100
AcDbPlotSettings
  1

  2
Canon Bubble-Jet BJC-250J
  4

  6

 40
0.0
 41
0.0
 42
0.0
 43
0.0
 44
0.0
 45
0.0
 46
0.0
 47
0.0
 48
0.0
 49
0.0
140
0.0
141
0.0
142
1.0
143
1.0
 70
   688
 72
     0
 73
     0
 74
     5
  7

 75
    16
147
1.0
148
0.0
149
0.0
100
AcDbLayout
  1
ﾚｲｱｳﾄ1
 70
     1
 71
     1
 10
0.0
 20
0.0
 11
12.0
 21
9.0
 12
0.0
 22
0.0
 32
0.0
 14
1.000000000000000E+20
 24
1.000000000000000E+20
 34
1.000000000000000E+20
 15
-1.000000000000000E+20
 25
-1.000000000000000E+20
 35
-1.000000000000000E+20
146
0.0
 13
0.0
 23
0.0
 33
0.0
 16
1.0
 26
0.0
 36
0.0
 17
0.0
 27
1.0
 37
0.0
 76
     0
330
2D3
  0
LAYOUT
  5
2DA
102
{ACAD_REACTORS
330
2D2
102
}
330
2D2
100
AcDbPlotSettings
  1

  2
Canon Bubble-Jet BJC-250J
  4

  6

 40
0.0
 41
0.0
 42
0.0
 43
0.0
 44
0.0
 45
0.0
 46
0.0
 47
0.0
 48
0.0
 49
0.0
140
0.0
141
0.0
142
1.0
143
1.0
 70
  1712
 72
     0
 73
     0
 74
     0
  7

 75
     0
147
1.0
148
0.0
149
0.0
100
AcDbLayout
  1
Model
 70
     1
 71
     0
 10
0.0
 20
0.0
 11
12.0
 21
9.0
 12
0.0
 22
0.0
 32
0.0
 14
0.0
 24
0.0
 34
0.0
 15
0.0
 25
0.0
 35
0.0
146
0.0
 13
0.0
 23
0.0
 33
0.0
 16
1.0
 26
0.0
 36
0.0
 17
0.0
 27
1.0
 37
0.0
 76
     0
330
2D7
  0
ENDSEC
  0
EOF
