  0
SECTION
  2
HEADER
  9
$ACADVER
  1
AC1015
  9
$ACADMAINTVER
 70
     6
  9
$DWGCODEPAGE
  3
ANSI_932
  9
$INSBASE
 10
0.0
 20
0.0
 30
0.0
  9
$EXTMIN
 10
58.44789849999998
 20
143.2181149999999
 30
0.0
  9
$EXTMAX
 10
230.2640835
 20
266.319916
 30
0.5454
  9
$LIMMIN
 10
0.0
 20
0.0
  9
$LIMMAX
 10
12.0
 20
9.0
  9
$ORTHOMODE
 70
     0
  9
$REGENMODE
 70
     1
  9
$FILLMODE
 70
     1
  9
$QTEXTMODE
 70
     0
  9
$MIRRTEXT
 70
     1
  9
$LTSCALE
 40
1.0
  9
$ATTMODE
 70
     1
  9
$TEXTSIZE
 40
0.2
  9
$TRACEWID
 40
0.05
  9
$TEXTSTYLE
  7
STANDARD
  9
$CLAYER
  8
0
  9
$CELTYPE
  6
CONTINUOUS
  9
$CECOLOR
 62
   256
  9
$CELTSCALE
 40
1.0
  9
$DISPSILH
 70
     0
  9
$DIMSCALE
 40
1.0
  9
$DIMASZ
 40
0.18
  9
$DIMEXO
 40
0.0625
  9
$DIMDLI
 40
0.38
  9
$DIMRND
 40
0.0
  9
$DIMDLE
 40
0.0
  9
$DIMEXE
 40
0.18
  9
$DIMTP
 40
0.0
  9
$DIMTM
 40
0.0
  9
$DIMTXT
 40
0.18
  9
$DIMCEN
 40
0.09
  9
$DIMTSZ
 40
0.0
  9
$DIMTOL
 70
     0
  9
$DIMLIM
 70
     0
  9
$DIMTIH
 70
     1
  9
$DIMTOH
 70
     1
  9
$DIMSE1
 70
     0
  9
$DIMSE2
 70
     0
  9
$DIMTAD
 70
     0
  9
$DIMZIN
 70
     0
  9
$DIMBLK
  1

  9
$DIMASO
 70
     1
  9
$DIMSHO
 70
     1
  9
$DIMPOST
  1

  9
$DIMAPOST
  1

  9
$DIMALT
 70
     0
  9
$DIMALTD
 70
     2
  9
$DIMALTF
 40
25.4
  9
$DIMLFAC
 40
1.0
  9
$DIMTOFL
 70
     0
  9
$DIMTVP
 40
0.0
  9
$DIMTIX
 70
     0
  9
$DIMSOXD
 70
     0
  9
$DIMSAH
 70
     0
  9
$DIMBLK1
  1

  9
$DIMBLK2
  1

  9
$DIMSTYLE
  2
STANDARD
  9
$DIMCLRD
 70
     0
  9
$DIMCLRE
 70
     0
  9
$DIMCLRT
 70
     0
  9
$DIMTFAC
 40
1.0
  9
$DIMGAP
 40
0.09
  9
$DIMJUST
 70
     0
  9
$DIMSD1
 70
     0
  9
$DIMSD2
 70
     0
  9
$DIMTOLJ
 70
     1
  9
$DIMTZIN
 70
     0
  9
$DIMALTZ
 70
     0
  9
$DIMALTTZ
 70
     0
  9
$DIMUPT
 70
     0
  9
$DIMDEC
 70
     4
  9
$DIMTDEC
 70
     4
  9
$DIMALTU
 70
     2
  9
$DIMALTTD
 70
     2
  9
$DIMTXSTY
  7
STANDARD
  9
$DIMAUNIT
 70
     0
  9
$DIMADEC
 70
     0
  9
$DIMALTRND
 40
0.0
  9
$DIMAZIN
 70
     0
  9
$DIMDSEP
 70
    46
  9
$DIMATFIT
 70
     3
  9
$DIMFRAC
 70
     0
  9
$DIMLDRBLK
  1

  9
$DIMLUNIT
 70
     2
  9
$DIMLWD
 70
    -2
  9
$DIMLWE
 70
    -2
  9
$DIMTMOVE
 70
     0
  9
$LUNITS
 70
     2
  9
$LUPREC
 70
     4
  9
$SKETCHINC
 40
0.1
  9
$FILLETRAD
 40
0.0
  9
$AUNITS
 70
     0
  9
$AUPREC
 70
     0
  9
$MENU
  1
.
  9
$ELEVATION
 40
0.0
  9
$PELEVATION
 40
0.0
  9
$THICKNESS
 40
0.0
  9
$LIMCHECK
 70
     0
  9
$CHAMFERA
 40
0.0
  9
$CHAMFERB
 40
0.0
  9
$CHAMFERC
 40
0.0
  9
$CHAMFERD
 40
0.0
  9
$SKPOLY
 70
     0
  9
$TDCREATE
 40
2452152.849063970
  9
$TDUCREATE
 40
2452152.474063969
  9
$TDUPDATE
 40
2452719.554232523
  9
$TDUUPDATE
 40
2452719.179232523
  9
$TDINDWG
 40
0.0095037384
  9
$TDUSRTIMER
 40
0.0095018750
  9
$USRTIMER
 70
     1
  9
$ANGBASE
 50
0.0
  9
$ANGDIR
 70
     0
  9
$PDMODE
 70
     0
  9
$PDSIZE
 40
0.0
  9
$PLINEWID
 40
0.0
  9
$SPLFRAME
 70
     0
  9
$SPLINETYPE
 70
     6
  9
$SPLINESEGS
 70
     8
  9
$HANDSEED
  5
531
  9
$SURFTAB1
 70
     6
  9
$SURFTAB2
 70
     6
  9
$SURFTYPE
 70
     6
  9
$SURFU
 70
     6
  9
$SURFV
 70
     6
  9
$UCSBASE
  2

  9
$UCSNAME
  2

  9
$UCSORG
 10
0.0
 20
0.0
 30
0.0
  9
$UCSXDIR
 10
1.0
 20
0.0
 30
0.0
  9
$UCSYDIR
 10
0.0
 20
1.0
 30
0.0
  9
$UCSORTHOREF
  2

  9
$UCSORTHOVIEW
 70
     0
  9
$UCSORGTOP
 10
0.0
 20
0.0
 30
0.0
  9
$UCSORGBOTTOM
 10
0.0
 20
0.0
 30
0.0
  9
$UCSORGLEFT
 10
0.0
 20
0.0
 30
0.0
  9
$UCSORGRIGHT
 10
0.0
 20
0.0
 30
0.0
  9
$UCSORGFRONT
 10
0.0
 20
0.0
 30
0.0
  9
$UCSORGBACK
 10
0.0
 20
0.0
 30
0.0
  9
$PUCSBASE
  2

  9
$PUCSNAME
  2

  9
$PUCSORG
 10
0.0
 20
0.0
 30
0.0
  9
$PUCSXDIR
 10
1.0
 20
0.0
 30
0.0
  9
$PUCSYDIR
 10
0.0
 20
1.0
 30
0.0
  9
$PUCSORTHOREF
  2

  9
$PUCSORTHOVIEW
 70
     0
  9
$PUCSORGTOP
 10
0.0
 20
0.0
 30
0.0
  9
$PUCSORGBOTTOM
 10
0.0
 20
0.0
 30
0.0
  9
$PUCSORGLEFT
 10
0.0
 20
0.0
 30
0.0
  9
$PUCSORGRIGHT
 10
0.0
 20
0.0
 30
0.0
  9
$PUCSORGFRONT
 10
0.0
 20
0.0
 30
0.0
  9
$PUCSORGBACK
 10
0.0
 20
0.0
 30
0.0
  9
$USERI1
 70
     0
  9
$USERI2
 70
     0
  9
$USERI3
 70
     0
  9
$USERI4
 70
     0
  9
$USERI5
 70
     0
  9
$USERR1
 40
0.0
  9
$USERR2
 40
0.0
  9
$USERR3
 40
0.0
  9
$USERR4
 40
0.0
  9
$USERR5
 40
0.0
  9
$WORLDVIEW
 70
     1
  9
$SHADEDGE
 70
     3
  9
$SHADEDIF
 70
    70
  9
$TILEMODE
 70
     1
  9
$MAXACTVP
 70
    64
  9
$PINSBASE
 10
0.0
 20
0.0
 30
0.0
  9
$PLIMCHECK
 70
     0
  9
$PEXTMIN
 10
1.000000000000000E+20
 20
1.000000000000000E+20
 30
1.000000000000000E+20
  9
$PEXTMAX
 10
-1.000000000000000E+20
 20
-1.000000000000000E+20
 30
-1.000000000000000E+20
  9
$PLIMMIN
 10
0.0
 20
0.0
  9
$PLIMMAX
 10
12.0
 20
9.0
  9
$UNITMODE
 70
     0
  9
$VISRETAIN
 70
     1
  9
$PLINEGEN
 70
     0
  9
$PSLTSCALE
 70
     1
  9
$TREEDEPTH
 70
  3020
  9
$CMLSTYLE
  2
Standard
  9
$CMLJUST
 70
     0
  9
$CMLSCALE
 40
1.0
  9
$PROXYGRAPHICS
 70
     1
  9
$MEASUREMENT
 70
     0
  9
$CELWEIGHT
370
    -1
  9
$ENDCAPS
280
     0
  9
$JOINSTYLE
280
     0
  9
$LWDISPLAY
290
     0
  9
$INSUNITS
 70
     0
  9
$HYPERLINKBASE
  1

  9
$STYLESHEET
  1

  9
$XEDIT
290
     1
  9
$CEPSNTYPE
380
     0
  9
$PSTYLEMODE
290
     1
  9
$FINGERPRINTGUID
  2
{C8F87349-4FCB-11D7-9C19-0040267F10D4}
  9
$VERSIONGUID
  2
{746F4451-5AD2-11D7-9C19-0040267F10D4}
  9
$EXTNAMES
290
     1
  9
$PSVPSCALE
 40
0.0
  9
$OLESTARTUP
290
     0
  0
ENDSEC
  0
SECTION
  2
CLASSES
  0
CLASS
  1
ACDBDICTIONARYWDFLT
  2
AcDbDictionaryWithDefault
  3
AutoCAD 2000
 90
        0
280
     0
281
     0
  0
CLASS
  1
ACDBPLACEHOLDER
  2
AcDbPlaceHolder
  3
AutoCAD 2000
 90
        0
280
     0
281
     0
  0
CLASS
  1
LAYOUT
  2
AcDbLayout
  3
AutoCAD 2000
 90
        0
280
     0
281
     0
  0
ENDSEC
  0
SECTION
  2
TABLES
  0
TABLE
  2
VPORT
  5
2A0
330
0
100
AcDbSymbolTable
 70
     5
  0
VPORT
  5
530
330
2A0
100
AcDbSymbolTableRecord
100
AcDbViewportTableRecord
  2
*Active
 70
     0
 10
0.0
 20
0.0
 11
1.0
 21
1.0
 12
190.0846810486086
 22
205.5648966721361
 13
0.0
 23
0.0
 14
1.0
 24
1.0
 15
0.0
 25
0.0
 16
0.0
 26
0.0
 36
1.0
 17
0.0
 27
0.0
 37
0.0
 40
248.9956228061987
 41
2.210374639769452
 42
50.0
 43
0.0
 44
0.0
 50
0.0
 51
0.0
 71
     0
 72
   100
 73
     1
 74
     1
 75
     0
 76
     0
 77
     0
 78
     0
281
     0
 65
     1
110
0.0
120
0.0
130
0.0
111
1.0
121
0.0
131
0.0
112
0.0
122
1.0
132
0.0
 79
     0
146
0.0
  0
ENDTAB
  0
TABLE
  2
LTYPE
  5
29D
330
0
100
AcDbSymbolTable
 70
     4
  0
LTYPE
  5
2AB
330
29D
100
AcDbSymbolTableRecord
100
AcDbLinetypeTableRecord
  2
ByBlock
 70
     0
  3

 72
    65
 73
     0
 40
0.0
  0
LTYPE
  5
2AC
330
29D
100
AcDbSymbolTableRecord
100
AcDbLinetypeTableRecord
  2
ByLayer
 70
     0
  3

 72
    65
 73
     0
 40
0.0
  0
LTYPE
  5
2AD
330
29D
100
AcDbSymbolTableRecord
100
AcDbLinetypeTableRecord
  2
CONTINUOUS
 70
     0
  3
Solid line
 72
    65
 73
     0
 40
0.0
  0
LTYPE
  5
2BB
330
29D
100
AcDbSymbolTableRecord
100
AcDbLinetypeTableRecord
  2
LTYPE1
 70
     0
  3
HIDDEN
 72
    65
 73
     2
 40
2.0
 49
1.199999999999999
 74
     0
 49
-0.8
 74
     0
  0
LTYPE
  5
2BC
330
29D
100
AcDbSymbolTableRecord
100
AcDbLinetypeTableRecord
  2
LTYPE2
 70
     0
  3
CENTER
 72
    65
 73
     4
 40
15.0
 49
10.5
 74
     0
 49
-1.5
 74
     0
 49
1.5
 74
     0
 49
-1.5
 74
     0
  0
LTYPE
  5
2BD
330
29D
100
AcDbSymbolTableRecord
100
AcDbLinetypeTableRecord
  2
LTYPE3
 70
     0
  3
HIDDEN
 72
    65
 73
     2
 40
3.0
 49
1.8
 74
     0
 49
-1.199999999999999
 74
     0
  0
ENDTAB
  0
TABLE
  2
LAYER
  5
29A
330
0
100
AcDbSymbolTable
 70
   128
  0
LAYER
  5
2A8
330
29A
100
AcDbSymbolTableRecord
100
AcDbLayerTableRecord
  2
0
 70
     0
 62
     7
  6
CONTINUOUS
370
    -3
390
2A7
  0
LAYER
  5
2BE
330
29A
100
AcDbSymbolTableRecord
100
AcDbLayerTableRecord
  2
1
 70
     0
 62
     7
  6
CONTINUOUS
370
    -3
390
2A7
  0
LAYER
  5
2BF
330
29A
100
AcDbSymbolTableRecord
100
AcDbLayerTableRecord
  2
2
 70
     0
 62
     7
  6
CONTINUOUS
370
    -3
390
2A7
  0
LAYER
  5
2C0
330
29A
100
AcDbSymbolTableRecord
100
AcDbLayerTableRecord
  2
3
 70
     0
 62
     7
  6
CONTINUOUS
370
    -3
390
2A7
  0
LAYER
  5
2C1
330
29A
100
AcDbSymbolTableRecord
100
AcDbLayerTableRecord
  2
4
 70
     0
 62
     7
  6
CONTINUOUS
370
    -3
390
2A7
  0
LAYER
  5
2C2
330
29A
100
AcDbSymbolTableRecord
100
AcDbLayerTableRecord
  2
5
 70
     0
 62
     7
  6
CONTINUOUS
370
    -3
390
2A7
  0
LAYER
  5
2C3
330
29A
100
AcDbSymbolTableRecord
100
AcDbLayerTableRecord
  2
6
 70
     0
 62
     7
  6
CONTINUOUS
370
    -3
390
2A7
  0
LAYER
  5
2C4
330
29A
100
AcDbSymbolTableRecord
100
AcDbLayerTableRecord
  2
7
 70
     0
 62
     7
  6
CONTINUOUS
370
    -3
390
2A7
  0
LAYER
  5
2C5
330
29A
100
AcDbSymbolTableRecord
100
AcDbLayerTableRecord
  2
8
 70
     0
 62
     7
  6
CONTINUOUS
370
    -3
390
2A7
  0
LAYER
  5
2C6
330
29A
100
AcDbSymbolTableRecord
100
AcDbLayerTableRecord
  2
9
 70
     0
 62
     7
  6
CONTINUOUS
370
    -3
390
2A7
  0
LAYER
  5
2C7
330
29A
100
AcDbSymbolTableRecord
100
AcDbLayerTableRecord
  2
10
 70
     0
 62
     7
  6
CONTINUOUS
370
    -3
390
2A7
  0
LAYER
  5
2C8
330
29A
100
AcDbSymbolTableRecord
100
AcDbLayerTableRecord
  2
11
 70
     0
 62
     7
  6
CONTINUOUS
370
    -3
390
2A7
  0
LAYER
  5
2C9
330
29A
100
AcDbSymbolTableRecord
100
AcDbLayerTableRecord
  2
12
 70
     0
 62
     7
  6
CONTINUOUS
370
    -3
390
2A7
  0
LAYER
  5
2CA
330
29A
100
AcDbSymbolTableRecord
100
AcDbLayerTableRecord
  2
13
 70
     0
 62
     7
  6
CONTINUOUS
370
    -3
390
2A7
  0
LAYER
  5
2CB
330
29A
100
AcDbSymbolTableRecord
100
AcDbLayerTableRecord
  2
14
 70
     0
 62
     7
  6
CONTINUOUS
370
    -3
390
2A7
  0
LAYER
  5
2CC
330
29A
100
AcDbSymbolTableRecord
100
AcDbLayerTableRecord
  2
15
 70
     0
 62
     7
  6
CONTINUOUS
370
    -3
390
2A7
  0
LAYER
  5
2CD
330
29A
100
AcDbSymbolTableRecord
100
AcDbLayerTableRecord
  2
16
 70
     0
 62
     7
  6
CONTINUOUS
370
    -3
390
2A7
  0
LAYER
  5
2CE
330
29A
100
AcDbSymbolTableRecord
100
AcDbLayerTableRecord
  2
17
 70
     0
 62
     7
  6
CONTINUOUS
370
    -3
390
2A7
  0
LAYER
  5
2CF
330
29A
100
AcDbSymbolTableRecord
100
AcDbLayerTableRecord
  2
18
 70
     0
 62
     7
  6
CONTINUOUS
370
    -3
390
2A7
  0
LAYER
  5
2D0
330
29A
100
AcDbSymbolTableRecord
100
AcDbLayerTableRecord
  2
19
 70
     0
 62
     7
  6
CONTINUOUS
370
    -3
390
2A7
  0
LAYER
  5
2D1
330
29A
100
AcDbSymbolTableRecord
100
AcDbLayerTableRecord
  2
20
 70
     0
 62
     7
  6
CONTINUOUS
370
    -3
390
2A7
  0
LAYER
  5
2D2
330
29A
100
AcDbSymbolTableRecord
100
AcDbLayerTableRecord
  2
21
 70
     0
 62
     7
  6
CONTINUOUS
370
    -3
390
2A7
  0
LAYER
  5
2D3
330
29A
100
AcDbSymbolTableRecord
100
AcDbLayerTableRecord
  2
22
 70
     0
 62
     7
  6
CONTINUOUS
370
    -3
390
2A7
  0
LAYER
  5
2D4
330
29A
100
AcDbSymbolTableRecord
100
AcDbLayerTableRecord
  2
23
 70
     0
 62
     7
  6
CONTINUOUS
370
    -3
390
2A7
  0
LAYER
  5
2D5
330
29A
100
AcDbSymbolTableRecord
100
AcDbLayerTableRecord
  2
24
 70
     0
 62
     7
  6
CONTINUOUS
370
    -3
390
2A7
  0
LAYER
  5
2D6
330
29A
100
AcDbSymbolTableRecord
100
AcDbLayerTableRecord
  2
25
 70
     0
 62
     7
  6
CONTINUOUS
370
    -3
390
2A7
  0
LAYER
  5
2D7
330
29A
100
AcDbSymbolTableRecord
100
AcDbLayerTableRecord
  2
26
 70
     0
 62
     7
  6
CONTINUOUS
370
    -3
390
2A7
  0
LAYER
  5
2D8
330
29A
100
AcDbSymbolTableRecord
100
AcDbLayerTableRecord
  2
27
 70
     0
 62
     7
  6
CONTINUOUS
370
    -3
390
2A7
  0
LAYER
  5
2D9
330
29A
100
AcDbSymbolTableRecord
100
AcDbLayerTableRecord
  2
28
 70
     0
 62
     7
  6
CONTINUOUS
370
    -3
390
2A7
  0
LAYER
  5
2DA
330
29A
100
AcDbSymbolTableRecord
100
AcDbLayerTableRecord
  2
29
 70
     0
 62
     7
  6
CONTINUOUS
370
    -3
390
2A7
  0
LAYER
  5
2DB
330
29A
100
AcDbSymbolTableRecord
100
AcDbLayerTableRecord
  2
30
 70
     0
 62
     7
  6
CONTINUOUS
370
    -3
390
2A7
  0
LAYER
  5
2DC
330
29A
100
AcDbSymbolTableRecord
100
AcDbLayerTableRecord
  2
31
 70
     0
 62
     7
  6
CONTINUOUS
370
    -3
390
2A7
  0
LAYER
  5
2DD
330
29A
100
AcDbSymbolTableRecord
100
AcDbLayerTableRecord
  2
32
 70
     0
 62
     7
  6
CONTINUOUS
370
    -3
390
2A7
  0
LAYER
  5
2DE
330
29A
100
AcDbSymbolTableRecord
100
AcDbLayerTableRecord
  2
33
 70
     0
 62
     7
  6
CONTINUOUS
370
    -3
390
2A7
  0
LAYER
  5
2DF
330
29A
100
AcDbSymbolTableRecord
100
AcDbLayerTableRecord
  2
34
 70
     0
 62
     7
  6
CONTINUOUS
370
    -3
390
2A7
  0
LAYER
  5
2E0
330
29A
100
AcDbSymbolTableRecord
100
AcDbLayerTableRecord
  2
35
 70
     0
 62
     7
  6
CONTINUOUS
370
    -3
390
2A7
  0
LAYER
  5
2E1
330
29A
100
AcDbSymbolTableRecord
100
AcDbLayerTableRecord
  2
36
 70
     0
 62
     7
  6
CONTINUOUS
370
    -3
390
2A7
  0
LAYER
  5
2E2
330
29A
100
AcDbSymbolTableRecord
100
AcDbLayerTableRecord
  2
37
 70
     0
 62
     7
  6
CONTINUOUS
370
    -3
390
2A7
  0
LAYER
  5
2E3
330
29A
100
AcDbSymbolTableRecord
100
AcDbLayerTableRecord
  2
38
 70
     0
 62
     7
  6
CONTINUOUS
370
    -3
390
2A7
  0
LAYER
  5
2E4
330
29A
100
AcDbSymbolTableRecord
100
AcDbLayerTableRecord
  2
39
 70
     0
 62
     7
  6
CONTINUOUS
370
    -3
390
2A7
  0
LAYER
  5
2E5
330
29A
100
AcDbSymbolTableRecord
100
AcDbLayerTableRecord
  2
40
 70
     0
 62
     7
  6
CONTINUOUS
370
    -3
390
2A7
  0
LAYER
  5
2E6
330
29A
100
AcDbSymbolTableRecord
100
AcDbLayerTableRecord
  2
41
 70
     0
 62
     7
  6
CONTINUOUS
370
    -3
390
2A7
  0
LAYER
  5
2E7
330
29A
100
AcDbSymbolTableRecord
100
AcDbLayerTableRecord
  2
42
 70
     0
 62
     7
  6
CONTINUOUS
370
    -3
390
2A7
  0
LAYER
  5
2E8
330
29A
100
AcDbSymbolTableRecord
100
AcDbLayerTableRecord
  2
43
 70
     0
 62
     7
  6
CONTINUOUS
370
    -3
390
2A7
  0
LAYER
  5
2E9
330
29A
100
AcDbSymbolTableRecord
100
AcDbLayerTableRecord
  2
44
 70
     0
 62
     7
  6
CONTINUOUS
370
    -3
390
2A7
  0
LAYER
  5
2EA
330
29A
100
AcDbSymbolTableRecord
100
AcDbLayerTableRecord
  2
45
 70
     0
 62
     7
  6
CONTINUOUS
370
    -3
390
2A7
  0
LAYER
  5
2EB
330
29A
100
AcDbSymbolTableRecord
100
AcDbLayerTableRecord
  2
46
 70
     0
 62
     7
  6
CONTINUOUS
370
    -3
390
2A7
  0
LAYER
  5
2EC
330
29A
100
AcDbSymbolTableRecord
100
AcDbLayerTableRecord
  2
47
 70
     0
 62
     7
  6
CONTINUOUS
370
    -3
390
2A7
  0
LAYER
  5
2ED
330
29A
100
AcDbSymbolTableRecord
100
AcDbLayerTableRecord
  2
48
 70
     0
 62
     7
  6
CONTINUOUS
370
    -3
390
2A7
  0
LAYER
  5
2EE
330
29A
100
AcDbSymbolTableRecord
100
AcDbLayerTableRecord
  2
49
 70
     0
 62
     7
  6
CONTINUOUS
370
    -3
390
2A7
  0
LAYER
  5
2EF
330
29A
100
AcDbSymbolTableRecord
100
AcDbLayerTableRecord
  2
50
 70
     0
 62
     7
  6
CONTINUOUS
370
    -3
390
2A7
  0
LAYER
  5
2F0
330
29A
100
AcDbSymbolTableRecord
100
AcDbLayerTableRecord
  2
51
 70
     0
 62
     7
  6
CONTINUOUS
370
    -3
390
2A7
  0
LAYER
  5
2F1
330
29A
100
AcDbSymbolTableRecord
100
AcDbLayerTableRecord
  2
52
 70
     0
 62
     7
  6
CONTINUOUS
370
    -3
390
2A7
  0
LAYER
  5
2F2
330
29A
100
AcDbSymbolTableRecord
100
AcDbLayerTableRecord
  2
53
 70
     0
 62
     7
  6
CONTINUOUS
370
    -3
390
2A7
  0
LAYER
  5
2F3
330
29A
100
AcDbSymbolTableRecord
100
AcDbLayerTableRecord
  2
54
 70
     0
 62
     7
  6
CONTINUOUS
370
    -3
390
2A7
  0
LAYER
  5
2F4
330
29A
100
AcDbSymbolTableRecord
100
AcDbLayerTableRecord
  2
55
 70
     0
 62
     7
  6
CONTINUOUS
370
    -3
390
2A7
  0
LAYER
  5
2F5
330
29A
100
AcDbSymbolTableRecord
100
AcDbLayerTableRecord
  2
56
 70
     0
 62
     7
  6
CONTINUOUS
370
    -3
390
2A7
  0
LAYER
  5
2F6
330
29A
100
AcDbSymbolTableRecord
100
AcDbLayerTableRecord
  2
57
 70
     0
 62
     7
  6
CONTINUOUS
370
    -3
390
2A7
  0
LAYER
  5
2F7
330
29A
100
AcDbSymbolTableRecord
100
AcDbLayerTableRecord
  2
58
 70
     0
 62
     7
  6
CONTINUOUS
370
    -3
390
2A7
  0
LAYER
  5
2F8
330
29A
100
AcDbSymbolTableRecord
100
AcDbLayerTableRecord
  2
59
 70
     0
 62
     7
  6
CONTINUOUS
370
    -3
390
2A7
  0
LAYER
  5
2F9
330
29A
100
AcDbSymbolTableRecord
100
AcDbLayerTableRecord
  2
60
 70
     0
 62
     7
  6
CONTINUOUS
370
    -3
390
2A7
  0
LAYER
  5
2FA
330
29A
100
AcDbSymbolTableRecord
100
AcDbLayerTableRecord
  2
61
 70
     0
 62
     7
  6
CONTINUOUS
370
    -3
390
2A7
  0
LAYER
  5
2FB
330
29A
100
AcDbSymbolTableRecord
100
AcDbLayerTableRecord
  2
62
 70
     0
 62
     7
  6
CONTINUOUS
370
    -3
390
2A7
  0
LAYER
  5
2FC
330
29A
100
AcDbSymbolTableRecord
100
AcDbLayerTableRecord
  2
63
 70
     0
 62
     7
  6
CONTINUOUS
370
    -3
390
2A7
  0
LAYER
  5
2FD
330
29A
100
AcDbSymbolTableRecord
100
AcDbLayerTableRecord
  2
64
 70
     0
 62
     7
  6
CONTINUOUS
370
    -3
390
2A7
  0
LAYER
  5
2FE
330
29A
100
AcDbSymbolTableRecord
100
AcDbLayerTableRecord
  2
65
 70
     0
 62
     7
  6
CONTINUOUS
370
    -3
390
2A7
  0
LAYER
  5
2FF
330
29A
100
AcDbSymbolTableRecord
100
AcDbLayerTableRecord
  2
66
 70
     0
 62
     7
  6
CONTINUOUS
370
    -3
390
2A7
  0
LAYER
  5
300
330
29A
100
AcDbSymbolTableRecord
100
AcDbLayerTableRecord
  2
67
 70
     0
 62
     7
  6
CONTINUOUS
370
    -3
390
2A7
  0
LAYER
  5
301
330
29A
100
AcDbSymbolTableRecord
100
AcDbLayerTableRecord
  2
68
 70
     0
 62
     7
  6
CONTINUOUS
370
    -3
390
2A7
  0
LAYER
  5
302
330
29A
100
AcDbSymbolTableRecord
100
AcDbLayerTableRecord
  2
69
 70
     0
 62
     7
  6
CONTINUOUS
370
    -3
390
2A7
  0
LAYER
  5
303
330
29A
100
AcDbSymbolTableRecord
100
AcDbLayerTableRecord
  2
70
 70
     0
 62
     7
  6
CONTINUOUS
370
    -3
390
2A7
  0
LAYER
  5
304
330
29A
100
AcDbSymbolTableRecord
100
AcDbLayerTableRecord
  2
71
 70
     0
 62
     7
  6
CONTINUOUS
370
    -3
390
2A7
  0
LAYER
  5
305
330
29A
100
AcDbSymbolTableRecord
100
AcDbLayerTableRecord
  2
72
 70
     0
 62
     7
  6
CONTINUOUS
370
    -3
390
2A7
  0
LAYER
  5
306
330
29A
100
AcDbSymbolTableRecord
100
AcDbLayerTableRecord
  2
73
 70
     0
 62
     7
  6
CONTINUOUS
370
    -3
390
2A7
  0
LAYER
  5
307
330
29A
100
AcDbSymbolTableRecord
100
AcDbLayerTableRecord
  2
74
 70
     0
 62
     7
  6
CONTINUOUS
370
    -3
390
2A7
  0
LAYER
  5
308
330
29A
100
AcDbSymbolTableRecord
100
AcDbLayerTableRecord
  2
75
 70
     0
 62
     7
  6
CONTINUOUS
370
    -3
390
2A7
  0
LAYER
  5
309
330
29A
100
AcDbSymbolTableRecord
100
AcDbLayerTableRecord
  2
76
 70
     0
 62
     7
  6
CONTINUOUS
370
    -3
390
2A7
  0
LAYER
  5
30A
330
29A
100
AcDbSymbolTableRecord
100
AcDbLayerTableRecord
  2
77
 70
     0
 62
     7
  6
CONTINUOUS
370
    -3
390
2A7
  0
LAYER
  5
30B
330
29A
100
AcDbSymbolTableRecord
100
AcDbLayerTableRecord
  2
78
 70
     0
 62
     7
  6
CONTINUOUS
370
    -3
390
2A7
  0
LAYER
  5
30C
330
29A
100
AcDbSymbolTableRecord
100
AcDbLayerTableRecord
  2
79
 70
     0
 62
     7
  6
CONTINUOUS
370
    -3
390
2A7
  0
LAYER
  5
30D
330
29A
100
AcDbSymbolTableRecord
100
AcDbLayerTableRecord
  2
80
 70
     0
 62
     7
  6
CONTINUOUS
370
    -3
390
2A7
  0
LAYER
  5
30E
330
29A
100
AcDbSymbolTableRecord
100
AcDbLayerTableRecord
  2
81
 70
     0
 62
     7
  6
CONTINUOUS
370
    -3
390
2A7
  0
LAYER
  5
30F
330
29A
100
AcDbSymbolTableRecord
100
AcDbLayerTableRecord
  2
82
 70
     0
 62
     7
  6
CONTINUOUS
370
    -3
390
2A7
  0
LAYER
  5
310
330
29A
100
AcDbSymbolTableRecord
100
AcDbLayerTableRecord
  2
83
 70
     0
 62
     7
  6
CONTINUOUS
370
    -3
390
2A7
  0
LAYER
  5
311
330
29A
100
AcDbSymbolTableRecord
100
AcDbLayerTableRecord
  2
84
 70
     0
 62
     7
  6
CONTINUOUS
370
    -3
390
2A7
  0
LAYER
  5
312
330
29A
100
AcDbSymbolTableRecord
100
AcDbLayerTableRecord
  2
85
 70
     0
 62
     7
  6
CONTINUOUS
370
    -3
390
2A7
  0
LAYER
  5
313
330
29A
100
AcDbSymbolTableRecord
100
AcDbLayerTableRecord
  2
86
 70
     0
 62
     7
  6
CONTINUOUS
370
    -3
390
2A7
  0
LAYER
  5
314
330
29A
100
AcDbSymbolTableRecord
100
AcDbLayerTableRecord
  2
87
 70
     0
 62
     7
  6
CONTINUOUS
370
    -3
390
2A7
  0
LAYER
  5
315
330
29A
100
AcDbSymbolTableRecord
100
AcDbLayerTableRecord
  2
88
 70
     0
 62
     7
  6
CONTINUOUS
370
    -3
390
2A7
  0
LAYER
  5
316
330
29A
100
AcDbSymbolTableRecord
100
AcDbLayerTableRecord
  2
89
 70
     0
 62
     7
  6
CONTINUOUS
370
    -3
390
2A7
  0
LAYER
  5
317
330
29A
100
AcDbSymbolTableRecord
100
AcDbLayerTableRecord
  2
90
 70
     0
 62
     7
  6
CONTINUOUS
370
    -3
390
2A7
  0
LAYER
  5
318
330
29A
100
AcDbSymbolTableRecord
100
AcDbLayerTableRecord
  2
91
 70
     0
 62
     7
  6
CONTINUOUS
370
    -3
390
2A7
  0
LAYER
  5
319
330
29A
100
AcDbSymbolTableRecord
100
AcDbLayerTableRecord
  2
92
 70
     0
 62
     7
  6
CONTINUOUS
370
    -3
390
2A7
  0
LAYER
  5
31A
330
29A
100
AcDbSymbolTableRecord
100
AcDbLayerTableRecord
  2
93
 70
     0
 62
     7
  6
CONTINUOUS
370
    -3
390
2A7
  0
LAYER
  5
31B
330
29A
100
AcDbSymbolTableRecord
100
AcDbLayerTableRecord
  2
94
 70
     0
 62
     7
  6
CONTINUOUS
370
    -3
390
2A7
  0
LAYER
  5
31C
330
29A
100
AcDbSymbolTableRecord
100
AcDbLayerTableRecord
  2
95
 70
     0
 62
     7
  6
CONTINUOUS
370
    -3
390
2A7
  0
LAYER
  5
31D
330
29A
100
AcDbSymbolTableRecord
100
AcDbLayerTableRecord
  2
96
 70
     0
 62
     7
  6
CONTINUOUS
370
    -3
390
2A7
  0
LAYER
  5
31E
330
29A
100
AcDbSymbolTableRecord
100
AcDbLayerTableRecord
  2
97
 70
     0
 62
     7
  6
CONTINUOUS
370
    -3
390
2A7
  0
LAYER
  5
31F
330
29A
100
AcDbSymbolTableRecord
100
AcDbLayerTableRecord
  2
98
 70
     0
 62
     7
  6
CONTINUOUS
370
    -3
390
2A7
  0
LAYER
  5
320
330
29A
100
AcDbSymbolTableRecord
100
AcDbLayerTableRecord
  2
99
 70
     0
 62
     7
  6
CONTINUOUS
370
    -3
390
2A7
  0
LAYER
  5
321
330
29A
100
AcDbSymbolTableRecord
100
AcDbLayerTableRecord
  2
100
 70
     0
 62
     7
  6
CONTINUOUS
370
    -3
390
2A7
  0
LAYER
  5
322
330
29A
100
AcDbSymbolTableRecord
100
AcDbLayerTableRecord
  2
101
 70
     0
 62
     7
  6
CONTINUOUS
370
    -3
390
2A7
  0
LAYER
  5
323
330
29A
100
AcDbSymbolTableRecord
100
AcDbLayerTableRecord
  2
102
 70
     0
 62
     7
  6
CONTINUOUS
370
    -3
390
2A7
  0
LAYER
  5
324
330
29A
100
AcDbSymbolTableRecord
100
AcDbLayerTableRecord
  2
103
 70
     0
 62
     7
  6
CONTINUOUS
370
    -3
390
2A7
  0
LAYER
  5
325
330
29A
100
AcDbSymbolTableRecord
100
AcDbLayerTableRecord
  2
104
 70
     0
 62
     7
  6
CONTINUOUS
370
    -3
390
2A7
  0
LAYER
  5
326
330
29A
100
AcDbSymbolTableRecord
100
AcDbLayerTableRecord
  2
105
 70
     0
 62
     7
  6
CONTINUOUS
370
    -3
390
2A7
  0
LAYER
  5
327
330
29A
100
AcDbSymbolTableRecord
100
AcDbLayerTableRecord
  2
106
 70
     0
 62
     7
  6
CONTINUOUS
370
    -3
390
2A7
  0
LAYER
  5
328
330
29A
100
AcDbSymbolTableRecord
100
AcDbLayerTableRecord
  2
107
 70
     0
 62
     7
  6
CONTINUOUS
370
    -3
390
2A7
  0
LAYER
  5
329
330
29A
100
AcDbSymbolTableRecord
100
AcDbLayerTableRecord
  2
108
 70
     0
 62
     7
  6
CONTINUOUS
370
    -3
390
2A7
  0
LAYER
  5
32A
330
29A
100
AcDbSymbolTableRecord
100
AcDbLayerTableRecord
  2
109
 70
     0
 62
     7
  6
CONTINUOUS
370
    -3
390
2A7
  0
LAYER
  5
32B
330
29A
100
AcDbSymbolTableRecord
100
AcDbLayerTableRecord
  2
110
 70
     0
 62
     7
  6
CONTINUOUS
370
    -3
390
2A7
  0
LAYER
  5
32C
330
29A
100
AcDbSymbolTableRecord
100
AcDbLayerTableRecord
  2
111
 70
     0
 62
     7
  6
CONTINUOUS
370
    -3
390
2A7
  0
LAYER
  5
32D
330
29A
100
AcDbSymbolTableRecord
100
AcDbLayerTableRecord
  2
112
 70
     0
 62
     7
  6
CONTINUOUS
370
    -3
390
2A7
  0
LAYER
  5
32E
330
29A
100
AcDbSymbolTableRecord
100
AcDbLayerTableRecord
  2
113
 70
     0
 62
     7
  6
CONTINUOUS
370
    -3
390
2A7
  0
LAYER
  5
32F
330
29A
100
AcDbSymbolTableRecord
100
AcDbLayerTableRecord
  2
114
 70
     0
 62
     7
  6
CONTINUOUS
370
    -3
390
2A7
  0
LAYER
  5
330
330
29A
100
AcDbSymbolTableRecord
100
AcDbLayerTableRecord
  2
115
 70
     0
 62
     7
  6
CONTINUOUS
370
    -3
390
2A7
  0
LAYER
  5
331
330
29A
100
AcDbSymbolTableRecord
100
AcDbLayerTableRecord
  2
116
 70
     0
 62
     7
  6
CONTINUOUS
370
    -3
390
2A7
  0
LAYER
  5
332
330
29A
100
AcDbSymbolTableRecord
100
AcDbLayerTableRecord
  2
117
 70
     0
 62
     7
  6
CONTINUOUS
370
    -3
390
2A7
  0
LAYER
  5
333
330
29A
100
AcDbSymbolTableRecord
100
AcDbLayerTableRecord
  2
118
 70
     0
 62
     7
  6
CONTINUOUS
370
    -3
390
2A7
  0
LAYER
  5
334
330
29A
100
AcDbSymbolTableRecord
100
AcDbLayerTableRecord
  2
119
 70
     0
 62
     7
  6
CONTINUOUS
370
    -3
390
2A7
  0
LAYER
  5
335
330
29A
100
AcDbSymbolTableRecord
100
AcDbLayerTableRecord
  2
120
 70
     0
 62
     7
  6
CONTINUOUS
370
    -3
390
2A7
  0
LAYER
  5
336
330
29A
100
AcDbSymbolTableRecord
100
AcDbLayerTableRecord
  2
121
 70
     0
 62
     7
  6
CONTINUOUS
370
    -3
390
2A7
  0
LAYER
  5
337
330
29A
100
AcDbSymbolTableRecord
100
AcDbLayerTableRecord
  2
122
 70
     0
 62
     7
  6
CONTINUOUS
370
    -3
390
2A7
  0
LAYER
  5
338
330
29A
100
AcDbSymbolTableRecord
100
AcDbLayerTableRecord
  2
123
 70
     0
 62
     7
  6
CONTINUOUS
370
    -3
390
2A7
  0
LAYER
  5
339
330
29A
100
AcDbSymbolTableRecord
100
AcDbLayerTableRecord
  2
124
 70
     0
 62
     7
  6
CONTINUOUS
370
    -3
390
2A7
  0
LAYER
  5
33A
330
29A
100
AcDbSymbolTableRecord
100
AcDbLayerTableRecord
  2
125
 70
     0
 62
     7
  6
CONTINUOUS
370
    -3
390
2A7
  0
LAYER
  5
33B
330
29A
100
AcDbSymbolTableRecord
100
AcDbLayerTableRecord
  2
126
 70
     0
 62
     7
  6
CONTINUOUS
370
    -3
390
2A7
  0
LAYER
  5
33C
330
29A
100
AcDbSymbolTableRecord
100
AcDbLayerTableRecord
  2
127
 70
     0
 62
     7
  6
CONTINUOUS
370
    -3
390
2A7
  0
ENDTAB
  0
TABLE
  2
STYLE
  5
29B
330
0
100
AcDbSymbolTable
 70
     8
  0
STYLE
  5
2A9
330
29B
100
AcDbSymbolTableRecord
100
AcDbTextStyleTableRecord
  2
STANDARD
 70
     0
 40
0.0
 41
1.0
 50
0.0
 71
     0
 42
0.2
  3
txt
  4

  0
STYLE
  5
33D
330
29B
100
AcDbSymbolTableRecord
100
AcDbTextStyleTableRecord
  2
KANJI0
 70
     0
 40
3.636
 41
1.0
 50
0.0
 71
     0
 42
3.636
  3
txt
  4
bigfont
  0
STYLE
  5
33E
330
29B
100
AcDbSymbolTableRecord
100
AcDbTextStyleTableRecord
  2
KANJI1
 70
     0
 40
3.2724
 41
0.5555555560000001
 50
0.0
 71
     0
 42
3.2724
  3
txt
  4
bigfont
  0
STYLE
  5
33F
330
29B
100
AcDbSymbolTableRecord
100
AcDbTextStyleTableRecord
  2
KANJI2
 70
     0
 40
3.636
 41
0.5
 50
0.0
 71
     0
 42
3.636
  3
txt
  4
bigfont
  0
STYLE
  5
340
330
29B
100
AcDbSymbolTableRecord
100
AcDbTextStyleTableRecord
  2
KANJI3
 70
     0
 40
2.181599999999999
 41
0.625
 50
0.0
 71
     0
 42
2.181599999999999
  3
txt
  4
bigfont
  0
STYLE
  5
341
330
29B
100
AcDbSymbolTableRecord
100
AcDbTextStyleTableRecord
  2
KANJI4
 70
     0
 40
3.636
 41
0.5
 50
0.0
 71
     0
 42
3.636
  3
txt
  4
bigfont
  0
STYLE
  5
342
330
29B
100
AcDbSymbolTableRecord
100
AcDbTextStyleTableRecord
  2
KANJI5
 70
     0
 40
3.636
 41
0.5
 50
0.0
 71
     0
 42
3.636
  3
txt
  4
bigfont
  0
STYLE
  5
343
330
29B
100
AcDbSymbolTableRecord
100
AcDbTextStyleTableRecord
  2
KANJI6
 70
     0
 40
3.0
 41
0.6
 50
0.0
 71
     0
 42
3.0
  3
txt
  4
bigfont
  0
ENDTAB
  0
TABLE
  2
VIEW
  5
29E
330
0
100
AcDbSymbolTable
 70
     0
  0
ENDTAB
  0
TABLE
  2
UCS
  5
29F
330
0
100
AcDbSymbolTable
 70
     0
  0
ENDTAB
  0
TABLE
  2
APPID
  5
2A1
330
0
100
AcDbSymbolTable
 70
     1
  0
APPID
  5
2AA
330
2A1
100
AcDbSymbolTableRecord
100
AcDbRegAppTableRecord
  2
ACAD
 70
     0
  0
ENDTAB
  0
TABLE
  2
DIMSTYLE
  5
2A2
330
0
100
AcDbSymbolTable
 70
     1
100
AcDbDimStyleTable
 71
     0
  0
DIMSTYLE
105
344
330
2A2
100
AcDbSymbolTableRecord
100
AcDbDimStyleTableRecord
  2
STANDARD
 70
     0
279
     2
340
2A9
  0
ENDTAB
  0
TABLE
  2
BLOCK_RECORD
  5
299
330
0
100
AcDbSymbolTable
 70
     2
  0
BLOCK_RECORD
  5
2B6
330
299
100
AcDbSymbolTableRecord
100
AcDbBlockTableRecord
  2
*Model_Space
340
2B9
  0
BLOCK_RECORD
  5
2B2
330
299
100
AcDbSymbolTableRecord
100
AcDbBlockTableRecord
  2
*Paper_Space
340
2B5
  0
BLOCK_RECORD
  5
347
330
299
100
AcDbSymbolTableRecord
100
AcDbBlockTableRecord
  2
$MODEL_SPACE
340
0
  0
BLOCK_RECORD
  5
34A
330
299
100
AcDbSymbolTableRecord
100
AcDbBlockTableRecord
  2
$PAPER_SPACE
340
0
  0
ENDTAB
  0
ENDSEC
  0
SECTION
  2
BLOCKS
  0
BLOCK
  5
2B7
330
2B6
100
AcDbEntity
  8
0
100
AcDbBlockBegin
  2
*Model_Space
 70
     0
 10
0.0
 20
0.0
 30
0.0
  3
*Model_Space
  1

  0
ENDBLK
  5
2B8
330
2B6
100
AcDbEntity
  8
0
100
AcDbBlockEnd
  0
BLOCK
  5
2B3
330
2B2
100
AcDbEntity
 67
     1
  8
0
100
AcDbBlockBegin
  2
*Paper_Space
 70
     0
 10
0.0
 20
0.0
 30
0.0
  3
*Paper_Space
  1

  0
ENDBLK
  5
2B4
330
2B2
100
AcDbEntity
 67
     1
  8
0
100
AcDbBlockEnd
  0
BLOCK
  5
348
330
347
100
AcDbEntity
  8
0
100
AcDbBlockBegin
  2
$MODEL_SPACE
 70
     0
 10
0.0
 20
0.0
 30
0.0
  3
$MODEL_SPACE
  1

  0
ENDBLK
  5
349
330
347
100
AcDbEntity
  8
0
100
AcDbBlockEnd
  0
BLOCK
  5
34B
330
34A
100
AcDbEntity
  8
0
100
AcDbBlockBegin
  2
$PAPER_SPACE
 70
     0
 10
0.0
 20
0.0
 30
0.0
  3
$PAPER_SPACE
  1

  0
ENDBLK
  5
34C
330
34A
100
AcDbEntity
  8
0
100
AcDbBlockEnd
  0
ENDSEC
  0
SECTION
  2
ENTITIES
  0
LINE
  5
34D
330
2B6
100
AcDbEntity
  8
0
  6
Continuous
 62
     3
100
AcDbLine
 10
100.2544749999999
 20
195.0
 30
0.0
 11
100.2544749999999
 21
194.5000499999999
 31
0.0
  0
LINE
  5
34E
330
2B6
100
AcDbEntity
  8
0
  6
Continuous
 62
     3
100
AcDbLine
 10
125.251975
 20
165.5029499999999
 30
0.0
 11
125.251975
 21
166.0029
 31
0.0
  0
LINE
  5
34F
330
2B6
100
AcDbEntity
  8
0
  6
Continuous
 62
     4
100
AcDbLine
 10
100.2544749999999
 20
195.0
 30
0.0
 11
80.50645000000001
 21
195.0
 31
0.0
  0
LINE
  5
350
330
2B6
100
AcDbEntity
  8
0
  6
Continuous
 62
     4
100
AcDbLine
 10
100.2544749999999
 20
194.5000499999999
 30
0.0
 11
125.251975
 21
194.5000499999999
 31
0.0
  0
LINE
  5
351
330
2B6
100
AcDbEntity
  8
0
  6
Continuous
 62
     4
100
AcDbLine
 10
125.251975
 20
194.5000499999999
 30
0.0
 11
125.251975
 21
195.0
 31
0.0
  0
LINE
  5
352
330
2B6
100
AcDbEntity
  8
0
  6
Continuous
 62
     4
100
AcDbLine
 10
144.0001
 20
186.250875
 30
0.0
 11
145.0
 21
186.250875
 31
0.0
  0
LINE
  5
353
330
2B6
100
AcDbEntity
  8
0
  6
Continuous
 62
     4
100
AcDbLine
 10
145.0
 20
186.20088
 30
0.0
 11
145.0
 21
195.0
 31
0.0
  0
LINE
  5
354
330
2B6
100
AcDbEntity
  8
0
  6
Continuous
 62
     4
100
AcDbLine
 10
145.0
 20
195.0
 30
0.0
 11
125.30197
 21
195.0
 31
0.0
  0
LINE
  5
355
330
2B6
100
AcDbEntity
  8
0
  6
Continuous
 62
     4
100
AcDbLine
 10
145.0
 20
174.2520749999999
 30
0.0
 11
144.0001
 21
174.2520749999999
 31
0.0
  0
LINE
  5
356
330
2B6
100
AcDbEntity
  8
0
  6
Continuous
 62
     4
100
AcDbLine
 10
145.0
 20
165.5029499999999
 30
0.0
 11
145.0
 21
174.2520749999999
 31
0.0
  0
LINE
  5
357
330
2B6
100
AcDbEntity
  8
0
  6
Continuous
 62
     4
100
AcDbLine
 10
144.0001
 20
174.2520749999999
 30
0.0
 11
144.0001
 21
186.250875
 31
0.0
  0
CIRCLE
  5
358
330
2B6
100
AcDbEntity
  8
0
  6
Continuous
 62
     4
100
AcDbCircle
 10
142.2502749999999
 20
191.750325
 30
0.0
 40
1.39986
  0
CIRCLE
  5
359
330
2B6
100
AcDbEntity
  8
0
  6
Continuous
 62
     4
100
AcDbCircle
 10
142.2502749999999
 20
168.7526249999999
 30
0.0
 40
1.39986
  0
LINE
  5
35A
330
2B6
100
AcDbEntity
  8
0
  6
Continuous
 62
     4
100
AcDbLine
 10
125.251975
 20
165.5029499999999
 30
0.0
 11
145.0
 21
165.5029499999999
 31
0.0
  0
LINE
  5
35B
330
2B6
100
AcDbEntity
  8
0
  6
Continuous
 62
     4
100
AcDbLine
 10
100.2544749999999
 20
166.0029
 30
0.0
 11
100.2544749999999
 21
165.5029499999999
 31
0.0
  0
LINE
  5
35C
330
2B6
100
AcDbEntity
  8
0
  6
Continuous
 62
     4
100
AcDbLine
 10
125.251975
 20
166.0029
 30
0.0
 11
100.2544749999999
 21
166.0029
 31
0.0
  0
CIRCLE
  5
35D
330
2B6
100
AcDbEntity
  8
0
  6
Continuous
 62
     4
100
AcDbCircle
 10
83.25617499999998
 20
168.7526249999999
 30
0.0
 40
1.39986
  0
LINE
  5
35E
330
2B6
100
AcDbEntity
  8
0
  6
Continuous
 62
     4
100
AcDbLine
 10
80.50645000000001
 20
165.5029499999999
 30
0.0
 11
100.2544749999999
 21
165.5029499999999
 31
0.0
  0
LINE
  5
35F
330
2B6
100
AcDbEntity
  8
0
  6
Continuous
 62
     4
100
AcDbLine
 10
81.50634999999999
 20
186.250875
 30
0.0
 11
81.50634999999999
 21
174.2520749999999
 31
0.0
  0
LINE
  5
360
330
2B6
100
AcDbEntity
  8
0
  6
Continuous
 62
     4
100
AcDbLine
 10
80.50645000000001
 20
186.250875
 30
0.0
 11
81.50634999999999
 21
186.250875
 31
0.0
  0
LINE
  5
361
330
2B6
100
AcDbEntity
  8
0
  6
Continuous
 62
     4
100
AcDbLine
 10
80.50645000000001
 20
195.0
 30
0.0
 11
80.50645000000001
 21
186.250875
 31
0.0
  0
LINE
  5
362
330
2B6
100
AcDbEntity
  8
0
  6
Continuous
 62
     4
100
AcDbLine
 10
81.50634999999999
 20
174.2520749999999
 30
0.0
 11
80.50645000000001
 21
174.2520749999999
 31
0.0
  0
LINE
  5
363
330
2B6
100
AcDbEntity
  8
0
  6
Continuous
 62
     4
100
AcDbLine
 10
80.50645000000001
 20
174.2520749999999
 30
0.0
 11
80.50645000000001
 21
165.5029499999999
 31
0.0
  0
CIRCLE
  5
364
330
2B6
100
AcDbEntity
  8
0
  6
Continuous
 62
     4
100
AcDbCircle
 10
83.25617499999998
 20
191.750325
 30
0.0
 40
1.39986
  0
CIRCLE
  5
365
330
2B6
100
AcDbEntity
  8
0
  6
Continuous
 62
     4
100
AcDbCircle
 10
83.25617499999998
 20
180.251475
 30
0.0
 40
0.79992
  0
CIRCLE
  5
366
330
2B6
100
AcDbEntity
  8
0
  6
Continuous
 62
     4
100
AcDbCircle
 10
83.25617499999998
 20
182.791221
 30
0.0
 40
0.79992
  0
CIRCLE
  5
367
330
2B6
100
AcDbEntity
  8
0
  6
Continuous
 62
     4
100
AcDbCircle
 10
83.25617499999998
 20
185.3309669999999
 30
0.0
 40
0.79992
  0
CIRCLE
  5
368
330
2B6
100
AcDbEntity
  8
0
  6
Continuous
 62
     4
100
AcDbCircle
 10
83.25617499999998
 20
187.870713
 30
0.0
 40
0.79992
  0
CIRCLE
  5
369
330
2B6
100
AcDbEntity
  8
0
  6
Continuous
 62
     4
100
AcDbCircle
 10
83.25617499999998
 20
177.7117289999999
 30
0.0
 40
0.79992
  0
LINE
  5
36A
330
2B6
100
AcDbEntity
  8
0
  6
Continuous
 62
     3
100
AcDbLine
 10
86.25587499999996
 20
191.750325
 30
0.0
 11
75.25697499999998
 21
191.750325
 31
0.0
  0
LINE
  5
36B
330
2B6
100
AcDbEntity
  8
0
  6
Continuous
 62
     3
100
AcDbLine
 10
75.25697499999998
 20
168.7526249999999
 30
0.0
 11
86.25587499999996
 21
168.7526249999999
 31
0.0
  0
LINE
  5
36C
330
2B6
100
AcDbEntity
  8
0
  6
Continuous
 62
     3
100
AcDbLine
 10
76.25687499999997
 20
168.7526249999999
 30
0.0
 11
76.25687499999997
 21
191.750325
 31
0.0
  0
LINE
  5
36D
330
2B6
100
AcDbEntity
  8
0
  6
Continuous
 62
     3
100
AcDbLine
 10
139.2505749999999
 20
191.750325
 30
0.0
 11
144.6500349999998
 21
191.750325
 31
0.0
  0
LINE
  5
36E
330
2B6
100
AcDbEntity
  8
0
  6
Continuous
 62
     3
100
AcDbLine
 10
144.6500349999998
 20
168.7526249999999
 30
0.0
 11
139.450555
 21
168.7526249999999
 31
0.0
  0
LINE
  5
370
330
2B6
100
AcDbEntity
  8
0
  6
Continuous
 62
     3
100
AcDbLine
 10
76.25687499999997
 20
191.750325
 30
0.0
 11
75.75692499999998
 21
190.250475
 31
0.0
  0
LINE
  5
371
330
2B6
100
AcDbEntity
  8
0
  6
Continuous
 62
     3
100
AcDbLine
 10
76.756825
 20
190.250475
 30
0.0
 11
76.25687499999997
 21
191.750325
 31
0.0
  0
LINE
  5
372
330
2B6
100
AcDbEntity
  8
0
  6
Continuous
 62
     3
100
AcDbLine
 10
76.25687499999997
 20
168.7526249999999
 30
0.0
 11
75.75692499999998
 21
170.252475
 31
0.0
  0
LINE
  5
373
330
2B6
100
AcDbEntity
  8
0
  6
Continuous
 62
     3
100
AcDbLine
 10
76.756825
 20
170.252475
 30
0.0
 11
76.25687499999997
 21
168.7526249999999
 31
0.0
  0
LINE
  5
375
330
2B6
100
AcDbEntity
  8
0
  6
Continuous
 62
     4
100
AcDbLine
 10
103.9724695689999
 20
173.80212
 30
0.0
 11
103.6225045689999
 21
174.2020799999996
 31
0.0
  0
LINE
  5
376
330
2B6
100
AcDbEntity
  8
0
  6
Continuous
 62
     4
100
AcDbLine
 10
140.132305
 20
188.8506149999997
 30
0.0
 11
140.132305
 21
171.6523349999999
 31
0.0
  0
LINE
  5
377
330
2B6
100
AcDbEntity
  8
0
  6
Continuous
 62
     4
100
AcDbLine
 10
131.969669569
 20
187.350765
 30
0.0
 11
138.3690295689999
 21
187.350765
 31
0.0
  0
LINE
  5
378
330
2B6
100
AcDbEntity
  8
0
  6
Continuous
 62
     4
100
AcDbLine
 10
138.3690295689999
 20
187.350765
 30
0.0
 11
138.619004569
 21
187.0008
 31
0.0
  0
LINE
  5
379
330
2B6
100
AcDbEntity
  8
0
  6
Continuous
 62
     4
100
AcDbLine
 10
138.619004569
 20
187.0008
 30
0.0
 11
137.1691495689999
 21
185.7509249999999
 31
0.0
  0
LINE
  5
37A
330
2B6
100
AcDbEntity
  8
0
  6
Continuous
 62
     4
100
AcDbLine
 10
137.1691495689999
 20
185.7509249999999
 30
0.0
 11
132.769589569
 21
185.7509249999999
 31
0.0
  0
LINE
  5
37B
330
2B6
100
AcDbEntity
  8
0
  6
Continuous
 62
     4
100
AcDbLine
 10
132.769589569
 20
185.7509249999999
 30
0.0
 11
131.6696995689998
 21
187.050795
 31
0.0
  0
LINE
  5
37C
330
2B6
100
AcDbEntity
  8
0
  6
Continuous
 62
     4
100
AcDbLine
 10
131.6696995689998
 20
187.050795
 30
0.0
 11
131.969669569
 21
187.350765
 31
0.0
  0
LINE
  5
37D
330
2B6
100
AcDbEntity
  8
0
  6
Continuous
 62
     4
100
AcDbLine
 10
138.818984569
 20
186.80082
 30
0.0
 11
137.319134569
 21
185.5009499999999
 31
0.0
  0
LINE
  5
37E
330
2B6
100
AcDbEntity
  8
0
  6
Continuous
 62
     4
100
AcDbLine
 10
137.319134569
 20
185.5009499999999
 30
0.0
 11
136.619204569
 21
181.20138
 31
0.0
  0
LINE
  5
37F
330
2B6
100
AcDbEntity
  8
0
  6
Continuous
 62
     4
100
AcDbLine
 10
136.619204569
 20
181.20138
 30
0.0
 11
137.2691395689995
 21
180.451455
 31
0.0
  0
LINE
  5
380
330
2B6
100
AcDbEntity
  8
0
  6
Continuous
 62
     4
100
AcDbLine
 10
137.2691395689995
 20
180.451455
 30
0.0
 11
138.269039569
 21
181.2513749999999
 31
0.0
  0
LINE
  5
381
330
2B6
100
AcDbEntity
  8
0
  6
Continuous
 62
     4
100
AcDbLine
 10
138.269039569
 20
181.2513749999999
 30
0.0
 11
139.0689595689998
 21
186.450855
 31
0.0
  0
LINE
  5
382
330
2B6
100
AcDbEntity
  8
0
  6
Continuous
 62
     4
100
AcDbLine
 10
139.0689595689998
 20
186.450855
 30
0.0
 11
138.818984569
 21
186.80082
 31
0.0
  0
LINE
  5
383
330
2B6
100
AcDbEntity
  8
0
  6
Continuous
 62
     4
100
AcDbLine
 10
131.969669569
 20
181.0513949999999
 30
0.0
 11
136.4192245689999
 21
181.0513949999999
 31
0.0
  0
LINE
  5
384
330
2B6
100
AcDbEntity
  8
0
  6
Continuous
 62
     4
100
AcDbLine
 10
136.4192245689999
 20
181.0513949999999
 30
0.0
 11
137.1191545689999
 21
180.251475
 31
0.0
  0
LINE
  5
385
330
2B6
100
AcDbEntity
  8
0
  6
Continuous
 62
     4
100
AcDbLine
 10
137.1191545689999
 20
180.251475
 30
0.0
 11
136.1692495689998
 21
179.451555
 31
0.0
  0
LINE
  5
386
330
2B6
100
AcDbEntity
  8
0
  6
Continuous
 62
     4
100
AcDbLine
 10
136.1692495689998
 20
179.451555
 30
0.0
 11
131.7196945689999
 21
179.451555
 31
0.0
  0
LINE
  5
387
330
2B6
100
AcDbEntity
  8
0
  6
Continuous
 62
     4
100
AcDbLine
 10
131.7196945689999
 20
179.451555
 30
0.0
 11
131.0697595689999
 21
180.251475
 31
0.0
  0
LINE
  5
388
330
2B6
100
AcDbEntity
  8
0
  6
Continuous
 62
     4
100
AcDbLine
 10
131.0697595689999
 20
180.251475
 30
0.0
 11
131.969669569
 21
181.0513949999999
 31
0.0
  0
LINE
  5
389
330
2B6
100
AcDbEntity
  8
0
  6
Continuous
 62
     4
100
AcDbLine
 10
136.319234569
 20
179.2515749999997
 30
0.0
 11
137.2691395689995
 21
180.0514949999999
 31
0.0
  0
LINE
  5
38A
330
2B6
100
AcDbEntity
  8
0
  6
Continuous
 62
     4
100
AcDbLine
 10
137.2691395689995
 20
180.0514949999999
 30
0.0
 11
137.919074569
 21
179.2515749999997
 31
0.0
  0
LINE
  5
38B
330
2B6
100
AcDbEntity
  8
0
  6
Continuous
 62
     4
100
AcDbLine
 10
137.919074569
 20
179.2515749999997
 30
0.0
 11
137.1191545689999
 21
174.2020799999996
 31
0.0
  0
LINE
  5
38C
330
2B6
100
AcDbEntity
  8
0
  6
Continuous
 62
     4
100
AcDbLine
 10
137.1191545689999
 20
174.2020799999996
 30
0.0
 11
136.569209569
 21
173.752125
 31
0.0
  0
LINE
  5
38D
330
2B6
100
AcDbEntity
  8
0
  6
Continuous
 62
     4
100
AcDbLine
 10
136.569209569
 20
173.752125
 30
0.0
 11
135.619304569
 21
174.9020099999999
 31
0.0
  0
LINE
  5
38E
330
2B6
100
AcDbEntity
  8
0
  6
Continuous
 62
     4
100
AcDbLine
 10
135.619304569
 20
174.9020099999999
 30
0.0
 11
136.319234569
 21
179.2515749999997
 31
0.0
  0
LINE
  5
38F
330
2B6
100
AcDbEntity
  8
0
  6
Continuous
 62
     4
100
AcDbLine
 10
130.9697695689999
 20
174.7520249999998
 30
0.0
 11
135.419324569
 21
174.7520249999998
 31
0.0
  0
LINE
  5
390
330
2B6
100
AcDbEntity
  8
0
  6
Continuous
 62
     4
100
AcDbLine
 10
135.419324569
 20
174.7520249999998
 30
0.0
 11
136.4692195689999
 21
173.452155
 31
0.0
  0
LINE
  5
391
330
2B6
100
AcDbEntity
  8
0
  6
Continuous
 62
     4
100
AcDbLine
 10
136.4692195689999
 20
173.452155
 30
0.0
 11
136.069259569
 21
173.152185
 31
0.0
  0
LINE
  5
392
330
2B6
100
AcDbEntity
  8
0
  6
Continuous
 62
     4
100
AcDbLine
 10
136.069259569
 20
173.152185
 30
0.0
 11
130.0198645689997
 21
173.152185
 31
0.0
  0
LINE
  5
393
330
2B6
100
AcDbEntity
  8
0
  6
Continuous
 62
     4
100
AcDbLine
 10
130.0198645689997
 20
173.152185
 30
0.0
 11
129.6698995689999
 21
173.552145
 31
0.0
  0
LINE
  5
394
330
2B6
100
AcDbEntity
  8
0
  6
Continuous
 62
     4
100
AcDbLine
 10
129.6698995689999
 20
173.552145
 30
0.0
 11
130.9697695689999
 21
174.7520249999998
 31
0.0
  0
LINE
  5
395
330
2B6
100
AcDbEntity
  8
0
  6
Continuous
 62
     4
100
AcDbLine
 10
130.819784569
 20
174.9020099999999
 30
0.0
 11
129.4699195689998
 21
173.80212
 31
0.0
  0
LINE
  5
396
330
2B6
100
AcDbEntity
  8
0
  6
Continuous
 62
     4
100
AcDbLine
 10
129.4699195689998
 20
173.80212
 30
0.0
 11
129.1199545689998
 21
174.2020799999996
 31
0.0
  0
LINE
  5
397
330
2B6
100
AcDbEntity
  8
0
  6
Continuous
 62
     4
100
AcDbLine
 10
129.1199545689998
 20
174.2020799999996
 30
0.0
 11
129.969869569
 21
179.3015699999999
 31
0.0
  0
LINE
  5
398
330
2B6
100
AcDbEntity
  8
0
  6
Continuous
 62
     4
100
AcDbLine
 10
129.969869569
 20
179.3015699999999
 30
0.0
 11
130.869779569
 21
180.0514949999999
 31
0.0
  0
LINE
  5
399
330
2B6
100
AcDbEntity
  8
0
  6
Continuous
 62
     4
100
AcDbLine
 10
130.869779569
 20
180.0514949999999
 30
0.0
 11
131.519714569
 21
179.2515749999997
 31
0.0
  0
LINE
  5
39A
330
2B6
100
AcDbEntity
  8
0
  6
Continuous
 62
     4
100
AcDbLine
 10
131.519714569
 20
179.2515749999997
 30
0.0
 11
130.819784569
 21
174.9020099999999
 31
0.0
  0
LINE
  5
39B
330
2B6
100
AcDbEntity
  8
0
  6
Continuous
 62
     4
100
AcDbLine
 10
130.269839569
 20
181.20138
 30
0.0
 11
130.9197745689999
 21
180.451455
 31
0.0
  0
LINE
  5
39C
330
2B6
100
AcDbEntity
  8
0
  6
Continuous
 62
     4
100
AcDbLine
 10
130.9197745689999
 20
180.451455
 30
0.0
 11
131.8196845689998
 21
181.20138
 31
0.0
  0
LINE
  5
39D
330
2B6
100
AcDbEntity
  8
0
  6
Continuous
 62
     4
100
AcDbLine
 10
131.8196845689998
 20
181.20138
 30
0.0
 11
132.5696095689999
 21
185.6009399999997
 31
0.0
  0
LINE
  5
39E
330
2B6
100
AcDbEntity
  8
0
  6
Continuous
 62
     4
100
AcDbLine
 10
132.5696095689999
 20
185.6009399999997
 30
0.0
 11
131.4697195689996
 21
186.8508149999999
 31
0.0
  0
LINE
  5
39F
330
2B6
100
AcDbEntity
  8
0
  6
Continuous
 62
     4
100
AcDbLine
 10
131.4697195689996
 20
186.8508149999999
 30
0.0
 11
131.119754569
 21
186.6008399999999
 31
0.0
  0
LINE
  5
3A0
330
2B6
100
AcDbEntity
  8
0
  6
Continuous
 62
     4
100
AcDbLine
 10
131.119754569
 20
186.6008399999999
 30
0.0
 11
130.269839569
 21
181.20138
 31
0.0
  0
LINE
  5
3A1
330
2B6
100
AcDbEntity
  8
0
  6
Continuous
 62
     4
100
AcDbLine
 10
119.220944569
 20
187.350765
 30
0.0
 11
125.6203045689999
 21
187.350765
 31
0.0
  0
LINE
  5
3A2
330
2B6
100
AcDbEntity
  8
0
  6
Continuous
 62
     4
100
AcDbLine
 10
125.6203045689999
 20
187.350765
 30
0.0
 11
125.8702795689998
 21
187.0008
 31
0.0
  0
LINE
  5
3A3
330
2B6
100
AcDbEntity
  8
0
  6
Continuous
 62
     4
100
AcDbLine
 10
125.8702795689998
 20
187.0008
 30
0.0
 11
124.4204245689999
 21
185.7509249999999
 31
0.0
  0
LINE
  5
3A4
330
2B6
100
AcDbEntity
  8
0
  6
Continuous
 62
     4
100
AcDbLine
 10
124.4204245689999
 20
185.7509249999999
 30
0.0
 11
120.020864569
 21
185.7509249999999
 31
0.0
  0
LINE
  5
3A5
330
2B6
100
AcDbEntity
  8
0
  6
Continuous
 62
     4
100
AcDbLine
 10
120.020864569
 20
185.7509249999999
 30
0.0
 11
118.9209745689999
 21
187.050795
 31
0.0
  0
LINE
  5
3A6
330
2B6
100
AcDbEntity
  8
0
  6
Continuous
 62
     4
100
AcDbLine
 10
118.9209745689999
 20
187.050795
 30
0.0
 11
119.220944569
 21
187.350765
 31
0.0
  0
LINE
  5
3A7
330
2B6
100
AcDbEntity
  8
0
  6
Continuous
 62
     4
100
AcDbLine
 10
126.0702595689999
 20
186.80082
 30
0.0
 11
124.5704095689999
 21
185.5009499999999
 31
0.0
  0
LINE
  5
3A8
330
2B6
100
AcDbEntity
  8
0
  6
Continuous
 62
     4
100
AcDbLine
 10
124.5704095689999
 20
185.5009499999999
 30
0.0
 11
123.8704795689999
 21
181.20138
 31
0.0
  0
LINE
  5
3A9
330
2B6
100
AcDbEntity
  8
0
  6
Continuous
 62
     4
100
AcDbLine
 10
123.8704795689999
 20
181.20138
 30
0.0
 11
124.520414569
 21
180.451455
 31
0.0
  0
LINE
  5
3AA
330
2B6
100
AcDbEntity
  8
0
  6
Continuous
 62
     4
100
AcDbLine
 10
124.520414569
 20
180.451455
 30
0.0
 11
125.5203145689998
 21
181.2513749999999
 31
0.0
  0
LINE
  5
3AB
330
2B6
100
AcDbEntity
  8
0
  6
Continuous
 62
     4
100
AcDbLine
 10
125.5203145689998
 20
181.2513749999999
 30
0.0
 11
126.3202345689998
 21
186.450855
 31
0.0
  0
LINE
  5
3AC
330
2B6
100
AcDbEntity
  8
0
  6
Continuous
 62
     4
100
AcDbLine
 10
126.3202345689998
 20
186.450855
 30
0.0
 11
126.0702595689999
 21
186.80082
 31
0.0
  0
LINE
  5
3AD
330
2B6
100
AcDbEntity
  8
0
  6
Continuous
 62
     4
100
AcDbLine
 10
119.220944569
 20
181.0513949999999
 30
0.0
 11
123.670499569
 21
181.0513949999999
 31
0.0
  0
LINE
  5
3AE
330
2B6
100
AcDbEntity
  8
0
  6
Continuous
 62
     4
100
AcDbLine
 10
123.670499569
 20
181.0513949999999
 30
0.0
 11
124.3704295689999
 21
180.251475
 31
0.0
  0
LINE
  5
3AF
330
2B6
100
AcDbEntity
  8
0
  6
Continuous
 62
     4
100
AcDbLine
 10
124.3704295689999
 20
180.251475
 30
0.0
 11
123.4205245689998
 21
179.451555
 31
0.0
  0
LINE
  5
3B0
330
2B6
100
AcDbEntity
  8
0
  6
Continuous
 62
     4
100
AcDbLine
 10
123.4205245689998
 20
179.451555
 30
0.0
 11
118.9709695689999
 21
179.451555
 31
0.0
  0
LINE
  5
3B1
330
2B6
100
AcDbEntity
  8
0
  6
Continuous
 62
     4
100
AcDbLine
 10
118.9709695689999
 20
179.451555
 30
0.0
 11
118.3210345689999
 21
180.251475
 31
0.0
  0
LINE
  5
3B2
330
2B6
100
AcDbEntity
  8
0
  6
Continuous
 62
     4
100
AcDbLine
 10
118.3210345689999
 20
180.251475
 30
0.0
 11
119.220944569
 21
181.0513949999999
 31
0.0
  0
LINE
  5
3B3
330
2B6
100
AcDbEntity
  8
0
  6
Continuous
 62
     4
100
AcDbLine
 10
123.5705095689999
 20
179.2515749999997
 30
0.0
 11
124.520414569
 21
180.0514949999999
 31
0.0
  0
LINE
  5
3B4
330
2B6
100
AcDbEntity
  8
0
  6
Continuous
 62
     4
100
AcDbLine
 10
124.520414569
 20
180.0514949999999
 30
0.0
 11
125.1703495689999
 21
179.2515749999997
 31
0.0
  0
LINE
  5
3B5
330
2B6
100
AcDbEntity
  8
0
  6
Continuous
 62
     4
100
AcDbLine
 10
125.1703495689999
 20
179.2515749999997
 30
0.0
 11
124.3704295689999
 21
174.2020799999996
 31
0.0
  0
LINE
  5
3B6
330
2B6
100
AcDbEntity
  8
0
  6
Continuous
 62
     4
100
AcDbLine
 10
124.3704295689999
 20
174.2020799999996
 30
0.0
 11
123.820484569
 21
173.752125
 31
0.0
  0
LINE
  5
3B7
330
2B6
100
AcDbEntity
  8
0
  6
Continuous
 62
     4
100
AcDbLine
 10
123.820484569
 20
173.752125
 30
0.0
 11
122.870579569
 21
174.9020099999999
 31
0.0
  0
LINE
  5
3B8
330
2B6
100
AcDbEntity
  8
0
  6
Continuous
 62
     4
100
AcDbLine
 10
122.870579569
 20
174.9020099999999
 30
0.0
 11
123.5705095689999
 21
179.2515749999997
 31
0.0
  0
LINE
  5
3B9
330
2B6
100
AcDbEntity
  8
0
  6
Continuous
 62
     4
100
AcDbLine
 10
118.221044569
 20
174.7520249999998
 30
0.0
 11
122.6705995689999
 21
174.7520249999998
 31
0.0
  0
LINE
  5
3BA
330
2B6
100
AcDbEntity
  8
0
  6
Continuous
 62
     4
100
AcDbLine
 10
122.6705995689999
 20
174.7520249999998
 30
0.0
 11
123.720494569
 21
173.452155
 31
0.0
  0
LINE
  5
3BB
330
2B6
100
AcDbEntity
  8
0
  6
Continuous
 62
     4
100
AcDbLine
 10
123.720494569
 20
173.452155
 30
0.0
 11
123.320534569
 21
173.152185
 31
0.0
  0
LINE
  5
3BC
330
2B6
100
AcDbEntity
  8
0
  6
Continuous
 62
     4
100
AcDbLine
 10
123.320534569
 20
173.152185
 30
0.0
 11
117.2711395689999
 21
173.152185
 31
0.0
  0
LINE
  5
3BD
330
2B6
100
AcDbEntity
  8
0
  6
Continuous
 62
     4
100
AcDbLine
 10
117.2711395689999
 20
173.152185
 30
0.0
 11
116.9211745689999
 21
173.552145
 31
0.0
  0
LINE
  5
3BE
330
2B6
100
AcDbEntity
  8
0
  6
Continuous
 62
     4
100
AcDbLine
 10
116.9211745689999
 20
173.552145
 30
0.0
 11
118.221044569
 21
174.7520249999998
 31
0.0
  0
LINE
  5
3BF
330
2B6
100
AcDbEntity
  8
0
  6
Continuous
 62
     4
100
AcDbLine
 10
118.0710595689999
 20
174.9020099999999
 30
0.0
 11
116.7211945689998
 21
173.80212
 31
0.0
  0
LINE
  5
3C0
330
2B6
100
AcDbEntity
  8
0
  6
Continuous
 62
     4
100
AcDbLine
 10
116.7211945689998
 20
173.80212
 30
0.0
 11
116.3712295689998
 21
174.2020799999996
 31
0.0
  0
LINE
  5
3C1
330
2B6
100
AcDbEntity
  8
0
  6
Continuous
 62
     4
100
AcDbLine
 10
116.3712295689998
 20
174.2020799999996
 30
0.0
 11
117.2211445689999
 21
179.3015699999999
 31
0.0
  0
LINE
  5
3C2
330
2B6
100
AcDbEntity
  8
0
  6
Continuous
 62
     4
100
AcDbLine
 10
117.2211445689999
 20
179.3015699999999
 30
0.0
 11
118.1210545689999
 21
180.0514949999999
 31
0.0
  0
LINE
  5
3C3
330
2B6
100
AcDbEntity
  8
0
  6
Continuous
 62
     4
100
AcDbLine
 10
118.1210545689999
 20
180.0514949999999
 30
0.0
 11
118.770989569
 21
179.2515749999997
 31
0.0
  0
LINE
  5
3C4
330
2B6
100
AcDbEntity
  8
0
  6
Continuous
 62
     4
100
AcDbLine
 10
118.770989569
 20
179.2515749999997
 30
0.0
 11
118.0710595689999
 21
174.9020099999999
 31
0.0
  0
LINE
  5
3C5
330
2B6
100
AcDbEntity
  8
0
  6
Continuous
 62
     4
100
AcDbLine
 10
117.5211145689999
 20
181.20138
 30
0.0
 11
118.1710495689999
 21
180.451455
 31
0.0
  0
LINE
  5
3C6
330
2B6
100
AcDbEntity
  8
0
  6
Continuous
 62
     4
100
AcDbLine
 10
118.1710495689999
 20
180.451455
 30
0.0
 11
119.070959569
 21
181.20138
 31
0.0
  0
LINE
  5
3C7
330
2B6
100
AcDbEntity
  8
0
  6
Continuous
 62
     4
100
AcDbLine
 10
119.070959569
 20
181.20138
 30
0.0
 11
119.8208845689999
 21
185.6009399999997
 31
0.0
  0
LINE
  5
3C8
330
2B6
100
AcDbEntity
  8
0
  6
Continuous
 62
     4
100
AcDbLine
 10
119.8208845689999
 20
185.6009399999997
 30
0.0
 11
118.720994569
 21
186.8508149999999
 31
0.0
  0
LINE
  5
3C9
330
2B6
100
AcDbEntity
  8
0
  6
Continuous
 62
     4
100
AcDbLine
 10
118.720994569
 20
186.8508149999999
 30
0.0
 11
118.371029569
 21
186.6008399999999
 31
0.0
  0
LINE
  5
3CA
330
2B6
100
AcDbEntity
  8
0
  6
Continuous
 62
     4
100
AcDbLine
 10
118.371029569
 20
186.6008399999999
 30
0.0
 11
117.5211145689999
 21
181.20138
 31
0.0
  0
CIRCLE
  5
3CB
330
2B6
100
AcDbEntity
  8
0
  6
Continuous
 62
     4
100
AcDbCircle
 10
125.920274569
 20
174.2020799999996
 30
0.0
 40
0.79992
  0
LINE
  5
3CC
330
2B6
100
AcDbEntity
  8
0
  6
Continuous
 62
     4
100
AcDbLine
 10
112.871579569
 20
187.350765
 30
0.0
 11
113.1215545689999
 21
187.0008
 31
0.0
  0
LINE
  5
3CD
330
2B6
100
AcDbEntity
  8
0
  6
Continuous
 62
     4
100
AcDbLine
 10
113.1215545689999
 20
187.0008
 30
0.0
 11
111.671699569
 21
185.7509249999999
 31
0.0
  0
LINE
  5
3CE
330
2B6
100
AcDbEntity
  8
0
  6
Continuous
 62
     4
100
AcDbLine
 10
113.321534569
 20
186.80082
 30
0.0
 11
111.8216845689999
 21
185.5009499999999
 31
0.0
  0
LINE
  5
3CF
330
2B6
100
AcDbEntity
  8
0
  6
Continuous
 62
     4
100
AcDbLine
 10
111.8216845689999
 20
185.5009499999999
 30
0.0
 11
111.1217545689999
 21
181.20138
 31
0.0
  0
LINE
  5
3D0
330
2B6
100
AcDbEntity
  8
0
  6
Continuous
 62
     4
100
AcDbLine
 10
111.1217545689999
 20
181.20138
 30
0.0
 11
111.771689569
 21
180.451455
 31
0.0
  0
LINE
  5
3D1
330
2B6
100
AcDbEntity
  8
0
  6
Continuous
 62
     4
100
AcDbLine
 10
111.771689569
 20
180.451455
 30
0.0
 11
112.7715895689999
 21
181.2513749999999
 31
0.0
  0
LINE
  5
3D2
330
2B6
100
AcDbEntity
  8
0
  6
Continuous
 62
     4
100
AcDbLine
 10
112.7715895689999
 20
181.2513749999999
 30
0.0
 11
113.5715095689999
 21
186.450855
 31
0.0
  0
LINE
  5
3D3
330
2B6
100
AcDbEntity
  8
0
  6
Continuous
 62
     4
100
AcDbLine
 10
113.5715095689999
 20
186.450855
 30
0.0
 11
113.321534569
 21
186.80082
 31
0.0
  0
LINE
  5
3D4
330
2B6
100
AcDbEntity
  8
0
  6
Continuous
 62
     4
100
AcDbLine
 10
106.4722195689999
 20
181.0513949999999
 30
0.0
 11
110.9217745689998
 21
181.0513949999999
 31
0.0
  0
LINE
  5
3D5
330
2B6
100
AcDbEntity
  8
0
  6
Continuous
 62
     4
100
AcDbLine
 10
110.9217745689998
 20
181.0513949999999
 30
0.0
 11
111.621704569
 21
180.251475
 31
0.0
  0
LINE
  5
3D6
330
2B6
100
AcDbEntity
  8
0
  6
Continuous
 62
     4
100
AcDbLine
 10
111.621704569
 20
180.251475
 30
0.0
 11
110.6717995689999
 21
179.451555
 31
0.0
  0
LINE
  5
3D7
330
2B6
100
AcDbEntity
  8
0
  6
Continuous
 62
     4
100
AcDbLine
 10
105.5723095689999
 20
180.251475
 30
0.0
 11
106.4722195689999
 21
181.0513949999999
 31
0.0
  0
LINE
  5
3D8
330
2B6
100
AcDbEntity
  8
0
  6
Continuous
 62
     4
100
AcDbLine
 10
110.821784569
 20
179.2515749999997
 30
0.0
 11
111.771689569
 21
180.0514949999999
 31
0.0
  0
LINE
  5
3D9
330
2B6
100
AcDbEntity
  8
0
  6
Continuous
 62
     4
100
AcDbLine
 10
111.771689569
 20
180.0514949999999
 30
0.0
 11
112.421624569
 21
179.2515749999997
 31
0.0
  0
LINE
  5
3DA
330
2B6
100
AcDbEntity
  8
0
  6
Continuous
 62
     4
100
AcDbLine
 10
112.421624569
 20
179.2515749999997
 30
0.0
 11
111.621704569
 21
174.2020799999996
 31
0.0
  0
LINE
  5
3DB
330
2B6
100
AcDbEntity
  8
0
  6
Continuous
 62
     4
100
AcDbLine
 10
111.621704569
 20
174.2020799999996
 30
0.0
 11
111.0717595689998
 21
173.752125
 31
0.0
  0
LINE
  5
3DC
330
2B6
100
AcDbEntity
  8
0
  6
Continuous
 62
     4
100
AcDbLine
 10
111.0717595689998
 20
173.752125
 30
0.0
 11
110.1218545689998
 21
174.9020099999999
 31
0.0
  0
LINE
  5
3DD
330
2B6
100
AcDbEntity
  8
0
  6
Continuous
 62
     4
100
AcDbLine
 10
110.1218545689998
 20
174.9020099999999
 30
0.0
 11
110.821784569
 21
179.2515749999997
 31
0.0
  0
LINE
  5
3DE
330
2B6
100
AcDbEntity
  8
0
  6
Continuous
 62
     4
100
AcDbLine
 10
109.9218745689998
 20
174.7520249999998
 30
0.0
 11
110.971769569
 21
173.452155
 31
0.0
  0
LINE
  5
3DF
330
2B6
100
AcDbEntity
  8
0
  6
Continuous
 62
     4
100
AcDbLine
 10
110.971769569
 20
173.452155
 30
0.0
 11
110.5718095689999
 21
173.152185
 31
0.0
  0
LINE
  5
3E0
330
2B6
100
AcDbEntity
  8
0
  6
Continuous
 62
     4
100
AcDbLine
 10
104.7723895689999
 20
181.20138
 30
0.0
 11
105.422324569
 21
180.451455
 31
0.0
  0
LINE
  5
3E1
330
2B6
100
AcDbEntity
  8
0
  6
Continuous
 62
     4
100
AcDbLine
 10
105.422324569
 20
180.451455
 30
0.0
 11
106.322234569
 21
181.20138
 31
0.0
  0
CIRCLE
  5
3E2
330
2B6
100
AcDbEntity
  8
0
  6
Continuous
 62
     4
100
AcDbCircle
 10
113.1715495689998
 20
174.2020799999996
 30
0.0
 40
0.79992
  0
LINE
  5
3E3
330
2B6
100
AcDbEntity
  8
0
  6
Continuous
 62
     4
100
AcDbLine
 10
106.4722195689999
 20
187.350765
 30
0.0
 11
112.871579569
 21
187.350765
 31
0.0
  0
LINE
  5
3E4
330
2B6
100
AcDbEntity
  8
0
  6
Continuous
 62
     4
100
AcDbLine
 10
111.671699569
 20
185.7509249999999
 30
0.0
 11
107.2721395689999
 21
185.7509249999999
 31
0.0
  0
LINE
  5
3E5
330
2B6
100
AcDbEntity
  8
0
  6
Continuous
 62
     4
100
AcDbLine
 10
107.2721395689999
 20
185.7509249999999
 30
0.0
 11
106.1722495689999
 21
187.050795
 31
0.0
  0
LINE
  5
3E6
330
2B6
100
AcDbEntity
  8
0
  6
Continuous
 62
     4
100
AcDbLine
 10
106.1722495689999
 20
187.050795
 30
0.0
 11
106.4722195689999
 21
187.350765
 31
0.0
  0
LINE
  5
3E7
330
2B6
100
AcDbEntity
  8
0
  6
Continuous
 62
     4
100
AcDbLine
 10
106.322234569
 20
181.20138
 30
0.0
 11
107.072159569
 21
185.6009399999997
 31
0.0
  0
LINE
  5
3E8
330
2B6
100
AcDbEntity
  8
0
  6
Continuous
 62
     4
100
AcDbLine
 10
107.072159569
 20
185.6009399999997
 30
0.0
 11
105.9722695689998
 21
186.8508149999999
 31
0.0
  0
LINE
  5
3E9
330
2B6
100
AcDbEntity
  8
0
  6
Continuous
 62
     4
100
AcDbLine
 10
105.9722695689998
 20
186.8508149999999
 30
0.0
 11
105.6223045689998
 21
186.6008399999999
 31
0.0
  0
LINE
  5
3EA
330
2B6
100
AcDbEntity
  8
0
  6
Continuous
 62
     4
100
AcDbLine
 10
105.6223045689998
 20
186.6008399999999
 30
0.0
 11
104.7723895689999
 21
181.20138
 31
0.0
  0
LINE
  5
3EB
330
2B6
100
AcDbEntity
  8
0
  6
Continuous
 62
     4
100
AcDbLine
 10
110.6717995689999
 20
179.451555
 30
0.0
 11
106.222244569
 21
179.451555
 31
0.0
  0
LINE
  5
3EC
330
2B6
100
AcDbEntity
  8
0
  6
Continuous
 62
     4
100
AcDbLine
 10
106.222244569
 20
179.451555
 30
0.0
 11
105.5723095689999
 21
180.251475
 31
0.0
  0
LINE
  5
3ED
330
2B6
100
AcDbEntity
  8
0
  6
Continuous
 62
     4
100
AcDbLine
 10
105.4723195689998
 20
174.7520249999998
 30
0.0
 11
109.9218745689998
 21
174.7520249999998
 31
0.0
  0
LINE
  5
3EE
330
2B6
100
AcDbEntity
  8
0
  6
Continuous
 62
     4
100
AcDbLine
 10
110.5718095689999
 20
173.152185
 30
0.0
 11
104.5224145689999
 21
173.152185
 31
0.0
  0
LINE
  5
3EF
330
2B6
100
AcDbEntity
  8
0
  6
Continuous
 62
     4
100
AcDbLine
 10
104.5224145689999
 20
173.152185
 30
0.0
 11
104.172449569
 21
173.552145
 31
0.0
  0
LINE
  5
3F0
330
2B6
100
AcDbEntity
  8
0
  6
Continuous
 62
     4
100
AcDbLine
 10
104.172449569
 20
173.552145
 30
0.0
 11
105.4723195689998
 21
174.7520249999998
 31
0.0
  0
LINE
  5
3F1
330
2B6
100
AcDbEntity
  8
0
  6
Continuous
 62
     4
100
AcDbLine
 10
105.3223345689999
 20
174.9020099999999
 30
0.0
 11
103.9724695689999
 21
173.80212
 31
0.0
  0
LINE
  5
3F2
330
2B6
100
AcDbEntity
  8
0
  6
Continuous
 62
     4
100
AcDbLine
 10
103.6225045689999
 20
174.2020799999996
 30
0.0
 11
104.4724195689999
 21
179.3015699999999
 31
0.0
  0
LINE
  5
3F3
330
2B6
100
AcDbEntity
  8
0
  6
Continuous
 62
     4
100
AcDbLine
 10
104.4724195689999
 20
179.3015699999999
 30
0.0
 11
105.372329569
 21
180.0514949999999
 31
0.0
  0
LINE
  5
3F4
330
2B6
100
AcDbEntity
  8
0
  6
Continuous
 62
     4
100
AcDbLine
 10
105.372329569
 20
180.0514949999999
 30
0.0
 11
106.022264569
 21
179.2515749999997
 31
0.0
  0
LINE
  5
3F5
330
2B6
100
AcDbEntity
  8
0
  6
Continuous
 62
     4
100
AcDbLine
 10
106.022264569
 20
179.2515749999997
 30
0.0
 11
105.3223345689999
 21
174.9020099999999
 31
0.0
  0
LINE
  5
3F6
330
2B6
100
AcDbEntity
  8
0
  6
Continuous
 62
     4
100
AcDbLine
 10
89.419195
 20
171.6523349999999
 30
0.0
 11
89.419195
 21
188.8506149999997
 31
0.0
  0
LINE
  5
3F7
330
2B6
100
AcDbEntity
  8
0
  6
Continuous
 62
     4
100
AcDbLine
 10
100.5046345689998
 20
186.80082
 30
0.0
 11
99.004784569
 21
185.5009499999999
 31
0.0
  0
LINE
  5
3F8
330
2B6
100
AcDbEntity
  8
0
  6
Continuous
 62
     4
100
AcDbLine
 10
99.004784569
 20
185.5009499999999
 30
0.0
 11
98.30485456899998
 21
181.20138
 31
0.0
  0
LINE
  5
3F9
330
2B6
100
AcDbEntity
  8
0
  6
Continuous
 62
     4
100
AcDbLine
 10
98.30485456899998
 20
181.20138
 30
0.0
 11
98.95478956899998
 21
180.451455
 31
0.0
  0
LINE
  5
3FA
330
2B6
100
AcDbEntity
  8
0
  6
Continuous
 62
     4
100
AcDbLine
 10
98.95478956899998
 20
180.451455
 30
0.0
 11
99.95468956899999
 21
181.2513749999999
 31
0.0
  0
LINE
  5
3FB
330
2B6
100
AcDbEntity
  8
0
  6
Continuous
 62
     4
100
AcDbLine
 10
99.95468956899999
 20
181.2513749999999
 30
0.0
 11
100.7546095689999
 21
186.450855
 31
0.0
  0
LINE
  5
3FC
330
2B6
100
AcDbEntity
  8
0
  6
Continuous
 62
     4
100
AcDbLine
 10
100.7546095689999
 20
186.450855
 30
0.0
 11
100.5046345689998
 21
186.80082
 31
0.0
  0
LINE
  5
3FD
330
2B6
100
AcDbEntity
  8
0
  6
Continuous
 62
     4
100
AcDbLine
 10
93.65531956899998
 20
181.0513949999999
 30
0.0
 11
98.104874569
 21
181.0513949999999
 31
0.0
  0
LINE
  5
3FE
330
2B6
100
AcDbEntity
  8
0
  6
Continuous
 62
     4
100
AcDbLine
 10
98.104874569
 20
181.0513949999999
 30
0.0
 11
98.804804569
 21
180.251475
 31
0.0
  0
LINE
  5
3FF
330
2B6
100
AcDbEntity
  8
0
  6
Continuous
 62
     4
100
AcDbLine
 10
98.804804569
 20
180.251475
 30
0.0
 11
97.85489956900001
 21
179.451555
 31
0.0
  0
LINE
  5
400
330
2B6
100
AcDbEntity
  8
0
  6
Continuous
 62
     4
100
AcDbLine
 10
92.755409569
 20
180.251475
 30
0.0
 11
93.65531956899998
 21
181.0513949999999
 31
0.0
  0
LINE
  5
401
330
2B6
100
AcDbEntity
  8
0
  6
Continuous
 62
     4
100
AcDbLine
 10
98.004884569
 20
179.2515749999997
 30
0.0
 11
98.95478956899998
 21
180.0514949999999
 31
0.0
  0
LINE
  5
402
330
2B6
100
AcDbEntity
  8
0
  6
Continuous
 62
     4
100
AcDbLine
 10
98.95478956899998
 20
180.0514949999999
 30
0.0
 11
99.60472456899999
 21
179.2515749999997
 31
0.0
  0
LINE
  5
403
330
2B6
100
AcDbEntity
  8
0
  6
Continuous
 62
     4
100
AcDbLine
 10
99.60472456899999
 20
179.2515749999997
 30
0.0
 11
98.804804569
 21
174.2020799999996
 31
0.0
  0
LINE
  5
404
330
2B6
100
AcDbEntity
  8
0
  6
Continuous
 62
     4
100
AcDbLine
 10
98.804804569
 20
174.2020799999996
 30
0.0
 11
98.25485956899999
 21
173.752125
 31
0.0
  0
LINE
  5
405
330
2B6
100
AcDbEntity
  8
0
  6
Continuous
 62
     4
100
AcDbLine
 10
98.25485956899999
 20
173.752125
 30
0.0
 11
97.30495456900001
 21
174.9020099999999
 31
0.0
  0
LINE
  5
406
330
2B6
100
AcDbEntity
  8
0
  6
Continuous
 62
     4
100
AcDbLine
 10
97.30495456900001
 20
174.9020099999999
 30
0.0
 11
98.004884569
 21
179.2515749999997
 31
0.0
  0
CIRCLE
  5
407
330
2B6
100
AcDbEntity
  8
0
  6
Continuous
 62
     4
100
AcDbCircle
 10
100.3546495689999
 20
174.2020799999996
 30
0.0
 40
0.79992
  0
LINE
  5
408
330
2B6
100
AcDbEntity
  8
0
  6
Continuous
 62
     4
100
AcDbLine
 10
97.85489956900001
 20
179.451555
 30
0.0
 11
93.405344569
 21
179.451555
 31
0.0
  0
LINE
  5
409
330
2B6
100
AcDbEntity
  8
0
  6
Continuous
 62
     4
100
AcDbLine
 10
93.405344569
 20
179.451555
 30
0.0
 11
92.755409569
 21
180.251475
 31
0.0
  0
LINE
  5
40A
330
2B6
100
AcDbEntity
  8
0
  6
Continuous
 62
     4
100
AcDbLine
 10
89.419195
 20
188.8506149999997
 30
0.0
 11
140.132305
 21
188.8506149999997
 31
0.0
  0
LINE
  5
40B
330
2B6
100
AcDbEntity
  8
0
  6
Continuous
 62
     4
100
AcDbLine
 10
140.132305
 20
171.6523349999999
 30
0.0
 11
89.419195
 21
171.6523349999999
 31
0.0
  0
LINE
  5
40C
330
2B6
100
AcDbEntity
  8
0
  6
Continuous
 62
     4
100
AcDbLine
 10
114.7530249999997
 20
188.8324349999997
 30
0.0
 11
114.7530249999997
 21
171.7432349999999
 31
0.0
  0
CIRCLE
  5
40D
330
2B6
100
AcDbEntity
  8
0
  6
Continuous
 62
     4
100
AcDbCircle
 10
87.17396499999997
 20
187.287135
 30
0.0
 40
1.09989
  0
LINE
  5
410
330
2B6
100
AcDbEntity
  8
0
  6
Continuous
 62
     3
100
AcDbLine
 10
141.4958049999999
 20
174.761115
 30
0.0
 11
148.767805
 21
174.761115
 31
0.0
  0
CIRCLE
  5
411
330
2B6
100
AcDbEntity
  8
0
  6
Continuous
 62
     4
100
AcDbCircle
 10
83.25617499999998
 20
175.171983
 30
0.0
 40
0.79992
  0
CIRCLE
  5
412
330
2B6
100
AcDbEntity
  8
0
  6
Continuous
 62
     4
100
AcDbCircle
 10
83.25617499999998
 20
172.632237
 30
0.0
 40
0.79992
  0
CIRCLE
  5
413
330
2B6
100
AcDbEntity
  8
0
  6
Continuous
 62
     4
100
AcDbCircle
 10
142.2320949999999
 20
176.044623
 30
0.0
 40
0.79992
  0
CIRCLE
  5
414
330
2B6
100
AcDbEntity
  8
0
  6
Continuous
 62
     4
100
AcDbCircle
 10
142.2320949999999
 20
173.5048769999999
 30
0.0
 40
0.79992
  0
LINE
  5
415
330
2B6
100
AcDbEntity
  8
0
  6
LTYPE1
 62
     4
100
AcDbLine
 10
85.45595500000002
 20
189.150585
 30
0.0
 11
85.45595500000002
 21
171.3523649999999
 31
0.0
  0
LINE
  5
416
330
2B6
100
AcDbEntity
  8
0
  6
LTYPE1
 62
     4
100
AcDbLine
 10
85.45595500000002
 20
171.3523649999999
 30
0.0
 11
81.25637500000001
 21
171.3523649999999
 31
0.0
  0
LINE
  5
417
330
2B6
100
AcDbEntity
  8
0
  6
LTYPE1
 62
     4
100
AcDbLine
 10
81.25637500000001
 20
189.150585
 30
0.0
 11
85.45595500000002
 21
189.150585
 31
0.0
  0
LINE
  5
418
330
2B6
100
AcDbEntity
  8
0
  6
LTYPE1
 62
     4
100
AcDbLine
 10
81.25637500000001
 20
171.3523649999999
 30
0.0
 11
81.25637500000001
 21
189.150585
 31
0.0
  0
LINE
  5
419
330
2B6
100
AcDbEntity
  8
0
  6
LTYPE1
 62
     4
100
AcDbLine
 10
140.232295
 20
177.388125
 30
0.0
 11
140.232295
 21
172.225005
 31
0.0
  0
LINE
  5
41A
330
2B6
100
AcDbEntity
  8
0
  6
LTYPE1
 62
     4
100
AcDbLine
 10
144.4500549999998
 20
172.188645
 30
0.0
 11
144.4500549999998
 21
174.2611649999998
 31
0.0
  0
LINE
  5
41B
330
2B6
100
AcDbEntity
  8
0
  6
Continuous
 62
     4
100
AcDbLine
 10
144.4500549999998
 20
174.279345
 30
0.0
 11
144.4500549999998
 21
177.388125
 31
0.0
  0
LINE
  5
41C
330
2B6
100
AcDbEntity
  8
0
  6
LTYPE1
 62
     4
100
AcDbLine
 10
144.4318749999998
 20
172.225005
 30
0.0
 11
140.232295
 21
172.225005
 31
0.0
  0
LINE
  5
41D
330
2B6
100
AcDbEntity
  8
0
  6
LTYPE1
 62
     4
100
AcDbLine
 10
144.4318749999998
 20
177.388125
 30
0.0
 11
140.232295
 21
177.388125
 31
0.0
  0
LINE
  5
41E
330
2B6
100
AcDbEntity
  8
0
  6
Continuous
 62
     3
100
AcDbLine
 10
100.2771999999997
 20
173.11128
 30
0.0
 11
100.2771999999997
 21
170.3842799999998
 31
0.0
  0
LINE
  5
41F
330
2B6
100
AcDbEntity
  8
0
  6
Continuous
 62
     3
100
AcDbLine
 10
113.3667999999999
 20
173.11128
 30
0.0
 11
113.3667999999999
 21
170.3842799999998
 31
0.0
  0
LINE
  5
420
330
2B6
100
AcDbEntity
  8
0
  6
Continuous
 62
     3
100
AcDbLine
 10
125.9109999999999
 20
173.11128
 30
0.0
 11
125.9109999999999
 21
170.3842799999998
 31
0.0
  0
LINE
  5
424
330
2B6
100
AcDbEntity
  8
0
  6
Continuous
 62
     3
100
AcDbLine
 10
148.449655
 20
180.242385
 30
0.0
 11
148.449655
 21
174.770205
 31
0.0
  0
LINE
  5
425
330
2B6
100
AcDbEntity
  8
0
  6
Continuous
 62
     3
100
AcDbLine
 10
148.449655
 20
180.251475
 30
0.0
 11
147.904255
 21
178.433475
 31
0.0
  0
LINE
  5
426
330
2B6
100
AcDbEntity
  8
0
  6
Continuous
 62
     3
100
AcDbLine
 10
148.449655
 20
180.251475
 30
0.0
 11
148.995055
 21
178.433475
 31
0.0
  0
LINE
  5
427
330
2B6
100
AcDbEntity
  8
0
  6
Continuous
 62
     3
100
AcDbLine
 10
148.449655
 20
174.761115
 30
0.0
 11
147.904255
 21
176.3973149999999
 31
0.0
  0
LINE
  5
428
330
2B6
100
AcDbEntity
  8
0
  6
Continuous
 62
     3
100
AcDbLine
 10
148.449655
 20
174.761115
 30
0.0
 11
148.995055
 21
176.3973149999999
 31
0.0
  0
TEXT
  5
429
330
2B6
100
AcDbEntity
  8
0
  6
Continuous
 62
     3
100
AcDbText
 10
147.9692484999999
 20
177.1554209999999
 30
0.0
 40
3.2724
  1
５.５
 50
90.0
 41
0.5555555560000001
  7
KANJI1
100
AcDbText
  0
LINE
  5
42A
330
2B6
100
AcDbEntity
  8
0
  6
LTYPE2
 62
     3
100
AcDbLine
 10
147.5406549999999
 20
180.251475
 30
0.0
 11
149.1768549999999
 21
180.251475
 31
0.0
  0
TEXT
  5
42B
330
2B6
100
AcDbEntity
  8
0
  6
Continuous
 62
     3
100
AcDbText
 10
123.7034935
 20
166.424676
 30
0.0
 40
3.636
  1
ＤＰ１
 41
0.5
  7
KANJI2
100
AcDbText
  0
TEXT
  5
42C
330
2B6
100
AcDbEntity
  8
0
  6
Continuous
 62
     3
100
AcDbText
 10
110.6138935
 20
166.6064759999999
 30
0.0
 40
3.636
  1
ＤＰ２
 41
0.5
  7
KANJI2
100
AcDbText
  0
TEXT
  5
42D
330
2B6
100
AcDbEntity
  8
0
  6
Continuous
 62
     3
100
AcDbText
 10
97.88789350000001
 20
166.424676
 30
0.0
 40
3.636
  1
ＤＰ３
 41
0.5
  7
KANJI2
100
AcDbText
  0
LINE
  5
42E
330
2B6
100
AcDbEntity
  8
0
  6
Continuous
 62
     3
100
AcDbLine
 10
71.09829999999998
 20
195.0
 30
0.0
 11
71.09829999999998
 21
165.5029499999999
 31
0.0
  0
LINE
  5
42F
330
2B6
100
AcDbEntity
  8
0
  6
Continuous
 62
     3
100
AcDbLine
 10
71.09829999999998
 20
165.5029499999999
 30
0.0
 11
70.59834999999998
 21
167.0028
 31
0.0
  0
LINE
  5
430
330
2B6
100
AcDbEntity
  8
0
  6
Continuous
 62
     3
100
AcDbLine
 10
71.59824999999995
 20
167.0028
 30
0.0
 11
71.09829999999998
 21
165.5029499999999
 31
0.0
  0
LINE
  5
431
330
2B6
100
AcDbEntity
  8
0
  6
Continuous
 62
     3
100
AcDbLine
 10
71.0633035
 20
194.990001
 30
0.0
 11
70.56335350000002
 21
193.4901509999999
 31
0.0
  0
LINE
  5
432
330
2B6
100
AcDbEntity
  8
0
  6
Continuous
 62
     3
100
AcDbLine
 10
71.5632535
 20
193.4901509999999
 30
0.0
 11
71.0633035
 21
194.990001
 31
0.0
  0
TEXT
  5
433
330
2B6
100
AcDbEntity
  8
0
  6
Continuous
 62
     3
100
AcDbText
 10
69.65435349999999
 20
176.4054959999999
 30
0.0
 40
3.636
  1
２９.５
 50
90.0
 41
0.5
  7
KANJI2
100
AcDbText
  0
TEXT
  5
434
330
2B6
100
AcDbEntity
  8
0
  6
Continuous
 62
     3
100
AcDbText
 10
75.54012850000002
 20
181.382271
 30
0.0
 40
3.636
  1
２３
 50
90.0
 41
0.5
  7
KANJI2
100
AcDbText
  0
LINE
  5
435
330
2B6
100
AcDbEntity
  8
0
  6
Continuous
 62
     3
100
AcDbLine
 10
80.0065
 20
195.0
 30
0.0
 11
69.54845500000001
 21
195.0
 31
0.0
  0
LINE
  5
436
330
2B6
100
AcDbEntity
  8
0
  6
Continuous
 62
     3
100
AcDbLine
 10
69.184855
 20
165.5029499999999
 30
0.0
 11
80.0065
 21
165.5029499999999
 31
0.0
  0
TEXT
  5
439
330
2B6
100
AcDbEntity
  8
0
  6
Continuous
 62
     3
100
AcDbText
 10
78.56118999999998
 20
179.3561099999998
 30
0.5454
 40
2.181599999999999
  1
４
 41
0.625
  7
KANJI3
100
AcDbText
  0
TEXT
  5
43A
330
2B6
100
AcDbEntity
  8
0
  6
Continuous
 62
     3
100
AcDbText
 10
78.56118999999998
 20
171.53871
 30
0.5454
 40
2.181599999999999
  1
７
 41
0.625
  7
KANJI3
100
AcDbText
  0
TEXT
  5
43B
330
2B6
100
AcDbEntity
  8
0
  6
Continuous
 62
     3
100
AcDbText
 10
78.56118999999998
 20
174.08391
 30
0.5454
 40
2.181599999999999
  1
６
 41
0.625
  7
KANJI3
100
AcDbText
  0
TEXT
  5
43C
330
2B6
100
AcDbEntity
  8
0
  6
Continuous
 62
     3
100
AcDbText
 10
78.56118999999998
 20
176.62911
 30
0.5454
 40
2.181599999999999
  1
５
 41
0.625
  7
KANJI3
100
AcDbText
  0
TEXT
  5
43D
330
2B6
100
AcDbEntity
  8
0
  6
Continuous
 62
     3
100
AcDbText
 10
78.56118999999998
 20
186.99171
 30
0.5454
 40
2.181599999999999
  1
１
 41
0.625
  7
KANJI3
100
AcDbText
  0
TEXT
  5
43E
330
2B6
100
AcDbEntity
  8
0
  6
Continuous
 62
     3
100
AcDbText
 10
78.56118999999998
 20
184.26471
 30
0.5454
 40
2.181599999999999
  1
２
 41
0.625
  7
KANJI3
100
AcDbText
  0
TEXT
  5
43F
330
2B6
100
AcDbEntity
  8
0
  6
Continuous
 62
     3
100
AcDbText
 10
78.56118999999998
 20
181.71951
 30
0.5454
 40
2.181599999999999
  1
３
 41
0.625
  7
KANJI3
100
AcDbText
  0
LINE
  5
440
330
2B6
100
AcDbEntity
  8
0
  6
LTYPE2
 62
     3
100
AcDbLine
 10
112.753225
 20
165.489315
 30
0.5454
 11
112.753225
 21
162.20208
 31
0.5454
  0
LINE
  5
441
330
2B6
100
AcDbEntity
  8
0
  6
Continuous
 62
     3
100
AcDbLine
 10
182.3978099999999
 20
189.750525
 30
0.0
 11
175.5134984999999
 21
189.750525
 31
0.0
  0
LINE
  5
442
330
2B6
100
AcDbEntity
  8
0
  6
Continuous
 62
     3
100
AcDbLine
 10
176.5133985
 20
189.750525
 30
0.0
 11
176.5133985
 21
170.7524249999998
 31
0.0
  0
LINE
  5
443
330
2B6
100
AcDbEntity
  8
0
  6
Continuous
 62
     3
100
AcDbLine
 10
182.3978099999999
 20
170.7524249999998
 30
0.0
 11
175.5134984999999
 21
170.7524249999998
 31
0.0
  0
LINE
  5
444
330
2B6
100
AcDbEntity
  8
0
  6
Continuous
 62
     3
100
AcDbLine
 10
195.956454
 20
189.140586
 30
0.0
 11
215.164533
 21
189.140586
 31
0.0
  0
LINE
  5
445
330
2B6
100
AcDbEntity
  8
0
  6
Continuous
 62
     3
100
AcDbLine
 10
195.956454
 20
171.3623639999999
 30
0.0
 11
215.164533
 21
171.3623639999999
 31
0.0
  0
LINE
  5
446
330
2B6
100
AcDbEntity
  8
0
  6
Continuous
 62
     3
100
AcDbLine
 10
214.1646329999999
 20
189.140586
 30
0.0
 11
214.1646329999999
 21
171.3623639999999
 31
0.0
  0
LINE
  5
447
330
2B6
100
AcDbEntity
  8
0
  6
Continuous
 62
     3
100
AcDbLine
 10
200.056044
 20
185.3209679999999
 30
0.0
 11
206.0104485
 21
185.3209679999999
 31
0.0
  0
LINE
  5
448
330
2B6
100
AcDbEntity
  8
0
  6
Continuous
 62
     3
100
AcDbLine
 10
200.056044
 20
187.8607139999997
 30
0.0
 11
206.0104485
 21
187.8607139999997
 31
0.0
  0
LINE
  5
449
330
2B6
100
AcDbEntity
  8
0
  6
Continuous
 62
     3
100
AcDbLine
 10
201.9558539999999
 20
178.031697
 30
0.0
 11
206.0104485
 21
178.031697
 31
0.0
  0
LINE
  5
44A
330
2B6
100
AcDbEntity
  8
0
  6
Continuous
 62
     3
100
AcDbLine
 10
201.9558539999999
 20
177.3917609999998
 30
0.0
 11
206.0104485
 21
177.3917609999998
 31
0.0
  0
LINE
  5
44B
330
2B6
100
AcDbEntity
  8
0
  6
Continuous
 62
     3
100
AcDbLine
 10
205.0105485
 20
180.5314469999999
 30
0.0
 11
205.0105485
 21
171.90231
 31
0.0
  0
LINE
  5
44C
330
2B6
100
AcDbEntity
  8
0
  6
Continuous
 62
     4
100
AcDbLine
 10
191.146935
 20
189.750525
 30
0.0
 11
183.147735
 21
189.750525
 31
0.0
  0
LINE
  5
44D
330
2B6
100
AcDbEntity
  8
0
  6
Continuous
 62
     4
100
AcDbLine
 10
183.147735
 20
189.750525
 30
0.0
 11
183.147735
 21
170.7524249999998
 31
0.0
  0
LINE
  5
44E
330
2B6
100
AcDbEntity
  8
0
  6
Continuous
 62
     4
100
AcDbLine
 10
195.2065289999999
 20
171.3623639999999
 30
0.0
 11
192.6567839999999
 21
171.3623639999999
 31
0.0
  0
LINE
  5
44F
330
2B6
100
AcDbEntity
  8
0
  6
Continuous
 62
     4
100
AcDbLine
 10
183.147735
 20
170.7524249999998
 30
0.0
 11
191.146935
 21
170.7524249999998
 31
0.0
  0
LINE
  5
450
330
2B6
100
AcDbEntity
  8
0
  6
Continuous
 62
     4
100
AcDbLine
 10
191.146935
 20
165.5029499999999
 30
0.0
 11
192.646785
 21
165.5029499999999
 31
0.0
  0
LINE
  5
451
330
2B6
100
AcDbEntity
  8
0
  6
Continuous
 62
     4
100
AcDbLine
 10
195.1965299999999
 20
176.9268075
 30
0.0
 11
195.2065289999999
 21
176.9268075
 31
0.0
  0
LINE
  5
452
330
2B6
100
AcDbEntity
  8
0
  6
Continuous
 62
     4
100
AcDbLine
 10
201.2059289999998
 20
178.031697
 30
0.0
 11
201.2059289999998
 21
177.3917609999998
 31
0.0
  0
LINE
  5
453
330
2B6
100
AcDbEntity
  8
0
  6
Continuous
 62
     4
100
AcDbLine
 10
195.2065289999999
 20
178.031697
 30
0.0
 11
201.2059289999998
 21
178.031697
 31
0.0
  0
LINE
  5
454
330
2B6
100
AcDbEntity
  8
0
  6
Continuous
 62
     4
100
AcDbLine
 10
201.2059289999998
 20
177.3917609999998
 30
0.0
 11
195.2065289999999
 21
177.3917609999998
 31
0.0
  0
LINE
  5
455
330
2B6
100
AcDbEntity
  8
0
  6
Continuous
 62
     4
100
AcDbLine
 10
195.2065289999999
 20
180.5714429999999
 30
0.0
 11
201.2059289999998
 21
180.5714429999999
 31
0.0
  0
LINE
  5
456
330
2B6
100
AcDbEntity
  8
0
  6
Continuous
 62
     4
100
AcDbLine
 10
195.2065289999999
 20
183.111189
 30
0.0
 11
201.2059289999998
 21
183.111189
 31
0.0
  0
LINE
  5
457
330
2B6
100
AcDbEntity
  8
0
  6
Continuous
 62
     4
100
AcDbLine
 10
201.2059289999998
 20
182.471253
 30
0.0
 11
195.2065289999999
 21
182.471253
 31
0.0
  0
LINE
  5
458
330
2B6
100
AcDbEntity
  8
0
  6
Continuous
 62
     4
100
AcDbLine
 10
201.2059289999998
 20
185.0109989999999
 30
0.0
 11
195.2065289999999
 21
185.0109989999999
 31
0.0
  0
LINE
  5
459
330
2B6
100
AcDbEntity
  8
0
  6
Continuous
 62
     4
100
AcDbLine
 10
195.2065289999999
 20
188.190681
 30
0.0
 11
201.2059289999998
 21
188.190681
 31
0.0
  0
LINE
  5
45A
330
2B6
100
AcDbEntity
  8
0
  6
Continuous
 62
     4
100
AcDbLine
 10
195.2065289999999
 20
189.140586
 30
0.0
 11
195.2065289999999
 21
171.3623639999999
 31
0.0
  0
LINE
  5
45B
330
2B6
100
AcDbEntity
  8
0
  6
Continuous
 62
     4
100
AcDbLine
 10
192.646785
 20
186.250875
 30
0.0
 11
191.146935
 21
186.250875
 31
0.0
  0
LINE
  5
45C
330
2B6
100
AcDbEntity
  8
0
  6
Continuous
 62
     4
100
AcDbLine
 10
192.646785
 20
189.140586
 30
0.0
 11
195.2065289999999
 21
189.140586
 31
0.0
  0
LINE
  5
45D
330
2B6
100
AcDbEntity
  8
0
  6
Continuous
 62
     4
100
AcDbLine
 10
191.146935
 20
174.2520749999999
 30
0.0
 11
192.646785
 21
174.2520749999999
 31
0.0
  0
LINE
  5
45E
330
2B6
100
AcDbEntity
  8
0
  6
Continuous
 62
     4
100
AcDbLine
 10
201.2059289999998
 20
185.6509349999998
 30
0.0
 11
201.2059289999998
 21
185.0109989999999
 31
0.0
  0
LINE
  5
45F
330
2B6
100
AcDbEntity
  8
0
  6
Continuous
 62
     4
100
AcDbLine
 10
201.2059289999998
 20
188.190681
 30
0.0
 11
201.2059289999998
 21
187.550745
 31
0.0
  0
LINE
  5
460
330
2B6
100
AcDbEntity
  8
0
  6
Continuous
 62
     4
100
AcDbLine
 10
195.2065289999999
 20
185.6509349999998
 30
0.0
 11
201.2059289999998
 21
185.6509349999998
 31
0.0
  0
LINE
  5
461
330
2B6
100
AcDbEntity
  8
0
  6
Continuous
 62
     4
100
AcDbLine
 10
201.2059289999998
 20
187.550745
 30
0.0
 11
195.2065289999999
 21
187.550745
 31
0.0
  0
LINE
  5
462
330
2B6
100
AcDbEntity
  8
0
  6
Continuous
 62
     4
100
AcDbLine
 10
201.2059289999998
 20
183.111189
 30
0.0
 11
201.2059289999998
 21
182.471253
 31
0.0
  0
LINE
  5
463
330
2B6
100
AcDbEntity
  8
0
  6
Continuous
 62
     4
100
AcDbLine
 10
201.2059289999998
 20
180.5714429999999
 30
0.0
 11
201.2059289999998
 21
179.931507
 31
0.0
  0
LINE
  5
464
330
2B6
100
AcDbEntity
  8
0
  6
Continuous
 62
     4
100
AcDbLine
 10
201.2059289999998
 20
179.931507
 30
0.0
 11
195.2065289999999
 21
179.931507
 31
0.0
  0
LINE
  5
465
330
2B6
100
AcDbEntity
  8
0
  6
Continuous
 62
     4
100
AcDbLine
 10
192.646785
 20
195.0
 30
0.0
 11
191.146935
 21
195.0
 31
0.0
  0
LINE
  5
466
330
2B6
100
AcDbEntity
  8
0
  6
Continuous
 62
     4
100
AcDbLine
 10
191.146935
 20
195.0
 30
0.0
 11
191.146935
 21
165.5029499999999
 31
0.0
  0
LINE
  5
467
330
2B6
100
AcDbEntity
  8
0
  6
Continuous
 62
     4
100
AcDbLine
 10
192.646785
 20
165.5029499999999
 30
0.0
 11
192.646785
 21
195.0
 31
0.0
  0
LINE
  5
468
330
2B6
100
AcDbEntity
  8
0
  6
Continuous
 62
     3
100
AcDbLine
 10
176.448405
 20
189.750525
 30
0.0
 11
175.9484549999999
 21
188.250675
 31
0.0
  0
LINE
  5
469
330
2B6
100
AcDbEntity
  8
0
  6
Continuous
 62
     3
100
AcDbLine
 10
176.9483549999999
 20
188.250675
 30
0.0
 11
176.448405
 21
189.750525
 31
0.0
  0
LINE
  5
46A
330
2B6
100
AcDbEntity
  8
0
  6
Continuous
 62
     3
100
AcDbLine
 10
176.548395
 20
170.8024199999998
 30
0.0
 11
176.0484449999999
 21
172.30227
 31
0.0
  0
LINE
  5
46B
330
2B6
100
AcDbEntity
  8
0
  6
Continuous
 62
     3
100
AcDbLine
 10
177.0483449999999
 20
172.30227
 30
0.0
 11
176.548395
 21
170.8024199999998
 31
0.0
  0
LINE
  5
46C
330
2B6
100
AcDbEntity
  8
0
  6
Continuous
 62
     3
100
AcDbLine
 10
205.0105485
 20
187.8607139999997
 30
0.0
 11
204.5105984999999
 21
189.3605639999999
 31
0.0
  0
LINE
  5
46D
330
2B6
100
AcDbEntity
  8
0
  6
Continuous
 62
     3
100
AcDbLine
 10
205.5104985
 20
189.3605639999999
 30
0.0
 11
205.0105485
 21
187.8607139999997
 31
0.0
  0
LINE
  5
46E
330
2B6
100
AcDbEntity
  8
0
  6
Continuous
 62
     3
100
AcDbLine
 10
205.0105485
 20
185.310969
 30
0.0
 11
204.5105984999999
 21
183.811119
 31
0.0
  0
LINE
  5
46F
330
2B6
100
AcDbEntity
  8
0
  6
Continuous
 62
     3
100
AcDbLine
 10
205.5104985
 20
183.811119
 30
0.0
 11
205.0105485
 21
185.310969
 31
0.0
  0
LINE
  5
470
330
2B6
100
AcDbEntity
  8
0
  6
Continuous
 62
     3
100
AcDbLine
 10
205.0105485
 20
178.031697
 30
0.0
 11
204.5105984999999
 21
179.531547
 31
0.0
  0
LINE
  5
471
330
2B6
100
AcDbEntity
  8
0
  6
Continuous
 62
     3
100
AcDbLine
 10
205.5104985
 20
179.531547
 30
0.0
 11
205.0105485
 21
178.031697
 31
0.0
  0
LINE
  5
472
330
2B6
100
AcDbEntity
  8
0
  6
Continuous
 62
     3
100
AcDbLine
 10
205.0105485
 20
177.3917609999998
 30
0.0
 11
204.5105984999999
 21
175.8919109999999
 31
0.0
  0
LINE
  5
473
330
2B6
100
AcDbEntity
  8
0
  6
Continuous
 62
     3
100
AcDbLine
 10
205.5104985
 20
175.8919109999999
 30
0.0
 11
205.0105485
 21
177.3917609999998
 31
0.0
  0
LINE
  5
475
330
2B6
100
AcDbEntity
  8
0
  6
Continuous
 62
     3
100
AcDbLine
 10
214.1596335
 20
189.0905909999999
 30
0.0
 11
213.6596835
 21
187.5907409999999
 31
0.0
  0
LINE
  5
476
330
2B6
100
AcDbEntity
  8
0
  6
Continuous
 62
     3
100
AcDbLine
 10
214.6595834999998
 20
187.5907409999999
 30
0.0
 11
214.1596335
 21
189.0905909999999
 31
0.0
  0
LINE
  5
477
330
2B6
100
AcDbEntity
  8
0
  6
Continuous
 62
     3
100
AcDbLine
 10
214.1596335
 20
171.3923609999999
 30
0.0
 11
213.6596835
 21
172.892211
 31
0.0
  0
LINE
  5
478
330
2B6
100
AcDbEntity
  8
0
  6
Continuous
 62
     3
100
AcDbLine
 10
214.6595834999998
 20
172.892211
 30
0.0
 11
214.1596335
 21
171.3923609999999
 31
0.0
  0
LINE
  5
479
330
2B6
100
AcDbEntity
  8
0
  6
LTYPE1
 62
     4
100
AcDbLine
 10
195.2238
 20
176.7472799999999
 30
0.0
 11
192.6785999999999
 21
176.7472799999999
 31
0.0
  0
LINE
  5
47A
330
2B6
100
AcDbEntity
  8
0
  6
LTYPE1
 62
     4
100
AcDbLine
 10
201.2059289999998
 20
172.9522049999999
 30
0.0
 11
201.2059289999998
 21
172.3122689999999
 31
0.0
  0
LINE
  5
47B
330
2B6
100
AcDbEntity
  8
0
  6
LTYPE1
 62
     4
100
AcDbLine
 10
201.2059289999998
 20
175.491951
 30
0.0
 11
201.2059289999998
 21
174.852015
 31
0.0
  0
LINE
  5
47C
330
2B6
100
AcDbEntity
  8
0
  6
LTYPE1
 62
     4
100
AcDbLine
 10
195.2065289999999
 20
172.9522049999999
 30
0.0
 11
201.2059289999998
 21
172.9522049999999
 31
0.0
  0
LINE
  5
47D
330
2B6
100
AcDbEntity
  8
0
  6
LTYPE1
 62
     4
100
AcDbLine
 10
201.2059289999998
 20
172.3122689999999
 30
0.0
 11
195.2065289999999
 21
172.3122689999999
 31
0.0
  0
LINE
  5
47E
330
2B6
100
AcDbEntity
  8
0
  6
LTYPE1
 62
     4
100
AcDbLine
 10
195.2065289999999
 20
175.491951
 30
0.0
 11
201.2059289999998
 21
175.491951
 31
0.0
  0
LINE
  5
47F
330
2B6
100
AcDbEntity
  8
0
  6
LTYPE1
 62
     4
100
AcDbLine
 10
201.2059289999998
 20
174.852015
 30
0.0
 11
195.2065289999999
 21
174.852015
 31
0.0
  0
TEXT
  5
489
330
2B6
100
AcDbEntity
  8
0
  6
Continuous
 62
     3
100
AcDbText
 10
219.0136934999999
 20
175.128351
 30
0.0
 40
3.636
  1
１７.７８
 50
90.0
 41
0.5
  7
KANJI2
100
AcDbText
  0
TEXT
  5
48C
330
2B6
100
AcDbEntity
  8
0
  6
Continuous
 62
     3
100
AcDbText
 10
209.2692135
 20
189.895056
 30
0.0
 40
3.636
  1
２.５４
 50
90.0
 41
0.5
  7
KANJI2
100
AcDbText
  0
TEXT
  5
48D
330
2B6
100
AcDbEntity
  8
0
  6
Continuous
 62
     3
100
AcDbText
 10
175.8634634999999
 20
175.7192009999999
 30
0.0
 40
3.636
  1
１９
 50
90.0
 41
0.5
  7
KANJI2
100
AcDbText
  0
LINE
  5
48F
330
2B6
100
AcDbEntity
  8
0
  6
Continuous
 62
     3
100
AcDbLine
 10
70.987402
 20
255.467062
 30
0.0
 11
70.987402
 21
246.9179169999999
 31
0.0
  0
LINE
  5
490
330
2B6
100
AcDbEntity
  8
0
  6
Continuous
 62
     3
100
AcDbLine
 10
80.25647499999998
 20
249.4676619999999
 30
0.0
 11
76.88681200000002
 21
249.4676619999999
 31
0.0
  0
LINE
  5
491
330
2B6
100
AcDbEntity
  8
0
  6
Continuous
 62
     3
100
AcDbLine
 10
79.75652499999998
 20
246.9179169999999
 30
0.0
 11
69.987502
 21
246.9179169999999
 31
0.0
  0
LINE
  5
492
330
2B6
100
AcDbEntity
  8
0
  6
Continuous
 62
     3
100
AcDbLine
 10
77.33676700000002
 20
253.8272259999998
 30
0.0
 11
77.33676700000002
 21
244.4181669999999
 31
0.0
  0
LINE
  5
493
330
2B6
100
AcDbEntity
  8
0
  6
Continuous
 62
     3
100
AcDbLine
 10
82.03629699999998
 20
255.467062
 30
0.0
 11
69.93750699999999
 21
255.467062
 31
0.0
  0
LINE
  5
494
330
2B6
100
AcDbEntity
  8
0
  6
Continuous
 62
     3
100
AcDbLine
 10
145.7499249999998
 20
246.927916
 30
0.0
 11
152.5992399999998
 21
246.927916
 31
0.0
  0
LINE
  5
495
330
2B6
100
AcDbEntity
  8
0
  6
Continuous
 62
     3
100
AcDbLine
 10
151.5993399999999
 20
249.427666
 30
0.0
 11
151.5993399999999
 21
242.8283259999997
 31
0.0
  0
LINE
  5
496
330
2B6
100
AcDbEntity
  8
0
  6
Continuous
 62
     3
100
AcDbLine
 10
145.7499249999998
 20
245.3280759999999
 30
0.0
 11
152.5992399999998
 21
245.3280759999999
 31
0.0
  0
LINE
  5
497
330
2B6
100
AcDbEntity
  8
0
  6
Continuous
 62
     3
100
AcDbLine
 10
141.50035
 20
237.3288759999998
 30
0.0
 11
152.5992399999998
 21
237.3288759999998
 31
0.0
  0
LINE
  5
498
330
2B6
100
AcDbEntity
  8
0
  6
Continuous
 62
     3
100
AcDbLine
 10
151.5993399999999
 20
245.3280759999999
 30
0.0
 11
151.5993399999999
 21
237.3288759999998
 31
0.0
  0
LINE
  5
499
330
2B6
100
AcDbEntity
  8
0
  6
Continuous
 62
     3
100
AcDbLine
 10
81.0064
 20
250.217587
 30
0.0
 11
81.0064
 21
262.5163569999999
 31
0.0
  0
LINE
  5
49A
330
2B6
100
AcDbEntity
  8
0
  6
Continuous
 62
     3
100
AcDbLine
 10
78.50664999999998
 20
261.516457
 30
0.0
 11
87.70573
 21
261.516457
 31
0.0
  0
LINE
  5
49B
330
2B6
100
AcDbEntity
  8
0
  6
Continuous
 62
     3
100
AcDbLine
 10
85.20598000000003
 20
250.217587
 30
0.0
 11
85.20598000000003
 21
262.5163569999999
 31
0.0
  0
LINE
  5
49D
330
2B6
100
AcDbEntity
  8
0
  6
Continuous
 62
     4
100
AcDbLine
 10
81.0064
 20
249.4676619999999
 30
0.0
 11
85.20598000000003
 21
249.4676619999999
 31
0.0
  0
LINE
  5
49E
330
2B6
100
AcDbEntity
  8
0
  6
Continuous
 62
     4
100
AcDbLine
 10
82.78622199999999
 20
249.4676619999999
 30
0.0
 11
82.78622199999999
 21
255.467062
 31
0.0
  0
LINE
  5
49F
330
2B6
100
AcDbEntity
  8
0
  6
Continuous
 62
     4
100
AcDbLine
 10
82.78622199999999
 20
255.467062
 30
0.0
 11
83.426158
 21
255.467062
 31
0.0
  0
LINE
  5
4A0
330
2B6
100
AcDbEntity
  8
0
  6
Continuous
 62
     4
100
AcDbLine
 10
83.426158
 20
255.467062
 30
0.0
 11
83.426158
 21
249.4676619999999
 31
0.0
  0
LINE
  5
4A1
330
2B6
100
AcDbEntity
  8
0
  6
Continuous
 62
     4
100
AcDbLine
 10
80.50645000000001
 20
245.3280759999999
 30
0.0
 11
80.50645000000001
 21
246.927916
 31
0.0
  0
LINE
  5
4A2
330
2B6
100
AcDbEntity
  8
0
  6
Continuous
 62
     4
100
AcDbLine
 10
81.0064
 20
246.9529134999999
 30
0.0
 11
81.0064
 21
249.4676619999999
 31
0.0
  0
LINE
  5
4A3
330
2B6
100
AcDbEntity
  8
0
  6
Continuous
 62
     4
100
AcDbLine
 10
145.0
 20
245.3280759999999
 30
0.0
 11
80.50645000000001
 21
245.3280759999999
 31
0.0
  0
LINE
  5
4A4
330
2B6
100
AcDbEntity
  8
0
  6
Continuous
 62
     4
100
AcDbLine
 10
85.20598000000003
 20
249.4676619999999
 30
0.0
 11
85.20598000000003
 21
246.9029185
 31
0.0
  0
LINE
  5
4A5
330
2B6
100
AcDbEntity
  8
0
  6
Continuous
 62
     4
100
AcDbLine
 10
145.0
 20
246.927916
 30
0.0
 11
145.0
 21
245.3280759999999
 31
0.0
  0
LINE
  5
4A6
330
2B6
100
AcDbEntity
  8
0
  6
Continuous
 62
     4
100
AcDbLine
 10
80.50645000000001
 20
246.927916
 30
0.0
 11
145.0
 21
246.927916
 31
0.0
  0
LINE
  5
4A7
330
2B6
100
AcDbEntity
  8
0
  6
LTYPE3
 62
     4
100
AcDbLine
 10
137.30077
 20
249.4376649999999
 30
0.0
 11
137.30077
 21
246.9379149999999
 31
0.0
  0
LINE
  5
4A8
330
2B6
100
AcDbEntity
  8
0
  6
LTYPE3
 62
     4
100
AcDbLine
 10
86.20588000000003
 20
246.927916
 30
0.0
 11
86.20588000000003
 21
249.427666
 31
0.0
  0
LINE
  5
4A9
330
2B6
100
AcDbEntity
  8
0
  6
LTYPE3
 62
     4
100
AcDbLine
 10
86.20588000000003
 20
249.427666
 30
0.0
 11
137.30077
 21
249.4376649999999
 31
0.0
  0
LINE
  5
4AA
330
2B6
100
AcDbEntity
  8
0
  6
Continuous
 62
     3
100
AcDbLine
 10
70.987402
 20
246.9179169999999
 30
0.0
 11
71.487352
 21
248.417767
 31
0.0
  0
LINE
  5
4AB
330
2B6
100
AcDbEntity
  8
0
  6
Continuous
 62
     3
100
AcDbLine
 10
70.48745200000002
 20
248.417767
 30
0.0
 11
70.987402
 21
246.9179169999999
 31
0.0
  0
LINE
  5
4AC
330
2B6
100
AcDbEntity
  8
0
  6
Continuous
 62
     3
100
AcDbLine
 10
77.33676700000002
 20
246.9179169999999
 30
0.0
 11
76.83681700000002
 21
245.4180669999999
 31
0.0
  0
LINE
  5
4AD
330
2B6
100
AcDbEntity
  8
0
  6
Continuous
 62
     3
100
AcDbLine
 10
77.83671700000002
 20
245.4180669999999
 30
0.0
 11
77.33676700000002
 21
246.9179169999999
 31
0.0
  0
LINE
  5
4AE
330
2B6
100
AcDbEntity
  8
0
  6
Continuous
 62
     3
100
AcDbLine
 10
77.33676700000002
 20
249.4676619999999
 30
0.0
 11
76.83681700000002
 21
250.967512
 31
0.0
  0
LINE
  5
4AF
330
2B6
100
AcDbEntity
  8
0
  6
Continuous
 62
     3
100
AcDbLine
 10
77.83671700000002
 20
250.967512
 30
0.0
 11
77.33676700000002
 21
249.4676619999999
 31
0.0
  0
LINE
  5
4B0
330
2B6
100
AcDbEntity
  8
0
  6
Continuous
 62
     3
100
AcDbLine
 10
70.987402
 20
255.467062
 30
0.0
 11
70.48745200000002
 21
253.967212
 31
0.0
  0
LINE
  5
4B1
330
2B6
100
AcDbEntity
  8
0
  6
Continuous
 62
     3
100
AcDbLine
 10
71.487352
 20
253.967212
 30
0.0
 11
70.987402
 21
255.467062
 31
0.0
  0
LINE
  5
4B2
330
2B6
100
AcDbEntity
  8
0
  6
Continuous
 62
     3
100
AcDbLine
 10
81.0064
 20
261.516457
 30
0.0
 11
79.50655000000003
 21
261.0165069999998
 31
0.0
  0
LINE
  5
4B3
330
2B6
100
AcDbEntity
  8
0
  6
Continuous
 62
     3
100
AcDbLine
 10
79.50655000000003
 20
262.0164069999999
 30
0.0
 11
81.0064
 21
261.516457
 31
0.0
  0
LINE
  5
4B4
330
2B6
100
AcDbEntity
  8
0
  6
Continuous
 62
     3
100
AcDbLine
 10
85.20598000000003
 20
261.516457
 30
0.0
 11
86.70583
 21
262.0164069999999
 31
0.0
  0
LINE
  5
4B5
330
2B6
100
AcDbEntity
  8
0
  6
Continuous
 62
     3
100
AcDbLine
 10
86.70583
 20
261.0165069999998
 30
0.0
 11
85.20598000000003
 21
261.516457
 31
0.0
  0
LINE
  5
4B7
330
2B6
100
AcDbEntity
  8
0
  6
Continuous
 62
     3
100
AcDbLine
 10
151.5993399999999
 20
246.927916
 30
0.0
 11
151.09939
 21
248.427766
 31
0.0
  0
LINE
  5
4B8
330
2B6
100
AcDbEntity
  8
0
  6
Continuous
 62
     3
100
AcDbLine
 10
152.0992899999999
 20
248.427766
 30
0.0
 11
151.5993399999999
 21
246.927916
 31
0.0
  0
LINE
  5
4B9
330
2B6
100
AcDbEntity
  8
0
  6
Continuous
 62
     3
100
AcDbLine
 10
151.5993399999999
 20
245.3280759999999
 30
0.0
 11
151.09939
 21
243.8282259999998
 31
0.0
  0
LINE
  5
4BA
330
2B6
100
AcDbEntity
  8
0
  6
Continuous
 62
     3
100
AcDbLine
 10
152.0992899999999
 20
243.8282259999998
 30
0.0
 11
151.5993399999999
 21
245.3280759999999
 31
0.0
  0
LINE
  5
4BB
330
2B6
100
AcDbEntity
  8
0
  6
Continuous
 62
     3
100
AcDbLine
 10
151.5993399999999
 20
237.3288759999998
 30
0.0
 11
151.09939
 21
238.8287259999999
 31
0.0
  0
LINE
  5
4BC
330
2B6
100
AcDbEntity
  8
0
  6
Continuous
 62
     3
100
AcDbLine
 10
152.0992899999999
 20
238.8287259999999
 30
0.0
 11
151.5993399999999
 21
237.3288759999998
 31
0.0
  0
LINE
  5
4BD
330
2B6
100
AcDbEntity
  8
0
  6
LTYPE1
 62
     4
100
AcDbLine
 10
140.13685
 20
249.4313019999999
 30
0.0
 11
144.33643
 21
249.4313019999999
 31
0.0
  0
LINE
  5
4BE
330
2B6
100
AcDbEntity
  8
0
  6
LTYPE1
 62
     4
100
AcDbLine
 10
141.9166719999996
 20
249.4313019999999
 30
0.0
 11
141.9166719999996
 21
255.4307019999999
 31
0.0
  0
LINE
  5
4BF
330
2B6
100
AcDbEntity
  8
0
  6
LTYPE1
 62
     4
100
AcDbLine
 10
141.9166719999996
 20
255.4307019999999
 30
0.0
 11
142.556608
 21
255.4307019999999
 31
0.0
  0
LINE
  5
4C0
330
2B6
100
AcDbEntity
  8
0
  6
LTYPE1
 62
     4
100
AcDbLine
 10
142.556608
 20
255.4307019999999
 30
0.0
 11
142.556608
 21
249.4313019999999
 31
0.0
  0
LINE
  5
4C1
330
2B6
100
AcDbEntity
  8
0
  6
LTYPE1
 62
     4
100
AcDbLine
 10
140.13685
 20
246.9165535
 30
0.0
 11
140.13685
 21
249.4313019999999
 31
0.0
  0
LINE
  5
4C2
330
2B6
100
AcDbEntity
  8
0
  6
LTYPE1
 62
     4
100
AcDbLine
 10
144.33643
 20
249.4313019999999
 30
0.0
 11
144.33643
 21
246.8665585
 31
0.0
  0
LINE
  5
4C3
330
2B6
100
AcDbEntity
  8
0
  6
Continuous
 62
     4
100
AcDbLine
 10
89.755525
 20
237.3288759999998
 30
0.0
 11
139.750525
 21
237.3288759999998
 31
0.0
  0
LINE
  5
4C4
330
2B6
100
AcDbEntity
  8
0
  6
Continuous
 62
     4
100
AcDbLine
 10
139.750525
 20
245.3280759999999
 30
0.0
 11
139.750525
 21
237.3288759999998
 31
0.0
  0
LINE
  5
4C5
330
2B6
100
AcDbEntity
  8
0
  6
Continuous
 62
     4
100
AcDbLine
 10
89.755525
 20
245.3280759999999
 30
0.0
 11
89.755525
 21
237.3288759999998
 31
0.0
  0
LINE
  5
4C6
330
2B6
100
AcDbEntity
  8
0
  6
Continuous
 62
     4
100
AcDbLine
 10
114.7530249999997
 20
245.3280759999999
 30
0.0
 11
114.7530249999997
 21
237.284335
 31
0.0
  0
LINE
  5
4C9
330
2B6
100
AcDbEntity
  8
0
  6
Continuous
 62
     3
100
AcDbLine
 10
114.8212
 20
236.56168
 30
0.0
 11
114.8212
 21
226.38088
 31
0.0
  0
LINE
  5
4CA
330
2B6
100
AcDbEntity
  8
0
  6
Continuous
 62
     3
100
AcDbLine
 10
89.73279999999999
 20
236.56168
 30
0.0
 11
89.73279999999999
 21
226.5626799999997
 31
0.0
  0
LINE
  5
4CB
330
2B6
100
AcDbEntity
  8
0
  6
Continuous
 62
     3
100
AcDbLine
 10
139.7278
 20
236.7434799999998
 30
0.0
 11
139.7278
 21
226.7444799999999
 31
0.0
  0
LINE
  5
4CC
330
2B6
100
AcDbEntity
  8
0
  6
Continuous
 62
     3
100
AcDbLine
 10
139.7278
 20
227.6534799999998
 30
0.0
 11
137.9097999999999
 21
228.1988799999997
 31
0.0
  0
LINE
  5
4CD
330
2B6
100
AcDbEntity
  8
0
  6
Continuous
 62
     3
100
AcDbLine
 10
137.9097999999999
 20
227.1080799999999
 30
0.0
 11
139.7278
 21
227.6534799999998
 31
0.0
  0
LINE
  5
4CE
330
2B6
100
AcDbEntity
  8
0
  6
Continuous
 62
     3
100
AcDbLine
 10
139.7278
 20
227.6534799999998
 30
0.0
 11
89.73279999999999
 21
227.6534799999998
 31
0.0
  0
LINE
  5
4CF
330
2B6
100
AcDbEntity
  8
0
  6
Continuous
 62
     3
100
AcDbLine
 10
89.73279999999999
 20
227.6534799999998
 30
0.0
 11
91.55079999999999
 21
228.1988799999997
 31
0.0
  0
LINE
  5
4D0
330
2B6
100
AcDbEntity
  8
0
  6
Continuous
 62
     3
100
AcDbLine
 10
91.55079999999999
 20
227.1080799999999
 30
0.0
 11
89.73279999999999
 21
227.6534799999998
 31
0.0
  0
LINE
  5
4D1
330
2B6
100
AcDbEntity
  8
0
  6
Continuous
 62
     3
100
AcDbLine
 10
116.6392
 20
228.1988799999997
 30
0.0
 11
113.0032
 21
227.1080799999999
 31
0.0
  0
LINE
  5
4D2
330
2B6
100
AcDbEntity
  8
0
  6
Continuous
 62
     3
100
AcDbLine
 10
113.0032
 20
228.1988799999997
 30
0.0
 11
116.6392
 21
227.1080799999999
 31
0.0
  0
TEXT
  5
4DC
330
2B6
100
AcDbEntity
  8
0
  6
Continuous
 62
     3
100
AcDbText
 10
99.51045849999999
 20
228.584296
 30
0.0
 40
3.636
  1
２５
 41
0.5
  7
KANJI2
100
AcDbText
  0
TEXT
  5
4DD
330
2B6
100
AcDbEntity
  8
0
  6
Continuous
 62
     3
100
AcDbText
 10
125.8714585
 20
228.766096
 30
0.0
 40
3.636
  1
２５
 41
0.5
  7
KANJI2
100
AcDbText
  0
TEXT
  5
4DE
330
2B6
100
AcDbEntity
  8
0
  6
Continuous
 62
     3
100
AcDbText
 10
150.4280934999998
 20
238.515121
 30
0.0
 40
3.636
  1
８.０
 50
90.0
 41
0.5
  7
KANJI2
100
AcDbText
  0
TEXT
  5
4DF
330
2B6
100
AcDbEntity
  8
0
  6
Continuous
 62
     3
100
AcDbText
 10
150.6780685
 20
248.0096259999999
 30
0.0
 40
3.636
  1
１.６
 50
90.0
 41
0.5
  7
KANJI2
100
AcDbText
  0
TEXT
  5
4E2
330
2B6
100
AcDbEntity
  8
0
  6
Continuous
 62
     3
100
AcDbText
 10
80.27601850000001
 20
262.9263159999999
 30
0.0
 40
3.636
  1
４.２
 41
0.5
  7
KANJI2
100
AcDbText
  0
TEXT
  5
4E3
330
2B6
100
AcDbEntity
  8
0
  6
Continuous
 62
     3
100
AcDbText
 10
76.47185349999998
 20
247.6460259999999
 30
0.0
 40
3.636
  1
２.５４
 50
90.0
 41
0.5
  7
KANJI2
100
AcDbText
  0
TEXT
  5
4E4
330
2B6
100
AcDbEntity
  8
0
  6
Continuous
 62
     3
100
AcDbText
 10
69.6725335
 20
247.4187759999999
 30
0.1818
 40
3.636
  1
８.５４
 50
90.0
 41
0.5
  7
KANJI5
100
AcDbText
  0
LINE
  5
4E6
330
2B6
100
AcDbEntity
  8
0
  6
Continuous
 62
     3
100
AcDbLine
 10
131.4999999999997
 20
194.5
 30
0.0
 11
130.852952387
 21
192.085185434
 31
0.0
  0
LINE
  5
4E7
330
2B6
100
AcDbEntity
  8
0
  6
Continuous
 62
     3
100
AcDbLine
 10
131.4999999999997
 20
194.5
 30
0.0
 11
132.1470476129998
 21
192.085185434
 31
0.0
  0
LINE
  5
4E8
330
2B6
100
AcDbEntity
  8
0
  6
Continuous
 62
     3
100
AcDbLine
 10
131.4999999999997
 20
190.7499999999997
 30
0.0
 11
131.4999999999997
 21
194.5
 31
0.0
  0
LINE
  5
4E9
330
2B6
100
AcDbEntity
  8
0
  6
Continuous
 62
     3
100
AcDbLine
 10
131.4999999999997
 20
194.5
 30
0.0
 11
131.4999999999997
 21
195.0
 31
0.0
  0
LINE
  5
4EA
330
2B6
100
AcDbEntity
  8
0
  6
Continuous
 62
     3
100
AcDbLine
 10
131.4999999999997
 20
195.0
 30
0.0
 11
132.1470476129998
 21
197.4148145659999
 31
0.0
  0
LINE
  5
4EB
330
2B6
100
AcDbEntity
  8
0
  6
Continuous
 62
     3
100
AcDbLine
 10
131.4999999999997
 20
195.0
 30
0.0
 11
130.852952387
 21
197.4148145659999
 31
0.0
  0
TEXT
  5
4EC
330
2B6
100
AcDbEntity
  8
0
  6
Continuous
 62
     3
100
AcDbText
 10
130.4999999999997
 20
198.25
 30
0.3
 40
3.0
  1
０.５
 50
90.0
 41
0.6
  7
KANJI6
100
AcDbText
  0
LINE
  5
4ED
330
2B6
100
AcDbEntity
  8
0
  6
Continuous
 62
     3
100
AcDbLine
 10
131.4999999999997
 20
195.0
 30
0.3
 11
131.4999999999997
 21
205.75
 31
0.3
  0
LINE
  5
4EE
330
2B6
100
AcDbEntity
  8
0
  6
Continuous
 62
     3
100
AcDbLine
 10
126.0
 20
194.5
 30
0.0
 11
134.0
 21
194.5
 31
0.0
  0
LINE
  5
4EF
330
2B6
100
AcDbEntity
  8
0
  6
Continuous
 62
     3
100
AcDbLine
 10
100.2544749999999
 20
196.5
 30
0.0
 11
100.2544749999999
 21
207.0
 31
0.0
  0
LINE
  5
4F0
330
2B6
100
AcDbEntity
  8
0
  6
Continuous
 62
     3
100
AcDbLine
 10
100.2544749999999
 20
205.0
 30
0.0
 11
102.669289566
 21
204.352952387
 31
0.0
  0
LINE
  5
4F1
330
2B6
100
AcDbEntity
  8
0
  6
Continuous
 62
     3
100
AcDbLine
 10
100.2544749999999
 20
205.0
 30
0.0
 11
102.669289566
 21
205.6470476129999
 31
0.0
  0
LINE
  5
4F2
330
2B6
100
AcDbEntity
  8
0
  6
Continuous
 62
     3
100
AcDbLine
 10
100.2544749999999
 20
205.0
 30
0.0
 11
125.2544749999999
 21
205.0
 31
0.0
  0
LINE
  5
4F3
330
2B6
100
AcDbEntity
  8
0
  6
Continuous
 62
     3
100
AcDbLine
 10
125.2544749999999
 20
205.0
 30
0.0
 11
122.839660434
 21
205.6470476129999
 31
0.0
  0
LINE
  5
4F4
330
2B6
100
AcDbEntity
  8
0
  6
Continuous
 62
     3
100
AcDbLine
 10
125.2544749999999
 20
205.0
 30
0.0
 11
122.839660434
 21
204.352952387
 31
0.0
  0
LINE
  5
4F5
330
2B6
100
AcDbEntity
  8
0
  6
Continuous
 62
     3
100
AcDbLine
 10
125.2544749999999
 20
196.5
 30
0.0
 11
125.2544749999999
 21
207.0
 31
0.0
  0
TEXT
  5
4F6
330
2B6
100
AcDbEntity
  8
0
  6
Continuous
 62
     3
100
AcDbText
 10
110.8044749999999
 20
206.0
 30
0.3
 40
3.0
  1
２５
 41
0.6
  7
KANJI6
100
AcDbText
  0
LINE
  5
4F8
330
2B6
100
AcDbEntity
  8
0
  6
Continuous
 62
     3
100
AcDbLine
 10
163.3946149999998
 20
173.0567399999999
 30
0.0
 11
162.894665
 21
174.55659
 31
0.0
  0
LINE
  5
4F9
330
2B6
100
AcDbEntity
  8
0
  6
Continuous
 62
     3
100
AcDbLine
 10
163.894565
 20
174.3747899999999
 30
0.0
 11
163.3946149999998
 21
172.8749399999999
 31
0.0
  0
LINE
  5
4FA
330
2B6
100
AcDbEntity
  8
0
  6
Continuous
 62
     3
100
AcDbLine
 10
163.403705
 20
173.0340149999999
 30
0.0
 11
163.403705
 21
187.3053149999998
 31
0.0
  0
LINE
  5
4FB
330
2B6
100
AcDbEntity
  8
0
  6
Continuous
 62
     3
100
AcDbLine
 10
163.3946149999998
 20
187.35531
 30
0.0
 11
162.894665
 21
185.8554599999999
 31
0.0
  0
LINE
  5
4FC
330
2B6
100
AcDbEntity
  8
0
  6
Continuous
 62
     3
100
AcDbLine
 10
163.894565
 20
185.8554599999999
 30
0.0
 11
163.3946149999998
 21
187.35531
 31
0.0
  0
TEXT
  5
4FD
330
2B6
100
AcDbEntity
  8
0
  6
Continuous
 62
     3
100
AcDbText
 10
163.0596485
 20
176.0646209999999
 30
0.0
 40
3.636
  1
１４.２
 50
90.0
 41
0.5
  7
KANJI2
100
AcDbText
  0
LINE
  5
4FE
330
2B6
100
AcDbEntity
  8
0
  6
Continuous
 62
     3
100
AcDbLine
 10
139.0689595689998
 20
187.3053149999998
 30
0.0
 11
163.949105
 21
187.3053149999998
 31
0.0
  0
LINE
  5
4FF
330
2B6
100
AcDbEntity
  8
0
  6
Continuous
 62
     3
100
AcDbLine
 10
163.949105
 20
173.106735
 30
0.0
 11
136.5689595689999
 21
173.106735
 31
0.0
  0
LINE
  5
500
330
2B6
100
AcDbEntity
  8
0
  6
Continuous
 62
     3
100
AcDbLine
 10
146.5
 20
186.250875
 30
0.0
 11
157.0
 21
186.250875
 31
0.0
  0
LINE
  5
501
330
2B6
100
AcDbEntity
  8
0
  6
Continuous
 62
     3
100
AcDbLine
 10
155.0
 20
186.250875
 30
0.0
 11
154.352952387
 21
183.836060434
 31
0.0
  0
LINE
  5
502
330
2B6
100
AcDbEntity
  8
0
  6
Continuous
 62
     3
100
AcDbLine
 10
155.0
 20
186.250875
 30
0.0
 11
155.6470476129999
 21
183.836060434
 31
0.0
  0
LINE
  5
503
330
2B6
100
AcDbEntity
  8
0
  6
Continuous
 62
     3
100
AcDbLine
 10
155.0
 20
186.250875
 30
0.0
 11
155.0
 21
174.250875
 31
0.0
  0
LINE
  5
504
330
2B6
100
AcDbEntity
  8
0
  6
Continuous
 62
     3
100
AcDbLine
 10
155.0
 20
174.250875
 30
0.0
 11
155.6470476129999
 21
176.6656895659999
 31
0.0
  0
LINE
  5
505
330
2B6
100
AcDbEntity
  8
0
  6
Continuous
 62
     3
100
AcDbLine
 10
155.0
 20
174.250875
 30
0.0
 11
154.352952387
 21
176.6656895659999
 31
0.0
  0
LINE
  5
506
330
2B6
100
AcDbEntity
  8
0
  6
Continuous
 62
     3
100
AcDbLine
 10
146.5
 20
174.250875
 30
0.0
 11
157.0
 21
174.250875
 31
0.0
  0
TEXT
  5
507
330
2B6
100
AcDbEntity
  8
0
  6
Continuous
 62
     3
100
AcDbText
 10
154.0
 20
178.300875
 30
0.3
 40
3.0
  1
１２
 50
90.0
 41
0.6
  7
KANJI6
100
AcDbText
  0
CIRCLE
  5
508
330
2B6
100
AcDbEntity
  8
0
  6
Continuous
 62
     4
100
AcDbCircle
 10
91.673965
 20
191.787135
 30
0.3
 40
1.09989
  0
LINE
  5
509
330
2B6
100
AcDbEntity
  8
0
  6
Continuous
 62
     3
100
AcDbLine
 10
83.25617499999998
 20
150.753725
 30
0.3
 11
142.2502749999999
 21
150.753725
 31
0.3
  0
LINE
  5
50A
330
2B6
100
AcDbEntity
  8
0
  6
Continuous
 62
     3
100
AcDbLine
 10
142.2502749999999
 20
150.753725
 30
0.0
 11
140.750425
 21
151.2536749999999
 31
0.0
  0
LINE
  5
50B
330
2B6
100
AcDbEntity
  8
0
  6
Continuous
 62
     3
100
AcDbLine
 10
140.750425
 20
150.2537749999999
 30
0.0
 11
142.2502749999999
 21
150.753725
 31
0.0
  0
LINE
  5
50C
330
2B6
100
AcDbEntity
  8
0
  6
Continuous
 62
     3
100
AcDbLine
 10
83.25617499999998
 20
150.753725
 30
0.0
 11
84.75602499999999
 21
151.2536749999999
 31
0.0
  0
LINE
  5
50D
330
2B6
100
AcDbEntity
  8
0
  6
Continuous
 62
     3
100
AcDbLine
 10
84.75602499999999
 20
150.2537749999999
 30
0.0
 11
83.25617499999998
 21
150.753725
 31
0.0
  0
LINE
  5
50E
330
2B6
100
AcDbEntity
  8
0
  6
Continuous
 62
     3
100
AcDbLine
 10
80.50645000000001
 20
145.0042999999998
 30
0.0
 11
145.0
 21
145.0042999999998
 31
0.0
  0
LINE
  5
50F
330
2B6
100
AcDbEntity
  8
0
  6
Continuous
 62
     3
100
AcDbLine
 10
80.456455
 20
145.0042999999998
 30
0.0
 11
81.956305
 21
145.50425
 31
0.0
  0
LINE
  5
510
330
2B6
100
AcDbEntity
  8
0
  6
Continuous
 62
     3
100
AcDbLine
 10
81.956305
 20
144.5043499999998
 30
0.0
 11
80.456455
 21
145.0042999999998
 31
0.0
  0
LINE
  5
511
330
2B6
100
AcDbEntity
  8
0
  6
Continuous
 62
     3
100
AcDbLine
 10
145.0
 20
145.0542949999999
 30
0.0
 11
143.50015
 21
145.554245
 31
0.0
  0
LINE
  5
512
330
2B6
100
AcDbEntity
  8
0
  6
Continuous
 62
     3
100
AcDbLine
 10
143.50015
 20
144.5543449999999
 30
0.0
 11
145.0
 21
145.0542949999999
 31
0.0
  0
TEXT
  5
513
330
2B6
100
AcDbEntity
  8
0
  6
Continuous
 62
     3
100
AcDbText
 10
107.5327834999997
 20
145.7396809999998
 30
0.0
 40
3.636
  1
６４.５
 41
0.5
  7
KANJI2
100
AcDbText
  0
LINE
  5
514
330
2B6
100
AcDbEntity
  8
0
  6
Continuous
 62
     3
100
AcDbLine
 10
142.2502749999999
 20
149.753825
 30
0.0
 11
142.2502749999999
 21
193.5
 31
0.0
  0
LINE
  5
515
330
2B6
100
AcDbEntity
  8
0
  6
Continuous
 62
     3
100
AcDbLine
 10
83.25617499999998
 20
194.0
 30
0.0
 11
83.25617499999998
 21
149.6538349999999
 31
0.0
  0
LINE
  5
516
330
2B6
100
AcDbEntity
  8
0
  6
Continuous
 62
     3
100
AcDbLine
 10
80.50645000000001
 20
164.5
 30
0.0
 11
80.50645000000001
 21
143.2181149999999
 31
0.0
  0
LINE
  5
517
330
2B6
100
AcDbEntity
  8
0
  6
Continuous
 62
     3
100
AcDbLine
 10
145.0
 20
143.2181149999999
 30
0.0
 11
145.0
 21
164.5
 31
0.0
  0
LINE
  5
518
330
2B6
100
AcDbEntity
  8
0
  6
Continuous
 62
     3
100
AcDbLine
 10
81.5
 20
173.0
 30
0.0
 11
81.5
 21
152.5
 31
0.0
  0
LINE
  5
519
330
2B6
100
AcDbEntity
  8
0
  6
Continuous
 62
     3
100
AcDbLine
 10
81.5
 20
158.0
 30
0.0
 11
83.91481456600002
 21
157.352952387
 31
0.0
  0
LINE
  5
51A
330
2B6
100
AcDbEntity
  8
0
  6
Continuous
 62
     3
100
AcDbLine
 10
81.5
 20
158.0
 30
0.0
 11
83.91481456600002
 21
158.6470476129998
 31
0.0
  0
LINE
  5
51B
330
2B6
100
AcDbEntity
  8
0
  6
Continuous
 62
     3
100
AcDbLine
 10
85.25
 20
158.0
 30
0.0
 11
81.5
 21
158.0
 31
0.0
  0
LINE
  5
51C
330
2B6
100
AcDbEntity
  8
0
  6
Continuous
 62
     3
100
AcDbLine
 10
81.5
 20
158.0
 30
0.0
 11
80.5
 21
158.0
 31
0.0
  0
LINE
  5
51D
330
2B6
100
AcDbEntity
  8
0
  6
Continuous
 62
     3
100
AcDbLine
 10
80.5
 20
158.0
 30
0.0
 11
78.08518543399998
 21
158.6470476129998
 31
0.0
  0
LINE
  5
51E
330
2B6
100
AcDbEntity
  8
0
  6
Continuous
 62
     3
100
AcDbLine
 10
80.5
 20
158.0
 30
0.0
 11
78.08518543399998
 21
157.352952387
 31
0.0
  0
LINE
  5
51F
330
2B6
100
AcDbEntity
  8
0
  6
Continuous
 62
     3
100
AcDbLine
 10
80.5
 20
158.0
 30
0.0
 11
71.75
 21
158.0
 31
0.0
  0
TEXT
  5
520
330
2B6
100
AcDbEntity
  8
0
  6
Continuous
 62
     3
100
AcDbText
 10
74.59999999999998
 20
158.4999999999998
 30
0.3
 40
3.0
  1
１
 41
0.6
  7
KANJI6
100
AcDbText
  0
TEXT
  5
522
330
2B6
100
AcDbEntity
  8
0
  6
Continuous
 62
     3
100
AcDbText
 10
109.6596934999999
 20
151.789076
 30
0.0
 40
3.636
  1
５９
 41
0.5
  7
KANJI2
100
AcDbText
  0
TEXT
  5
523
330
2B6
100
AcDbEntity
  8
0
  6
Continuous
 62
     3
100
AcDbText
 10
210.8554185
 20
172.6331459999999
 30
0.0
 40
3.636
  1
０.６４
 50
90.0
 41
0.5
  7
KANJI2
100
AcDbText
  0
LINE
  5
524
330
2B6
100
AcDbEntity
  8
0
  6
Continuous
 62
     3
100
AcDbLine
 10
205.0105485
 20
182.8212179999999
 30
0.0
 11
205.0105485
 21
198.031697
 31
0.0
  0
ENDSEC
  0
SECTION
  2
OBJECTS
  0
DICTIONARY
  5
2A4
330
0
100
AcDbDictionary
281
     1
  3
ACAD_GROUP
350
2A5
  3
ACAD_PLOTSTYLENAME
350
2A6
  3
ACAD_MLINESTYLE
350
2AE
  3
ACAD_PLOTSETTINGS
350
2B0
  3
ACAD_LAYOUT
350
2B1
  0
DICTIONARY
  5
2A5
102
{ACAD_REACTORS
330
2A4
102
}
330
2A4
100
AcDbDictionary
281
     1
  0
ACDBDICTIONARYWDFLT
  5
2A6
102
{ACAD_REACTORS
330
2A4
102
}
330
2A4
100
AcDbDictionary
281
     1
  3
Normal
350
2A7
100
AcDbDictionaryWithDefault
340
2A7
  0
DICTIONARY
  5
2AE
102
{ACAD_REACTORS
330
2A4
102
}
330
2A4
100
AcDbDictionary
281
     1
  3
Standard
350
2AF
  0
DICTIONARY
  5
2B0
102
{ACAD_REACTORS
330
2A4
102
}
330
2A4
100
AcDbDictionary
281
     1
  0
DICTIONARY
  5
2B1
102
{ACAD_REACTORS
330
2A4
102
}
330
2A4
100
AcDbDictionary
281
     1
  3
ﾚｲｱｳﾄ1
350
2B5
  3
Model
350
2B9
  0
ACDBPLACEHOLDER
  5
2A7
102
{ACAD_REACTORS
330
2A6
102
}
330
2A6
  0
MLINESTYLE
  5
2AF
102
{ACAD_REACTORS
330
2AE
102
}
330
2AE
100
AcDbMlineStyle
  2
STANDARD
 70
     0
  3

 62
   256
 51
90.0
 52
90.0
 71
     2
 49
0.5
 62
   256
  6
BYLAYER
 49
-0.5
 62
   256
  6
BYLAYER
  0
LAYOUT
  5
2B5
102
{ACAD_REACTORS
330
2B1
102
}
330
2B1
100
AcDbPlotSettings
  1

  2
Canon LBP-880
  4

  6

 40
0.0
 41
0.0
 42
0.0
 43
0.0
 44
0.0
 45
0.0
 46
0.0
 47
0.0
 48
0.0
 49
0.0
140
0.0
141
0.0
142
1.0
143
1.0
 70
   688
 72
     0
 73
     0
 74
     5
  7

 75
    16
147
1.0
148
0.0
149
0.0
100
AcDbLayout
  1
ﾚｲｱｳﾄ1
 70
     1
 71
     1
 10
0.0
 20
0.0
 11
12.0
 21
9.0
 12
0.0
 22
0.0
 32
0.0
 14
1.000000000000000E+20
 24
1.000000000000000E+20
 34
1.000000000000000E+20
 15
-1.000000000000000E+20
 25
-1.000000000000000E+20
 35
-1.000000000000000E+20
146
0.0
 13
0.0
 23
0.0
 33
0.0
 16
1.0
 26
0.0
 36
0.0
 17
0.0
 27
1.0
 37
0.0
 76
     0
330
2B2
  0
LAYOUT
  5
2B9
102
{ACAD_REACTORS
330
2B1
102
}
330
2B1
100
AcDbPlotSettings
  1

  2
Canon LBP-880
  4

  6

 40
0.0
 41
0.0
 42
0.0
 43
0.0
 44
0.0
 45
0.0
 46
0.0
 47
0.0
 48
0.0
 49
0.0
140
0.0
141
0.0
142
1.0
143
1.0
 70
  1712
 72
     0
 73
     0
 74
     0
  7

 75
     0
147
1.0
148
0.0
149
0.0
100
AcDbLayout
  1
Model
 70
     1
 71
     0
 10
0.0
 20
0.0
 11
12.0
 21
9.0
 12
0.0
 22
0.0
 32
0.0
 14
0.0
 24
0.0
 34
0.0
 15
0.0
 25
0.0
 35
0.0
146
0.0
 13
0.0
 23
0.0
 33
0.0
 16
1.0
 26
0.0
 36
0.0
 17
0.0
 27
1.0
 37
0.0
 76
     0
330
2B6
  0
ENDSEC
  0
EOF
