  0
SECTION
  2
HEADER
  9
$ACADVER
  1
AC1014
  9
$ACADMAINTVER
 70
     9
  9
$DWGCODEPAGE
  3
ANSI_932
  9
$INSBASE
 10
0.0
 20
0.0
 30
0.0
  9
$EXTMIN
 10
3.357402803999997
 20
22.3749738
 30
-0.1999998
  9
$EXTMAX
 10
133.3211313379995
 20
124.3937443739999
 30
0.0
  9
$LIMMIN
 10
0.0
 20
0.0
  9
$LIMMAX
 10
12.0
 20
9.0
  9
$ORTHOMODE
 70
     0
  9
$REGENMODE
 70
     1
  9
$FILLMODE
 70
     1
  9
$QTEXTMODE
 70
     0
  9
$MIRRTEXT
 70
     1
  9
$DRAGMODE
 70
     2
  9
$LTSCALE
 40
1.0
  9
$OSMODE
 70
    37
  9
$ATTMODE
 70
     1
  9
$TEXTSIZE
 40
0.2
  9
$TRACEWID
 40
0.05
  9
$TEXTSTYLE
  7
STANDARD
  9
$CLAYER
  8
0
  9
$CELTYPE
  6
CONTINUOUS
  9
$CECOLOR
 62
   256
  9
$CELTSCALE
 40
1.0
  9
$DELOBJ
 70
     1
  9
$DISPSILH
 70
     0
  9
$DIMSCALE
 40
1.0
  9
$DIMASZ
 40
0.18
  9
$DIMEXO
 40
0.0625
  9
$DIMDLI
 40
0.38
  9
$DIMRND
 40
0.0
  9
$DIMDLE
 40
0.0
  9
$DIMEXE
 40
0.18
  9
$DIMTP
 40
0.0
  9
$DIMTM
 40
0.0
  9
$DIMTXT
 40
0.18
  9
$DIMCEN
 40
0.09
  9
$DIMTSZ
 40
0.0
  9
$DIMTOL
 70
     0
  9
$DIMLIM
 70
     0
  9
$DIMTIH
 70
     1
  9
$DIMTOH
 70
     1
  9
$DIMSE1
 70
     0
  9
$DIMSE2
 70
     0
  9
$DIMTAD
 70
     0
  9
$DIMZIN
 70
     0
  9
$DIMBLK
  1

  9
$DIMASO
 70
     1
  9
$DIMSHO
 70
     1
  9
$DIMPOST
  1

  9
$DIMAPOST
  1

  9
$DIMALT
 70
     0
  9
$DIMALTD
 70
     2
  9
$DIMALTF
 40
25.4
  9
$DIMLFAC
 40
1.0
  9
$DIMTOFL
 70
     0
  9
$DIMTVP
 40
0.0
  9
$DIMTIX
 70
     0
  9
$DIMSOXD
 70
     0
  9
$DIMSAH
 70
     0
  9
$DIMBLK1
  1

  9
$DIMBLK2
  1

  9
$DIMSTYLE
  2
STANDARD
  9
$DIMCLRD
 70
     0
  9
$DIMCLRE
 70
     0
  9
$DIMCLRT
 70
     0
  9
$DIMTFAC
 40
1.0
  9
$DIMGAP
 40
0.09
  9
$DIMJUST
 70
     0
  9
$DIMSD1
 70
     0
  9
$DIMSD2
 70
     0
  9
$DIMTOLJ
 70
     1
  9
$DIMTZIN
 70
     0
  9
$DIMALTZ
 70
     0
  9
$DIMALTTZ
 70
     0
  9
$DIMFIT
 70
     3
  9
$DIMUPT
 70
     0
  9
$DIMUNIT
 70
     2
  9
$DIMDEC
 70
     4
  9
$DIMTDEC
 70
     4
  9
$DIMALTU
 70
     2
  9
$DIMALTTD
 70
     2
  9
$DIMTXSTY
  7
STANDARD
  9
$DIMAUNIT
 70
     0
  9
$LUNITS
 70
     2
  9
$LUPREC
 70
     4
  9
$SKETCHINC
 40
0.1
  9
$FILLETRAD
 40
0.0
  9
$AUNITS
 70
     0
  9
$AUPREC
 70
     0
  9
$MENU
  1
.
  9
$ELEVATION
 40
0.0
  9
$PELEVATION
 40
0.0
  9
$THICKNESS
 40
0.0
  9
$LIMCHECK
 70
     0
  9
$CHAMFERA
 40
0.0
  9
$CHAMFERB
 40
0.0
  9
$CHAMFERC
 40
0.0
  9
$CHAMFERD
 40
0.0
  9
$SKPOLY
 70
     0
  9
$TDCREATE
 40
2452152.84954382
  9
$TDUPDATE
 40
2459017.715994838
  9
$TDINDWG
 40
0.0111068403
  9
$TDUSRTIMER
 40
0.011105
  9
$USRTIMER
 70
     1
  9
$ANGBASE
 50
0.0
  9
$ANGDIR
 70
     0
  9
$PDMODE
 70
     0
  9
$PDSIZE
 40
0.0
  9
$PLINEWID
 40
0.0
  9
$COORDS
 70
     1
  9
$SPLFRAME
 70
     0
  9
$SPLINETYPE
 70
     6
  9
$SPLINESEGS
 70
     8
  9
$ATTDIA
 70
     0
  9
$ATTREQ
 70
     1
  9
$HANDLING
 70
     1
  9
$HANDSEED
  5
BB4
  9
$SURFTAB1
 70
     6
  9
$SURFTAB2
 70
     6
  9
$SURFTYPE
 70
     6
  9
$SURFU
 70
     6
  9
$SURFV
 70
     6
  9
$UCSNAME
  2

  9
$UCSORG
 10
0.0
 20
0.0
 30
0.0
  9
$UCSXDIR
 10
1.0
 20
0.0
 30
0.0
  9
$UCSYDIR
 10
0.0
 20
1.0
 30
0.0
  9
$PUCSNAME
  2

  9
$PUCSORG
 10
0.0
 20
0.0
 30
0.0
  9
$PUCSXDIR
 10
1.0
 20
0.0
 30
0.0
  9
$PUCSYDIR
 10
0.0
 20
1.0
 30
0.0
  9
$USERI1
 70
     0
  9
$USERI2
 70
     0
  9
$USERI3
 70
     0
  9
$USERI4
 70
     0
  9
$USERI5
 70
     0
  9
$USERR1
 40
0.0
  9
$USERR2
 40
0.0
  9
$USERR3
 40
0.0
  9
$USERR4
 40
0.0
  9
$USERR5
 40
0.0
  9
$WORLDVIEW
 70
     1
  9
$SHADEDGE
 70
     3
  9
$SHADEDIF
 70
    70
  9
$TILEMODE
 70
     1
  9
$MAXACTVP
 70
    64
  9
$PINSBASE
 10
0.0
 20
0.0
 30
0.0
  9
$PLIMCHECK
 70
     0
  9
$PEXTMIN
 10
1.000000000000000E+20
 20
1.000000000000000E+20
 30
1.000000000000000E+20
  9
$PEXTMAX
 10
-1.000000000000000E+20
 20
-1.000000000000000E+20
 30
-1.000000000000000E+20
  9
$PLIMMIN
 10
0.0
 20
0.0
  9
$PLIMMAX
 10
12.0
 20
9.0
  9
$UNITMODE
 70
     0
  9
$VISRETAIN
 70
     1
  9
$PLINEGEN
 70
     0
  9
$PSLTSCALE
 70
     1
  9
$TREEDEPTH
 70
  3020
  9
$PICKSTYLE
 70
     1
  9
$CMLSTYLE
  2
STANDARD
  9
$CMLJUST
 70
     0
  9
$CMLSCALE
 40
1.0
  9
$PROXYGRAPHICS
 70
     1
  9
$MEASUREMENT
 70
     0
  0
ENDSEC
  0
SECTION
  2
CLASSES
  0
CLASS
  1
ACDBDICTIONARYWDFLT
  2
AcDbDictionaryWithDefault
  3
ObjectDBX Classes
 90
        0
280
     0
281
     0
  0
CLASS
  1
ACDBPLACEHOLDER
  2
AcDbPlaceHolder
  3
ObjectDBX Classes
 90
        0
280
     0
281
     0
  0
CLASS
  1
LAYOUT
  2
AcDbLayout
  3
ObjectDBX Classes
 90
        0
280
     0
281
     0
  0
CLASS
  1
DICTIONARYVAR
  2
AcDbDictionaryVar
  3
ObjectDBX Classes
 90
        0
280
     0
281
     0
  0
CLASS
  1
TABLESTYLE
  2
AcDbTableStyle
  3
ObjectDBX Classes
 90
     4095
280
     0
281
     0
  0
CLASS
  1
SCALE
  2
AcDbScale
  3
ObjectDBX Classes
 90
     1153
280
     0
281
     0
  0
CLASS
  1
XRECORD
  2
AcDbXrecord
  3
AutoCAD 2000
 90
        0
280
     0
281
     0
  0
CLASS
  1
LWPOLYLINE
  2
AcDbPolyline
  3
AutoCAD 2000
 90
        0
280
     0
281
     1
  0
CLASS
  1
HATCH
  2
AcDbHatch
  3
AutoCAD 2000
 90
        0
280
     0
281
     1
  0
ENDSEC
  0
SECTION
  2
TABLES
  0
TABLE
  2
VPORT
  5
8
330
0
100
AcDbSymbolTable
 70
     2
  0
VPORT
  5
97
330
8
100
AcDbSymbolTableRecord
100
AcDbViewportTableRecord
  2
*ACTIVE
 70
     0
 10
0.0
 20
0.0
 11
1.0
 21
1.0
 12
58.96460987777375
 22
76.81034209297881
 13
0.0
 23
0.0
 14
1.0
 24
1.0
 15
0.5
 25
0.5
 16
0.0
 26
0.0
 36
1.0
 17
0.0
 27
0.0
 37
0.0
 40
152.9944248149576
 41
2.210374639769452
 42
50.0
 43
0.0
 44
0.0
 50
0.0
 51
0.0
 71
     0
 72
   100
 73
     1
 74
     1
 75
     0
 76
     0
 77
     0
 78
     0
  0
ENDTAB
  0
TABLE
  2
LTYPE
  5
5
330
0
100
AcDbSymbolTable
 70
     1
  0
LTYPE
  5
14
330
5
100
AcDbSymbolTableRecord
100
AcDbLinetypeTableRecord
  2
BYBLOCK
 70
     0
  3

 72
    65
 73
     0
 40
0.0
  0
LTYPE
  5
15
330
5
100
AcDbSymbolTableRecord
100
AcDbLinetypeTableRecord
  2
BYLAYER
 70
     0
  3

 72
    65
 73
     0
 40
0.0
  0
LTYPE
  5
16
330
5
100
AcDbSymbolTableRecord
100
AcDbLinetypeTableRecord
  2
CONTINUOUS
 70
     0
  3
Solid line
 72
    65
 73
     0
 40
0.0
  0
ENDTAB
  0
TABLE
  2
LAYER
  5
2
330
0
100
AcDbSymbolTable
 70
   129
  0
LAYER
  5
10
330
2
100
AcDbSymbolTableRecord
100
AcDbLayerTableRecord
  2
0
 70
     0
 62
     7
  6
CONTINUOUS
  0
LAYER
  5
5D7
330
2
100
AcDbSymbolTableRecord
100
AcDbLayerTableRecord
  2
1
 70
     0
 62
     7
  6
CONTINUOUS
  0
LAYER
  5
5D8
330
2
100
AcDbSymbolTableRecord
100
AcDbLayerTableRecord
  2
2
 70
     0
 62
     7
  6
CONTINUOUS
  0
LAYER
  5
5D9
330
2
100
AcDbSymbolTableRecord
100
AcDbLayerTableRecord
  2
3
 70
     0
 62
     7
  6
CONTINUOUS
  0
LAYER
  5
5DA
330
2
100
AcDbSymbolTableRecord
100
AcDbLayerTableRecord
  2
4
 70
     0
 62
     7
  6
CONTINUOUS
  0
LAYER
  5
5DB
330
2
100
AcDbSymbolTableRecord
100
AcDbLayerTableRecord
  2
5
 70
     0
 62
     7
  6
CONTINUOUS
  0
LAYER
  5
5DC
330
2
100
AcDbSymbolTableRecord
100
AcDbLayerTableRecord
  2
6
 70
     0
 62
     7
  6
CONTINUOUS
  0
LAYER
  5
5DD
330
2
100
AcDbSymbolTableRecord
100
AcDbLayerTableRecord
  2
7
 70
     0
 62
     7
  6
CONTINUOUS
  0
LAYER
  5
5DE
330
2
100
AcDbSymbolTableRecord
100
AcDbLayerTableRecord
  2
8
 70
     0
 62
     7
  6
CONTINUOUS
  0
LAYER
  5
5DF
330
2
100
AcDbSymbolTableRecord
100
AcDbLayerTableRecord
  2
9
 70
     0
 62
     7
  6
CONTINUOUS
  0
LAYER
  5
5E0
330
2
100
AcDbSymbolTableRecord
100
AcDbLayerTableRecord
  2
10
 70
     0
 62
     7
  6
CONTINUOUS
  0
LAYER
  5
5E1
330
2
100
AcDbSymbolTableRecord
100
AcDbLayerTableRecord
  2
11
 70
     0
 62
     7
  6
CONTINUOUS
  0
LAYER
  5
5E2
330
2
100
AcDbSymbolTableRecord
100
AcDbLayerTableRecord
  2
12
 70
     0
 62
     7
  6
CONTINUOUS
  0
LAYER
  5
5E3
330
2
100
AcDbSymbolTableRecord
100
AcDbLayerTableRecord
  2
13
 70
     0
 62
     7
  6
CONTINUOUS
  0
LAYER
  5
5E4
330
2
100
AcDbSymbolTableRecord
100
AcDbLayerTableRecord
  2
14
 70
     0
 62
     7
  6
CONTINUOUS
  0
LAYER
  5
5E5
330
2
100
AcDbSymbolTableRecord
100
AcDbLayerTableRecord
  2
15
 70
     0
 62
     7
  6
CONTINUOUS
  0
LAYER
  5
5E6
330
2
100
AcDbSymbolTableRecord
100
AcDbLayerTableRecord
  2
16
 70
     0
 62
     7
  6
CONTINUOUS
  0
LAYER
  5
5E7
330
2
100
AcDbSymbolTableRecord
100
AcDbLayerTableRecord
  2
17
 70
     0
 62
     7
  6
CONTINUOUS
  0
LAYER
  5
5E8
330
2
100
AcDbSymbolTableRecord
100
AcDbLayerTableRecord
  2
18
 70
     0
 62
     7
  6
CONTINUOUS
  0
LAYER
  5
5E9
330
2
100
AcDbSymbolTableRecord
100
AcDbLayerTableRecord
  2
19
 70
     0
 62
     7
  6
CONTINUOUS
  0
LAYER
  5
5EA
330
2
100
AcDbSymbolTableRecord
100
AcDbLayerTableRecord
  2
20
 70
     0
 62
     7
  6
CONTINUOUS
  0
LAYER
  5
5EB
330
2
100
AcDbSymbolTableRecord
100
AcDbLayerTableRecord
  2
21
 70
     0
 62
     7
  6
CONTINUOUS
  0
LAYER
  5
5EC
330
2
100
AcDbSymbolTableRecord
100
AcDbLayerTableRecord
  2
22
 70
     0
 62
     7
  6
CONTINUOUS
  0
LAYER
  5
5ED
330
2
100
AcDbSymbolTableRecord
100
AcDbLayerTableRecord
  2
23
 70
     0
 62
     7
  6
CONTINUOUS
  0
LAYER
  5
5EE
330
2
100
AcDbSymbolTableRecord
100
AcDbLayerTableRecord
  2
24
 70
     0
 62
     7
  6
CONTINUOUS
  0
LAYER
  5
5EF
330
2
100
AcDbSymbolTableRecord
100
AcDbLayerTableRecord
  2
25
 70
     0
 62
     7
  6
CONTINUOUS
  0
LAYER
  5
5F0
330
2
100
AcDbSymbolTableRecord
100
AcDbLayerTableRecord
  2
26
 70
     0
 62
     7
  6
CONTINUOUS
  0
LAYER
  5
5F1
330
2
100
AcDbSymbolTableRecord
100
AcDbLayerTableRecord
  2
27
 70
     0
 62
     7
  6
CONTINUOUS
  0
LAYER
  5
5F2
330
2
100
AcDbSymbolTableRecord
100
AcDbLayerTableRecord
  2
28
 70
     0
 62
     7
  6
CONTINUOUS
  0
LAYER
  5
5F3
330
2
100
AcDbSymbolTableRecord
100
AcDbLayerTableRecord
  2
29
 70
     0
 62
     7
  6
CONTINUOUS
  0
LAYER
  5
5F4
330
2
100
AcDbSymbolTableRecord
100
AcDbLayerTableRecord
  2
30
 70
     0
 62
     7
  6
CONTINUOUS
  0
LAYER
  5
5F5
330
2
100
AcDbSymbolTableRecord
100
AcDbLayerTableRecord
  2
31
 70
     0
 62
     7
  6
CONTINUOUS
  0
LAYER
  5
5F6
330
2
100
AcDbSymbolTableRecord
100
AcDbLayerTableRecord
  2
32
 70
     0
 62
     7
  6
CONTINUOUS
  0
LAYER
  5
5F7
330
2
100
AcDbSymbolTableRecord
100
AcDbLayerTableRecord
  2
33
 70
     0
 62
     7
  6
CONTINUOUS
  0
LAYER
  5
5F8
330
2
100
AcDbSymbolTableRecord
100
AcDbLayerTableRecord
  2
34
 70
     0
 62
     7
  6
CONTINUOUS
  0
LAYER
  5
5F9
330
2
100
AcDbSymbolTableRecord
100
AcDbLayerTableRecord
  2
35
 70
     0
 62
     7
  6
CONTINUOUS
  0
LAYER
  5
5FA
330
2
100
AcDbSymbolTableRecord
100
AcDbLayerTableRecord
  2
36
 70
     0
 62
     7
  6
CONTINUOUS
  0
LAYER
  5
5FB
330
2
100
AcDbSymbolTableRecord
100
AcDbLayerTableRecord
  2
37
 70
     0
 62
     7
  6
CONTINUOUS
  0
LAYER
  5
5FC
330
2
100
AcDbSymbolTableRecord
100
AcDbLayerTableRecord
  2
38
 70
     0
 62
     7
  6
CONTINUOUS
  0
LAYER
  5
5FD
330
2
100
AcDbSymbolTableRecord
100
AcDbLayerTableRecord
  2
39
 70
     0
 62
     7
  6
CONTINUOUS
  0
LAYER
  5
5FE
330
2
100
AcDbSymbolTableRecord
100
AcDbLayerTableRecord
  2
40
 70
     0
 62
     7
  6
CONTINUOUS
  0
LAYER
  5
5FF
330
2
100
AcDbSymbolTableRecord
100
AcDbLayerTableRecord
  2
41
 70
     0
 62
     7
  6
CONTINUOUS
  0
LAYER
  5
600
330
2
100
AcDbSymbolTableRecord
100
AcDbLayerTableRecord
  2
42
 70
     0
 62
     7
  6
CONTINUOUS
  0
LAYER
  5
601
330
2
100
AcDbSymbolTableRecord
100
AcDbLayerTableRecord
  2
43
 70
     0
 62
     7
  6
CONTINUOUS
  0
LAYER
  5
602
330
2
100
AcDbSymbolTableRecord
100
AcDbLayerTableRecord
  2
44
 70
     0
 62
     7
  6
CONTINUOUS
  0
LAYER
  5
603
330
2
100
AcDbSymbolTableRecord
100
AcDbLayerTableRecord
  2
45
 70
     0
 62
     7
  6
CONTINUOUS
  0
LAYER
  5
604
330
2
100
AcDbSymbolTableRecord
100
AcDbLayerTableRecord
  2
46
 70
     0
 62
     7
  6
CONTINUOUS
  0
LAYER
  5
605
330
2
100
AcDbSymbolTableRecord
100
AcDbLayerTableRecord
  2
47
 70
     0
 62
     7
  6
CONTINUOUS
  0
LAYER
  5
606
330
2
100
AcDbSymbolTableRecord
100
AcDbLayerTableRecord
  2
48
 70
     0
 62
     7
  6
CONTINUOUS
  0
LAYER
  5
607
330
2
100
AcDbSymbolTableRecord
100
AcDbLayerTableRecord
  2
49
 70
     0
 62
     7
  6
CONTINUOUS
  0
LAYER
  5
608
330
2
100
AcDbSymbolTableRecord
100
AcDbLayerTableRecord
  2
50
 70
     0
 62
     7
  6
CONTINUOUS
  0
LAYER
  5
609
330
2
100
AcDbSymbolTableRecord
100
AcDbLayerTableRecord
  2
51
 70
     0
 62
     7
  6
CONTINUOUS
  0
LAYER
  5
60A
330
2
100
AcDbSymbolTableRecord
100
AcDbLayerTableRecord
  2
52
 70
     0
 62
     7
  6
CONTINUOUS
  0
LAYER
  5
60B
330
2
100
AcDbSymbolTableRecord
100
AcDbLayerTableRecord
  2
53
 70
     0
 62
     7
  6
CONTINUOUS
  0
LAYER
  5
60C
330
2
100
AcDbSymbolTableRecord
100
AcDbLayerTableRecord
  2
54
 70
     0
 62
     7
  6
CONTINUOUS
  0
LAYER
  5
60D
330
2
100
AcDbSymbolTableRecord
100
AcDbLayerTableRecord
  2
55
 70
     0
 62
     7
  6
CONTINUOUS
  0
LAYER
  5
60E
330
2
100
AcDbSymbolTableRecord
100
AcDbLayerTableRecord
  2
56
 70
     0
 62
     7
  6
CONTINUOUS
  0
LAYER
  5
60F
330
2
100
AcDbSymbolTableRecord
100
AcDbLayerTableRecord
  2
57
 70
     0
 62
     7
  6
CONTINUOUS
  0
LAYER
  5
610
330
2
100
AcDbSymbolTableRecord
100
AcDbLayerTableRecord
  2
58
 70
     0
 62
     7
  6
CONTINUOUS
  0
LAYER
  5
611
330
2
100
AcDbSymbolTableRecord
100
AcDbLayerTableRecord
  2
59
 70
     0
 62
     7
  6
CONTINUOUS
  0
LAYER
  5
612
330
2
100
AcDbSymbolTableRecord
100
AcDbLayerTableRecord
  2
60
 70
     0
 62
     7
  6
CONTINUOUS
  0
LAYER
  5
613
330
2
100
AcDbSymbolTableRecord
100
AcDbLayerTableRecord
  2
61
 70
     0
 62
     7
  6
CONTINUOUS
  0
LAYER
  5
614
330
2
100
AcDbSymbolTableRecord
100
AcDbLayerTableRecord
  2
62
 70
     0
 62
     7
  6
CONTINUOUS
  0
LAYER
  5
615
330
2
100
AcDbSymbolTableRecord
100
AcDbLayerTableRecord
  2
63
 70
     0
 62
     7
  6
CONTINUOUS
  0
LAYER
  5
616
330
2
100
AcDbSymbolTableRecord
100
AcDbLayerTableRecord
  2
64
 70
     0
 62
     7
  6
CONTINUOUS
  0
LAYER
  5
617
330
2
100
AcDbSymbolTableRecord
100
AcDbLayerTableRecord
  2
65
 70
     0
 62
     7
  6
CONTINUOUS
  0
LAYER
  5
618
330
2
100
AcDbSymbolTableRecord
100
AcDbLayerTableRecord
  2
66
 70
     0
 62
     7
  6
CONTINUOUS
  0
LAYER
  5
619
330
2
100
AcDbSymbolTableRecord
100
AcDbLayerTableRecord
  2
67
 70
     0
 62
     7
  6
CONTINUOUS
  0
LAYER
  5
61A
330
2
100
AcDbSymbolTableRecord
100
AcDbLayerTableRecord
  2
68
 70
     0
 62
     7
  6
CONTINUOUS
  0
LAYER
  5
61B
330
2
100
AcDbSymbolTableRecord
100
AcDbLayerTableRecord
  2
69
 70
     0
 62
     7
  6
CONTINUOUS
  0
LAYER
  5
61C
330
2
100
AcDbSymbolTableRecord
100
AcDbLayerTableRecord
  2
70
 70
     0
 62
     7
  6
CONTINUOUS
  0
LAYER
  5
61D
330
2
100
AcDbSymbolTableRecord
100
AcDbLayerTableRecord
  2
71
 70
     0
 62
     7
  6
CONTINUOUS
  0
LAYER
  5
61E
330
2
100
AcDbSymbolTableRecord
100
AcDbLayerTableRecord
  2
72
 70
     0
 62
     7
  6
CONTINUOUS
  0
LAYER
  5
61F
330
2
100
AcDbSymbolTableRecord
100
AcDbLayerTableRecord
  2
73
 70
     0
 62
     7
  6
CONTINUOUS
  0
LAYER
  5
620
330
2
100
AcDbSymbolTableRecord
100
AcDbLayerTableRecord
  2
74
 70
     0
 62
     7
  6
CONTINUOUS
  0
LAYER
  5
621
330
2
100
AcDbSymbolTableRecord
100
AcDbLayerTableRecord
  2
75
 70
     0
 62
     7
  6
CONTINUOUS
  0
LAYER
  5
622
330
2
100
AcDbSymbolTableRecord
100
AcDbLayerTableRecord
  2
76
 70
     0
 62
     7
  6
CONTINUOUS
  0
LAYER
  5
623
330
2
100
AcDbSymbolTableRecord
100
AcDbLayerTableRecord
  2
77
 70
     0
 62
     7
  6
CONTINUOUS
  0
LAYER
  5
624
330
2
100
AcDbSymbolTableRecord
100
AcDbLayerTableRecord
  2
78
 70
     0
 62
     7
  6
CONTINUOUS
  0
LAYER
  5
625
330
2
100
AcDbSymbolTableRecord
100
AcDbLayerTableRecord
  2
79
 70
     0
 62
     7
  6
CONTINUOUS
  0
LAYER
  5
626
330
2
100
AcDbSymbolTableRecord
100
AcDbLayerTableRecord
  2
80
 70
     0
 62
     7
  6
CONTINUOUS
  0
LAYER
  5
627
330
2
100
AcDbSymbolTableRecord
100
AcDbLayerTableRecord
  2
81
 70
     0
 62
     7
  6
CONTINUOUS
  0
LAYER
  5
628
330
2
100
AcDbSymbolTableRecord
100
AcDbLayerTableRecord
  2
82
 70
     0
 62
     7
  6
CONTINUOUS
  0
LAYER
  5
629
330
2
100
AcDbSymbolTableRecord
100
AcDbLayerTableRecord
  2
83
 70
     0
 62
     7
  6
CONTINUOUS
  0
LAYER
  5
62A
330
2
100
AcDbSymbolTableRecord
100
AcDbLayerTableRecord
  2
84
 70
     0
 62
     7
  6
CONTINUOUS
  0
LAYER
  5
62B
330
2
100
AcDbSymbolTableRecord
100
AcDbLayerTableRecord
  2
85
 70
     0
 62
     7
  6
CONTINUOUS
  0
LAYER
  5
62C
330
2
100
AcDbSymbolTableRecord
100
AcDbLayerTableRecord
  2
86
 70
     0
 62
     7
  6
CONTINUOUS
  0
LAYER
  5
62D
330
2
100
AcDbSymbolTableRecord
100
AcDbLayerTableRecord
  2
87
 70
     0
 62
     7
  6
CONTINUOUS
  0
LAYER
  5
62E
330
2
100
AcDbSymbolTableRecord
100
AcDbLayerTableRecord
  2
88
 70
     0
 62
     7
  6
CONTINUOUS
  0
LAYER
  5
62F
330
2
100
AcDbSymbolTableRecord
100
AcDbLayerTableRecord
  2
89
 70
     0
 62
     7
  6
CONTINUOUS
  0
LAYER
  5
630
330
2
100
AcDbSymbolTableRecord
100
AcDbLayerTableRecord
  2
90
 70
     0
 62
     7
  6
CONTINUOUS
  0
LAYER
  5
631
330
2
100
AcDbSymbolTableRecord
100
AcDbLayerTableRecord
  2
91
 70
     0
 62
     7
  6
CONTINUOUS
  0
LAYER
  5
632
330
2
100
AcDbSymbolTableRecord
100
AcDbLayerTableRecord
  2
92
 70
     0
 62
     7
  6
CONTINUOUS
  0
LAYER
  5
633
330
2
100
AcDbSymbolTableRecord
100
AcDbLayerTableRecord
  2
93
 70
     0
 62
     7
  6
CONTINUOUS
  0
LAYER
  5
634
330
2
100
AcDbSymbolTableRecord
100
AcDbLayerTableRecord
  2
94
 70
     0
 62
     7
  6
CONTINUOUS
  0
LAYER
  5
635
330
2
100
AcDbSymbolTableRecord
100
AcDbLayerTableRecord
  2
95
 70
     0
 62
     7
  6
CONTINUOUS
  0
LAYER
  5
636
330
2
100
AcDbSymbolTableRecord
100
AcDbLayerTableRecord
  2
96
 70
     0
 62
     7
  6
CONTINUOUS
  0
LAYER
  5
637
330
2
100
AcDbSymbolTableRecord
100
AcDbLayerTableRecord
  2
97
 70
     0
 62
     7
  6
CONTINUOUS
  0
LAYER
  5
638
330
2
100
AcDbSymbolTableRecord
100
AcDbLayerTableRecord
  2
98
 70
     0
 62
     7
  6
CONTINUOUS
  0
LAYER
  5
639
330
2
100
AcDbSymbolTableRecord
100
AcDbLayerTableRecord
  2
99
 70
     0
 62
     7
  6
CONTINUOUS
  0
LAYER
  5
63A
330
2
100
AcDbSymbolTableRecord
100
AcDbLayerTableRecord
  2
100
 70
     0
 62
     7
  6
CONTINUOUS
  0
LAYER
  5
63B
330
2
100
AcDbSymbolTableRecord
100
AcDbLayerTableRecord
  2
101
 70
     0
 62
     7
  6
CONTINUOUS
  0
LAYER
  5
63C
330
2
100
AcDbSymbolTableRecord
100
AcDbLayerTableRecord
  2
102
 70
     0
 62
     7
  6
CONTINUOUS
  0
LAYER
  5
63D
330
2
100
AcDbSymbolTableRecord
100
AcDbLayerTableRecord
  2
103
 70
     0
 62
     7
  6
CONTINUOUS
  0
LAYER
  5
63E
330
2
100
AcDbSymbolTableRecord
100
AcDbLayerTableRecord
  2
104
 70
     0
 62
     7
  6
CONTINUOUS
  0
LAYER
  5
63F
330
2
100
AcDbSymbolTableRecord
100
AcDbLayerTableRecord
  2
105
 70
     0
 62
     7
  6
CONTINUOUS
  0
LAYER
  5
640
330
2
100
AcDbSymbolTableRecord
100
AcDbLayerTableRecord
  2
106
 70
     0
 62
     7
  6
CONTINUOUS
  0
LAYER
  5
641
330
2
100
AcDbSymbolTableRecord
100
AcDbLayerTableRecord
  2
107
 70
     0
 62
     7
  6
CONTINUOUS
  0
LAYER
  5
642
330
2
100
AcDbSymbolTableRecord
100
AcDbLayerTableRecord
  2
108
 70
     0
 62
     7
  6
CONTINUOUS
  0
LAYER
  5
643
330
2
100
AcDbSymbolTableRecord
100
AcDbLayerTableRecord
  2
109
 70
     0
 62
     7
  6
CONTINUOUS
  0
LAYER
  5
644
330
2
100
AcDbSymbolTableRecord
100
AcDbLayerTableRecord
  2
110
 70
     0
 62
     7
  6
CONTINUOUS
  0
LAYER
  5
645
330
2
100
AcDbSymbolTableRecord
100
AcDbLayerTableRecord
  2
111
 70
     0
 62
     7
  6
CONTINUOUS
  0
LAYER
  5
646
330
2
100
AcDbSymbolTableRecord
100
AcDbLayerTableRecord
  2
112
 70
     0
 62
     7
  6
CONTINUOUS
  0
LAYER
  5
647
330
2
100
AcDbSymbolTableRecord
100
AcDbLayerTableRecord
  2
113
 70
     0
 62
     7
  6
CONTINUOUS
  0
LAYER
  5
648
330
2
100
AcDbSymbolTableRecord
100
AcDbLayerTableRecord
  2
114
 70
     0
 62
     7
  6
CONTINUOUS
  0
LAYER
  5
649
330
2
100
AcDbSymbolTableRecord
100
AcDbLayerTableRecord
  2
115
 70
     0
 62
     7
  6
CONTINUOUS
  0
LAYER
  5
64A
330
2
100
AcDbSymbolTableRecord
100
AcDbLayerTableRecord
  2
116
 70
     0
 62
     7
  6
CONTINUOUS
  0
LAYER
  5
64B
330
2
100
AcDbSymbolTableRecord
100
AcDbLayerTableRecord
  2
117
 70
     0
 62
     7
  6
CONTINUOUS
  0
LAYER
  5
64C
330
2
100
AcDbSymbolTableRecord
100
AcDbLayerTableRecord
  2
118
 70
     0
 62
     7
  6
CONTINUOUS
  0
LAYER
  5
64D
330
2
100
AcDbSymbolTableRecord
100
AcDbLayerTableRecord
  2
119
 70
     0
 62
     7
  6
CONTINUOUS
  0
LAYER
  5
64E
330
2
100
AcDbSymbolTableRecord
100
AcDbLayerTableRecord
  2
120
 70
     0
 62
     7
  6
CONTINUOUS
  0
LAYER
  5
64F
330
2
100
AcDbSymbolTableRecord
100
AcDbLayerTableRecord
  2
121
 70
     0
 62
     7
  6
CONTINUOUS
  0
LAYER
  5
650
330
2
100
AcDbSymbolTableRecord
100
AcDbLayerTableRecord
  2
122
 70
     0
 62
     7
  6
CONTINUOUS
  0
LAYER
  5
651
330
2
100
AcDbSymbolTableRecord
100
AcDbLayerTableRecord
  2
123
 70
     0
 62
     7
  6
CONTINUOUS
  0
LAYER
  5
652
330
2
100
AcDbSymbolTableRecord
100
AcDbLayerTableRecord
  2
124
 70
     0
 62
     7
  6
CONTINUOUS
  0
LAYER
  5
653
330
2
100
AcDbSymbolTableRecord
100
AcDbLayerTableRecord
  2
125
 70
     0
 62
     7
  6
CONTINUOUS
  0
LAYER
  5
654
330
2
100
AcDbSymbolTableRecord
100
AcDbLayerTableRecord
  2
126
 70
     0
 62
     7
  6
CONTINUOUS
  0
LAYER
  5
655
330
2
100
AcDbSymbolTableRecord
100
AcDbLayerTableRecord
  2
127
 70
     0
 62
     7
  6
CONTINUOUS
  0
LAYER
  5
B8A
330
2
100
AcDbSymbolTableRecord
100
AcDbLayerTableRecord
  2
DEFPOINTS
 70
     0
 62
     7
  6
CONTINUOUS
  0
ENDTAB
  0
TABLE
  2
STYLE
  5
3
330
0
100
AcDbSymbolTable
 70
     6
  0
STYLE
  5
11
330
3
100
AcDbSymbolTableRecord
100
AcDbTextStyleTableRecord
  2
STANDARD
 70
     0
 40
0.0
 41
1.0
 50
0.0
 71
     0
 42
0.2
  3
txt
  4

  0
STYLE
  5
656
330
3
100
AcDbSymbolTableRecord
100
AcDbTextStyleTableRecord
  2
KANJI0
 70
     0
 40
2.999997
 41
1.0
 50
0.0
 71
     0
 42
2.999997
  3
txt
  4
bigfont
  0
STYLE
  5
657
330
3
100
AcDbSymbolTableRecord
100
AcDbTextStyleTableRecord
  2
KANJI1
 70
     0
 40
2.142854999999999
 41
0.5
 50
0.0
 71
     0
 42
2.142854999999999
  3
txt
  4
bigfont
  0
STYLE
  5
658
330
3
100
AcDbSymbolTableRecord
100
AcDbTextStyleTableRecord
  2
KANJI2
 70
     0
 40
3.571425
 41
0.5
 50
0.0
 71
     0
 42
3.571425
  3
txt
  4
bigfont
  0
STYLE
  5
659
330
3
100
AcDbSymbolTableRecord
100
AcDbTextStyleTableRecord
  2
KANJI3
 70
     0
 40
2.499997499999999
 41
1.0
 50
0.0
 71
     0
 42
2.499997499999999
  3
txt
  4
bigfont
  0
STYLE
  5
65A
330
3
100
AcDbSymbolTableRecord
100
AcDbTextStyleTableRecord
  2
KANJI4
 70
     0
 40
3.571425
 41
0.499947214
 50
0.0
 71
     0
 42
3.571425
  3
txt
  4
bigfont
  0
ENDTAB
  0
TABLE
  2
VIEW
  5
6
330
0
100
AcDbSymbolTable
 70
     0
  0
ENDTAB
  0
TABLE
  2
UCS
  5
7
330
0
100
AcDbSymbolTable
 70
     0
  0
ENDTAB
  0
TABLE
  2
APPID
  5
9
330
0
100
AcDbSymbolTable
 70
     1
  0
APPID
  5
12
330
9
100
AcDbSymbolTableRecord
100
AcDbRegAppTableRecord
  2
ACAD
 70
     0
  0
ENDTAB
  0
TABLE
  2
DIMSTYLE
  5
A
330
0
100
AcDbSymbolTable
 70
     1
  0
DIMSTYLE
105
27
330
A
100
AcDbSymbolTableRecord
100
AcDbDimStyleTableRecord
  2
STANDARD
 70
     0
  3

  4

  5

  6

  7

 40
1.0
 41
0.18
 42
0.0625
 43
0.38
 44
0.18
 45
0.0
 46
0.0
 47
0.0
 48
0.0
140
0.18
141
0.09
142
0.0
143
25.4
144
1.0
145
0.0
146
1.0
147
0.09
 71
     0
 72
     0
 73
     1
 74
     1
 75
     0
 76
     0
 77
     0
 78
     0
170
     0
171
     2
172
     0
173
     0
174
     0
175
     0
176
     0
177
     0
178
     0
270
     2
271
     4
272
     4
273
     2
274
     2
340
11
275
     0
280
     0
281
     0
282
     0
283
     1
284
     0
285
     0
286
     0
287
     5
288
     0
  0
ENDTAB
  0
TABLE
  2
BLOCK_RECORD
  5
1
330
0
100
AcDbSymbolTable
 70
     2
  0
BLOCK_RECORD
  5
1F
330
1
100
AcDbSymbolTableRecord
100
AcDbBlockTableRecord
  2
*MODEL_SPACE
  0
BLOCK_RECORD
  5
73
330
1
100
AcDbSymbolTableRecord
100
AcDbBlockTableRecord
  2
*PAPER_SPACE
  0
BLOCK_RECORD
  5
65E
330
1
100
AcDbSymbolTableRecord
100
AcDbBlockTableRecord
  2
$MODEL_SPACE
  0
BLOCK_RECORD
  5
661
330
1
100
AcDbSymbolTableRecord
100
AcDbBlockTableRecord
  2
$PAPER_SPACE
  0
ENDTAB
  0
ENDSEC
  0
SECTION
  2
BLOCKS
  0
BLOCK
  5
20
330
1F
100
AcDbEntity
  8
0
100
AcDbBlockBegin
  2
*MODEL_SPACE
 70
     0
 10
0.0
 20
0.0
 30
0.0
  3
*MODEL_SPACE
  1

  0
ENDBLK
  5
21
330
1F
100
AcDbEntity
  8
0
100
AcDbBlockEnd
  0
BLOCK
  5
75
330
73
100
AcDbEntity
 67
     1
  8
0
100
AcDbBlockBegin
  2
*PAPER_SPACE
 70
     0
 10
0.0
 20
0.0
 30
0.0
  3
*PAPER_SPACE
  1

  0
ENDBLK
  5
76
330
73
100
AcDbEntity
 67
     1
  8
0
100
AcDbBlockEnd
  0
BLOCK
  5
B8C
330
65E
100
AcDbEntity
  8
0
100
AcDbBlockBegin
  2
$MODEL_SPACE
 70
     0
 10
0.0
 20
0.0
 30
0.0
  3
$MODEL_SPACE
  1

  0
ENDBLK
  5
B8D
330
65E
100
AcDbEntity
  8
0
100
AcDbBlockEnd
  0
BLOCK
  5
B8E
330
661
100
AcDbEntity
  8
0
100
AcDbBlockBegin
  2
$PAPER_SPACE
 70
     0
 10
0.0
 20
0.0
 30
0.0
  3
$PAPER_SPACE
  1

  0
ENDBLK
  5
B8F
330
661
100
AcDbEntity
  8
0
100
AcDbBlockEnd
  0
ENDSEC
  0
SECTION
  2
ENTITIES
  0
LINE
  5
664
330
1F
100
AcDbEntity
  8
0
  6
CONTINUOUS
 62
     3
100
AcDbLine
 10
30.34004803
 20
61.03207799999999
 30
0.0
 11
31.94004642999999
 21
61.03207799999999
 31
0.0
  0
LINE
  5
665
330
1F
100
AcDbEntity
  8
0
  6
CONTINUOUS
 62
     3
100
AcDbLine
 10
31.94004642999999
 20
61.03207799999999
 30
0.0
 11
31.94004642999999
 21
63.43207559999999
 31
0.0
  0
LINE
  5
666
330
1F
100
AcDbEntity
  8
0
  6
CONTINUOUS
 62
     3
100
AcDbLine
 10
31.94004642999999
 20
63.43207559999999
 30
0.0
 11
30.34004803
 21
63.43207559999999
 31
0.0
  0
LINE
  5
667
330
1F
100
AcDbEntity
  8
0
  6
CONTINUOUS
 62
     3
100
AcDbLine
 10
30.34004803
 20
63.43207559999999
 30
0.0
 11
30.34004803
 21
61.03207799999999
 31
0.0
  0
LINE
  5
668
330
1F
100
AcDbEntity
  8
0
  6
CONTINUOUS
 62
     3
100
AcDbLine
 10
30.34004803
 20
61.6320774
 30
0.0
 11
31.94004642999999
 21
61.6320774
 31
0.0
  0
POINT
  5
669
330
1F
100
AcDbEntity
  8
0
  6
CONTINUOUS
 62
     3
100
AcDbPoint
 10
31.94004642999999
 20
61.6320774
 30
0.0
  0
LINE
  5
66A
330
1F
100
AcDbEntity
  8
0
  6
CONTINUOUS
 62
     3
100
AcDbLine
 10
31.94004642999999
 20
61.6320774
 30
0.0
 11
30.34004803
 21
61.6320774
 31
0.0
  0
POINT
  5
66B
330
1F
100
AcDbEntity
  8
0
  6
CONTINUOUS
 62
     3
100
AcDbPoint
 10
30.34004803
 20
61.6320774
 30
0.0
  0
LINE
  5
66C
330
1F
100
AcDbEntity
  8
0
  6
CONTINUOUS
 62
     3
100
AcDbLine
 10
31.34004703
 20
63.43207559999999
 30
0.0
 11
31.34004703
 21
63.93207509999999
 31
0.0
  0
LINE
  5
66D
330
1F
100
AcDbEntity
  8
0
  6
CONTINUOUS
 62
     3
100
AcDbLine
 10
31.34004703
 20
63.93207509999999
 30
0.0
 11
30.94004743
 21
63.93207509999999
 31
0.0
  0
LINE
  5
66E
330
1F
100
AcDbEntity
  8
0
  6
CONTINUOUS
 62
     3
100
AcDbLine
 10
30.94004743
 20
63.93207509999999
 30
0.0
 11
30.94004743
 21
63.43207559999999
 31
0.0
  0
LINE
  5
66F
330
1F
100
AcDbEntity
  8
0
  6
CONTINUOUS
 62
     3
100
AcDbLine
 10
32.88004549
 20
61.03207799999999
 30
0.0
 11
34.48004388999999
 21
61.03207799999999
 31
0.0
  0
LINE
  5
670
330
1F
100
AcDbEntity
  8
0
  6
CONTINUOUS
 62
     3
100
AcDbLine
 10
34.48004388999999
 20
61.03207799999999
 30
0.0
 11
34.48004388999999
 21
63.43207559999999
 31
0.0
  0
LINE
  5
671
330
1F
100
AcDbEntity
  8
0
  6
CONTINUOUS
 62
     3
100
AcDbLine
 10
34.48004388999999
 20
63.43207559999999
 30
0.0
 11
32.88004549
 21
63.43207559999999
 31
0.0
  0
LINE
  5
672
330
1F
100
AcDbEntity
  8
0
  6
CONTINUOUS
 62
     3
100
AcDbLine
 10
32.88004549
 20
63.43207559999999
 30
0.0
 11
32.88004549
 21
61.03207799999999
 31
0.0
  0
LINE
  5
673
330
1F
100
AcDbEntity
  8
0
  6
CONTINUOUS
 62
     3
100
AcDbLine
 10
32.88004549
 20
61.6320774
 30
0.0
 11
34.48004388999999
 21
61.6320774
 31
0.0
  0
POINT
  5
674
330
1F
100
AcDbEntity
  8
0
  6
CONTINUOUS
 62
     3
100
AcDbPoint
 10
34.48004388999999
 20
61.6320774
 30
0.0
  0
LINE
  5
675
330
1F
100
AcDbEntity
  8
0
  6
CONTINUOUS
 62
     3
100
AcDbLine
 10
34.48004388999999
 20
61.6320774
 30
0.0
 11
32.88004549
 21
61.6320774
 31
0.0
  0
POINT
  5
676
330
1F
100
AcDbEntity
  8
0
  6
CONTINUOUS
 62
     3
100
AcDbPoint
 10
32.88004549
 20
61.6320774
 30
0.0
  0
LINE
  5
677
330
1F
100
AcDbEntity
  8
0
  6
CONTINUOUS
 62
     3
100
AcDbLine
 10
33.88004449
 20
63.43207559999999
 30
0.0
 11
33.88004449
 21
63.93207509999999
 31
0.0
  0
LINE
  5
678
330
1F
100
AcDbEntity
  8
0
  6
CONTINUOUS
 62
     3
100
AcDbLine
 10
33.88004449
 20
63.93207509999999
 30
0.0
 11
33.48004489
 21
63.93207509999999
 31
0.0
  0
LINE
  5
679
330
1F
100
AcDbEntity
  8
0
  6
CONTINUOUS
 62
     3
100
AcDbLine
 10
33.48004489
 20
63.93207509999999
 30
0.0
 11
33.48004489
 21
63.43207559999999
 31
0.0
  0
LINE
  5
67A
330
1F
100
AcDbEntity
  8
0
  6
CONTINUOUS
 62
     3
100
AcDbLine
 10
35.42004295000001
 20
61.03207799999999
 30
0.0
 11
37.02004135
 21
61.03207799999999
 31
0.0
  0
LINE
  5
67B
330
1F
100
AcDbEntity
  8
0
  6
CONTINUOUS
 62
     3
100
AcDbLine
 10
37.02004135
 20
61.03207799999999
 30
0.0
 11
37.02004135
 21
63.43207559999999
 31
0.0
  0
LINE
  5
67C
330
1F
100
AcDbEntity
  8
0
  6
CONTINUOUS
 62
     3
100
AcDbLine
 10
37.02004135
 20
63.43207559999999
 30
0.0
 11
35.42004295000001
 21
63.43207559999999
 31
0.0
  0
LINE
  5
67D
330
1F
100
AcDbEntity
  8
0
  6
CONTINUOUS
 62
     3
100
AcDbLine
 10
35.42004295000001
 20
63.43207559999999
 30
0.0
 11
35.42004295000001
 21
61.03207799999999
 31
0.0
  0
LINE
  5
67E
330
1F
100
AcDbEntity
  8
0
  6
CONTINUOUS
 62
     3
100
AcDbLine
 10
35.42004295000001
 20
61.6320774
 30
0.0
 11
37.02004135
 21
61.6320774
 31
0.0
  0
POINT
  5
67F
330
1F
100
AcDbEntity
  8
0
  6
CONTINUOUS
 62
     3
100
AcDbPoint
 10
37.02004135
 20
61.6320774
 30
0.0
  0
LINE
  5
680
330
1F
100
AcDbEntity
  8
0
  6
CONTINUOUS
 62
     3
100
AcDbLine
 10
37.02004135
 20
61.6320774
 30
0.0
 11
35.42004295000001
 21
61.6320774
 31
0.0
  0
POINT
  5
681
330
1F
100
AcDbEntity
  8
0
  6
CONTINUOUS
 62
     3
100
AcDbPoint
 10
35.42004295000001
 20
61.6320774
 30
0.0
  0
LINE
  5
682
330
1F
100
AcDbEntity
  8
0
  6
CONTINUOUS
 62
     3
100
AcDbLine
 10
36.42004195
 20
63.43207559999999
 30
0.0
 11
36.42004195
 21
63.93207509999999
 31
0.0
  0
LINE
  5
683
330
1F
100
AcDbEntity
  8
0
  6
CONTINUOUS
 62
     3
100
AcDbLine
 10
36.42004195
 20
63.93207509999999
 30
0.0
 11
36.02004234999997
 21
63.93207509999999
 31
0.0
  0
LINE
  5
684
330
1F
100
AcDbEntity
  8
0
  6
CONTINUOUS
 62
     3
100
AcDbLine
 10
36.02004234999997
 20
63.93207509999999
 30
0.0
 11
36.02004234999997
 21
63.43207559999999
 31
0.0
  0
LINE
  5
685
330
1F
100
AcDbEntity
  8
0
  6
CONTINUOUS
 62
     3
100
AcDbLine
 10
37.96004040999999
 20
61.03207799999999
 30
0.0
 11
39.56003881
 21
61.03207799999999
 31
0.0
  0
LINE
  5
686
330
1F
100
AcDbEntity
  8
0
  6
CONTINUOUS
 62
     3
100
AcDbLine
 10
39.56003881
 20
61.03207799999999
 30
0.0
 11
39.56003881
 21
63.43207559999999
 31
0.0
  0
LINE
  5
687
330
1F
100
AcDbEntity
  8
0
  6
CONTINUOUS
 62
     3
100
AcDbLine
 10
39.56003881
 20
63.43207559999999
 30
0.0
 11
37.96004040999999
 21
63.43207559999999
 31
0.0
  0
LINE
  5
688
330
1F
100
AcDbEntity
  8
0
  6
CONTINUOUS
 62
     3
100
AcDbLine
 10
37.96004040999999
 20
63.43207559999999
 30
0.0
 11
37.96004040999999
 21
61.03207799999999
 31
0.0
  0
LINE
  5
689
330
1F
100
AcDbEntity
  8
0
  6
CONTINUOUS
 62
     3
100
AcDbLine
 10
37.96004040999999
 20
61.6320774
 30
0.0
 11
39.56003881
 21
61.6320774
 31
0.0
  0
POINT
  5
68A
330
1F
100
AcDbEntity
  8
0
  6
CONTINUOUS
 62
     3
100
AcDbPoint
 10
39.56003881
 20
61.6320774
 30
0.0
  0
LINE
  5
68B
330
1F
100
AcDbEntity
  8
0
  6
CONTINUOUS
 62
     3
100
AcDbLine
 10
39.56003881
 20
61.6320774
 30
0.0
 11
37.96004040999999
 21
61.6320774
 31
0.0
  0
POINT
  5
68C
330
1F
100
AcDbEntity
  8
0
  6
CONTINUOUS
 62
     3
100
AcDbPoint
 10
37.96004040999999
 20
61.6320774
 30
0.0
  0
LINE
  5
68D
330
1F
100
AcDbEntity
  8
0
  6
CONTINUOUS
 62
     3
100
AcDbLine
 10
38.96003941
 20
63.43207559999999
 30
0.0
 11
38.96003941
 21
63.93207509999999
 31
0.0
  0
LINE
  5
68E
330
1F
100
AcDbEntity
  8
0
  6
CONTINUOUS
 62
     3
100
AcDbLine
 10
38.96003941
 20
63.93207509999999
 30
0.0
 11
38.56003981
 21
63.93207509999999
 31
0.0
  0
LINE
  5
68F
330
1F
100
AcDbEntity
  8
0
  6
CONTINUOUS
 62
     3
100
AcDbLine
 10
38.56003981
 20
63.93207509999999
 30
0.0
 11
38.56003981
 21
63.43207559999999
 31
0.0
  0
LINE
  5
690
330
1F
100
AcDbEntity
  8
0
  6
CONTINUOUS
 62
     3
100
AcDbLine
 10
40.50003787
 20
61.03207799999999
 30
0.0
 11
42.10003626999998
 21
61.03207799999999
 31
0.0
  0
LINE
  5
691
330
1F
100
AcDbEntity
  8
0
  6
CONTINUOUS
 62
     3
100
AcDbLine
 10
42.10003626999998
 20
61.03207799999999
 30
0.0
 11
42.10003626999998
 21
63.43207559999999
 31
0.0
  0
LINE
  5
692
330
1F
100
AcDbEntity
  8
0
  6
CONTINUOUS
 62
     3
100
AcDbLine
 10
42.10003626999998
 20
63.43207559999999
 30
0.0
 11
40.50003787
 21
63.43207559999999
 31
0.0
  0
LINE
  5
693
330
1F
100
AcDbEntity
  8
0
  6
CONTINUOUS
 62
     3
100
AcDbLine
 10
40.50003787
 20
63.43207559999999
 30
0.0
 11
40.50003787
 21
61.03207799999999
 31
0.0
  0
LINE
  5
694
330
1F
100
AcDbEntity
  8
0
  6
CONTINUOUS
 62
     3
100
AcDbLine
 10
40.50003787
 20
61.6320774
 30
0.0
 11
42.10003626999998
 21
61.6320774
 31
0.0
  0
POINT
  5
695
330
1F
100
AcDbEntity
  8
0
  6
CONTINUOUS
 62
     3
100
AcDbPoint
 10
42.10003626999998
 20
61.6320774
 30
0.0
  0
LINE
  5
696
330
1F
100
AcDbEntity
  8
0
  6
CONTINUOUS
 62
     3
100
AcDbLine
 10
42.10003626999998
 20
61.6320774
 30
0.0
 11
40.50003787
 21
61.6320774
 31
0.0
  0
POINT
  5
697
330
1F
100
AcDbEntity
  8
0
  6
CONTINUOUS
 62
     3
100
AcDbPoint
 10
40.50003787
 20
61.6320774
 30
0.0
  0
LINE
  5
698
330
1F
100
AcDbEntity
  8
0
  6
CONTINUOUS
 62
     3
100
AcDbLine
 10
41.50003687
 20
63.43207559999999
 30
0.0
 11
41.50003687
 21
63.93207509999999
 31
0.0
  0
LINE
  5
699
330
1F
100
AcDbEntity
  8
0
  6
CONTINUOUS
 62
     3
100
AcDbLine
 10
41.50003687
 20
63.93207509999999
 30
0.0
 11
41.10003727
 21
63.93207509999999
 31
0.0
  0
LINE
  5
69A
330
1F
100
AcDbEntity
  8
0
  6
CONTINUOUS
 62
     3
100
AcDbLine
 10
41.10003727
 20
63.93207509999999
 30
0.0
 11
41.10003727
 21
63.43207559999999
 31
0.0
  0
LINE
  5
69B
330
1F
100
AcDbEntity
  8
0
  6
CONTINUOUS
 62
     3
100
AcDbLine
 10
43.04003533
 20
61.03207799999999
 30
0.0
 11
44.64003372999999
 21
61.03207799999999
 31
0.0
  0
LINE
  5
69C
330
1F
100
AcDbEntity
  8
0
  6
CONTINUOUS
 62
     3
100
AcDbLine
 10
44.64003372999999
 20
61.03207799999999
 30
0.0
 11
44.64003372999999
 21
63.43207559999999
 31
0.0
  0
LINE
  5
69D
330
1F
100
AcDbEntity
  8
0
  6
CONTINUOUS
 62
     3
100
AcDbLine
 10
44.64003372999999
 20
63.43207559999999
 30
0.0
 11
43.04003533
 21
63.43207559999999
 31
0.0
  0
LINE
  5
69E
330
1F
100
AcDbEntity
  8
0
  6
CONTINUOUS
 62
     3
100
AcDbLine
 10
43.04003533
 20
63.43207559999999
 30
0.0
 11
43.04003533
 21
61.03207799999999
 31
0.0
  0
LINE
  5
69F
330
1F
100
AcDbEntity
  8
0
  6
CONTINUOUS
 62
     3
100
AcDbLine
 10
43.04003533
 20
61.6320774
 30
0.0
 11
44.64003372999999
 21
61.6320774
 31
0.0
  0
POINT
  5
6A0
330
1F
100
AcDbEntity
  8
0
  6
CONTINUOUS
 62
     3
100
AcDbPoint
 10
44.64003372999999
 20
61.6320774
 30
0.0
  0
LINE
  5
6A1
330
1F
100
AcDbEntity
  8
0
  6
CONTINUOUS
 62
     3
100
AcDbLine
 10
44.64003372999999
 20
61.6320774
 30
0.0
 11
43.04003533
 21
61.6320774
 31
0.0
  0
POINT
  5
6A2
330
1F
100
AcDbEntity
  8
0
  6
CONTINUOUS
 62
     3
100
AcDbPoint
 10
43.04003533
 20
61.6320774
 30
0.0
  0
LINE
  5
6A3
330
1F
100
AcDbEntity
  8
0
  6
CONTINUOUS
 62
     3
100
AcDbLine
 10
44.04003432999998
 20
63.43207559999999
 30
0.0
 11
44.04003432999998
 21
63.93207509999999
 31
0.0
  0
LINE
  5
6A4
330
1F
100
AcDbEntity
  8
0
  6
CONTINUOUS
 62
     3
100
AcDbLine
 10
44.04003432999998
 20
63.93207509999999
 30
0.0
 11
43.64003473
 21
63.93207509999999
 31
0.0
  0
LINE
  5
6A5
330
1F
100
AcDbEntity
  8
0
  6
CONTINUOUS
 62
     3
100
AcDbLine
 10
43.64003473
 20
63.93207509999999
 30
0.0
 11
43.64003473
 21
63.43207559999999
 31
0.0
  0
LINE
  5
6A6
330
1F
100
AcDbEntity
  8
0
  6
CONTINUOUS
 62
     3
100
AcDbLine
 10
45.58003279
 20
61.03207799999999
 30
0.0
 11
47.18003119
 21
61.03207799999999
 31
0.0
  0
LINE
  5
6A7
330
1F
100
AcDbEntity
  8
0
  6
CONTINUOUS
 62
     3
100
AcDbLine
 10
47.18003119
 20
61.03207799999999
 30
0.0
 11
47.18003119
 21
63.43207559999999
 31
0.0
  0
LINE
  5
6A8
330
1F
100
AcDbEntity
  8
0
  6
CONTINUOUS
 62
     3
100
AcDbLine
 10
47.18003119
 20
63.43207559999999
 30
0.0
 11
45.58003279
 21
63.43207559999999
 31
0.0
  0
LINE
  5
6A9
330
1F
100
AcDbEntity
  8
0
  6
CONTINUOUS
 62
     3
100
AcDbLine
 10
45.58003279
 20
63.43207559999999
 30
0.0
 11
45.58003279
 21
61.03207799999999
 31
0.0
  0
LINE
  5
6AA
330
1F
100
AcDbEntity
  8
0
  6
CONTINUOUS
 62
     3
100
AcDbLine
 10
45.58003279
 20
61.6320774
 30
0.0
 11
47.18003119
 21
61.6320774
 31
0.0
  0
POINT
  5
6AB
330
1F
100
AcDbEntity
  8
0
  6
CONTINUOUS
 62
     3
100
AcDbPoint
 10
47.18003119
 20
61.6320774
 30
0.0
  0
LINE
  5
6AC
330
1F
100
AcDbEntity
  8
0
  6
CONTINUOUS
 62
     3
100
AcDbLine
 10
47.18003119
 20
61.6320774
 30
0.0
 11
45.58003279
 21
61.6320774
 31
0.0
  0
POINT
  5
6AD
330
1F
100
AcDbEntity
  8
0
  6
CONTINUOUS
 62
     3
100
AcDbPoint
 10
45.58003279
 20
61.6320774
 30
0.0
  0
LINE
  5
6AE
330
1F
100
AcDbEntity
  8
0
  6
CONTINUOUS
 62
     3
100
AcDbLine
 10
46.58003179
 20
63.43207559999999
 30
0.0
 11
46.58003179
 21
63.93207509999999
 31
0.0
  0
LINE
  5
6AF
330
1F
100
AcDbEntity
  8
0
  6
CONTINUOUS
 62
     3
100
AcDbLine
 10
46.58003179
 20
63.93207509999999
 30
0.0
 11
46.18003219
 21
63.93207509999999
 31
0.0
  0
LINE
  5
6B0
330
1F
100
AcDbEntity
  8
0
  6
CONTINUOUS
 62
     3
100
AcDbLine
 10
46.18003219
 20
63.93207509999999
 30
0.0
 11
46.18003219
 21
63.43207559999999
 31
0.0
  0
LINE
  5
6B1
330
1F
100
AcDbEntity
  8
0
  6
CONTINUOUS
 62
     3
100
AcDbLine
 10
48.12003025
 20
61.03207799999999
 30
0.0
 11
49.72002865
 21
61.03207799999999
 31
0.0
  0
LINE
  5
6B2
330
1F
100
AcDbEntity
  8
0
  6
CONTINUOUS
 62
     3
100
AcDbLine
 10
49.72002865
 20
61.03207799999999
 30
0.0
 11
49.72002865
 21
63.43207559999999
 31
0.0
  0
LINE
  5
6B3
330
1F
100
AcDbEntity
  8
0
  6
CONTINUOUS
 62
     3
100
AcDbLine
 10
49.72002865
 20
63.43207559999999
 30
0.0
 11
48.12003025
 21
63.43207559999999
 31
0.0
  0
LINE
  5
6B4
330
1F
100
AcDbEntity
  8
0
  6
CONTINUOUS
 62
     3
100
AcDbLine
 10
48.12003025
 20
63.43207559999999
 30
0.0
 11
48.12003025
 21
61.03207799999999
 31
0.0
  0
LINE
  5
6B5
330
1F
100
AcDbEntity
  8
0
  6
CONTINUOUS
 62
     3
100
AcDbLine
 10
48.12003025
 20
61.6320774
 30
0.0
 11
49.72002865
 21
61.6320774
 31
0.0
  0
POINT
  5
6B6
330
1F
100
AcDbEntity
  8
0
  6
CONTINUOUS
 62
     3
100
AcDbPoint
 10
49.72002865
 20
61.6320774
 30
0.0
  0
LINE
  5
6B7
330
1F
100
AcDbEntity
  8
0
  6
CONTINUOUS
 62
     3
100
AcDbLine
 10
49.72002865
 20
61.6320774
 30
0.0
 11
48.12003025
 21
61.6320774
 31
0.0
  0
POINT
  5
6B8
330
1F
100
AcDbEntity
  8
0
  6
CONTINUOUS
 62
     3
100
AcDbPoint
 10
48.12003025
 20
61.6320774
 30
0.0
  0
LINE
  5
6B9
330
1F
100
AcDbEntity
  8
0
  6
CONTINUOUS
 62
     3
100
AcDbLine
 10
49.12002925
 20
63.43207559999999
 30
0.0
 11
49.12002925
 21
63.93207509999999
 31
0.0
  0
LINE
  5
6BA
330
1F
100
AcDbEntity
  8
0
  6
CONTINUOUS
 62
     3
100
AcDbLine
 10
49.12002925
 20
63.93207509999999
 30
0.0
 11
48.72002965
 21
63.93207509999999
 31
0.0
  0
LINE
  5
6BB
330
1F
100
AcDbEntity
  8
0
  6
CONTINUOUS
 62
     3
100
AcDbLine
 10
48.72002965
 20
63.93207509999999
 30
0.0
 11
48.72002965
 21
63.43207559999999
 31
0.0
  0
LINE
  5
6BC
330
1F
100
AcDbEntity
  8
0
  6
CONTINUOUS
 62
     3
100
AcDbLine
 10
50.66002771
 20
61.03207799999999
 30
0.0
 11
52.26002611
 21
61.03207799999999
 31
0.0
  0
LINE
  5
6BD
330
1F
100
AcDbEntity
  8
0
  6
CONTINUOUS
 62
     3
100
AcDbLine
 10
52.26002611
 20
61.03207799999999
 30
0.0
 11
52.26002611
 21
63.43207559999999
 31
0.0
  0
LINE
  5
6BE
330
1F
100
AcDbEntity
  8
0
  6
CONTINUOUS
 62
     3
100
AcDbLine
 10
52.26002611
 20
63.43207559999999
 30
0.0
 11
50.66002771
 21
63.43207559999999
 31
0.0
  0
LINE
  5
6BF
330
1F
100
AcDbEntity
  8
0
  6
CONTINUOUS
 62
     3
100
AcDbLine
 10
50.66002771
 20
63.43207559999999
 30
0.0
 11
50.66002771
 21
61.03207799999999
 31
0.0
  0
LINE
  5
6C0
330
1F
100
AcDbEntity
  8
0
  6
CONTINUOUS
 62
     3
100
AcDbLine
 10
50.66002771
 20
61.6320774
 30
0.0
 11
52.26002611
 21
61.6320774
 31
0.0
  0
POINT
  5
6C1
330
1F
100
AcDbEntity
  8
0
  6
CONTINUOUS
 62
     3
100
AcDbPoint
 10
52.26002611
 20
61.6320774
 30
0.0
  0
LINE
  5
6C2
330
1F
100
AcDbEntity
  8
0
  6
CONTINUOUS
 62
     3
100
AcDbLine
 10
52.26002611
 20
61.6320774
 30
0.0
 11
50.66002771
 21
61.6320774
 31
0.0
  0
POINT
  5
6C3
330
1F
100
AcDbEntity
  8
0
  6
CONTINUOUS
 62
     3
100
AcDbPoint
 10
50.66002771
 20
61.6320774
 30
0.0
  0
LINE
  5
6C4
330
1F
100
AcDbEntity
  8
0
  6
CONTINUOUS
 62
     3
100
AcDbLine
 10
51.66002671
 20
63.43207559999999
 30
0.0
 11
51.66002671
 21
63.93207509999999
 31
0.0
  0
LINE
  5
6C5
330
1F
100
AcDbEntity
  8
0
  6
CONTINUOUS
 62
     3
100
AcDbLine
 10
51.66002671
 20
63.93207509999999
 30
0.0
 11
51.26002711
 21
63.93207509999999
 31
0.0
  0
LINE
  5
6C6
330
1F
100
AcDbEntity
  8
0
  6
CONTINUOUS
 62
     3
100
AcDbLine
 10
51.26002711
 20
63.93207509999999
 30
0.0
 11
51.26002711
 21
63.43207559999999
 31
0.0
  0
LINE
  5
6C7
330
1F
100
AcDbEntity
  8
0
  6
CONTINUOUS
 62
     3
100
AcDbLine
 10
53.20002517
 20
61.03207799999999
 30
0.0
 11
54.80002357
 21
61.03207799999999
 31
0.0
  0
LINE
  5
6C8
330
1F
100
AcDbEntity
  8
0
  6
CONTINUOUS
 62
     3
100
AcDbLine
 10
54.80002357
 20
61.03207799999999
 30
0.0
 11
54.80002357
 21
63.43207559999999
 31
0.0
  0
LINE
  5
6C9
330
1F
100
AcDbEntity
  8
0
  6
CONTINUOUS
 62
     3
100
AcDbLine
 10
54.80002357
 20
63.43207559999999
 30
0.0
 11
53.20002517
 21
63.43207559999999
 31
0.0
  0
LINE
  5
6CA
330
1F
100
AcDbEntity
  8
0
  6
CONTINUOUS
 62
     3
100
AcDbLine
 10
53.20002517
 20
63.43207559999999
 30
0.0
 11
53.20002517
 21
61.03207799999999
 31
0.0
  0
LINE
  5
6CB
330
1F
100
AcDbEntity
  8
0
  6
CONTINUOUS
 62
     3
100
AcDbLine
 10
53.20002517
 20
61.6320774
 30
0.0
 11
54.80002357
 21
61.6320774
 31
0.0
  0
POINT
  5
6CC
330
1F
100
AcDbEntity
  8
0
  6
CONTINUOUS
 62
     3
100
AcDbPoint
 10
54.80002357
 20
61.6320774
 30
0.0
  0
LINE
  5
6CD
330
1F
100
AcDbEntity
  8
0
  6
CONTINUOUS
 62
     3
100
AcDbLine
 10
54.80002357
 20
61.6320774
 30
0.0
 11
53.20002517
 21
61.6320774
 31
0.0
  0
POINT
  5
6CE
330
1F
100
AcDbEntity
  8
0
  6
CONTINUOUS
 62
     3
100
AcDbPoint
 10
53.20002517
 20
61.6320774
 30
0.0
  0
LINE
  5
6CF
330
1F
100
AcDbEntity
  8
0
  6
CONTINUOUS
 62
     3
100
AcDbLine
 10
54.20002417
 20
63.43207559999999
 30
0.0
 11
54.20002417
 21
63.93207509999999
 31
0.0
  0
LINE
  5
6D0
330
1F
100
AcDbEntity
  8
0
  6
CONTINUOUS
 62
     3
100
AcDbLine
 10
54.20002417
 20
63.93207509999999
 30
0.0
 11
53.80002456999999
 21
63.93207509999999
 31
0.0
  0
LINE
  5
6D1
330
1F
100
AcDbEntity
  8
0
  6
CONTINUOUS
 62
     3
100
AcDbLine
 10
53.80002456999999
 20
63.93207509999999
 30
0.0
 11
53.80002456999999
 21
63.43207559999999
 31
0.0
  0
LINE
  5
6D2
330
1F
100
AcDbEntity
  8
0
  6
CONTINUOUS
 62
     3
100
AcDbLine
 10
55.74002263
 20
61.03207799999999
 30
0.0
 11
57.34002103
 21
61.03207799999999
 31
0.0
  0
LINE
  5
6D3
330
1F
100
AcDbEntity
  8
0
  6
CONTINUOUS
 62
     3
100
AcDbLine
 10
57.34002103
 20
61.03207799999999
 30
0.0
 11
57.34002103
 21
63.43207559999999
 31
0.0
  0
LINE
  5
6D4
330
1F
100
AcDbEntity
  8
0
  6
CONTINUOUS
 62
     3
100
AcDbLine
 10
57.34002103
 20
63.43207559999999
 30
0.0
 11
55.74002263
 21
63.43207559999999
 31
0.0
  0
LINE
  5
6D5
330
1F
100
AcDbEntity
  8
0
  6
CONTINUOUS
 62
     3
100
AcDbLine
 10
55.74002263
 20
63.43207559999999
 30
0.0
 11
55.74002263
 21
61.03207799999999
 31
0.0
  0
LINE
  5
6D6
330
1F
100
AcDbEntity
  8
0
  6
CONTINUOUS
 62
     3
100
AcDbLine
 10
55.74002263
 20
61.6320774
 30
0.0
 11
57.34002103
 21
61.6320774
 31
0.0
  0
POINT
  5
6D7
330
1F
100
AcDbEntity
  8
0
  6
CONTINUOUS
 62
     3
100
AcDbPoint
 10
57.34002103
 20
61.6320774
 30
0.0
  0
LINE
  5
6D8
330
1F
100
AcDbEntity
  8
0
  6
CONTINUOUS
 62
     3
100
AcDbLine
 10
57.34002103
 20
61.6320774
 30
0.0
 11
55.74002263
 21
61.6320774
 31
0.0
  0
POINT
  5
6D9
330
1F
100
AcDbEntity
  8
0
  6
CONTINUOUS
 62
     3
100
AcDbPoint
 10
55.74002263
 20
61.6320774
 30
0.0
  0
LINE
  5
6DA
330
1F
100
AcDbEntity
  8
0
  6
CONTINUOUS
 62
     3
100
AcDbLine
 10
56.74002163
 20
63.43207559999999
 30
0.0
 11
56.74002163
 21
63.93207509999999
 31
0.0
  0
LINE
  5
6DB
330
1F
100
AcDbEntity
  8
0
  6
CONTINUOUS
 62
     3
100
AcDbLine
 10
56.74002163
 20
63.93207509999999
 30
0.0
 11
56.34002203
 21
63.93207509999999
 31
0.0
  0
LINE
  5
6DC
330
1F
100
AcDbEntity
  8
0
  6
CONTINUOUS
 62
     3
100
AcDbLine
 10
56.34002203
 20
63.93207509999999
 30
0.0
 11
56.34002203
 21
63.43207559999999
 31
0.0
  0
LINE
  5
6DD
330
1F
100
AcDbEntity
  8
0
  6
CONTINUOUS
 62
     3
100
AcDbLine
 10
58.28002009
 20
61.03207799999999
 30
0.0
 11
59.88001848999999
 21
61.03207799999999
 31
0.0
  0
LINE
  5
6DE
330
1F
100
AcDbEntity
  8
0
  6
CONTINUOUS
 62
     3
100
AcDbLine
 10
59.88001848999999
 20
61.03207799999999
 30
0.0
 11
59.88001848999999
 21
63.43207559999999
 31
0.0
  0
LINE
  5
6DF
330
1F
100
AcDbEntity
  8
0
  6
CONTINUOUS
 62
     3
100
AcDbLine
 10
59.88001848999999
 20
63.43207559999999
 30
0.0
 11
58.28002009
 21
63.43207559999999
 31
0.0
  0
LINE
  5
6E0
330
1F
100
AcDbEntity
  8
0
  6
CONTINUOUS
 62
     3
100
AcDbLine
 10
58.28002009
 20
63.43207559999999
 30
0.0
 11
58.28002009
 21
61.03207799999999
 31
0.0
  0
LINE
  5
6E1
330
1F
100
AcDbEntity
  8
0
  6
CONTINUOUS
 62
     3
100
AcDbLine
 10
58.28002009
 20
61.6320774
 30
0.0
 11
59.88001848999999
 21
61.6320774
 31
0.0
  0
POINT
  5
6E2
330
1F
100
AcDbEntity
  8
0
  6
CONTINUOUS
 62
     3
100
AcDbPoint
 10
59.88001848999999
 20
61.6320774
 30
0.0
  0
LINE
  5
6E3
330
1F
100
AcDbEntity
  8
0
  6
CONTINUOUS
 62
     3
100
AcDbLine
 10
59.88001848999999
 20
61.6320774
 30
0.0
 11
58.28002009
 21
61.6320774
 31
0.0
  0
POINT
  5
6E4
330
1F
100
AcDbEntity
  8
0
  6
CONTINUOUS
 62
     3
100
AcDbPoint
 10
58.28002009
 20
61.6320774
 30
0.0
  0
LINE
  5
6E5
330
1F
100
AcDbEntity
  8
0
  6
CONTINUOUS
 62
     3
100
AcDbLine
 10
59.28001909
 20
63.43207559999999
 30
0.0
 11
59.28001909
 21
63.93207509999999
 31
0.0
  0
LINE
  5
6E6
330
1F
100
AcDbEntity
  8
0
  6
CONTINUOUS
 62
     3
100
AcDbLine
 10
59.28001909
 20
63.93207509999999
 30
0.0
 11
58.88001949
 21
63.93207509999999
 31
0.0
  0
LINE
  5
6E7
330
1F
100
AcDbEntity
  8
0
  6
CONTINUOUS
 62
     3
100
AcDbLine
 10
58.88001949
 20
63.93207509999999
 30
0.0
 11
58.88001949
 21
63.43207559999999
 31
0.0
  0
LINE
  5
6E8
330
1F
100
AcDbEntity
  8
0
  6
CONTINUOUS
 62
     3
100
AcDbLine
 10
60.82001755
 20
61.03207799999999
 30
0.0
 11
62.42001595
 21
61.03207799999999
 31
0.0
  0
LINE
  5
6E9
330
1F
100
AcDbEntity
  8
0
  6
CONTINUOUS
 62
     3
100
AcDbLine
 10
62.42001595
 20
61.03207799999999
 30
0.0
 11
62.42001595
 21
63.43207559999999
 31
0.0
  0
LINE
  5
6EA
330
1F
100
AcDbEntity
  8
0
  6
CONTINUOUS
 62
     3
100
AcDbLine
 10
62.42001595
 20
63.43207559999999
 30
0.0
 11
60.82001755
 21
63.43207559999999
 31
0.0
  0
LINE
  5
6EB
330
1F
100
AcDbEntity
  8
0
  6
CONTINUOUS
 62
     3
100
AcDbLine
 10
60.82001755
 20
63.43207559999999
 30
0.0
 11
60.82001755
 21
61.03207799999999
 31
0.0
  0
LINE
  5
6EC
330
1F
100
AcDbEntity
  8
0
  6
CONTINUOUS
 62
     3
100
AcDbLine
 10
60.82001755
 20
61.6320774
 30
0.0
 11
62.42001595
 21
61.6320774
 31
0.0
  0
POINT
  5
6ED
330
1F
100
AcDbEntity
  8
0
  6
CONTINUOUS
 62
     3
100
AcDbPoint
 10
62.42001595
 20
61.6320774
 30
0.0
  0
LINE
  5
6EE
330
1F
100
AcDbEntity
  8
0
  6
CONTINUOUS
 62
     3
100
AcDbLine
 10
62.42001595
 20
61.6320774
 30
0.0
 11
60.82001755
 21
61.6320774
 31
0.0
  0
POINT
  5
6EF
330
1F
100
AcDbEntity
  8
0
  6
CONTINUOUS
 62
     3
100
AcDbPoint
 10
60.82001755
 20
61.6320774
 30
0.0
  0
LINE
  5
6F0
330
1F
100
AcDbEntity
  8
0
  6
CONTINUOUS
 62
     3
100
AcDbLine
 10
61.82001655
 20
63.43207559999999
 30
0.0
 11
61.82001655
 21
63.93207509999999
 31
0.0
  0
LINE
  5
6F1
330
1F
100
AcDbEntity
  8
0
  6
CONTINUOUS
 62
     3
100
AcDbLine
 10
61.82001655
 20
63.93207509999999
 30
0.0
 11
61.42001695
 21
63.93207509999999
 31
0.0
  0
LINE
  5
6F2
330
1F
100
AcDbEntity
  8
0
  6
CONTINUOUS
 62
     3
100
AcDbLine
 10
61.42001695
 20
63.93207509999999
 30
0.0
 11
61.42001695
 21
63.43207559999999
 31
0.0
  0
LINE
  5
6F3
330
1F
100
AcDbEntity
  8
0
  6
CONTINUOUS
 62
     3
100
AcDbLine
 10
63.36001501
 20
61.03207799999999
 30
0.0
 11
64.96001341
 21
61.03207799999999
 31
0.0
  0
LINE
  5
6F4
330
1F
100
AcDbEntity
  8
0
  6
CONTINUOUS
 62
     3
100
AcDbLine
 10
64.96001341
 20
61.03207799999999
 30
0.0
 11
64.96001341
 21
63.43207559999999
 31
0.0
  0
LINE
  5
6F5
330
1F
100
AcDbEntity
  8
0
  6
CONTINUOUS
 62
     3
100
AcDbLine
 10
64.96001341
 20
63.43207559999999
 30
0.0
 11
63.36001501
 21
63.43207559999999
 31
0.0
  0
LINE
  5
6F6
330
1F
100
AcDbEntity
  8
0
  6
CONTINUOUS
 62
     3
100
AcDbLine
 10
63.36001501
 20
63.43207559999999
 30
0.0
 11
63.36001501
 21
61.03207799999999
 31
0.0
  0
LINE
  5
6F7
330
1F
100
AcDbEntity
  8
0
  6
CONTINUOUS
 62
     3
100
AcDbLine
 10
63.36001501
 20
61.6320774
 30
0.0
 11
64.96001341
 21
61.6320774
 31
0.0
  0
POINT
  5
6F8
330
1F
100
AcDbEntity
  8
0
  6
CONTINUOUS
 62
     3
100
AcDbPoint
 10
64.96001341
 20
61.6320774
 30
0.0
  0
LINE
  5
6F9
330
1F
100
AcDbEntity
  8
0
  6
CONTINUOUS
 62
     3
100
AcDbLine
 10
64.96001341
 20
61.6320774
 30
0.0
 11
63.36001501
 21
61.6320774
 31
0.0
  0
POINT
  5
6FA
330
1F
100
AcDbEntity
  8
0
  6
CONTINUOUS
 62
     3
100
AcDbPoint
 10
63.36001501
 20
61.6320774
 30
0.0
  0
LINE
  5
6FB
330
1F
100
AcDbEntity
  8
0
  6
CONTINUOUS
 62
     3
100
AcDbLine
 10
64.36001401
 20
63.43207559999999
 30
0.0
 11
64.36001401
 21
63.93207509999999
 31
0.0
  0
LINE
  5
6FC
330
1F
100
AcDbEntity
  8
0
  6
CONTINUOUS
 62
     3
100
AcDbLine
 10
64.36001401
 20
63.93207509999999
 30
0.0
 11
63.96001441
 21
63.93207509999999
 31
0.0
  0
LINE
  5
6FD
330
1F
100
AcDbEntity
  8
0
  6
CONTINUOUS
 62
     3
100
AcDbLine
 10
63.96001441
 20
63.93207509999999
 30
0.0
 11
63.96001441
 21
63.43207559999999
 31
0.0
  0
LINE
  5
6FE
330
1F
100
AcDbEntity
  8
0
  6
CONTINUOUS
 62
     3
100
AcDbLine
 10
65.90001247
 20
61.03207799999999
 30
0.0
 11
67.50001087
 21
61.03207799999999
 31
0.0
  0
LINE
  5
6FF
330
1F
100
AcDbEntity
  8
0
  6
CONTINUOUS
 62
     3
100
AcDbLine
 10
67.50001087
 20
61.03207799999999
 30
0.0
 11
67.50001087
 21
63.43207559999999
 31
0.0
  0
LINE
  5
700
330
1F
100
AcDbEntity
  8
0
  6
CONTINUOUS
 62
     3
100
AcDbLine
 10
67.50001087
 20
63.43207559999999
 30
0.0
 11
65.90001247
 21
63.43207559999999
 31
0.0
  0
LINE
  5
701
330
1F
100
AcDbEntity
  8
0
  6
CONTINUOUS
 62
     3
100
AcDbLine
 10
65.90001247
 20
63.43207559999999
 30
0.0
 11
65.90001247
 21
61.03207799999999
 31
0.0
  0
LINE
  5
702
330
1F
100
AcDbEntity
  8
0
  6
CONTINUOUS
 62
     3
100
AcDbLine
 10
65.90001247
 20
61.6320774
 30
0.0
 11
67.50001087
 21
61.6320774
 31
0.0
  0
POINT
  5
703
330
1F
100
AcDbEntity
  8
0
  6
CONTINUOUS
 62
     3
100
AcDbPoint
 10
67.50001087
 20
61.6320774
 30
0.0
  0
LINE
  5
704
330
1F
100
AcDbEntity
  8
0
  6
CONTINUOUS
 62
     3
100
AcDbLine
 10
67.50001087
 20
61.6320774
 30
0.0
 11
65.90001247
 21
61.6320774
 31
0.0
  0
POINT
  5
705
330
1F
100
AcDbEntity
  8
0
  6
CONTINUOUS
 62
     3
100
AcDbPoint
 10
65.90001247
 20
61.6320774
 30
0.0
  0
LINE
  5
706
330
1F
100
AcDbEntity
  8
0
  6
CONTINUOUS
 62
     3
100
AcDbLine
 10
66.90001147
 20
63.43207559999999
 30
0.0
 11
66.90001147
 21
63.93207509999999
 31
0.0
  0
LINE
  5
707
330
1F
100
AcDbEntity
  8
0
  6
CONTINUOUS
 62
     3
100
AcDbLine
 10
66.90001147
 20
63.93207509999999
 30
0.0
 11
66.50001187
 21
63.93207509999999
 31
0.0
  0
LINE
  5
708
330
1F
100
AcDbEntity
  8
0
  6
CONTINUOUS
 62
     3
100
AcDbLine
 10
66.50001187
 20
63.93207509999999
 30
0.0
 11
66.50001187
 21
63.43207559999999
 31
0.0
  0
LINE
  5
709
330
1F
100
AcDbEntity
  8
0
  6
CONTINUOUS
 62
     3
100
AcDbLine
 10
68.44000993
 20
61.03207799999999
 30
0.0
 11
70.04000833
 21
61.03207799999999
 31
0.0
  0
LINE
  5
70A
330
1F
100
AcDbEntity
  8
0
  6
CONTINUOUS
 62
     3
100
AcDbLine
 10
70.04000833
 20
61.03207799999999
 30
0.0
 11
70.04000833
 21
63.43207559999999
 31
0.0
  0
LINE
  5
70B
330
1F
100
AcDbEntity
  8
0
  6
CONTINUOUS
 62
     3
100
AcDbLine
 10
70.04000833
 20
63.43207559999999
 30
0.0
 11
68.44000993
 21
63.43207559999999
 31
0.0
  0
LINE
  5
70C
330
1F
100
AcDbEntity
  8
0
  6
CONTINUOUS
 62
     3
100
AcDbLine
 10
68.44000993
 20
63.43207559999999
 30
0.0
 11
68.44000993
 21
61.03207799999999
 31
0.0
  0
LINE
  5
70D
330
1F
100
AcDbEntity
  8
0
  6
CONTINUOUS
 62
     3
100
AcDbLine
 10
68.44000993
 20
61.6320774
 30
0.0
 11
70.04000833
 21
61.6320774
 31
0.0
  0
POINT
  5
70E
330
1F
100
AcDbEntity
  8
0
  6
CONTINUOUS
 62
     3
100
AcDbPoint
 10
70.04000833
 20
61.6320774
 30
0.0
  0
LINE
  5
70F
330
1F
100
AcDbEntity
  8
0
  6
CONTINUOUS
 62
     3
100
AcDbLine
 10
70.04000833
 20
61.6320774
 30
0.0
 11
68.44000993
 21
61.6320774
 31
0.0
  0
POINT
  5
710
330
1F
100
AcDbEntity
  8
0
  6
CONTINUOUS
 62
     3
100
AcDbPoint
 10
68.44000993
 20
61.6320774
 30
0.0
  0
LINE
  5
711
330
1F
100
AcDbEntity
  8
0
  6
CONTINUOUS
 62
     3
100
AcDbLine
 10
69.44000893
 20
63.43207559999999
 30
0.0
 11
69.44000893
 21
63.93207509999999
 31
0.0
  0
LINE
  5
712
330
1F
100
AcDbEntity
  8
0
  6
CONTINUOUS
 62
     3
100
AcDbLine
 10
69.44000893
 20
63.93207509999999
 30
0.0
 11
69.04000933
 21
63.93207509999999
 31
0.0
  0
LINE
  5
713
330
1F
100
AcDbEntity
  8
0
  6
CONTINUOUS
 62
     3
100
AcDbLine
 10
69.04000933
 20
63.93207509999999
 30
0.0
 11
69.04000933
 21
63.43207559999999
 31
0.0
  0
LINE
  5
714
330
1F
100
AcDbEntity
  8
0
  6
CONTINUOUS
 62
     3
100
AcDbLine
 10
70.98000738999998
 20
61.03207799999999
 30
0.0
 11
72.58000579
 21
61.03207799999999
 31
0.0
  0
LINE
  5
715
330
1F
100
AcDbEntity
  8
0
  6
CONTINUOUS
 62
     3
100
AcDbLine
 10
72.58000579
 20
61.03207799999999
 30
0.0
 11
72.58000579
 21
63.43207559999999
 31
0.0
  0
LINE
  5
716
330
1F
100
AcDbEntity
  8
0
  6
CONTINUOUS
 62
     3
100
AcDbLine
 10
72.58000579
 20
63.43207559999999
 30
0.0
 11
70.98000738999998
 21
63.43207559999999
 31
0.0
  0
LINE
  5
717
330
1F
100
AcDbEntity
  8
0
  6
CONTINUOUS
 62
     3
100
AcDbLine
 10
70.98000738999998
 20
63.43207559999999
 30
0.0
 11
70.98000738999998
 21
61.03207799999999
 31
0.0
  0
LINE
  5
718
330
1F
100
AcDbEntity
  8
0
  6
CONTINUOUS
 62
     3
100
AcDbLine
 10
70.98000738999998
 20
61.6320774
 30
0.0
 11
72.58000579
 21
61.6320774
 31
0.0
  0
POINT
  5
719
330
1F
100
AcDbEntity
  8
0
  6
CONTINUOUS
 62
     3
100
AcDbPoint
 10
72.58000579
 20
61.6320774
 30
0.0
  0
LINE
  5
71A
330
1F
100
AcDbEntity
  8
0
  6
CONTINUOUS
 62
     3
100
AcDbLine
 10
72.58000579
 20
61.6320774
 30
0.0
 11
70.98000738999998
 21
61.6320774
 31
0.0
  0
POINT
  5
71B
330
1F
100
AcDbEntity
  8
0
  6
CONTINUOUS
 62
     3
100
AcDbPoint
 10
70.98000738999998
 20
61.6320774
 30
0.0
  0
LINE
  5
71C
330
1F
100
AcDbEntity
  8
0
  6
CONTINUOUS
 62
     3
100
AcDbLine
 10
71.98000638999999
 20
63.43207559999999
 30
0.0
 11
71.98000638999999
 21
63.93207509999999
 31
0.0
  0
LINE
  5
71D
330
1F
100
AcDbEntity
  8
0
  6
CONTINUOUS
 62
     3
100
AcDbLine
 10
71.98000638999999
 20
63.93207509999999
 30
0.0
 11
71.58000679
 21
63.93207509999999
 31
0.0
  0
LINE
  5
71E
330
1F
100
AcDbEntity
  8
0
  6
CONTINUOUS
 62
     3
100
AcDbLine
 10
71.58000679
 20
63.93207509999999
 30
0.0
 11
71.58000679
 21
63.43207559999999
 31
0.0
  0
LINE
  5
71F
330
1F
100
AcDbEntity
  8
0
  6
CONTINUOUS
 62
     3
100
AcDbLine
 10
73.52000485000002
 20
61.03207799999999
 30
0.0
 11
75.12000324999998
 21
61.03207799999999
 31
0.0
  0
LINE
  5
720
330
1F
100
AcDbEntity
  8
0
  6
CONTINUOUS
 62
     3
100
AcDbLine
 10
75.12000324999998
 20
61.03207799999999
 30
0.0
 11
75.12000324999998
 21
63.43207559999999
 31
0.0
  0
LINE
  5
721
330
1F
100
AcDbEntity
  8
0
  6
CONTINUOUS
 62
     3
100
AcDbLine
 10
75.12000324999998
 20
63.43207559999999
 30
0.0
 11
73.52000485000002
 21
63.43207559999999
 31
0.0
  0
LINE
  5
722
330
1F
100
AcDbEntity
  8
0
  6
CONTINUOUS
 62
     3
100
AcDbLine
 10
73.52000485000002
 20
63.43207559999999
 30
0.0
 11
73.52000485000002
 21
61.03207799999999
 31
0.0
  0
LINE
  5
723
330
1F
100
AcDbEntity
  8
0
  6
CONTINUOUS
 62
     3
100
AcDbLine
 10
73.52000485000002
 20
61.6320774
 30
0.0
 11
75.12000324999998
 21
61.6320774
 31
0.0
  0
POINT
  5
724
330
1F
100
AcDbEntity
  8
0
  6
CONTINUOUS
 62
     3
100
AcDbPoint
 10
75.12000324999998
 20
61.6320774
 30
0.0
  0
LINE
  5
725
330
1F
100
AcDbEntity
  8
0
  6
CONTINUOUS
 62
     3
100
AcDbLine
 10
75.12000324999998
 20
61.6320774
 30
0.0
 11
73.52000485000002
 21
61.6320774
 31
0.0
  0
POINT
  5
726
330
1F
100
AcDbEntity
  8
0
  6
CONTINUOUS
 62
     3
100
AcDbPoint
 10
73.52000485000002
 20
61.6320774
 30
0.0
  0
LINE
  5
727
330
1F
100
AcDbEntity
  8
0
  6
CONTINUOUS
 62
     3
100
AcDbLine
 10
74.52000384999998
 20
63.43207559999999
 30
0.0
 11
74.52000384999998
 21
63.93207509999999
 31
0.0
  0
LINE
  5
728
330
1F
100
AcDbEntity
  8
0
  6
CONTINUOUS
 62
     3
100
AcDbLine
 10
74.52000384999998
 20
63.93207509999999
 30
0.0
 11
74.12000424999998
 21
63.93207509999999
 31
0.0
  0
LINE
  5
729
330
1F
100
AcDbEntity
  8
0
  6
CONTINUOUS
 62
     3
100
AcDbLine
 10
74.12000424999998
 20
63.93207509999999
 30
0.0
 11
74.12000424999998
 21
63.43207559999999
 31
0.0
  0
LINE
  5
72A
330
1F
100
AcDbEntity
  8
0
  6
CONTINUOUS
 62
     3
100
AcDbLine
 10
76.06000231
 20
61.03207799999999
 30
0.0
 11
77.66000071
 21
61.03207799999999
 31
0.0
  0
LINE
  5
72B
330
1F
100
AcDbEntity
  8
0
  6
CONTINUOUS
 62
     3
100
AcDbLine
 10
77.66000071
 20
61.03207799999999
 30
0.0
 11
77.66000071
 21
63.43207559999999
 31
0.0
  0
LINE
  5
72C
330
1F
100
AcDbEntity
  8
0
  6
CONTINUOUS
 62
     3
100
AcDbLine
 10
77.66000071
 20
63.43207559999999
 30
0.0
 11
76.06000231
 21
63.43207559999999
 31
0.0
  0
LINE
  5
72D
330
1F
100
AcDbEntity
  8
0
  6
CONTINUOUS
 62
     3
100
AcDbLine
 10
76.06000231
 20
63.43207559999999
 30
0.0
 11
76.06000231
 21
61.03207799999999
 31
0.0
  0
LINE
  5
72E
330
1F
100
AcDbEntity
  8
0
  6
CONTINUOUS
 62
     3
100
AcDbLine
 10
76.06000231
 20
61.6320774
 30
0.0
 11
77.66000071
 21
61.6320774
 31
0.0
  0
POINT
  5
72F
330
1F
100
AcDbEntity
  8
0
  6
CONTINUOUS
 62
     3
100
AcDbPoint
 10
77.66000071
 20
61.6320774
 30
0.0
  0
LINE
  5
730
330
1F
100
AcDbEntity
  8
0
  6
CONTINUOUS
 62
     3
100
AcDbLine
 10
77.66000071
 20
61.6320774
 30
0.0
 11
76.06000231
 21
61.6320774
 31
0.0
  0
POINT
  5
731
330
1F
100
AcDbEntity
  8
0
  6
CONTINUOUS
 62
     3
100
AcDbPoint
 10
76.06000231
 20
61.6320774
 30
0.0
  0
LINE
  5
732
330
1F
100
AcDbEntity
  8
0
  6
CONTINUOUS
 62
     3
100
AcDbLine
 10
77.06000131
 20
63.43207559999999
 30
0.0
 11
77.06000131
 21
63.93207509999999
 31
0.0
  0
LINE
  5
733
330
1F
100
AcDbEntity
  8
0
  6
CONTINUOUS
 62
     3
100
AcDbLine
 10
77.06000131
 20
63.93207509999999
 30
0.0
 11
76.66000171
 21
63.93207509999999
 31
0.0
  0
LINE
  5
734
330
1F
100
AcDbEntity
  8
0
  6
CONTINUOUS
 62
     3
100
AcDbLine
 10
76.66000171
 20
63.93207509999999
 30
0.0
 11
76.66000171
 21
63.43207559999999
 31
0.0
  0
LINE
  5
735
330
1F
100
AcDbEntity
  8
0
  6
CONTINUOUS
 62
     3
100
AcDbLine
 10
78.59999976999998
 20
61.03207799999999
 30
0.0
 11
80.19999817
 21
61.03207799999999
 31
0.0
  0
LINE
  5
736
330
1F
100
AcDbEntity
  8
0
  6
CONTINUOUS
 62
     3
100
AcDbLine
 10
80.19999817
 20
61.03207799999999
 30
0.0
 11
80.19999817
 21
63.43207559999999
 31
0.0
  0
LINE
  5
737
330
1F
100
AcDbEntity
  8
0
  6
CONTINUOUS
 62
     3
100
AcDbLine
 10
80.19999817
 20
63.43207559999999
 30
0.0
 11
78.59999976999998
 21
63.43207559999999
 31
0.0
  0
LINE
  5
738
330
1F
100
AcDbEntity
  8
0
  6
CONTINUOUS
 62
     3
100
AcDbLine
 10
78.59999976999998
 20
63.43207559999999
 30
0.0
 11
78.59999976999998
 21
61.03207799999999
 31
0.0
  0
LINE
  5
739
330
1F
100
AcDbEntity
  8
0
  6
CONTINUOUS
 62
     3
100
AcDbLine
 10
78.59999976999998
 20
61.6320774
 30
0.0
 11
80.19999817
 21
61.6320774
 31
0.0
  0
POINT
  5
73A
330
1F
100
AcDbEntity
  8
0
  6
CONTINUOUS
 62
     3
100
AcDbPoint
 10
80.19999817
 20
61.6320774
 30
0.0
  0
LINE
  5
73B
330
1F
100
AcDbEntity
  8
0
  6
CONTINUOUS
 62
     3
100
AcDbLine
 10
80.19999817
 20
61.6320774
 30
0.0
 11
78.59999976999998
 21
61.6320774
 31
0.0
  0
POINT
  5
73C
330
1F
100
AcDbEntity
  8
0
  6
CONTINUOUS
 62
     3
100
AcDbPoint
 10
78.59999976999998
 20
61.6320774
 30
0.0
  0
LINE
  5
73D
330
1F
100
AcDbEntity
  8
0
  6
CONTINUOUS
 62
     3
100
AcDbLine
 10
79.59999877
 20
63.43207559999999
 30
0.0
 11
79.59999877
 21
63.93207509999999
 31
0.0
  0
LINE
  5
73E
330
1F
100
AcDbEntity
  8
0
  6
CONTINUOUS
 62
     3
100
AcDbLine
 10
79.59999877
 20
63.93207509999999
 30
0.0
 11
79.19999917
 21
63.93207509999999
 31
0.0
  0
LINE
  5
73F
330
1F
100
AcDbEntity
  8
0
  6
CONTINUOUS
 62
     3
100
AcDbLine
 10
79.19999917
 20
63.93207509999999
 30
0.0
 11
79.19999917
 21
63.43207559999999
 31
0.0
  0
LINE
  5
740
330
1F
100
AcDbEntity
  8
0
  6
CONTINUOUS
 62
     3
100
AcDbLine
 10
31.94004642999999
 20
63.032076
 30
0.0
 11
32.88004549
 21
63.032076
 31
0.0
  0
LINE
  5
741
330
1F
100
AcDbEntity
  8
0
  6
CONTINUOUS
 62
     3
100
AcDbLine
 10
34.48004388999999
 20
63.032076
 30
0.0
 11
35.42004295000001
 21
63.032076
 31
0.0
  0
LINE
  5
742
330
1F
100
AcDbEntity
  8
0
  6
CONTINUOUS
 62
     3
100
AcDbLine
 10
37.02004135
 20
63.032076
 30
0.0
 11
37.96004040999999
 21
63.032076
 31
0.0
  0
LINE
  5
743
330
1F
100
AcDbEntity
  8
0
  6
CONTINUOUS
 62
     3
100
AcDbLine
 10
39.56003881
 20
63.032076
 30
0.0
 11
40.50003787
 21
63.032076
 31
0.0
  0
LINE
  5
744
330
1F
100
AcDbEntity
  8
0
  6
CONTINUOUS
 62
     3
100
AcDbLine
 10
42.10003626999998
 20
63.032076
 30
0.0
 11
43.04003533
 21
63.032076
 31
0.0
  0
LINE
  5
745
330
1F
100
AcDbEntity
  8
0
  6
CONTINUOUS
 62
     3
100
AcDbLine
 10
44.64003372999999
 20
63.032076
 30
0.0
 11
45.58003279
 21
63.032076
 31
0.0
  0
LINE
  5
746
330
1F
100
AcDbEntity
  8
0
  6
CONTINUOUS
 62
     3
100
AcDbLine
 10
47.18003119
 20
63.032076
 30
0.0
 11
48.12003025
 21
63.032076
 31
0.0
  0
LINE
  5
747
330
1F
100
AcDbEntity
  8
0
  6
CONTINUOUS
 62
     3
100
AcDbLine
 10
49.72002865
 20
63.032076
 30
0.0
 11
50.66002771
 21
63.032076
 31
0.0
  0
LINE
  5
748
330
1F
100
AcDbEntity
  8
0
  6
CONTINUOUS
 62
     3
100
AcDbLine
 10
52.26002611
 20
63.032076
 30
0.0
 11
53.20002517
 21
63.032076
 31
0.0
  0
LINE
  5
749
330
1F
100
AcDbEntity
  8
0
  6
CONTINUOUS
 62
     3
100
AcDbLine
 10
54.80002357
 20
63.032076
 30
0.0
 11
55.74002263
 21
63.032076
 31
0.0
  0
LINE
  5
74A
330
1F
100
AcDbEntity
  8
0
  6
CONTINUOUS
 62
     3
100
AcDbLine
 10
57.34002103
 20
63.032076
 30
0.0
 11
58.28002009
 21
63.032076
 31
0.0
  0
LINE
  5
74B
330
1F
100
AcDbEntity
  8
0
  6
CONTINUOUS
 62
     3
100
AcDbLine
 10
59.88001848999999
 20
63.032076
 30
0.0
 11
60.82001755
 21
63.032076
 31
0.0
  0
LINE
  5
74C
330
1F
100
AcDbEntity
  8
0
  6
CONTINUOUS
 62
     3
100
AcDbLine
 10
62.42001595
 20
63.032076
 30
0.0
 11
63.36001501
 21
63.032076
 31
0.0
  0
LINE
  5
74D
330
1F
100
AcDbEntity
  8
0
  6
CONTINUOUS
 62
     3
100
AcDbLine
 10
64.96001341
 20
63.032076
 30
0.0
 11
65.90001247
 21
63.032076
 31
0.0
  0
LINE
  5
74E
330
1F
100
AcDbEntity
  8
0
  6
CONTINUOUS
 62
     3
100
AcDbLine
 10
67.50001087
 20
63.032076
 30
0.0
 11
68.44000993
 21
63.032076
 31
0.0
  0
LINE
  5
74F
330
1F
100
AcDbEntity
  8
0
  6
CONTINUOUS
 62
     3
100
AcDbLine
 10
70.04000833
 20
63.032076
 30
0.0
 11
70.98000738999998
 21
63.032076
 31
0.0
  0
LINE
  5
750
330
1F
100
AcDbEntity
  8
0
  6
CONTINUOUS
 62
     3
100
AcDbLine
 10
72.58000579
 20
63.032076
 30
0.0
 11
73.52000485000002
 21
63.032076
 31
0.0
  0
LINE
  5
751
330
1F
100
AcDbEntity
  8
0
  6
CONTINUOUS
 62
     3
100
AcDbLine
 10
75.12000324999998
 20
63.032076
 30
0.0
 11
76.06000231
 21
63.032076
 31
0.0
  0
LINE
  5
752
330
1F
100
AcDbEntity
  8
0
  6
CONTINUOUS
 62
     3
100
AcDbLine
 10
77.66000071
 20
63.032076
 30
0.0
 11
78.59999976999998
 21
63.032076
 31
0.0
  0
LINE
  5
753
330
1F
100
AcDbEntity
  8
0
  6
CONTINUOUS
 62
     3
100
AcDbLine
 10
30.34004803
 20
41.05209797999999
 30
0.0
 11
31.94004642999999
 21
41.05209797999999
 31
0.0
  0
LINE
  5
754
330
1F
100
AcDbEntity
  8
0
  6
CONTINUOUS
 62
     3
100
AcDbLine
 10
31.94004642999999
 20
41.05209797999999
 30
0.0
 11
31.94004642999999
 21
38.65210038
 31
0.0
  0
LINE
  5
755
330
1F
100
AcDbEntity
  8
0
  6
CONTINUOUS
 62
     3
100
AcDbLine
 10
31.94004642999999
 20
38.65210038
 30
0.0
 11
30.34004803
 21
38.65210038
 31
0.0
  0
LINE
  5
756
330
1F
100
AcDbEntity
  8
0
  6
CONTINUOUS
 62
     3
100
AcDbLine
 10
30.34004803
 20
38.65210038
 30
0.0
 11
30.34004803
 21
41.05209797999999
 31
0.0
  0
LINE
  5
757
330
1F
100
AcDbEntity
  8
0
  6
CONTINUOUS
 62
     3
100
AcDbLine
 10
30.34004803
 20
40.45209857999997
 30
0.0
 11
31.94004642999999
 21
40.45209857999997
 31
0.0
  0
POINT
  5
758
330
1F
100
AcDbEntity
  8
0
  6
CONTINUOUS
 62
     3
100
AcDbPoint
 10
31.94004642999999
 20
40.45209857999997
 30
0.0
  0
LINE
  5
759
330
1F
100
AcDbEntity
  8
0
  6
CONTINUOUS
 62
     3
100
AcDbLine
 10
31.94004642999999
 20
40.45209857999997
 30
0.0
 11
30.34004803
 21
40.45209857999997
 31
0.0
  0
POINT
  5
75A
330
1F
100
AcDbEntity
  8
0
  6
CONTINUOUS
 62
     3
100
AcDbPoint
 10
30.34004803
 20
40.45209857999997
 30
0.0
  0
LINE
  5
75B
330
1F
100
AcDbEntity
  8
0
  6
CONTINUOUS
 62
     3
100
AcDbLine
 10
31.34004703
 20
38.65210038
 30
0.0
 11
31.34004703
 21
38.15210088
 31
0.0
  0
LINE
  5
75C
330
1F
100
AcDbEntity
  8
0
  6
CONTINUOUS
 62
     3
100
AcDbLine
 10
31.34004703
 20
38.15210088
 30
0.0
 11
30.94004743
 21
38.15210088
 31
0.0
  0
LINE
  5
75D
330
1F
100
AcDbEntity
  8
0
  6
CONTINUOUS
 62
     3
100
AcDbLine
 10
30.94004743
 20
38.15210088
 30
0.0
 11
30.94004743
 21
38.65210038
 31
0.0
  0
LINE
  5
75E
330
1F
100
AcDbEntity
  8
0
  6
CONTINUOUS
 62
     3
100
AcDbLine
 10
32.88004549
 20
41.05209797999999
 30
0.0
 11
34.48004388999999
 21
41.05209797999999
 31
0.0
  0
LINE
  5
75F
330
1F
100
AcDbEntity
  8
0
  6
CONTINUOUS
 62
     3
100
AcDbLine
 10
34.48004388999999
 20
41.05209797999999
 30
0.0
 11
34.48004388999999
 21
38.65210038
 31
0.0
  0
LINE
  5
760
330
1F
100
AcDbEntity
  8
0
  6
CONTINUOUS
 62
     3
100
AcDbLine
 10
34.48004388999999
 20
38.65210038
 30
0.0
 11
32.88004549
 21
38.65210038
 31
0.0
  0
LINE
  5
761
330
1F
100
AcDbEntity
  8
0
  6
CONTINUOUS
 62
     3
100
AcDbLine
 10
32.88004549
 20
38.65210038
 30
0.0
 11
32.88004549
 21
41.05209797999999
 31
0.0
  0
LINE
  5
762
330
1F
100
AcDbEntity
  8
0
  6
CONTINUOUS
 62
     3
100
AcDbLine
 10
32.88004549
 20
40.45209857999997
 30
0.0
 11
34.48004388999999
 21
40.45209857999997
 31
0.0
  0
POINT
  5
763
330
1F
100
AcDbEntity
  8
0
  6
CONTINUOUS
 62
     3
100
AcDbPoint
 10
34.48004388999999
 20
40.45209857999997
 30
0.0
  0
LINE
  5
764
330
1F
100
AcDbEntity
  8
0
  6
CONTINUOUS
 62
     3
100
AcDbLine
 10
34.48004388999999
 20
40.45209857999997
 30
0.0
 11
32.88004549
 21
40.45209857999997
 31
0.0
  0
POINT
  5
765
330
1F
100
AcDbEntity
  8
0
  6
CONTINUOUS
 62
     3
100
AcDbPoint
 10
32.88004549
 20
40.45209857999997
 30
0.0
  0
LINE
  5
766
330
1F
100
AcDbEntity
  8
0
  6
CONTINUOUS
 62
     3
100
AcDbLine
 10
33.88004449
 20
38.65210038
 30
0.0
 11
33.88004449
 21
38.15210088
 31
0.0
  0
LINE
  5
767
330
1F
100
AcDbEntity
  8
0
  6
CONTINUOUS
 62
     3
100
AcDbLine
 10
33.88004449
 20
38.15210088
 30
0.0
 11
33.48004489
 21
38.15210088
 31
0.0
  0
LINE
  5
768
330
1F
100
AcDbEntity
  8
0
  6
CONTINUOUS
 62
     3
100
AcDbLine
 10
33.48004489
 20
38.15210088
 30
0.0
 11
33.48004489
 21
38.65210038
 31
0.0
  0
LINE
  5
769
330
1F
100
AcDbEntity
  8
0
  6
CONTINUOUS
 62
     3
100
AcDbLine
 10
35.42004295000001
 20
41.05209797999999
 30
0.0
 11
37.02004135
 21
41.05209797999999
 31
0.0
  0
LINE
  5
76A
330
1F
100
AcDbEntity
  8
0
  6
CONTINUOUS
 62
     3
100
AcDbLine
 10
37.02004135
 20
41.05209797999999
 30
0.0
 11
37.02004135
 21
38.65210038
 31
0.0
  0
LINE
  5
76B
330
1F
100
AcDbEntity
  8
0
  6
CONTINUOUS
 62
     3
100
AcDbLine
 10
37.02004135
 20
38.65210038
 30
0.0
 11
35.42004295000001
 21
38.65210038
 31
0.0
  0
LINE
  5
76C
330
1F
100
AcDbEntity
  8
0
  6
CONTINUOUS
 62
     3
100
AcDbLine
 10
35.42004295000001
 20
38.65210038
 30
0.0
 11
35.42004295000001
 21
41.05209797999999
 31
0.0
  0
LINE
  5
76D
330
1F
100
AcDbEntity
  8
0
  6
CONTINUOUS
 62
     3
100
AcDbLine
 10
35.42004295000001
 20
40.45209857999997
 30
0.0
 11
37.02004135
 21
40.45209857999997
 31
0.0
  0
POINT
  5
76E
330
1F
100
AcDbEntity
  8
0
  6
CONTINUOUS
 62
     3
100
AcDbPoint
 10
37.02004135
 20
40.45209857999997
 30
0.0
  0
LINE
  5
76F
330
1F
100
AcDbEntity
  8
0
  6
CONTINUOUS
 62
     3
100
AcDbLine
 10
37.02004135
 20
40.45209857999997
 30
0.0
 11
35.42004295000001
 21
40.45209857999997
 31
0.0
  0
POINT
  5
770
330
1F
100
AcDbEntity
  8
0
  6
CONTINUOUS
 62
     3
100
AcDbPoint
 10
35.42004295000001
 20
40.45209857999997
 30
0.0
  0
LINE
  5
771
330
1F
100
AcDbEntity
  8
0
  6
CONTINUOUS
 62
     3
100
AcDbLine
 10
36.42004195
 20
38.65210038
 30
0.0
 11
36.42004195
 21
38.15210088
 31
0.0
  0
LINE
  5
772
330
1F
100
AcDbEntity
  8
0
  6
CONTINUOUS
 62
     3
100
AcDbLine
 10
36.42004195
 20
38.15210088
 30
0.0
 11
36.02004234999997
 21
38.15210088
 31
0.0
  0
LINE
  5
773
330
1F
100
AcDbEntity
  8
0
  6
CONTINUOUS
 62
     3
100
AcDbLine
 10
36.02004234999997
 20
38.15210088
 30
0.0
 11
36.02004234999997
 21
38.65210038
 31
0.0
  0
LINE
  5
774
330
1F
100
AcDbEntity
  8
0
  6
CONTINUOUS
 62
     3
100
AcDbLine
 10
37.96004040999999
 20
41.05209797999999
 30
0.0
 11
39.56003881
 21
41.05209797999999
 31
0.0
  0
LINE
  5
775
330
1F
100
AcDbEntity
  8
0
  6
CONTINUOUS
 62
     3
100
AcDbLine
 10
39.56003881
 20
41.05209797999999
 30
0.0
 11
39.56003881
 21
38.65210038
 31
0.0
  0
LINE
  5
776
330
1F
100
AcDbEntity
  8
0
  6
CONTINUOUS
 62
     3
100
AcDbLine
 10
39.56003881
 20
38.65210038
 30
0.0
 11
37.96004040999999
 21
38.65210038
 31
0.0
  0
LINE
  5
777
330
1F
100
AcDbEntity
  8
0
  6
CONTINUOUS
 62
     3
100
AcDbLine
 10
37.96004040999999
 20
38.65210038
 30
0.0
 11
37.96004040999999
 21
41.05209797999999
 31
0.0
  0
LINE
  5
778
330
1F
100
AcDbEntity
  8
0
  6
CONTINUOUS
 62
     3
100
AcDbLine
 10
37.96004040999999
 20
40.45209857999997
 30
0.0
 11
39.56003881
 21
40.45209857999997
 31
0.0
  0
POINT
  5
779
330
1F
100
AcDbEntity
  8
0
  6
CONTINUOUS
 62
     3
100
AcDbPoint
 10
39.56003881
 20
40.45209857999997
 30
0.0
  0
LINE
  5
77A
330
1F
100
AcDbEntity
  8
0
  6
CONTINUOUS
 62
     3
100
AcDbLine
 10
39.56003881
 20
40.45209857999997
 30
0.0
 11
37.96004040999999
 21
40.45209857999997
 31
0.0
  0
POINT
  5
77B
330
1F
100
AcDbEntity
  8
0
  6
CONTINUOUS
 62
     3
100
AcDbPoint
 10
37.96004040999999
 20
40.45209857999997
 30
0.0
  0
LINE
  5
77C
330
1F
100
AcDbEntity
  8
0
  6
CONTINUOUS
 62
     3
100
AcDbLine
 10
38.96003941
 20
38.65210038
 30
0.0
 11
38.96003941
 21
38.15210088
 31
0.0
  0
LINE
  5
77D
330
1F
100
AcDbEntity
  8
0
  6
CONTINUOUS
 62
     3
100
AcDbLine
 10
38.96003941
 20
38.15210088
 30
0.0
 11
38.56003981
 21
38.15210088
 31
0.0
  0
LINE
  5
77E
330
1F
100
AcDbEntity
  8
0
  6
CONTINUOUS
 62
     3
100
AcDbLine
 10
38.56003981
 20
38.15210088
 30
0.0
 11
38.56003981
 21
38.65210038
 31
0.0
  0
LINE
  5
77F
330
1F
100
AcDbEntity
  8
0
  6
CONTINUOUS
 62
     3
100
AcDbLine
 10
40.50003787
 20
41.05209797999999
 30
0.0
 11
42.10003626999998
 21
41.05209797999999
 31
0.0
  0
LINE
  5
780
330
1F
100
AcDbEntity
  8
0
  6
CONTINUOUS
 62
     3
100
AcDbLine
 10
42.10003626999998
 20
41.05209797999999
 30
0.0
 11
42.10003626999998
 21
38.65210038
 31
0.0
  0
LINE
  5
781
330
1F
100
AcDbEntity
  8
0
  6
CONTINUOUS
 62
     3
100
AcDbLine
 10
42.10003626999998
 20
38.65210038
 30
0.0
 11
40.50003787
 21
38.65210038
 31
0.0
  0
LINE
  5
782
330
1F
100
AcDbEntity
  8
0
  6
CONTINUOUS
 62
     3
100
AcDbLine
 10
40.50003787
 20
38.65210038
 30
0.0
 11
40.50003787
 21
41.05209797999999
 31
0.0
  0
LINE
  5
783
330
1F
100
AcDbEntity
  8
0
  6
CONTINUOUS
 62
     3
100
AcDbLine
 10
40.50003787
 20
40.45209857999997
 30
0.0
 11
42.10003626999998
 21
40.45209857999997
 31
0.0
  0
POINT
  5
784
330
1F
100
AcDbEntity
  8
0
  6
CONTINUOUS
 62
     3
100
AcDbPoint
 10
42.10003626999998
 20
40.45209857999997
 30
0.0
  0
LINE
  5
785
330
1F
100
AcDbEntity
  8
0
  6
CONTINUOUS
 62
     3
100
AcDbLine
 10
42.10003626999998
 20
40.45209857999997
 30
0.0
 11
40.50003787
 21
40.45209857999997
 31
0.0
  0
POINT
  5
786
330
1F
100
AcDbEntity
  8
0
  6
CONTINUOUS
 62
     3
100
AcDbPoint
 10
40.50003787
 20
40.45209857999997
 30
0.0
  0
LINE
  5
787
330
1F
100
AcDbEntity
  8
0
  6
CONTINUOUS
 62
     3
100
AcDbLine
 10
41.50003687
 20
38.65210038
 30
0.0
 11
41.50003687
 21
38.15210088
 31
0.0
  0
LINE
  5
788
330
1F
100
AcDbEntity
  8
0
  6
CONTINUOUS
 62
     3
100
AcDbLine
 10
41.50003687
 20
38.15210088
 30
0.0
 11
41.10003727
 21
38.15210088
 31
0.0
  0
LINE
  5
789
330
1F
100
AcDbEntity
  8
0
  6
CONTINUOUS
 62
     3
100
AcDbLine
 10
41.10003727
 20
38.15210088
 30
0.0
 11
41.10003727
 21
38.65210038
 31
0.0
  0
LINE
  5
78A
330
1F
100
AcDbEntity
  8
0
  6
CONTINUOUS
 62
     3
100
AcDbLine
 10
43.04003533
 20
41.05209797999999
 30
0.0
 11
44.64003372999999
 21
41.05209797999999
 31
0.0
  0
LINE
  5
78B
330
1F
100
AcDbEntity
  8
0
  6
CONTINUOUS
 62
     3
100
AcDbLine
 10
44.64003372999999
 20
41.05209797999999
 30
0.0
 11
44.64003372999999
 21
38.65210038
 31
0.0
  0
LINE
  5
78C
330
1F
100
AcDbEntity
  8
0
  6
CONTINUOUS
 62
     3
100
AcDbLine
 10
44.64003372999999
 20
38.65210038
 30
0.0
 11
43.04003533
 21
38.65210038
 31
0.0
  0
LINE
  5
78D
330
1F
100
AcDbEntity
  8
0
  6
CONTINUOUS
 62
     3
100
AcDbLine
 10
43.04003533
 20
38.65210038
 30
0.0
 11
43.04003533
 21
41.05209797999999
 31
0.0
  0
LINE
  5
78E
330
1F
100
AcDbEntity
  8
0
  6
CONTINUOUS
 62
     3
100
AcDbLine
 10
43.04003533
 20
40.45209857999997
 30
0.0
 11
44.64003372999999
 21
40.45209857999997
 31
0.0
  0
POINT
  5
78F
330
1F
100
AcDbEntity
  8
0
  6
CONTINUOUS
 62
     3
100
AcDbPoint
 10
44.64003372999999
 20
40.45209857999997
 30
0.0
  0
LINE
  5
790
330
1F
100
AcDbEntity
  8
0
  6
CONTINUOUS
 62
     3
100
AcDbLine
 10
44.64003372999999
 20
40.45209857999997
 30
0.0
 11
43.04003533
 21
40.45209857999997
 31
0.0
  0
POINT
  5
791
330
1F
100
AcDbEntity
  8
0
  6
CONTINUOUS
 62
     3
100
AcDbPoint
 10
43.04003533
 20
40.45209857999997
 30
0.0
  0
LINE
  5
792
330
1F
100
AcDbEntity
  8
0
  6
CONTINUOUS
 62
     3
100
AcDbLine
 10
44.04003432999998
 20
38.65210038
 30
0.0
 11
44.04003432999998
 21
38.15210088
 31
0.0
  0
LINE
  5
793
330
1F
100
AcDbEntity
  8
0
  6
CONTINUOUS
 62
     3
100
AcDbLine
 10
44.04003432999998
 20
38.15210088
 30
0.0
 11
43.64003473
 21
38.15210088
 31
0.0
  0
LINE
  5
794
330
1F
100
AcDbEntity
  8
0
  6
CONTINUOUS
 62
     3
100
AcDbLine
 10
43.64003473
 20
38.15210088
 30
0.0
 11
43.64003473
 21
38.65210038
 31
0.0
  0
LINE
  5
795
330
1F
100
AcDbEntity
  8
0
  6
CONTINUOUS
 62
     3
100
AcDbLine
 10
45.58003279
 20
41.05209797999999
 30
0.0
 11
47.18003119
 21
41.05209797999999
 31
0.0
  0
LINE
  5
796
330
1F
100
AcDbEntity
  8
0
  6
CONTINUOUS
 62
     3
100
AcDbLine
 10
47.18003119
 20
41.05209797999999
 30
0.0
 11
47.18003119
 21
38.65210038
 31
0.0
  0
LINE
  5
797
330
1F
100
AcDbEntity
  8
0
  6
CONTINUOUS
 62
     3
100
AcDbLine
 10
47.18003119
 20
38.65210038
 30
0.0
 11
45.58003279
 21
38.65210038
 31
0.0
  0
LINE
  5
798
330
1F
100
AcDbEntity
  8
0
  6
CONTINUOUS
 62
     3
100
AcDbLine
 10
45.58003279
 20
38.65210038
 30
0.0
 11
45.58003279
 21
41.05209797999999
 31
0.0
  0
LINE
  5
799
330
1F
100
AcDbEntity
  8
0
  6
CONTINUOUS
 62
     3
100
AcDbLine
 10
45.58003279
 20
40.45209857999997
 30
0.0
 11
47.18003119
 21
40.45209857999997
 31
0.0
  0
POINT
  5
79A
330
1F
100
AcDbEntity
  8
0
  6
CONTINUOUS
 62
     3
100
AcDbPoint
 10
47.18003119
 20
40.45209857999997
 30
0.0
  0
LINE
  5
79B
330
1F
100
AcDbEntity
  8
0
  6
CONTINUOUS
 62
     3
100
AcDbLine
 10
47.18003119
 20
40.45209857999997
 30
0.0
 11
45.58003279
 21
40.45209857999997
 31
0.0
  0
POINT
  5
79C
330
1F
100
AcDbEntity
  8
0
  6
CONTINUOUS
 62
     3
100
AcDbPoint
 10
45.58003279
 20
40.45209857999997
 30
0.0
  0
LINE
  5
79D
330
1F
100
AcDbEntity
  8
0
  6
CONTINUOUS
 62
     3
100
AcDbLine
 10
46.58003179
 20
38.65210038
 30
0.0
 11
46.58003179
 21
38.15210088
 31
0.0
  0
LINE
  5
79E
330
1F
100
AcDbEntity
  8
0
  6
CONTINUOUS
 62
     3
100
AcDbLine
 10
46.58003179
 20
38.15210088
 30
0.0
 11
46.18003219
 21
38.15210088
 31
0.0
  0
LINE
  5
79F
330
1F
100
AcDbEntity
  8
0
  6
CONTINUOUS
 62
     3
100
AcDbLine
 10
46.18003219
 20
38.15210088
 30
0.0
 11
46.18003219
 21
38.65210038
 31
0.0
  0
LINE
  5
7A0
330
1F
100
AcDbEntity
  8
0
  6
CONTINUOUS
 62
     3
100
AcDbLine
 10
48.12003025
 20
41.05209797999999
 30
0.0
 11
49.72002865
 21
41.05209797999999
 31
0.0
  0
LINE
  5
7A1
330
1F
100
AcDbEntity
  8
0
  6
CONTINUOUS
 62
     3
100
AcDbLine
 10
49.72002865
 20
41.05209797999999
 30
0.0
 11
49.72002865
 21
38.65210038
 31
0.0
  0
LINE
  5
7A2
330
1F
100
AcDbEntity
  8
0
  6
CONTINUOUS
 62
     3
100
AcDbLine
 10
49.72002865
 20
38.65210038
 30
0.0
 11
48.12003025
 21
38.65210038
 31
0.0
  0
LINE
  5
7A3
330
1F
100
AcDbEntity
  8
0
  6
CONTINUOUS
 62
     3
100
AcDbLine
 10
48.12003025
 20
38.65210038
 30
0.0
 11
48.12003025
 21
41.05209797999999
 31
0.0
  0
LINE
  5
7A4
330
1F
100
AcDbEntity
  8
0
  6
CONTINUOUS
 62
     3
100
AcDbLine
 10
48.12003025
 20
40.45209857999997
 30
0.0
 11
49.72002865
 21
40.45209857999997
 31
0.0
  0
POINT
  5
7A5
330
1F
100
AcDbEntity
  8
0
  6
CONTINUOUS
 62
     3
100
AcDbPoint
 10
49.72002865
 20
40.45209857999997
 30
0.0
  0
LINE
  5
7A6
330
1F
100
AcDbEntity
  8
0
  6
CONTINUOUS
 62
     3
100
AcDbLine
 10
49.72002865
 20
40.45209857999997
 30
0.0
 11
48.12003025
 21
40.45209857999997
 31
0.0
  0
POINT
  5
7A7
330
1F
100
AcDbEntity
  8
0
  6
CONTINUOUS
 62
     3
100
AcDbPoint
 10
48.12003025
 20
40.45209857999997
 30
0.0
  0
LINE
  5
7A8
330
1F
100
AcDbEntity
  8
0
  6
CONTINUOUS
 62
     3
100
AcDbLine
 10
49.12002925
 20
38.65210038
 30
0.0
 11
49.12002925
 21
38.15210088
 31
0.0
  0
LINE
  5
7A9
330
1F
100
AcDbEntity
  8
0
  6
CONTINUOUS
 62
     3
100
AcDbLine
 10
49.12002925
 20
38.15210088
 30
0.0
 11
48.72002965
 21
38.15210088
 31
0.0
  0
LINE
  5
7AA
330
1F
100
AcDbEntity
  8
0
  6
CONTINUOUS
 62
     3
100
AcDbLine
 10
48.72002965
 20
38.15210088
 30
0.0
 11
48.72002965
 21
38.65210038
 31
0.0
  0
LINE
  5
7AB
330
1F
100
AcDbEntity
  8
0
  6
CONTINUOUS
 62
     3
100
AcDbLine
 10
50.66002771
 20
41.05209797999999
 30
0.0
 11
52.26002611
 21
41.05209797999999
 31
0.0
  0
LINE
  5
7AC
330
1F
100
AcDbEntity
  8
0
  6
CONTINUOUS
 62
     3
100
AcDbLine
 10
52.26002611
 20
41.05209797999999
 30
0.0
 11
52.26002611
 21
38.65210038
 31
0.0
  0
LINE
  5
7AD
330
1F
100
AcDbEntity
  8
0
  6
CONTINUOUS
 62
     3
100
AcDbLine
 10
52.26002611
 20
38.65210038
 30
0.0
 11
50.66002771
 21
38.65210038
 31
0.0
  0
LINE
  5
7AE
330
1F
100
AcDbEntity
  8
0
  6
CONTINUOUS
 62
     3
100
AcDbLine
 10
50.66002771
 20
38.65210038
 30
0.0
 11
50.66002771
 21
41.05209797999999
 31
0.0
  0
LINE
  5
7AF
330
1F
100
AcDbEntity
  8
0
  6
CONTINUOUS
 62
     3
100
AcDbLine
 10
50.66002771
 20
40.45209857999997
 30
0.0
 11
52.26002611
 21
40.45209857999997
 31
0.0
  0
POINT
  5
7B0
330
1F
100
AcDbEntity
  8
0
  6
CONTINUOUS
 62
     3
100
AcDbPoint
 10
52.26002611
 20
40.45209857999997
 30
0.0
  0
LINE
  5
7B1
330
1F
100
AcDbEntity
  8
0
  6
CONTINUOUS
 62
     3
100
AcDbLine
 10
52.26002611
 20
40.45209857999997
 30
0.0
 11
50.66002771
 21
40.45209857999997
 31
0.0
  0
POINT
  5
7B2
330
1F
100
AcDbEntity
  8
0
  6
CONTINUOUS
 62
     3
100
AcDbPoint
 10
50.66002771
 20
40.45209857999997
 30
0.0
  0
LINE
  5
7B3
330
1F
100
AcDbEntity
  8
0
  6
CONTINUOUS
 62
     3
100
AcDbLine
 10
51.66002671
 20
38.65210038
 30
0.0
 11
51.66002671
 21
38.15210088
 31
0.0
  0
LINE
  5
7B4
330
1F
100
AcDbEntity
  8
0
  6
CONTINUOUS
 62
     3
100
AcDbLine
 10
51.66002671
 20
38.15210088
 30
0.0
 11
51.26002711
 21
38.15210088
 31
0.0
  0
LINE
  5
7B5
330
1F
100
AcDbEntity
  8
0
  6
CONTINUOUS
 62
     3
100
AcDbLine
 10
51.26002711
 20
38.15210088
 30
0.0
 11
51.26002711
 21
38.65210038
 31
0.0
  0
LINE
  5
7B6
330
1F
100
AcDbEntity
  8
0
  6
CONTINUOUS
 62
     3
100
AcDbLine
 10
53.20002517
 20
41.05209797999999
 30
0.0
 11
54.80002357
 21
41.05209797999999
 31
0.0
  0
LINE
  5
7B7
330
1F
100
AcDbEntity
  8
0
  6
CONTINUOUS
 62
     3
100
AcDbLine
 10
54.80002357
 20
41.05209797999999
 30
0.0
 11
54.80002357
 21
38.65210038
 31
0.0
  0
LINE
  5
7B8
330
1F
100
AcDbEntity
  8
0
  6
CONTINUOUS
 62
     3
100
AcDbLine
 10
54.80002357
 20
38.65210038
 30
0.0
 11
53.20002517
 21
38.65210038
 31
0.0
  0
LINE
  5
7B9
330
1F
100
AcDbEntity
  8
0
  6
CONTINUOUS
 62
     3
100
AcDbLine
 10
53.20002517
 20
38.65210038
 30
0.0
 11
53.20002517
 21
41.05209797999999
 31
0.0
  0
LINE
  5
7BA
330
1F
100
AcDbEntity
  8
0
  6
CONTINUOUS
 62
     3
100
AcDbLine
 10
53.20002517
 20
40.45209857999997
 30
0.0
 11
54.80002357
 21
40.45209857999997
 31
0.0
  0
POINT
  5
7BB
330
1F
100
AcDbEntity
  8
0
  6
CONTINUOUS
 62
     3
100
AcDbPoint
 10
54.80002357
 20
40.45209857999997
 30
0.0
  0
LINE
  5
7BC
330
1F
100
AcDbEntity
  8
0
  6
CONTINUOUS
 62
     3
100
AcDbLine
 10
54.80002357
 20
40.45209857999997
 30
0.0
 11
53.20002517
 21
40.45209857999997
 31
0.0
  0
POINT
  5
7BD
330
1F
100
AcDbEntity
  8
0
  6
CONTINUOUS
 62
     3
100
AcDbPoint
 10
53.20002517
 20
40.45209857999997
 30
0.0
  0
LINE
  5
7BE
330
1F
100
AcDbEntity
  8
0
  6
CONTINUOUS
 62
     3
100
AcDbLine
 10
54.20002417
 20
38.65210038
 30
0.0
 11
54.20002417
 21
38.15210088
 31
0.0
  0
LINE
  5
7BF
330
1F
100
AcDbEntity
  8
0
  6
CONTINUOUS
 62
     3
100
AcDbLine
 10
54.20002417
 20
38.15210088
 30
0.0
 11
53.80002456999999
 21
38.15210088
 31
0.0
  0
LINE
  5
7C0
330
1F
100
AcDbEntity
  8
0
  6
CONTINUOUS
 62
     3
100
AcDbLine
 10
53.80002456999999
 20
38.15210088
 30
0.0
 11
53.80002456999999
 21
38.65210038
 31
0.0
  0
LINE
  5
7C1
330
1F
100
AcDbEntity
  8
0
  6
CONTINUOUS
 62
     3
100
AcDbLine
 10
55.74002263
 20
41.05209797999999
 30
0.0
 11
57.34002103
 21
41.05209797999999
 31
0.0
  0
LINE
  5
7C2
330
1F
100
AcDbEntity
  8
0
  6
CONTINUOUS
 62
     3
100
AcDbLine
 10
57.34002103
 20
41.05209797999999
 30
0.0
 11
57.34002103
 21
38.65210038
 31
0.0
  0
LINE
  5
7C3
330
1F
100
AcDbEntity
  8
0
  6
CONTINUOUS
 62
     3
100
AcDbLine
 10
57.34002103
 20
38.65210038
 30
0.0
 11
55.74002263
 21
38.65210038
 31
0.0
  0
LINE
  5
7C4
330
1F
100
AcDbEntity
  8
0
  6
CONTINUOUS
 62
     3
100
AcDbLine
 10
55.74002263
 20
38.65210038
 30
0.0
 11
55.74002263
 21
41.05209797999999
 31
0.0
  0
LINE
  5
7C5
330
1F
100
AcDbEntity
  8
0
  6
CONTINUOUS
 62
     3
100
AcDbLine
 10
55.74002263
 20
40.45209857999997
 30
0.0
 11
57.34002103
 21
40.45209857999997
 31
0.0
  0
POINT
  5
7C6
330
1F
100
AcDbEntity
  8
0
  6
CONTINUOUS
 62
     3
100
AcDbPoint
 10
57.34002103
 20
40.45209857999997
 30
0.0
  0
LINE
  5
7C7
330
1F
100
AcDbEntity
  8
0
  6
CONTINUOUS
 62
     3
100
AcDbLine
 10
57.34002103
 20
40.45209857999997
 30
0.0
 11
55.74002263
 21
40.45209857999997
 31
0.0
  0
POINT
  5
7C8
330
1F
100
AcDbEntity
  8
0
  6
CONTINUOUS
 62
     3
100
AcDbPoint
 10
55.74002263
 20
40.45209857999997
 30
0.0
  0
LINE
  5
7C9
330
1F
100
AcDbEntity
  8
0
  6
CONTINUOUS
 62
     3
100
AcDbLine
 10
56.74002163
 20
38.65210038
 30
0.0
 11
56.74002163
 21
38.15210088
 31
0.0
  0
LINE
  5
7CA
330
1F
100
AcDbEntity
  8
0
  6
CONTINUOUS
 62
     3
100
AcDbLine
 10
56.74002163
 20
38.15210088
 30
0.0
 11
56.34002203
 21
38.15210088
 31
0.0
  0
LINE
  5
7CB
330
1F
100
AcDbEntity
  8
0
  6
CONTINUOUS
 62
     3
100
AcDbLine
 10
56.34002203
 20
38.15210088
 30
0.0
 11
56.34002203
 21
38.65210038
 31
0.0
  0
LINE
  5
7CC
330
1F
100
AcDbEntity
  8
0
  6
CONTINUOUS
 62
     3
100
AcDbLine
 10
58.28002009
 20
41.05209797999999
 30
0.0
 11
59.88001848999999
 21
41.05209797999999
 31
0.0
  0
LINE
  5
7CD
330
1F
100
AcDbEntity
  8
0
  6
CONTINUOUS
 62
     3
100
AcDbLine
 10
59.88001848999999
 20
41.05209797999999
 30
0.0
 11
59.88001848999999
 21
38.65210038
 31
0.0
  0
LINE
  5
7CE
330
1F
100
AcDbEntity
  8
0
  6
CONTINUOUS
 62
     3
100
AcDbLine
 10
59.88001848999999
 20
38.65210038
 30
0.0
 11
58.28002009
 21
38.65210038
 31
0.0
  0
LINE
  5
7CF
330
1F
100
AcDbEntity
  8
0
  6
CONTINUOUS
 62
     3
100
AcDbLine
 10
58.28002009
 20
38.65210038
 30
0.0
 11
58.28002009
 21
41.05209797999999
 31
0.0
  0
LINE
  5
7D0
330
1F
100
AcDbEntity
  8
0
  6
CONTINUOUS
 62
     3
100
AcDbLine
 10
58.28002009
 20
40.45209857999997
 30
0.0
 11
59.88001848999999
 21
40.45209857999997
 31
0.0
  0
POINT
  5
7D1
330
1F
100
AcDbEntity
  8
0
  6
CONTINUOUS
 62
     3
100
AcDbPoint
 10
59.88001848999999
 20
40.45209857999997
 30
0.0
  0
LINE
  5
7D2
330
1F
100
AcDbEntity
  8
0
  6
CONTINUOUS
 62
     3
100
AcDbLine
 10
59.88001848999999
 20
40.45209857999997
 30
0.0
 11
58.28002009
 21
40.45209857999997
 31
0.0
  0
POINT
  5
7D3
330
1F
100
AcDbEntity
  8
0
  6
CONTINUOUS
 62
     3
100
AcDbPoint
 10
58.28002009
 20
40.45209857999997
 30
0.0
  0
LINE
  5
7D4
330
1F
100
AcDbEntity
  8
0
  6
CONTINUOUS
 62
     3
100
AcDbLine
 10
59.28001909
 20
38.65210038
 30
0.0
 11
59.28001909
 21
38.15210088
 31
0.0
  0
LINE
  5
7D5
330
1F
100
AcDbEntity
  8
0
  6
CONTINUOUS
 62
     3
100
AcDbLine
 10
59.28001909
 20
38.15210088
 30
0.0
 11
58.88001949
 21
38.15210088
 31
0.0
  0
LINE
  5
7D6
330
1F
100
AcDbEntity
  8
0
  6
CONTINUOUS
 62
     3
100
AcDbLine
 10
58.88001949
 20
38.15210088
 30
0.0
 11
58.88001949
 21
38.65210038
 31
0.0
  0
LINE
  5
7D7
330
1F
100
AcDbEntity
  8
0
  6
CONTINUOUS
 62
     3
100
AcDbLine
 10
60.82001755
 20
41.05209797999999
 30
0.0
 11
62.42001595
 21
41.05209797999999
 31
0.0
  0
LINE
  5
7D8
330
1F
100
AcDbEntity
  8
0
  6
CONTINUOUS
 62
     3
100
AcDbLine
 10
62.42001595
 20
41.05209797999999
 30
0.0
 11
62.42001595
 21
38.65210038
 31
0.0
  0
LINE
  5
7D9
330
1F
100
AcDbEntity
  8
0
  6
CONTINUOUS
 62
     3
100
AcDbLine
 10
62.42001595
 20
38.65210038
 30
0.0
 11
60.82001755
 21
38.65210038
 31
0.0
  0
LINE
  5
7DA
330
1F
100
AcDbEntity
  8
0
  6
CONTINUOUS
 62
     3
100
AcDbLine
 10
60.82001755
 20
38.65210038
 30
0.0
 11
60.82001755
 21
41.05209797999999
 31
0.0
  0
LINE
  5
7DB
330
1F
100
AcDbEntity
  8
0
  6
CONTINUOUS
 62
     3
100
AcDbLine
 10
60.82001755
 20
40.45209857999997
 30
0.0
 11
62.42001595
 21
40.45209857999997
 31
0.0
  0
POINT
  5
7DC
330
1F
100
AcDbEntity
  8
0
  6
CONTINUOUS
 62
     3
100
AcDbPoint
 10
62.42001595
 20
40.45209857999997
 30
0.0
  0
LINE
  5
7DD
330
1F
100
AcDbEntity
  8
0
  6
CONTINUOUS
 62
     3
100
AcDbLine
 10
62.42001595
 20
40.45209857999997
 30
0.0
 11
60.82001755
 21
40.45209857999997
 31
0.0
  0
POINT
  5
7DE
330
1F
100
AcDbEntity
  8
0
  6
CONTINUOUS
 62
     3
100
AcDbPoint
 10
60.82001755
 20
40.45209857999997
 30
0.0
  0
LINE
  5
7DF
330
1F
100
AcDbEntity
  8
0
  6
CONTINUOUS
 62
     3
100
AcDbLine
 10
61.82001655
 20
38.65210038
 30
0.0
 11
61.82001655
 21
38.15210088
 31
0.0
  0
LINE
  5
7E0
330
1F
100
AcDbEntity
  8
0
  6
CONTINUOUS
 62
     3
100
AcDbLine
 10
61.82001655
 20
38.15210088
 30
0.0
 11
61.42001695
 21
38.15210088
 31
0.0
  0
LINE
  5
7E1
330
1F
100
AcDbEntity
  8
0
  6
CONTINUOUS
 62
     3
100
AcDbLine
 10
61.42001695
 20
38.15210088
 30
0.0
 11
61.42001695
 21
38.65210038
 31
0.0
  0
LINE
  5
7E2
330
1F
100
AcDbEntity
  8
0
  6
CONTINUOUS
 62
     3
100
AcDbLine
 10
63.36001501
 20
41.05209797999999
 30
0.0
 11
64.96001341
 21
41.05209797999999
 31
0.0
  0
LINE
  5
7E3
330
1F
100
AcDbEntity
  8
0
  6
CONTINUOUS
 62
     3
100
AcDbLine
 10
64.96001341
 20
41.05209797999999
 30
0.0
 11
64.96001341
 21
38.65210038
 31
0.0
  0
LINE
  5
7E4
330
1F
100
AcDbEntity
  8
0
  6
CONTINUOUS
 62
     3
100
AcDbLine
 10
64.96001341
 20
38.65210038
 30
0.0
 11
63.36001501
 21
38.65210038
 31
0.0
  0
LINE
  5
7E5
330
1F
100
AcDbEntity
  8
0
  6
CONTINUOUS
 62
     3
100
AcDbLine
 10
63.36001501
 20
38.65210038
 30
0.0
 11
63.36001501
 21
41.05209797999999
 31
0.0
  0
LINE
  5
7E6
330
1F
100
AcDbEntity
  8
0
  6
CONTINUOUS
 62
     3
100
AcDbLine
 10
63.36001501
 20
40.45209857999997
 30
0.0
 11
64.96001341
 21
40.45209857999997
 31
0.0
  0
POINT
  5
7E7
330
1F
100
AcDbEntity
  8
0
  6
CONTINUOUS
 62
     3
100
AcDbPoint
 10
64.96001341
 20
40.45209857999997
 30
0.0
  0
LINE
  5
7E8
330
1F
100
AcDbEntity
  8
0
  6
CONTINUOUS
 62
     3
100
AcDbLine
 10
64.96001341
 20
40.45209857999997
 30
0.0
 11
63.36001501
 21
40.45209857999997
 31
0.0
  0
POINT
  5
7E9
330
1F
100
AcDbEntity
  8
0
  6
CONTINUOUS
 62
     3
100
AcDbPoint
 10
63.36001501
 20
40.45209857999997
 30
0.0
  0
LINE
  5
7EA
330
1F
100
AcDbEntity
  8
0
  6
CONTINUOUS
 62
     3
100
AcDbLine
 10
64.36001401
 20
38.65210038
 30
0.0
 11
64.36001401
 21
38.15210088
 31
0.0
  0
LINE
  5
7EB
330
1F
100
AcDbEntity
  8
0
  6
CONTINUOUS
 62
     3
100
AcDbLine
 10
64.36001401
 20
38.15210088
 30
0.0
 11
63.96001441
 21
38.15210088
 31
0.0
  0
LINE
  5
7EC
330
1F
100
AcDbEntity
  8
0
  6
CONTINUOUS
 62
     3
100
AcDbLine
 10
63.96001441
 20
38.15210088
 30
0.0
 11
63.96001441
 21
38.65210038
 31
0.0
  0
LINE
  5
7ED
330
1F
100
AcDbEntity
  8
0
  6
CONTINUOUS
 62
     3
100
AcDbLine
 10
65.90001247
 20
41.05209797999999
 30
0.0
 11
67.50001087
 21
41.05209797999999
 31
0.0
  0
LINE
  5
7EE
330
1F
100
AcDbEntity
  8
0
  6
CONTINUOUS
 62
     3
100
AcDbLine
 10
67.50001087
 20
41.05209797999999
 30
0.0
 11
67.50001087
 21
38.65210038
 31
0.0
  0
LINE
  5
7EF
330
1F
100
AcDbEntity
  8
0
  6
CONTINUOUS
 62
     3
100
AcDbLine
 10
67.50001087
 20
38.65210038
 30
0.0
 11
65.90001247
 21
38.65210038
 31
0.0
  0
LINE
  5
7F0
330
1F
100
AcDbEntity
  8
0
  6
CONTINUOUS
 62
     3
100
AcDbLine
 10
65.90001247
 20
38.65210038
 30
0.0
 11
65.90001247
 21
41.05209797999999
 31
0.0
  0
LINE
  5
7F1
330
1F
100
AcDbEntity
  8
0
  6
CONTINUOUS
 62
     3
100
AcDbLine
 10
65.90001247
 20
40.45209857999997
 30
0.0
 11
67.50001087
 21
40.45209857999997
 31
0.0
  0
POINT
  5
7F2
330
1F
100
AcDbEntity
  8
0
  6
CONTINUOUS
 62
     3
100
AcDbPoint
 10
67.50001087
 20
40.45209857999997
 30
0.0
  0
LINE
  5
7F3
330
1F
100
AcDbEntity
  8
0
  6
CONTINUOUS
 62
     3
100
AcDbLine
 10
67.50001087
 20
40.45209857999997
 30
0.0
 11
65.90001247
 21
40.45209857999997
 31
0.0
  0
POINT
  5
7F4
330
1F
100
AcDbEntity
  8
0
  6
CONTINUOUS
 62
     3
100
AcDbPoint
 10
65.90001247
 20
40.45209857999997
 30
0.0
  0
LINE
  5
7F5
330
1F
100
AcDbEntity
  8
0
  6
CONTINUOUS
 62
     3
100
AcDbLine
 10
66.90001147
 20
38.65210038
 30
0.0
 11
66.90001147
 21
38.15210088
 31
0.0
  0
LINE
  5
7F6
330
1F
100
AcDbEntity
  8
0
  6
CONTINUOUS
 62
     3
100
AcDbLine
 10
66.90001147
 20
38.15210088
 30
0.0
 11
66.50001187
 21
38.15210088
 31
0.0
  0
LINE
  5
7F7
330
1F
100
AcDbEntity
  8
0
  6
CONTINUOUS
 62
     3
100
AcDbLine
 10
66.50001187
 20
38.15210088
 30
0.0
 11
66.50001187
 21
38.65210038
 31
0.0
  0
LINE
  5
7F8
330
1F
100
AcDbEntity
  8
0
  6
CONTINUOUS
 62
     3
100
AcDbLine
 10
68.44000993
 20
41.05209797999999
 30
0.0
 11
70.04000833
 21
41.05209797999999
 31
0.0
  0
LINE
  5
7F9
330
1F
100
AcDbEntity
  8
0
  6
CONTINUOUS
 62
     3
100
AcDbLine
 10
70.04000833
 20
41.05209797999999
 30
0.0
 11
70.04000833
 21
38.65210038
 31
0.0
  0
LINE
  5
7FA
330
1F
100
AcDbEntity
  8
0
  6
CONTINUOUS
 62
     3
100
AcDbLine
 10
70.04000833
 20
38.65210038
 30
0.0
 11
68.44000993
 21
38.65210038
 31
0.0
  0
LINE
  5
7FB
330
1F
100
AcDbEntity
  8
0
  6
CONTINUOUS
 62
     3
100
AcDbLine
 10
68.44000993
 20
38.65210038
 30
0.0
 11
68.44000993
 21
41.05209797999999
 31
0.0
  0
LINE
  5
7FC
330
1F
100
AcDbEntity
  8
0
  6
CONTINUOUS
 62
     3
100
AcDbLine
 10
68.44000993
 20
40.45209857999997
 30
0.0
 11
70.04000833
 21
40.45209857999997
 31
0.0
  0
POINT
  5
7FD
330
1F
100
AcDbEntity
  8
0
  6
CONTINUOUS
 62
     3
100
AcDbPoint
 10
70.04000833
 20
40.45209857999997
 30
0.0
  0
LINE
  5
7FE
330
1F
100
AcDbEntity
  8
0
  6
CONTINUOUS
 62
     3
100
AcDbLine
 10
70.04000833
 20
40.45209857999997
 30
0.0
 11
68.44000993
 21
40.45209857999997
 31
0.0
  0
POINT
  5
7FF
330
1F
100
AcDbEntity
  8
0
  6
CONTINUOUS
 62
     3
100
AcDbPoint
 10
68.44000993
 20
40.45209857999997
 30
0.0
  0
LINE
  5
800
330
1F
100
AcDbEntity
  8
0
  6
CONTINUOUS
 62
     3
100
AcDbLine
 10
69.44000893
 20
38.65210038
 30
0.0
 11
69.44000893
 21
38.15210088
 31
0.0
  0
LINE
  5
801
330
1F
100
AcDbEntity
  8
0
  6
CONTINUOUS
 62
     3
100
AcDbLine
 10
69.44000893
 20
38.15210088
 30
0.0
 11
69.04000933
 21
38.15210088
 31
0.0
  0
LINE
  5
802
330
1F
100
AcDbEntity
  8
0
  6
CONTINUOUS
 62
     3
100
AcDbLine
 10
69.04000933
 20
38.15210088
 30
0.0
 11
69.04000933
 21
38.65210038
 31
0.0
  0
LINE
  5
803
330
1F
100
AcDbEntity
  8
0
  6
CONTINUOUS
 62
     3
100
AcDbLine
 10
70.98000738999998
 20
41.05209797999999
 30
0.0
 11
72.58000579
 21
41.05209797999999
 31
0.0
  0
LINE
  5
804
330
1F
100
AcDbEntity
  8
0
  6
CONTINUOUS
 62
     3
100
AcDbLine
 10
72.58000579
 20
41.05209797999999
 30
0.0
 11
72.58000579
 21
38.65210038
 31
0.0
  0
LINE
  5
805
330
1F
100
AcDbEntity
  8
0
  6
CONTINUOUS
 62
     3
100
AcDbLine
 10
72.58000579
 20
38.65210038
 30
0.0
 11
70.98000738999998
 21
38.65210038
 31
0.0
  0
LINE
  5
806
330
1F
100
AcDbEntity
  8
0
  6
CONTINUOUS
 62
     3
100
AcDbLine
 10
70.98000738999998
 20
38.65210038
 30
0.0
 11
70.98000738999998
 21
41.05209797999999
 31
0.0
  0
LINE
  5
807
330
1F
100
AcDbEntity
  8
0
  6
CONTINUOUS
 62
     3
100
AcDbLine
 10
70.98000738999998
 20
40.45209857999997
 30
0.0
 11
72.58000579
 21
40.45209857999997
 31
0.0
  0
POINT
  5
808
330
1F
100
AcDbEntity
  8
0
  6
CONTINUOUS
 62
     3
100
AcDbPoint
 10
72.58000579
 20
40.45209857999997
 30
0.0
  0
LINE
  5
809
330
1F
100
AcDbEntity
  8
0
  6
CONTINUOUS
 62
     3
100
AcDbLine
 10
72.58000579
 20
40.45209857999997
 30
0.0
 11
70.98000738999998
 21
40.45209857999997
 31
0.0
  0
POINT
  5
80A
330
1F
100
AcDbEntity
  8
0
  6
CONTINUOUS
 62
     3
100
AcDbPoint
 10
70.98000738999998
 20
40.45209857999997
 30
0.0
  0
LINE
  5
80B
330
1F
100
AcDbEntity
  8
0
  6
CONTINUOUS
 62
     3
100
AcDbLine
 10
71.98000638999999
 20
38.65210038
 30
0.0
 11
71.98000638999999
 21
38.15210088
 31
0.0
  0
LINE
  5
80C
330
1F
100
AcDbEntity
  8
0
  6
CONTINUOUS
 62
     3
100
AcDbLine
 10
71.98000638999999
 20
38.15210088
 30
0.0
 11
71.58000679
 21
38.15210088
 31
0.0
  0
LINE
  5
80D
330
1F
100
AcDbEntity
  8
0
  6
CONTINUOUS
 62
     3
100
AcDbLine
 10
71.58000679
 20
38.15210088
 30
0.0
 11
71.58000679
 21
38.65210038
 31
0.0
  0
LINE
  5
80E
330
1F
100
AcDbEntity
  8
0
  6
CONTINUOUS
 62
     3
100
AcDbLine
 10
73.52000485000002
 20
41.05209797999999
 30
0.0
 11
75.12000324999998
 21
41.05209797999999
 31
0.0
  0
LINE
  5
80F
330
1F
100
AcDbEntity
  8
0
  6
CONTINUOUS
 62
     3
100
AcDbLine
 10
75.12000324999998
 20
41.05209797999999
 30
0.0
 11
75.12000324999998
 21
38.65210038
 31
0.0
  0
LINE
  5
810
330
1F
100
AcDbEntity
  8
0
  6
CONTINUOUS
 62
     3
100
AcDbLine
 10
75.12000324999998
 20
38.65210038
 30
0.0
 11
73.52000485000002
 21
38.65210038
 31
0.0
  0
LINE
  5
811
330
1F
100
AcDbEntity
  8
0
  6
CONTINUOUS
 62
     3
100
AcDbLine
 10
73.52000485000002
 20
38.65210038
 30
0.0
 11
73.52000485000002
 21
41.05209797999999
 31
0.0
  0
LINE
  5
812
330
1F
100
AcDbEntity
  8
0
  6
CONTINUOUS
 62
     3
100
AcDbLine
 10
73.52000485000002
 20
40.45209857999997
 30
0.0
 11
75.12000324999998
 21
40.45209857999997
 31
0.0
  0
POINT
  5
813
330
1F
100
AcDbEntity
  8
0
  6
CONTINUOUS
 62
     3
100
AcDbPoint
 10
75.12000324999998
 20
40.45209857999997
 30
0.0
  0
LINE
  5
814
330
1F
100
AcDbEntity
  8
0
  6
CONTINUOUS
 62
     3
100
AcDbLine
 10
75.12000324999998
 20
40.45209857999997
 30
0.0
 11
73.52000485000002
 21
40.45209857999997
 31
0.0
  0
POINT
  5
815
330
1F
100
AcDbEntity
  8
0
  6
CONTINUOUS
 62
     3
100
AcDbPoint
 10
73.52000485000002
 20
40.45209857999997
 30
0.0
  0
LINE
  5
816
330
1F
100
AcDbEntity
  8
0
  6
CONTINUOUS
 62
     3
100
AcDbLine
 10
74.52000384999998
 20
38.65210038
 30
0.0
 11
74.52000384999998
 21
38.15210088
 31
0.0
  0
LINE
  5
817
330
1F
100
AcDbEntity
  8
0
  6
CONTINUOUS
 62
     3
100
AcDbLine
 10
74.52000384999998
 20
38.15210088
 30
0.0
 11
74.12000424999998
 21
38.15210088
 31
0.0
  0
LINE
  5
818
330
1F
100
AcDbEntity
  8
0
  6
CONTINUOUS
 62
     3
100
AcDbLine
 10
74.12000424999998
 20
38.15210088
 30
0.0
 11
74.12000424999998
 21
38.65210038
 31
0.0
  0
LINE
  5
819
330
1F
100
AcDbEntity
  8
0
  6
CONTINUOUS
 62
     3
100
AcDbLine
 10
76.06000231
 20
41.05209797999999
 30
0.0
 11
77.66000071
 21
41.05209797999999
 31
0.0
  0
LINE
  5
81A
330
1F
100
AcDbEntity
  8
0
  6
CONTINUOUS
 62
     3
100
AcDbLine
 10
77.66000071
 20
41.05209797999999
 30
0.0
 11
77.66000071
 21
38.65210038
 31
0.0
  0
LINE
  5
81B
330
1F
100
AcDbEntity
  8
0
  6
CONTINUOUS
 62
     3
100
AcDbLine
 10
77.66000071
 20
38.65210038
 30
0.0
 11
76.06000231
 21
38.65210038
 31
0.0
  0
LINE
  5
81C
330
1F
100
AcDbEntity
  8
0
  6
CONTINUOUS
 62
     3
100
AcDbLine
 10
76.06000231
 20
38.65210038
 30
0.0
 11
76.06000231
 21
41.05209797999999
 31
0.0
  0
LINE
  5
81D
330
1F
100
AcDbEntity
  8
0
  6
CONTINUOUS
 62
     3
100
AcDbLine
 10
76.06000231
 20
40.45209857999997
 30
0.0
 11
77.66000071
 21
40.45209857999997
 31
0.0
  0
POINT
  5
81E
330
1F
100
AcDbEntity
  8
0
  6
CONTINUOUS
 62
     3
100
AcDbPoint
 10
77.66000071
 20
40.45209857999997
 30
0.0
  0
LINE
  5
81F
330
1F
100
AcDbEntity
  8
0
  6
CONTINUOUS
 62
     3
100
AcDbLine
 10
77.66000071
 20
40.45209857999997
 30
0.0
 11
76.06000231
 21
40.45209857999997
 31
0.0
  0
POINT
  5
820
330
1F
100
AcDbEntity
  8
0
  6
CONTINUOUS
 62
     3
100
AcDbPoint
 10
76.06000231
 20
40.45209857999997
 30
0.0
  0
LINE
  5
821
330
1F
100
AcDbEntity
  8
0
  6
CONTINUOUS
 62
     3
100
AcDbLine
 10
77.06000131
 20
38.65210038
 30
0.0
 11
77.06000131
 21
38.15210088
 31
0.0
  0
LINE
  5
822
330
1F
100
AcDbEntity
  8
0
  6
CONTINUOUS
 62
     3
100
AcDbLine
 10
77.06000131
 20
38.15210088
 30
0.0
 11
76.66000171
 21
38.15210088
 31
0.0
  0
LINE
  5
823
330
1F
100
AcDbEntity
  8
0
  6
CONTINUOUS
 62
     3
100
AcDbLine
 10
76.66000171
 20
38.15210088
 30
0.0
 11
76.66000171
 21
38.65210038
 31
0.0
  0
LINE
  5
824
330
1F
100
AcDbEntity
  8
0
  6
CONTINUOUS
 62
     3
100
AcDbLine
 10
78.59999976999998
 20
41.05209797999999
 30
0.0
 11
80.19999817
 21
41.05209797999999
 31
0.0
  0
LINE
  5
825
330
1F
100
AcDbEntity
  8
0
  6
CONTINUOUS
 62
     3
100
AcDbLine
 10
80.19999817
 20
41.05209797999999
 30
0.0
 11
80.19999817
 21
38.65210038
 31
0.0
  0
LINE
  5
826
330
1F
100
AcDbEntity
  8
0
  6
CONTINUOUS
 62
     3
100
AcDbLine
 10
80.19999817
 20
38.65210038
 30
0.0
 11
78.59999976999998
 21
38.65210038
 31
0.0
  0
LINE
  5
827
330
1F
100
AcDbEntity
  8
0
  6
CONTINUOUS
 62
     3
100
AcDbLine
 10
78.59999976999998
 20
38.65210038
 30
0.0
 11
78.59999976999998
 21
41.05209797999999
 31
0.0
  0
LINE
  5
828
330
1F
100
AcDbEntity
  8
0
  6
CONTINUOUS
 62
     3
100
AcDbLine
 10
78.59999976999998
 20
40.45209857999997
 30
0.0
 11
80.19999817
 21
40.45209857999997
 31
0.0
  0
POINT
  5
829
330
1F
100
AcDbEntity
  8
0
  6
CONTINUOUS
 62
     3
100
AcDbPoint
 10
80.19999817
 20
40.45209857999997
 30
0.0
  0
LINE
  5
82A
330
1F
100
AcDbEntity
  8
0
  6
CONTINUOUS
 62
     3
100
AcDbLine
 10
80.19999817
 20
40.45209857999997
 30
0.0
 11
78.59999976999998
 21
40.45209857999997
 31
0.0
  0
POINT
  5
82B
330
1F
100
AcDbEntity
  8
0
  6
CONTINUOUS
 62
     3
100
AcDbPoint
 10
78.59999976999998
 20
40.45209857999997
 30
0.0
  0
LINE
  5
82C
330
1F
100
AcDbEntity
  8
0
  6
CONTINUOUS
 62
     3
100
AcDbLine
 10
79.59999877
 20
38.65210038
 30
0.0
 11
79.59999877
 21
38.15210088
 31
0.0
  0
LINE
  5
82D
330
1F
100
AcDbEntity
  8
0
  6
CONTINUOUS
 62
     3
100
AcDbLine
 10
79.59999877
 20
38.15210088
 30
0.0
 11
79.19999917
 21
38.15210088
 31
0.0
  0
LINE
  5
82E
330
1F
100
AcDbEntity
  8
0
  6
CONTINUOUS
 62
     3
100
AcDbLine
 10
79.19999917
 20
38.15210088
 30
0.0
 11
79.19999917
 21
38.65210038
 31
0.0
  0
LINE
  5
82F
330
1F
100
AcDbEntity
  8
0
  6
CONTINUOUS
 62
     3
100
AcDbLine
 10
31.94004642999999
 20
39.05209998
 30
0.0
 11
32.88004549
 21
39.05209998
 31
0.0
  0
LINE
  5
830
330
1F
100
AcDbEntity
  8
0
  6
CONTINUOUS
 62
     3
100
AcDbLine
 10
34.48004388999999
 20
39.05209998
 30
0.0
 11
35.42004295000001
 21
39.05209998
 31
0.0
  0
LINE
  5
831
330
1F
100
AcDbEntity
  8
0
  6
CONTINUOUS
 62
     3
100
AcDbLine
 10
37.02004135
 20
39.05209998
 30
0.0
 11
37.96004040999999
 21
39.05209998
 31
0.0
  0
LINE
  5
832
330
1F
100
AcDbEntity
  8
0
  6
CONTINUOUS
 62
     3
100
AcDbLine
 10
39.56003881
 20
39.05209998
 30
0.0
 11
40.50003787
 21
39.05209998
 31
0.0
  0
LINE
  5
833
330
1F
100
AcDbEntity
  8
0
  6
CONTINUOUS
 62
     3
100
AcDbLine
 10
42.10003626999998
 20
39.05209998
 30
0.0
 11
43.04003533
 21
39.05209998
 31
0.0
  0
LINE
  5
834
330
1F
100
AcDbEntity
  8
0
  6
CONTINUOUS
 62
     3
100
AcDbLine
 10
44.64003372999999
 20
39.05209998
 30
0.0
 11
45.58003279
 21
39.05209998
 31
0.0
  0
LINE
  5
835
330
1F
100
AcDbEntity
  8
0
  6
CONTINUOUS
 62
     3
100
AcDbLine
 10
47.18003119
 20
39.05209998
 30
0.0
 11
48.12003025
 21
39.05209998
 31
0.0
  0
LINE
  5
836
330
1F
100
AcDbEntity
  8
0
  6
CONTINUOUS
 62
     3
100
AcDbLine
 10
49.72002865
 20
39.05209998
 30
0.0
 11
50.66002771
 21
39.05209998
 31
0.0
  0
LINE
  5
837
330
1F
100
AcDbEntity
  8
0
  6
CONTINUOUS
 62
     3
100
AcDbLine
 10
52.26002611
 20
39.05209998
 30
0.0
 11
53.20002517
 21
39.05209998
 31
0.0
  0
LINE
  5
838
330
1F
100
AcDbEntity
  8
0
  6
CONTINUOUS
 62
     3
100
AcDbLine
 10
54.80002357
 20
39.05209998
 30
0.0
 11
55.74002263
 21
39.05209998
 31
0.0
  0
LINE
  5
839
330
1F
100
AcDbEntity
  8
0
  6
CONTINUOUS
 62
     3
100
AcDbLine
 10
57.34002103
 20
39.05209998
 30
0.0
 11
58.28002009
 21
39.05209998
 31
0.0
  0
LINE
  5
83A
330
1F
100
AcDbEntity
  8
0
  6
CONTINUOUS
 62
     3
100
AcDbLine
 10
59.88001848999999
 20
39.05209998
 30
0.0
 11
60.82001755
 21
39.05209998
 31
0.0
  0
LINE
  5
83B
330
1F
100
AcDbEntity
  8
0
  6
CONTINUOUS
 62
     3
100
AcDbLine
 10
62.42001595
 20
39.05209998
 30
0.0
 11
63.36001501
 21
39.05209998
 31
0.0
  0
LINE
  5
83C
330
1F
100
AcDbEntity
  8
0
  6
CONTINUOUS
 62
     3
100
AcDbLine
 10
64.96001341
 20
39.05209998
 30
0.0
 11
65.90001247
 21
39.05209998
 31
0.0
  0
LINE
  5
83D
330
1F
100
AcDbEntity
  8
0
  6
CONTINUOUS
 62
     3
100
AcDbLine
 10
67.50001087
 20
39.05209998
 30
0.0
 11
68.44000993
 21
39.05209998
 31
0.0
  0
LINE
  5
83E
330
1F
100
AcDbEntity
  8
0
  6
CONTINUOUS
 62
     3
100
AcDbLine
 10
70.04000833
 20
39.05209998
 30
0.0
 11
70.98000738999998
 21
39.05209998
 31
0.0
  0
LINE
  5
83F
330
1F
100
AcDbEntity
  8
0
  6
CONTINUOUS
 62
     3
100
AcDbLine
 10
72.58000579
 20
39.05209998
 30
0.0
 11
73.52000485000002
 21
39.05209998
 31
0.0
  0
LINE
  5
840
330
1F
100
AcDbEntity
  8
0
  6
CONTINUOUS
 62
     3
100
AcDbLine
 10
75.12000324999998
 20
39.05209998
 30
0.0
 11
76.06000231
 21
39.05209998
 31
0.0
  0
LINE
  5
841
330
1F
100
AcDbEntity
  8
0
  6
CONTINUOUS
 62
     3
100
AcDbLine
 10
77.66000071
 20
39.05209998
 30
0.0
 11
78.59999976999998
 21
39.05209998
 31
0.0
  0
LINE
  5
842
330
1F
100
AcDbEntity
  8
0
  6
CONTINUOUS
 62
     3
100
AcDbLine
 10
80.23999813
 20
63.032076
 30
0.0
 11
80.73999763
 21
63.032076
 31
0.0
  0
LINE
  5
843
330
1F
100
AcDbEntity
  8
0
  6
CONTINUOUS
 62
     3
100
AcDbLine
 10
80.73999763
 20
63.032076
 30
0.0
 11
80.73999763
 21
39.03209999999999
 31
0.0
  0
LINE
  5
844
330
1F
100
AcDbEntity
  8
0
  6
CONTINUOUS
 62
     3
100
AcDbLine
 10
80.73999763
 20
39.03209999999999
 30
0.0
 11
80.23999813
 21
39.03209999999999
 31
0.0
  0
LINE
  5
845
330
1F
100
AcDbEntity
  8
0
  6
CONTINUOUS
 62
     3
100
AcDbLine
 10
30.34004803
 20
39.03209999999999
 30
0.0
 11
29.84004853
 21
39.03209999999999
 31
0.0
  0
LINE
  5
846
330
1F
100
AcDbEntity
  8
0
  6
CONTINUOUS
 62
     3
100
AcDbLine
 10
29.84004853
 20
39.03209999999999
 30
0.0
 11
29.84004853
 21
63.032076
 31
0.0
  0
LINE
  5
847
330
1F
100
AcDbEntity
  8
0
  6
CONTINUOUS
 62
     3
100
AcDbLine
 10
29.84004853
 20
63.032076
 30
0.0
 11
30.34004803
 21
63.032076
 31
0.0
  0
LINE
  5
848
330
1F
100
AcDbEntity
  8
0
  6
CONTINUOUS
 62
     3
100
AcDbLine
 10
22.7700556
 20
56.8320822
 30
0.0
 11
23.7700546
 21
56.8320822
 31
0.0
  0
LINE
  5
849
330
1F
100
AcDbEntity
  8
0
  6
CONTINUOUS
 62
     3
100
AcDbLine
 10
23.7700546
 20
45.23209379999999
 30
0.0
 11
22.7700556
 21
45.23209379999999
 31
0.0
  0
LINE
  5
84A
330
1F
100
AcDbEntity
  8
0
  6
CONTINUOUS
 62
     3
100
AcDbLine
 10
87.76999059999999
 20
45.23209379999999
 30
0.0
 11
86.76999159999998
 21
45.23209379999999
 31
0.0
  0
LINE
  5
84B
330
1F
100
AcDbEntity
  8
0
  6
CONTINUOUS
 62
     3
100
AcDbLine
 10
86.76999159999998
 20
45.23209379999999
 30
0.0
 11
86.76999159999998
 21
56.8320822
 31
0.0
  0
LINE
  5
84C
330
1F
100
AcDbEntity
  8
0
  6
CONTINUOUS
 62
     3
100
AcDbLine
 10
86.76999159999998
 20
56.8320822
 30
0.0
 11
87.76999059999999
 21
56.8320822
 31
0.0
  0
LINE
  5
84D
330
1F
100
AcDbEntity
  8
0
  6
CONTINUOUS
 62
     3
100
AcDbLine
 10
67.77001059999999
 20
36.2321028
 30
0.0
 11
67.77001059999999
 21
36.7321023
 31
0.0
  0
LINE
  5
84E
330
1F
100
AcDbEntity
  8
0
  6
CONTINUOUS
 62
     3
100
AcDbLine
 10
67.77001059999999
 20
36.7321023
 30
0.0
 11
42.77003559999999
 21
36.7321023
 31
0.0
  0
LINE
  5
84F
330
1F
100
AcDbEntity
  8
0
  6
CONTINUOUS
 62
     3
100
AcDbLine
 10
42.77003559999999
 20
36.7321023
 30
0.0
 11
42.77003559999999
 21
36.2321028
 31
0.0
  0
LINE
  5
850
330
1F
100
AcDbEntity
  8
0
  6
CONTINUOUS
 62
     3
100
AcDbLine
 10
22.7700556
 20
45.23209379999999
 30
0.0
 11
22.7700556
 21
36.2321028
 31
0.0
  0
LINE
  5
851
330
1F
100
AcDbEntity
  8
0
  6
CONTINUOUS
 62
     3
100
AcDbLine
 10
22.7700556
 20
65.83207320000001
 30
0.0
 11
22.7700556
 21
56.8320822
 31
0.0
  0
LINE
  5
852
330
1F
100
AcDbEntity
  8
0
  6
CONTINUOUS
 62
     3
100
AcDbLine
 10
42.77003559999999
 20
65.83207320000001
 30
0.0
 11
22.7700556
 21
65.83207320000001
 31
0.0
  0
LINE
  5
853
330
1F
100
AcDbEntity
  8
0
  6
CONTINUOUS
 62
     3
100
AcDbLine
 10
87.76999059999999
 20
65.83207320000001
 30
0.0
 11
67.77001059999999
 21
65.83207320000001
 31
0.0
  0
LINE
  5
854
330
1F
100
AcDbEntity
  8
0
  6
CONTINUOUS
 62
     3
100
AcDbLine
 10
42.77003559999999
 20
65.83207320000001
 30
0.0
 11
42.77003559999999
 21
65.33207370000001
 31
0.0
  0
LINE
  5
855
330
1F
100
AcDbEntity
  8
0
  6
CONTINUOUS
 62
     3
100
AcDbLine
 10
42.77003559999999
 20
65.33207370000001
 30
0.0
 11
67.77001059999999
 21
65.33207370000001
 31
0.0
  0
LINE
  5
856
330
1F
100
AcDbEntity
  8
0
  6
CONTINUOUS
 62
     3
100
AcDbLine
 10
67.77001059999999
 20
65.33207370000001
 30
0.0
 11
67.77001059999999
 21
65.83207320000001
 31
0.0
  0
LINE
  5
857
330
1F
100
AcDbEntity
  8
0
  6
CONTINUOUS
 62
     3
100
AcDbLine
 10
87.76999059999999
 20
56.8320822
 30
0.0
 11
87.76999059999999
 21
65.83207320000001
 31
0.0
  0
LINE
  5
858
330
1F
100
AcDbEntity
  8
0
  6
CONTINUOUS
 62
     3
100
AcDbLine
 10
87.76999059999999
 20
36.2321028
 30
0.0
 11
87.76999059999999
 21
45.23209379999999
 31
0.0
  0
LINE
  5
859
330
1F
100
AcDbEntity
  8
0
  6
CONTINUOUS
 62
     3
100
AcDbLine
 10
67.77001059999999
 20
36.2321028
 30
0.0
 11
87.76999059999999
 21
36.2321028
 31
0.0
  0
LINE
  5
85A
330
1F
100
AcDbEntity
  8
0
  6
CONTINUOUS
 62
     3
100
AcDbLine
 10
22.7700556
 20
36.2321028
 30
0.0
 11
42.77003559999999
 21
36.2321028
 31
0.0
  0
CIRCLE
  5
85B
330
1F
100
AcDbEntity
  8
0
  6
CONTINUOUS
 62
     3
100
AcDbCircle
 10
25.77005259999999
 20
62.5320765
 30
0.0
 40
1.399998599999999
  0
CIRCLE
  5
85C
330
1F
100
AcDbEntity
  8
0
  6
CONTINUOUS
 62
     3
100
AcDbCircle
 10
25.77005259999999
 20
39.5320995
 30
0.0
 40
1.399998599999999
  0
CIRCLE
  5
85D
330
1F
100
AcDbEntity
  8
0
  6
CONTINUOUS
 62
     3
100
AcDbCircle
 10
84.76999359999998
 20
62.5320765
 30
0.0
 40
1.399998599999999
  0
CIRCLE
  5
85E
330
1F
100
AcDbEntity
  8
0
  6
CONTINUOUS
 62
     3
100
AcDbCircle
 10
84.76999359999998
 20
39.5320995
 30
0.0
 40
1.399998599999999
  0
CIRCLE
  5
85F
330
1F
100
AcDbEntity
  8
0
  6
CONTINUOUS
 62
     3
100
AcDbCircle
 10
25.7700533
 20
51.032088
 30
0.0
 40
0.3999995999999999
  0
CIRCLE
  5
860
330
1F
100
AcDbEntity
  8
0
  6
CONTINUOUS
 62
     3
100
AcDbCircle
 10
25.7700533
 20
53.57208545999998
 30
0.0
 40
0.3999995999999999
  0
CIRCLE
  5
861
330
1F
100
AcDbEntity
  8
0
  6
CONTINUOUS
 62
     3
100
AcDbCircle
 10
25.7700533
 20
56.11208292
 30
0.0
 40
0.3999995999999999
  0
CIRCLE
  5
862
330
1F
100
AcDbEntity
  8
0
  6
CONTINUOUS
 62
     3
100
AcDbCircle
 10
25.7700533
 20
58.65208038
 30
0.0
 40
0.3999995999999999
  0
CIRCLE
  5
863
330
1F
100
AcDbEntity
  8
0
  6
CONTINUOUS
 62
     3
100
AcDbCircle
 10
25.7700533
 20
48.49209054
 30
0.0
 40
0.3999995999999999
  0
CIRCLE
  5
864
330
1F
100
AcDbEntity
  8
0
  6
CONTINUOUS
 62
     3
100
AcDbCircle
 10
25.7700533
 20
45.95209308
 30
0.0
 40
0.3999995999999999
  0
CIRCLE
  5
865
330
1F
100
AcDbEntity
  8
0
  6
CONTINUOUS
 62
     3
100
AcDbCircle
 10
25.7700533
 20
43.41209562
 30
0.0
 40
0.3999995999999999
  0
LINE
  5
867
330
1F
100
AcDbEntity
  8
0
  6
CONTINUOUS
 62
     3
100
AcDbLine
 10
87.26999109999998
 20
62.5320765
 30
0.0
 11
82.46999589999999
 21
62.5320765
 31
0.0
  0
LINE
  5
868
330
1F
100
AcDbEntity
  8
0
  6
CONTINUOUS
 62
     3
100
AcDbLine
 10
82.26999609999999
 20
39.5320995
 30
0.0
 11
86.9699914
 21
39.5320995
 31
0.0
  0
LINE
  5
869
330
1F
100
AcDbEntity
  8
0
  6
CONTINUOUS
 62
     3
100
AcDbLine
 10
23.7700546
 20
56.8320822
 30
0.0
 11
23.7700546
 21
45.23209379999999
 31
0.0
  0
LINE
  5
86C
330
1F
100
AcDbEntity
  8
0
  6
CONTINUOUS
 62
     3
100
AcDbLine
 10
31.2700471
 20
58.5320805
 30
0.0
 11
79.26999909999998
 21
58.5320805
 31
0.0
  0
LINE
  5
86D
330
1F
100
AcDbEntity
  8
0
  6
CONTINUOUS
 62
     3
100
AcDbLine
 10
79.26999909999998
 20
43.53209549999998
 30
0.0
 11
31.2700471
 21
43.53209549999998
 31
0.0
  0
LINE
  5
86E
330
1F
100
AcDbEntity
  8
0
  6
CONTINUOUS
 62
     3
100
AcDbLine
 10
31.2700471
 20
43.53209549999998
 30
0.0
 11
31.2700471
 21
58.5320805
 31
0.0
  0
LINE
  5
86F
330
1F
100
AcDbEntity
  8
0
  6
CONTINUOUS
 62
     4
100
AcDbLine
 10
44.54330202304059
 20
47.52959150199997
 30
0.0
 11
44.35080221604059
 21
47.74959128199999
 31
0.0
  0
LINE
  5
870
330
1F
100
AcDbEntity
  8
0
  6
CONTINUOUS
 62
     4
100
AcDbLine
 10
59.94328662304059
 20
54.98208404999999
 30
0.0
 11
63.46328310304059
 21
54.98208404999999
 31
0.0
  0
LINE
  5
871
330
1F
100
AcDbEntity
  8
0
  6
CONTINUOUS
 62
     4
100
AcDbLine
 10
63.46328310304059
 20
54.98208404999999
 30
0.0
 11
63.6007829660406
 21
54.789584242
 31
0.0
  0
LINE
  5
872
330
1F
100
AcDbEntity
  8
0
  6
CONTINUOUS
 62
     4
100
AcDbLine
 10
63.6007829660406
 20
54.789584242
 30
0.0
 11
62.80328376304058
 21
54.10208492999998
 31
0.0
  0
LINE
  5
873
330
1F
100
AcDbEntity
  8
0
  6
CONTINUOUS
 62
     4
100
AcDbLine
 10
62.80328376304058
 20
54.10208492999998
 30
0.0
 11
60.38328618304057
 21
54.10208492999998
 31
0.0
  0
LINE
  5
874
330
1F
100
AcDbEntity
  8
0
  6
CONTINUOUS
 62
     4
100
AcDbLine
 10
60.38328618304057
 20
54.10208492999998
 30
0.0
 11
59.77828678804058
 21
54.817084215
 31
0.0
  0
LINE
  5
875
330
1F
100
AcDbEntity
  8
0
  6
CONTINUOUS
 62
     4
100
AcDbLine
 10
59.77828678804058
 20
54.817084215
 30
0.0
 11
59.94328662304059
 21
54.98208404999999
 31
0.0
  0
LINE
  5
876
330
1F
100
AcDbEntity
  8
0
  6
CONTINUOUS
 62
     4
100
AcDbLine
 10
63.7107828560406
 20
54.67958435199999
 30
0.0
 11
62.88578368104058
 21
53.964585067
 31
0.0
  0
LINE
  5
877
330
1F
100
AcDbEntity
  8
0
  6
CONTINUOUS
 62
     4
100
AcDbLine
 10
62.88578368104058
 20
53.964585067
 30
0.0
 11
62.50078406604059
 21
51.599587432
 31
0.0
  0
LINE
  5
878
330
1F
100
AcDbEntity
  8
0
  6
CONTINUOUS
 62
     4
100
AcDbLine
 10
62.50078406604059
 20
51.599587432
 30
0.0
 11
62.85828370804058
 21
51.187087845
 31
0.0
  0
LINE
  5
879
330
1F
100
AcDbEntity
  8
0
  6
CONTINUOUS
 62
     4
100
AcDbLine
 10
62.85828370804058
 20
51.187087845
 30
0.0
 11
63.40828315804059
 21
51.627087405
 31
0.0
  0
LINE
  5
87A
330
1F
100
AcDbEntity
  8
0
  6
CONTINUOUS
 62
     4
100
AcDbLine
 10
63.40828315804059
 20
51.627087405
 30
0.0
 11
63.84828271804059
 21
54.487084545
 31
0.0
  0
LINE
  5
87B
330
1F
100
AcDbEntity
  8
0
  6
CONTINUOUS
 62
     4
100
AcDbLine
 10
63.84828271804059
 20
54.487084545
 30
0.0
 11
63.7107828560406
 21
54.67958435199999
 31
0.0
  0
LINE
  5
87C
330
1F
100
AcDbEntity
  8
0
  6
CONTINUOUS
 62
     4
100
AcDbLine
 10
59.94328662304059
 20
51.517087515
 30
0.0
 11
62.39078417604059
 21
51.517087515
 31
0.0
  0
LINE
  5
87D
330
1F
100
AcDbEntity
  8
0
  6
CONTINUOUS
 62
     4
100
AcDbLine
 10
62.39078417604059
 20
51.517087515
 30
0.0
 11
62.7757837910406
 21
51.077087955
 31
0.0
  0
LINE
  5
87E
330
1F
100
AcDbEntity
  8
0
  6
CONTINUOUS
 62
     4
100
AcDbLine
 10
62.7757837910406
 20
51.077087955
 30
0.0
 11
62.2532843130406
 21
50.637088395
 31
0.0
  0
LINE
  5
87F
330
1F
100
AcDbEntity
  8
0
  6
CONTINUOUS
 62
     4
100
AcDbLine
 10
62.2532843130406
 20
50.637088395
 30
0.0
 11
59.80578676104059
 21
50.637088395
 31
0.0
  0
LINE
  5
880
330
1F
100
AcDbEntity
  8
0
  6
CONTINUOUS
 62
     4
100
AcDbLine
 10
59.80578676104059
 20
50.637088395
 30
0.0
 11
59.44828711804056
 21
51.077087955
 31
0.0
  0
LINE
  5
881
330
1F
100
AcDbEntity
  8
0
  6
CONTINUOUS
 62
     4
100
AcDbLine
 10
59.44828711804056
 20
51.077087955
 30
0.0
 11
59.94328662304059
 21
51.517087515
 31
0.0
  0
LINE
  5
882
330
1F
100
AcDbEntity
  8
0
  6
CONTINUOUS
 62
     4
100
AcDbLine
 10
62.33578423104059
 20
50.527088505
 30
0.0
 11
62.85828370804058
 21
50.967088065
 31
0.0
  0
LINE
  5
883
330
1F
100
AcDbEntity
  8
0
  6
CONTINUOUS
 62
     4
100
AcDbLine
 10
62.85828370804058
 20
50.967088065
 30
0.0
 11
63.2157833510406
 21
50.527088505
 31
0.0
  0
LINE
  5
884
330
1F
100
AcDbEntity
  8
0
  6
CONTINUOUS
 62
     4
100
AcDbLine
 10
63.2157833510406
 20
50.527088505
 30
0.0
 11
62.7757837910406
 21
47.74959128199999
 31
0.0
  0
LINE
  5
885
330
1F
100
AcDbEntity
  8
0
  6
CONTINUOUS
 62
     4
100
AcDbLine
 10
62.7757837910406
 20
47.74959128199999
 30
0.0
 11
62.47328409304058
 21
47.50209153
 31
0.0
  0
LINE
  5
886
330
1F
100
AcDbEntity
  8
0
  6
CONTINUOUS
 62
     4
100
AcDbLine
 10
62.47328409304058
 20
47.50209153
 30
0.0
 11
61.95078461604058
 21
48.134590897
 31
0.0
  0
LINE
  5
887
330
1F
100
AcDbEntity
  8
0
  6
CONTINUOUS
 62
     4
100
AcDbLine
 10
61.95078461604058
 20
48.134590897
 30
0.0
 11
62.33578423104059
 21
50.527088505
 31
0.0
  0
LINE
  5
888
330
1F
100
AcDbEntity
  8
0
  6
CONTINUOUS
 62
     4
100
AcDbLine
 10
59.39328717304057
 20
48.05209098
 30
0.0
 11
61.8407847260406
 21
48.05209098
 31
0.0
  0
LINE
  5
889
330
1F
100
AcDbEntity
  8
0
  6
CONTINUOUS
 62
     4
100
AcDbLine
 10
61.8407847260406
 20
48.05209098
 30
0.0
 11
62.41828414804057
 21
47.33709169499999
 31
0.0
  0
LINE
  5
88A
330
1F
100
AcDbEntity
  8
0
  6
CONTINUOUS
 62
     4
100
AcDbLine
 10
62.41828414804057
 20
47.33709169499999
 30
0.0
 11
62.19828436804057
 21
47.17209186
 31
0.0
  0
LINE
  5
88B
330
1F
100
AcDbEntity
  8
0
  6
CONTINUOUS
 62
     4
100
AcDbLine
 10
62.19828436804057
 20
47.17209186
 30
0.0
 11
58.87078769604059
 21
47.17209186
 31
0.0
  0
LINE
  5
88C
330
1F
100
AcDbEntity
  8
0
  6
CONTINUOUS
 62
     4
100
AcDbLine
 10
58.87078769604059
 20
47.17209186
 30
0.0
 11
58.67828788804059
 21
47.39209164
 31
0.0
  0
LINE
  5
88D
330
1F
100
AcDbEntity
  8
0
  6
CONTINUOUS
 62
     4
100
AcDbLine
 10
58.67828788804059
 20
47.39209164
 30
0.0
 11
59.39328717304057
 21
48.05209098
 31
0.0
  0
LINE
  5
88E
330
1F
100
AcDbEntity
  8
0
  6
CONTINUOUS
 62
     4
100
AcDbLine
 10
59.31078725604059
 20
48.134590897
 30
0.0
 11
58.56828799804059
 21
47.52959150199997
 31
0.0
  0
LINE
  5
88F
330
1F
100
AcDbEntity
  8
0
  6
CONTINUOUS
 62
     4
100
AcDbLine
 10
58.56828799804059
 20
47.52959150199997
 30
0.0
 11
58.37578819104059
 21
47.74959128199999
 31
0.0
  0
LINE
  5
890
330
1F
100
AcDbEntity
  8
0
  6
CONTINUOUS
 62
     4
100
AcDbLine
 10
58.37578819104059
 20
47.74959128199999
 30
0.0
 11
58.84328772304058
 21
50.55458847699998
 31
0.0
  0
LINE
  5
891
330
1F
100
AcDbEntity
  8
0
  6
CONTINUOUS
 62
     4
100
AcDbLine
 10
58.84328772304058
 20
50.55458847699998
 30
0.0
 11
59.33828722804058
 21
50.967088065
 31
0.0
  0
LINE
  5
892
330
1F
100
AcDbEntity
  8
0
  6
CONTINUOUS
 62
     4
100
AcDbLine
 10
59.33828722804058
 20
50.967088065
 30
0.0
 11
59.69578687104061
 21
50.527088505
 31
0.0
  0
LINE
  5
893
330
1F
100
AcDbEntity
  8
0
  6
CONTINUOUS
 62
     4
100
AcDbLine
 10
59.69578687104061
 20
50.527088505
 30
0.0
 11
59.31078725604059
 21
48.134590897
 31
0.0
  0
LINE
  5
894
330
1F
100
AcDbEntity
  8
0
  6
CONTINUOUS
 62
     4
100
AcDbLine
 10
59.00828755804059
 20
51.599587432
 30
0.0
 11
59.36578720104058
 21
51.187087845
 31
0.0
  0
LINE
  5
895
330
1F
100
AcDbEntity
  8
0
  6
CONTINUOUS
 62
     4
100
AcDbLine
 10
59.36578720104058
 20
51.187087845
 30
0.0
 11
59.86078670604058
 21
51.599587432
 31
0.0
  0
LINE
  5
896
330
1F
100
AcDbEntity
  8
0
  6
CONTINUOUS
 62
     4
100
AcDbLine
 10
59.86078670604058
 20
51.599587432
 30
0.0
 11
60.27328629304058
 21
54.019585012
 31
0.0
  0
LINE
  5
897
330
1F
100
AcDbEntity
  8
0
  6
CONTINUOUS
 62
     4
100
AcDbLine
 10
60.27328629304058
 20
54.019585012
 30
0.0
 11
59.66828689804059
 21
54.707084325
 31
0.0
  0
LINE
  5
898
330
1F
100
AcDbEntity
  8
0
  6
CONTINUOUS
 62
     4
100
AcDbLine
 10
59.66828689804059
 20
54.707084325
 30
0.0
 11
59.47578709104059
 21
54.56958446199998
 31
0.0
  0
LINE
  5
899
330
1F
100
AcDbEntity
  8
0
  6
CONTINUOUS
 62
     4
100
AcDbLine
 10
59.47578709104059
 20
54.56958446199998
 30
0.0
 11
59.00828755804059
 21
51.599587432
 31
0.0
  0
LINE
  5
89A
330
1F
100
AcDbEntity
  8
0
  6
CONTINUOUS
 62
     4
100
AcDbLine
 10
52.93079363604061
 20
54.98208404999999
 30
0.0
 11
56.45079011604059
 21
54.98208404999999
 31
0.0
  0
LINE
  5
89B
330
1F
100
AcDbEntity
  8
0
  6
CONTINUOUS
 62
     4
100
AcDbLine
 10
56.45079011604059
 20
54.98208404999999
 30
0.0
 11
56.58828997804057
 21
54.789584242
 31
0.0
  0
LINE
  5
89C
330
1F
100
AcDbEntity
  8
0
  6
CONTINUOUS
 62
     4
100
AcDbLine
 10
56.58828997804057
 20
54.789584242
 30
0.0
 11
55.7907907760406
 21
54.10208492999998
 31
0.0
  0
LINE
  5
89D
330
1F
100
AcDbEntity
  8
0
  6
CONTINUOUS
 62
     4
100
AcDbLine
 10
55.7907907760406
 20
54.10208492999998
 30
0.0
 11
53.37079319604059
 21
54.10208492999998
 31
0.0
  0
LINE
  5
89E
330
1F
100
AcDbEntity
  8
0
  6
CONTINUOUS
 62
     4
100
AcDbLine
 10
53.37079319604059
 20
54.10208492999998
 30
0.0
 11
52.7657938010406
 21
54.817084215
 31
0.0
  0
LINE
  5
89F
330
1F
100
AcDbEntity
  8
0
  6
CONTINUOUS
 62
     4
100
AcDbLine
 10
52.7657938010406
 20
54.817084215
 30
0.0
 11
52.93079363604061
 21
54.98208404999999
 31
0.0
  0
LINE
  5
8A0
330
1F
100
AcDbEntity
  8
0
  6
CONTINUOUS
 62
     4
100
AcDbLine
 10
56.69828986804059
 20
54.67958435199999
 30
0.0
 11
55.87329069304058
 21
53.964585067
 31
0.0
  0
LINE
  5
8A1
330
1F
100
AcDbEntity
  8
0
  6
CONTINUOUS
 62
     4
100
AcDbLine
 10
55.87329069304058
 20
53.964585067
 30
0.0
 11
55.48829107804056
 21
51.599587432
 31
0.0
  0
LINE
  5
8A2
330
1F
100
AcDbEntity
  8
0
  6
CONTINUOUS
 62
     4
100
AcDbLine
 10
55.48829107804056
 20
51.599587432
 30
0.0
 11
55.84579072104059
 21
51.187087845
 31
0.0
  0
LINE
  5
8A3
330
1F
100
AcDbEntity
  8
0
  6
CONTINUOUS
 62
     4
100
AcDbLine
 10
55.84579072104059
 20
51.187087845
 30
0.0
 11
56.39579017104059
 21
51.627087405
 31
0.0
  0
LINE
  5
8A4
330
1F
100
AcDbEntity
  8
0
  6
CONTINUOUS
 62
     4
100
AcDbLine
 10
56.39579017104059
 20
51.627087405
 30
0.0
 11
56.83578973104058
 21
54.487084545
 31
0.0
  0
LINE
  5
8A5
330
1F
100
AcDbEntity
  8
0
  6
CONTINUOUS
 62
     4
100
AcDbLine
 10
56.83578973104058
 20
54.487084545
 30
0.0
 11
56.69828986804059
 21
54.67958435199999
 31
0.0
  0
LINE
  5
8A6
330
1F
100
AcDbEntity
  8
0
  6
CONTINUOUS
 62
     4
100
AcDbLine
 10
52.93079363604061
 20
51.517087515
 30
0.0
 11
55.37829118804058
 21
51.517087515
 31
0.0
  0
LINE
  5
8A7
330
1F
100
AcDbEntity
  8
0
  6
CONTINUOUS
 62
     4
100
AcDbLine
 10
55.37829118804058
 20
51.517087515
 30
0.0
 11
55.76329080304059
 21
51.077087955
 31
0.0
  0
LINE
  5
8A8
330
1F
100
AcDbEntity
  8
0
  6
CONTINUOUS
 62
     4
100
AcDbLine
 10
55.76329080304059
 20
51.077087955
 30
0.0
 11
55.24079132604059
 21
50.637088395
 31
0.0
  0
LINE
  5
8A9
330
1F
100
AcDbEntity
  8
0
  6
CONTINUOUS
 62
     4
100
AcDbLine
 10
55.24079132604059
 20
50.637088395
 30
0.0
 11
52.79329377304058
 21
50.637088395
 31
0.0
  0
LINE
  5
8AA
330
1F
100
AcDbEntity
  8
0
  6
CONTINUOUS
 62
     4
100
AcDbLine
 10
52.79329377304058
 20
50.637088395
 30
0.0
 11
52.43579413104059
 21
51.077087955
 31
0.0
  0
LINE
  5
8AB
330
1F
100
AcDbEntity
  8
0
  6
CONTINUOUS
 62
     4
100
AcDbLine
 10
52.43579413104059
 20
51.077087955
 30
0.0
 11
52.93079363604061
 21
51.517087515
 31
0.0
  0
LINE
  5
8AC
330
1F
100
AcDbEntity
  8
0
  6
CONTINUOUS
 62
     4
100
AcDbLine
 10
55.32329124304059
 20
50.527088505
 30
0.0
 11
55.84579072104059
 21
50.967088065
 31
0.0
  0
LINE
  5
8AD
330
1F
100
AcDbEntity
  8
0
  6
CONTINUOUS
 62
     4
100
AcDbLine
 10
55.84579072104059
 20
50.967088065
 30
0.0
 11
56.2032903630406
 21
50.527088505
 31
0.0
  0
LINE
  5
8AE
330
1F
100
AcDbEntity
  8
0
  6
CONTINUOUS
 62
     4
100
AcDbLine
 10
56.2032903630406
 20
50.527088505
 30
0.0
 11
55.76329080304059
 21
47.74959128199999
 31
0.0
  0
LINE
  5
8AF
330
1F
100
AcDbEntity
  8
0
  6
CONTINUOUS
 62
     4
100
AcDbLine
 10
55.76329080304059
 20
47.74959128199999
 30
0.0
 11
55.46079110604059
 21
47.50209153
 31
0.0
  0
LINE
  5
8B0
330
1F
100
AcDbEntity
  8
0
  6
CONTINUOUS
 62
     4
100
AcDbLine
 10
55.46079110604059
 20
47.50209153
 30
0.0
 11
54.93829162804058
 21
48.134590897
 31
0.0
  0
LINE
  5
8B1
330
1F
100
AcDbEntity
  8
0
  6
CONTINUOUS
 62
     4
100
AcDbLine
 10
54.93829162804058
 20
48.134590897
 30
0.0
 11
55.32329124304059
 21
50.527088505
 31
0.0
  0
LINE
  5
8B2
330
1F
100
AcDbEntity
  8
0
  6
CONTINUOUS
 62
     4
100
AcDbLine
 10
52.38079418604058
 20
48.05209098
 30
0.0
 11
54.82829173804059
 21
48.05209098
 31
0.0
  0
LINE
  5
8B3
330
1F
100
AcDbEntity
  8
0
  6
CONTINUOUS
 62
     4
100
AcDbLine
 10
54.82829173804059
 20
48.05209098
 30
0.0
 11
55.40579116104058
 21
47.33709169499999
 31
0.0
  0
LINE
  5
8B4
330
1F
100
AcDbEntity
  8
0
  6
CONTINUOUS
 62
     4
100
AcDbLine
 10
55.40579116104058
 20
47.33709169499999
 30
0.0
 11
55.18579138104059
 21
47.17209186
 31
0.0
  0
LINE
  5
8B5
330
1F
100
AcDbEntity
  8
0
  6
CONTINUOUS
 62
     4
100
AcDbLine
 10
55.18579138104059
 20
47.17209186
 30
0.0
 11
51.85829470804058
 21
47.17209186
 31
0.0
  0
LINE
  5
8B6
330
1F
100
AcDbEntity
  8
0
  6
CONTINUOUS
 62
     4
100
AcDbLine
 10
51.85829470804058
 20
47.17209186
 30
0.0
 11
51.66579490104059
 21
47.39209164
 31
0.0
  0
LINE
  5
8B7
330
1F
100
AcDbEntity
  8
0
  6
CONTINUOUS
 62
     4
100
AcDbLine
 10
51.66579490104059
 20
47.39209164
 30
0.0
 11
52.38079418604058
 21
48.05209098
 31
0.0
  0
LINE
  5
8B8
330
1F
100
AcDbEntity
  8
0
  6
CONTINUOUS
 62
     4
100
AcDbLine
 10
52.29829426804059
 20
48.134590897
 30
0.0
 11
51.55579501104059
 21
47.52959150199997
 31
0.0
  0
LINE
  5
8B9
330
1F
100
AcDbEntity
  8
0
  6
CONTINUOUS
 62
     4
100
AcDbLine
 10
51.55579501104059
 20
47.52959150199997
 30
0.0
 11
51.36329520304059
 21
47.74959128199999
 31
0.0
  0
LINE
  5
8BA
330
1F
100
AcDbEntity
  8
0
  6
CONTINUOUS
 62
     4
100
AcDbLine
 10
51.36329520304059
 20
47.74959128199999
 30
0.0
 11
51.8307947360406
 21
50.55458847699998
 31
0.0
  0
LINE
  5
8BB
330
1F
100
AcDbEntity
  8
0
  6
CONTINUOUS
 62
     4
100
AcDbLine
 10
51.8307947360406
 20
50.55458847699998
 30
0.0
 11
52.3257942410406
 21
50.967088065
 31
0.0
  0
LINE
  5
8BC
330
1F
100
AcDbEntity
  8
0
  6
CONTINUOUS
 62
     4
100
AcDbLine
 10
52.3257942410406
 20
50.967088065
 30
0.0
 11
52.68329388304059
 21
50.527088505
 31
0.0
  0
LINE
  5
8BD
330
1F
100
AcDbEntity
  8
0
  6
CONTINUOUS
 62
     4
100
AcDbLine
 10
52.68329388304059
 20
50.527088505
 30
0.0
 11
52.29829426804059
 21
48.134590897
 31
0.0
  0
LINE
  5
8BE
330
1F
100
AcDbEntity
  8
0
  6
CONTINUOUS
 62
     4
100
AcDbLine
 10
51.99579457104057
 20
51.599587432
 30
0.0
 11
52.35329421304058
 21
51.187087845
 31
0.0
  0
LINE
  5
8BF
330
1F
100
AcDbEntity
  8
0
  6
CONTINUOUS
 62
     4
100
AcDbLine
 10
52.35329421304058
 20
51.187087845
 30
0.0
 11
52.84829371804058
 21
51.599587432
 31
0.0
  0
LINE
  5
8C0
330
1F
100
AcDbEntity
  8
0
  6
CONTINUOUS
 62
     4
100
AcDbLine
 10
52.84829371804058
 20
51.599587432
 30
0.0
 11
53.26079330604059
 21
54.019585012
 31
0.0
  0
LINE
  5
8C1
330
1F
100
AcDbEntity
  8
0
  6
CONTINUOUS
 62
     4
100
AcDbLine
 10
53.26079330604059
 20
54.019585012
 30
0.0
 11
52.6557939110406
 21
54.707084325
 31
0.0
  0
LINE
  5
8C2
330
1F
100
AcDbEntity
  8
0
  6
CONTINUOUS
 62
     4
100
AcDbLine
 10
52.6557939110406
 20
54.707084325
 30
0.0
 11
52.46329410304057
 21
54.56958446199998
 31
0.0
  0
LINE
  5
8C3
330
1F
100
AcDbEntity
  8
0
  6
CONTINUOUS
 62
     4
100
AcDbLine
 10
52.46329410304057
 20
54.56958446199998
 30
0.0
 11
51.99579457104057
 21
51.599587432
 31
0.0
  0
CIRCLE
  5
8C4
330
1F
100
AcDbEntity
  8
0
  6
CONTINUOUS
 62
     4
100
AcDbCircle
 10
56.6157899510406
 20
47.74959128199999
 30
0.0
 40
0.4399995600000004
  0
LINE
  5
8C5
330
1F
100
AcDbEntity
  8
0
  6
CONTINUOUS
 62
     4
100
AcDbLine
 10
49.4382971280406
 20
54.98208404999999
 30
0.0
 11
49.57579699104059
 21
54.789584242
 31
0.0
  0
LINE
  5
8C6
330
1F
100
AcDbEntity
  8
0
  6
CONTINUOUS
 62
     4
100
AcDbLine
 10
49.57579699104059
 20
54.789584242
 30
0.0
 11
48.77829778804059
 21
54.10208492999998
 31
0.0
  0
LINE
  5
8C7
330
1F
100
AcDbEntity
  8
0
  6
CONTINUOUS
 62
     4
100
AcDbLine
 10
49.6857968810406
 20
54.67958435199999
 30
0.0
 11
48.86079770604059
 21
53.964585067
 31
0.0
  0
LINE
  5
8C8
330
1F
100
AcDbEntity
  8
0
  6
CONTINUOUS
 62
     4
100
AcDbLine
 10
48.86079770604059
 20
53.964585067
 30
0.0
 11
48.47579809104059
 21
51.599587432
 31
0.0
  0
LINE
  5
8C9
330
1F
100
AcDbEntity
  8
0
  6
CONTINUOUS
 62
     4
100
AcDbLine
 10
48.47579809104059
 20
51.599587432
 30
0.0
 11
48.83329773304058
 21
51.187087845
 31
0.0
  0
LINE
  5
8CA
330
1F
100
AcDbEntity
  8
0
  6
CONTINUOUS
 62
     4
100
AcDbLine
 10
48.83329773304058
 20
51.187087845
 30
0.0
 11
49.38329718304057
 21
51.627087405
 31
0.0
  0
LINE
  5
8CB
330
1F
100
AcDbEntity
  8
0
  6
CONTINUOUS
 62
     4
100
AcDbLine
 10
49.38329718304057
 20
51.627087405
 30
0.0
 11
49.82329674304059
 21
54.487084545
 31
0.0
  0
LINE
  5
8CC
330
1F
100
AcDbEntity
  8
0
  6
CONTINUOUS
 62
     4
100
AcDbLine
 10
49.82329674304059
 20
54.487084545
 30
0.0
 11
49.6857968810406
 21
54.67958435199999
 31
0.0
  0
LINE
  5
8CD
330
1F
100
AcDbEntity
  8
0
  6
CONTINUOUS
 62
     4
100
AcDbLine
 10
45.91830064804059
 20
51.517087515
 30
0.0
 11
48.3657982010406
 21
51.517087515
 31
0.0
  0
LINE
  5
8CE
330
1F
100
AcDbEntity
  8
0
  6
CONTINUOUS
 62
     4
100
AcDbLine
 10
48.3657982010406
 20
51.517087515
 30
0.0
 11
48.7507978160406
 21
51.077087955
 31
0.0
  0
LINE
  5
8CF
330
1F
100
AcDbEntity
  8
0
  6
CONTINUOUS
 62
     4
100
AcDbLine
 10
48.7507978160406
 20
51.077087955
 30
0.0
 11
48.2282983380406
 21
50.637088395
 31
0.0
  0
LINE
  5
8D0
330
1F
100
AcDbEntity
  8
0
  6
CONTINUOUS
 62
     4
100
AcDbLine
 10
45.42330114304056
 20
51.077087955
 30
0.0
 11
45.91830064804059
 21
51.517087515
 31
0.0
  0
LINE
  5
8D1
330
1F
100
AcDbEntity
  8
0
  6
CONTINUOUS
 62
     4
100
AcDbLine
 10
48.31079825604059
 20
50.527088505
 30
0.0
 11
48.83329773304058
 21
50.967088065
 31
0.0
  0
LINE
  5
8D2
330
1F
100
AcDbEntity
  8
0
  6
CONTINUOUS
 62
     4
100
AcDbLine
 10
48.83329773304058
 20
50.967088065
 30
0.0
 11
49.19079737604058
 21
50.527088505
 31
0.0
  0
LINE
  5
8D3
330
1F
100
AcDbEntity
  8
0
  6
CONTINUOUS
 62
     4
100
AcDbLine
 10
49.19079737604058
 20
50.527088505
 30
0.0
 11
48.7507978160406
 21
47.74959128199999
 31
0.0
  0
LINE
  5
8D4
330
1F
100
AcDbEntity
  8
0
  6
CONTINUOUS
 62
     4
100
AcDbLine
 10
48.7507978160406
 20
47.74959128199999
 30
0.0
 11
48.44829811804057
 21
47.50209153
 31
0.0
  0
LINE
  5
8D5
330
1F
100
AcDbEntity
  8
0
  6
CONTINUOUS
 62
     4
100
AcDbLine
 10
48.44829811804057
 20
47.50209153
 30
0.0
 11
47.92579864104059
 21
48.134590897
 31
0.0
  0
LINE
  5
8D6
330
1F
100
AcDbEntity
  8
0
  6
CONTINUOUS
 62
     4
100
AcDbLine
 10
47.92579864104059
 20
48.134590897
 30
0.0
 11
48.31079825604059
 21
50.527088505
 31
0.0
  0
LINE
  5
8D7
330
1F
100
AcDbEntity
  8
0
  6
CONTINUOUS
 62
     4
100
AcDbLine
 10
47.8157987510406
 20
48.05209098
 30
0.0
 11
48.39329817304058
 21
47.33709169499999
 31
0.0
  0
LINE
  5
8D8
330
1F
100
AcDbEntity
  8
0
  6
CONTINUOUS
 62
     4
100
AcDbLine
 10
48.39329817304058
 20
47.33709169499999
 30
0.0
 11
48.17329839304058
 21
47.17209186
 31
0.0
  0
LINE
  5
8D9
330
1F
100
AcDbEntity
  8
0
  6
CONTINUOUS
 62
     4
100
AcDbLine
 10
44.98330158304059
 20
51.599587432
 30
0.0
 11
45.34080122604058
 21
51.187087845
 31
0.0
  0
LINE
  5
8DA
330
1F
100
AcDbEntity
  8
0
  6
CONTINUOUS
 62
     4
100
AcDbLine
 10
45.34080122604058
 20
51.187087845
 30
0.0
 11
45.83580073104058
 21
51.599587432
 31
0.0
  0
CIRCLE
  5
8DB
330
1F
100
AcDbEntity
  8
0
  6
CONTINUOUS
 62
     4
100
AcDbCircle
 10
49.60329696304057
 20
47.74959128199999
 30
0.0
 40
0.4399995600000004
  0
LINE
  5
8DC
330
1F
100
AcDbEntity
  8
0
  6
CONTINUOUS
 62
     4
100
AcDbLine
 10
45.91830064804059
 20
54.98208404999999
 30
0.0
 11
49.4382971280406
 21
54.98208404999999
 31
0.0
  0
LINE
  5
8DD
330
1F
100
AcDbEntity
  8
0
  6
CONTINUOUS
 62
     4
100
AcDbLine
 10
48.77829778804059
 20
54.10208492999998
 30
0.0
 11
46.35830020804056
 21
54.10208492999998
 31
0.0
  0
LINE
  5
8DE
330
1F
100
AcDbEntity
  8
0
  6
CONTINUOUS
 62
     4
100
AcDbLine
 10
46.35830020804056
 20
54.10208492999998
 30
0.0
 11
45.75330081304058
 21
54.817084215
 31
0.0
  0
LINE
  5
8DF
330
1F
100
AcDbEntity
  8
0
  6
CONTINUOUS
 62
     4
100
AcDbLine
 10
45.75330081304058
 20
54.817084215
 30
0.0
 11
45.91830064804059
 21
54.98208404999999
 31
0.0
  0
LINE
  5
8E0
330
1F
100
AcDbEntity
  8
0
  6
CONTINUOUS
 62
     4
100
AcDbLine
 10
45.83580073104058
 20
51.599587432
 30
0.0
 11
46.24830031804058
 21
54.019585012
 31
0.0
  0
LINE
  5
8E1
330
1F
100
AcDbEntity
  8
0
  6
CONTINUOUS
 62
     4
100
AcDbLine
 10
46.24830031804058
 20
54.019585012
 30
0.0
 11
45.64330092304057
 21
54.707084325
 31
0.0
  0
LINE
  5
8E2
330
1F
100
AcDbEntity
  8
0
  6
CONTINUOUS
 62
     4
100
AcDbLine
 10
45.64330092304057
 20
54.707084325
 30
0.0
 11
45.45080111604059
 21
54.56958446199998
 31
0.0
  0
LINE
  5
8E3
330
1F
100
AcDbEntity
  8
0
  6
CONTINUOUS
 62
     4
100
AcDbLine
 10
45.45080111604059
 20
54.56958446199998
 30
0.0
 11
44.98330158304059
 21
51.599587432
 31
0.0
  0
LINE
  5
8E4
330
1F
100
AcDbEntity
  8
0
  6
CONTINUOUS
 62
     4
100
AcDbLine
 10
48.2282983380406
 20
50.637088395
 30
0.0
 11
45.78080078604059
 21
50.637088395
 31
0.0
  0
LINE
  5
8E5
330
1F
100
AcDbEntity
  8
0
  6
CONTINUOUS
 62
     4
100
AcDbLine
 10
45.78080078604059
 20
50.637088395
 30
0.0
 11
45.42330114304056
 21
51.077087955
 31
0.0
  0
LINE
  5
8E6
330
1F
100
AcDbEntity
  8
0
  6
CONTINUOUS
 62
     4
100
AcDbLine
 10
45.36830119804057
 20
48.05209098
 30
0.0
 11
47.8157987510406
 21
48.05209098
 31
0.0
  0
LINE
  5
8E7
330
1F
100
AcDbEntity
  8
0
  6
CONTINUOUS
 62
     4
100
AcDbLine
 10
48.17329839304058
 20
47.17209186
 30
0.0
 11
44.84580172104059
 21
47.17209186
 31
0.0
  0
LINE
  5
8E8
330
1F
100
AcDbEntity
  8
0
  6
CONTINUOUS
 62
     4
100
AcDbLine
 10
44.84580172104059
 20
47.17209186
 30
0.0
 11
44.65330191304057
 21
47.39209164
 31
0.0
  0
LINE
  5
8E9
330
1F
100
AcDbEntity
  8
0
  6
CONTINUOUS
 62
     4
100
AcDbLine
 10
44.65330191304057
 20
47.39209164
 30
0.0
 11
45.36830119804057
 21
48.05209098
 31
0.0
  0
LINE
  5
8EA
330
1F
100
AcDbEntity
  8
0
  6
CONTINUOUS
 62
     4
100
AcDbLine
 10
45.28580128104059
 20
48.134590897
 30
0.0
 11
44.54330202304059
 21
47.52959150199997
 31
0.0
  0
LINE
  5
8EB
330
1F
100
AcDbEntity
  8
0
  6
CONTINUOUS
 62
     4
100
AcDbLine
 10
44.35080221604059
 20
47.74959128199999
 30
0.0
 11
44.81830174804058
 21
50.55458847699998
 31
0.0
  0
LINE
  5
8EC
330
1F
100
AcDbEntity
  8
0
  6
CONTINUOUS
 62
     4
100
AcDbLine
 10
44.81830174804058
 20
50.55458847699998
 30
0.0
 11
45.31330125304058
 21
50.967088065
 31
0.0
  0
LINE
  5
8ED
330
1F
100
AcDbEntity
  8
0
  6
CONTINUOUS
 62
     4
100
AcDbLine
 10
45.31330125304058
 20
50.967088065
 30
0.0
 11
45.67080089604059
 21
50.527088505
 31
0.0
  0
LINE
  5
8EE
330
1F
100
AcDbEntity
  8
0
  6
CONTINUOUS
 62
     4
100
AcDbLine
 10
45.67080089604059
 20
50.527088505
 30
0.0
 11
45.28580128104059
 21
48.134590897
 31
0.0
  0
LINE
  5
8EF
330
1F
100
AcDbEntity
  8
0
  6
CONTINUOUS
 62
     4
100
AcDbLine
 10
42.63580393104059
 20
54.67958435199999
 30
0.0
 11
41.81080475604058
 21
53.964585067
 31
0.0
  0
LINE
  5
8F0
330
1F
100
AcDbEntity
  8
0
  6
CONTINUOUS
 62
     4
100
AcDbLine
 10
41.81080475604058
 20
53.964585067
 30
0.0
 11
41.42580514104056
 21
51.599587432
 31
0.0
  0
LINE
  5
8F1
330
1F
100
AcDbEntity
  8
0
  6
CONTINUOUS
 62
     4
100
AcDbLine
 10
41.42580514104056
 20
51.599587432
 30
0.0
 11
41.78330478304056
 21
51.187087845
 31
0.0
  0
LINE
  5
8F2
330
1F
100
AcDbEntity
  8
0
  6
CONTINUOUS
 62
     4
100
AcDbLine
 10
41.78330478304056
 20
51.187087845
 30
0.0
 11
42.33330423304059
 21
51.627087405
 31
0.0
  0
LINE
  5
8F3
330
1F
100
AcDbEntity
  8
0
  6
CONTINUOUS
 62
     4
100
AcDbLine
 10
42.33330423304059
 20
51.627087405
 30
0.0
 11
42.77330379304056
 21
54.487084545
 31
0.0
  0
LINE
  5
8F4
330
1F
100
AcDbEntity
  8
0
  6
CONTINUOUS
 62
     4
100
AcDbLine
 10
42.77330379304056
 20
54.487084545
 30
0.0
 11
42.63580393104059
 21
54.67958435199999
 31
0.0
  0
LINE
  5
8F5
330
1F
100
AcDbEntity
  8
0
  6
CONTINUOUS
 62
     4
100
AcDbLine
 10
38.86830769804059
 20
51.517087515
 30
0.0
 11
41.31580525104058
 21
51.517087515
 31
0.0
  0
LINE
  5
8F6
330
1F
100
AcDbEntity
  8
0
  6
CONTINUOUS
 62
     4
100
AcDbLine
 10
41.31580525104058
 20
51.517087515
 30
0.0
 11
41.70080486604059
 21
51.077087955
 31
0.0
  0
LINE
  5
8F7
330
1F
100
AcDbEntity
  8
0
  6
CONTINUOUS
 62
     4
100
AcDbLine
 10
41.70080486604059
 20
51.077087955
 30
0.0
 11
41.17830538804059
 21
50.637088395
 31
0.0
  0
LINE
  5
8F8
330
1F
100
AcDbEntity
  8
0
  6
CONTINUOUS
 62
     4
100
AcDbLine
 10
38.37330819304059
 20
51.077087955
 30
0.0
 11
38.86830769804059
 21
51.517087515
 31
0.0
  0
LINE
  5
8F9
330
1F
100
AcDbEntity
  8
0
  6
CONTINUOUS
 62
     4
100
AcDbLine
 10
41.26080530604059
 20
50.527088505
 30
0.0
 11
41.78330478304056
 21
50.967088065
 31
0.0
  0
LINE
  5
8FA
330
1F
100
AcDbEntity
  8
0
  6
CONTINUOUS
 62
     4
100
AcDbLine
 10
41.78330478304056
 20
50.967088065
 30
0.0
 11
42.1408044260406
 21
50.527088505
 31
0.0
  0
LINE
  5
8FB
330
1F
100
AcDbEntity
  8
0
  6
CONTINUOUS
 62
     4
100
AcDbLine
 10
42.1408044260406
 20
50.527088505
 30
0.0
 11
41.70080486604059
 21
47.74959128199999
 31
0.0
  0
LINE
  5
8FC
330
1F
100
AcDbEntity
  8
0
  6
CONTINUOUS
 62
     4
100
AcDbLine
 10
41.70080486604059
 20
47.74959128199999
 30
0.0
 11
41.39830516804059
 21
47.50209153
 31
0.0
  0
LINE
  5
8FD
330
1F
100
AcDbEntity
  8
0
  6
CONTINUOUS
 62
     4
100
AcDbLine
 10
41.39830516804059
 20
47.50209153
 30
0.0
 11
40.87580569104058
 21
48.134590897
 31
0.0
  0
LINE
  5
8FE
330
1F
100
AcDbEntity
  8
0
  6
CONTINUOUS
 62
     4
100
AcDbLine
 10
40.87580569104058
 20
48.134590897
 30
0.0
 11
41.26080530604059
 21
50.527088505
 31
0.0
  0
CIRCLE
  5
8FF
330
1F
100
AcDbEntity
  8
0
  6
CONTINUOUS
 62
     4
100
AcDbCircle
 10
42.5533040130406
 20
47.74959128199999
 30
0.0
 40
0.4399995600000004
  0
LINE
  5
900
330
1F
100
AcDbEntity
  8
0
  6
CONTINUOUS
 62
     4
100
AcDbLine
 10
41.17830538804059
 20
50.637088395
 30
0.0
 11
38.73080783604059
 21
50.637088395
 31
0.0
  0
LINE
  5
901
330
1F
100
AcDbEntity
  8
0
  6
CONTINUOUS
 62
     4
100
AcDbLine
 10
38.73080783604059
 20
50.637088395
 30
0.0
 11
38.37330819304059
 21
51.077087955
 31
0.0
  0
LINE
  5
902
330
1F
100
AcDbEntity
  8
0
  6
CONTINUOUS
 62
     3
100
AcDbLine
 10
38.54856496004059
 20
50.861387319
 30
0.0
 11
39.20426515604059
 21
51.517087515
 31
0.0
  0
LINE
  5
903
330
1F
100
AcDbEntity
  8
0
  6
CONTINUOUS
 62
     3
100
AcDbLine
 10
39.62852880104059
 20
51.517087515
 30
0.0
 11
38.74852968104059
 21
50.637088395
 31
0.0
  0
LINE
  5
904
330
1F
100
AcDbEntity
  8
0
  6
CONTINUOUS
 62
     3
100
AcDbLine
 10
39.17279332504058
 20
50.637088395
 30
0.0
 11
40.05279244504058
 21
51.517087515
 31
0.0
  0
LINE
  5
905
330
1F
100
AcDbEntity
  8
0
  6
CONTINUOUS
 62
     3
100
AcDbLine
 10
40.47705609004061
 20
51.517087515
 30
0.0
 11
39.59705697004059
 21
50.637088395
 31
0.0
  0
LINE
  5
906
330
1F
100
AcDbEntity
  8
0
  6
CONTINUOUS
 62
     3
100
AcDbLine
 10
40.0213206140406
 20
50.637088395
 30
0.0
 11
40.90131973404059
 21
51.517087515
 31
0.0
  0
LINE
  5
907
330
1F
100
AcDbEntity
  8
0
  6
CONTINUOUS
 62
     3
100
AcDbLine
 10
41.32036837704059
 20
51.51187251399999
 30
0.0
 11
40.44558425904059
 21
50.637088395
 31
0.0
  0
LINE
  5
908
330
1F
100
AcDbEntity
  8
0
  6
CONTINUOUS
 62
     3
100
AcDbLine
 10
40.86984790304059
 20
50.637088395
 30
0.0
 11
41.51835807804056
 21
51.28559856999999
 31
0.0
  0
LINE
  5
909
330
1F
100
AcDbEntity
  8
0
  6
CONTINUOUS
 62
     3
100
AcDbLine
 10
42.16486285604058
 20
54.27143542100001
 30
0.0
 11
41.80162547204059
 21
53.908198037
 31
0.0
  0
LINE
  5
90A
330
1F
100
AcDbEntity
  8
0
  6
CONTINUOUS
 62
     3
100
AcDbLine
 10
41.71912976304059
 20
53.401438684
 30
0.0
 11
42.7675816420406
 21
54.449890563
 31
0.0
  0
LINE
  5
90B
330
1F
100
AcDbEntity
  8
0
  6
CONTINUOUS
 62
     3
100
AcDbLine
 10
42.69044279804059
 20
53.94848807399999
 30
0.0
 11
41.63663405504059
 21
52.894679331
 31
0.0
  0
LINE
  5
90C
330
1F
100
AcDbEntity
  8
0
  6
CONTINUOUS
 62
     3
100
AcDbLine
 10
41.55413834604059
 20
52.38791997699999
 30
0.0
 11
42.61330395304059
 21
53.447085585
 31
0.0
  0
LINE
  5
90D
330
1F
100
AcDbEntity
  8
0
  6
CONTINUOUS
 62
     3
100
AcDbLine
 10
42.53616510904058
 20
52.945683096
 30
0.0
 11
41.47164263704057
 21
51.88116062399999
 31
0.0
  0
LINE
  5
90E
330
1F
100
AcDbEntity
  8
0
  6
CONTINUOUS
 62
     3
100
AcDbLine
 10
41.51333597404059
 20
51.498590317
 30
0.0
 11
42.45902626504059
 21
52.44428060699998
 31
0.0
  0
LINE
  5
90F
330
1F
100
AcDbEntity
  8
0
  6
CONTINUOUS
 62
     3
100
AcDbLine
 10
42.38188742004059
 20
51.942878118
 30
0.0
 11
41.71031552404058
 21
51.271306222
 31
0.0
  0
LINE
  5
910
330
1F
100
AcDbEntity
  8
0
  6
CONTINUOUS
 62
     3
100
AcDbLine
 10
41.86610474604058
 20
50.86518041899999
 30
0.0
 11
41.20956002704059
 21
50.208635699
 31
0.0
  0
LINE
  5
911
330
1F
100
AcDbEntity
  8
0
  6
CONTINUOUS
 62
     3
100
AcDbLine
 10
41.12819439604058
 20
49.70300642399999
 30
0.0
 11
42.05629189704059
 21
50.631103925
 31
0.0
  0
LINE
  5
912
330
1F
100
AcDbEntity
  8
0
  6
CONTINUOUS
 62
     3
100
AcDbLine
 10
42.09643064804059
 20
50.246979031
 30
0.0
 11
41.04682876604059
 21
49.197377149
 31
0.0
  0
LINE
  5
913
330
1F
100
AcDbEntity
  8
0
  6
CONTINUOUS
 62
     3
100
AcDbLine
 10
40.9654631360406
 20
48.691747875
 30
0.0
 11
42.01656925604059
 21
49.742853995
 31
0.0
  0
LINE
  5
914
330
1F
100
AcDbEntity
  8
0
  6
CONTINUOUS
 62
     3
100
AcDbLine
 10
41.9367078640406
 20
49.238728959
 30
0.0
 11
40.88409750504058
 21
48.1861186
 31
0.0
  0
LINE
  5
915
330
1F
100
AcDbEntity
  8
0
  6
CONTINUOUS
 62
     3
100
AcDbLine
 10
41.04817539004058
 20
47.92593284
 30
0.0
 11
41.8568464720406
 21
48.734603922
 31
0.0
  0
LINE
  5
916
330
1F
100
AcDbEntity
  8
0
  6
CONTINUOUS
 62
     3
100
AcDbLine
 10
41.77698508004059
 20
48.23047888600001
 30
0.0
 11
41.2401041820406
 21
47.693597988
 31
0.0
  0
LINE
  5
917
330
1F
100
AcDbEntity
  8
0
  6
CONTINUOUS
 62
     3
100
AcDbLine
 10
45.98323024004058
 20
54.98208404999999
 30
0.0
 11
45.78306021004059
 21
54.78191402
 31
0.0
  0
LINE
  5
918
330
1F
100
AcDbEntity
  8
0
  6
CONTINUOUS
 62
     3
100
AcDbLine
 10
45.97751438004059
 20
54.552104546
 30
0.0
 11
46.40749388404059
 21
54.98208404999999
 31
0.0
  0
LINE
  5
919
330
1F
100
AcDbEntity
  8
0
  6
CONTINUOUS
 62
     3
100
AcDbLine
 10
46.83175752904057
 20
54.98208404999999
 30
0.0
 11
46.17196855004059
 21
54.322295071
 31
0.0
  0
LINE
  5
91A
330
1F
100
AcDbEntity
  8
0
  6
CONTINUOUS
 62
     3
100
AcDbLine
 10
46.37602205304058
 20
54.10208492999998
 30
0.0
 11
47.25602117304059
 21
54.98208404999999
 31
0.0
  0
LINE
  5
91B
330
1F
100
AcDbEntity
  8
0
  6
CONTINUOUS
 62
     3
100
AcDbLine
 10
47.68028481804059
 20
54.98208404999999
 30
0.0
 11
46.80028569804057
 21
54.10208492999998
 31
0.0
  0
LINE
  5
91C
330
1F
100
AcDbEntity
  8
0
  6
CONTINUOUS
 62
     3
100
AcDbLine
 10
47.22454934204059
 20
54.10208492999998
 30
0.0
 11
48.10454846204059
 21
54.98208404999999
 31
0.0
  0
LINE
  5
91D
330
1F
100
AcDbEntity
  8
0
  6
CONTINUOUS
 62
     3
100
AcDbLine
 10
48.52881210704061
 20
54.98208404999999
 30
0.0
 11
47.6488129870406
 21
54.10208492999998
 31
0.0
  0
LINE
  5
91E
330
1F
100
AcDbEntity
  8
0
  6
CONTINUOUS
 62
     3
100
AcDbLine
 10
48.07307663104058
 20
54.10208492999998
 30
0.0
 11
48.95307575104059
 21
54.98208404999999
 31
0.0
  0
LINE
  5
91F
330
1F
100
AcDbEntity
  8
0
  6
CONTINUOUS
 62
     3
100
AcDbLine
 10
49.3773393960406
 20
54.98208404999999
 30
0.0
 11
48.49734027604061
 21
54.10208492999998
 31
0.0
  0
LINE
  5
920
330
1F
100
AcDbEntity
  8
0
  6
CONTINUOUS
 62
     3
100
AcDbLine
 10
45.43390505204061
 20
54.462244764
 30
0.0
 11
45.65989158704059
 21
54.68823129899999
 31
0.0
  0
LINE
  5
921
330
1F
100
AcDbEntity
  8
0
  6
CONTINUOUS
 62
     3
100
AcDbLine
 10
45.85848308004059
 20
54.462559147
 30
0.0
 11
45.3546470090406
 21
53.95872307600001
 31
0.0
  0
LINE
  5
922
330
1F
100
AcDbEntity
  8
0
  6
CONTINUOUS
 62
     3
100
AcDbLine
 10
45.2753889650406
 20
53.455201388
 30
0.0
 11
46.05707457304059
 21
54.236886996
 31
0.0
  0
LINE
  5
923
330
1F
100
AcDbEntity
  8
0
  6
CONTINUOUS
 62
     3
100
AcDbLine
 10
46.24506691104058
 20
54.00061569
 30
0.0
 11
45.1961309220406
 21
52.9516797
 31
0.0
  0
LINE
  5
924
330
1F
100
AcDbEntity
  8
0
  6
CONTINUOUS
 62
     3
100
AcDbLine
 10
45.11687287804059
 20
52.448158012
 30
0.0
 11
46.1578894500406
 21
53.48917458399999
 31
0.0
  0
LINE
  5
925
330
1F
100
AcDbEntity
  8
0
  6
CONTINUOUS
 62
     3
100
AcDbLine
 10
46.07071198904059
 20
52.977733478
 30
0.0
 11
45.03761483504059
 21
51.94463632499999
 31
0.0
  0
LINE
  5
926
330
1F
100
AcDbEntity
  8
0
  6
CONTINUOUS
 62
     3
100
AcDbLine
 10
45.04529672804056
 20
51.528054573
 30
0.0
 11
45.98353452804057
 21
52.466292373
 31
0.0
  0
LINE
  5
927
330
1F
100
AcDbEntity
  8
0
  6
CONTINUOUS
 62
     3
100
AcDbLine
 10
45.89635706604059
 20
51.95485126699999
 30
0.0
 11
45.2422762770406
 21
51.300770478
 31
0.0
  0
LINE
  5
928
330
1F
100
AcDbEntity
  8
0
  6
CONTINUOUS
 62
     3
100
AcDbLine
 10
45.5985579100406
 20
50.861387319
 30
0.0
 11
46.25425810604059
 21
51.517087515
 31
0.0
  0
LINE
  5
929
330
1F
100
AcDbEntity
  8
0
  6
CONTINUOUS
 62
     3
100
AcDbLine
 10
46.67852175104058
 20
51.517087515
 30
0.0
 11
45.79852263104061
 21
50.637088395
 31
0.0
  0
LINE
  5
92A
330
1F
100
AcDbEntity
  8
0
  6
CONTINUOUS
 62
     3
100
AcDbLine
 10
46.22278627504059
 20
50.637088395
 30
0.0
 11
47.10278539504058
 21
51.517087515
 31
0.0
  0
LINE
  5
92B
330
1F
100
AcDbEntity
  8
0
  6
CONTINUOUS
 62
     3
100
AcDbLine
 10
47.52704904004057
 20
51.517087515
 30
0.0
 11
46.6470499200406
 21
50.637088395
 31
0.0
  0
LINE
  5
92C
330
1F
100
AcDbEntity
  8
0
  6
CONTINUOUS
 62
     3
100
AcDbLine
 10
47.07131356404057
 20
50.637088395
 30
0.0
 11
47.95131268404059
 21
51.517087515
 31
0.0
  0
LINE
  5
92D
330
1F
100
AcDbEntity
  8
0
  6
CONTINUOUS
 62
     3
100
AcDbLine
 10
48.3703613270406
 20
51.51187251399999
 30
0.0
 11
47.4955772090406
 21
50.637088395
 31
0.0
  0
LINE
  5
92E
330
1F
100
AcDbEntity
  8
0
  6
CONTINUOUS
 62
     3
100
AcDbLine
 10
47.91984085304058
 20
50.637088395
 30
0.0
 11
48.56835102804058
 21
51.28559856999999
 31
0.0
  0
LINE
  5
92F
330
1F
100
AcDbEntity
  8
0
  6
CONTINUOUS
 62
     3
100
AcDbLine
 10
49.21485580604059
 20
54.27143542100001
 30
0.0
 11
48.85161842204059
 21
53.908198037
 31
0.0
  0
LINE
  5
930
330
1F
100
AcDbEntity
  8
0
  6
CONTINUOUS
 62
     3
100
AcDbLine
 10
48.7691227130406
 20
53.401438684
 30
0.0
 11
49.81757459204061
 21
54.449890563
 31
0.0
  0
LINE
  5
931
330
1F
100
AcDbEntity
  8
0
  6
CONTINUOUS
 62
     3
100
AcDbLine
 10
49.74043574804056
 20
53.94848807399999
 30
0.0
 11
48.6866270050406
 21
52.894679331
 31
0.0
  0
LINE
  5
932
330
1F
100
AcDbEntity
  8
0
  6
CONTINUOUS
 62
     3
100
AcDbLine
 10
48.60413129604058
 20
52.38791997699999
 30
0.0
 11
49.66329690304057
 21
53.447085585
 31
0.0
  0
LINE
  5
933
330
1F
100
AcDbEntity
  8
0
  6
CONTINUOUS
 62
     3
100
AcDbLine
 10
49.5861580590406
 20
52.945683096
 30
0.0
 11
48.52163558704059
 21
51.88116062399999
 31
0.0
  0
LINE
  5
934
330
1F
100
AcDbEntity
  8
0
  6
CONTINUOUS
 62
     3
100
AcDbLine
 10
48.5633289240406
 20
51.498590317
 30
0.0
 11
49.50901921504058
 21
52.44428060699998
 31
0.0
  0
LINE
  5
935
330
1F
100
AcDbEntity
  8
0
  6
CONTINUOUS
 62
     3
100
AcDbLine
 10
49.43188037004059
 20
51.942878118
 30
0.0
 11
48.7603084740406
 21
51.271306222
 31
0.0
  0
LINE
  5
936
330
1F
100
AcDbEntity
  8
0
  6
CONTINUOUS
 62
     3
100
AcDbLine
 10
45.3776098550406
 20
50.887939016
 30
0.0
 11
44.7731102350406
 21
50.283439396
 31
0.0
  0
LINE
  5
937
330
1F
100
AcDbEntity
  8
0
  6
CONTINUOUS
 62
     3
100
AcDbLine
 10
44.68825750604059
 20
49.774323023
 30
0.0
 11
45.56779700604059
 21
50.653862523
 31
0.0
  0
LINE
  5
938
330
1F
100
AcDbEntity
  8
0
  6
CONTINUOUS
 62
     3
100
AcDbLine
 10
45.63350226104058
 20
50.29530413399999
 30
0.0
 11
44.60340477704059
 21
49.26520664899999
 31
0.0
  0
LINE
  5
939
330
1F
100
AcDbEntity
  8
0
  6
CONTINUOUS
 62
     3
100
AcDbLine
 10
44.51855204804057
 20
48.756090276
 30
0.0
 11
45.55213663104058
 21
49.789674859
 31
0.0
  0
LINE
  5
93A
330
1F
100
AcDbEntity
  8
0
  6
CONTINUOUS
 62
     3
100
AcDbLine
 10
45.47077100104059
 20
49.284045584
 30
0.0
 11
44.43369931904061
 21
48.246973903
 31
0.0
  0
LINE
  5
93B
330
1F
100
AcDbEntity
  8
0
  6
CONTINUOUS
 62
     3
100
AcDbLine
 10
44.3553653420406
 20
47.744376281
 30
0.0
 11
45.3894053700406
 21
48.77841630899999
 31
0.0
  0
LINE
  5
93C
330
1F
100
AcDbEntity
  8
0
  6
CONTINUOUS
 62
     3
100
AcDbLine
 10
45.3080397400406
 20
48.272787034
 30
0.0
 11
44.6596298200406
 21
47.624377115
 31
0.0
  0
LINE
  5
93D
330
1F
100
AcDbEntity
  8
0
  6
CONTINUOUS
 62
     3
100
AcDbLine
 10
45.6905086700406
 20
48.05209098
 30
0.0
 11
44.82933204104059
 21
47.190914351
 31
0.0
  0
LINE
  5
93E
330
1F
100
AcDbEntity
  8
0
  6
CONTINUOUS
 62
     3
100
AcDbLine
 10
45.23477319504059
 20
47.17209186
 30
0.0
 11
46.1147723150406
 21
48.05209098
 31
0.0
  0
LINE
  5
93F
330
1F
100
AcDbEntity
  8
0
  6
CONTINUOUS
 62
     3
100
AcDbLine
 10
46.53903595904059
 20
48.05209098
 30
0.0
 11
45.6590368390406
 21
47.17209186
 31
0.0
  0
LINE
  5
940
330
1F
100
AcDbEntity
  8
0
  6
CONTINUOUS
 62
     3
100
AcDbLine
 10
46.08330048304059
 20
47.17209186
 30
0.0
 11
46.96329960304058
 21
48.05209098
 31
0.0
  0
LINE
  5
941
330
1F
100
AcDbEntity
  8
0
  6
CONTINUOUS
 62
     3
100
AcDbLine
 10
47.38756324804059
 20
48.05209098
 30
0.0
 11
46.50756412804059
 21
47.17209186
 31
0.0
  0
LINE
  5
942
330
1F
100
AcDbEntity
  8
0
  6
CONTINUOUS
 62
     3
100
AcDbLine
 10
46.9318277720406
 20
47.17209186
 30
0.0
 11
47.81182689204061
 21
48.05209098
 31
0.0
  0
LINE
  5
943
330
1F
100
AcDbEntity
  8
0
  6
CONTINUOUS
 62
     3
100
AcDbLine
 10
48.0035886980406
 20
47.819589141
 30
0.0
 11
47.35609141704059
 21
47.17209186
 31
0.0
  0
LINE
  5
944
330
1F
100
AcDbEntity
  8
0
  6
CONTINUOUS
 62
     3
100
AcDbLine
 10
47.7803550610406
 20
47.17209186
 30
0.0
 11
48.1931533050406
 21
47.58489010399999
 31
0.0
  0
LINE
  5
945
330
1F
100
AcDbEntity
  8
0
  6
CONTINUOUS
 62
     3
100
AcDbLine
 10
48.38271791204061
 20
47.350191066
 30
0.0
 11
48.29857964204061
 21
47.266052797
 31
0.0
  0
LINE
  5
946
330
1F
100
AcDbEntity
  8
0
  6
CONTINUOUS
 62
     3
100
AcDbLine
 10
48.91609769604059
 20
50.86518041899999
 30
0.0
 11
48.2595529770406
 21
50.208635699
 31
0.0
  0
LINE
  5
947
330
1F
100
AcDbEntity
  8
0
  6
CONTINUOUS
 62
     3
100
AcDbLine
 10
48.1781873460406
 20
49.70300642399999
 30
0.0
 11
49.10628484704059
 21
50.631103925
 31
0.0
  0
LINE
  5
948
330
1F
100
AcDbEntity
  8
0
  6
CONTINUOUS
 62
     3
100
AcDbLine
 10
49.14642359804059
 20
50.246979031
 30
0.0
 11
48.09682171604059
 21
49.197377149
 31
0.0
  0
LINE
  5
949
330
1F
100
AcDbEntity
  8
0
  6
CONTINUOUS
 62
     3
100
AcDbLine
 10
48.01545608604058
 20
48.691747875
 30
0.0
 11
49.06656220604059
 21
49.742853995
 31
0.0
  0
LINE
  5
94A
330
1F
100
AcDbEntity
  8
0
  6
CONTINUOUS
 62
     3
100
AcDbLine
 10
48.98670081404059
 20
49.238728959
 30
0.0
 11
47.93409045504057
 21
48.1861186
 31
0.0
  0
LINE
  5
94B
330
1F
100
AcDbEntity
  8
0
  6
CONTINUOUS
 62
     3
100
AcDbLine
 10
48.0981683400406
 20
47.92593284
 30
0.0
 11
48.90683942204059
 21
48.734603922
 31
0.0
  0
LINE
  5
94C
330
1F
100
AcDbEntity
  8
0
  6
CONTINUOUS
 62
     3
100
AcDbLine
 10
48.82697803004059
 20
48.23047888600001
 30
0.0
 11
48.29009713204061
 21
47.693597988
 31
0.0
  0
LINE
  5
94D
330
1F
100
AcDbEntity
  8
0
  6
CONTINUOUS
 62
     3
100
AcDbLine
 10
42.56876809704059
 20
48.189319011
 30
0.0
 11
42.11357628504059
 21
47.734127199
 31
0.0
  0
LINE
  5
94E
330
1F
100
AcDbEntity
  8
0
  6
CONTINUOUS
 62
     3
100
AcDbLine
 10
42.24217734104059
 20
47.43846460999999
 30
0.0
 11
42.86443068604057
 21
48.060717955
 31
0.0
  0
LINE
  5
94F
330
1F
100
AcDbEntity
  8
0
  6
CONTINUOUS
 62
     3
100
AcDbLine
 10
42.99303174204061
 20
47.76505536600001
 30
0.0
 11
42.53783993004057
 21
47.30986355399999
 31
0.0
  0
LINE
  5
950
330
1F
100
AcDbEntity
  8
0
  6
CONTINUOUS
 62
     3
100
AcDbLine
 10
49.1635692350406
 20
47.734127199
 30
0.0
 11
49.6187610470406
 21
48.189319011
 31
0.0
  0
LINE
  5
951
330
1F
100
AcDbEntity
  8
0
  6
CONTINUOUS
 62
     3
100
AcDbLine
 10
49.91442363604059
 20
48.060717955
 30
0.0
 11
49.29217029104059
 21
47.43846460999999
 31
0.0
  0
LINE
  5
952
330
1F
100
AcDbEntity
  8
0
  6
CONTINUOUS
 62
     3
100
AcDbLine
 10
49.5878328800406
 20
47.30986355399999
 30
0.0
 11
50.04302469204059
 21
47.76505536600001
 31
0.0
  0
LINE
  5
953
330
1F
100
AcDbEntity
  8
0
  6
CONTINUOUS
 62
     3
100
AcDbLine
 10
52.4463980400406
 20
54.462244764
 30
0.0
 11
52.67238457404061
 21
54.68823129899999
 31
0.0
  0
LINE
  5
954
330
1F
100
AcDbEntity
  8
0
  6
CONTINUOUS
 62
     3
100
AcDbLine
 10
52.87097606704061
 20
54.462559147
 30
0.0
 11
52.36713999604059
 21
53.95872307600001
 31
0.0
  0
LINE
  5
955
330
1F
100
AcDbEntity
  8
0
  6
CONTINUOUS
 62
     3
100
AcDbLine
 10
52.28788195304058
 20
53.455201388
 30
0.0
 11
53.06956756004058
 21
54.236886996
 31
0.0
  0
LINE
  5
956
330
1F
100
AcDbEntity
  8
0
  6
CONTINUOUS
 62
     3
100
AcDbLine
 10
53.2575598990406
 20
54.00061569
 30
0.0
 11
52.20862390904059
 21
52.9516797
 31
0.0
  0
LINE
  5
957
330
1F
100
AcDbEntity
  8
0
  6
CONTINUOUS
 62
     3
100
AcDbLine
 10
52.12936586604058
 20
52.448158012
 30
0.0
 11
53.17038243704061
 21
53.48917458399999
 31
0.0
  0
LINE
  5
958
330
1F
100
AcDbEntity
  8
0
  6
CONTINUOUS
 62
     3
100
AcDbLine
 10
53.08320497604057
 20
52.977733478
 30
0.0
 11
52.05010782204061
 21
51.94463632499999
 31
0.0
  0
LINE
  5
959
330
1F
100
AcDbEntity
  8
0
  6
CONTINUOUS
 62
     3
100
AcDbLine
 10
52.05778971604059
 20
51.528054573
 30
0.0
 11
52.9960275150406
 21
52.466292373
 31
0.0
  0
LINE
  5
95A
330
1F
100
AcDbEntity
  8
0
  6
CONTINUOUS
 62
     3
100
AcDbLine
 10
52.9088500540406
 20
51.95485126699999
 30
0.0
 11
52.2547692650406
 21
51.300770478
 31
0.0
  0
LINE
  5
95B
330
1F
100
AcDbEntity
  8
0
  6
CONTINUOUS
 62
     3
100
AcDbLine
 10
52.39010284304058
 20
50.887939016
 30
0.0
 11
51.78560322204059
 21
50.283439396
 31
0.0
  0
LINE
  5
95C
330
1F
100
AcDbEntity
  8
0
  6
CONTINUOUS
 62
     3
100
AcDbLine
 10
51.7007504930406
 20
49.774323023
 30
0.0
 11
52.58028999404061
 21
50.653862523
 31
0.0
  0
LINE
  5
95D
330
1F
100
AcDbEntity
  8
0
  6
CONTINUOUS
 62
     3
100
AcDbLine
 10
52.6459952490406
 20
50.29530413399999
 30
0.0
 11
51.6158977650406
 21
49.26520664899999
 31
0.0
  0
LINE
  5
95E
330
1F
100
AcDbEntity
  8
0
  6
CONTINUOUS
 62
     3
100
AcDbLine
 10
51.53104503604059
 20
48.756090276
 30
0.0
 11
52.56462961904059
 21
49.789674859
 31
0.0
  0
LINE
  5
95F
330
1F
100
AcDbEntity
  8
0
  6
CONTINUOUS
 62
     3
100
AcDbLine
 10
52.48326398804058
 20
49.284045584
 30
0.0
 11
51.44619230704059
 21
48.246973903
 31
0.0
  0
LINE
  5
960
330
1F
100
AcDbEntity
  8
0
  6
CONTINUOUS
 62
     3
100
AcDbLine
 10
51.3678583300406
 20
47.744376281
 30
0.0
 11
52.40189835804059
 21
48.77841630899999
 31
0.0
  0
LINE
  5
961
330
1F
100
AcDbEntity
  8
0
  6
CONTINUOUS
 62
     3
100
AcDbLine
 10
52.3205327270406
 20
48.272787034
 30
0.0
 11
51.67212280804058
 21
47.624377115
 31
0.0
  0
LINE
  5
962
330
1F
100
AcDbEntity
  8
0
  6
CONTINUOUS
 62
     3
100
AcDbLine
 10
52.99572322704061
 20
54.98208404999999
 30
0.0
 11
52.79555319704059
 21
54.78191402
 31
0.0
  0
LINE
  5
963
330
1F
100
AcDbEntity
  8
0
  6
CONTINUOUS
 62
     3
100
AcDbLine
 10
52.99000736704059
 20
54.552104546
 30
0.0
 11
53.41998687204061
 21
54.98208404999999
 31
0.0
  0
LINE
  5
964
330
1F
100
AcDbEntity
  8
0
  6
CONTINUOUS
 62
     3
100
AcDbLine
 10
53.84425051604059
 20
54.98208404999999
 30
0.0
 11
53.18446153804059
 21
54.322295071
 31
0.0
  0
LINE
  5
965
330
1F
100
AcDbEntity
  8
0
  6
CONTINUOUS
 62
     3
100
AcDbLine
 10
53.38851504104059
 20
54.10208492999998
 30
0.0
 11
54.26851416104059
 21
54.98208404999999
 31
0.0
  0
LINE
  5
966
330
1F
100
AcDbEntity
  8
0
  6
CONTINUOUS
 62
     3
100
AcDbLine
 10
54.6927778050406
 20
54.98208404999999
 30
0.0
 11
53.8127786850406
 21
54.10208492999998
 31
0.0
  0
LINE
  5
967
330
1F
100
AcDbEntity
  8
0
  6
CONTINUOUS
 62
     3
100
AcDbLine
 10
54.23704233004059
 20
54.10208492999998
 30
0.0
 11
55.1170414500406
 21
54.98208404999999
 31
0.0
  0
LINE
  5
968
330
1F
100
AcDbEntity
  8
0
  6
CONTINUOUS
 62
     3
100
AcDbLine
 10
55.5413050940406
 20
54.98208404999999
 30
0.0
 11
54.6613059740406
 21
54.10208492999998
 31
0.0
  0
LINE
  5
969
330
1F
100
AcDbEntity
  8
0
  6
CONTINUOUS
 62
     3
100
AcDbLine
 10
55.08556961904059
 20
54.10208492999998
 30
0.0
 11
55.9655687390406
 21
54.98208404999999
 31
0.0
  0
LINE
  5
96A
330
1F
100
AcDbEntity
  8
0
  6
CONTINUOUS
 62
     3
100
AcDbLine
 10
56.38983238304059
 20
54.98208404999999
 30
0.0
 11
55.50983326304059
 21
54.10208492999998
 31
0.0
  0
LINE
  5
96B
330
1F
100
AcDbEntity
  8
0
  6
CONTINUOUS
 62
     3
100
AcDbLine
 10
56.22734879304058
 20
54.27143542100001
 30
0.0
 11
55.86411140904059
 21
53.908198037
 31
0.0
  0
LINE
  5
96C
330
1F
100
AcDbEntity
  8
0
  6
CONTINUOUS
 62
     3
100
AcDbLine
 10
55.78161570104059
 20
53.401438684
 30
0.0
 11
56.8300675800406
 21
54.449890563
 31
0.0
  0
LINE
  5
96D
330
1F
100
AcDbEntity
  8
0
  6
CONTINUOUS
 62
     3
100
AcDbLine
 10
56.75292873504059
 20
53.94848807399999
 30
0.0
 11
55.69911999204061
 21
52.894679331
 31
0.0
  0
LINE
  5
96E
330
1F
100
AcDbEntity
  8
0
  6
CONTINUOUS
 62
     3
100
AcDbLine
 10
55.61662428304059
 20
52.38791997699999
 30
0.0
 11
56.67578989104059
 21
53.447085585
 31
0.0
  0
LINE
  5
96F
330
1F
100
AcDbEntity
  8
0
  6
CONTINUOUS
 62
     3
100
AcDbLine
 10
56.59865104604058
 20
52.945683096
 30
0.0
 11
55.5341285750406
 21
51.88116062399999
 31
0.0
  0
LINE
  5
970
330
1F
100
AcDbEntity
  8
0
  6
CONTINUOUS
 62
     3
100
AcDbLine
 10
55.57582191204059
 20
51.498590317
 30
0.0
 11
56.52151220204061
 21
52.44428060699998
 31
0.0
  0
LINE
  5
971
330
1F
100
AcDbEntity
  8
0
  6
CONTINUOUS
 62
     3
100
AcDbLine
 10
56.4443733580406
 20
51.942878118
 30
0.0
 11
55.77280146104058
 21
51.271306222
 31
0.0
  0
LINE
  5
972
330
1F
100
AcDbEntity
  8
0
  6
CONTINUOUS
 62
     3
100
AcDbLine
 10
52.61105089804058
 20
50.861387319
 30
0.0
 11
53.26675109404059
 21
51.517087515
 31
0.0
  0
LINE
  5
973
330
1F
100
AcDbEntity
  8
0
  6
CONTINUOUS
 62
     3
100
AcDbLine
 10
53.69101473804059
 20
51.517087515
 30
0.0
 11
52.81101561804059
 21
50.637088395
 31
0.0
  0
LINE
  5
974
330
1F
100
AcDbEntity
  8
0
  6
CONTINUOUS
 62
     3
100
AcDbLine
 10
53.23527926304059
 20
50.637088395
 30
0.0
 11
54.11527838304056
 21
51.517087515
 31
0.0
  0
LINE
  5
975
330
1F
100
AcDbEntity
  8
0
  6
CONTINUOUS
 62
     3
100
AcDbLine
 10
54.53954202704061
 20
51.517087515
 30
0.0
 11
53.6595429070406
 21
50.637088395
 31
0.0
  0
LINE
  5
976
330
1F
100
AcDbEntity
  8
0
  6
CONTINUOUS
 62
     3
100
AcDbLine
 10
54.0838065520406
 20
50.637088395
 30
0.0
 11
54.96380567204059
 21
51.517087515
 31
0.0
  0
LINE
  5
977
330
1F
100
AcDbEntity
  8
0
  6
CONTINUOUS
 62
     3
100
AcDbLine
 10
55.3828543150406
 20
51.51187251399999
 30
0.0
 11
54.50807019604059
 21
50.637088395
 31
0.0
  0
LINE
  5
978
330
1F
100
AcDbEntity
  8
0
  6
CONTINUOUS
 62
     3
100
AcDbLine
 10
54.93233384104059
 20
50.637088395
 30
0.0
 11
55.5808440150406
 21
51.28559856999999
 31
0.0
  0
LINE
  5
979
330
1F
100
AcDbEntity
  8
0
  6
CONTINUOUS
 62
     3
100
AcDbLine
 10
55.92859068404059
 20
50.86518041899999
 30
0.0
 11
55.27204596404059
 21
50.208635699
 31
0.0
  0
LINE
  5
97A
330
1F
100
AcDbEntity
  8
0
  6
CONTINUOUS
 62
     3
100
AcDbLine
 10
55.19068033404059
 20
49.70300642399999
 30
0.0
 11
56.11877783504059
 21
50.631103925
 31
0.0
  0
LINE
  5
97B
330
1F
100
AcDbEntity
  8
0
  6
CONTINUOUS
 62
     3
100
AcDbLine
 10
56.1589165850406
 20
50.246979031
 30
0.0
 11
55.10931470304059
 21
49.197377149
 31
0.0
  0
LINE
  5
97C
330
1F
100
AcDbEntity
  8
0
  6
CONTINUOUS
 62
     3
100
AcDbLine
 10
55.0279490730406
 20
48.691747875
 30
0.0
 11
56.0790551940406
 21
49.742853995
 31
0.0
  0
LINE
  5
97D
330
1F
100
AcDbEntity
  8
0
  6
CONTINUOUS
 62
     3
100
AcDbLine
 10
55.9991938020406
 20
49.238728959
 30
0.0
 11
54.9465834430406
 21
48.1861186
 31
0.0
  0
LINE
  5
97E
330
1F
100
AcDbEntity
  8
0
  6
CONTINUOUS
 62
     3
100
AcDbLine
 10
55.11066132804059
 20
47.92593284
 30
0.0
 11
55.9193324100406
 21
48.734603922
 31
0.0
  0
LINE
  5
97F
330
1F
100
AcDbEntity
  8
0
  6
CONTINUOUS
 62
     3
100
AcDbLine
 10
55.83947101804059
 20
48.23047888600001
 30
0.0
 11
55.30259011904059
 21
47.693597988
 31
0.0
  0
LINE
  5
980
330
1F
100
AcDbEntity
  8
0
  6
CONTINUOUS
 62
     3
100
AcDbLine
 10
52.70300165804059
 20
48.05209098
 30
0.0
 11
51.84182502904061
 21
47.190914351
 31
0.0
  0
LINE
  5
981
330
1F
100
AcDbEntity
  8
0
  6
CONTINUOUS
 62
     3
100
AcDbLine
 10
52.24726618204059
 20
47.17209186
 30
0.0
 11
53.12726530204059
 21
48.05209098
 31
0.0
  0
LINE
  5
982
330
1F
100
AcDbEntity
  8
0
  6
CONTINUOUS
 62
     3
100
AcDbLine
 10
53.55152894604059
 20
48.05209098
 30
0.0
 11
52.6715298260406
 21
47.17209186
 31
0.0
  0
LINE
  5
983
330
1F
100
AcDbEntity
  8
0
  6
CONTINUOUS
 62
     3
100
AcDbLine
 10
53.09579347104058
 20
47.17209186
 30
0.0
 11
53.97579259104059
 21
48.05209098
 31
0.0
  0
LINE
  5
984
330
1F
100
AcDbEntity
  8
0
  6
CONTINUOUS
 62
     3
100
AcDbLine
 10
54.4000562350406
 20
48.05209098
 30
0.0
 11
53.5200571150406
 21
47.17209186
 31
0.0
  0
LINE
  5
985
330
1F
100
AcDbEntity
  8
0
  6
CONTINUOUS
 62
     3
100
AcDbLine
 10
53.9443207600406
 20
47.17209186
 30
0.0
 11
54.82431988004059
 21
48.05209098
 31
0.0
  0
LINE
  5
986
330
1F
100
AcDbEntity
  8
0
  6
CONTINUOUS
 62
     3
100
AcDbLine
 10
55.01608168504059
 20
47.819589141
 30
0.0
 11
54.36858440404059
 21
47.17209186
 31
0.0
  0
LINE
  5
987
330
1F
100
AcDbEntity
  8
0
  6
CONTINUOUS
 62
     3
100
AcDbLine
 10
54.79284804904059
 20
47.17209186
 30
0.0
 11
55.20564629204059
 21
47.58489010399999
 31
0.0
  0
LINE
  5
988
330
1F
100
AcDbEntity
  8
0
  6
CONTINUOUS
 62
     3
100
AcDbLine
 10
55.3952108990406
 20
47.350191066
 30
0.0
 11
55.31107263004059
 21
47.266052797
 31
0.0
  0
LINE
  5
989
330
1F
100
AcDbEntity
  8
0
  6
CONTINUOUS
 62
     3
100
AcDbLine
 10
56.6312540350406
 20
48.189319011
 30
0.0
 11
56.17606222304059
 21
47.734127199
 31
0.0
  0
LINE
  5
98A
330
1F
100
AcDbEntity
  8
0
  6
CONTINUOUS
 62
     3
100
AcDbLine
 10
56.30466327804059
 20
47.43846460999999
 30
0.0
 11
56.92691662404057
 21
48.060717955
 31
0.0
  0
LINE
  5
98B
330
1F
100
AcDbEntity
  8
0
  6
CONTINUOUS
 62
     3
100
AcDbLine
 10
57.05551767904061
 20
47.76505536600001
 30
0.0
 11
56.60032586704059
 21
47.30986355399999
 31
0.0
  0
LINE
  5
98C
330
1F
100
AcDbEntity
  8
0
  6
CONTINUOUS
 62
     3
100
AcDbLine
 10
59.68487756204059
 20
54.68823129899999
 30
0.0
 11
59.45889102704061
 21
54.462244764
 31
0.0
  0
LINE
  5
98D
330
1F
100
AcDbEntity
  8
0
  6
CONTINUOUS
 62
     3
100
AcDbLine
 10
59.3796329840406
 20
53.95872307600001
 30
0.0
 11
59.8834690550406
 21
54.462559147
 31
0.0
  0
LINE
  5
98E
330
1F
100
AcDbEntity
  8
0
  6
CONTINUOUS
 62
     3
100
AcDbLine
 10
60.08206054804059
 20
54.236886996
 30
0.0
 11
59.3003749400406
 21
53.455201388
 31
0.0
  0
LINE
  5
98F
330
1F
100
AcDbEntity
  8
0
  6
CONTINUOUS
 62
     3
100
AcDbLine
 10
59.2211168970406
 20
52.9516797
 30
0.0
 11
60.27005288604059
 21
54.00061569
 31
0.0
  0
LINE
  5
990
330
1F
100
AcDbEntity
  8
0
  6
CONTINUOUS
 62
     3
100
AcDbLine
 10
60.1828754250406
 20
53.48917458399999
 30
0.0
 11
59.1418588530406
 21
52.448158012
 31
0.0
  0
LINE
  5
991
330
1F
100
AcDbEntity
  8
0
  6
CONTINUOUS
 62
     3
100
AcDbLine
 10
59.06260081004059
 20
51.94463632499999
 30
0.0
 11
60.09569796404059
 21
52.977733478
 31
0.0
  0
LINE
  5
992
330
1F
100
AcDbEntity
  8
0
  6
CONTINUOUS
 62
     3
100
AcDbLine
 10
60.00852050304059
 20
52.466292373
 30
0.0
 11
59.07028270304058
 21
51.528054573
 31
0.0
  0
LINE
  5
993
330
1F
100
AcDbEntity
  8
0
  6
CONTINUOUS
 62
     3
100
AcDbLine
 10
59.2672622520406
 20
51.300770478
 30
0.0
 11
59.92134304104059
 21
51.95485126699999
 31
0.0
  0
LINE
  5
994
330
1F
100
AcDbEntity
  8
0
  6
CONTINUOUS
 62
     3
100
AcDbLine
 10
59.80804618504059
 20
54.78191402
 30
0.0
 11
60.00821621504059
 21
54.98208404999999
 31
0.0
  0
LINE
  5
995
330
1F
100
AcDbEntity
  8
0
  6
CONTINUOUS
 62
     3
100
AcDbLine
 10
60.4324798590406
 20
54.98208404999999
 30
0.0
 11
60.00250035504059
 21
54.552104546
 31
0.0
  0
LINE
  5
996
330
1F
100
AcDbEntity
  8
0
  6
CONTINUOUS
 62
     3
100
AcDbLine
 10
60.19695452504059
 20
54.322295071
 30
0.0
 11
60.85674350404057
 21
54.98208404999999
 31
0.0
  0
LINE
  5
997
330
1F
100
AcDbEntity
  8
0
  6
CONTINUOUS
 62
     3
100
AcDbLine
 10
61.28100714804059
 20
54.98208404999999
 30
0.0
 11
60.40100802804058
 21
54.10208492999998
 31
0.0
  0
LINE
  5
998
330
1F
100
AcDbEntity
  8
0
  6
CONTINUOUS
 62
     3
100
AcDbLine
 10
60.82527167304057
 20
54.10208492999998
 30
0.0
 11
61.70527079304058
 21
54.98208404999999
 31
0.0
  0
LINE
  5
999
330
1F
100
AcDbEntity
  8
0
  6
CONTINUOUS
 62
     3
100
AcDbLine
 10
62.12953443704059
 20
54.98208404999999
 30
0.0
 11
61.24953531704059
 21
54.10208492999998
 31
0.0
  0
LINE
  5
99A
330
1F
100
AcDbEntity
  8
0
  6
CONTINUOUS
 62
     3
100
AcDbLine
 10
61.6737989620406
 20
54.10208492999998
 30
0.0
 11
62.55379808204061
 21
54.98208404999999
 31
0.0
  0
LINE
  5
99B
330
1F
100
AcDbEntity
  8
0
  6
CONTINUOUS
 62
     3
100
AcDbLine
 10
62.97806172604058
 20
54.98208404999999
 30
0.0
 11
62.09806260604058
 21
54.10208492999998
 31
0.0
  0
LINE
  5
99C
330
1F
100
AcDbEntity
  8
0
  6
CONTINUOUS
 62
     3
100
AcDbLine
 10
62.5223262510406
 20
54.10208492999998
 30
0.0
 11
63.40232537104059
 21
54.98208404999999
 31
0.0
  0
LINE
  5
99D
330
1F
100
AcDbEntity
  8
0
  6
CONTINUOUS
 62
     3
100
AcDbLine
 10
60.27924408104059
 20
51.517087515
 30
0.0
 11
59.6235438850406
 21
50.861387319
 31
0.0
  0
LINE
  5
99E
330
1F
100
AcDbEntity
  8
0
  6
CONTINUOUS
 62
     3
100
AcDbLine
 10
59.82350860604061
 20
50.637088395
 30
0.0
 11
60.70350772604058
 21
51.517087515
 31
0.0
  0
LINE
  5
99F
330
1F
100
AcDbEntity
  8
0
  6
CONTINUOUS
 62
     3
100
AcDbLine
 10
61.1277713700406
 20
51.517087515
 30
0.0
 11
60.2477722500406
 21
50.637088395
 31
0.0
  0
LINE
  5
9A0
330
1F
100
AcDbEntity
  8
0
  6
CONTINUOUS
 62
     3
100
AcDbLine
 10
60.6720358950406
 20
50.637088395
 30
0.0
 11
61.55203501504058
 21
51.517087515
 31
0.0
  0
LINE
  5
9A1
330
1F
100
AcDbEntity
  8
0
  6
CONTINUOUS
 62
     3
100
AcDbLine
 10
61.97629865904059
 20
51.517087515
 30
0.0
 11
61.09629953904059
 21
50.637088395
 31
0.0
  0
LINE
  5
9A2
330
1F
100
AcDbEntity
  8
0
  6
CONTINUOUS
 62
     3
100
AcDbLine
 10
61.5205631840406
 20
50.637088395
 30
0.0
 11
62.39534730204059
 21
51.51187251399999
 31
0.0
  0
LINE
  5
9A3
330
1F
100
AcDbEntity
  8
0
  6
CONTINUOUS
 62
     3
100
AcDbLine
 10
62.59333700304059
 20
51.28559856999999
 30
0.0
 11
61.94482682804057
 21
50.637088395
 31
0.0
  0
LINE
  5
9A4
330
1F
100
AcDbEntity
  8
0
  6
CONTINUOUS
 62
     3
100
AcDbLine
 10
62.28453895204061
 20
50.208635699
 30
0.0
 11
62.94108367104058
 21
50.86518041899999
 31
0.0
  0
LINE
  5
9A5
330
1F
100
AcDbEntity
  8
0
  6
CONTINUOUS
 62
     3
100
AcDbLine
 10
63.13127082204061
 20
50.631103925
 30
0.0
 11
62.20317332104059
 21
49.70300642399999
 31
0.0
  0
LINE
  5
9A6
330
1F
100
AcDbEntity
  8
0
  6
CONTINUOUS
 62
     3
100
AcDbLine
 10
62.12180769104058
 20
49.197377149
 30
0.0
 11
63.17140957304058
 21
50.246979031
 31
0.0
  0
LINE
  5
9A7
330
1F
100
AcDbEntity
  8
0
  6
CONTINUOUS
 62
     3
100
AcDbLine
 10
63.09154818104058
 20
49.742853995
 30
0.0
 11
62.04044206104059
 21
48.691747875
 31
0.0
  0
LINE
  5
9A8
330
1F
100
AcDbEntity
  8
0
  6
CONTINUOUS
 62
     3
100
AcDbLine
 10
61.95907643004058
 20
48.1861186
 30
0.0
 11
63.01168678904059
 21
49.238728959
 31
0.0
  0
LINE
  5
9A9
330
1F
100
AcDbEntity
  8
0
  6
CONTINUOUS
 62
     3
100
AcDbLine
 10
62.93182539704059
 20
48.734603922
 30
0.0
 11
62.1231543150406
 21
47.92593284
 31
0.0
  0
LINE
  5
9AA
330
1F
100
AcDbEntity
  8
0
  6
CONTINUOUS
 62
     3
100
AcDbLine
 10
62.31508310704061
 20
47.693597988
 30
0.0
 11
62.8519640050406
 21
48.23047888600001
 31
0.0
  0
LINE
  5
9AB
330
1F
100
AcDbEntity
  8
0
  6
CONTINUOUS
 62
     3
100
AcDbLine
 10
58.8543180160406
 20
47.190914351
 30
0.0
 11
59.7154946450406
 21
48.05209098
 31
0.0
  0
LINE
  5
9AC
330
1F
100
AcDbEntity
  8
0
  6
CONTINUOUS
 62
     3
100
AcDbLine
 10
60.1397582900406
 20
48.05209098
 30
0.0
 11
59.25975917004059
 21
47.17209186
 31
0.0
  0
LINE
  5
9AD
330
1F
100
AcDbEntity
  8
0
  6
CONTINUOUS
 62
     3
100
AcDbLine
 10
59.6840228140406
 20
47.17209186
 30
0.0
 11
60.56402193404061
 21
48.05209098
 31
0.0
  0
LINE
  5
9AE
330
1F
100
AcDbEntity
  8
0
  6
CONTINUOUS
 62
     3
100
AcDbLine
 10
60.98828557804058
 20
48.05209098
 30
0.0
 11
60.1082864580406
 21
47.17209186
 31
0.0
  0
LINE
  5
9AF
330
1F
100
AcDbEntity
  8
0
  6
CONTINUOUS
 62
     3
100
AcDbLine
 10
60.53255010304059
 20
47.17209186
 30
0.0
 11
61.41254922304059
 21
48.05209098
 31
0.0
  0
LINE
  5
9B0
330
1F
100
AcDbEntity
  8
0
  6
CONTINUOUS
 62
     3
100
AcDbLine
 10
61.83681286704061
 20
48.05209098
 30
0.0
 11
60.9568137470406
 21
47.17209186
 31
0.0
  0
LINE
  5
9B1
330
1F
100
AcDbEntity
  8
0
  6
CONTINUOUS
 62
     3
100
AcDbLine
 10
61.38107739204059
 20
47.17209186
 30
0.0
 11
62.0285746730406
 21
47.819589141
 31
0.0
  0
LINE
  5
9B2
330
1F
100
AcDbEntity
  8
0
  6
CONTINUOUS
 62
     3
100
AcDbLine
 10
62.2181392800406
 20
47.58489010399999
 30
0.0
 11
61.8053410360406
 21
47.17209186
 31
0.0
  0
LINE
  5
9B3
330
1F
100
AcDbEntity
  8
0
  6
CONTINUOUS
 62
     3
100
AcDbLine
 10
62.32356561704061
 20
47.266052797
 30
0.0
 11
62.4077038870406
 21
47.350191066
 31
0.0
  0
LINE
  5
9B4
330
1F
100
AcDbEntity
  8
0
  6
CONTINUOUS
 62
     3
100
AcDbLine
 10
58.7980962100406
 20
50.283439396
 30
0.0
 11
59.4025958300406
 21
50.887939016
 31
0.0
  0
LINE
  5
9B5
330
1F
100
AcDbEntity
  8
0
  6
CONTINUOUS
 62
     3
100
AcDbLine
 10
59.59278298104059
 20
50.653862523
 30
0.0
 11
58.71324348104059
 21
49.774323023
 31
0.0
  0
LINE
  5
9B6
330
1F
100
AcDbEntity
  8
0
  6
CONTINUOUS
 62
     3
100
AcDbLine
 10
58.6283907520406
 20
49.26520664899999
 30
0.0
 11
59.65848823604058
 21
50.29530413399999
 31
0.0
  0
LINE
  5
9B7
330
1F
100
AcDbEntity
  8
0
  6
CONTINUOUS
 62
     3
100
AcDbLine
 10
59.5771226060406
 20
49.789674859
 30
0.0
 11
58.54353802304057
 21
48.756090276
 31
0.0
  0
LINE
  5
9B8
330
1F
100
AcDbEntity
  8
0
  6
CONTINUOUS
 62
     3
100
AcDbLine
 10
58.45868529404061
 20
48.246973903
 30
0.0
 11
59.49575697604061
 21
49.284045584
 31
0.0
  0
LINE
  5
9B9
330
1F
100
AcDbEntity
  8
0
  6
CONTINUOUS
 62
     3
100
AcDbLine
 10
59.4143913450406
 20
48.77841630899999
 30
0.0
 11
58.3803513170406
 21
47.744376281
 31
0.0
  0
LINE
  5
9BA
330
1F
100
AcDbEntity
  8
0
  6
CONTINUOUS
 62
     3
100
AcDbLine
 10
58.6846157950406
 20
47.624377115
 30
0.0
 11
59.3330257150406
 21
48.272787034
 31
0.0
  0
LINE
  5
9BB
330
1F
100
AcDbEntity
  8
0
  6
CONTINUOUS
 62
     3
100
AcDbLine
 10
62.87660439704059
 20
53.908198037
 30
0.0
 11
63.23984178104058
 21
54.27143542100001
 31
0.0
  0
LINE
  5
9BC
330
1F
100
AcDbEntity
  8
0
  6
CONTINUOUS
 62
     3
100
AcDbLine
 10
63.84256056704059
 20
54.449890563
 30
0.0
 11
62.7941086880406
 21
53.401438684
 31
0.0
  0
LINE
  5
9BD
330
1F
100
AcDbEntity
  8
0
  6
CONTINUOUS
 62
     3
100
AcDbLine
 10
62.71161298004059
 20
52.894679331
 30
0.0
 11
63.76542172304059
 21
53.94848807399999
 31
0.0
  0
LINE
  5
9BE
330
1F
100
AcDbEntity
  8
0
  6
CONTINUOUS
 62
     3
100
AcDbLine
 10
63.6882828780406
 20
53.447085585
 30
0.0
 11
62.62911727104058
 21
52.38791997699999
 31
0.0
  0
LINE
  5
9BF
330
1F
100
AcDbEntity
  8
0
  6
CONTINUOUS
 62
     3
100
AcDbLine
 10
62.5466215620406
 20
51.88116062399999
 30
0.0
 11
63.61114403404059
 21
52.945683096
 31
0.0
  0
LINE
  5
9C0
330
1F
100
AcDbEntity
  8
0
  6
CONTINUOUS
 62
     3
100
AcDbLine
 10
63.53400519004058
 20
52.44428060699998
 30
0.0
 11
62.58831489904061
 21
51.498590317
 31
0.0
  0
LINE
  5
9C1
330
1F
100
AcDbEntity
  8
0
  6
CONTINUOUS
 62
     3
100
AcDbLine
 10
62.7852944490406
 20
51.271306222
 30
0.0
 11
63.45686634504059
 21
51.942878118
 31
0.0
  0
TEXT
  5
9C2
330
1F
100
AcDbEntity
  8
0
  6
CONTINUOUS
 62
     3
100
AcDbText
 10
32.91821212604059
 20
52.1320869
 30
0.0
 40
2.999997
  1
ＤＣ
  7
KANJI0
100
AcDbText
  0
TEXT
  5
9C3
330
1F
100
AcDbEntity
  8
0
  6
CONTINUOUS
 62
     3
100
AcDbText
 10
32.91821212604059
 20
47.23209179999999
 30
0.0
 40
2.999997
  1
ＡＣ
  7
KANJI0
100
AcDbText
  0
LINE
  5
9C4
330
1F
100
AcDbEntity
  8
0
  6
CONTINUOUS
 62
     4
100
AcDbLine
 10
22.1700562
 20
56.8320822
 30
0.0
 11
19.1700592
 21
56.8320822
 31
0.0
  0
LINE
  5
9C5
330
1F
100
AcDbEntity
  8
0
  6
CONTINUOUS
 62
     4
100
AcDbLine
 10
19.1700592
 20
45.23209379999999
 30
0.0
 11
22.1700562
 21
45.23209379999999
 31
0.0
  0
LINE
  5
9C6
330
1F
100
AcDbEntity
  8
0
  6
CONTINUOUS
 62
     4
100
AcDbLine
 10
19.67005869999998
 20
45.23209379999999
 30
0.0
 11
19.67005869999998
 21
56.8320822
 31
0.0
  0
LINE
  5
9C7
330
1F
100
AcDbEntity
  8
0
  6
CONTINUOUS
 62
     4
100
AcDbLine
 10
42.8700355
 20
35.7321033
 30
0.0
 11
42.8700355
 21
31.7321073
 31
0.0
  0
LINE
  5
9C8
330
1F
100
AcDbEntity
  8
0
  6
CONTINUOUS
 62
     4
100
AcDbLine
 10
42.8700355
 20
32.23210679999999
 30
0.0
 11
67.77001059999999
 21
32.23210679999999
 31
0.0
  0
LINE
  5
9C9
330
1F
100
AcDbEntity
  8
0
  6
CONTINUOUS
 62
     4
100
AcDbLine
 10
67.77001059999999
 20
31.7321073
 30
0.0
 11
67.77001059999999
 21
35.7321033
 31
0.0
  0
LINE
  5
9CA
330
1F
100
AcDbEntity
  8
0
  6
CONTINUOUS
 62
     3
100
AcDbLine
 10
87.67114798799999
 20
98.16091246399999
 30
0.0
 11
22.671212988
 21
98.16091246399999
 31
0.0
  0
LINE
  5
9CB
330
1F
100
AcDbEntity
  8
0
  6
CONTINUOUS
 62
     3
100
AcDbLine
 10
22.671212988
 20
98.16091246399999
 30
0.0
 11
22.671212988
 21
96.56091406400002
 31
0.0
  0
LINE
  5
9CC
330
1F
100
AcDbEntity
  8
0
  6
CONTINUOUS
 62
     3
100
AcDbLine
 10
87.67114798799999
 20
96.56091406400002
 30
0.0
 11
87.67114798799999
 21
98.16091246399999
 31
0.0
  0
LINE
  5
9CD
330
1F
100
AcDbEntity
  8
0
  6
CONTINUOUS
 62
     3
100
AcDbLine
 10
30.261205398
 20
91.060919564
 30
0.0
 11
31.761203898
 21
91.060919564
 31
0.0
  0
LINE
  5
9CE
330
1F
100
AcDbEntity
  8
0
  6
CONTINUOUS
 62
     3
100
AcDbLine
 10
31.761203898
 20
91.060919564
 30
0.0
 11
31.761203898
 21
92.56091806399996
 31
0.0
  0
LINE
  5
9CF
330
1F
100
AcDbEntity
  8
0
  6
CONTINUOUS
 62
     3
100
AcDbLine
 10
30.261205398
 20
92.56091806399996
 30
0.0
 11
30.261205398
 21
91.060919564
 31
0.0
  0
LINE
  5
9D0
330
1F
100
AcDbEntity
  8
0
  6
CONTINUOUS
 62
     3
100
AcDbLine
 10
31.311204348
 20
92.56091806399996
 30
0.0
 11
31.311204348
 21
96.56091406400002
 31
0.0
  0
LINE
  5
9D1
330
1F
100
AcDbEntity
  8
0
  6
CONTINUOUS
 62
     3
100
AcDbLine
 10
30.711204948
 20
96.56091406400002
 30
0.0
 11
30.711204948
 21
92.56091806399996
 31
0.0
  0
LINE
  5
9D2
330
1F
100
AcDbEntity
  8
0
  6
CONTINUOUS
 62
     3
100
AcDbLine
 10
30.711204948
 20
92.56091806399996
 30
0.0
 11
30.261205398
 21
92.56091806399996
 31
0.0
  0
LINE
  5
9D3
330
1F
100
AcDbEntity
  8
0
  6
CONTINUOUS
 62
     3
100
AcDbLine
 10
31.761203898
 20
92.56091806399996
 30
0.0
 11
31.311204348
 21
92.56091806399996
 31
0.0
  0
LINE
  5
9D4
330
1F
100
AcDbEntity
  8
0
  6
CONTINUOUS
 62
     3
100
AcDbLine
 10
31.761203898
 20
92.36091826399999
 30
0.0
 11
32.801202858
 21
92.36091826399999
 31
0.0
  0
LINE
  5
9D5
330
1F
100
AcDbEntity
  8
0
  6
CONTINUOUS
 62
     3
100
AcDbLine
 10
22.671212988
 20
96.56091406400002
 30
0.0
 11
87.67114798799999
 21
96.56091406400002
 31
0.0
  0
LINE
  5
9D6
330
1F
100
AcDbEntity
  8
0
  6
CONTINUOUS
 62
     3
100
AcDbLine
 10
32.801202858
 20
91.060919564
 30
0.0
 11
34.301201358
 21
91.060919564
 31
0.0
  0
LINE
  5
9D7
330
1F
100
AcDbEntity
  8
0
  6
CONTINUOUS
 62
     3
100
AcDbLine
 10
34.301201358
 20
91.060919564
 30
0.0
 11
34.301201358
 21
92.56091806399996
 31
0.0
  0
LINE
  5
9D8
330
1F
100
AcDbEntity
  8
0
  6
CONTINUOUS
 62
     3
100
AcDbLine
 10
32.801202858
 20
92.56091806399996
 30
0.0
 11
32.801202858
 21
91.060919564
 31
0.0
  0
LINE
  5
9D9
330
1F
100
AcDbEntity
  8
0
  6
CONTINUOUS
 62
     3
100
AcDbLine
 10
33.85120180799997
 20
92.56091806399996
 30
0.0
 11
33.85120180799997
 21
96.56091406400002
 31
0.0
  0
LINE
  5
9DA
330
1F
100
AcDbEntity
  8
0
  6
CONTINUOUS
 62
     3
100
AcDbLine
 10
33.251202408
 20
96.56091406400002
 30
0.0
 11
33.251202408
 21
92.56091806399996
 31
0.0
  0
LINE
  5
9DB
330
1F
100
AcDbEntity
  8
0
  6
CONTINUOUS
 62
     3
100
AcDbLine
 10
33.251202408
 20
92.56091806399996
 30
0.0
 11
32.801202858
 21
92.56091806399996
 31
0.0
  0
LINE
  5
9DC
330
1F
100
AcDbEntity
  8
0
  6
CONTINUOUS
 62
     3
100
AcDbLine
 10
34.301201358
 20
92.56091806399996
 30
0.0
 11
33.85120180799997
 21
92.56091806399996
 31
0.0
  0
LINE
  5
9DD
330
1F
100
AcDbEntity
  8
0
  6
CONTINUOUS
 62
     3
100
AcDbLine
 10
34.301201358
 20
92.36091826399999
 30
0.0
 11
35.341200318
 21
92.36091826399999
 31
0.0
  0
LINE
  5
9DE
330
1F
100
AcDbEntity
  8
0
  6
CONTINUOUS
 62
     3
100
AcDbLine
 10
35.341200318
 20
91.060919564
 30
0.0
 11
36.841198818
 21
91.060919564
 31
0.0
  0
LINE
  5
9DF
330
1F
100
AcDbEntity
  8
0
  6
CONTINUOUS
 62
     3
100
AcDbLine
 10
36.841198818
 20
91.060919564
 30
0.0
 11
36.841198818
 21
92.56091806399996
 31
0.0
  0
LINE
  5
9E0
330
1F
100
AcDbEntity
  8
0
  6
CONTINUOUS
 62
     3
100
AcDbLine
 10
35.341200318
 20
92.56091806399996
 30
0.0
 11
35.341200318
 21
91.060919564
 31
0.0
  0
LINE
  5
9E1
330
1F
100
AcDbEntity
  8
0
  6
CONTINUOUS
 62
     3
100
AcDbLine
 10
36.391199268
 20
92.56091806399996
 30
0.0
 11
36.391199268
 21
96.56091406400002
 31
0.0
  0
LINE
  5
9E2
330
1F
100
AcDbEntity
  8
0
  6
CONTINUOUS
 62
     3
100
AcDbLine
 10
35.791199868
 20
96.56091406400002
 30
0.0
 11
35.791199868
 21
92.56091806399996
 31
0.0
  0
LINE
  5
9E3
330
1F
100
AcDbEntity
  8
0
  6
CONTINUOUS
 62
     3
100
AcDbLine
 10
35.791199868
 20
92.56091806399996
 30
0.0
 11
35.341200318
 21
92.56091806399996
 31
0.0
  0
LINE
  5
9E4
330
1F
100
AcDbEntity
  8
0
  6
CONTINUOUS
 62
     3
100
AcDbLine
 10
36.841198818
 20
92.56091806399996
 30
0.0
 11
36.391199268
 21
92.56091806399996
 31
0.0
  0
LINE
  5
9E5
330
1F
100
AcDbEntity
  8
0
  6
CONTINUOUS
 62
     3
100
AcDbLine
 10
36.841198818
 20
92.36091826399999
 30
0.0
 11
37.881197778
 21
92.36091826399999
 31
0.0
  0
LINE
  5
9E6
330
1F
100
AcDbEntity
  8
0
  6
CONTINUOUS
 62
     3
100
AcDbLine
 10
37.881197778
 20
91.060919564
 30
0.0
 11
39.381196278
 21
91.060919564
 31
0.0
  0
LINE
  5
9E7
330
1F
100
AcDbEntity
  8
0
  6
CONTINUOUS
 62
     3
100
AcDbLine
 10
39.381196278
 20
91.060919564
 30
0.0
 11
39.381196278
 21
92.56091806399996
 31
0.0
  0
LINE
  5
9E8
330
1F
100
AcDbEntity
  8
0
  6
CONTINUOUS
 62
     3
100
AcDbLine
 10
37.881197778
 20
92.56091806399996
 30
0.0
 11
37.881197778
 21
91.060919564
 31
0.0
  0
LINE
  5
9E9
330
1F
100
AcDbEntity
  8
0
  6
CONTINUOUS
 62
     3
100
AcDbLine
 10
38.931196728
 20
92.56091806399996
 30
0.0
 11
38.931196728
 21
96.56091406400002
 31
0.0
  0
LINE
  5
9EA
330
1F
100
AcDbEntity
  8
0
  6
CONTINUOUS
 62
     3
100
AcDbLine
 10
38.331197328
 20
96.56091406400002
 30
0.0
 11
38.331197328
 21
92.56091806399996
 31
0.0
  0
LINE
  5
9EB
330
1F
100
AcDbEntity
  8
0
  6
CONTINUOUS
 62
     3
100
AcDbLine
 10
38.331197328
 20
92.56091806399996
 30
0.0
 11
37.881197778
 21
92.56091806399996
 31
0.0
  0
LINE
  5
9EC
330
1F
100
AcDbEntity
  8
0
  6
CONTINUOUS
 62
     3
100
AcDbLine
 10
39.381196278
 20
92.56091806399996
 30
0.0
 11
38.931196728
 21
92.56091806399996
 31
0.0
  0
LINE
  5
9ED
330
1F
100
AcDbEntity
  8
0
  6
CONTINUOUS
 62
     3
100
AcDbLine
 10
39.381196278
 20
92.36091826399999
 30
0.0
 11
40.421195238
 21
92.36091826399999
 31
0.0
  0
LINE
  5
9EE
330
1F
100
AcDbEntity
  8
0
  6
CONTINUOUS
 62
     3
100
AcDbLine
 10
40.421195238
 20
91.060919564
 30
0.0
 11
41.92119373799999
 21
91.060919564
 31
0.0
  0
LINE
  5
9EF
330
1F
100
AcDbEntity
  8
0
  6
CONTINUOUS
 62
     3
100
AcDbLine
 10
41.92119373799999
 20
91.060919564
 30
0.0
 11
41.92119373799999
 21
92.56091806399996
 31
0.0
  0
LINE
  5
9F0
330
1F
100
AcDbEntity
  8
0
  6
CONTINUOUS
 62
     3
100
AcDbLine
 10
40.421195238
 20
92.56091806399996
 30
0.0
 11
40.421195238
 21
91.060919564
 31
0.0
  0
LINE
  5
9F1
330
1F
100
AcDbEntity
  8
0
  6
CONTINUOUS
 62
     3
100
AcDbLine
 10
41.471194188
 20
92.56091806399996
 30
0.0
 11
41.471194188
 21
96.56091406400002
 31
0.0
  0
LINE
  5
9F2
330
1F
100
AcDbEntity
  8
0
  6
CONTINUOUS
 62
     3
100
AcDbLine
 10
40.871194788
 20
96.56091406400002
 30
0.0
 11
40.871194788
 21
92.56091806399996
 31
0.0
  0
LINE
  5
9F3
330
1F
100
AcDbEntity
  8
0
  6
CONTINUOUS
 62
     3
100
AcDbLine
 10
40.871194788
 20
92.56091806399996
 30
0.0
 11
40.421195238
 21
92.56091806399996
 31
0.0
  0
LINE
  5
9F4
330
1F
100
AcDbEntity
  8
0
  6
CONTINUOUS
 62
     3
100
AcDbLine
 10
41.92119373799999
 20
92.56091806399996
 30
0.0
 11
41.471194188
 21
92.56091806399996
 31
0.0
  0
LINE
  5
9F5
330
1F
100
AcDbEntity
  8
0
  6
CONTINUOUS
 62
     3
100
AcDbLine
 10
41.92119373799999
 20
92.36091826399999
 30
0.0
 11
42.96119269800001
 21
92.36091826399999
 31
0.0
  0
LINE
  5
9F6
330
1F
100
AcDbEntity
  8
0
  6
CONTINUOUS
 62
     3
100
AcDbLine
 10
42.96119269800001
 20
91.060919564
 30
0.0
 11
44.461191198
 21
91.060919564
 31
0.0
  0
LINE
  5
9F7
330
1F
100
AcDbEntity
  8
0
  6
CONTINUOUS
 62
     3
100
AcDbLine
 10
44.461191198
 20
91.060919564
 30
0.0
 11
44.461191198
 21
92.56091806399996
 31
0.0
  0
LINE
  5
9F8
330
1F
100
AcDbEntity
  8
0
  6
CONTINUOUS
 62
     3
100
AcDbLine
 10
42.96119269800001
 20
92.56091806399996
 30
0.0
 11
42.96119269800001
 21
91.060919564
 31
0.0
  0
LINE
  5
9F9
330
1F
100
AcDbEntity
  8
0
  6
CONTINUOUS
 62
     3
100
AcDbLine
 10
44.01119164799999
 20
92.56091806399996
 30
0.0
 11
44.01119164799999
 21
96.56091406400002
 31
0.0
  0
LINE
  5
9FA
330
1F
100
AcDbEntity
  8
0
  6
CONTINUOUS
 62
     3
100
AcDbLine
 10
43.41119224799999
 20
96.56091406400002
 30
0.0
 11
43.41119224799999
 21
92.56091806399996
 31
0.0
  0
LINE
  5
9FB
330
1F
100
AcDbEntity
  8
0
  6
CONTINUOUS
 62
     3
100
AcDbLine
 10
43.41119224799999
 20
92.56091806399996
 30
0.0
 11
42.96119269800001
 21
92.56091806399996
 31
0.0
  0
LINE
  5
9FC
330
1F
100
AcDbEntity
  8
0
  6
CONTINUOUS
 62
     3
100
AcDbLine
 10
44.461191198
 20
92.56091806399996
 30
0.0
 11
44.01119164799999
 21
92.56091806399996
 31
0.0
  0
LINE
  5
9FD
330
1F
100
AcDbEntity
  8
0
  6
CONTINUOUS
 62
     3
100
AcDbLine
 10
44.461191198
 20
92.36091826399999
 30
0.0
 11
45.50119015799999
 21
92.36091826399999
 31
0.0
  0
LINE
  5
9FE
330
1F
100
AcDbEntity
  8
0
  6
CONTINUOUS
 62
     3
100
AcDbLine
 10
45.50119015799999
 20
91.060919564
 30
0.0
 11
47.001188658
 21
91.060919564
 31
0.0
  0
LINE
  5
9FF
330
1F
100
AcDbEntity
  8
0
  6
CONTINUOUS
 62
     3
100
AcDbLine
 10
47.001188658
 20
91.060919564
 30
0.0
 11
47.001188658
 21
92.56091806399996
 31
0.0
  0
LINE
  5
A00
330
1F
100
AcDbEntity
  8
0
  6
CONTINUOUS
 62
     3
100
AcDbLine
 10
45.50119015799999
 20
92.56091806399996
 30
0.0
 11
45.50119015799999
 21
91.060919564
 31
0.0
  0
LINE
  5
A01
330
1F
100
AcDbEntity
  8
0
  6
CONTINUOUS
 62
     3
100
AcDbLine
 10
46.551189108
 20
92.56091806399996
 30
0.0
 11
46.551189108
 21
96.56091406400002
 31
0.0
  0
LINE
  5
A02
330
1F
100
AcDbEntity
  8
0
  6
CONTINUOUS
 62
     3
100
AcDbLine
 10
45.951189708
 20
96.56091406400002
 30
0.0
 11
45.951189708
 21
92.56091806399996
 31
0.0
  0
LINE
  5
A03
330
1F
100
AcDbEntity
  8
0
  6
CONTINUOUS
 62
     3
100
AcDbLine
 10
45.951189708
 20
92.56091806399996
 30
0.0
 11
45.50119015799999
 21
92.56091806399996
 31
0.0
  0
LINE
  5
A04
330
1F
100
AcDbEntity
  8
0
  6
CONTINUOUS
 62
     3
100
AcDbLine
 10
47.001188658
 20
92.56091806399996
 30
0.0
 11
46.551189108
 21
92.56091806399996
 31
0.0
  0
LINE
  5
A05
330
1F
100
AcDbEntity
  8
0
  6
CONTINUOUS
 62
     3
100
AcDbLine
 10
47.001188658
 20
92.36091826399999
 30
0.0
 11
48.041187618
 21
92.36091826399999
 31
0.0
  0
LINE
  5
A06
330
1F
100
AcDbEntity
  8
0
  6
CONTINUOUS
 62
     3
100
AcDbLine
 10
48.041187618
 20
91.060919564
 30
0.0
 11
49.541186118
 21
91.060919564
 31
0.0
  0
LINE
  5
A07
330
1F
100
AcDbEntity
  8
0
  6
CONTINUOUS
 62
     3
100
AcDbLine
 10
49.541186118
 20
91.060919564
 30
0.0
 11
49.541186118
 21
92.56091806399996
 31
0.0
  0
LINE
  5
A08
330
1F
100
AcDbEntity
  8
0
  6
CONTINUOUS
 62
     3
100
AcDbLine
 10
48.041187618
 20
92.56091806399996
 30
0.0
 11
48.041187618
 21
91.060919564
 31
0.0
  0
LINE
  5
A09
330
1F
100
AcDbEntity
  8
0
  6
CONTINUOUS
 62
     3
100
AcDbLine
 10
49.091186568
 20
92.56091806399996
 30
0.0
 11
49.091186568
 21
96.56091406400002
 31
0.0
  0
LINE
  5
A0A
330
1F
100
AcDbEntity
  8
0
  6
CONTINUOUS
 62
     3
100
AcDbLine
 10
48.491187168
 20
96.56091406400002
 30
0.0
 11
48.491187168
 21
92.56091806399996
 31
0.0
  0
LINE
  5
A0B
330
1F
100
AcDbEntity
  8
0
  6
CONTINUOUS
 62
     3
100
AcDbLine
 10
48.491187168
 20
92.56091806399996
 30
0.0
 11
48.041187618
 21
92.56091806399996
 31
0.0
  0
LINE
  5
A0C
330
1F
100
AcDbEntity
  8
0
  6
CONTINUOUS
 62
     3
100
AcDbLine
 10
49.541186118
 20
92.56091806399996
 30
0.0
 11
49.091186568
 21
92.56091806399996
 31
0.0
  0
LINE
  5
A0D
330
1F
100
AcDbEntity
  8
0
  6
CONTINUOUS
 62
     3
100
AcDbLine
 10
49.541186118
 20
92.36091826399999
 30
0.0
 11
50.581185078
 21
92.36091826399999
 31
0.0
  0
LINE
  5
A0E
330
1F
100
AcDbEntity
  8
0
  6
CONTINUOUS
 62
     3
100
AcDbLine
 10
50.581185078
 20
91.060919564
 30
0.0
 11
52.081183578
 21
91.060919564
 31
0.0
  0
LINE
  5
A0F
330
1F
100
AcDbEntity
  8
0
  6
CONTINUOUS
 62
     3
100
AcDbLine
 10
52.081183578
 20
91.060919564
 30
0.0
 11
52.081183578
 21
92.56091806399996
 31
0.0
  0
LINE
  5
A10
330
1F
100
AcDbEntity
  8
0
  6
CONTINUOUS
 62
     3
100
AcDbLine
 10
50.581185078
 20
92.56091806399996
 30
0.0
 11
50.581185078
 21
91.060919564
 31
0.0
  0
LINE
  5
A11
330
1F
100
AcDbEntity
  8
0
  6
CONTINUOUS
 62
     3
100
AcDbLine
 10
51.631184028
 20
92.56091806399996
 30
0.0
 11
51.631184028
 21
96.56091406400002
 31
0.0
  0
LINE
  5
A12
330
1F
100
AcDbEntity
  8
0
  6
CONTINUOUS
 62
     3
100
AcDbLine
 10
51.03118462800001
 20
96.56091406400002
 30
0.0
 11
51.03118462800001
 21
92.56091806399996
 31
0.0
  0
LINE
  5
A13
330
1F
100
AcDbEntity
  8
0
  6
CONTINUOUS
 62
     3
100
AcDbLine
 10
51.03118462800001
 20
92.56091806399996
 30
0.0
 11
50.581185078
 21
92.56091806399996
 31
0.0
  0
LINE
  5
A14
330
1F
100
AcDbEntity
  8
0
  6
CONTINUOUS
 62
     3
100
AcDbLine
 10
52.081183578
 20
92.56091806399996
 30
0.0
 11
51.631184028
 21
92.56091806399996
 31
0.0
  0
LINE
  5
A15
330
1F
100
AcDbEntity
  8
0
  6
CONTINUOUS
 62
     3
100
AcDbLine
 10
52.081183578
 20
92.36091826399999
 30
0.0
 11
53.121182538
 21
92.36091826399999
 31
0.0
  0
LINE
  5
A16
330
1F
100
AcDbEntity
  8
0
  6
CONTINUOUS
 62
     3
100
AcDbLine
 10
53.121182538
 20
91.060919564
 30
0.0
 11
54.621181038
 21
91.060919564
 31
0.0
  0
LINE
  5
A17
330
1F
100
AcDbEntity
  8
0
  6
CONTINUOUS
 62
     3
100
AcDbLine
 10
54.621181038
 20
91.060919564
 30
0.0
 11
54.621181038
 21
92.56091806399996
 31
0.0
  0
LINE
  5
A18
330
1F
100
AcDbEntity
  8
0
  6
CONTINUOUS
 62
     3
100
AcDbLine
 10
53.121182538
 20
92.56091806399996
 30
0.0
 11
53.121182538
 21
91.060919564
 31
0.0
  0
LINE
  5
A19
330
1F
100
AcDbEntity
  8
0
  6
CONTINUOUS
 62
     3
100
AcDbLine
 10
54.171181488
 20
92.56091806399996
 30
0.0
 11
54.171181488
 21
96.56091406400002
 31
0.0
  0
LINE
  5
A1A
330
1F
100
AcDbEntity
  8
0
  6
CONTINUOUS
 62
     3
100
AcDbLine
 10
53.571182088
 20
96.56091406400002
 30
0.0
 11
53.571182088
 21
92.56091806399996
 31
0.0
  0
LINE
  5
A1B
330
1F
100
AcDbEntity
  8
0
  6
CONTINUOUS
 62
     3
100
AcDbLine
 10
53.571182088
 20
92.56091806399996
 30
0.0
 11
53.121182538
 21
92.56091806399996
 31
0.0
  0
LINE
  5
A1C
330
1F
100
AcDbEntity
  8
0
  6
CONTINUOUS
 62
     3
100
AcDbLine
 10
54.621181038
 20
92.56091806399996
 30
0.0
 11
54.171181488
 21
92.56091806399996
 31
0.0
  0
LINE
  5
A1D
330
1F
100
AcDbEntity
  8
0
  6
CONTINUOUS
 62
     3
100
AcDbLine
 10
54.621181038
 20
92.36091826399999
 30
0.0
 11
55.661179998
 21
92.36091826399999
 31
0.0
  0
LINE
  5
A1E
330
1F
100
AcDbEntity
  8
0
  6
CONTINUOUS
 62
     3
100
AcDbLine
 10
55.661179998
 20
91.060919564
 30
0.0
 11
57.161178498
 21
91.060919564
 31
0.0
  0
LINE
  5
A1F
330
1F
100
AcDbEntity
  8
0
  6
CONTINUOUS
 62
     3
100
AcDbLine
 10
57.161178498
 20
91.060919564
 30
0.0
 11
57.161178498
 21
92.56091806399996
 31
0.0
  0
LINE
  5
A20
330
1F
100
AcDbEntity
  8
0
  6
CONTINUOUS
 62
     3
100
AcDbLine
 10
55.661179998
 20
92.56091806399996
 30
0.0
 11
55.661179998
 21
91.060919564
 31
0.0
  0
LINE
  5
A21
330
1F
100
AcDbEntity
  8
0
  6
CONTINUOUS
 62
     3
100
AcDbLine
 10
56.711178948
 20
92.56091806399996
 30
0.0
 11
56.711178948
 21
96.56091406400002
 31
0.0
  0
LINE
  5
A22
330
1F
100
AcDbEntity
  8
0
  6
CONTINUOUS
 62
     3
100
AcDbLine
 10
56.111179548
 20
96.56091406400002
 30
0.0
 11
56.111179548
 21
92.56091806399996
 31
0.0
  0
LINE
  5
A23
330
1F
100
AcDbEntity
  8
0
  6
CONTINUOUS
 62
     3
100
AcDbLine
 10
56.111179548
 20
92.56091806399996
 30
0.0
 11
55.661179998
 21
92.56091806399996
 31
0.0
  0
LINE
  5
A24
330
1F
100
AcDbEntity
  8
0
  6
CONTINUOUS
 62
     3
100
AcDbLine
 10
57.161178498
 20
92.56091806399996
 30
0.0
 11
56.711178948
 21
92.56091806399996
 31
0.0
  0
LINE
  5
A25
330
1F
100
AcDbEntity
  8
0
  6
CONTINUOUS
 62
     3
100
AcDbLine
 10
57.161178498
 20
92.36091826399999
 30
0.0
 11
58.20117745800001
 21
92.36091826399999
 31
0.0
  0
LINE
  5
A26
330
1F
100
AcDbEntity
  8
0
  6
CONTINUOUS
 62
     3
100
AcDbLine
 10
58.20117745800001
 20
91.060919564
 30
0.0
 11
59.701175958
 21
91.060919564
 31
0.0
  0
LINE
  5
A27
330
1F
100
AcDbEntity
  8
0
  6
CONTINUOUS
 62
     3
100
AcDbLine
 10
59.701175958
 20
91.060919564
 30
0.0
 11
59.701175958
 21
92.56091806399996
 31
0.0
  0
LINE
  5
A28
330
1F
100
AcDbEntity
  8
0
  6
CONTINUOUS
 62
     3
100
AcDbLine
 10
58.20117745800001
 20
92.56091806399996
 30
0.0
 11
58.20117745800001
 21
91.060919564
 31
0.0
  0
LINE
  5
A29
330
1F
100
AcDbEntity
  8
0
  6
CONTINUOUS
 62
     3
100
AcDbLine
 10
59.25117640799999
 20
92.56091806399996
 30
0.0
 11
59.25117640799999
 21
96.56091406400002
 31
0.0
  0
LINE
  5
A2A
330
1F
100
AcDbEntity
  8
0
  6
CONTINUOUS
 62
     3
100
AcDbLine
 10
58.651177008
 20
96.56091406400002
 30
0.0
 11
58.651177008
 21
92.56091806399996
 31
0.0
  0
LINE
  5
A2B
330
1F
100
AcDbEntity
  8
0
  6
CONTINUOUS
 62
     3
100
AcDbLine
 10
58.651177008
 20
92.56091806399996
 30
0.0
 11
58.20117745800001
 21
92.56091806399996
 31
0.0
  0
LINE
  5
A2C
330
1F
100
AcDbEntity
  8
0
  6
CONTINUOUS
 62
     3
100
AcDbLine
 10
59.701175958
 20
92.56091806399996
 30
0.0
 11
59.25117640799999
 21
92.56091806399996
 31
0.0
  0
LINE
  5
A2D
330
1F
100
AcDbEntity
  8
0
  6
CONTINUOUS
 62
     3
100
AcDbLine
 10
59.701175958
 20
92.36091826399999
 30
0.0
 11
60.741174918
 21
92.36091826399999
 31
0.0
  0
LINE
  5
A2E
330
1F
100
AcDbEntity
  8
0
  6
CONTINUOUS
 62
     3
100
AcDbLine
 10
60.741174918
 20
91.060919564
 30
0.0
 11
62.241173418
 21
91.060919564
 31
0.0
  0
LINE
  5
A2F
330
1F
100
AcDbEntity
  8
0
  6
CONTINUOUS
 62
     3
100
AcDbLine
 10
62.241173418
 20
91.060919564
 30
0.0
 11
62.241173418
 21
92.56091806399996
 31
0.0
  0
LINE
  5
A30
330
1F
100
AcDbEntity
  8
0
  6
CONTINUOUS
 62
     3
100
AcDbLine
 10
60.741174918
 20
92.56091806399996
 30
0.0
 11
60.741174918
 21
91.060919564
 31
0.0
  0
LINE
  5
A31
330
1F
100
AcDbEntity
  8
0
  6
CONTINUOUS
 62
     3
100
AcDbLine
 10
61.791173868
 20
92.56091806399996
 30
0.0
 11
61.791173868
 21
96.56091406400002
 31
0.0
  0
LINE
  5
A32
330
1F
100
AcDbEntity
  8
0
  6
CONTINUOUS
 62
     3
100
AcDbLine
 10
61.191174468
 20
96.56091406400002
 30
0.0
 11
61.191174468
 21
92.56091806399996
 31
0.0
  0
LINE
  5
A33
330
1F
100
AcDbEntity
  8
0
  6
CONTINUOUS
 62
     3
100
AcDbLine
 10
61.191174468
 20
92.56091806399996
 30
0.0
 11
60.741174918
 21
92.56091806399996
 31
0.0
  0
LINE
  5
A34
330
1F
100
AcDbEntity
  8
0
  6
CONTINUOUS
 62
     3
100
AcDbLine
 10
62.241173418
 20
92.56091806399996
 30
0.0
 11
61.791173868
 21
92.56091806399996
 31
0.0
  0
LINE
  5
A35
330
1F
100
AcDbEntity
  8
0
  6
CONTINUOUS
 62
     3
100
AcDbLine
 10
62.241173418
 20
92.36091826399999
 30
0.0
 11
63.281172378
 21
92.36091826399999
 31
0.0
  0
LINE
  5
A36
330
1F
100
AcDbEntity
  8
0
  6
CONTINUOUS
 62
     3
100
AcDbLine
 10
63.281172378
 20
91.060919564
 30
0.0
 11
64.781170878
 21
91.060919564
 31
0.0
  0
LINE
  5
A37
330
1F
100
AcDbEntity
  8
0
  6
CONTINUOUS
 62
     3
100
AcDbLine
 10
64.781170878
 20
91.060919564
 30
0.0
 11
64.781170878
 21
92.56091806399996
 31
0.0
  0
LINE
  5
A38
330
1F
100
AcDbEntity
  8
0
  6
CONTINUOUS
 62
     3
100
AcDbLine
 10
63.281172378
 20
92.56091806399996
 30
0.0
 11
63.281172378
 21
91.060919564
 31
0.0
  0
LINE
  5
A39
330
1F
100
AcDbEntity
  8
0
  6
CONTINUOUS
 62
     3
100
AcDbLine
 10
64.331171328
 20
92.56091806399996
 30
0.0
 11
64.331171328
 21
96.56091406400002
 31
0.0
  0
LINE
  5
A3A
330
1F
100
AcDbEntity
  8
0
  6
CONTINUOUS
 62
     3
100
AcDbLine
 10
63.731171928
 20
96.56091406400002
 30
0.0
 11
63.731171928
 21
92.56091806399996
 31
0.0
  0
LINE
  5
A3B
330
1F
100
AcDbEntity
  8
0
  6
CONTINUOUS
 62
     3
100
AcDbLine
 10
63.731171928
 20
92.56091806399996
 30
0.0
 11
63.281172378
 21
92.56091806399996
 31
0.0
  0
LINE
  5
A3C
330
1F
100
AcDbEntity
  8
0
  6
CONTINUOUS
 62
     3
100
AcDbLine
 10
64.781170878
 20
92.56091806399996
 30
0.0
 11
64.331171328
 21
92.56091806399996
 31
0.0
  0
LINE
  5
A3D
330
1F
100
AcDbEntity
  8
0
  6
CONTINUOUS
 62
     3
100
AcDbLine
 10
64.781170878
 20
92.36091826399999
 30
0.0
 11
65.821169838
 21
92.36091826399999
 31
0.0
  0
LINE
  5
A3E
330
1F
100
AcDbEntity
  8
0
  6
CONTINUOUS
 62
     3
100
AcDbLine
 10
65.821169838
 20
91.060919564
 30
0.0
 11
67.321168338
 21
91.060919564
 31
0.0
  0
LINE
  5
A3F
330
1F
100
AcDbEntity
  8
0
  6
CONTINUOUS
 62
     3
100
AcDbLine
 10
67.321168338
 20
91.060919564
 30
0.0
 11
67.321168338
 21
92.56091806399996
 31
0.0
  0
LINE
  5
A40
330
1F
100
AcDbEntity
  8
0
  6
CONTINUOUS
 62
     3
100
AcDbLine
 10
65.821169838
 20
92.56091806399996
 30
0.0
 11
65.821169838
 21
91.060919564
 31
0.0
  0
LINE
  5
A41
330
1F
100
AcDbEntity
  8
0
  6
CONTINUOUS
 62
     3
100
AcDbLine
 10
66.871168788
 20
92.56091806399996
 30
0.0
 11
66.871168788
 21
96.56091406400002
 31
0.0
  0
LINE
  5
A42
330
1F
100
AcDbEntity
  8
0
  6
CONTINUOUS
 62
     3
100
AcDbLine
 10
66.271169388
 20
96.56091406400002
 30
0.0
 11
66.271169388
 21
92.56091806399996
 31
0.0
  0
LINE
  5
A43
330
1F
100
AcDbEntity
  8
0
  6
CONTINUOUS
 62
     3
100
AcDbLine
 10
66.271169388
 20
92.56091806399996
 30
0.0
 11
65.821169838
 21
92.56091806399996
 31
0.0
  0
LINE
  5
A44
330
1F
100
AcDbEntity
  8
0
  6
CONTINUOUS
 62
     3
100
AcDbLine
 10
67.321168338
 20
92.56091806399996
 30
0.0
 11
66.871168788
 21
92.56091806399996
 31
0.0
  0
LINE
  5
A45
330
1F
100
AcDbEntity
  8
0
  6
CONTINUOUS
 62
     3
100
AcDbLine
 10
67.321168338
 20
92.36091826399999
 30
0.0
 11
68.361167298
 21
92.36091826399999
 31
0.0
  0
LINE
  5
A46
330
1F
100
AcDbEntity
  8
0
  6
CONTINUOUS
 62
     3
100
AcDbLine
 10
68.361167298
 20
91.060919564
 30
0.0
 11
69.861165798
 21
91.060919564
 31
0.0
  0
LINE
  5
A47
330
1F
100
AcDbEntity
  8
0
  6
CONTINUOUS
 62
     3
100
AcDbLine
 10
69.861165798
 20
91.060919564
 30
0.0
 11
69.861165798
 21
92.56091806399996
 31
0.0
  0
LINE
  5
A48
330
1F
100
AcDbEntity
  8
0
  6
CONTINUOUS
 62
     3
100
AcDbLine
 10
68.361167298
 20
92.56091806399996
 30
0.0
 11
68.361167298
 21
91.060919564
 31
0.0
  0
LINE
  5
A49
330
1F
100
AcDbEntity
  8
0
  6
CONTINUOUS
 62
     3
100
AcDbLine
 10
69.411166248
 20
92.56091806399996
 30
0.0
 11
69.411166248
 21
96.56091406400002
 31
0.0
  0
LINE
  5
A4A
330
1F
100
AcDbEntity
  8
0
  6
CONTINUOUS
 62
     3
100
AcDbLine
 10
68.811166848
 20
96.56091406400002
 30
0.0
 11
68.811166848
 21
92.56091806399996
 31
0.0
  0
LINE
  5
A4B
330
1F
100
AcDbEntity
  8
0
  6
CONTINUOUS
 62
     3
100
AcDbLine
 10
68.811166848
 20
92.56091806399996
 30
0.0
 11
68.361167298
 21
92.56091806399996
 31
0.0
  0
LINE
  5
A4C
330
1F
100
AcDbEntity
  8
0
  6
CONTINUOUS
 62
     3
100
AcDbLine
 10
69.861165798
 20
92.56091806399996
 30
0.0
 11
69.411166248
 21
92.56091806399996
 31
0.0
  0
LINE
  5
A4D
330
1F
100
AcDbEntity
  8
0
  6
CONTINUOUS
 62
     3
100
AcDbLine
 10
69.861165798
 20
92.36091826399999
 30
0.0
 11
70.90116475800001
 21
92.36091826399999
 31
0.0
  0
LINE
  5
A4E
330
1F
100
AcDbEntity
  8
0
  6
CONTINUOUS
 62
     3
100
AcDbLine
 10
70.90116475800001
 20
91.060919564
 30
0.0
 11
72.40116325799998
 21
91.060919564
 31
0.0
  0
LINE
  5
A4F
330
1F
100
AcDbEntity
  8
0
  6
CONTINUOUS
 62
     3
100
AcDbLine
 10
72.40116325799998
 20
91.060919564
 30
0.0
 11
72.40116325799998
 21
92.56091806399996
 31
0.0
  0
LINE
  5
A50
330
1F
100
AcDbEntity
  8
0
  6
CONTINUOUS
 62
     3
100
AcDbLine
 10
70.90116475800001
 20
92.56091806399996
 30
0.0
 11
70.90116475800001
 21
91.060919564
 31
0.0
  0
LINE
  5
A51
330
1F
100
AcDbEntity
  8
0
  6
CONTINUOUS
 62
     3
100
AcDbLine
 10
71.951163708
 20
92.56091806399996
 30
0.0
 11
71.951163708
 21
96.56091406400002
 31
0.0
  0
LINE
  5
A52
330
1F
100
AcDbEntity
  8
0
  6
CONTINUOUS
 62
     3
100
AcDbLine
 10
71.35116430800001
 20
96.56091406400002
 30
0.0
 11
71.35116430800001
 21
92.56091806399996
 31
0.0
  0
LINE
  5
A53
330
1F
100
AcDbEntity
  8
0
  6
CONTINUOUS
 62
     3
100
AcDbLine
 10
71.35116430800001
 20
92.56091806399996
 30
0.0
 11
70.90116475800001
 21
92.56091806399996
 31
0.0
  0
LINE
  5
A54
330
1F
100
AcDbEntity
  8
0
  6
CONTINUOUS
 62
     3
100
AcDbLine
 10
72.40116325799998
 20
92.56091806399996
 30
0.0
 11
71.951163708
 21
92.56091806399996
 31
0.0
  0
LINE
  5
A55
330
1F
100
AcDbEntity
  8
0
  6
CONTINUOUS
 62
     3
100
AcDbLine
 10
72.40116325799998
 20
92.36091826399999
 30
0.0
 11
73.441162218
 21
92.36091826399999
 31
0.0
  0
LINE
  5
A56
330
1F
100
AcDbEntity
  8
0
  6
CONTINUOUS
 62
     3
100
AcDbLine
 10
73.441162218
 20
91.060919564
 30
0.0
 11
74.941160718
 21
91.060919564
 31
0.0
  0
LINE
  5
A57
330
1F
100
AcDbEntity
  8
0
  6
CONTINUOUS
 62
     3
100
AcDbLine
 10
74.941160718
 20
91.060919564
 30
0.0
 11
74.941160718
 21
92.56091806399996
 31
0.0
  0
LINE
  5
A58
330
1F
100
AcDbEntity
  8
0
  6
CONTINUOUS
 62
     3
100
AcDbLine
 10
73.441162218
 20
92.56091806399996
 30
0.0
 11
73.441162218
 21
91.060919564
 31
0.0
  0
LINE
  5
A59
330
1F
100
AcDbEntity
  8
0
  6
CONTINUOUS
 62
     3
100
AcDbLine
 10
74.491161168
 20
92.56091806399996
 30
0.0
 11
74.491161168
 21
96.56091406400002
 31
0.0
  0
LINE
  5
A5A
330
1F
100
AcDbEntity
  8
0
  6
CONTINUOUS
 62
     3
100
AcDbLine
 10
73.891161768
 20
96.56091406400002
 30
0.0
 11
73.891161768
 21
92.56091806399996
 31
0.0
  0
LINE
  5
A5B
330
1F
100
AcDbEntity
  8
0
  6
CONTINUOUS
 62
     3
100
AcDbLine
 10
73.891161768
 20
92.56091806399996
 30
0.0
 11
73.441162218
 21
92.56091806399996
 31
0.0
  0
LINE
  5
A5C
330
1F
100
AcDbEntity
  8
0
  6
CONTINUOUS
 62
     3
100
AcDbLine
 10
74.941160718
 20
92.56091806399996
 30
0.0
 11
74.491161168
 21
92.56091806399996
 31
0.0
  0
LINE
  5
A5D
330
1F
100
AcDbEntity
  8
0
  6
CONTINUOUS
 62
     3
100
AcDbLine
 10
74.941160718
 20
92.36091826399999
 30
0.0
 11
75.98115967799998
 21
92.36091826399999
 31
0.0
  0
LINE
  5
A5E
330
1F
100
AcDbEntity
  8
0
  6
CONTINUOUS
 62
     3
100
AcDbLine
 10
75.98115967799998
 20
91.060919564
 30
0.0
 11
77.481158178
 21
91.060919564
 31
0.0
  0
LINE
  5
A5F
330
1F
100
AcDbEntity
  8
0
  6
CONTINUOUS
 62
     3
100
AcDbLine
 10
77.481158178
 20
91.060919564
 30
0.0
 11
77.481158178
 21
92.56091806399996
 31
0.0
  0
LINE
  5
A60
330
1F
100
AcDbEntity
  8
0
  6
CONTINUOUS
 62
     3
100
AcDbLine
 10
75.98115967799998
 20
92.56091806399996
 30
0.0
 11
75.98115967799998
 21
91.060919564
 31
0.0
  0
LINE
  5
A61
330
1F
100
AcDbEntity
  8
0
  6
CONTINUOUS
 62
     3
100
AcDbLine
 10
77.031158628
 20
92.56091806399996
 30
0.0
 11
77.031158628
 21
96.56091406400002
 31
0.0
  0
LINE
  5
A62
330
1F
100
AcDbEntity
  8
0
  6
CONTINUOUS
 62
     3
100
AcDbLine
 10
76.43115922799998
 20
96.56091406400002
 30
0.0
 11
76.43115922799998
 21
92.56091806399996
 31
0.0
  0
LINE
  5
A63
330
1F
100
AcDbEntity
  8
0
  6
CONTINUOUS
 62
     3
100
AcDbLine
 10
76.43115922799998
 20
92.56091806399996
 30
0.0
 11
75.98115967799998
 21
92.56091806399996
 31
0.0
  0
LINE
  5
A64
330
1F
100
AcDbEntity
  8
0
  6
CONTINUOUS
 62
     3
100
AcDbLine
 10
77.481158178
 20
92.56091806399996
 30
0.0
 11
77.031158628
 21
92.56091806399996
 31
0.0
  0
LINE
  5
A65
330
1F
100
AcDbEntity
  8
0
  6
CONTINUOUS
 62
     3
100
AcDbLine
 10
77.481158178
 20
92.36091826399999
 30
0.0
 11
78.521157138
 21
92.36091826399999
 31
0.0
  0
LINE
  5
A66
330
1F
100
AcDbEntity
  8
0
  6
CONTINUOUS
 62
     3
100
AcDbLine
 10
78.521157138
 20
91.060919564
 30
0.0
 11
80.02115563799998
 21
91.060919564
 31
0.0
  0
LINE
  5
A67
330
1F
100
AcDbEntity
  8
0
  6
CONTINUOUS
 62
     3
100
AcDbLine
 10
80.02115563799998
 20
91.060919564
 30
0.0
 11
80.02115563799998
 21
92.56091806399996
 31
0.0
  0
LINE
  5
A68
330
1F
100
AcDbEntity
  8
0
  6
CONTINUOUS
 62
     3
100
AcDbLine
 10
78.521157138
 20
92.56091806399996
 30
0.0
 11
78.521157138
 21
91.060919564
 31
0.0
  0
LINE
  5
A69
330
1F
100
AcDbEntity
  8
0
  6
CONTINUOUS
 62
     3
100
AcDbLine
 10
79.57115608799998
 20
92.56091806399996
 30
0.0
 11
79.57115608799998
 21
96.56091406400002
 31
0.0
  0
LINE
  5
A6A
330
1F
100
AcDbEntity
  8
0
  6
CONTINUOUS
 62
     3
100
AcDbLine
 10
78.97115668800001
 20
96.56091406400002
 30
0.0
 11
78.97115668800001
 21
92.56091806399996
 31
0.0
  0
LINE
  5
A6B
330
1F
100
AcDbEntity
  8
0
  6
CONTINUOUS
 62
     3
100
AcDbLine
 10
78.97115668800001
 20
92.56091806399996
 30
0.0
 11
78.521157138
 21
92.56091806399996
 31
0.0
  0
LINE
  5
A6C
330
1F
100
AcDbEntity
  8
0
  6
CONTINUOUS
 62
     3
100
AcDbLine
 10
80.02115563799998
 20
92.56091806399996
 30
0.0
 11
79.57115608799998
 21
92.56091806399996
 31
0.0
  0
LINE
  5
A6D
330
1F
100
AcDbEntity
  8
0
  6
CONTINUOUS
 62
     3
100
AcDbLine
 10
30.261205398
 20
92.36091826399999
 30
0.0
 11
29.761205898
 21
92.36091826399999
 31
0.0
  0
LINE
  5
A6E
330
1F
100
AcDbEntity
  8
0
  6
CONTINUOUS
 62
     3
100
AcDbLine
 10
80.02115563799998
 20
92.36091826399999
 30
0.0
 11
80.52115513799998
 21
92.36091826399999
 31
0.0
  0
LINE
  5
A6F
330
1F
100
AcDbEntity
  8
0
  6
CONTINUOUS
 62
     3
100
AcDbLine
 10
28.211207448
 20
98.16091246399999
 30
0.0
 11
28.211207448
 21
100.6609099639999
 31
0.0
  0
LINE
  5
A70
330
1F
100
AcDbEntity
  8
0
  6
CONTINUOUS
 62
     3
100
AcDbLine
 10
28.211207448
 20
100.6609099639999
 30
0.0
 11
85.711149948
 21
100.6609099639999
 31
0.0
  0
LINE
  5
A71
330
1F
100
AcDbEntity
  8
0
  6
CONTINUOUS
 62
     3
100
AcDbLine
 10
85.711149948
 20
100.6609099639999
 30
0.0
 11
85.711149948
 21
98.16091246399999
 31
0.0
  0
LINE
  5
A72
330
1F
100
AcDbEntity
  8
0
  6
CONTINUOUS
 62
     3
100
AcDbLine
 10
29.761205898
 20
91.26091936399999
 30
0.0
 11
30.261205398
 21
91.26091936399999
 31
0.0
  0
LINE
  5
A73
330
1F
100
AcDbEntity
  8
0
  6
CONTINUOUS
 62
     3
100
AcDbLine
 10
31.751203908
 20
91.27091935400001
 30
0.0
 11
32.801202858
 21
91.27091935400001
 31
0.0
  0
LINE
  5
A74
330
1F
100
AcDbEntity
  8
0
  6
CONTINUOUS
 62
     3
100
AcDbLine
 10
34.291201368
 20
91.27091935400001
 30
0.0
 11
35.341200318
 21
91.27091935400001
 31
0.0
  0
LINE
  5
A75
330
1F
100
AcDbEntity
  8
0
  6
CONTINUOUS
 62
     3
100
AcDbLine
 10
36.831198828
 20
91.27091935400001
 30
0.0
 11
37.881197778
 21
91.27091935400001
 31
0.0
  0
LINE
  5
A76
330
1F
100
AcDbEntity
  8
0
  6
CONTINUOUS
 62
     3
100
AcDbLine
 10
80.52115513799998
 20
90.160920464
 30
0.0
 11
29.761205898
 21
90.160920464
 31
0.0
  0
LINE
  5
A77
330
1F
100
AcDbEntity
  8
0
  6
CONTINUOUS
 62
     3
100
AcDbLine
 10
29.761205898
 20
92.36091826399999
 30
0.0
 11
29.761205898
 21
90.160920464
 31
0.0
  0
LINE
  5
A78
330
1F
100
AcDbEntity
  8
0
  6
CONTINUOUS
 62
     3
100
AcDbLine
 10
39.371196288
 20
91.27091935400001
 30
0.0
 11
40.421195238
 21
91.27091935400001
 31
0.0
  0
LINE
  5
A79
330
1F
100
AcDbEntity
  8
0
  6
CONTINUOUS
 62
     3
100
AcDbLine
 10
41.911193748
 20
91.27091935400001
 30
0.0
 11
42.96119269800001
 21
91.27091935400001
 31
0.0
  0
LINE
  5
A7A
330
1F
100
AcDbEntity
  8
0
  6
CONTINUOUS
 62
     3
100
AcDbLine
 10
44.451191208
 20
91.27091935400001
 30
0.0
 11
45.50119015799999
 21
91.27091935400001
 31
0.0
  0
LINE
  5
A7B
330
1F
100
AcDbEntity
  8
0
  6
CONTINUOUS
 62
     3
100
AcDbLine
 10
46.991188668
 20
91.27091935400001
 30
0.0
 11
48.041187618
 21
91.27091935400001
 31
0.0
  0
LINE
  5
A7C
330
1F
100
AcDbEntity
  8
0
  6
CONTINUOUS
 62
     3
100
AcDbLine
 10
49.531186128
 20
91.27091935400001
 30
0.0
 11
50.581185078
 21
91.27091935400001
 31
0.0
  0
LINE
  5
A7D
330
1F
100
AcDbEntity
  8
0
  6
CONTINUOUS
 62
     3
100
AcDbLine
 10
52.071183588
 20
91.27091935400001
 30
0.0
 11
53.121182538
 21
91.27091935400001
 31
0.0
  0
LINE
  5
A7E
330
1F
100
AcDbEntity
  8
0
  6
CONTINUOUS
 62
     3
100
AcDbLine
 10
54.611181048
 20
91.27091935400001
 30
0.0
 11
55.661179998
 21
91.27091935400001
 31
0.0
  0
LINE
  5
A7F
330
1F
100
AcDbEntity
  8
0
  6
CONTINUOUS
 62
     3
100
AcDbLine
 10
57.151178508
 20
91.27091935400001
 30
0.0
 11
58.20117745800001
 21
91.27091935400001
 31
0.0
  0
LINE
  5
A80
330
1F
100
AcDbEntity
  8
0
  6
CONTINUOUS
 62
     3
100
AcDbLine
 10
59.691175968
 20
91.27091935400001
 30
0.0
 11
60.741174918
 21
91.27091935400001
 31
0.0
  0
LINE
  5
A81
330
1F
100
AcDbEntity
  8
0
  6
CONTINUOUS
 62
     3
100
AcDbLine
 10
62.23117342800001
 20
91.27091935400001
 30
0.0
 11
63.281172378
 21
91.27091935400001
 31
0.0
  0
LINE
  5
A82
330
1F
100
AcDbEntity
  8
0
  6
CONTINUOUS
 62
     3
100
AcDbLine
 10
64.771170888
 20
91.27091935400001
 30
0.0
 11
65.821169838
 21
91.27091935400001
 31
0.0
  0
LINE
  5
A83
330
1F
100
AcDbEntity
  8
0
  6
CONTINUOUS
 62
     3
100
AcDbLine
 10
67.311168348
 20
91.27091935400001
 30
0.0
 11
68.361167298
 21
91.27091935400001
 31
0.0
  0
LINE
  5
A84
330
1F
100
AcDbEntity
  8
0
  6
CONTINUOUS
 62
     3
100
AcDbLine
 10
69.851165808
 20
91.27091935400001
 30
0.0
 11
70.90116475800001
 21
91.27091935400001
 31
0.0
  0
LINE
  5
A85
330
1F
100
AcDbEntity
  8
0
  6
CONTINUOUS
 62
     3
100
AcDbLine
 10
72.391163268
 20
91.27091935400001
 30
0.0
 11
73.441162218
 21
91.27091935400001
 31
0.0
  0
LINE
  5
A86
330
1F
100
AcDbEntity
  8
0
  6
CONTINUOUS
 62
     3
100
AcDbLine
 10
74.93116072800001
 20
91.27091935400001
 30
0.0
 11
75.98115967799998
 21
91.27091935400001
 31
0.0
  0
LINE
  5
A87
330
1F
100
AcDbEntity
  8
0
  6
CONTINUOUS
 62
     3
100
AcDbLine
 10
77.471158188
 20
91.27091935400001
 30
0.0
 11
78.521157138
 21
91.27091935400001
 31
0.0
  0
LINE
  5
A88
330
1F
100
AcDbEntity
  8
0
  6
CONTINUOUS
 62
     3
100
AcDbLine
 10
80.52115513799998
 20
91.26091936399999
 30
0.0
 11
80.02115563799998
 21
91.26091936399999
 31
0.0
  0
LINE
  5
A89
330
1F
100
AcDbEntity
  8
0
  6
CONTINUOUS
 62
     3
100
AcDbLine
 10
80.52115513799998
 20
92.36091826399999
 30
0.0
 11
80.52115513799998
 21
90.160920464
 31
0.0
  0
LINE
  5
A8A
330
1F
100
AcDbEntity
  8
0
  6
CONTINUOUS
 62
     3
100
AcDbLine
 10
26.070009718
 20
100.710909914
 30
0.0
 11
26.070009718
 21
106.7109039139999
 31
0.0
  0
LINE
  5
A8B
330
1F
100
AcDbEntity
  8
0
  6
CONTINUOUS
 62
     3
100
AcDbLine
 10
26.070009718
 20
106.7109039139999
 30
0.0
 11
25.470010318
 21
106.7109039139999
 31
0.0
  0
LINE
  5
A8C
330
1F
100
AcDbEntity
  8
0
  6
CONTINUOUS
 62
     3
100
AcDbLine
 10
25.470010318
 20
106.7109039139999
 30
0.0
 11
25.470010318
 21
100.710909914
 31
0.0
  0
LINE
  5
A8D
330
1F
100
AcDbEntity
  8
0
  6
CONTINUOUS
 62
     3
100
AcDbLine
 10
23.670012118
 20
100.700909924
 30
0.0
 11
27.870007918
 21
100.700909924
 31
0.0
  0
LINE
  5
A8E
330
1F
100
AcDbEntity
  8
0
  6
CONTINUOUS
 62
     3
100
AcDbLine
 10
23.670012118
 20
98.16091246399999
 30
0.0
 11
23.670012118
 21
100.700909924
 31
0.0
  0
LINE
  5
A8F
330
1F
100
AcDbEntity
  8
0
  6
CONTINUOUS
 62
     3
100
AcDbLine
 10
27.840007948
 20
100.700909924
 30
0.0
 11
27.840007948
 21
98.16091246399999
 31
0.0
  0
LINE
  5
A90
330
1F
100
AcDbEntity
  8
0
  6
CONTINUOUS
 62
     4
100
AcDbLine
 10
23.670012118
 20
101.2009094239999
 30
0.0
 11
23.670012118
 21
112.200898424
 31
0.0
  0
LINE
  5
A91
330
1F
100
AcDbEntity
  8
0
  6
CONTINUOUS
 62
     4
100
AcDbLine
 10
27.870007918
 20
112.200898424
 30
0.0
 11
27.870007918
 21
101.2009094239999
 31
0.0
  0
LINE
  5
A92
330
1F
100
AcDbEntity
  8
0
  6
CONTINUOUS
 62
     4
100
AcDbLine
 10
23.670012118
 20
111.700898924
 30
0.0
 11
20.670015118
 21
111.700898924
 31
0.0
  0
LINE
  5
A93
330
1F
100
AcDbEntity
  8
0
  6
CONTINUOUS
 62
     4
100
AcDbLine
 10
23.041212618
 20
100.700909924
 30
0.0
 11
19.04121661799996
 21
100.700909924
 31
0.0
  0
LINE
  5
A94
330
1F
100
AcDbEntity
  8
0
  6
CONTINUOUS
 62
     4
100
AcDbLine
 10
24.841210818
 20
106.700903924
 30
0.0
 11
13.841221818
 21
106.700903924
 31
0.0
  0
LINE
  5
A95
330
1F
100
AcDbEntity
  8
0
  6
CONTINUOUS
 62
     4
100
AcDbLine
 10
29.761205898
 20
89.660920964
 30
0.0
 11
29.77857319099999
 21
80.92907818399995
 31
0.0
  0
LINE
  5
A96
330
1F
100
AcDbEntity
  8
0
  6
CONTINUOUS
 62
     4
100
AcDbLine
 10
80.509324598
 20
81.34051213300002
 30
0.0
 11
80.52710972099999
 21
89.770465226
 31
0.0
  0
LINE
  5
A97
330
1F
100
AcDbEntity
  8
0
  6
CONTINUOUS
 62
     4
100
AcDbLine
 10
80.461155198
 20
81.936754656
 30
0.0
 11
29.761205898
 21
81.936754656
 31
0.0
  0
TEXT
  5
A98
330
1F
100
AcDbEntity
  8
0
  6
CONTINUOUS
 62
     3
100
AcDbText
 10
26.96719496
 20
57.78065268
 30
0.0
 40
2.142854999999999
  1
１
 41
0.5
  7
KANJI1
100
AcDbText
  0
TEXT
  5
A99
330
1F
100
AcDbEntity
  8
0
  6
CONTINUOUS
 62
     3
100
AcDbText
 10
26.96719496
 20
55.06636968
 30
0.0
 40
2.142854999999999
  1
２
 41
0.5
  7
KANJI1
100
AcDbText
  0
TEXT
  5
A9A
330
1F
100
AcDbEntity
  8
0
  6
CONTINUOUS
 62
     3
100
AcDbText
 10
26.96719496
 20
52.63780067999999
 30
0.0
 40
2.142854999999999
  1
３
 41
0.5
  7
KANJI1
100
AcDbText
  0
TEXT
  5
A9B
330
1F
100
AcDbEntity
  8
0
  6
CONTINUOUS
 62
     3
100
AcDbText
 10
26.96719496
 20
50.06637468
 30
0.0
 40
2.142854999999999
  1
４
 41
0.5
  7
KANJI1
100
AcDbText
  0
TEXT
  5
A9C
330
1F
100
AcDbEntity
  8
0
  6
CONTINUOUS
 62
     3
100
AcDbText
 10
26.96719496
 20
47.49494868
 30
0.0
 40
2.142854999999999
  1
５
 41
0.5
  7
KANJI1
100
AcDbText
  0
TEXT
  5
A9D
330
1F
100
AcDbEntity
  8
0
  6
CONTINUOUS
 62
     3
100
AcDbText
 10
26.96719496
 20
44.92352268
 30
0.0
 40
2.142854999999999
  1
６
 41
0.5
  7
KANJI1
100
AcDbText
  0
TEXT
  5
A9E
330
1F
100
AcDbEntity
  8
0
  6
CONTINUOUS
 62
     3
100
AcDbText
 10
26.96719496
 20
42.49495368
 30
0.0
 40
2.142854999999999
  1
７
 41
0.5
  7
KANJI1
100
AcDbText
  0
LINE
  5
A9F
330
1F
100
AcDbEntity
  8
0
  6
CONTINUOUS
 62
     4
100
AcDbLine
 10
19.67005869999998
 20
56.8320822
 30
0.0
 11
18.95577369999998
 21
54.6892272
 31
0.0
  0
LINE
  5
AA0
330
1F
100
AcDbEntity
  8
0
  6
CONTINUOUS
 62
     4
100
AcDbLine
 10
20.3843437
 20
54.6892272
 30
0.0
 11
19.67005869999998
 21
56.8320822
 31
0.0
  0
LINE
  5
AA1
330
1F
100
AcDbEntity
  8
0
  6
CONTINUOUS
 62
     4
100
AcDbLine
 10
19.67005869999998
 20
45.23209379999999
 30
0.0
 11
18.95577369999998
 21
47.37494879999998
 31
0.0
  0
LINE
  5
AA2
330
1F
100
AcDbEntity
  8
0
  6
CONTINUOUS
 62
     4
100
AcDbLine
 10
20.3843437
 20
47.37494879999998
 30
0.0
 11
19.67005869999998
 21
45.23209379999999
 31
0.0
  0
LINE
  5
AA3
330
1F
100
AcDbEntity
  8
0
  6
CONTINUOUS
 62
     4
100
AcDbLine
 10
42.8700355
 20
32.23210679999999
 30
0.0
 11
45.01289049999999
 21
32.9463918
 31
0.0
  0
LINE
  5
AA4
330
1F
100
AcDbEntity
  8
0
  6
CONTINUOUS
 62
     4
100
AcDbLine
 10
45.01289049999999
 20
31.5178218
 30
0.0
 11
42.8700355
 21
32.23210679999999
 31
0.0
  0
LINE
  5
AA5
330
1F
100
AcDbEntity
  8
0
  6
CONTINUOUS
 62
     4
100
AcDbLine
 10
67.77001059999999
 20
32.23210679999999
 30
0.0
 11
65.6271556
 21
32.9463918
 31
0.0
  0
LINE
  5
AA6
330
1F
100
AcDbEntity
  8
0
  6
CONTINUOUS
 62
     4
100
AcDbLine
 10
65.6271556
 20
31.5178218
 30
0.0
 11
67.77001059999999
 21
32.23210679999999
 31
0.0
  0
LINE
  5
AA7
330
1F
100
AcDbEntity
  8
0
  6
CONTINUOUS
 62
     4
100
AcDbLine
 10
23.670012118
 20
111.700898924
 30
0.0
 11
21.52715711799999
 21
112.4151839239999
 31
0.0
  0
LINE
  5
AA8
330
1F
100
AcDbEntity
  8
0
  6
CONTINUOUS
 62
     4
100
AcDbLine
 10
21.52715711799999
 20
110.9866139239999
 30
0.0
 11
23.670012118
 21
111.700898924
 31
0.0
  0
LINE
  5
AA9
330
1F
100
AcDbEntity
  8
0
  6
CONTINUOUS
 62
     4
100
AcDbLine
 10
27.870007918
 20
111.700898924
 30
0.0
 11
30.012862918
 21
112.4151839239999
 31
0.0
  0
LINE
  5
AAA
330
1F
100
AcDbEntity
  8
0
  6
CONTINUOUS
 62
     4
100
AcDbLine
 10
30.012862918
 20
110.9866139239999
 30
0.0
 11
27.870007918
 21
111.700898924
 31
0.0
  0
LINE
  5
AAB
330
1F
100
AcDbEntity
  8
0
  6
CONTINUOUS
 62
     4
100
AcDbLine
 10
14.44122121799999
 20
106.700903924
 30
0.0
 11
13.72693621799998
 21
104.558048924
 31
0.0
  0
LINE
  5
AAC
330
1F
100
AcDbEntity
  8
0
  6
CONTINUOUS
 62
     4
100
AcDbLine
 10
15.155506218
 20
104.558048924
 30
0.0
 11
14.44122121799999
 21
106.700903924
 31
0.0
  0
LINE
  5
AAD
330
1F
100
AcDbEntity
  8
0
  6
CONTINUOUS
 62
     4
100
AcDbLine
 10
19.64121601799998
 20
100.700909924
 30
0.0
 11
18.926931018
 21
102.843764924
 31
0.0
  0
LINE
  5
AAE
330
1F
100
AcDbEntity
  8
0
  6
CONTINUOUS
 62
     4
100
AcDbLine
 10
20.35550101799997
 20
102.843764924
 30
0.0
 11
19.64121601799998
 21
100.700909924
 31
0.0
  0
LINE
  5
AAF
330
1F
100
AcDbEntity
  8
0
  6
CONTINUOUS
 62
     4
100
AcDbLine
 10
80.509324598
 20
81.840511633
 30
0.0
 11
78.36646959800001
 21
82.554796633
 31
0.0
  0
LINE
  5
AB0
330
1F
100
AcDbEntity
  8
0
  6
CONTINUOUS
 62
     4
100
AcDbLine
 10
78.36646959800001
 20
81.12622663299999
 30
0.0
 11
80.509324598
 21
81.840511633
 31
0.0
  0
LINE
  5
AB1
330
1F
100
AcDbEntity
  8
0
  6
CONTINUOUS
 62
     4
100
AcDbLine
 10
29.746920198
 20
81.936754656
 30
0.0
 11
31.889775198
 21
82.65103965600001
 31
0.0
  0
LINE
  5
AB2
330
1F
100
AcDbEntity
  8
0
  6
CONTINUOUS
 62
     4
100
AcDbLine
 10
31.889775198
 20
81.222469656
 30
0.0
 11
29.746920198
 21
81.936754656
 31
0.0
  0
TEXT
  5
AB3
330
1F
100
AcDbEntity
  8
0
  6
CONTINUOUS
 62
     4
100
AcDbText
 10
52.527902316
 20
82.48807990299998
 30
0.0
 40
3.571425
  1
５０.８
 41
0.5
  7
KANJI2
100
AcDbText
  0
TEXT
  5
AB4
330
1F
100
AcDbEntity
  8
0
  6
CONTINUOUS
 62
     4
100
AcDbText
 10
23.590012198
 20
112.3037554639999
 30
0.0
 40
3.571425
  1
４.２
 41
0.5
  7
KANJI2
100
AcDbText
  0
TEXT
  5
AB5
330
1F
100
AcDbEntity
  8
0
  6
CONTINUOUS
 62
     4
100
AcDbText
 10
52.84573981
 20
32.51782079999999
 30
0.0
 40
3.571425
  1
２５
 41
0.5
  7
KANJI2
100
AcDbText
  0
LINE
  5
AB6
330
1F
100
AcDbEntity
  8
0
  6
CONTINUOUS
 62
     4
100
AcDbLine
 10
25.77005259999999
 20
27.41782589999999
 30
0.0
 11
84.76999359999998
 21
27.41782589999999
 31
0.0
  0
LINE
  5
AB7
330
1F
100
AcDbEntity
  8
0
  6
CONTINUOUS
 62
     4
100
AcDbLine
 10
25.77005259999999
 20
27.41782589999999
 30
0.0
 11
27.9129076
 21
28.1321109
 31
0.0
  0
LINE
  5
AB8
330
1F
100
AcDbEntity
  8
0
  6
CONTINUOUS
 62
     4
100
AcDbLine
 10
27.9129076
 20
26.7035409
 30
0.0
 11
25.77005259999999
 21
27.41782589999999
 31
0.0
  0
LINE
  5
AB9
330
1F
100
AcDbEntity
  8
0
  6
CONTINUOUS
 62
     4
100
AcDbLine
 10
84.76999359999998
 20
27.41782589999999
 30
0.0
 11
82.62713859999998
 21
28.1321109
 31
0.0
  0
LINE
  5
ABA
330
1F
100
AcDbEntity
  8
0
  6
CONTINUOUS
 62
     4
100
AcDbLine
 10
82.62713859999998
 20
26.7035409
 30
0.0
 11
84.76999359999998
 21
27.41782589999999
 31
0.0
  0
TEXT
  5
ABB
330
1F
100
AcDbEntity
  8
0
  6
CONTINUOUS
 62
     4
100
AcDbText
 10
52.84573981
 20
27.5178258
 30
0.0
 40
3.571425
  1
５９
 41
0.5
  7
KANJI2
100
AcDbText
  0
LINE
  5
ABC
330
1F
100
AcDbEntity
  8
0
  6
CONTINUOUS
 62
     4
100
AcDbLine
 10
87.76999059999999
 20
23.0892588
 30
0.0
 11
22.7700556
 21
23.0892588
 31
0.0
  0
LINE
  5
ABD
330
1F
100
AcDbEntity
  8
0
  6
CONTINUOUS
 62
     4
100
AcDbLine
 10
22.7700556
 20
23.0892588
 30
0.0
 11
24.9129106
 21
23.80354379999999
 31
0.0
  0
LINE
  5
ABE
330
1F
100
AcDbEntity
  8
0
  6
CONTINUOUS
 62
     4
100
AcDbLine
 10
24.9129106
 20
22.3749738
 30
0.0
 11
22.7700556
 21
23.0892588
 31
0.0
  0
LINE
  5
ABF
330
1F
100
AcDbEntity
  8
0
  6
CONTINUOUS
 62
     4
100
AcDbLine
 10
87.76999059999999
 20
23.0892588
 30
0.0
 11
85.62713559999997
 21
23.80354379999999
 31
0.0
  0
LINE
  5
AC0
330
1F
100
AcDbEntity
  8
0
  6
CONTINUOUS
 62
     4
100
AcDbLine
 10
85.62713559999997
 20
22.3749738
 30
0.0
 11
87.76999059999999
 21
23.0892588
 31
0.0
  0
LINE
  5
AC1
330
1F
100
AcDbEntity
  8
0
  6
CONTINUOUS
 62
     4
100
AcDbLine
 10
87.76999059999999
 20
35.2321038
 30
0.0
 11
87.76999059999999
 21
22.58925929999999
 31
0.0
  0
LINE
  5
AC2
330
1F
100
AcDbEntity
  8
0
  6
CONTINUOUS
 62
     4
100
AcDbLine
 10
22.7700556
 20
22.58925929999999
 30
0.0
 11
22.7700556
 21
35.2321038
 31
0.0
  0
LINE
  5
AC3
330
1F
100
AcDbEntity
  8
0
  6
CONTINUOUS
 62
     4
100
AcDbLine
 10
25.77005259999999
 20
64.71207431999999
 30
0.0
 11
25.77005259999999
 21
26.317827
 31
0.0
  0
LINE
  5
AC4
330
1F
100
AcDbEntity
  8
0
  6
CONTINUOUS
 62
     4
100
AcDbLine
 10
84.76999359999998
 20
26.317827
 30
0.0
 11
84.76999359999998
 21
64.91207412
 31
0.0
  0
LINE
  5
AC5
330
1F
100
AcDbEntity
  8
0
  6
CONTINUOUS
 62
     4
100
AcDbLine
 10
6.924542093999995
 20
36.13727234599999
 30
0.0
 11
6.924542093999995
 21
65.737242746
 31
0.0
  0
LINE
  5
AC6
330
1F
100
AcDbEntity
  8
0
  6
CONTINUOUS
 62
     4
100
AcDbLine
 10
6.924542093999995
 20
65.737242746
 30
0.0
 11
6.210257094
 21
63.594387746
 31
0.0
  0
LINE
  5
AC7
330
1F
100
AcDbEntity
  8
0
  6
CONTINUOUS
 62
     4
100
AcDbLine
 10
7.638827093999997
 20
63.594387746
 30
0.0
 11
6.924542093999995
 21
65.737242746
 31
0.0
  0
LINE
  5
AC8
330
1F
100
AcDbEntity
  8
0
  6
CONTINUOUS
 62
     4
100
AcDbLine
 10
6.924542093999995
 20
36.13727234599999
 30
0.0
 11
6.210257094
 21
38.280127346
 31
0.0
  0
LINE
  5
AC9
330
1F
100
AcDbEntity
  8
0
  6
CONTINUOUS
 62
     4
100
AcDbLine
 10
7.638827093999997
 20
38.280127346
 30
0.0
 11
6.924542093999995
 21
36.13727234599999
 31
0.0
  0
TEXT
  5
ACA
330
1F
100
AcDbEntity
  8
0
  6
CONTINUOUS
 62
     4
100
AcDbText
 10
6.571685303999997
 20
45.85154834599999
 30
0.0
 40
3.571425
  1
２９.５
 50
90.0
 41
0.5
  7
KANJI2
100
AcDbText
  0
TEXT
  5
ACB
330
1F
100
AcDbEntity
  8
0
  6
CONTINUOUS
 62
     4
100
AcDbText
 10
18.67072034099998
 20
49.996416325
 30
0.0
 40
3.571425
  1
１２
 50
90.0
 41
0.5
  7
KANJI2
100
AcDbText
  0
LINE
  5
ACC
330
1F
100
AcDbEntity
  8
0
  6
CONTINUOUS
 62
     4
100
AcDbLine
 10
27.65576499999999
 20
62.5320765
 30
0.0
 11
9.848900852999998
 21
62.531097008
 31
0.0
  0
LINE
  5
ACD
330
1F
100
AcDbEntity
  8
0
  6
CONTINUOUS
 62
     4
100
AcDbLine
 10
9.795489547
 20
39.531325891
 30
0.0
 11
27.7557649
 21
39.5320995
 31
0.0
  0
LINE
  5
ACE
330
1F
100
AcDbEntity
  8
0
  6
CONTINUOUS
 62
     4
100
AcDbLine
 10
12.926141427
 20
62.478712591
 30
0.0
 11
12.926141427
 21
39.47873559099999
 31
0.0
  0
LINE
  5
ACF
330
1F
100
AcDbEntity
  8
0
  6
CONTINUOUS
 62
     4
100
AcDbLine
 10
12.926141427
 20
62.478712591
 30
0.0
 11
12.211856427
 21
60.33585759100001
 31
0.0
  0
LINE
  5
AD0
330
1F
100
AcDbEntity
  8
0
  6
CONTINUOUS
 62
     4
100
AcDbLine
 10
13.640426427
 20
60.33585759100001
 30
0.0
 11
12.926141427
 21
62.478712591
 31
0.0
  0
LINE
  5
AD1
330
1F
100
AcDbEntity
  8
0
  6
CONTINUOUS
 62
     4
100
AcDbLine
 10
12.926141427
 20
39.47873559099999
 30
0.0
 11
12.211856427
 21
41.621590591
 31
0.0
  0
LINE
  5
AD2
330
1F
100
AcDbEntity
  8
0
  6
CONTINUOUS
 62
     4
100
AcDbLine
 10
13.640426427
 20
41.621590591
 30
0.0
 11
12.926141427
 21
39.47873559099999
 31
0.0
  0
TEXT
  5
AD3
330
1F
100
AcDbEntity
  8
0
  6
CONTINUOUS
 62
     4
100
AcDbText
 10
12.318060789
 20
48.464440891
 30
0.0
 40
3.571425
  1
２３
 50
90.0
 41
0.5
  7
KANJI2
100
AcDbText
  0
LINE
  5
AD4
330
1F
100
AcDbEntity
  8
0
  6
CONTINUOUS
 62
     4
100
AcDbLine
 10
4.916240278
 20
65.82352005199999
 30
0.0
 11
21.84577081
 21
65.83207320000001
 31
0.0
  0
LINE
  5
AD5
330
1F
100
AcDbEntity
  8
0
  6
CONTINUOUS
 62
     4
100
AcDbLine
 10
21.84577081
 20
36.2321028
 30
0.0
 11
4.390218909999997
 21
36.247952325
 31
0.0
  0
TEXT
  5
AD6
330
1F
100
AcDbEntity
  8
0
  6
CONTINUOUS
 62
     4
100
AcDbText
 10
13.03279884099998
 20
99.62032331
 30
0.0
 40
3.571425
  1
８.５４
 50
90.0
 41
0.5
  7
KANJI2
100
AcDbText
  0
LINE
  5
AD7
330
1F
100
AcDbEntity
  8
0
  6
CONTINUOUS
 62
     4
100
AcDbLine
 10
81.235440138
 20
90.160920464
 30
0.0
 11
91.235430138
 21
90.160920464
 31
0.0
  0
LINE
  5
AD8
330
1F
100
AcDbEntity
  8
0
  6
CONTINUOUS
 62
     4
100
AcDbLine
 10
91.235430138
 20
96.44662846400001
 30
0.0
 11
88.378290138
 21
96.44662846400001
 31
0.0
  0
LINE
  5
AD9
330
1F
100
AcDbEntity
  8
0
  6
CONTINUOUS
 62
     4
100
AcDbLine
 10
90.37828813799999
 20
90.160920464
 30
0.0
 11
89.66400313799998
 21
92.30377546399995
 31
0.0
  0
LINE
  5
ADA
330
1F
100
AcDbEntity
  8
0
  6
CONTINUOUS
 62
     4
100
AcDbLine
 10
91.09257313799995
 20
92.30377546399995
 30
0.0
 11
90.37828813799999
 21
90.160920464
 31
0.0
  0
LINE
  5
ADB
330
1F
100
AcDbEntity
  8
0
  6
CONTINUOUS
 62
     4
100
AcDbLine
 10
90.37828813799999
 20
90.160920464
 30
0.0
 11
90.37828813799999
 21
96.44662846400001
 31
0.0
  0
LINE
  5
ADC
330
1F
100
AcDbEntity
  8
0
  6
CONTINUOUS
 62
     4
100
AcDbLine
 10
90.37828813799999
 20
96.44662846400001
 30
0.0
 11
89.66400313799998
 21
94.303773464
 31
0.0
  0
LINE
  5
ADD
330
1F
100
AcDbEntity
  8
0
  6
CONTINUOUS
 62
     4
100
AcDbLine
 10
91.09257313799995
 20
94.303773464
 30
0.0
 11
90.37828813799999
 21
96.44662846400001
 31
0.0
  0
LINE
  5
ADE
330
1F
100
AcDbEntity
  8
0
  6
CONTINUOUS
 62
     4
100
AcDbLine
 10
88.38543298799999
 20
98.16091246399999
 30
0.0
 11
91.24257298799999
 21
98.16091246399999
 31
0.0
  0
LINE
  5
ADF
330
1F
100
AcDbEntity
  8
0
  6
CONTINUOUS
 62
     4
100
AcDbLine
 10
90.37828813799999
 20
98.16091246399999
 30
0.0
 11
89.66400313799998
 21
100.3037674639999
 31
0.0
  0
LINE
  5
AE0
330
1F
100
AcDbEntity
  8
0
  6
CONTINUOUS
 62
     4
100
AcDbLine
 10
91.09257313799995
 20
100.3037674639999
 30
0.0
 11
90.37828813799999
 21
98.16091246399999
 31
0.0
  0
TEXT
  5
AE1
330
1F
100
AcDbEntity
  8
0
  6
CONTINUOUS
 62
     4
100
AcDbText
 10
89.814002988
 20
101.160909464
 30
0.0
 40
3.571425
  1
１.６
 50
90.0
 41
0.5
  7
KANJI2
100
AcDbText
  0
LINE
  5
AE3
330
1F
100
AcDbEntity
  8
0
  6
CONTINUOUS
 62
     4
100
AcDbLine
 10
13.841221818
 20
98.18821402399999
 30
0.0
 11
22.241213418
 21
98.18821402399999
 31
0.0
  0
LINE
  5
AE4
330
1F
100
AcDbEntity
  8
0
  6
CONTINUOUS
 62
     4
100
AcDbLine
 10
19.64121601799998
 20
98.18821402399999
 30
0.0
 11
19.660141262
 21
89.02454289799999
 31
0.0
  0
LINE
  5
AE5
330
1F
100
AcDbEntity
  8
0
  6
CONTINUOUS
 62
     4
100
AcDbLine
 10
14.44122121799999
 20
98.18821402399999
 30
0.0
 11
13.72693621799998
 21
100.3310690239999
 31
0.0
  0
LINE
  5
AE6
330
1F
100
AcDbEntity
  8
0
  6
CONTINUOUS
 62
     4
100
AcDbLine
 10
15.155506218
 20
100.3310690239999
 30
0.0
 11
14.44122121799999
 21
98.18821402399999
 31
0.0
  0
LINE
  5
AE7
330
1F
100
AcDbEntity
  8
0
  6
CONTINUOUS
 62
     4
100
AcDbLine
 10
19.64121601799998
 20
98.18821402399999
 30
0.0
 11
18.926931018
 21
96.045359024
 31
0.0
  0
LINE
  5
AE8
330
1F
100
AcDbEntity
  8
0
  6
CONTINUOUS
 62
     4
100
AcDbLine
 10
20.35550101799997
 20
96.045359024
 30
0.0
 11
19.64121601799998
 21
98.18821402399999
 31
0.0
  0
TEXT
  5
AE9
330
1F
100
AcDbEntity
  8
0
  6
CONTINUOUS
 62
     4
100
AcDbText
 10
17.98512231899998
 20
90.074118884
 30
0.0
 40
3.571425
  1
２.５４
 50
90.0
 41
0.5
  7
KANJI2
100
AcDbText
  0
LINE
  5
AEA
330
1F
100
AcDbEntity
  8
0
  6
CONTINUOUS
 62
     4
100
AcDbLine
 10
14.44122121799999
 20
106.700903924
 30
0.0
 11
14.44122121799999
 21
98.18821402399999
 31
0.0
  0
TEXT
  5
AEB
330
1F
100
AcDbEntity
  8
0
  6
CONTINUOUS
 62
     4
100
AcDbText
 10
52.84573981
 20
23.0892588
 30
0.0
 40
3.571425
  1
６４.５
 41
0.5
  7
KANJI2
100
AcDbText
  0
TEXT
  5
AEC
330
1F
100
AcDbEntity
  8
0
  6
CONTINUOUS
 62
     3
100
AcDbText
 10
64.6181804260406
 20
51.532087
 30
-0.1999998
 40
2.499997499999999
  1
ｍＶＡ゜Ｃ
  7
KANJI3
100
AcDbText
  0
LINE
  5
AED
330
1F
100
AcDbEntity
  8
0
  6
CONTINUOUS
 62
     3
100
AcDbLine
 10
79.26999909999998
 20
58.5320805
 30
-0.1999998
 11
79.26999909999998
 21
43.53209549999998
 31
-0.1999998
  0
TEXT
  5
AEE
330
1F
100
AcDbEntity
  8
0
  6
CONTINUOUS
 62
     4
100
AcDbText
 10
92.242571988
 20
83.73235646399999
 30
0.0
 40
3.571425
  1
６.９
 50
90.0
 41
0.5
  7
KANJI2
100
AcDbText
  0
TEXT
  5
AEF
330
1F
100
AcDbEntity
  8
0
  6
CONTINUOUS
 62
     4
100
AcDbText
 10
89.242571988
 20
83.73235646399999
 30
0.0
 40
3.571425
  1
ＭＡＸ
 50
90.0
 41
0.5
  7
KANJI2
100
AcDbText
  0
TEXT
  5
AF0
330
1F
100
AcDbEntity
  8
0
  6
CONTINUOUS
 62
     3
100
AcDbText
 10
64.6181804260406
 20
47.6320909
 30
-0.1999998
 40
2.499997499999999
  1
ＭＫΩ゜Ｆ
  7
KANJI3
100
AcDbText
  0
LINE
  5
AF1
330
1F
100
AcDbEntity
  8
0
  6
CONTINUOUS
 62
     3
100
AcDbLine
 10
133.3211313379995
 20
96.360914264
 30
-0.1999998
 11
133.3211313379995
 21
97.96091266399999
 31
-0.1999998
  0
LINE
  5
AF2
330
1F
100
AcDbEntity
  8
0
  6
CONTINUOUS
 62
     3
100
AcDbLine
 10
133.3211313379995
 20
97.96091266399999
 30
0.0
 11
103.7211609379999
 21
97.96091266399999
 31
0.0
  0
LINE
  5
AF3
330
1F
100
AcDbEntity
  8
0
  6
CONTINUOUS
 62
     3
100
AcDbLine
 10
103.7211609379999
 20
97.96091266399999
 30
0.0
 11
103.7211609379999
 21
96.360914264
 31
0.0
  0
LINE
  5
AF4
330
1F
100
AcDbEntity
  8
0
  6
CONTINUOUS
 62
     3
100
AcDbLine
 10
103.7211609379999
 20
96.360914264
 30
0.0
 11
133.3211313379995
 21
96.360914264
 31
0.0
  0
LINE
  5
AF5
330
1F
100
AcDbEntity
  8
0
  6
CONTINUOUS
 62
     3
100
AcDbLine
 10
127.5211371379999
 20
91.26091936399999
 30
0.0
 11
127.5211371379999
 21
90.160920464
 31
0.0
  0
LINE
  5
AF6
330
1F
100
AcDbEntity
  8
0
  6
CONTINUOUS
 62
     3
100
AcDbLine
 10
127.5211371379999
 20
90.160920464
 30
0.0
 11
109.521155138
 21
90.160920464
 31
0.0
  0
LINE
  5
AF7
330
1F
100
AcDbEntity
  8
0
  6
CONTINUOUS
 62
     3
100
AcDbLine
 10
109.521155138
 20
90.160920464
 30
0.0
 11
109.521155138
 21
91.26091936399999
 31
0.0
  0
LINE
  5
AF8
330
1F
100
AcDbEntity
  8
0
  6
CONTINUOUS
 62
     3
100
AcDbLine
 10
109.521155138
 20
91.26091936399999
 30
0.0
 11
106.5211581379998
 21
91.26091936399999
 31
0.0
  0
LINE
  5
AF9
330
1F
100
AcDbEntity
  8
0
  6
CONTINUOUS
 62
     3
100
AcDbLine
 10
106.5211581379998
 20
91.26091936399999
 30
0.0
 11
106.5211581379998
 21
92.36091826399999
 31
0.0
  0
LINE
  5
AFA
330
1F
100
AcDbEntity
  8
0
  6
CONTINUOUS
 62
     3
100
AcDbLine
 10
131.5211331379998
 20
94.360916264
 30
0.0
 11
131.5211331379998
 21
97.360913264
 31
0.0
  0
LINE
  5
AFB
330
1F
100
AcDbEntity
  8
0
  6
CONTINUOUS
 62
     3
100
AcDbLine
 10
108.021156638
 20
91.01091961399999
 30
0.0
 11
106.5211581379998
 21
91.01091961399999
 31
0.0
  0
ARC
  5
AFC
330
1F
100
AcDbEntity
  8
0
  6
CONTINUOUS
 62
     3
100
AcDbCircle
 10
106.5211581379998
 20
91.26091936399999
 30
0.0
 40
0.24999975
100
AcDbArc
 50
180.0
 51
270.0
  0
LINE
  5
AFD
330
1F
100
AcDbEntity
  8
0
  6
CONTINUOUS
 62
     3
100
AcDbLine
 10
106.5211581379998
 20
92.61091801399999
 30
0.0
 11
108.0611565979999
 21
92.61091801399999
 31
0.0
  0
LINE
  5
AFE
330
1F
100
AcDbEntity
  8
0
  6
CONTINUOUS
 62
     3
100
AcDbLine
 10
106.2711583879998
 20
91.26091936399999
 30
0.0
 11
106.2711583879998
 21
92.36091826399999
 31
0.0
  0
ARC
  5
AFF
330
1F
100
AcDbEntity
  8
0
  6
CONTINUOUS
 62
     3
100
AcDbCircle
 10
106.5211581379998
 20
92.36091826399999
 30
0.0
 40
0.24999975
100
AcDbArc
 50
90.0
 51
180.0
  0
LINE
  5
B00
330
1F
100
AcDbEntity
  8
0
  6
CONTINUOUS
 62
     3
100
AcDbLine
 10
108.021156638
 20
91.01091961399999
 30
0.0
 11
108.5211561379999
 21
90.810919814
 31
0.0
  0
LINE
  5
B01
330
1F
100
AcDbEntity
  8
0
  6
CONTINUOUS
 62
     3
100
AcDbLine
 10
108.0611565979999
 20
92.61091801399999
 30
0.0
 11
108.561156098
 21
92.81091781399996
 31
0.0
  0
LINE
  5
B02
330
1F
100
AcDbEntity
  8
0
  6
CONTINUOUS
 62
     3
100
AcDbLine
 10
108.561156098
 20
92.81091781399996
 30
0.0
 11
108.6511560079999
 21
92.56091806399996
 31
0.0
  0
LINE
  5
B03
330
1F
100
AcDbEntity
  8
0
  6
CONTINUOUS
 62
     3
100
AcDbLine
 10
108.5211561379999
 20
90.810919814
 30
0.0
 11
108.611156048
 21
91.060919564
 31
0.0
  0
LINE
  5
B04
330
1F
100
AcDbEntity
  8
0
  6
CONTINUOUS
 62
     3
100
AcDbLine
 10
108.111156548
 20
91.26091936399999
 30
0.0
 11
108.611156048
 21
91.060919564
 31
0.0
  0
LINE
  5
B05
330
1F
100
AcDbEntity
  8
0
  6
CONTINUOUS
 62
     3
100
AcDbLine
 10
108.1511565079999
 20
92.36091826399999
 30
0.0
 11
108.6511560079999
 21
92.56091806399996
 31
0.0
  0
LINE
  5
B06
330
1F
100
AcDbEntity
  8
0
  6
CONTINUOUS
 62
     3
100
AcDbLine
 10
105.391159268
 20
96.360914264
 30
0.0
 11
105.391159268
 21
93.557846136
 31
0.0
  0
LINE
  5
B07
330
1F
100
AcDbEntity
  8
0
  6
CONTINUOUS
 62
     3
100
AcDbLine
 10
105.456499021
 20
93.38932147799999
 30
0.0
 11
106.3311583279999
 21
92.430918194
 31
0.0
  0
ARC
  5
B08
330
1F
100
AcDbEntity
  8
0
  6
CONTINUOUS
 62
     3
100
AcDbCircle
 10
105.6411590179999
 20
93.557846136
 30
0.0
 40
0.24999975
100
AcDbArc
 50
180.0
 51
222.3842451249999
  0
LINE
  5
B09
330
1F
100
AcDbEntity
  8
0
  6
CONTINUOUS
 62
     3
100
AcDbLine
 10
105.6411590179999
 20
96.360914264
 30
0.0
 11
105.6411590179999
 21
93.600764272
 31
0.0
  0
LINE
  5
B0A
330
1F
100
AcDbEntity
  8
0
  6
CONTINUOUS
 62
     3
100
AcDbLine
 10
105.6685637219999
 20
93.531989876
 30
0.0
 11
106.541158118
 21
92.61091801399999
 31
0.0
  0
ARC
  5
B0B
330
1F
100
AcDbEntity
  8
0
  6
CONTINUOUS
 62
     3
100
AcDbCircle
 10
105.7411589179998
 20
93.600764272
 30
0.0
 40
0.0999999
100
AcDbArc
 50
180.0
 51
223.4518423009999
  0
LINE
  5
B0C
330
1F
100
AcDbEntity
  8
0
  6
CONTINUOUS
 62
     3
100
AcDbLine
 10
127.5211371379999
 20
91.26091936399999
 30
0.0
 11
130.5211341379998
 21
91.26091936399999
 31
0.0
  0
LINE
  5
B0D
330
1F
100
AcDbEntity
  8
0
  6
CONTINUOUS
 62
     3
100
AcDbLine
 10
130.5211341379998
 20
91.26091936399999
 30
0.0
 11
130.5211341379998
 21
92.36091826399999
 31
0.0
  0
LINE
  5
B0E
330
1F
100
AcDbEntity
  8
0
  6
CONTINUOUS
 62
     3
100
AcDbLine
 10
129.021135638
 20
91.01091961399999
 30
0.0
 11
130.5211341379998
 21
91.01091961399999
 31
0.0
  0
ARC
  5
B0F
330
1F
100
AcDbEntity
  8
0
  6
CONTINUOUS
 62
     3
100
AcDbCircle
 10
130.5211341379998
 20
91.26091936399999
 30
0.0
 40
0.24999975
100
AcDbArc
 50
270.0
 51
0.0
  0
LINE
  5
B10
330
1F
100
AcDbEntity
  8
0
  6
CONTINUOUS
 62
     3
100
AcDbLine
 10
130.5211341379998
 20
92.61091801399999
 30
0.0
 11
128.9811356779999
 21
92.61091801399999
 31
0.0
  0
LINE
  5
B11
330
1F
100
AcDbEntity
  8
0
  6
CONTINUOUS
 62
     3
100
AcDbLine
 10
130.7711338879998
 20
91.26091936399999
 30
0.0
 11
130.7711338879998
 21
92.36091826399999
 31
0.0
  0
ARC
  5
B12
330
1F
100
AcDbEntity
  8
0
  6
CONTINUOUS
 62
     3
100
AcDbCircle
 10
130.5211341379998
 20
92.36091826399999
 30
0.0
 40
0.24999975
100
AcDbArc
 50
0.0
 51
90.0
  0
LINE
  5
B13
330
1F
100
AcDbEntity
  8
0
  6
CONTINUOUS
 62
     3
100
AcDbLine
 10
129.021135638
 20
91.01091961399999
 30
0.0
 11
128.521136138
 21
90.810919814
 31
0.0
  0
LINE
  5
B14
330
1F
100
AcDbEntity
  8
0
  6
CONTINUOUS
 62
     3
100
AcDbLine
 10
128.9811356779999
 20
92.61091801399999
 30
0.0
 11
128.4811361779999
 21
92.81091781399996
 31
0.0
  0
LINE
  5
B15
330
1F
100
AcDbEntity
  8
0
  6
CONTINUOUS
 62
     3
100
AcDbLine
 10
128.4811361779999
 20
92.81091781399996
 30
0.0
 11
128.391136268
 21
92.56091806399996
 31
0.0
  0
LINE
  5
B16
330
1F
100
AcDbEntity
  8
0
  6
CONTINUOUS
 62
     3
100
AcDbLine
 10
128.521136138
 20
90.810919814
 30
0.0
 11
128.4311362279999
 21
91.060919564
 31
0.0
  0
LINE
  5
B17
330
1F
100
AcDbEntity
  8
0
  6
CONTINUOUS
 62
     3
100
AcDbLine
 10
128.9311357279999
 20
91.26091936399999
 30
0.0
 11
128.4311362279999
 21
91.060919564
 31
0.0
  0
LINE
  5
B18
330
1F
100
AcDbEntity
  8
0
  6
CONTINUOUS
 62
     3
100
AcDbLine
 10
128.8911357679997
 20
92.36091826399999
 30
0.0
 11
128.391136268
 21
92.56091806399996
 31
0.0
  0
LINE
  5
B19
330
1F
100
AcDbEntity
  8
0
  6
CONTINUOUS
 62
     3
100
AcDbLine
 10
131.6511330079999
 20
96.360914264
 30
0.0
 11
131.6511330079999
 21
93.557846136
 31
0.0
  0
LINE
  5
B1A
330
1F
100
AcDbEntity
  8
0
  6
CONTINUOUS
 62
     3
100
AcDbLine
 10
131.5857932549999
 20
93.38932147799999
 30
0.0
 11
130.711133948
 21
92.430918194
 31
0.0
  0
ARC
  5
B1B
330
1F
100
AcDbEntity
  8
0
  6
CONTINUOUS
 62
     3
100
AcDbCircle
 10
131.4011332579999
 20
93.557846136
 30
0.0
 40
0.24999975
100
AcDbArc
 50
317.615754875
 51
0.0
  0
LINE
  5
B1C
330
1F
100
AcDbEntity
  8
0
  6
CONTINUOUS
 62
     3
100
AcDbLine
 10
131.4011332579999
 20
96.360914264
 30
0.0
 11
131.4011332579999
 21
93.600764272
 31
0.0
  0
LINE
  5
B1D
330
1F
100
AcDbEntity
  8
0
  6
CONTINUOUS
 62
     3
100
AcDbLine
 10
131.373728554
 20
93.531989876
 30
0.0
 11
130.5011341579999
 21
92.61091801399999
 31
0.0
  0
ARC
  5
B1E
330
1F
100
AcDbEntity
  8
0
  6
CONTINUOUS
 62
     3
100
AcDbCircle
 10
131.3011333579999
 20
93.600764272
 30
0.0
 40
0.0999999
100
AcDbArc
 50
316.5481576989999
 51
0.0
  0
LINE
  5
B1F
330
1F
100
AcDbEntity
  8
0
  6
CONTINUOUS
 62
     3
100
AcDbLine
 10
130.5211341379998
 20
92.36091826399999
 30
0.0
 11
106.5211581379998
 21
92.36091826399999
 31
0.0
  0
LINE
  5
B20
330
1F
100
AcDbEntity
  8
0
  6
CONTINUOUS
 62
     3
100
AcDbLine
 10
109.621155038
 20
97.96091266399999
 30
0.0
 11
109.621155038
 21
100.5009101239999
 31
0.0
  0
LINE
  5
B21
330
1F
100
AcDbEntity
  8
0
  6
CONTINUOUS
 62
     3
100
AcDbLine
 10
109.621155038
 20
100.5009101239999
 30
0.0
 11
127.4211372379999
 21
100.5009101239999
 31
0.0
  0
LINE
  5
B22
330
1F
100
AcDbEntity
  8
0
  6
CONTINUOUS
 62
     3
100
AcDbLine
 10
127.4211372379999
 20
100.5009101239999
 30
0.0
 11
127.4211372379999
 21
97.96091266399999
 31
0.0
  0
LINE
  5
B23
330
1F
100
AcDbEntity
  8
0
  6
CONTINUOUS
 62
     3
100
AcDbLine
 10
118.2211464379999
 20
100.5009101239999
 30
0.0
 11
118.2211464379999
 21
106.5009041239999
 31
0.0
  0
LINE
  5
B24
330
1F
100
AcDbEntity
  8
0
  6
CONTINUOUS
 62
     3
100
AcDbLine
 10
118.2211464379999
 20
106.5009041239999
 30
0.0
 11
118.8211458379998
 21
106.5009041239999
 31
0.0
  0
LINE
  5
B25
330
1F
100
AcDbEntity
  8
0
  6
CONTINUOUS
 62
     3
100
AcDbLine
 10
118.8211458379998
 20
106.5009041239999
 30
0.0
 11
118.8211458379998
 21
100.5009101239999
 31
0.0
  0
LINE
  5
B26
330
1F
100
AcDbEntity
  8
0
  6
CONTINUOUS
 62
     3
100
AcDbLine
 10
121.3611432979998
 20
100.5009101239999
 30
0.0
 11
121.3611432979998
 21
106.5009041239999
 31
0.0
  0
LINE
  5
B27
330
1F
100
AcDbEntity
  8
0
  6
CONTINUOUS
 62
     3
100
AcDbLine
 10
121.3611432979998
 20
106.5009041239999
 30
0.0
 11
120.7611438979999
 21
106.5009041239999
 31
0.0
  0
LINE
  5
B28
330
1F
100
AcDbEntity
  8
0
  6
CONTINUOUS
 62
     3
100
AcDbLine
 10
120.7611438979999
 20
106.5009041239999
 30
0.0
 11
120.7611438979999
 21
100.5009101239999
 31
0.0
  0
LINE
  5
B29
330
1F
100
AcDbEntity
  8
0
  6
CONTINUOUS
 62
     3
100
AcDbLine
 10
123.901140758
 20
100.5009101239999
 30
0.0
 11
123.901140758
 21
106.5009041239999
 31
0.0
  0
LINE
  5
B2A
330
1F
100
AcDbEntity
  8
0
  6
CONTINUOUS
 62
     3
100
AcDbLine
 10
123.901140758
 20
106.5009041239999
 30
0.0
 11
123.3011413579997
 21
106.5009041239999
 31
0.0
  0
LINE
  5
B2B
330
1F
100
AcDbEntity
  8
0
  6
CONTINUOUS
 62
     3
100
AcDbLine
 10
123.3011413579997
 20
106.5009041239999
 30
0.0
 11
123.3011413579997
 21
100.5009101239999
 31
0.0
  0
LINE
  5
B2C
330
1F
100
AcDbEntity
  8
0
  6
CONTINUOUS
 62
     3
100
AcDbLine
 10
126.441138218
 20
100.5009101239999
 30
0.0
 11
126.441138218
 21
106.5009041239999
 31
0.0
  0
LINE
  5
B2D
330
1F
100
AcDbEntity
  8
0
  6
CONTINUOUS
 62
     3
100
AcDbLine
 10
126.441138218
 20
106.5009041239999
 30
0.0
 11
125.8411388179998
 21
106.5009041239999
 31
0.0
  0
LINE
  5
B2E
330
1F
100
AcDbEntity
  8
0
  6
CONTINUOUS
 62
     3
100
AcDbLine
 10
125.8411388179998
 20
106.5009041239999
 30
0.0
 11
125.8411388179998
 21
100.5009101239999
 31
0.0
  0
LINE
  5
B2F
330
1F
100
AcDbEntity
  8
0
  6
CONTINUOUS
 62
     3
100
AcDbLine
 10
116.281148378
 20
100.5009101239999
 30
0.0
 11
116.281148378
 21
106.5009041239999
 31
0.0
  0
LINE
  5
B30
330
1F
100
AcDbEntity
  8
0
  6
CONTINUOUS
 62
     3
100
AcDbLine
 10
116.281148378
 20
106.5009041239999
 30
0.0
 11
115.6811489779999
 21
106.5009041239999
 31
0.0
  0
LINE
  5
B31
330
1F
100
AcDbEntity
  8
0
  6
CONTINUOUS
 62
     3
100
AcDbLine
 10
115.6811489779999
 20
106.5009041239999
 30
0.0
 11
115.6811489779999
 21
100.5009101239999
 31
0.0
  0
LINE
  5
B32
330
1F
100
AcDbEntity
  8
0
  6
CONTINUOUS
 62
     3
100
AcDbLine
 10
113.7411509179999
 20
100.5009101239999
 30
0.0
 11
113.7411509179999
 21
106.5009041239999
 31
0.0
  0
LINE
  5
B33
330
1F
100
AcDbEntity
  8
0
  6
CONTINUOUS
 62
     3
100
AcDbLine
 10
113.7411509179999
 20
106.5009041239999
 30
0.0
 11
113.1411515179999
 21
106.5009041239999
 31
0.0
  0
LINE
  5
B34
330
1F
100
AcDbEntity
  8
0
  6
CONTINUOUS
 62
     3
100
AcDbLine
 10
113.1411515179999
 20
106.5009041239999
 30
0.0
 11
113.1411515179999
 21
100.5009101239999
 31
0.0
  0
LINE
  5
B35
330
1F
100
AcDbEntity
  8
0
  6
CONTINUOUS
 62
     3
100
AcDbLine
 10
111.2011534579998
 20
100.5009101239999
 30
0.0
 11
111.2011534579998
 21
106.5009041239999
 31
0.0
  0
LINE
  5
B36
330
1F
100
AcDbEntity
  8
0
  6
CONTINUOUS
 62
     3
100
AcDbLine
 10
111.2011534579998
 20
106.5009041239999
 30
0.0
 11
110.6011540579998
 21
106.5009041239999
 31
0.0
  0
LINE
  5
B37
330
1F
100
AcDbEntity
  8
0
  6
CONTINUOUS
 62
     3
100
AcDbLine
 10
110.6011540579998
 20
106.5009041239999
 30
0.0
 11
110.6011540579998
 21
100.5009101239999
 31
0.0
  0
LINE
  5
B38
330
1F
100
AcDbEntity
  8
0
  6
CONTINUOUS
 62
     4
100
AcDbLine
 10
109.621155038
 20
103.808049674
 30
0.0
 11
109.621155038
 21
120.8080326739999
 31
0.0
  0
LINE
  5
B39
330
1F
100
AcDbEntity
  8
0
  6
CONTINUOUS
 62
     4
100
AcDbLine
 10
127.4211372379999
 20
120.8080326739999
 30
0.0
 11
127.4211372379999
 21
103.808049674
 31
0.0
  0
LINE
  5
B3A
330
1F
100
AcDbEntity
  8
0
  6
CONTINUOUS
 62
     4
100
AcDbLine
 10
110.901153758
 20
107.3580461239999
 30
0.0
 11
110.901153758
 21
116.3580371239999
 31
0.0
  0
LINE
  5
B3B
330
1F
100
AcDbEntity
  8
0
  6
CONTINUOUS
 62
     4
100
AcDbLine
 10
109.621155038
 20
120.308033174
 30
0.0
 11
127.4211372379999
 21
120.308033174
 31
0.0
  0
LINE
  5
B3C
330
1F
100
AcDbEntity
  8
0
  6
CONTINUOUS
 62
     4
100
AcDbLine
 10
126.143995658
 20
116.3580371239999
 30
0.0
 11
126.143995658
 21
107.3580461239999
 31
0.0
  0
LINE
  5
B3D
330
1F
100
AcDbEntity
  8
0
  6
CONTINUOUS
 62
     4
100
AcDbLine
 10
109.621155038
 20
120.308033174
 30
0.0
 11
111.764010038
 21
119.5937481739999
 31
0.0
  0
LINE
  5
B3E
330
1F
100
AcDbEntity
  8
0
  6
CONTINUOUS
 62
     4
100
AcDbLine
 10
111.764010038
 20
121.0223181739999
 30
0.0
 11
109.621155038
 21
120.308033174
 31
0.0
  0
LINE
  5
B3F
330
1F
100
AcDbEntity
  8
0
  6
CONTINUOUS
 62
     4
100
AcDbLine
 10
127.4211372379999
 20
120.308033174
 30
0.0
 11
125.2782822379999
 21
119.5937481739999
 31
0.0
  0
LINE
  5
B40
330
1F
100
AcDbEntity
  8
0
  6
CONTINUOUS
 62
     4
100
AcDbLine
 10
125.2782822379999
 20
121.0223181739999
 30
0.0
 11
127.4211372379999
 21
120.308033174
 31
0.0
  0
LINE
  5
B41
330
1F
100
AcDbEntity
  8
0
  6
CONTINUOUS
 62
     4
100
AcDbLine
 10
113.7411509179999
 20
107.2151891239998
 30
0.0
 11
113.7411509179999
 21
110.7866141239999
 31
0.0
  0
LINE
  5
B42
330
1F
100
AcDbEntity
  8
0
  6
CONTINUOUS
 62
     4
100
AcDbLine
 10
113.169722918
 20
110.7866141239999
 30
0.0
 11
113.169722918
 21
107.2151891239998
 31
0.0
  0
LINE
  5
B43
330
1F
100
AcDbEntity
  8
0
  6
CONTINUOUS
 62
     4
100
AcDbLine
 10
113.7411509179999
 20
109.7866151239998
 30
0.0
 11
118.026860918
 21
109.7866151239998
 31
0.0
  0
LINE
  5
B44
330
1F
100
AcDbEntity
  8
0
  6
CONTINUOUS
 62
     4
100
AcDbLine
 10
113.7411509179999
 20
109.7866151239998
 30
0.0
 11
115.8840059179998
 21
109.0723301239999
 31
0.0
  0
LINE
  5
B45
330
1F
100
AcDbEntity
  8
0
  6
CONTINUOUS
 62
     4
100
AcDbLine
 10
115.8840059179998
 20
110.500900124
 30
0.0
 11
113.7411509179999
 21
109.7866151239998
 31
0.0
  0
LINE
  5
B46
330
1F
100
AcDbEntity
  8
0
  6
CONTINUOUS
 62
     4
100
AcDbLine
 10
113.169722918
 20
109.7866151239998
 30
0.0
 11
111.026867918
 21
109.0723301239999
 31
0.0
  0
LINE
  5
B47
330
1F
100
AcDbEntity
  8
0
  6
CONTINUOUS
 62
     4
100
AcDbLine
 10
111.026867918
 20
110.500900124
 30
0.0
 11
113.169722918
 21
109.7866151239998
 31
0.0
  0
LINE
  5
B48
330
1F
100
AcDbEntity
  8
0
  6
CONTINUOUS
 62
     4
100
AcDbLine
 10
110.901153758
 20
113.8580376239999
 30
0.0
 11
126.143995658
 21
113.8580376239999
 31
0.0
  0
LINE
  5
B49
330
1F
100
AcDbEntity
  8
0
  6
CONTINUOUS
 62
     4
100
AcDbLine
 10
124.001140658
 20
113.1580383239999
 30
0.0
 11
126.143995658
 21
113.8723233239998
 31
0.0
  0
LINE
  5
B4A
330
1F
100
AcDbEntity
  8
0
  6
CONTINUOUS
 62
     4
100
AcDbLine
 10
126.143995658
 20
113.8723233239998
 30
0.0
 11
124.001140658
 21
114.586608324
 31
0.0
  0
LINE
  5
B4B
330
1F
100
AcDbEntity
  8
0
  6
CONTINUOUS
 62
     4
100
AcDbLine
 10
110.901153758
 20
113.8580376239999
 30
0.0
 11
113.044008758
 21
113.143752624
 31
0.0
  0
LINE
  5
B4C
330
1F
100
AcDbEntity
  8
0
  6
CONTINUOUS
 62
     4
100
AcDbLine
 10
113.044008758
 20
114.5723226239999
 30
0.0
 11
110.901153758
 21
113.8580376239999
 31
0.0
  0
TEXT
  5
B4D
330
1F
100
AcDbEntity
  8
0
  6
CONTINUOUS
 62
     4
100
AcDbText
 10
111.4497163379999
 20
114.893742874
 30
0.0
 40
3.571425
  1
Ｐ＝２.５４×６
 41
0.5
  7
KANJI2
100
AcDbText
  0
TEXT
  5
B4E
330
1F
100
AcDbEntity
  8
0
  6
CONTINUOUS
 62
     4
100
AcDbText
 10
114.035428338
 20
121.1794618739999
 30
0.0
 40
3.571425
  1
１７.７８
 41
0.5
  7
KANJI2
100
AcDbText
  0
TEXT
  5
B4F
330
1F
100
AcDbEntity
  8
0
  6
CONTINUOUS
 62
     4
100
AcDbText
 10
99.54683939799997
 20
110.5554142659999
 30
0.0
 40
3.571425
  1
０.６４
 41
0.5
  7
KANJI2
100
AcDbText
  0
LINE
  5
B50
330
1F
100
AcDbEntity
  8
0
  6
CONTINUOUS
 62
     4
100
AcDbLine
 10
113.169722918
 20
109.7866151239998
 30
0.0
 11
98.26016300799999
 21
109.7480388379999
 31
0.0
  0
LINE
  5
B51
330
1F
100
AcDbEntity
  8
0
  6
CONTINUOUS
 62
     4
100
AcDbLine
 10
130.6011340579999
 20
81.200925424
 30
0.0
 11
130.6011340579999
 21
89.70092092399997
 31
0.0
  0
LINE
  5
B52
330
1F
100
AcDbEntity
  8
0
  6
CONTINUOUS
 62
     4
100
AcDbLine
 10
106.5011581579998
 20
89.70092092399997
 30
0.0
 11
106.5011581579998
 21
81.200925424
 31
0.0
  0
LINE
  5
B53
330
1F
100
AcDbEntity
  8
0
  6
CONTINUOUS
 62
     4
100
AcDbLine
 10
106.5011581579998
 20
82.20092542399999
 30
0.0
 11
130.6011340579999
 21
82.20092542399999
 31
0.0
  0
LINE
  5
B54
330
1F
100
AcDbEntity
  8
0
  6
CONTINUOUS
 62
     4
100
AcDbLine
 10
130.6011340579999
 20
82.20092542399999
 30
0.0
 11
128.4582790579999
 21
81.486640424
 31
0.0
  0
LINE
  5
B55
330
1F
100
AcDbEntity
  8
0
  6
CONTINUOUS
 62
     4
100
AcDbLine
 10
128.4582790579999
 20
82.91521042399997
 30
0.0
 11
130.6011340579999
 21
82.20092542399999
 31
0.0
  0
LINE
  5
B56
330
1F
100
AcDbEntity
  8
0
  6
CONTINUOUS
 62
     4
100
AcDbLine
 10
106.5011581579998
 20
82.20092542399999
 30
0.0
 11
108.6440131579998
 21
81.486640424
 31
0.0
  0
LINE
  5
B57
330
1F
100
AcDbEntity
  8
0
  6
CONTINUOUS
 62
     4
100
AcDbLine
 10
108.6440131579998
 20
82.91521042399997
 30
0.0
 11
106.5011581579998
 21
82.20092542399999
 31
0.0
  0
TEXT
  5
B58
330
1F
100
AcDbEntity
  8
0
  6
CONTINUOUS
 62
     4
100
AcDbText
 10
116.0354263379997
 20
83.46521187399995
 30
0.0
 40
3.571425
  1
２４.１
 41
0.5
  7
KANJI2
100
AcDbText
  0
LINE
  5
B59
330
1F
100
AcDbEntity
  8
0
  6
CONTINUOUS
 62
     4
100
AcDbLine
 10
23.670015118
 20
111.700898924
 30
0.0
 11
30.870004918
 21
111.700898924
 31
0.0
  0
LINE
  5
B5A
330
1F
100
AcDbEntity
  8
0
  6
CONTINUOUS
 62
     4
100
AcDbLine
 10
19.64121601799998
 20
98.18821402399999
 30
0.0
 11
19.64121601799998
 21
103.700906924
 31
0.0
  0
LINE
  5
B5B
330
1F
100
AcDbEntity
  8
0
  6
CONTINUOUS
 62
     4
100
AcDbLine
 10
90.37828813799999
 20
96.44662846400001
 30
0.0
 11
90.37828813799999
 21
102.875193464
 31
0.0
  0
ENDSEC
  0
SECTION
  2
OBJECTS
  0
DICTIONARY
  5
C
330
0
100
AcDbDictionary
  3
ACAD_COLOR
350
6C
  3
ACAD_GROUP
350
D
  3
ACAD_LAYOUT
350
1A
  3
ACAD_MATERIAL
350
6B
  3
ACAD_MLEADERSTYLE
350
BB0
  3
ACAD_MLINESTYLE
350
17
  3
ACAD_PLOTSETTINGS
350
19
  3
ACAD_SCALELIST
350
99
  3
ACAD_TABLESTYLE
350
92
  3
ACDBHEADERROUNDTRIPXREC
350
B90
  3
ACDBVARIABLEDICTIONARY
350
59
  3
DWGPROPS
350
BB3
  0
DICTIONARY
  5
6C
102
{ACAD_REACTORS
330
C
102
}
330
C
100
AcDbDictionary
  0
DICTIONARY
  5
D
102
{ACAD_REACTORS
330
C
102
}
330
C
100
AcDbDictionary
  0
DICTIONARY
  5
1A
102
{ACAD_REACTORS
330
C
102
}
330
C
100
AcDbDictionary
  0
DICTIONARY
  5
6B
102
{ACAD_REACTORS
330
C
102
}
330
C
100
AcDbDictionary
  0
DICTIONARY
  5
BB0
102
{ACAD_REACTORS
330
C
102
}
330
C
100
AcDbDictionary
  0
DICTIONARY
  5
17
102
{ACAD_REACTORS
330
C
102
}
330
C
100
AcDbDictionary
  3
STANDARD
350
18
  0
DICTIONARY
  5
19
102
{ACAD_REACTORS
330
C
102
}
330
C
100
AcDbDictionary
  0
DICTIONARY
  5
99
102
{ACAD_REACTORS
330
C
102
}
330
C
100
AcDbDictionary
  3
A0
350
B68
  3
A1
350
B69
  3
A2
350
B6A
  3
A3
350
B6B
  3
A4
350
B6C
  3
A5
350
B6D
  3
A6
350
B6E
  3
A7
350
B6F
  3
A8
350
B70
  3
A9
350
B71
  3
B0
350
B72
  3
B1
350
B73
  3
B2
350
B74
  3
B3
350
B75
  3
B4
350
B76
  3
B5
350
B77
  3
B6
350
B78
  3
B7
350
B79
  3
B8
350
B7A
  3
B9
350
B7B
  3
C0
350
B7C
  3
C1
350
B7D
  3
C2
350
B7E
  3
C3
350
B7F
  3
C4
350
B80
  3
C5
350
B81
  3
C6
350
B82
  3
C7
350
B83
  3
C8
350
B84
  3
C9
350
B85
  3
D0
350
B86
  3
D1
350
B87
  3
D2
350
B88
  0
DICTIONARY
  5
92
102
{ACAD_REACTORS
330
C
102
}
330
C
100
AcDbDictionary
  0
DICTIONARY
  5
B90
102
{ACAD_REACTORS
330
C
102
}
330
C
100
AcDbDictionary
  3
CEPSNTYPE
350
B99
  3
COLORDICT
350
BB1
  3
DIMSTYLEDATA
350
BAF
  3
FINGERPRINTGUID
350
B9A
  3
HYPERLINKBASE
350
B93
  3
INSUNITS
350
B98
  3
LAYOUTDICT
350
B95
  3
LWETCUNION
350
B97
  3
MATERIALDICT
350
BB2
  3
PLOTSETDICT
350
B96
  3
PSVPSCALE
350
B9C
  3
PUCSBASE
350
B9F
  3
PUCSORGBACK
350
BA5
  3
PUCSORGBOTTOM
350
BA1
  3
PUCSORGFRONT
350
BA4
  3
PUCSORGLEFT
350
BA2
  3
PUCSORGRIGHT
350
BA3
  3
PUCSORGTOP
350
BA0
  3
PUCSORTHOREF
350
B9D
  3
PUCSORTHOVIEW
350
B9E
  3
STYLESHEET
350
B94
  3
TSTACKALIGN
350
B91
  3
TSTACKSIZE
350
B92
  3
UCSBASE
350
BA8
  3
UCSORGBACK
350
BAE
  3
UCSORGBOTTOM
350
BAA
  3
UCSORGFRONT
350
BAD
  3
UCSORGLEFT
350
BAB
  3
UCSORGRIGHT
350
BAC
  3
UCSORGTOP
350
BA9
  3
UCSORTHOREF
350
BA6
  3
UCSORTHOVIEW
350
BA7
  3
VERSIONGUID
350
B9B
  0
DICTIONARY
  5
59
102
{ACAD_REACTORS
330
C
102
}
330
C
100
AcDbDictionary
  3
CTABLESTYLE
350
98
  3
DIMASSOC
350
5A
  3
HIDETEXT
350
5E
  0
XRECORD
  5
BB3
102
{ACAD_REACTORS
330
C
102
}
330
C
100
AcDbXrecord
  1
DWGPROPS COOKIE
  2

  3

  4

  6

  7

  8
satonaoaki
  9

300
=
301
=
302
=
303
=
304
=
305
=
306
=
307
=
308
=
309
=
 40
0.0
 41
2452152.47454382
 42
2459017.340994838
  1

 90
        0
  0
MLINESTYLE
  5
18
102
{ACAD_REACTORS
330
17
102
}
330
17
100
AcDbMlineStyle
  2
STANDARD
 70
     0
  3

 62
   256
 51
90.0
 52
90.0
 71
     2
 49
0.5
 62
   256
  6
BYLAYER
 49
-0.5
 62
   256
  6
BYLAYER
  0
ACAD_PROXY_OBJECT
  5
B68
102
{ACAD_REACTORS
330
99
102
}
330
99
100
AcDbProxyObject
 90
      499
 91
      505
 93
       41
310
903313A31580
  0
ACAD_PROXY_OBJECT
  5
B69
102
{ACAD_REACTORS
330
99
102
}
330
99
100
AcDbProxyObject
 90
      499
 91
      505
 93
      105
310
903313A324000000000000004000
  0
ACAD_PROXY_OBJECT
  5
B6A
102
{ACAD_REACTORS
330
99
102
}
330
99
100
AcDbProxyObject
 90
      499
 91
      505
 93
      105
310
903313A344000000000000104000
  0
ACAD_PROXY_OBJECT
  5
B6B
102
{ACAD_REACTORS
330
99
102
}
330
99
100
AcDbProxyObject
 90
      499
 91
      505
 93
      105
310
903313A354000000000000144000
  0
ACAD_PROXY_OBJECT
  5
B6C
102
{ACAD_REACTORS
330
99
102
}
330
99
100
AcDbProxyObject
 90
      499
 91
      505
 93
      105
310
903313A384000000000000204000
  0
ACAD_PROXY_OBJECT
  5
B6D
102
{ACAD_REACTORS
330
99
102
}
330
99
100
AcDbProxyObject
 90
      499
 91
      505
 93
      113
310
904313A31304000000000000244000
  0
ACAD_PROXY_OBJECT
  5
B6E
102
{ACAD_REACTORS
330
99
102
}
330
99
100
AcDbProxyObject
 90
      499
 91
      505
 93
      113
310
904313A31364000000000000304000
  0
ACAD_PROXY_OBJECT
  5
B6F
102
{ACAD_REACTORS
330
99
102
}
330
99
100
AcDbProxyObject
 90
      499
 91
      505
 93
      113
310
904313A32304000000000000344000
  0
ACAD_PROXY_OBJECT
  5
B70
102
{ACAD_REACTORS
330
99
102
}
330
99
100
AcDbProxyObject
 90
      499
 91
      505
 93
      113
310
904313A333040000000000003E4000
  0
ACAD_PROXY_OBJECT
  5
B71
102
{ACAD_REACTORS
330
99
102
}
330
99
100
AcDbProxyObject
 90
      499
 91
      505
 93
      113
310
904313A34304000000000000444000
  0
ACAD_PROXY_OBJECT
  5
B72
102
{ACAD_REACTORS
330
99
102
}
330
99
100
AcDbProxyObject
 90
      499
 91
      505
 93
      113
310
904313A35304000000000000494000
  0
ACAD_PROXY_OBJECT
  5
B73
102
{ACAD_REACTORS
330
99
102
}
330
99
100
AcDbProxyObject
 90
      499
 91
      505
 93
      121
310
905313A3130304000000000000594000
  0
ACAD_PROXY_OBJECT
  5
B74
102
{ACAD_REACTORS
330
99
102
}
330
99
100
AcDbProxyObject
 90
      499
 91
      505
 93
      105
310
903323A310000000000000010100
  0
ACAD_PROXY_OBJECT
  5
B75
102
{ACAD_REACTORS
330
99
102
}
330
99
100
AcDbProxyObject
 90
      499
 91
      505
 93
      105
310
903343A310000000000000410100
  0
ACAD_PROXY_OBJECT
  5
B76
102
{ACAD_REACTORS
330
99
102
}
330
99
100
AcDbProxyObject
 90
      499
 91
      505
 93
      105
310
903383A310000000000000810100
  0
ACAD_PROXY_OBJECT
  5
B77
102
{ACAD_REACTORS
330
99
102
}
330
99
100
AcDbProxyObject
 90
      499
 91
      505
 93
      113
310
90431303A310000000000000910100
  0
ACAD_PROXY_OBJECT
  5
B78
102
{ACAD_REACTORS
330
99
102
}
330
99
100
AcDbProxyObject
 90
      499
 91
      505
 93
      121
310
9053130303A310000000000001650100
  0
ACAD_PROXY_OBJECT
  5
B79
102
{ACAD_REACTORS
330
99
102
}
330
99
100
AcDbProxyObject
 90
      499
 91
      505
 93
      257
310
90E312F31323822203D2031272D3022000000000000200FC000000000000284000
  0
ACAD_PROXY_OBJECT
  5
B7A
102
{ACAD_REACTORS
330
99
102
}
330
99
100
AcDbProxyObject
 90
      499
 91
      505
 93
      249
310
90D312F363422203D2031272D3022000000000000240FC000000000000284000
  0
ACAD_PROXY_OBJECT
  5
B7B
102
{ACAD_REACTORS
330
99
102
}
330
99
100
AcDbProxyObject
 90
      499
 91
      505
 93
      249
310
90D312F333222203D2031272D3022000000000000280FC000000000000284000
  0
ACAD_PROXY_OBJECT
  5
B7C
102
{ACAD_REACTORS
330
99
102
}
330
99
100
AcDbProxyObject
 90
      499
 91
      505
 93
      249
310
90D312F313622203D2031272D30220000000000002C0FC000000000000284000
  0
ACAD_PROXY_OBJECT
  5
B7D
102
{ACAD_REACTORS
330
99
102
}
330
99
100
AcDbProxyObject
 90
      499
 91
      505
 93
      249
310
90D332F333222203D2031272D30220000000000002E0FC000000000000284000
  0
ACAD_PROXY_OBJECT
  5
B7E
102
{ACAD_REACTORS
330
99
102
}
330
99
100
AcDbProxyObject
 90
      499
 91
      505
 93
      241
310
90C312F3822203D2031272D3022000000000000300FC000000000000284000
  0
ACAD_PROXY_OBJECT
  5
B7F
102
{ACAD_REACTORS
330
99
102
}
330
99
100
AcDbProxyObject
 90
      499
 91
      505
 93
      249
310
90D332F313622203D2031272D3022000000000000320FC000000000000284000
  0
ACAD_PROXY_OBJECT
  5
B80
102
{ACAD_REACTORS
330
99
102
}
330
99
100
AcDbProxyObject
 90
      499
 91
      505
 93
      241
310
90C312F3422203D2031272D3022000000000000340FC000000000000284000
  0
ACAD_PROXY_OBJECT
  5
B81
102
{ACAD_REACTORS
330
99
102
}
330
99
100
AcDbProxyObject
 90
      499
 91
      505
 93
      241
310
90C332F3822203D2031272D3022000000000000360FC000000000000284000
  0
ACAD_PROXY_OBJECT
  5
B82
102
{ACAD_REACTORS
330
99
102
}
330
99
100
AcDbProxyObject
 90
      499
 91
      505
 93
      241
310
90C312F3222203D2031272D3022000000000000380FC000000000000284000
  0
ACAD_PROXY_OBJECT
  5
B83
102
{ACAD_REACTORS
330
99
102
}
330
99
100
AcDbProxyObject
 90
      499
 91
      505
 93
      241
310
90C332F3422203D2031272D30220000000000003A0FC000000000000284000
  0
ACAD_PROXY_OBJECT
  5
B84
102
{ACAD_REACTORS
330
99
102
}
330
99
100
AcDbProxyObject
 90
      499
 91
      505
 93
      161
310
90A3122203D2031272D30224000000000000284000
  0
ACAD_PROXY_OBJECT
  5
B85
102
{ACAD_REACTORS
330
99
102
}
330
99
100
AcDbProxyObject
 90
      499
 91
      505
 93
      257
310
90E312D312F3222203D2031272D30220000000000003E0FC000000000000284000
  0
ACAD_PROXY_OBJECT
  5
B86
102
{ACAD_REACTORS
330
99
102
}
330
99
100
AcDbProxyObject
 90
      499
 91
      505
 93
      225
310
90A3322203D2031272D302200000000000002100000000000000284000
  0
ACAD_PROXY_OBJECT
  5
B87
102
{ACAD_REACTORS
330
99
102
}
330
99
100
AcDbProxyObject
 90
      499
 91
      505
 93
      225
310
90A3622203D2031272D302200000000000006100000000000000284000
  0
ACAD_PROXY_OBJECT
  5
B88
102
{ACAD_REACTORS
330
99
102
}
330
99
100
AcDbProxyObject
 90
      499
 91
      505
 93
      249
310
90D31272D3022203D2031272D30220000000000000A100000000000000284000
  0
XRECORD
  5
B99
102
{ACAD_REACTORS
330
B90
102
}
330
B90
100
AcDbXrecord
 90
        0
  0
XRECORD
  5
BB1
102
{ACAD_REACTORS
330
B90
102
}
330
B90
100
AcDbXrecord
340
6C
  0
XRECORD
  5
BAF
102
{ACAD_REACTORS
330
B90
102
}
330
B90
100
AcDbXrecord
1000
DSTYLE
1002
{
1070
   340
340
11
1002
}
  0
XRECORD
  5
B9A
102
{ACAD_REACTORS
330
B90
102
}
330
B90
100
AcDbXrecord
  1
{C80248E3-4FCA-11D7-9C19-0040267F10D4}
  0
XRECORD
  5
B93
102
{ACAD_REACTORS
330
B90
102
}
330
B90
100
AcDbXrecord
  1

  0
XRECORD
  5
B98
102
{ACAD_REACTORS
330
B90
102
}
330
B90
100
AcDbXrecord
 90
        0
  0
XRECORD
  5
B95
102
{ACAD_REACTORS
330
B90
102
}
330
B90
100
AcDbXrecord
340
1A
  0
XRECORD
  5
B97
102
{ACAD_REACTORS
330
B90
102
}
330
B90
100
AcDbXrecord
 90
    10781
  0
XRECORD
  5
BB2
102
{ACAD_REACTORS
330
B90
102
}
330
B90
100
AcDbXrecord
340
6B
  0
XRECORD
  5
B96
102
{ACAD_REACTORS
330
B90
102
}
330
B90
100
AcDbXrecord
340
19
  0
XRECORD
  5
B9C
102
{ACAD_REACTORS
330
B90
102
}
330
B90
100
AcDbXrecord
 40
0.0
  0
XRECORD
  5
B9F
102
{ACAD_REACTORS
330
B90
102
}
330
B90
100
AcDbXrecord
340
0
  0
XRECORD
  5
BA5
102
{ACAD_REACTORS
330
B90
102
}
330
B90
100
AcDbXrecord
 10
0.0
 20
0.0
 30
0.0
  0
XRECORD
  5
BA1
102
{ACAD_REACTORS
330
B90
102
}
330
B90
100
AcDbXrecord
 10
0.0
 20
0.0
 30
0.0
  0
XRECORD
  5
BA4
102
{ACAD_REACTORS
330
B90
102
}
330
B90
100
AcDbXrecord
 10
0.0
 20
0.0
 30
0.0
  0
XRECORD
  5
BA2
102
{ACAD_REACTORS
330
B90
102
}
330
B90
100
AcDbXrecord
 10
0.0
 20
0.0
 30
0.0
  0
XRECORD
  5
BA3
102
{ACAD_REACTORS
330
B90
102
}
330
B90
100
AcDbXrecord
 10
0.0
 20
0.0
 30
0.0
  0
XRECORD
  5
BA0
102
{ACAD_REACTORS
330
B90
102
}
330
B90
100
AcDbXrecord
 10
0.0
 20
0.0
 30
0.0
  0
XRECORD
  5
B9D
102
{ACAD_REACTORS
330
B90
102
}
330
B90
100
AcDbXrecord
340
0
  0
XRECORD
  5
B9E
102
{ACAD_REACTORS
330
B90
102
}
330
B90
100
AcDbXrecord
 70
     0
  0
XRECORD
  5
B94
102
{ACAD_REACTORS
330
B90
102
}
330
B90
100
AcDbXrecord
  1

  0
XRECORD
  5
B91
102
{ACAD_REACTORS
330
B90
102
}
330
B90
100
AcDbXrecord
 90
        1
  0
XRECORD
  5
B92
102
{ACAD_REACTORS
330
B90
102
}
330
B90
100
AcDbXrecord
 90
       70
  0
XRECORD
  5
BA8
102
{ACAD_REACTORS
330
B90
102
}
330
B90
100
AcDbXrecord
340
0
  0
XRECORD
  5
BAE
102
{ACAD_REACTORS
330
B90
102
}
330
B90
100
AcDbXrecord
 10
0.0
 20
0.0
 30
0.0
  0
XRECORD
  5
BAA
102
{ACAD_REACTORS
330
B90
102
}
330
B90
100
AcDbXrecord
 10
0.0
 20
0.0
 30
0.0
  0
XRECORD
  5
BAD
102
{ACAD_REACTORS
330
B90
102
}
330
B90
100
AcDbXrecord
 10
0.0
 20
0.0
 30
0.0
  0
XRECORD
  5
BAB
102
{ACAD_REACTORS
330
B90
102
}
330
B90
100
AcDbXrecord
 10
0.0
 20
0.0
 30
0.0
  0
XRECORD
  5
BAC
102
{ACAD_REACTORS
330
B90
102
}
330
B90
100
AcDbXrecord
 10
0.0
 20
0.0
 30
0.0
  0
XRECORD
  5
BA9
102
{ACAD_REACTORS
330
B90
102
}
330
B90
100
AcDbXrecord
 10
0.0
 20
0.0
 30
0.0
  0
XRECORD
  5
BA6
102
{ACAD_REACTORS
330
B90
102
}
330
B90
100
AcDbXrecord
340
0
  0
XRECORD
  5
BA7
102
{ACAD_REACTORS
330
B90
102
}
330
B90
100
AcDbXrecord
 70
     0
  0
XRECORD
  5
B9B
102
{ACAD_REACTORS
330
B90
102
}
330
B90
100
AcDbXrecord
  1
{746F4454-5AD2-11D7-9C19-0040267F10D4}
  0
DICTIONARYVAR
  5
98
102
{ACAD_REACTORS
330
59
102
}
330
59
100
DictionaryVariables
280
     0
  1
Standard
  0
DICTIONARYVAR
  5
5A
102
{ACAD_REACTORS
330
59
102
}
330
59
100
DictionaryVariables
280
     0
  1
2
  0
DICTIONARYVAR
  5
5E
102
{ACAD_REACTORS
330
59
102
}
330
59
100
DictionaryVariables
280
     0
  1
1
  0
ENDSEC
  0
EOF
