  0
SECTION
  2
HEADER
  9
$ACADVER
  1
AC1015
  9
$ACADMAINTVER
 70
     6
  9
$DWGCODEPAGE
  3
ANSI_932
  9
$INSBASE
 10
0.0
 20
0.0
 30
0.0
  9
$EXTMIN
 10
-5.941616374145985E+73
 20
-1.269263905633295E+99
 30
0.0
  9
$EXTMAX
 10
6.282985302827068E+99
 20
5.941616374145985E+73
 30
0.3
  9
$LIMMIN
 10
0.0
 20
0.0
  9
$LIMMAX
 10
12.0
 20
9.0
  9
$ORTHOMODE
 70
     0
  9
$REGENMODE
 70
     1
  9
$FILLMODE
 70
     1
  9
$QTEXTMODE
 70
     0
  9
$MIRRTEXT
 70
     1
  9
$LTSCALE
 40
1.0
  9
$ATTMODE
 70
     1
  9
$TEXTSIZE
 40
0.2
  9
$TRACEWID
 40
0.05
  9
$TEXTSTYLE
  7
STANDARD
  9
$CLAYER
  8
0
  9
$CELTYPE
  6
CONTINUOUS
  9
$CECOLOR
 62
     1
  9
$CELTSCALE
 40
1.0
  9
$DISPSILH
 70
     0
  9
$DIMSCALE
 40
1.0
  9
$DIMASZ
 40
0.18
  9
$DIMEXO
 40
0.0625
  9
$DIMDLI
 40
0.38
  9
$DIMRND
 40
0.0
  9
$DIMDLE
 40
0.0
  9
$DIMEXE
 40
0.18
  9
$DIMTP
 40
0.0
  9
$DIMTM
 40
0.0
  9
$DIMTXT
 40
0.18
  9
$DIMCEN
 40
0.09
  9
$DIMTSZ
 40
0.0
  9
$DIMTOL
 70
     0
  9
$DIMLIM
 70
     0
  9
$DIMTIH
 70
     1
  9
$DIMTOH
 70
     1
  9
$DIMSE1
 70
     0
  9
$DIMSE2
 70
     0
  9
$DIMTAD
 70
     0
  9
$DIMZIN
 70
     0
  9
$DIMBLK
  1

  9
$DIMASO
 70
     1
  9
$DIMSHO
 70
     1
  9
$DIMPOST
  1

  9
$DIMAPOST
  1

  9
$DIMALT
 70
     0
  9
$DIMALTD
 70
     2
  9
$DIMALTF
 40
25.4
  9
$DIMLFAC
 40
1.0
  9
$DIMTOFL
 70
     0
  9
$DIMTVP
 40
0.0
  9
$DIMTIX
 70
     0
  9
$DIMSOXD
 70
     0
  9
$DIMSAH
 70
     0
  9
$DIMBLK1
  1

  9
$DIMBLK2
  1

  9
$DIMSTYLE
  2
STANDARD
  9
$DIMCLRD
 70
     0
  9
$DIMCLRE
 70
     0
  9
$DIMCLRT
 70
     0
  9
$DIMTFAC
 40
1.0
  9
$DIMGAP
 40
0.09
  9
$DIMJUST
 70
     0
  9
$DIMSD1
 70
     0
  9
$DIMSD2
 70
     0
  9
$DIMTOLJ
 70
     1
  9
$DIMTZIN
 70
     0
  9
$DIMALTZ
 70
     0
  9
$DIMALTTZ
 70
     0
  9
$DIMUPT
 70
     0
  9
$DIMDEC
 70
     4
  9
$DIMTDEC
 70
     4
  9
$DIMALTU
 70
     2
  9
$DIMALTTD
 70
     2
  9
$DIMTXSTY
  7
STANDARD
  9
$DIMAUNIT
 70
     0
  9
$DIMADEC
 70
     0
  9
$DIMALTRND
 40
0.0
  9
$DIMAZIN
 70
     0
  9
$DIMDSEP
 70
    46
  9
$DIMATFIT
 70
     3
  9
$DIMFRAC
 70
     0
  9
$DIMLDRBLK
  1

  9
$DIMLUNIT
 70
     2
  9
$DIMLWD
 70
    -2
  9
$DIMLWE
 70
    -2
  9
$DIMTMOVE
 70
     0
  9
$LUNITS
 70
     2
  9
$LUPREC
 70
     4
  9
$SKETCHINC
 40
0.1
  9
$FILLETRAD
 40
0.0
  9
$AUNITS
 70
     0
  9
$AUPREC
 70
     0
  9
$MENU
  1
.
  9
$ELEVATION
 40
0.0
  9
$PELEVATION
 40
0.0
  9
$THICKNESS
 40
0.0
  9
$LIMCHECK
 70
     0
  9
$CHAMFERA
 40
0.0
  9
$CHAMFERB
 40
0.0
  9
$CHAMFERC
 40
0.0
  9
$CHAMFERD
 40
0.0
  9
$SKPOLY
 70
     0
  9
$TDCREATE
 40
2452153.685252314
  9
$TDUCREATE
 40
2452153.310252314
  9
$TDUPDATE
 40
2452719.558657060
  9
$TDUUPDATE
 40
2452719.183657060
  9
$TDINDWG
 40
0.0084097222
  9
$TDUSRTIMER
 40
0.0084084491
  9
$USRTIMER
 70
     1
  9
$ANGBASE
 50
0.0
  9
$ANGDIR
 70
     0
  9
$PDMODE
 70
     0
  9
$PDSIZE
 40
0.0
  9
$PLINEWID
 40
0.0
  9
$SPLFRAME
 70
     0
  9
$SPLINETYPE
 70
     6
  9
$SPLINESEGS
 70
     8
  9
$HANDSEED
  5
169F
  9
$SURFTAB1
 70
     6
  9
$SURFTAB2
 70
     6
  9
$SURFTYPE
 70
     6
  9
$SURFU
 70
     6
  9
$SURFV
 70
     6
  9
$UCSBASE
  2

  9
$UCSNAME
  2

  9
$UCSORG
 10
0.0
 20
0.0
 30
0.0
  9
$UCSXDIR
 10
1.0
 20
0.0
 30
0.0
  9
$UCSYDIR
 10
0.0
 20
1.0
 30
0.0
  9
$UCSORTHOREF
  2

  9
$UCSORTHOVIEW
 70
     0
  9
$UCSORGTOP
 10
0.0
 20
0.0
 30
0.0
  9
$UCSORGBOTTOM
 10
0.0
 20
0.0
 30
0.0
  9
$UCSORGLEFT
 10
0.0
 20
0.0
 30
0.0
  9
$UCSORGRIGHT
 10
0.0
 20
0.0
 30
0.0
  9
$UCSORGFRONT
 10
0.0
 20
0.0
 30
0.0
  9
$UCSORGBACK
 10
0.0
 20
0.0
 30
0.0
  9
$PUCSBASE
  2

  9
$PUCSNAME
  2

  9
$PUCSORG
 10
0.0
 20
0.0
 30
0.0
  9
$PUCSXDIR
 10
1.0
 20
0.0
 30
0.0
  9
$PUCSYDIR
 10
0.0
 20
1.0
 30
0.0
  9
$PUCSORTHOREF
  2

  9
$PUCSORTHOVIEW
 70
     0
  9
$PUCSORGTOP
 10
0.0
 20
0.0
 30
0.0
  9
$PUCSORGBOTTOM
 10
0.0
 20
0.0
 30
0.0
  9
$PUCSORGLEFT
 10
0.0
 20
0.0
 30
0.0
  9
$PUCSORGRIGHT
 10
0.0
 20
0.0
 30
0.0
  9
$PUCSORGFRONT
 10
0.0
 20
0.0
 30
0.0
  9
$PUCSORGBACK
 10
0.0
 20
0.0
 30
0.0
  9
$USERI1
 70
     0
  9
$USERI2
 70
     0
  9
$USERI3
 70
     0
  9
$USERI4
 70
     0
  9
$USERI5
 70
     0
  9
$USERR1
 40
0.0
  9
$USERR2
 40
0.0
  9
$USERR3
 40
0.0
  9
$USERR4
 40
0.0
  9
$USERR5
 40
0.0
  9
$WORLDVIEW
 70
     1
  9
$SHADEDGE
 70
     3
  9
$SHADEDIF
 70
    70
  9
$TILEMODE
 70
     1
  9
$MAXACTVP
 70
    64
  9
$PINSBASE
 10
0.0
 20
0.0
 30
0.0
  9
$PLIMCHECK
 70
     0
  9
$PEXTMIN
 10
1.000000000000000E+20
 20
1.000000000000000E+20
 30
1.000000000000000E+20
  9
$PEXTMAX
 10
-1.000000000000000E+20
 20
-1.000000000000000E+20
 30
-1.000000000000000E+20
  9
$PLIMMIN
 10
0.0
 20
0.0
  9
$PLIMMAX
 10
12.0
 20
9.0
  9
$UNITMODE
 70
     0
  9
$VISRETAIN
 70
     1
  9
$PLINEGEN
 70
     0
  9
$PSLTSCALE
 70
     1
  9
$TREEDEPTH
 70
  3020
  9
$CMLSTYLE
  2
Standard
  9
$CMLJUST
 70
     0
  9
$CMLSCALE
 40
1.0
  9
$PROXYGRAPHICS
 70
     1
  9
$MEASUREMENT
 70
     0
  9
$CELWEIGHT
370
    -1
  9
$ENDCAPS
280
     0
  9
$JOINSTYLE
280
     0
  9
$LWDISPLAY
290
     0
  9
$INSUNITS
 70
     0
  9
$HYPERLINKBASE
  1

  9
$STYLESHEET
  1

  9
$XEDIT
290
     1
  9
$CEPSNTYPE
380
     0
  9
$PSTYLEMODE
290
     1
  9
$FINGERPRINTGUID
  2
{6382E622-4B0D-11D7-9C19-0040267F10D4}
  9
$VERSIONGUID
  2
{746F4457-5AD2-11D7-9C19-0040267F10D4}
  9
$EXTNAMES
290
     1
  9
$PSVPSCALE
 40
0.0
  9
$OLESTARTUP
290
     0
  0
ENDSEC
  0
SECTION
  2
CLASSES
  0
CLASS
  1
ACDBDICTIONARYWDFLT
  2
AcDbDictionaryWithDefault
  3
AutoCAD 2000
 90
        0
280
     0
281
     0
  0
CLASS
  1
ACDBPLACEHOLDER
  2
AcDbPlaceHolder
  3
AutoCAD 2000
 90
        0
280
     0
281
     0
  0
CLASS
  1
LAYOUT
  2
AcDbLayout
  3
AutoCAD 2000
 90
        0
280
     0
281
     0
  0
ENDSEC
  0
SECTION
  2
TABLES
  0
TABLE
  2
VPORT
  5
B4E
330
0
100
AcDbSymbolTable
 70
     3
  0
VPORT
  5
169E
330
B4E
100
AcDbSymbolTableRecord
100
AcDbViewportTableRecord
  2
*Active
 70
     0
 10
0.0
 20
0.0
 11
1.0
 21
1.0
 12
203.2060918137139
 22
196.4575010679545
 13
0.0
 23
0.0
 14
1.0
 24
1.0
 15
0.0
 25
0.0
 16
0.0
 26
0.0
 36
1.0
 17
0.0
 27
0.0
 37
0.0
 40
361.0677997909573
 41
2.210374639769452
 42
50.0
 43
0.0
 44
0.0
 50
0.0
 51
0.0
 71
     0
 72
   100
 73
     1
 74
     1
 75
     0
 76
     0
 77
     0
 78
     0
281
     0
 65
     1
110
0.0
120
0.0
130
0.0
111
1.0
121
0.0
131
0.0
112
0.0
122
1.0
132
0.0
 79
     0
146
0.0
  0
ENDTAB
  0
TABLE
  2
LTYPE
  5
B4B
330
0
100
AcDbSymbolTable
 70
     4
  0
LTYPE
  5
B59
330
B4B
100
AcDbSymbolTableRecord
100
AcDbLinetypeTableRecord
  2
ByBlock
 70
     0
  3

 72
    65
 73
     0
 40
0.0
  0
LTYPE
  5
B5A
330
B4B
100
AcDbSymbolTableRecord
100
AcDbLinetypeTableRecord
  2
ByLayer
 70
     0
  3

 72
    65
 73
     0
 40
0.0
  0
LTYPE
  5
B5B
330
B4B
100
AcDbSymbolTableRecord
100
AcDbLinetypeTableRecord
  2
CONTINUOUS
 70
     0
  3
Solid line
 72
    65
 73
     0
 40
0.0
  0
LTYPE
  5
B69
330
B4B
100
AcDbSymbolTableRecord
100
AcDbLinetypeTableRecord
  2
LTYPE1
 70
     0
  3
HIDDEN
 72
    65
 73
     2
 40
3.0
 49
1.8
 74
     0
 49
-1.199999999999999
 74
     0
  0
LTYPE
  5
B6A
330
B4B
100
AcDbSymbolTableRecord
100
AcDbLinetypeTableRecord
  2
LTYPE2
 70
     0
  3
CENTER
 72
    65
 73
     4
 40
15.0
 49
10.5
 74
     0
 49
-1.5
 74
     0
 49
1.5
 74
     0
 49
-1.5
 74
     0
  0
LTYPE
  5
B6B
330
B4B
100
AcDbSymbolTableRecord
100
AcDbLinetypeTableRecord
  2
LTYPE3
 70
     0
  3
CENTER
 72
    65
 73
     4
 40
10.0
 49
7.0
 74
     0
 49
-1.0
 74
     0
 49
1.0
 74
     0
 49
-1.0
 74
     0
  0
ENDTAB
  0
TABLE
  2
LAYER
  5
B48
330
0
100
AcDbSymbolTable
 70
   128
  0
LAYER
  5
B56
330
B48
100
AcDbSymbolTableRecord
100
AcDbLayerTableRecord
  2
0
 70
     0
 62
     7
  6
CONTINUOUS
370
    -3
390
B55
  0
LAYER
  5
B6C
330
B48
100
AcDbSymbolTableRecord
100
AcDbLayerTableRecord
  2
1
 70
     0
 62
     7
  6
CONTINUOUS
370
    -3
390
B55
  0
LAYER
  5
B6D
330
B48
100
AcDbSymbolTableRecord
100
AcDbLayerTableRecord
  2
2
 70
     0
 62
     7
  6
CONTINUOUS
370
    -3
390
B55
  0
LAYER
  5
B6E
330
B48
100
AcDbSymbolTableRecord
100
AcDbLayerTableRecord
  2
3
 70
     0
 62
     7
  6
CONTINUOUS
370
    -3
390
B55
  0
LAYER
  5
B6F
330
B48
100
AcDbSymbolTableRecord
100
AcDbLayerTableRecord
  2
4
 70
     0
 62
     7
  6
CONTINUOUS
370
    -3
390
B55
  0
LAYER
  5
B70
330
B48
100
AcDbSymbolTableRecord
100
AcDbLayerTableRecord
  2
5
 70
     0
 62
     7
  6
CONTINUOUS
370
    -3
390
B55
  0
LAYER
  5
B71
330
B48
100
AcDbSymbolTableRecord
100
AcDbLayerTableRecord
  2
6
 70
     0
 62
     7
  6
CONTINUOUS
370
    -3
390
B55
  0
LAYER
  5
B72
330
B48
100
AcDbSymbolTableRecord
100
AcDbLayerTableRecord
  2
7
 70
     0
 62
     7
  6
CONTINUOUS
370
    -3
390
B55
  0
LAYER
  5
B73
330
B48
100
AcDbSymbolTableRecord
100
AcDbLayerTableRecord
  2
8
 70
     0
 62
     7
  6
CONTINUOUS
370
    -3
390
B55
  0
LAYER
  5
B74
330
B48
100
AcDbSymbolTableRecord
100
AcDbLayerTableRecord
  2
9
 70
     0
 62
     7
  6
CONTINUOUS
370
    -3
390
B55
  0
LAYER
  5
B75
330
B48
100
AcDbSymbolTableRecord
100
AcDbLayerTableRecord
  2
10
 70
     0
 62
     7
  6
CONTINUOUS
370
    -3
390
B55
  0
LAYER
  5
B76
330
B48
100
AcDbSymbolTableRecord
100
AcDbLayerTableRecord
  2
11
 70
     0
 62
     7
  6
CONTINUOUS
370
    -3
390
B55
  0
LAYER
  5
B77
330
B48
100
AcDbSymbolTableRecord
100
AcDbLayerTableRecord
  2
12
 70
     0
 62
     7
  6
CONTINUOUS
370
    -3
390
B55
  0
LAYER
  5
B78
330
B48
100
AcDbSymbolTableRecord
100
AcDbLayerTableRecord
  2
13
 70
     0
 62
     7
  6
CONTINUOUS
370
    -3
390
B55
  0
LAYER
  5
B79
330
B48
100
AcDbSymbolTableRecord
100
AcDbLayerTableRecord
  2
14
 70
     0
 62
     7
  6
CONTINUOUS
370
    -3
390
B55
  0
LAYER
  5
B7A
330
B48
100
AcDbSymbolTableRecord
100
AcDbLayerTableRecord
  2
15
 70
     0
 62
     7
  6
CONTINUOUS
370
    -3
390
B55
  0
LAYER
  5
B7B
330
B48
100
AcDbSymbolTableRecord
100
AcDbLayerTableRecord
  2
16
 70
     0
 62
     7
  6
CONTINUOUS
370
    -3
390
B55
  0
LAYER
  5
B7C
330
B48
100
AcDbSymbolTableRecord
100
AcDbLayerTableRecord
  2
17
 70
     0
 62
     7
  6
CONTINUOUS
370
    -3
390
B55
  0
LAYER
  5
B7D
330
B48
100
AcDbSymbolTableRecord
100
AcDbLayerTableRecord
  2
18
 70
     0
 62
     7
  6
CONTINUOUS
370
    -3
390
B55
  0
LAYER
  5
B7E
330
B48
100
AcDbSymbolTableRecord
100
AcDbLayerTableRecord
  2
19
 70
     0
 62
     7
  6
CONTINUOUS
370
    -3
390
B55
  0
LAYER
  5
B7F
330
B48
100
AcDbSymbolTableRecord
100
AcDbLayerTableRecord
  2
20
 70
     0
 62
     7
  6
CONTINUOUS
370
    -3
390
B55
  0
LAYER
  5
B80
330
B48
100
AcDbSymbolTableRecord
100
AcDbLayerTableRecord
  2
21
 70
     0
 62
     7
  6
CONTINUOUS
370
    -3
390
B55
  0
LAYER
  5
B81
330
B48
100
AcDbSymbolTableRecord
100
AcDbLayerTableRecord
  2
22
 70
     0
 62
     7
  6
CONTINUOUS
370
    -3
390
B55
  0
LAYER
  5
B82
330
B48
100
AcDbSymbolTableRecord
100
AcDbLayerTableRecord
  2
23
 70
     0
 62
     7
  6
CONTINUOUS
370
    -3
390
B55
  0
LAYER
  5
B83
330
B48
100
AcDbSymbolTableRecord
100
AcDbLayerTableRecord
  2
24
 70
     0
 62
     7
  6
CONTINUOUS
370
    -3
390
B55
  0
LAYER
  5
B84
330
B48
100
AcDbSymbolTableRecord
100
AcDbLayerTableRecord
  2
25
 70
     0
 62
     7
  6
CONTINUOUS
370
    -3
390
B55
  0
LAYER
  5
B85
330
B48
100
AcDbSymbolTableRecord
100
AcDbLayerTableRecord
  2
26
 70
     0
 62
     7
  6
CONTINUOUS
370
    -3
390
B55
  0
LAYER
  5
B86
330
B48
100
AcDbSymbolTableRecord
100
AcDbLayerTableRecord
  2
27
 70
     0
 62
     7
  6
CONTINUOUS
370
    -3
390
B55
  0
LAYER
  5
B87
330
B48
100
AcDbSymbolTableRecord
100
AcDbLayerTableRecord
  2
28
 70
     0
 62
     7
  6
CONTINUOUS
370
    -3
390
B55
  0
LAYER
  5
B88
330
B48
100
AcDbSymbolTableRecord
100
AcDbLayerTableRecord
  2
29
 70
     0
 62
     7
  6
CONTINUOUS
370
    -3
390
B55
  0
LAYER
  5
B89
330
B48
100
AcDbSymbolTableRecord
100
AcDbLayerTableRecord
  2
30
 70
     0
 62
     7
  6
CONTINUOUS
370
    -3
390
B55
  0
LAYER
  5
B8A
330
B48
100
AcDbSymbolTableRecord
100
AcDbLayerTableRecord
  2
31
 70
     0
 62
     7
  6
CONTINUOUS
370
    -3
390
B55
  0
LAYER
  5
B8B
330
B48
100
AcDbSymbolTableRecord
100
AcDbLayerTableRecord
  2
32
 70
     0
 62
     7
  6
CONTINUOUS
370
    -3
390
B55
  0
LAYER
  5
B8C
330
B48
100
AcDbSymbolTableRecord
100
AcDbLayerTableRecord
  2
33
 70
     0
 62
     7
  6
CONTINUOUS
370
    -3
390
B55
  0
LAYER
  5
B8D
330
B48
100
AcDbSymbolTableRecord
100
AcDbLayerTableRecord
  2
34
 70
     0
 62
     7
  6
CONTINUOUS
370
    -3
390
B55
  0
LAYER
  5
B8E
330
B48
100
AcDbSymbolTableRecord
100
AcDbLayerTableRecord
  2
35
 70
     0
 62
     7
  6
CONTINUOUS
370
    -3
390
B55
  0
LAYER
  5
B8F
330
B48
100
AcDbSymbolTableRecord
100
AcDbLayerTableRecord
  2
36
 70
     0
 62
     7
  6
CONTINUOUS
370
    -3
390
B55
  0
LAYER
  5
B90
330
B48
100
AcDbSymbolTableRecord
100
AcDbLayerTableRecord
  2
37
 70
     0
 62
     7
  6
CONTINUOUS
370
    -3
390
B55
  0
LAYER
  5
B91
330
B48
100
AcDbSymbolTableRecord
100
AcDbLayerTableRecord
  2
38
 70
     0
 62
     7
  6
CONTINUOUS
370
    -3
390
B55
  0
LAYER
  5
B92
330
B48
100
AcDbSymbolTableRecord
100
AcDbLayerTableRecord
  2
39
 70
     0
 62
     7
  6
CONTINUOUS
370
    -3
390
B55
  0
LAYER
  5
B93
330
B48
100
AcDbSymbolTableRecord
100
AcDbLayerTableRecord
  2
40
 70
     0
 62
     7
  6
CONTINUOUS
370
    -3
390
B55
  0
LAYER
  5
B94
330
B48
100
AcDbSymbolTableRecord
100
AcDbLayerTableRecord
  2
41
 70
     0
 62
     7
  6
CONTINUOUS
370
    -3
390
B55
  0
LAYER
  5
B95
330
B48
100
AcDbSymbolTableRecord
100
AcDbLayerTableRecord
  2
42
 70
     0
 62
     7
  6
CONTINUOUS
370
    -3
390
B55
  0
LAYER
  5
B96
330
B48
100
AcDbSymbolTableRecord
100
AcDbLayerTableRecord
  2
43
 70
     0
 62
     7
  6
CONTINUOUS
370
    -3
390
B55
  0
LAYER
  5
B97
330
B48
100
AcDbSymbolTableRecord
100
AcDbLayerTableRecord
  2
44
 70
     0
 62
     7
  6
CONTINUOUS
370
    -3
390
B55
  0
LAYER
  5
B98
330
B48
100
AcDbSymbolTableRecord
100
AcDbLayerTableRecord
  2
45
 70
     0
 62
     7
  6
CONTINUOUS
370
    -3
390
B55
  0
LAYER
  5
B99
330
B48
100
AcDbSymbolTableRecord
100
AcDbLayerTableRecord
  2
46
 70
     0
 62
     7
  6
CONTINUOUS
370
    -3
390
B55
  0
LAYER
  5
B9A
330
B48
100
AcDbSymbolTableRecord
100
AcDbLayerTableRecord
  2
47
 70
     0
 62
     7
  6
CONTINUOUS
370
    -3
390
B55
  0
LAYER
  5
B9B
330
B48
100
AcDbSymbolTableRecord
100
AcDbLayerTableRecord
  2
48
 70
     0
 62
     7
  6
CONTINUOUS
370
    -3
390
B55
  0
LAYER
  5
B9C
330
B48
100
AcDbSymbolTableRecord
100
AcDbLayerTableRecord
  2
49
 70
     0
 62
     7
  6
CONTINUOUS
370
    -3
390
B55
  0
LAYER
  5
B9D
330
B48
100
AcDbSymbolTableRecord
100
AcDbLayerTableRecord
  2
50
 70
     0
 62
     7
  6
CONTINUOUS
370
    -3
390
B55
  0
LAYER
  5
B9E
330
B48
100
AcDbSymbolTableRecord
100
AcDbLayerTableRecord
  2
51
 70
     0
 62
     7
  6
CONTINUOUS
370
    -3
390
B55
  0
LAYER
  5
B9F
330
B48
100
AcDbSymbolTableRecord
100
AcDbLayerTableRecord
  2
52
 70
     0
 62
     7
  6
CONTINUOUS
370
    -3
390
B55
  0
LAYER
  5
BA0
330
B48
100
AcDbSymbolTableRecord
100
AcDbLayerTableRecord
  2
53
 70
     0
 62
     7
  6
CONTINUOUS
370
    -3
390
B55
  0
LAYER
  5
BA1
330
B48
100
AcDbSymbolTableRecord
100
AcDbLayerTableRecord
  2
54
 70
     0
 62
     7
  6
CONTINUOUS
370
    -3
390
B55
  0
LAYER
  5
BA2
330
B48
100
AcDbSymbolTableRecord
100
AcDbLayerTableRecord
  2
55
 70
     0
 62
     7
  6
CONTINUOUS
370
    -3
390
B55
  0
LAYER
  5
BA3
330
B48
100
AcDbSymbolTableRecord
100
AcDbLayerTableRecord
  2
56
 70
     0
 62
     7
  6
CONTINUOUS
370
    -3
390
B55
  0
LAYER
  5
BA4
330
B48
100
AcDbSymbolTableRecord
100
AcDbLayerTableRecord
  2
57
 70
     0
 62
     7
  6
CONTINUOUS
370
    -3
390
B55
  0
LAYER
  5
BA5
330
B48
100
AcDbSymbolTableRecord
100
AcDbLayerTableRecord
  2
58
 70
     0
 62
     7
  6
CONTINUOUS
370
    -3
390
B55
  0
LAYER
  5
BA6
330
B48
100
AcDbSymbolTableRecord
100
AcDbLayerTableRecord
  2
59
 70
     0
 62
     7
  6
CONTINUOUS
370
    -3
390
B55
  0
LAYER
  5
BA7
330
B48
100
AcDbSymbolTableRecord
100
AcDbLayerTableRecord
  2
60
 70
     0
 62
     7
  6
CONTINUOUS
370
    -3
390
B55
  0
LAYER
  5
BA8
330
B48
100
AcDbSymbolTableRecord
100
AcDbLayerTableRecord
  2
61
 70
     0
 62
     7
  6
CONTINUOUS
370
    -3
390
B55
  0
LAYER
  5
BA9
330
B48
100
AcDbSymbolTableRecord
100
AcDbLayerTableRecord
  2
62
 70
     0
 62
     7
  6
CONTINUOUS
370
    -3
390
B55
  0
LAYER
  5
BAA
330
B48
100
AcDbSymbolTableRecord
100
AcDbLayerTableRecord
  2
63
 70
     0
 62
     7
  6
CONTINUOUS
370
    -3
390
B55
  0
LAYER
  5
BAB
330
B48
100
AcDbSymbolTableRecord
100
AcDbLayerTableRecord
  2
64
 70
     0
 62
     7
  6
CONTINUOUS
370
    -3
390
B55
  0
LAYER
  5
BAC
330
B48
100
AcDbSymbolTableRecord
100
AcDbLayerTableRecord
  2
65
 70
     0
 62
     7
  6
CONTINUOUS
370
    -3
390
B55
  0
LAYER
  5
BAD
330
B48
100
AcDbSymbolTableRecord
100
AcDbLayerTableRecord
  2
66
 70
     0
 62
     7
  6
CONTINUOUS
370
    -3
390
B55
  0
LAYER
  5
BAE
330
B48
100
AcDbSymbolTableRecord
100
AcDbLayerTableRecord
  2
67
 70
     0
 62
     7
  6
CONTINUOUS
370
    -3
390
B55
  0
LAYER
  5
BAF
330
B48
100
AcDbSymbolTableRecord
100
AcDbLayerTableRecord
  2
68
 70
     0
 62
     7
  6
CONTINUOUS
370
    -3
390
B55
  0
LAYER
  5
BB0
330
B48
100
AcDbSymbolTableRecord
100
AcDbLayerTableRecord
  2
69
 70
     0
 62
     7
  6
CONTINUOUS
370
    -3
390
B55
  0
LAYER
  5
BB1
330
B48
100
AcDbSymbolTableRecord
100
AcDbLayerTableRecord
  2
70
 70
     0
 62
     7
  6
CONTINUOUS
370
    -3
390
B55
  0
LAYER
  5
BB2
330
B48
100
AcDbSymbolTableRecord
100
AcDbLayerTableRecord
  2
71
 70
     0
 62
     7
  6
CONTINUOUS
370
    -3
390
B55
  0
LAYER
  5
BB3
330
B48
100
AcDbSymbolTableRecord
100
AcDbLayerTableRecord
  2
72
 70
     0
 62
     7
  6
CONTINUOUS
370
    -3
390
B55
  0
LAYER
  5
BB4
330
B48
100
AcDbSymbolTableRecord
100
AcDbLayerTableRecord
  2
73
 70
     0
 62
     7
  6
CONTINUOUS
370
    -3
390
B55
  0
LAYER
  5
BB5
330
B48
100
AcDbSymbolTableRecord
100
AcDbLayerTableRecord
  2
74
 70
     0
 62
     7
  6
CONTINUOUS
370
    -3
390
B55
  0
LAYER
  5
BB6
330
B48
100
AcDbSymbolTableRecord
100
AcDbLayerTableRecord
  2
75
 70
     0
 62
     7
  6
CONTINUOUS
370
    -3
390
B55
  0
LAYER
  5
BB7
330
B48
100
AcDbSymbolTableRecord
100
AcDbLayerTableRecord
  2
76
 70
     0
 62
     7
  6
CONTINUOUS
370
    -3
390
B55
  0
LAYER
  5
BB8
330
B48
100
AcDbSymbolTableRecord
100
AcDbLayerTableRecord
  2
77
 70
     0
 62
     7
  6
CONTINUOUS
370
    -3
390
B55
  0
LAYER
  5
BB9
330
B48
100
AcDbSymbolTableRecord
100
AcDbLayerTableRecord
  2
78
 70
     0
 62
     7
  6
CONTINUOUS
370
    -3
390
B55
  0
LAYER
  5
BBA
330
B48
100
AcDbSymbolTableRecord
100
AcDbLayerTableRecord
  2
79
 70
     0
 62
     7
  6
CONTINUOUS
370
    -3
390
B55
  0
LAYER
  5
BBB
330
B48
100
AcDbSymbolTableRecord
100
AcDbLayerTableRecord
  2
80
 70
     0
 62
     7
  6
CONTINUOUS
370
    -3
390
B55
  0
LAYER
  5
BBC
330
B48
100
AcDbSymbolTableRecord
100
AcDbLayerTableRecord
  2
81
 70
     0
 62
     7
  6
CONTINUOUS
370
    -3
390
B55
  0
LAYER
  5
BBD
330
B48
100
AcDbSymbolTableRecord
100
AcDbLayerTableRecord
  2
82
 70
     0
 62
     7
  6
CONTINUOUS
370
    -3
390
B55
  0
LAYER
  5
BBE
330
B48
100
AcDbSymbolTableRecord
100
AcDbLayerTableRecord
  2
83
 70
     0
 62
     7
  6
CONTINUOUS
370
    -3
390
B55
  0
LAYER
  5
BBF
330
B48
100
AcDbSymbolTableRecord
100
AcDbLayerTableRecord
  2
84
 70
     0
 62
     7
  6
CONTINUOUS
370
    -3
390
B55
  0
LAYER
  5
BC0
330
B48
100
AcDbSymbolTableRecord
100
AcDbLayerTableRecord
  2
85
 70
     0
 62
     7
  6
CONTINUOUS
370
    -3
390
B55
  0
LAYER
  5
BC1
330
B48
100
AcDbSymbolTableRecord
100
AcDbLayerTableRecord
  2
86
 70
     0
 62
     7
  6
CONTINUOUS
370
    -3
390
B55
  0
LAYER
  5
BC2
330
B48
100
AcDbSymbolTableRecord
100
AcDbLayerTableRecord
  2
87
 70
     0
 62
     7
  6
CONTINUOUS
370
    -3
390
B55
  0
LAYER
  5
BC3
330
B48
100
AcDbSymbolTableRecord
100
AcDbLayerTableRecord
  2
88
 70
     0
 62
     7
  6
CONTINUOUS
370
    -3
390
B55
  0
LAYER
  5
BC4
330
B48
100
AcDbSymbolTableRecord
100
AcDbLayerTableRecord
  2
89
 70
     0
 62
     7
  6
CONTINUOUS
370
    -3
390
B55
  0
LAYER
  5
BC5
330
B48
100
AcDbSymbolTableRecord
100
AcDbLayerTableRecord
  2
90
 70
     0
 62
     7
  6
CONTINUOUS
370
    -3
390
B55
  0
LAYER
  5
BC6
330
B48
100
AcDbSymbolTableRecord
100
AcDbLayerTableRecord
  2
91
 70
     0
 62
     7
  6
CONTINUOUS
370
    -3
390
B55
  0
LAYER
  5
BC7
330
B48
100
AcDbSymbolTableRecord
100
AcDbLayerTableRecord
  2
92
 70
     0
 62
     7
  6
CONTINUOUS
370
    -3
390
B55
  0
LAYER
  5
BC8
330
B48
100
AcDbSymbolTableRecord
100
AcDbLayerTableRecord
  2
93
 70
     0
 62
     7
  6
CONTINUOUS
370
    -3
390
B55
  0
LAYER
  5
BC9
330
B48
100
AcDbSymbolTableRecord
100
AcDbLayerTableRecord
  2
94
 70
     0
 62
     7
  6
CONTINUOUS
370
    -3
390
B55
  0
LAYER
  5
BCA
330
B48
100
AcDbSymbolTableRecord
100
AcDbLayerTableRecord
  2
95
 70
     0
 62
     7
  6
CONTINUOUS
370
    -3
390
B55
  0
LAYER
  5
BCB
330
B48
100
AcDbSymbolTableRecord
100
AcDbLayerTableRecord
  2
96
 70
     0
 62
     7
  6
CONTINUOUS
370
    -3
390
B55
  0
LAYER
  5
BCC
330
B48
100
AcDbSymbolTableRecord
100
AcDbLayerTableRecord
  2
97
 70
     0
 62
     7
  6
CONTINUOUS
370
    -3
390
B55
  0
LAYER
  5
BCD
330
B48
100
AcDbSymbolTableRecord
100
AcDbLayerTableRecord
  2
98
 70
     0
 62
     7
  6
CONTINUOUS
370
    -3
390
B55
  0
LAYER
  5
BCE
330
B48
100
AcDbSymbolTableRecord
100
AcDbLayerTableRecord
  2
99
 70
     0
 62
     7
  6
CONTINUOUS
370
    -3
390
B55
  0
LAYER
  5
BCF
330
B48
100
AcDbSymbolTableRecord
100
AcDbLayerTableRecord
  2
100
 70
     0
 62
     7
  6
CONTINUOUS
370
    -3
390
B55
  0
LAYER
  5
BD0
330
B48
100
AcDbSymbolTableRecord
100
AcDbLayerTableRecord
  2
101
 70
     0
 62
     7
  6
CONTINUOUS
370
    -3
390
B55
  0
LAYER
  5
BD1
330
B48
100
AcDbSymbolTableRecord
100
AcDbLayerTableRecord
  2
102
 70
     0
 62
     7
  6
CONTINUOUS
370
    -3
390
B55
  0
LAYER
  5
BD2
330
B48
100
AcDbSymbolTableRecord
100
AcDbLayerTableRecord
  2
103
 70
     0
 62
     7
  6
CONTINUOUS
370
    -3
390
B55
  0
LAYER
  5
BD3
330
B48
100
AcDbSymbolTableRecord
100
AcDbLayerTableRecord
  2
104
 70
     0
 62
     7
  6
CONTINUOUS
370
    -3
390
B55
  0
LAYER
  5
BD4
330
B48
100
AcDbSymbolTableRecord
100
AcDbLayerTableRecord
  2
105
 70
     0
 62
     7
  6
CONTINUOUS
370
    -3
390
B55
  0
LAYER
  5
BD5
330
B48
100
AcDbSymbolTableRecord
100
AcDbLayerTableRecord
  2
106
 70
     0
 62
     7
  6
CONTINUOUS
370
    -3
390
B55
  0
LAYER
  5
BD6
330
B48
100
AcDbSymbolTableRecord
100
AcDbLayerTableRecord
  2
107
 70
     0
 62
     7
  6
CONTINUOUS
370
    -3
390
B55
  0
LAYER
  5
BD7
330
B48
100
AcDbSymbolTableRecord
100
AcDbLayerTableRecord
  2
108
 70
     0
 62
     7
  6
CONTINUOUS
370
    -3
390
B55
  0
LAYER
  5
BD8
330
B48
100
AcDbSymbolTableRecord
100
AcDbLayerTableRecord
  2
109
 70
     0
 62
     7
  6
CONTINUOUS
370
    -3
390
B55
  0
LAYER
  5
BD9
330
B48
100
AcDbSymbolTableRecord
100
AcDbLayerTableRecord
  2
110
 70
     0
 62
     7
  6
CONTINUOUS
370
    -3
390
B55
  0
LAYER
  5
BDA
330
B48
100
AcDbSymbolTableRecord
100
AcDbLayerTableRecord
  2
111
 70
     0
 62
     7
  6
CONTINUOUS
370
    -3
390
B55
  0
LAYER
  5
BDB
330
B48
100
AcDbSymbolTableRecord
100
AcDbLayerTableRecord
  2
112
 70
     0
 62
     7
  6
CONTINUOUS
370
    -3
390
B55
  0
LAYER
  5
BDC
330
B48
100
AcDbSymbolTableRecord
100
AcDbLayerTableRecord
  2
113
 70
     0
 62
     7
  6
CONTINUOUS
370
    -3
390
B55
  0
LAYER
  5
BDD
330
B48
100
AcDbSymbolTableRecord
100
AcDbLayerTableRecord
  2
114
 70
     0
 62
     7
  6
CONTINUOUS
370
    -3
390
B55
  0
LAYER
  5
BDE
330
B48
100
AcDbSymbolTableRecord
100
AcDbLayerTableRecord
  2
115
 70
     0
 62
     7
  6
CONTINUOUS
370
    -3
390
B55
  0
LAYER
  5
BDF
330
B48
100
AcDbSymbolTableRecord
100
AcDbLayerTableRecord
  2
116
 70
     0
 62
     7
  6
CONTINUOUS
370
    -3
390
B55
  0
LAYER
  5
BE0
330
B48
100
AcDbSymbolTableRecord
100
AcDbLayerTableRecord
  2
117
 70
     0
 62
     7
  6
CONTINUOUS
370
    -3
390
B55
  0
LAYER
  5
BE1
330
B48
100
AcDbSymbolTableRecord
100
AcDbLayerTableRecord
  2
118
 70
     0
 62
     7
  6
CONTINUOUS
370
    -3
390
B55
  0
LAYER
  5
BE2
330
B48
100
AcDbSymbolTableRecord
100
AcDbLayerTableRecord
  2
119
 70
     0
 62
     7
  6
CONTINUOUS
370
    -3
390
B55
  0
LAYER
  5
BE3
330
B48
100
AcDbSymbolTableRecord
100
AcDbLayerTableRecord
  2
120
 70
     0
 62
     7
  6
CONTINUOUS
370
    -3
390
B55
  0
LAYER
  5
BE4
330
B48
100
AcDbSymbolTableRecord
100
AcDbLayerTableRecord
  2
121
 70
     0
 62
     7
  6
CONTINUOUS
370
    -3
390
B55
  0
LAYER
  5
BE5
330
B48
100
AcDbSymbolTableRecord
100
AcDbLayerTableRecord
  2
122
 70
     0
 62
     7
  6
CONTINUOUS
370
    -3
390
B55
  0
LAYER
  5
BE6
330
B48
100
AcDbSymbolTableRecord
100
AcDbLayerTableRecord
  2
123
 70
     0
 62
     7
  6
CONTINUOUS
370
    -3
390
B55
  0
LAYER
  5
BE7
330
B48
100
AcDbSymbolTableRecord
100
AcDbLayerTableRecord
  2
124
 70
     0
 62
     7
  6
CONTINUOUS
370
    -3
390
B55
  0
LAYER
  5
BE8
330
B48
100
AcDbSymbolTableRecord
100
AcDbLayerTableRecord
  2
125
 70
     0
 62
     7
  6
CONTINUOUS
370
    -3
390
B55
  0
LAYER
  5
BE9
330
B48
100
AcDbSymbolTableRecord
100
AcDbLayerTableRecord
  2
126
 70
     0
 62
     7
  6
CONTINUOUS
370
    -3
390
B55
  0
LAYER
  5
BEA
330
B48
100
AcDbSymbolTableRecord
100
AcDbLayerTableRecord
  2
127
 70
     0
 62
     7
  6
CONTINUOUS
370
    -3
390
B55
  0
ENDTAB
  0
TABLE
  2
STYLE
  5
B49
330
0
100
AcDbSymbolTable
 70
    13
  0
STYLE
  5
B57
330
B49
100
AcDbSymbolTableRecord
100
AcDbTextStyleTableRecord
  2
STANDARD
 70
     0
 40
0.0
 41
1.0
 50
0.0
 71
     0
 42
0.2
  3
txt
  4

  0
STYLE
  5
BEB
330
B49
100
AcDbSymbolTableRecord
100
AcDbTextStyleTableRecord
  2
KANJI0
 70
     0
 40
3.0
 41
0.833333333
 50
0.0
 71
     0
 42
3.0
  3
txt
  4
bigfont
  0
STYLE
  5
BEC
330
B49
100
AcDbSymbolTableRecord
100
AcDbTextStyleTableRecord
  2
KANJI1
 70
     0
 40
1.0
 41
0.7
 50
0.0
 71
     0
 42
1.0
  3
txt
  4
bigfont
  0
STYLE
  5
BED
330
B49
100
AcDbSymbolTableRecord
100
AcDbTextStyleTableRecord
  2
KANJI2
 70
     0
 40
0.5
 41
0.7
 50
0.0
 71
     0
 42
0.5
  3
txt
  4
bigfont
  0
STYLE
  5
BEE
330
B49
100
AcDbSymbolTableRecord
100
AcDbTextStyleTableRecord
  2
KANJI3
 70
     0
 40
1.5
 41
0.75
 50
0.0
 71
     0
 42
1.5
  3
txt
  4
bigfont
  0
STYLE
  5
BEF
330
B49
100
AcDbSymbolTableRecord
100
AcDbTextStyleTableRecord
  2
KANJI4
 70
     0
 40
2.0
 41
0.925
 50
0.0
 71
     0
 42
2.0
  3
txt
  4
bigfont
  0
STYLE
  5
BF0
330
B49
100
AcDbSymbolTableRecord
100
AcDbTextStyleTableRecord
  2
KANJI5
 70
     0
 40
2.375999999999999
 41
0.925
 50
0.0
 71
     0
 42
2.375999999999999
  3
txt
  4
bigfont
  0
STYLE
  5
BF1
330
B49
100
AcDbSymbolTableRecord
100
AcDbTextStyleTableRecord
  2
KANJI6
 70
     0
 40
3.0
 41
0.8
 50
0.0
 71
     0
 42
3.0
  3
txt
  4
bigfont
  0
STYLE
  5
BF2
330
B49
100
AcDbSymbolTableRecord
100
AcDbTextStyleTableRecord
  2
KANJI7
 70
     0
 40
2.0
 41
1.0
 50
0.0
 71
     0
 42
2.0
  3
txt
  4
bigfont
  0
STYLE
  5
BF3
330
B49
100
AcDbSymbolTableRecord
100
AcDbTextStyleTableRecord
  2
KANJI8
 70
     0
 40
2.5
 41
0.8
 50
0.0
 71
     0
 42
2.5
  3
txt
  4
bigfont
  0
STYLE
  5
BF4
330
B49
100
AcDbSymbolTableRecord
100
AcDbTextStyleTableRecord
  2
KANJI9
 70
     0
 40
1.5
 41
1.0
 50
0.0
 71
     0
 42
1.5
  3
txt
  4
bigfont
  0
STYLE
  5
BF5
330
B49
100
AcDbSymbolTableRecord
100
AcDbTextStyleTableRecord
  2
KANJI10
 70
     0
 40
4.0
 41
1.0
 50
0.0
 71
     0
 42
4.0
  3
txt
  4
bigfont
  0
STYLE
  5
BF6
330
B49
100
AcDbSymbolTableRecord
100
AcDbTextStyleTableRecord
  2
KANJI11
 70
     0
 40
1.199999999999999
 41
0.925
 50
0.0
 71
     0
 42
1.199999999999999
  3
txt
  4
bigfont
  0
ENDTAB
  0
TABLE
  2
VIEW
  5
B4C
330
0
100
AcDbSymbolTable
 70
     0
  0
ENDTAB
  0
TABLE
  2
UCS
  5
B4D
330
0
100
AcDbSymbolTable
 70
     0
  0
ENDTAB
  0
TABLE
  2
APPID
  5
B4F
330
0
100
AcDbSymbolTable
 70
     1
  0
APPID
  5
B58
330
B4F
100
AcDbSymbolTableRecord
100
AcDbRegAppTableRecord
  2
ACAD
 70
     0
  0
ENDTAB
  0
TABLE
  2
DIMSTYLE
  5
B50
330
0
100
AcDbSymbolTable
 70
     1
100
AcDbDimStyleTable
 71
     0
  0
DIMSTYLE
105
BF7
330
B50
100
AcDbSymbolTableRecord
100
AcDbDimStyleTableRecord
  2
STANDARD
 70
     0
279
     2
340
B57
  0
ENDTAB
  0
TABLE
  2
BLOCK_RECORD
  5
B47
330
0
100
AcDbSymbolTable
 70
     2
  0
BLOCK_RECORD
  5
B64
330
B47
100
AcDbSymbolTableRecord
100
AcDbBlockTableRecord
  2
*Model_Space
340
B67
  0
BLOCK_RECORD
  5
B60
330
B47
100
AcDbSymbolTableRecord
100
AcDbBlockTableRecord
  2
*Paper_Space
340
B63
  0
BLOCK_RECORD
  5
BFA
330
B47
100
AcDbSymbolTableRecord
100
AcDbBlockTableRecord
  2
$MODEL_SPACE
340
0
  0
BLOCK_RECORD
  5
BFD
330
B47
100
AcDbSymbolTableRecord
100
AcDbBlockTableRecord
  2
$PAPER_SPACE
340
0
  0
ENDTAB
  0
ENDSEC
  0
SECTION
  2
BLOCKS
  0
BLOCK
  5
B65
330
B64
100
AcDbEntity
  8
0
100
AcDbBlockBegin
  2
*Model_Space
 70
     0
 10
0.0
 20
0.0
 30
0.0
  3
*Model_Space
  1

  0
ENDBLK
  5
B66
330
B64
100
AcDbEntity
  8
0
100
AcDbBlockEnd
  0
BLOCK
  5
B61
330
B60
100
AcDbEntity
 67
     1
  8
0
100
AcDbBlockBegin
  2
*Paper_Space
 70
     0
 10
0.0
 20
0.0
 30
0.0
  3
*Paper_Space
  1

  0
ENDBLK
  5
B62
330
B60
100
AcDbEntity
 67
     1
  8
0
100
AcDbBlockEnd
  0
BLOCK
  5
BFB
330
BFA
100
AcDbEntity
  8
0
100
AcDbBlockBegin
  2
$MODEL_SPACE
 70
     0
 10
0.0
 20
0.0
 30
0.0
  3
$MODEL_SPACE
  1

  0
ENDBLK
  5
BFC
330
BFA
100
AcDbEntity
  8
0
100
AcDbBlockEnd
  0
BLOCK
  5
BFE
330
BFD
100
AcDbEntity
  8
0
100
AcDbBlockBegin
  2
$PAPER_SPACE
 70
     0
 10
0.0
 20
0.0
 30
0.0
  3
$PAPER_SPACE
  1

  0
ENDBLK
  5
BFF
330
BFD
100
AcDbEntity
  8
0
100
AcDbBlockEnd
  0
ENDSEC
  0
SECTION
  2
ENTITIES
  0
LINE
  5
C00
330
B64
100
AcDbEntity
  8
0
  6
Continuous
 62
     3
100
AcDbLine
 10
64.0
 20
128.4999999999998
 30
0.0
 11
64.0
 21
127.0
 31
0.0
  0
LINE
  5
C01
330
B64
100
AcDbEntity
  8
0
  6
Continuous
 62
     3
100
AcDbLine
 10
64.0
 20
127.0
 30
0.0
 11
64.0
 21
122.0
 31
0.0
  0
LINE
  5
C02
330
B64
100
AcDbEntity
  8
0
  6
Continuous
 62
     4
100
AcDbLine
 10
158.0
 20
136.2125
 30
0.0
 11
156.0681483469998
 21
136.73013809
 31
0.0
  0
LINE
  5
C03
330
B64
100
AcDbEntity
  8
0
  6
Continuous
 62
     4
100
AcDbLine
 10
158.0
 20
136.2125
 30
0.0
 11
156.0681483469998
 21
135.6948619099999
 31
0.0
  0
LINE
  5
C04
330
B64
100
AcDbEntity
  8
0
  6
Continuous
 62
     4
100
AcDbLine
 10
66.0
 20
136.2125
 30
0.0
 11
67.93185165299999
 21
135.6948619099999
 31
0.0
  0
LINE
  5
C05
330
B64
100
AcDbEntity
  8
0
  6
Continuous
 62
     4
100
AcDbLine
 10
66.0
 20
136.2125
 30
0.0
 11
67.93185165299999
 21
136.73013809
 31
0.0
  0
LINE
  5
C06
330
B64
100
AcDbEntity
  8
0
  6
Continuous
 62
     3
100
AcDbLine
 10
66.0
 20
128.4999999999998
 30
0.0
 11
66.0
 21
137.2125
 31
0.0
  0
LINE
  5
C07
330
B64
100
AcDbEntity
  8
0
  6
Continuous
 62
     4
100
AcDbLine
 10
64.0
 20
107.0
 30
0.0
 11
48.0
 21
107.0
 31
0.0
  0
LINE
  5
C08
330
B64
100
AcDbEntity
  8
0
  6
Continuous
 62
     4
100
AcDbLine
 10
49.0
 20
107.0
 30
0.0
 11
48.48236191
 21
105.068148347
 31
0.0
  0
LINE
  5
C09
330
B64
100
AcDbEntity
  8
0
  6
Continuous
 62
     4
100
AcDbLine
 10
49.0
 20
107.0
 30
0.0
 11
49.51763809
 21
105.068148347
 31
0.0
  0
LINE
  5
C0A
330
B64
100
AcDbEntity
  8
0
  6
Continuous
 62
     4
100
AcDbLine
 10
49.0
 20
107.0
 30
0.0
 11
49.0
 21
59.0
 31
0.0
  0
LINE
  5
C0B
330
B64
100
AcDbEntity
  8
0
  6
Continuous
 62
     4
100
AcDbLine
 10
49.0
 20
59.0
 30
0.0
 11
49.51763809
 21
60.931851653
 31
0.0
  0
LINE
  5
C0C
330
B64
100
AcDbEntity
  8
0
  6
Continuous
 62
     4
100
AcDbLine
 10
49.0
 20
59.0
 30
0.0
 11
48.48236191
 21
60.931851653
 31
0.0
  0
LINE
  5
C0D
330
B64
100
AcDbEntity
  8
0
  6
Continuous
 62
     4
100
AcDbLine
 10
64.0
 20
59.0
 30
0.0
 11
48.0
 21
59.0
 31
0.0
  0
TEXT
  5
C0E
330
B64
100
AcDbEntity
  8
0
  6
Continuous
 62
     4
100
AcDbText
 10
48.0
 20
80.4
 30
0.3
 40
3.0
  1
４８
 50
90.0
 41
0.833333333
  7
KANJI0
100
AcDbText
  0
LINE
  5
C0F
330
B64
100
AcDbEntity
  8
0
  6
Continuous
 62
     4
100
AcDbLine
 10
64.0
 20
59.5
 30
0.3
 11
64.0
 21
45.49999999999999
 31
0.3
  0
LINE
  5
C10
330
B64
100
AcDbEntity
  8
0
  6
Continuous
 62
     4
100
AcDbLine
 10
64.0
 20
46.5
 30
0.0
 11
65.93185165299999
 21
45.98236191
 31
0.0
  0
LINE
  5
C11
330
B64
100
AcDbEntity
  8
0
  6
Continuous
 62
     4
100
AcDbLine
 10
64.0
 20
46.5
 30
0.0
 11
65.93185165299999
 21
47.01763809
 31
0.0
  0
LINE
  5
C12
330
B64
100
AcDbEntity
  8
0
  6
Continuous
 62
     4
100
AcDbLine
 10
160.0
 20
46.5
 30
0.0
 11
158.068148347
 21
47.01763809
 31
0.0
  0
LINE
  5
C13
330
B64
100
AcDbEntity
  8
0
  6
Continuous
 62
     4
100
AcDbLine
 10
160.0
 20
46.5
 30
0.0
 11
158.068148347
 21
45.98236191
 31
0.0
  0
LINE
  5
C14
330
B64
100
AcDbEntity
  8
0
  6
Continuous
 62
     4
100
AcDbLine
 10
160.0
 20
59.0
 30
0.0
 11
160.0
 21
45.49999999999999
 31
0.0
  0
TEXT
  5
C15
330
B64
100
AcDbEntity
  8
0
  6
Continuous
 62
     4
100
AcDbText
 10
114.4
 20
47.5
 30
0.3
 40
3.0
  1
９６
 41
0.833333333
  7
KANJI0
100
AcDbText
  0
LINE
  5
C16
330
B64
100
AcDbEntity
  8
0
  6
Continuous
 62
     4
100
AcDbLine
 10
64.0
 20
46.5
 30
0.3
 11
160.0
 21
46.5
 31
0.3
  0
TEXT
  5
C17
330
B64
100
AcDbEntity
  8
0
  6
Continuous
 62
     3
100
AcDbText
 10
872.6
 20
423.7499999999998
 30
0.05
 40
1.0
  1
１
 41
0.7
  7
KANJI1
100
AcDbText
  0
TEXT
  5
C18
330
B64
100
AcDbEntity
  8
0
  6
Continuous
 62
     3
100
AcDbText
 10
875.1000000000001
 20
423.7499999999998
 30
0.05
 40
1.0
  1
２
 41
0.7
  7
KANJI1
100
AcDbText
  0
TEXT
  5
C19
330
B64
100
AcDbEntity
  8
0
  6
Continuous
 62
     3
100
AcDbText
 10
877.5999999999996
 20
423.7499999999998
 30
0.05
 40
1.0
  1
３
 41
0.7
  7
KANJI1
100
AcDbText
  0
TEXT
  5
C1A
330
B64
100
AcDbEntity
  8
0
  6
Continuous
 62
     3
100
AcDbText
 10
880.1
 20
423.7499999999998
 30
0.05
 40
1.0
  1
４
 41
0.7
  7
KANJI1
100
AcDbText
  0
TEXT
  5
C1B
330
B64
100
AcDbEntity
  8
0
  6
Continuous
 62
     3
100
AcDbText
 10
882.6
 20
423.7499999999998
 30
0.05
 40
1.0
  1
５
 41
0.7
  7
KANJI1
100
AcDbText
  0
TEXT
  5
C1C
330
B64
100
AcDbEntity
  8
0
  6
Continuous
 62
     3
100
AcDbText
 10
885.1
 20
423.7499999999998
 30
0.05
 40
1.0
  1
６
 41
0.7
  7
KANJI1
100
AcDbText
  0
TEXT
  5
C1D
330
B64
100
AcDbEntity
  8
0
  6
Continuous
 62
     3
100
AcDbText
 10
887.6000000000001
 20
423.7499999999998
 30
0.05
 40
1.0
  1
７
 41
0.7
  7
KANJI1
100
AcDbText
  0
TEXT
  5
C1E
330
B64
100
AcDbEntity
  8
0
  6
Continuous
 62
     3
100
AcDbText
 10
890.0999999999996
 20
423.7499999999998
 30
0.05
 40
1.0
  1
８
 41
0.7
  7
KANJI1
100
AcDbText
  0
TEXT
  5
C1F
330
B64
100
AcDbEntity
  8
0
  6
Continuous
 62
     3
100
AcDbText
 10
892.6
 20
423.7499999999998
 30
0.05
 40
1.0
  1
９
 41
0.7
  7
KANJI1
100
AcDbText
  0
TEXT
  5
C20
330
B64
100
AcDbEntity
  8
0
  6
Continuous
 62
     3
100
AcDbText
 10
894.7
 20
423.7499999999998
 30
0.05
 40
1.0
  1
１０
 41
0.7
  7
KANJI1
100
AcDbText
  0
TEXT
  5
C21
330
B64
100
AcDbEntity
  8
0
  6
Continuous
 62
     3
100
AcDbText
 10
897.2000000000001
 20
423.7499999999998
 30
0.05
 40
1.0
  1
１１
 41
0.7
  7
KANJI1
100
AcDbText
  0
TEXT
  5
C22
330
B64
100
AcDbEntity
  8
0
  6
Continuous
 62
     3
100
AcDbText
 10
899.6999999999998
 20
423.7499999999998
 30
0.05
 40
1.0
  1
１２
 41
0.7
  7
KANJI1
100
AcDbText
  0
TEXT
  5
C23
330
B64
100
AcDbEntity
  8
0
  6
Continuous
 62
     3
100
AcDbText
 10
902.2
 20
423.7499999999998
 30
0.05
 40
1.0
  1
１３
 41
0.7
  7
KANJI1
100
AcDbText
  0
TEXT
  5
C24
330
B64
100
AcDbEntity
  8
0
  6
Continuous
 62
     3
100
AcDbText
 10
904.7
 20
423.7499999999998
 30
0.05
 40
1.0
  1
１４
 41
0.7
  7
KANJI1
100
AcDbText
  0
TEXT
  5
C25
330
B64
100
AcDbEntity
  8
0
  6
Continuous
 62
     3
100
AcDbText
 10
907.2
 20
423.7499999999998
 30
0.05
 40
1.0
  1
１５
 41
0.7
  7
KANJI1
100
AcDbText
  0
TEXT
  5
C26
330
B64
100
AcDbEntity
  8
0
  6
Continuous
 62
     3
100
AcDbText
 10
909.7000000000001
 20
423.7499999999998
 30
0.05
 40
1.0
  1
１６
 41
0.7
  7
KANJI1
100
AcDbText
  0
TEXT
  5
C27
330
B64
100
AcDbEntity
  8
0
  6
Continuous
 62
     3
100
AcDbText
 10
912.1999999999999
 20
423.7499999999998
 30
0.05
 40
1.0
  1
１７
 41
0.7
  7
KANJI1
100
AcDbText
  0
TEXT
  5
C28
330
B64
100
AcDbEntity
  8
0
  6
Continuous
 62
     3
100
AcDbText
 10
914.7
 20
423.7499999999998
 30
0.05
 40
1.0
  1
１８
 41
0.7
  7
KANJI1
100
AcDbText
  0
TEXT
  5
C29
330
B64
100
AcDbEntity
  8
0
  6
Continuous
 62
     3
100
AcDbText
 10
872.2000000000001
 20
429.25
 30
0.05
 40
1.0
  1
１９
 41
0.7
  7
KANJI1
100
AcDbText
  0
TEXT
  5
C2A
330
B64
100
AcDbEntity
  8
0
  6
Continuous
 62
     3
100
AcDbText
 10
874.6999999999998
 20
429.25
 30
0.05
 40
1.0
  1
２０
 41
0.7
  7
KANJI1
100
AcDbText
  0
TEXT
  5
C2B
330
B64
100
AcDbEntity
  8
0
  6
Continuous
 62
     3
100
AcDbText
 10
877.2
 20
429.25
 30
0.05
 40
1.0
  1
２１
 41
0.7
  7
KANJI1
100
AcDbText
  0
TEXT
  5
C2C
330
B64
100
AcDbEntity
  8
0
  6
Continuous
 62
     3
100
AcDbText
 10
879.7
 20
429.25
 30
0.05
 40
1.0
  1
２２
 41
0.7
  7
KANJI1
100
AcDbText
  0
TEXT
  5
C2D
330
B64
100
AcDbEntity
  8
0
  6
Continuous
 62
     3
100
AcDbText
 10
882.2
 20
429.25
 30
0.05
 40
1.0
  1
２３
 41
0.7
  7
KANJI1
100
AcDbText
  0
TEXT
  5
C2E
330
B64
100
AcDbEntity
  8
0
  6
Continuous
 62
     3
100
AcDbText
 10
884.7000000000001
 20
429.25
 30
0.05
 40
1.0
  1
２４
 41
0.7
  7
KANJI1
100
AcDbText
  0
TEXT
  5
C2F
330
B64
100
AcDbEntity
  8
0
  6
Continuous
 62
     3
100
AcDbText
 10
887.1999999999998
 20
429.25
 30
0.05
 40
1.0
  1
２５
 41
0.7
  7
KANJI1
100
AcDbText
  0
TEXT
  5
C30
330
B64
100
AcDbEntity
  8
0
  6
Continuous
 62
     3
100
AcDbText
 10
889.7
 20
429.25
 30
0.05
 40
1.0
  1
２６
 41
0.7
  7
KANJI1
100
AcDbText
  0
TEXT
  5
C31
330
B64
100
AcDbEntity
  8
0
  6
Continuous
 62
     3
100
AcDbText
 10
892.2
 20
429.25
 30
0.05
 40
1.0
  1
２７
 41
0.7
  7
KANJI1
100
AcDbText
  0
TEXT
  5
C32
330
B64
100
AcDbEntity
  8
0
  6
Continuous
 62
     3
100
AcDbText
 10
894.7
 20
429.25
 30
0.05
 40
1.0
  1
２８
 41
0.7
  7
KANJI1
100
AcDbText
  0
TEXT
  5
C33
330
B64
100
AcDbEntity
  8
0
  6
Continuous
 62
     3
100
AcDbText
 10
897.2000000000001
 20
429.25
 30
0.05
 40
1.0
  1
２９
 41
0.7
  7
KANJI1
100
AcDbText
  0
TEXT
  5
C34
330
B64
100
AcDbEntity
  8
0
  6
Continuous
 62
     3
100
AcDbText
 10
899.6999999999998
 20
429.25
 30
0.05
 40
1.0
  1
３０
 41
0.7
  7
KANJI1
100
AcDbText
  0
TEXT
  5
C35
330
B64
100
AcDbEntity
  8
0
  6
Continuous
 62
     3
100
AcDbText
 10
902.2
 20
429.25
 30
0.05
 40
1.0
  1
３１
 41
0.7
  7
KANJI1
100
AcDbText
  0
TEXT
  5
C36
330
B64
100
AcDbEntity
  8
0
  6
Continuous
 62
     3
100
AcDbText
 10
904.7
 20
429.25
 30
0.05
 40
1.0
  1
３２
 41
0.7
  7
KANJI1
100
AcDbText
  0
TEXT
  5
C37
330
B64
100
AcDbEntity
  8
0
  6
Continuous
 62
     3
100
AcDbText
 10
907.2
 20
429.25
 30
0.05
 40
1.0
  1
３３
 41
0.7
  7
KANJI1
100
AcDbText
  0
TEXT
  5
C38
330
B64
100
AcDbEntity
  8
0
  6
Continuous
 62
     3
100
AcDbText
 10
909.7000000000001
 20
429.25
 30
0.05
 40
1.0
  1
３４
 41
0.7
  7
KANJI1
100
AcDbText
  0
TEXT
  5
C39
330
B64
100
AcDbEntity
  8
0
  6
Continuous
 62
     3
100
AcDbText
 10
912.1999999999999
 20
429.25
 30
0.05
 40
1.0
  1
３５
 41
0.7
  7
KANJI1
100
AcDbText
  0
TEXT
  5
C3A
330
B64
100
AcDbEntity
  8
0
  6
Continuous
 62
     3
100
AcDbText
 10
914.7
 20
429.25
 30
0.05
 40
1.0
  1
３６
 41
0.7
  7
KANJI1
100
AcDbText
  0
TEXT
  5
C3B
330
B64
100
AcDbEntity
  8
0
  6
Continuous
 62
     3
100
AcDbText
 10
872.6
 20
421.75
 30
0.05
 40
1.0
  1
１
 41
0.7
  7
KANJI1
100
AcDbText
  0
TEXT
  5
C3C
330
B64
100
AcDbEntity
  8
0
  6
Continuous
 62
     3
100
AcDbText
 10
875.1000000000001
 20
421.75
 30
0.05
 40
1.0
  1
２
 41
0.7
  7
KANJI1
100
AcDbText
  0
TEXT
  5
C3D
330
B64
100
AcDbEntity
  8
0
  6
Continuous
 62
     3
100
AcDbText
 10
880.1
 20
421.75
 30
0.05
 40
1.0
  1
８
 41
0.7
  7
KANJI1
100
AcDbText
  0
TEXT
  5
C3E
330
B64
100
AcDbEntity
  8
0
  6
Continuous
 62
     3
100
AcDbText
 10
882.6
 20
421.75
 30
0.05
 40
1.0
  1
１
 41
0.7
  7
KANJI1
100
AcDbText
  0
TEXT
  5
C3F
330
B64
100
AcDbEntity
  8
0
  6
Continuous
 62
     3
100
AcDbText
 10
885.1
 20
421.75
 30
0.05
 40
1.0
  1
２
 41
0.7
  7
KANJI1
100
AcDbText
  0
TEXT
  5
C40
330
B64
100
AcDbEntity
  8
0
  6
Continuous
 62
     3
100
AcDbText
 10
887.6000000000001
 20
421.75
 30
0.05
 40
1.0
  1
４
 41
0.7
  7
KANJI1
100
AcDbText
  0
TEXT
  5
C41
330
B64
100
AcDbEntity
  8
0
  6
Continuous
 62
     3
100
AcDbText
 10
890.0999999999996
 20
421.75
 30
0.05
 40
1.0
  1
８
 41
0.7
  7
KANJI1
100
AcDbText
  0
TEXT
  5
C42
330
B64
100
AcDbEntity
  8
0
  6
Continuous
 62
     3
100
AcDbText
 10
892.6
 20
421.75
 30
0.05
 40
1.0
  1
１
 41
0.7
  7
KANJI1
100
AcDbText
  0
TEXT
  5
C43
330
B64
100
AcDbEntity
  8
0
  6
Continuous
 62
     3
100
AcDbText
 10
895.1
 20
421.75
 30
0.05
 40
1.0
  1
２
 41
0.7
  7
KANJI1
100
AcDbText
  0
TEXT
  5
C44
330
B64
100
AcDbEntity
  8
0
  6
Continuous
 62
     3
100
AcDbText
 10
912.6000000000001
 20
421.75
 30
0.05
 40
1.0
  1
０
 41
0.7
  7
KANJI1
100
AcDbText
  0
TEXT
  5
C45
330
B64
100
AcDbEntity
  8
0
  6
Continuous
 62
     3
100
AcDbText
 10
914.2999999999997
 20
421.75
 30
0.05
 40
1.0
  1
ＣＯＭ
 41
0.7
  7
KANJI1
100
AcDbText
  0
TEXT
  5
C46
330
B64
100
AcDbEntity
  8
0
  6
Continuous
 62
     3
100
AcDbText
 10
909.75
 20
421.75
 30
0.05
 40
1.0
  1
ＳＧ
 41
0.7
  7
KANJI1
100
AcDbText
  0
TEXT
  5
C47
330
B64
100
AcDbEntity
  8
0
  6
Continuous
 62
     3
100
AcDbText
 10
906.9
 20
421.75
 30
0.05
 40
1.0
  1
ＴＸＤ
 41
0.7
  7
KANJI1
100
AcDbText
  0
TEXT
  5
C48
330
B64
100
AcDbEntity
  8
0
  6
Continuous
 62
     3
100
AcDbText
 10
904.3499999999999
 20
421.75
 30
0.05
 40
1.0
  1
ＲＸＤ
 41
0.7
  7
KANJI1
100
AcDbText
  0
TEXT
  5
C49
330
B64
100
AcDbEntity
  8
0
  6
Continuous
 62
     3
100
AcDbText
 10
872.6
 20
431.25
 30
0.05
 40
1.0
  1
１
 41
0.7
  7
KANJI1
100
AcDbText
  0
TEXT
  5
C4A
330
B64
100
AcDbEntity
  8
0
  6
Continuous
 62
     3
100
AcDbText
 10
875.1000000000001
 20
431.25
 30
0.05
 40
1.0
  1
２
 41
0.7
  7
KANJI1
100
AcDbText
  0
TEXT
  5
C4B
330
B64
100
AcDbEntity
  8
0
  6
Continuous
 62
     3
100
AcDbText
 10
877.5999999999996
 20
431.25
 30
0.05
 40
1.0
  1
４
 41
0.7
  7
KANJI1
100
AcDbText
  0
TEXT
  5
C4C
330
B64
100
AcDbEntity
  8
0
  6
Continuous
 62
     3
100
AcDbText
 10
880.1
 20
431.25
 30
0.05
 40
1.0
  1
８
 41
0.7
  7
KANJI1
100
AcDbText
  0
TEXT
  5
C4D
330
B64
100
AcDbEntity
  8
0
  6
Continuous
 62
     3
100
AcDbText
 10
882.6
 20
431.25
 30
0.05
 40
1.0
  1
１
 41
0.7
  7
KANJI1
100
AcDbText
  0
TEXT
  5
C4E
330
B64
100
AcDbEntity
  8
0
  6
Continuous
 62
     3
100
AcDbText
 10
885.1
 20
431.25
 30
0.05
 40
1.0
  1
２
 41
0.7
  7
KANJI1
100
AcDbText
  0
TEXT
  5
C4F
330
B64
100
AcDbEntity
  8
0
  6
Continuous
 62
     3
100
AcDbText
 10
887.6000000000001
 20
431.25
 30
0.05
 40
1.0
  1
４
 41
0.7
  7
KANJI1
100
AcDbText
  0
TEXT
  5
C50
330
B64
100
AcDbEntity
  8
0
  6
Continuous
 62
     3
100
AcDbText
 10
890.0999999999996
 20
431.25
 30
0.05
 40
1.0
  1
８
 41
0.7
  7
KANJI1
100
AcDbText
  0
TEXT
  5
C51
330
B64
100
AcDbEntity
  8
0
  6
Continuous
 62
     3
100
AcDbText
 10
912.6000000000001
 20
431.25
 30
0.05
 40
1.0
  1
１
 41
0.7
  7
KANJI1
100
AcDbText
  0
TEXT
  5
C52
330
B64
100
AcDbEntity
  8
0
  6
Continuous
 62
     3
100
AcDbText
 10
914.3500000000001
 20
431.25
 30
0.05
 40
1.0
  1
ＣＯＭ
 41
0.7
  7
KANJI1
100
AcDbText
  0
TEXT
  5
C53
330
B64
100
AcDbEntity
  8
0
  6
Continuous
 62
     3
100
AcDbText
 10
904.25
 20
431.25
 30
0.05
 40
1.0
  1
ＲＴＳ
 41
0.7
  7
KANJI1
100
AcDbText
  0
TEXT
  5
C54
330
B64
100
AcDbEntity
  8
0
  6
Continuous
 62
     3
100
AcDbText
 10
906.85
 20
431.25
 30
0.05
 40
1.0
  1
ＣＴＳ
 41
0.7
  7
KANJI1
100
AcDbText
  0
TEXT
  5
C55
330
B64
100
AcDbEntity
  8
0
  6
Continuous
 62
     3
100
AcDbText
 10
909.7000000000001
 20
431.25
 30
0.05
 40
1.0
  1
ＳＧ
 41
0.7
  7
KANJI1
100
AcDbText
  0
TEXT
  5
C56
330
B64
100
AcDbEntity
  8
0
  6
Continuous
 62
     3
100
AcDbText
 10
877.5999999999996
 20
421.75
 30
0.05
 40
1.0
  1
４
 41
0.7
  7
KANJI1
100
AcDbText
  0
TEXT
  5
C57
330
B64
100
AcDbEntity
  8
0
  6
Continuous
 62
     3
100
AcDbText
 10
875.6
 20
420.2499999999998
 30
0.05
 40
1.0
  1
１０
 41
0.7
  7
KANJI1
100
AcDbText
  0
TEXT
  5
C58
330
B64
100
AcDbEntity
  8
0
  6
Continuous
 62
     3
100
AcDbText
 10
877.1
 20
420.75
 30
0.025
 40
0.5
  1
０
 41
0.7
  7
KANJI2
100
AcDbText
  0
TEXT
  5
C59
330
B64
100
AcDbEntity
  8
0
  6
Continuous
 62
     3
100
AcDbText
 10
875.6
 20
432.7499999999998
 30
0.05
 40
1.0
  1
１０
 41
0.7
  7
KANJI1
100
AcDbText
  0
TEXT
  5
C5A
330
B64
100
AcDbEntity
  8
0
  6
Continuous
 62
     3
100
AcDbText
 10
877.1
 20
433.25
 30
0.025
 40
0.5
  1
１
 41
0.7
  7
KANJI2
100
AcDbText
  0
TEXT
  5
C5B
330
B64
100
AcDbEntity
  8
0
  6
Continuous
 62
     3
100
AcDbText
 10
885.5999999999996
 20
432.7499999999998
 30
0.05
 40
1.0
  1
１０
 41
0.7
  7
KANJI1
100
AcDbText
  0
TEXT
  5
C5C
330
B64
100
AcDbEntity
  8
0
  6
Continuous
 62
     3
100
AcDbText
 10
887.1
 20
433.25
 30
0.025
 40
0.5
  1
３
 41
0.7
  7
KANJI2
100
AcDbText
  0
TEXT
  5
C5D
330
B64
100
AcDbEntity
  8
0
  6
Continuous
 62
     3
100
AcDbText
 10
885.5999999999996
 20
420.2499999999998
 30
0.05
 40
1.0
  1
１０
 41
0.7
  7
KANJI1
100
AcDbText
  0
TEXT
  5
C5E
330
B64
100
AcDbEntity
  8
0
  6
Continuous
 62
     3
100
AcDbText
 10
887.1
 20
420.75
 30
0.025
 40
0.5
  1
２
 41
0.7
  7
KANJI2
100
AcDbText
  0
LINE
  5
C5F
330
B64
100
AcDbEntity
  8
0
  6
Continuous
 62
     3
100
AcDbLine
 10
872.85
 20
432.7499999999998
 30
0.025
 11
872.85
 21
433.25
 31
0.025
  0
LINE
  5
C60
330
B64
100
AcDbEntity
  8
0
  6
Continuous
 62
     3
100
AcDbLine
 10
872.85
 20
433.25
 30
0.0
 11
875.35
 21
433.25
 31
0.0
  0
LINE
  5
C61
330
B64
100
AcDbEntity
  8
0
  6
Continuous
 62
     3
100
AcDbLine
 10
877.5999999999996
 20
433.25
 30
0.0
 11
880.3499999999997
 21
433.25
 31
0.0
  0
LINE
  5
C62
330
B64
100
AcDbEntity
  8
0
  6
Continuous
 62
     3
100
AcDbLine
 10
880.3499999999997
 20
433.25
 30
0.0
 11
880.3499999999997
 21
432.7499999999998
 31
0.0
  0
LINE
  5
C63
330
B64
100
AcDbEntity
  8
0
  6
Continuous
 62
     3
100
AcDbLine
 10
882.85
 20
432.7499999999998
 30
0.0
 11
882.85
 21
433.25
 31
0.0
  0
LINE
  5
C64
330
B64
100
AcDbEntity
  8
0
  6
Continuous
 62
     3
100
AcDbLine
 10
882.85
 20
433.25
 30
0.0
 11
885.35
 21
433.25
 31
0.0
  0
LINE
  5
C65
330
B64
100
AcDbEntity
  8
0
  6
Continuous
 62
     3
100
AcDbLine
 10
887.6000000000001
 20
433.25
 30
0.0
 11
890.3500000000001
 21
433.25
 31
0.0
  0
LINE
  5
C66
330
B64
100
AcDbEntity
  8
0
  6
Continuous
 62
     3
100
AcDbLine
 10
890.3500000000001
 20
433.25
 30
0.0
 11
890.3500000000001
 21
432.7499999999998
 31
0.0
  0
LINE
  5
C67
330
B64
100
AcDbEntity
  8
0
  6
Continuous
 62
     3
100
AcDbLine
 10
890.3500000000001
 20
421.25
 30
0.0
 11
890.3500000000001
 21
420.75
 31
0.0
  0
LINE
  5
C68
330
B64
100
AcDbEntity
  8
0
  6
Continuous
 62
     3
100
AcDbLine
 10
890.3500000000001
 20
420.75
 30
0.0
 11
887.6000000000001
 21
420.75
 31
0.0
  0
LINE
  5
C69
330
B64
100
AcDbEntity
  8
0
  6
Continuous
 62
     3
100
AcDbLine
 10
885.35
 20
420.75
 30
0.0
 11
882.85
 21
420.75
 31
0.0
  0
LINE
  5
C6A
330
B64
100
AcDbEntity
  8
0
  6
Continuous
 62
     3
100
AcDbLine
 10
882.85
 20
420.75
 30
0.0
 11
882.85
 21
421.25
 31
0.0
  0
LINE
  5
C6B
330
B64
100
AcDbEntity
  8
0
  6
Continuous
 62
     3
100
AcDbLine
 10
880.3499999999997
 20
421.25
 30
0.0
 11
880.3499999999997
 21
420.75
 31
0.0
  0
LINE
  5
C6C
330
B64
100
AcDbEntity
  8
0
  6
Continuous
 62
     3
100
AcDbLine
 10
880.3499999999997
 20
420.75
 30
0.0
 11
877.5999999999996
 21
420.75
 31
0.0
  0
LINE
  5
C6D
330
B64
100
AcDbEntity
  8
0
  6
Continuous
 62
     3
100
AcDbLine
 10
875.35
 20
420.75
 30
0.0
 11
872.85
 21
420.75
 31
0.0
  0
LINE
  5
C6E
330
B64
100
AcDbEntity
  8
0
  6
Continuous
 62
     3
100
AcDbLine
 10
872.85
 20
420.75
 30
0.0
 11
872.85
 21
421.25
 31
0.0
  0
LINE
  5
C6F
330
B64
100
AcDbEntity
  8
0
  6
Continuous
 62
     3
100
AcDbLine
 10
892.8499999999997
 20
421.25
 30
0.0
 11
892.8499999999997
 21
420.75
 31
0.0
  0
LINE
  5
C70
330
B64
100
AcDbEntity
  8
0
  6
Continuous
 62
     3
100
AcDbLine
 10
892.8499999999997
 20
420.75
 30
0.0
 11
893.1
 21
420.75
 31
0.0
  0
LINE
  5
C71
330
B64
100
AcDbEntity
  8
0
  6
Continuous
 62
     3
100
AcDbLine
 10
895.1
 20
420.75
 30
0.0
 11
895.35
 21
420.75
 31
0.0
  0
LINE
  5
C72
330
B64
100
AcDbEntity
  8
0
  6
Continuous
 62
     3
100
AcDbLine
 10
895.35
 20
420.75
 30
0.0
 11
895.35
 21
421.25
 31
0.0
  0
TEXT
  5
C73
330
B64
100
AcDbEntity
  8
0
  6
Continuous
 62
     3
100
AcDbText
 10
893.25
 20
420.2499999999998
 30
0.05
 40
1.0
  1
１０
 41
0.7
  7
KANJI1
100
AcDbText
  0
TEXT
  5
C74
330
B64
100
AcDbEntity
  8
0
  6
Continuous
 62
     3
100
AcDbText
 10
894.7499999999999
 20
420.75
 30
0.025
 40
0.5
  1
４
 41
0.7
  7
KANJI2
100
AcDbText
  0
TEXT
  5
C75
330
B64
100
AcDbEntity
  8
0
  6
Continuous
 62
     3
100
AcDbText
 10
889.1
 20
415.7499999999997
 30
0.05
 40
1.0
  1
ＡＮＡＬＯＧ　ＯＵＴ
 41
0.7
  7
KANJI1
100
AcDbText
  0
TEXT
  5
C76
330
B64
100
AcDbEntity
  8
0
  6
Continuous
 62
     3
100
AcDbText
 10
878.1
 20
417.25
 30
0.05
 40
1.0
  1
ＢＣＤ　ＯＵＴ
 41
0.7
  7
KANJI1
100
AcDbText
  0
LINE
  5
C77
330
B64
100
AcDbEntity
  8
0
  6
Continuous
 62
     3
100
AcDbLine
 10
872.85
 20
420.2499999999998
 30
0.05
 11
872.85
 21
417.75
 31
0.05
  0
LINE
  5
C78
330
B64
100
AcDbEntity
  8
0
  6
Continuous
 62
     3
100
AcDbLine
 10
872.85
 20
417.75
 30
0.0
 11
877.8500000000001
 21
417.75
 31
0.0
  0
LINE
  5
C79
330
B64
100
AcDbEntity
  8
0
  6
Continuous
 62
     3
100
AcDbLine
 10
897.85
 20
422.75
 30
0.0
 11
897.85
 21
419.2499999999998
 31
0.0
  0
LINE
  5
C7A
330
B64
100
AcDbEntity
  8
0
  6
Continuous
 62
     3
100
AcDbLine
 10
897.85
 20
419.2499999999998
 30
0.0
 11
896.85
 21
419.2499999999998
 31
0.0
  0
TEXT
  5
C7B
330
B64
100
AcDbEntity
  8
0
  6
Continuous
 62
     3
100
AcDbText
 10
892.1000000000001
 20
418.75
 30
0.05
 40
1.0
  1
ＥＮＡＢＬＥ
 41
0.7
  7
KANJI1
100
AcDbText
  0
TEXT
  5
C7C
330
B64
100
AcDbEntity
  8
0
  6
Continuous
 62
     3
100
AcDbText
 10
891.35
 20
417.25
 30
0.05
 40
1.0
  1
ＤＩＧ．ＣＯＭ
 41
0.7
  7
KANJI1
100
AcDbText
  0
LINE
  5
C7D
330
B64
100
AcDbEntity
  8
0
  6
Continuous
 62
     3
100
AcDbLine
 10
891.0999999999997
 20
417.75
 30
0.05
 11
883.35
 21
417.75
 31
0.05
  0
LINE
  5
C7E
330
B64
100
AcDbEntity
  8
0
  6
Continuous
 62
     3
100
AcDbLine
 10
896.85
 20
417.75
 30
0.0
 11
900.35
 21
417.75
 31
0.0
  0
LINE
  5
C7F
330
B64
100
AcDbEntity
  8
0
  6
Continuous
 62
     3
100
AcDbLine
 10
900.35
 20
417.75
 30
0.0
 11
900.35
 21
422.75
 31
0.0
  0
LINE
  5
C80
330
B64
100
AcDbEntity
  8
0
  6
Continuous
 62
     3
100
AcDbLine
 10
902.8500000000001
 20
422.75
 30
0.0
 11
902.8500000000001
 21
416.2499999999998
 31
0.0
  0
LINE
  5
C81
330
B64
100
AcDbEntity
  8
0
  6
Continuous
 62
     3
100
AcDbLine
 10
902.8500000000001
 20
416.2499999999998
 30
0.0
 11
896.85
 21
416.2499999999998
 31
0.0
  0
LINE
  5
C82
330
B64
100
AcDbEntity
  8
0
  6
Continuous
 62
     3
100
AcDbLine
 10
905.3499999999999
 20
421.25
 30
0.0
 11
905.3499999999999
 21
420.75
 31
0.0
  0
LINE
  5
C83
330
B64
100
AcDbEntity
  8
0
  6
Continuous
 62
     3
100
AcDbLine
 10
905.3499999999999
 20
420.75
 30
0.0
 11
910.35
 21
420.75
 31
0.0
  0
LINE
  5
C84
330
B64
100
AcDbEntity
  8
0
  6
Continuous
 62
     3
100
AcDbLine
 10
910.35
 20
420.75
 30
0.0
 11
910.35
 21
421.25
 31
0.0
  0
LINE
  5
C85
330
B64
100
AcDbEntity
  8
0
  6
Continuous
 62
     3
100
AcDbLine
 10
912.85
 20
421.25
 30
0.0
 11
912.85
 21
420.75
 31
0.0
  0
LINE
  5
C86
330
B64
100
AcDbEntity
  8
0
  6
Continuous
 62
     3
100
AcDbLine
 10
912.85
 20
420.75
 30
0.0
 11
915.3500000000001
 21
420.75
 31
0.0
  0
LINE
  5
C87
330
B64
100
AcDbEntity
  8
0
  6
Continuous
 62
     3
100
AcDbLine
 10
915.3500000000001
 20
420.75
 30
0.0
 11
915.3500000000001
 21
421.25
 31
0.0
  0
LINE
  5
C88
330
B64
100
AcDbEntity
  8
0
  6
Continuous
 62
     3
100
AcDbLine
 10
915.3500000000001
 20
432.7499999999998
 30
0.0
 11
915.3500000000001
 21
433.25
 31
0.0
  0
LINE
  5
C89
330
B64
100
AcDbEntity
  8
0
  6
Continuous
 62
     3
100
AcDbLine
 10
915.3500000000001
 20
433.25
 30
0.0
 11
912.85
 21
433.25
 31
0.0
  0
LINE
  5
C8A
330
B64
100
AcDbEntity
  8
0
  6
Continuous
 62
     3
100
AcDbLine
 10
912.85
 20
433.25
 30
0.0
 11
912.85
 21
432.7499999999998
 31
0.0
  0
LINE
  5
C8B
330
B64
100
AcDbEntity
  8
0
  6
Continuous
 62
     3
100
AcDbLine
 10
910.35
 20
432.7499999999998
 30
0.0
 11
910.35
 21
433.25
 31
0.0
  0
LINE
  5
C8C
330
B64
100
AcDbEntity
  8
0
  6
Continuous
 62
     3
100
AcDbLine
 10
910.35
 20
433.25
 30
0.0
 11
905.3499999999999
 21
433.25
 31
0.0
  0
LINE
  5
C8D
330
B64
100
AcDbEntity
  8
0
  6
Continuous
 62
     3
100
AcDbLine
 10
905.3499999999999
 20
433.25
 30
0.0
 11
905.3499999999999
 21
432.7499999999998
 31
0.0
  0
TEXT
  5
C8E
330
B64
100
AcDbEntity
  8
0
  6
Continuous
 62
     3
100
AcDbText
 10
905.3499999999999
 20
433.75
 30
0.05
 40
1.0
  1
ＲＳ－２３２Ｃ
 41
0.7
  7
KANJI1
100
AcDbText
  0
TEXT
  5
C8F
330
B64
100
AcDbEntity
  8
0
  6
Continuous
 62
     3
100
AcDbText
 10
912.3499999999999
 20
433.75
 30
0.05
 40
1.0
  1
Ｐ．ＳＥＬ
 41
0.7
  7
KANJI1
100
AcDbText
  0
TEXT
  5
C90
330
B64
100
AcDbEntity
  8
0
  6
Continuous
 62
     3
100
AcDbText
 10
912.3499999999999
 20
419.2499999999998
 30
0.05
 40
1.0
  1
Ｐ．ＳＥＬ
 41
0.7
  7
KANJI1
100
AcDbText
  0
TEXT
  5
C91
330
B64
100
AcDbEntity
  8
0
  6
Continuous
 62
     3
100
AcDbText
 10
905.3499999999999
 20
419.2499999999998
 30
0.05
 40
1.0
  1
ＲＳ－２３２Ｃ
 41
0.7
  7
KANJI1
100
AcDbText
  0
TEXT
  5
C92
330
B64
100
AcDbEntity
  8
0
  6
Continuous
 62
     3
100
AcDbText
 10
906.85
 20
414.25
 30
0.05
 40
1.0
  1
ＵＨ－４４４１５
 41
0.7
  7
KANJI1
100
AcDbText
  0
TEXT
  5
C93
330
B64
100
AcDbEntity
  8
0
  6
Continuous
 62
     3
100
AcDbText
 10
897.2000000000001
 20
432.7499999999998
 30
0.05
 40
1.0
  1
ＰＣ
 41
0.7
  7
KANJI1
100
AcDbText
  0
TEXT
  5
C94
330
B64
100
AcDbEntity
  8
0
  6
Continuous
 62
     3
100
AcDbText
 10
891.8499999999996
 20
432.7499999999998
 30
0.05
 40
1.0
  1
ＰＯＬ
 41
0.7
  7
KANJI1
100
AcDbText
  0
LINE
  5
C95
330
B64
100
AcDbEntity
  8
0
  6
Continuous
 62
     3
100
AcDbLine
 10
892.8499999999997
 20
431.25
 30
0.05
 11
892.8499999999997
 21
432.2499999999998
 31
0.05
  0
LINE
  5
C96
330
B64
100
AcDbEntity
  8
0
  6
Continuous
 62
     3
100
AcDbLine
 10
897.85
 20
432.2499999999998
 30
0.0
 11
897.85
 21
431.25
 31
0.0
  0
TEXT
  5
C97
330
B64
100
AcDbEntity
  8
0
  6
Continuous
 62
     3
100
AcDbText
 10
891.8499999999996
 20
434.25
 30
0.05
 40
1.0
  1
ＯＶＥＲ
 41
0.7
  7
KANJI1
100
AcDbText
  0
TEXT
  5
C98
330
B64
100
AcDbEntity
  8
0
  6
Continuous
 62
     3
100
AcDbText
 10
891.8499999999996
 20
435.7499999999998
 30
0.05
 40
1.0
  1
ＤＩＧ．ＣＯＭ
 41
0.7
  7
KANJI1
100
AcDbText
  0
TEXT
  5
C99
330
B64
100
AcDbEntity
  8
0
  6
Continuous
 62
     3
100
AcDbText
 10
891.8499999999996
 20
437.25
 30
0.05
 40
1.0
  1
ＡＮＡＬＯＧ　ＣＯＭ
 41
0.7
  7
KANJI1
100
AcDbText
  0
TEXT
  5
C9A
330
B64
100
AcDbEntity
  8
0
  6
Continuous
 62
     3
100
AcDbText
 10
878.1
 20
435.7499999999998
 30
0.05
 40
1.0
  1
ＢＣＤ　ＯＵＴ
 41
0.7
  7
KANJI1
100
AcDbText
  0
LINE
  5
C9B
330
B64
100
AcDbEntity
  8
0
  6
Continuous
 62
     3
100
AcDbLine
 10
872.85
 20
433.75
 30
0.05
 11
872.85
 21
436.2499999999998
 31
0.05
  0
LINE
  5
C9C
330
B64
100
AcDbEntity
  8
0
  6
Continuous
 62
     3
100
AcDbLine
 10
872.85
 20
436.2499999999998
 30
0.0
 11
877.8500000000001
 21
436.2499999999998
 31
0.0
  0
LINE
  5
C9D
330
B64
100
AcDbEntity
  8
0
  6
Continuous
 62
     3
100
AcDbLine
 10
883.35
 20
436.2499999999998
 30
0.0
 11
891.6
 21
436.2499999999998
 31
0.0
  0
LINE
  5
C9E
330
B64
100
AcDbEntity
  8
0
  6
Continuous
 62
     3
100
AcDbLine
 10
897.3499999999997
 20
436.2499999999998
 30
0.0
 11
900.35
 21
436.2499999999998
 31
0.0
  0
LINE
  5
C9F
330
B64
100
AcDbEntity
  8
0
  6
Continuous
 62
     3
100
AcDbLine
 10
900.35
 20
436.2499999999998
 30
0.0
 11
900.35
 21
431.25
 31
0.0
  0
LINE
  5
CA0
330
B64
100
AcDbEntity
  8
0
  6
Continuous
 62
     3
100
AcDbLine
 10
899.6
 20
437.75
 30
0.0
 11
902.8500000000001
 21
437.75
 31
0.0
  0
LINE
  5
CA1
330
B64
100
AcDbEntity
  8
0
  6
Continuous
 62
     3
100
AcDbLine
 10
902.8500000000001
 20
437.75
 30
0.0
 11
902.8500000000001
 21
431.25
 31
0.0
  0
LINE
  5
CA2
330
B64
100
AcDbEntity
  8
0
  6
Continuous
 62
     3
100
AcDbLine
 10
894.8500000000001
 20
434.75
 30
0.0
 11
895.35
 21
434.75
 31
0.0
  0
LINE
  5
CA3
330
B64
100
AcDbEntity
  8
0
  6
Continuous
 62
     3
100
AcDbLine
 10
895.35
 20
434.75
 30
0.0
 11
895.35
 21
431.25
 31
0.0
  0
LINE
  5
CA4
330
B64
100
AcDbEntity
  8
0
  6
LTYPE1
 62
     3
100
AcDbLine
 10
900.35
 20
427.7499999999998
 30
0.0
 11
900.35
 21
426.25
 31
0.0
  0
LINE
  5
CA5
330
B64
100
AcDbEntity
  8
0
  6
LTYPE1
 62
     3
100
AcDbLine
 10
900.8499999999999
 20
428.2499999999997
 30
0.0
 11
902.35
 21
428.2499999999997
 31
0.0
  0
LINE
  5
CA6
330
B64
100
AcDbEntity
  8
0
  6
LTYPE1
 62
     3
100
AcDbLine
 10
900.35
 20
427.0
 30
0.0
 11
910.35
 21
427.0
 31
0.0
  0
LINE
  5
CA7
330
B64
100
AcDbEntity
  8
0
  6
LTYPE1
 62
     3
100
AcDbLine
 10
910.35
 20
427.7499999999998
 30
0.0
 11
910.35
 21
426.25
 31
0.0
  0
LINE
  5
CA8
330
B64
100
AcDbEntity
  8
0
  6
LTYPE1
 62
     3
100
AcDbLine
 10
915.3500000000001
 20
426.25
 30
0.0
 11
915.3500000000001
 21
427.7499999999998
 31
0.0
  0
TEXT
  5
CA9
330
B64
100
AcDbEntity
  8
0
  6
Continuous
 62
     3
100
AcDbText
 10
872.6
 20
423.7499999999998
 30
0.05
 40
1.0
  1
１
 41
0.7
  7
KANJI1
100
AcDbText
  0
TEXT
  5
CAA
330
B64
100
AcDbEntity
  8
0
  6
Continuous
 62
     3
100
AcDbText
 10
875.1000000000001
 20
423.7499999999998
 30
0.05
 40
1.0
  1
２
 41
0.7
  7
KANJI1
100
AcDbText
  0
TEXT
  5
CAB
330
B64
100
AcDbEntity
  8
0
  6
Continuous
 62
     3
100
AcDbText
 10
877.5999999999996
 20
423.7499999999998
 30
0.05
 40
1.0
  1
３
 41
0.7
  7
KANJI1
100
AcDbText
  0
TEXT
  5
CAC
330
B64
100
AcDbEntity
  8
0
  6
Continuous
 62
     3
100
AcDbText
 10
880.1
 20
423.7499999999998
 30
0.05
 40
1.0
  1
４
 41
0.7
  7
KANJI1
100
AcDbText
  0
TEXT
  5
CAD
330
B64
100
AcDbEntity
  8
0
  6
Continuous
 62
     3
100
AcDbText
 10
882.6
 20
423.7499999999998
 30
0.05
 40
1.0
  1
５
 41
0.7
  7
KANJI1
100
AcDbText
  0
TEXT
  5
CAE
330
B64
100
AcDbEntity
  8
0
  6
Continuous
 62
     3
100
AcDbText
 10
885.1
 20
423.7499999999998
 30
0.05
 40
1.0
  1
６
 41
0.7
  7
KANJI1
100
AcDbText
  0
TEXT
  5
CAF
330
B64
100
AcDbEntity
  8
0
  6
Continuous
 62
     3
100
AcDbText
 10
887.6000000000001
 20
423.7499999999998
 30
0.05
 40
1.0
  1
７
 41
0.7
  7
KANJI1
100
AcDbText
  0
TEXT
  5
CB0
330
B64
100
AcDbEntity
  8
0
  6
Continuous
 62
     3
100
AcDbText
 10
890.0999999999996
 20
423.7499999999998
 30
0.05
 40
1.0
  1
８
 41
0.7
  7
KANJI1
100
AcDbText
  0
TEXT
  5
CB1
330
B64
100
AcDbEntity
  8
0
  6
Continuous
 62
     3
100
AcDbText
 10
892.6
 20
423.7499999999998
 30
0.05
 40
1.0
  1
９
 41
0.7
  7
KANJI1
100
AcDbText
  0
TEXT
  5
CB2
330
B64
100
AcDbEntity
  8
0
  6
Continuous
 62
     3
100
AcDbText
 10
894.7
 20
423.7499999999998
 30
0.05
 40
1.0
  1
１０
 41
0.7
  7
KANJI1
100
AcDbText
  0
TEXT
  5
CB3
330
B64
100
AcDbEntity
  8
0
  6
Continuous
 62
     3
100
AcDbText
 10
897.2000000000001
 20
423.7499999999998
 30
0.05
 40
1.0
  1
１１
 41
0.7
  7
KANJI1
100
AcDbText
  0
TEXT
  5
CB4
330
B64
100
AcDbEntity
  8
0
  6
Continuous
 62
     3
100
AcDbText
 10
899.6999999999998
 20
423.7499999999998
 30
0.05
 40
1.0
  1
１２
 41
0.7
  7
KANJI1
100
AcDbText
  0
TEXT
  5
CB5
330
B64
100
AcDbEntity
  8
0
  6
Continuous
 62
     3
100
AcDbText
 10
902.2
 20
423.7499999999998
 30
0.05
 40
1.0
  1
１３
 41
0.7
  7
KANJI1
100
AcDbText
  0
TEXT
  5
CB6
330
B64
100
AcDbEntity
  8
0
  6
Continuous
 62
     3
100
AcDbText
 10
904.7
 20
423.7499999999998
 30
0.05
 40
1.0
  1
１４
 41
0.7
  7
KANJI1
100
AcDbText
  0
TEXT
  5
CB7
330
B64
100
AcDbEntity
  8
0
  6
Continuous
 62
     3
100
AcDbText
 10
907.2
 20
423.7499999999998
 30
0.05
 40
1.0
  1
１５
 41
0.7
  7
KANJI1
100
AcDbText
  0
TEXT
  5
CB8
330
B64
100
AcDbEntity
  8
0
  6
Continuous
 62
     3
100
AcDbText
 10
909.7000000000001
 20
423.7499999999998
 30
0.05
 40
1.0
  1
１６
 41
0.7
  7
KANJI1
100
AcDbText
  0
TEXT
  5
CB9
330
B64
100
AcDbEntity
  8
0
  6
Continuous
 62
     3
100
AcDbText
 10
912.1999999999999
 20
423.7499999999998
 30
0.05
 40
1.0
  1
１７
 41
0.7
  7
KANJI1
100
AcDbText
  0
TEXT
  5
CBA
330
B64
100
AcDbEntity
  8
0
  6
Continuous
 62
     3
100
AcDbText
 10
914.7
 20
423.7499999999998
 30
0.05
 40
1.0
  1
１８
 41
0.7
  7
KANJI1
100
AcDbText
  0
TEXT
  5
CBB
330
B64
100
AcDbEntity
  8
0
  6
Continuous
 62
     3
100
AcDbText
 10
872.2000000000001
 20
429.25
 30
0.05
 40
1.0
  1
１９
 41
0.7
  7
KANJI1
100
AcDbText
  0
TEXT
  5
CBC
330
B64
100
AcDbEntity
  8
0
  6
Continuous
 62
     3
100
AcDbText
 10
874.6999999999998
 20
429.25
 30
0.05
 40
1.0
  1
２０
 41
0.7
  7
KANJI1
100
AcDbText
  0
TEXT
  5
CBD
330
B64
100
AcDbEntity
  8
0
  6
Continuous
 62
     3
100
AcDbText
 10
877.2
 20
429.25
 30
0.05
 40
1.0
  1
２１
 41
0.7
  7
KANJI1
100
AcDbText
  0
TEXT
  5
CBE
330
B64
100
AcDbEntity
  8
0
  6
Continuous
 62
     3
100
AcDbText
 10
879.7
 20
429.25
 30
0.05
 40
1.0
  1
２２
 41
0.7
  7
KANJI1
100
AcDbText
  0
TEXT
  5
CBF
330
B64
100
AcDbEntity
  8
0
  6
Continuous
 62
     3
100
AcDbText
 10
882.2
 20
429.25
 30
0.05
 40
1.0
  1
２３
 41
0.7
  7
KANJI1
100
AcDbText
  0
TEXT
  5
CC0
330
B64
100
AcDbEntity
  8
0
  6
Continuous
 62
     3
100
AcDbText
 10
884.7000000000001
 20
429.25
 30
0.05
 40
1.0
  1
２４
 41
0.7
  7
KANJI1
100
AcDbText
  0
TEXT
  5
CC1
330
B64
100
AcDbEntity
  8
0
  6
Continuous
 62
     3
100
AcDbText
 10
887.1999999999998
 20
429.25
 30
0.05
 40
1.0
  1
２５
 41
0.7
  7
KANJI1
100
AcDbText
  0
TEXT
  5
CC2
330
B64
100
AcDbEntity
  8
0
  6
Continuous
 62
     3
100
AcDbText
 10
889.7
 20
429.25
 30
0.05
 40
1.0
  1
２６
 41
0.7
  7
KANJI1
100
AcDbText
  0
TEXT
  5
CC3
330
B64
100
AcDbEntity
  8
0
  6
Continuous
 62
     3
100
AcDbText
 10
892.2
 20
429.25
 30
0.05
 40
1.0
  1
２７
 41
0.7
  7
KANJI1
100
AcDbText
  0
TEXT
  5
CC4
330
B64
100
AcDbEntity
  8
0
  6
Continuous
 62
     3
100
AcDbText
 10
894.7
 20
429.25
 30
0.05
 40
1.0
  1
２８
 41
0.7
  7
KANJI1
100
AcDbText
  0
TEXT
  5
CC5
330
B64
100
AcDbEntity
  8
0
  6
Continuous
 62
     3
100
AcDbText
 10
897.2000000000001
 20
429.25
 30
0.05
 40
1.0
  1
２９
 41
0.7
  7
KANJI1
100
AcDbText
  0
TEXT
  5
CC6
330
B64
100
AcDbEntity
  8
0
  6
Continuous
 62
     3
100
AcDbText
 10
899.6999999999998
 20
429.25
 30
0.05
 40
1.0
  1
３０
 41
0.7
  7
KANJI1
100
AcDbText
  0
TEXT
  5
CC7
330
B64
100
AcDbEntity
  8
0
  6
Continuous
 62
     3
100
AcDbText
 10
902.2
 20
429.25
 30
0.05
 40
1.0
  1
３１
 41
0.7
  7
KANJI1
100
AcDbText
  0
TEXT
  5
CC8
330
B64
100
AcDbEntity
  8
0
  6
Continuous
 62
     3
100
AcDbText
 10
904.7
 20
429.25
 30
0.05
 40
1.0
  1
３２
 41
0.7
  7
KANJI1
100
AcDbText
  0
TEXT
  5
CC9
330
B64
100
AcDbEntity
  8
0
  6
Continuous
 62
     3
100
AcDbText
 10
907.2
 20
429.25
 30
0.05
 40
1.0
  1
３３
 41
0.7
  7
KANJI1
100
AcDbText
  0
TEXT
  5
CCA
330
B64
100
AcDbEntity
  8
0
  6
Continuous
 62
     3
100
AcDbText
 10
909.7000000000001
 20
429.25
 30
0.05
 40
1.0
  1
３４
 41
0.7
  7
KANJI1
100
AcDbText
  0
TEXT
  5
CCB
330
B64
100
AcDbEntity
  8
0
  6
Continuous
 62
     3
100
AcDbText
 10
912.1999999999999
 20
429.25
 30
0.05
 40
1.0
  1
３５
 41
0.7
  7
KANJI1
100
AcDbText
  0
TEXT
  5
CCC
330
B64
100
AcDbEntity
  8
0
  6
Continuous
 62
     3
100
AcDbText
 10
914.7
 20
429.25
 30
0.05
 40
1.0
  1
３６
 41
0.7
  7
KANJI1
100
AcDbText
  0
TEXT
  5
CCD
330
B64
100
AcDbEntity
  8
0
  6
Continuous
 62
     3
100
AcDbText
 10
872.6
 20
421.75
 30
0.05
 40
1.0
  1
１
 41
0.7
  7
KANJI1
100
AcDbText
  0
TEXT
  5
CCE
330
B64
100
AcDbEntity
  8
0
  6
Continuous
 62
     3
100
AcDbText
 10
875.1000000000001
 20
421.75
 30
0.05
 40
1.0
  1
２
 41
0.7
  7
KANJI1
100
AcDbText
  0
TEXT
  5
CCF
330
B64
100
AcDbEntity
  8
0
  6
Continuous
 62
     3
100
AcDbText
 10
880.1
 20
421.75
 30
0.05
 40
1.0
  1
８
 41
0.7
  7
KANJI1
100
AcDbText
  0
TEXT
  5
CD0
330
B64
100
AcDbEntity
  8
0
  6
Continuous
 62
     3
100
AcDbText
 10
882.6
 20
421.75
 30
0.05
 40
1.0
  1
１
 41
0.7
  7
KANJI1
100
AcDbText
  0
TEXT
  5
CD1
330
B64
100
AcDbEntity
  8
0
  6
Continuous
 62
     3
100
AcDbText
 10
885.1
 20
421.75
 30
0.05
 40
1.0
  1
２
 41
0.7
  7
KANJI1
100
AcDbText
  0
TEXT
  5
CD2
330
B64
100
AcDbEntity
  8
0
  6
Continuous
 62
     3
100
AcDbText
 10
887.6000000000001
 20
421.75
 30
0.05
 40
1.0
  1
４
 41
0.7
  7
KANJI1
100
AcDbText
  0
TEXT
  5
CD3
330
B64
100
AcDbEntity
  8
0
  6
Continuous
 62
     3
100
AcDbText
 10
890.0999999999996
 20
421.75
 30
0.05
 40
1.0
  1
８
 41
0.7
  7
KANJI1
100
AcDbText
  0
TEXT
  5
CD4
330
B64
100
AcDbEntity
  8
0
  6
Continuous
 62
     3
100
AcDbText
 10
892.6
 20
421.75
 30
0.05
 40
1.0
  1
１
 41
0.7
  7
KANJI1
100
AcDbText
  0
TEXT
  5
CD5
330
B64
100
AcDbEntity
  8
0
  6
Continuous
 62
     3
100
AcDbText
 10
895.1
 20
421.75
 30
0.05
 40
1.0
  1
２
 41
0.7
  7
KANJI1
100
AcDbText
  0
TEXT
  5
CD6
330
B64
100
AcDbEntity
  8
0
  6
Continuous
 62
     3
100
AcDbText
 10
912.6000000000001
 20
421.75
 30
0.05
 40
1.0
  1
０
 41
0.7
  7
KANJI1
100
AcDbText
  0
TEXT
  5
CD7
330
B64
100
AcDbEntity
  8
0
  6
Continuous
 62
     3
100
AcDbText
 10
914.2999999999997
 20
421.75
 30
0.05
 40
1.0
  1
ＣＯＭ
 41
0.7
  7
KANJI1
100
AcDbText
  0
TEXT
  5
CD8
330
B64
100
AcDbEntity
  8
0
  6
Continuous
 62
     3
100
AcDbText
 10
909.75
 20
421.75
 30
0.05
 40
1.0
  1
ＳＧ
 41
0.7
  7
KANJI1
100
AcDbText
  0
TEXT
  5
CD9
330
B64
100
AcDbEntity
  8
0
  6
Continuous
 62
     3
100
AcDbText
 10
906.9
 20
421.75
 30
0.05
 40
1.0
  1
ＴＸＤ
 41
0.7
  7
KANJI1
100
AcDbText
  0
TEXT
  5
CDA
330
B64
100
AcDbEntity
  8
0
  6
Continuous
 62
     3
100
AcDbText
 10
904.3499999999999
 20
421.75
 30
0.05
 40
1.0
  1
ＲＸＤ
 41
0.7
  7
KANJI1
100
AcDbText
  0
TEXT
  5
CDB
330
B64
100
AcDbEntity
  8
0
  6
Continuous
 62
     3
100
AcDbText
 10
872.6
 20
431.25
 30
0.05
 40
1.0
  1
１
 41
0.7
  7
KANJI1
100
AcDbText
  0
TEXT
  5
CDC
330
B64
100
AcDbEntity
  8
0
  6
Continuous
 62
     3
100
AcDbText
 10
875.1000000000001
 20
431.25
 30
0.05
 40
1.0
  1
２
 41
0.7
  7
KANJI1
100
AcDbText
  0
TEXT
  5
CDD
330
B64
100
AcDbEntity
  8
0
  6
Continuous
 62
     3
100
AcDbText
 10
877.5999999999996
 20
431.25
 30
0.05
 40
1.0
  1
４
 41
0.7
  7
KANJI1
100
AcDbText
  0
TEXT
  5
CDE
330
B64
100
AcDbEntity
  8
0
  6
Continuous
 62
     3
100
AcDbText
 10
880.1
 20
431.25
 30
0.05
 40
1.0
  1
８
 41
0.7
  7
KANJI1
100
AcDbText
  0
TEXT
  5
CDF
330
B64
100
AcDbEntity
  8
0
  6
Continuous
 62
     3
100
AcDbText
 10
882.6
 20
431.25
 30
0.05
 40
1.0
  1
１
 41
0.7
  7
KANJI1
100
AcDbText
  0
TEXT
  5
CE0
330
B64
100
AcDbEntity
  8
0
  6
Continuous
 62
     3
100
AcDbText
 10
885.1
 20
431.25
 30
0.05
 40
1.0
  1
２
 41
0.7
  7
KANJI1
100
AcDbText
  0
TEXT
  5
CE1
330
B64
100
AcDbEntity
  8
0
  6
Continuous
 62
     3
100
AcDbText
 10
887.6000000000001
 20
431.25
 30
0.05
 40
1.0
  1
４
 41
0.7
  7
KANJI1
100
AcDbText
  0
TEXT
  5
CE2
330
B64
100
AcDbEntity
  8
0
  6
Continuous
 62
     3
100
AcDbText
 10
890.0999999999996
 20
431.25
 30
0.05
 40
1.0
  1
８
 41
0.7
  7
KANJI1
100
AcDbText
  0
TEXT
  5
CE3
330
B64
100
AcDbEntity
  8
0
  6
Continuous
 62
     3
100
AcDbText
 10
912.6000000000001
 20
431.25
 30
0.05
 40
1.0
  1
１
 41
0.7
  7
KANJI1
100
AcDbText
  0
TEXT
  5
CE4
330
B64
100
AcDbEntity
  8
0
  6
Continuous
 62
     3
100
AcDbText
 10
914.3500000000001
 20
431.25
 30
0.05
 40
1.0
  1
ＣＯＭ
 41
0.7
  7
KANJI1
100
AcDbText
  0
TEXT
  5
CE5
330
B64
100
AcDbEntity
  8
0
  6
Continuous
 62
     3
100
AcDbText
 10
904.25
 20
431.25
 30
0.05
 40
1.0
  1
ＲＴＳ
 41
0.7
  7
KANJI1
100
AcDbText
  0
TEXT
  5
CE6
330
B64
100
AcDbEntity
  8
0
  6
Continuous
 62
     3
100
AcDbText
 10
906.85
 20
431.25
 30
0.05
 40
1.0
  1
ＣＴＳ
 41
0.7
  7
KANJI1
100
AcDbText
  0
TEXT
  5
CE7
330
B64
100
AcDbEntity
  8
0
  6
Continuous
 62
     3
100
AcDbText
 10
909.7000000000001
 20
431.25
 30
0.05
 40
1.0
  1
ＳＧ
 41
0.7
  7
KANJI1
100
AcDbText
  0
TEXT
  5
CE8
330
B64
100
AcDbEntity
  8
0
  6
Continuous
 62
     3
100
AcDbText
 10
877.5999999999996
 20
421.75
 30
0.05
 40
1.0
  1
４
 41
0.7
  7
KANJI1
100
AcDbText
  0
TEXT
  5
CE9
330
B64
100
AcDbEntity
  8
0
  6
Continuous
 62
     3
100
AcDbText
 10
875.6
 20
420.2499999999998
 30
0.05
 40
1.0
  1
１０
 41
0.7
  7
KANJI1
100
AcDbText
  0
TEXT
  5
CEA
330
B64
100
AcDbEntity
  8
0
  6
Continuous
 62
     3
100
AcDbText
 10
877.1
 20
420.75
 30
0.025
 40
0.5
  1
０
 41
0.7
  7
KANJI2
100
AcDbText
  0
TEXT
  5
CEB
330
B64
100
AcDbEntity
  8
0
  6
Continuous
 62
     3
100
AcDbText
 10
875.6
 20
432.7499999999998
 30
0.05
 40
1.0
  1
１０
 41
0.7
  7
KANJI1
100
AcDbText
  0
TEXT
  5
CEC
330
B64
100
AcDbEntity
  8
0
  6
Continuous
 62
     3
100
AcDbText
 10
877.1
 20
433.25
 30
0.025
 40
0.5
  1
１
 41
0.7
  7
KANJI2
100
AcDbText
  0
TEXT
  5
CED
330
B64
100
AcDbEntity
  8
0
  6
Continuous
 62
     3
100
AcDbText
 10
885.5999999999996
 20
432.7499999999998
 30
0.05
 40
1.0
  1
１０
 41
0.7
  7
KANJI1
100
AcDbText
  0
TEXT
  5
CEE
330
B64
100
AcDbEntity
  8
0
  6
Continuous
 62
     3
100
AcDbText
 10
887.1
 20
433.25
 30
0.025
 40
0.5
  1
３
 41
0.7
  7
KANJI2
100
AcDbText
  0
TEXT
  5
CEF
330
B64
100
AcDbEntity
  8
0
  6
Continuous
 62
     3
100
AcDbText
 10
885.5999999999996
 20
420.2499999999998
 30
0.05
 40
1.0
  1
１０
 41
0.7
  7
KANJI1
100
AcDbText
  0
TEXT
  5
CF0
330
B64
100
AcDbEntity
  8
0
  6
Continuous
 62
     3
100
AcDbText
 10
887.1
 20
420.75
 30
0.025
 40
0.5
  1
２
 41
0.7
  7
KANJI2
100
AcDbText
  0
LINE
  5
CF1
330
B64
100
AcDbEntity
  8
0
  6
Continuous
 62
     3
100
AcDbLine
 10
872.85
 20
432.7499999999998
 30
0.025
 11
872.85
 21
433.25
 31
0.025
  0
LINE
  5
CF2
330
B64
100
AcDbEntity
  8
0
  6
Continuous
 62
     3
100
AcDbLine
 10
872.85
 20
433.25
 30
0.0
 11
875.35
 21
433.25
 31
0.0
  0
LINE
  5
CF3
330
B64
100
AcDbEntity
  8
0
  6
Continuous
 62
     3
100
AcDbLine
 10
877.5999999999996
 20
433.25
 30
0.0
 11
880.3499999999997
 21
433.25
 31
0.0
  0
LINE
  5
CF4
330
B64
100
AcDbEntity
  8
0
  6
Continuous
 62
     3
100
AcDbLine
 10
880.3499999999997
 20
433.25
 30
0.0
 11
880.3499999999997
 21
432.7499999999998
 31
0.0
  0
LINE
  5
CF5
330
B64
100
AcDbEntity
  8
0
  6
Continuous
 62
     3
100
AcDbLine
 10
882.85
 20
432.7499999999998
 30
0.0
 11
882.85
 21
433.25
 31
0.0
  0
LINE
  5
CF6
330
B64
100
AcDbEntity
  8
0
  6
Continuous
 62
     3
100
AcDbLine
 10
882.85
 20
433.25
 30
0.0
 11
885.35
 21
433.25
 31
0.0
  0
LINE
  5
CF7
330
B64
100
AcDbEntity
  8
0
  6
Continuous
 62
     3
100
AcDbLine
 10
887.6000000000001
 20
433.25
 30
0.0
 11
890.3500000000001
 21
433.25
 31
0.0
  0
LINE
  5
CF8
330
B64
100
AcDbEntity
  8
0
  6
Continuous
 62
     3
100
AcDbLine
 10
890.3500000000001
 20
433.25
 30
0.0
 11
890.3500000000001
 21
432.7499999999998
 31
0.0
  0
LINE
  5
CF9
330
B64
100
AcDbEntity
  8
0
  6
Continuous
 62
     3
100
AcDbLine
 10
890.3500000000001
 20
421.25
 30
0.0
 11
890.3500000000001
 21
420.75
 31
0.0
  0
LINE
  5
CFA
330
B64
100
AcDbEntity
  8
0
  6
Continuous
 62
     3
100
AcDbLine
 10
890.3500000000001
 20
420.75
 30
0.0
 11
887.6000000000001
 21
420.75
 31
0.0
  0
LINE
  5
CFB
330
B64
100
AcDbEntity
  8
0
  6
Continuous
 62
     3
100
AcDbLine
 10
885.35
 20
420.75
 30
0.0
 11
882.85
 21
420.75
 31
0.0
  0
LINE
  5
CFC
330
B64
100
AcDbEntity
  8
0
  6
Continuous
 62
     3
100
AcDbLine
 10
882.85
 20
420.75
 30
0.0
 11
882.85
 21
421.25
 31
0.0
  0
LINE
  5
CFD
330
B64
100
AcDbEntity
  8
0
  6
Continuous
 62
     3
100
AcDbLine
 10
880.3499999999997
 20
421.25
 30
0.0
 11
880.3499999999997
 21
420.75
 31
0.0
  0
LINE
  5
CFE
330
B64
100
AcDbEntity
  8
0
  6
Continuous
 62
     3
100
AcDbLine
 10
880.3499999999997
 20
420.75
 30
0.0
 11
877.5999999999996
 21
420.75
 31
0.0
  0
LINE
  5
CFF
330
B64
100
AcDbEntity
  8
0
  6
Continuous
 62
     3
100
AcDbLine
 10
875.35
 20
420.75
 30
0.0
 11
872.85
 21
420.75
 31
0.0
  0
LINE
  5
D00
330
B64
100
AcDbEntity
  8
0
  6
Continuous
 62
     3
100
AcDbLine
 10
872.85
 20
420.75
 30
0.0
 11
872.85
 21
421.25
 31
0.0
  0
LINE
  5
D01
330
B64
100
AcDbEntity
  8
0
  6
Continuous
 62
     3
100
AcDbLine
 10
892.8499999999997
 20
421.25
 30
0.0
 11
892.8499999999997
 21
420.75
 31
0.0
  0
LINE
  5
D02
330
B64
100
AcDbEntity
  8
0
  6
Continuous
 62
     3
100
AcDbLine
 10
892.8499999999997
 20
420.75
 30
0.0
 11
893.1
 21
420.75
 31
0.0
  0
LINE
  5
D03
330
B64
100
AcDbEntity
  8
0
  6
Continuous
 62
     3
100
AcDbLine
 10
895.1
 20
420.75
 30
0.0
 11
895.35
 21
420.75
 31
0.0
  0
LINE
  5
D04
330
B64
100
AcDbEntity
  8
0
  6
Continuous
 62
     3
100
AcDbLine
 10
895.35
 20
420.75
 30
0.0
 11
895.35
 21
421.25
 31
0.0
  0
TEXT
  5
D05
330
B64
100
AcDbEntity
  8
0
  6
Continuous
 62
     3
100
AcDbText
 10
893.25
 20
420.2499999999998
 30
0.05
 40
1.0
  1
１０
 41
0.7
  7
KANJI1
100
AcDbText
  0
TEXT
  5
D06
330
B64
100
AcDbEntity
  8
0
  6
Continuous
 62
     3
100
AcDbText
 10
894.7499999999999
 20
420.75
 30
0.025
 40
0.5
  1
４
 41
0.7
  7
KANJI2
100
AcDbText
  0
TEXT
  5
D07
330
B64
100
AcDbEntity
  8
0
  6
Continuous
 62
     3
100
AcDbText
 10
889.1
 20
415.7499999999997
 30
0.05
 40
1.0
  1
ＡＮＡＬＯＧ　ＯＵＴ
 41
0.7
  7
KANJI1
100
AcDbText
  0
TEXT
  5
D08
330
B64
100
AcDbEntity
  8
0
  6
Continuous
 62
     3
100
AcDbText
 10
878.1
 20
417.25
 30
0.05
 40
1.0
  1
ＢＣＤ　ＯＵＴ
 41
0.7
  7
KANJI1
100
AcDbText
  0
LINE
  5
D09
330
B64
100
AcDbEntity
  8
0
  6
Continuous
 62
     3
100
AcDbLine
 10
872.85
 20
420.2499999999998
 30
0.05
 11
872.85
 21
417.75
 31
0.05
  0
LINE
  5
D0A
330
B64
100
AcDbEntity
  8
0
  6
Continuous
 62
     3
100
AcDbLine
 10
872.85
 20
417.75
 30
0.0
 11
877.8500000000001
 21
417.75
 31
0.0
  0
LINE
  5
D0B
330
B64
100
AcDbEntity
  8
0
  6
Continuous
 62
     3
100
AcDbLine
 10
897.85
 20
422.75
 30
0.0
 11
897.85
 21
419.2499999999998
 31
0.0
  0
LINE
  5
D0C
330
B64
100
AcDbEntity
  8
0
  6
Continuous
 62
     3
100
AcDbLine
 10
897.85
 20
419.2499999999998
 30
0.0
 11
896.85
 21
419.2499999999998
 31
0.0
  0
TEXT
  5
D0D
330
B64
100
AcDbEntity
  8
0
  6
Continuous
 62
     3
100
AcDbText
 10
892.1000000000001
 20
418.75
 30
0.05
 40
1.0
  1
ＥＮＡＢＬＥ
 41
0.7
  7
KANJI1
100
AcDbText
  0
TEXT
  5
D0E
330
B64
100
AcDbEntity
  8
0
  6
Continuous
 62
     3
100
AcDbText
 10
891.35
 20
417.25
 30
0.05
 40
1.0
  1
ＤＩＧ．ＣＯＭ
 41
0.7
  7
KANJI1
100
AcDbText
  0
LINE
  5
D0F
330
B64
100
AcDbEntity
  8
0
  6
Continuous
 62
     3
100
AcDbLine
 10
891.0999999999997
 20
417.75
 30
0.05
 11
883.35
 21
417.75
 31
0.05
  0
LINE
  5
D10
330
B64
100
AcDbEntity
  8
0
  6
Continuous
 62
     3
100
AcDbLine
 10
896.85
 20
417.75
 30
0.0
 11
900.35
 21
417.75
 31
0.0
  0
LINE
  5
D11
330
B64
100
AcDbEntity
  8
0
  6
Continuous
 62
     3
100
AcDbLine
 10
900.35
 20
417.75
 30
0.0
 11
900.35
 21
422.75
 31
0.0
  0
LINE
  5
D12
330
B64
100
AcDbEntity
  8
0
  6
Continuous
 62
     3
100
AcDbLine
 10
902.8500000000001
 20
422.75
 30
0.0
 11
902.8500000000001
 21
416.2499999999998
 31
0.0
  0
LINE
  5
D13
330
B64
100
AcDbEntity
  8
0
  6
Continuous
 62
     3
100
AcDbLine
 10
902.8500000000001
 20
416.2499999999998
 30
0.0
 11
896.85
 21
416.2499999999998
 31
0.0
  0
LINE
  5
D14
330
B64
100
AcDbEntity
  8
0
  6
Continuous
 62
     3
100
AcDbLine
 10
905.3499999999999
 20
421.25
 30
0.0
 11
905.3499999999999
 21
420.75
 31
0.0
  0
LINE
  5
D15
330
B64
100
AcDbEntity
  8
0
  6
Continuous
 62
     3
100
AcDbLine
 10
905.3499999999999
 20
420.75
 30
0.0
 11
910.35
 21
420.75
 31
0.0
  0
LINE
  5
D16
330
B64
100
AcDbEntity
  8
0
  6
Continuous
 62
     3
100
AcDbLine
 10
910.35
 20
420.75
 30
0.0
 11
910.35
 21
421.25
 31
0.0
  0
LINE
  5
D17
330
B64
100
AcDbEntity
  8
0
  6
Continuous
 62
     3
100
AcDbLine
 10
912.85
 20
421.25
 30
0.0
 11
912.85
 21
420.75
 31
0.0
  0
LINE
  5
D18
330
B64
100
AcDbEntity
  8
0
  6
Continuous
 62
     3
100
AcDbLine
 10
912.85
 20
420.75
 30
0.0
 11
915.3500000000001
 21
420.75
 31
0.0
  0
LINE
  5
D19
330
B64
100
AcDbEntity
  8
0
  6
Continuous
 62
     3
100
AcDbLine
 10
915.3500000000001
 20
420.75
 30
0.0
 11
915.3500000000001
 21
421.25
 31
0.0
  0
LINE
  5
D1A
330
B64
100
AcDbEntity
  8
0
  6
Continuous
 62
     3
100
AcDbLine
 10
915.3500000000001
 20
432.7499999999998
 30
0.0
 11
915.3500000000001
 21
433.25
 31
0.0
  0
LINE
  5
D1B
330
B64
100
AcDbEntity
  8
0
  6
Continuous
 62
     3
100
AcDbLine
 10
915.3500000000001
 20
433.25
 30
0.0
 11
912.85
 21
433.25
 31
0.0
  0
LINE
  5
D1C
330
B64
100
AcDbEntity
  8
0
  6
Continuous
 62
     3
100
AcDbLine
 10
912.85
 20
433.25
 30
0.0
 11
912.85
 21
432.7499999999998
 31
0.0
  0
LINE
  5
D1D
330
B64
100
AcDbEntity
  8
0
  6
Continuous
 62
     3
100
AcDbLine
 10
910.35
 20
432.7499999999998
 30
0.0
 11
910.35
 21
433.25
 31
0.0
  0
LINE
  5
D1E
330
B64
100
AcDbEntity
  8
0
  6
Continuous
 62
     3
100
AcDbLine
 10
910.35
 20
433.25
 30
0.0
 11
905.3499999999999
 21
433.25
 31
0.0
  0
LINE
  5
D1F
330
B64
100
AcDbEntity
  8
0
  6
Continuous
 62
     3
100
AcDbLine
 10
905.3499999999999
 20
433.25
 30
0.0
 11
905.3499999999999
 21
432.7499999999998
 31
0.0
  0
TEXT
  5
D20
330
B64
100
AcDbEntity
  8
0
  6
Continuous
 62
     3
100
AcDbText
 10
905.3499999999999
 20
433.75
 30
0.05
 40
1.0
  1
ＲＳ－２３２Ｃ
 41
0.7
  7
KANJI1
100
AcDbText
  0
TEXT
  5
D21
330
B64
100
AcDbEntity
  8
0
  6
Continuous
 62
     3
100
AcDbText
 10
912.3499999999999
 20
433.75
 30
0.05
 40
1.0
  1
Ｐ．ＳＥＬ
 41
0.7
  7
KANJI1
100
AcDbText
  0
TEXT
  5
D22
330
B64
100
AcDbEntity
  8
0
  6
Continuous
 62
     3
100
AcDbText
 10
912.3499999999999
 20
419.2499999999998
 30
0.05
 40
1.0
  1
Ｐ．ＳＥＬ
 41
0.7
  7
KANJI1
100
AcDbText
  0
TEXT
  5
D23
330
B64
100
AcDbEntity
  8
0
  6
Continuous
 62
     3
100
AcDbText
 10
905.3499999999999
 20
419.2499999999998
 30
0.05
 40
1.0
  1
ＲＳ－２３２Ｃ
 41
0.7
  7
KANJI1
100
AcDbText
  0
TEXT
  5
D24
330
B64
100
AcDbEntity
  8
0
  6
Continuous
 62
     3
100
AcDbText
 10
906.85
 20
414.25
 30
0.05
 40
1.0
  1
ＵＨ－４４４１５
 41
0.7
  7
KANJI1
100
AcDbText
  0
TEXT
  5
D25
330
B64
100
AcDbEntity
  8
0
  6
Continuous
 62
     3
100
AcDbText
 10
897.2000000000001
 20
432.7499999999998
 30
0.05
 40
1.0
  1
ＰＣ
 41
0.7
  7
KANJI1
100
AcDbText
  0
TEXT
  5
D26
330
B64
100
AcDbEntity
  8
0
  6
Continuous
 62
     3
100
AcDbText
 10
891.8499999999996
 20
432.7499999999998
 30
0.05
 40
1.0
  1
ＰＯＬ
 41
0.7
  7
KANJI1
100
AcDbText
  0
LINE
  5
D27
330
B64
100
AcDbEntity
  8
0
  6
Continuous
 62
     3
100
AcDbLine
 10
892.8499999999997
 20
431.25
 30
0.05
 11
892.8499999999997
 21
432.2499999999998
 31
0.05
  0
LINE
  5
D28
330
B64
100
AcDbEntity
  8
0
  6
Continuous
 62
     3
100
AcDbLine
 10
897.85
 20
432.2499999999998
 30
0.0
 11
897.85
 21
431.25
 31
0.0
  0
TEXT
  5
D29
330
B64
100
AcDbEntity
  8
0
  6
Continuous
 62
     3
100
AcDbText
 10
891.8499999999996
 20
434.25
 30
0.05
 40
1.0
  1
ＯＶＥＲ
 41
0.7
  7
KANJI1
100
AcDbText
  0
TEXT
  5
D2A
330
B64
100
AcDbEntity
  8
0
  6
Continuous
 62
     3
100
AcDbText
 10
891.8499999999996
 20
435.7499999999998
 30
0.05
 40
1.0
  1
ＤＩＧ．ＣＯＭ
 41
0.7
  7
KANJI1
100
AcDbText
  0
TEXT
  5
D2B
330
B64
100
AcDbEntity
  8
0
  6
Continuous
 62
     3
100
AcDbText
 10
891.8499999999996
 20
437.25
 30
0.05
 40
1.0
  1
ＡＮＡＬＯＧ　ＣＯＭ
 41
0.7
  7
KANJI1
100
AcDbText
  0
TEXT
  5
D2C
330
B64
100
AcDbEntity
  8
0
  6
Continuous
 62
     3
100
AcDbText
 10
878.1
 20
435.7499999999998
 30
0.05
 40
1.0
  1
ＢＣＤ　ＯＵＴ
 41
0.7
  7
KANJI1
100
AcDbText
  0
LINE
  5
D2D
330
B64
100
AcDbEntity
  8
0
  6
Continuous
 62
     3
100
AcDbLine
 10
872.85
 20
433.75
 30
0.05
 11
872.85
 21
436.2499999999998
 31
0.05
  0
LINE
  5
D2E
330
B64
100
AcDbEntity
  8
0
  6
Continuous
 62
     3
100
AcDbLine
 10
872.85
 20
436.2499999999998
 30
0.0
 11
877.8500000000001
 21
436.2499999999998
 31
0.0
  0
LINE
  5
D2F
330
B64
100
AcDbEntity
  8
0
  6
Continuous
 62
     3
100
AcDbLine
 10
883.35
 20
436.2499999999998
 30
0.0
 11
891.6
 21
436.2499999999998
 31
0.0
  0
LINE
  5
D30
330
B64
100
AcDbEntity
  8
0
  6
Continuous
 62
     3
100
AcDbLine
 10
897.3499999999997
 20
436.2499999999998
 30
0.0
 11
900.35
 21
436.2499999999998
 31
0.0
  0
LINE
  5
D31
330
B64
100
AcDbEntity
  8
0
  6
Continuous
 62
     3
100
AcDbLine
 10
900.35
 20
436.2499999999998
 30
0.0
 11
900.35
 21
431.25
 31
0.0
  0
LINE
  5
D32
330
B64
100
AcDbEntity
  8
0
  6
Continuous
 62
     3
100
AcDbLine
 10
899.6
 20
437.75
 30
0.0
 11
902.8500000000001
 21
437.75
 31
0.0
  0
LINE
  5
D33
330
B64
100
AcDbEntity
  8
0
  6
Continuous
 62
     3
100
AcDbLine
 10
902.8500000000001
 20
437.75
 30
0.0
 11
902.8500000000001
 21
431.25
 31
0.0
  0
LINE
  5
D34
330
B64
100
AcDbEntity
  8
0
  6
Continuous
 62
     3
100
AcDbLine
 10
894.8500000000001
 20
434.75
 30
0.0
 11
895.35
 21
434.75
 31
0.0
  0
LINE
  5
D35
330
B64
100
AcDbEntity
  8
0
  6
Continuous
 62
     3
100
AcDbLine
 10
895.35
 20
434.75
 30
0.0
 11
895.35
 21
431.25
 31
0.0
  0
LINE
  5
D36
330
B64
100
AcDbEntity
  8
0
  6
LTYPE1
 62
     3
100
AcDbLine
 10
900.35
 20
427.7499999999998
 30
0.0
 11
900.35
 21
426.25
 31
0.0
  0
LINE
  5
D37
330
B64
100
AcDbEntity
  8
0
  6
LTYPE1
 62
     3
100
AcDbLine
 10
900.8499999999999
 20
428.2499999999997
 30
0.0
 11
902.35
 21
428.2499999999997
 31
0.0
  0
LINE
  5
D38
330
B64
100
AcDbEntity
  8
0
  6
LTYPE1
 62
     3
100
AcDbLine
 10
900.35
 20
427.0
 30
0.0
 11
910.35
 21
427.0
 31
0.0
  0
LINE
  5
D39
330
B64
100
AcDbEntity
  8
0
  6
LTYPE1
 62
     3
100
AcDbLine
 10
910.35
 20
427.7499999999998
 30
0.0
 11
910.35
 21
426.25
 31
0.0
  0
LINE
  5
D3A
330
B64
100
AcDbEntity
  8
0
  6
LTYPE1
 62
     3
100
AcDbLine
 10
915.3500000000001
 20
426.25
 30
0.0
 11
915.3500000000001
 21
427.7499999999998
 31
0.0
  0
LINE
  5
D3B
330
B64
100
AcDbEntity
  8
0
  6
Continuous
 62
     1
100
AcDbLine
 10
894.8500000000001
 20
427.7499999999998
 30
0.0
 11
894.8500000000001
 21
428.75
 31
0.0
  0
LINE
  5
D3C
330
B64
100
AcDbEntity
  8
0
  6
Continuous
 62
     1
100
AcDbLine
 10
894.8500000000001
 20
428.75
 30
0.0
 11
895.85
 21
428.75
 31
0.0
  0
LINE
  5
D3D
330
B64
100
AcDbEntity
  8
0
  6
Continuous
 62
     1
100
AcDbLine
 10
895.85
 20
428.75
 30
0.0
 11
895.85
 21
427.7499999999998
 31
0.0
  0
LINE
  5
D3E
330
B64
100
AcDbEntity
  8
0
  6
Continuous
 62
     1
100
AcDbLine
 10
895.85
 20
427.7499999999998
 30
0.0
 11
894.8500000000001
 21
427.7499999999998
 31
0.0
  0
LINE
  5
D3F
330
B64
100
AcDbEntity
  8
0
  6
Continuous
 62
     1
100
AcDbLine
 10
894.8500000000001
 20
425.25
 30
0.0
 11
894.8500000000001
 21
426.25
 31
0.0
  0
LINE
  5
D40
330
B64
100
AcDbEntity
  8
0
  6
Continuous
 62
     1
100
AcDbLine
 10
894.8500000000001
 20
426.25
 30
0.0
 11
895.85
 21
426.25
 31
0.0
  0
LINE
  5
D41
330
B64
100
AcDbEntity
  8
0
  6
Continuous
 62
     1
100
AcDbLine
 10
895.85
 20
426.25
 30
0.0
 11
895.85
 21
425.25
 31
0.0
  0
LINE
  5
D42
330
B64
100
AcDbEntity
  8
0
  6
Continuous
 62
     1
100
AcDbLine
 10
895.85
 20
425.25
 30
0.0
 11
894.8500000000001
 21
425.25
 31
0.0
  0
LINE
  5
D43
330
B64
100
AcDbEntity
  8
0
  6
Continuous
 62
     1
100
AcDbLine
 10
897.3499999999997
 20
427.7499999999998
 30
0.0
 11
897.3499999999997
 21
428.75
 31
0.0
  0
LINE
  5
D44
330
B64
100
AcDbEntity
  8
0
  6
Continuous
 62
     1
100
AcDbLine
 10
897.3499999999997
 20
428.75
 30
0.0
 11
898.3500000000001
 21
428.75
 31
0.0
  0
LINE
  5
D45
330
B64
100
AcDbEntity
  8
0
  6
Continuous
 62
     1
100
AcDbLine
 10
898.3500000000001
 20
428.75
 30
0.0
 11
898.3500000000001
 21
427.7499999999998
 31
0.0
  0
LINE
  5
D46
330
B64
100
AcDbEntity
  8
0
  6
Continuous
 62
     1
100
AcDbLine
 10
898.3500000000001
 20
427.7499999999998
 30
0.0
 11
897.3499999999997
 21
427.7499999999998
 31
0.0
  0
LINE
  5
D47
330
B64
100
AcDbEntity
  8
0
  6
Continuous
 62
     1
100
AcDbLine
 10
897.3499999999997
 20
425.25
 30
0.0
 11
897.3499999999997
 21
426.25
 31
0.0
  0
LINE
  5
D48
330
B64
100
AcDbEntity
  8
0
  6
Continuous
 62
     1
100
AcDbLine
 10
897.3499999999997
 20
426.25
 30
0.0
 11
898.3500000000001
 21
426.25
 31
0.0
  0
LINE
  5
D49
330
B64
100
AcDbEntity
  8
0
  6
Continuous
 62
     1
100
AcDbLine
 10
898.3500000000001
 20
426.25
 30
0.0
 11
898.3500000000001
 21
425.25
 31
0.0
  0
LINE
  5
D4A
330
B64
100
AcDbEntity
  8
0
  6
Continuous
 62
     1
100
AcDbLine
 10
898.3500000000001
 20
425.25
 30
0.0
 11
897.3499999999997
 21
425.25
 31
0.0
  0
LINE
  5
D4B
330
B64
100
AcDbEntity
  8
0
  6
Continuous
 62
     1
100
AcDbLine
 10
892.35
 20
427.7499999999998
 30
0.0
 11
892.35
 21
428.75
 31
0.0
  0
LINE
  5
D4C
330
B64
100
AcDbEntity
  8
0
  6
Continuous
 62
     1
100
AcDbLine
 10
892.35
 20
428.75
 30
0.0
 11
893.35
 21
428.75
 31
0.0
  0
LINE
  5
D4D
330
B64
100
AcDbEntity
  8
0
  6
Continuous
 62
     1
100
AcDbLine
 10
893.35
 20
428.75
 30
0.0
 11
893.35
 21
427.7499999999998
 31
0.0
  0
LINE
  5
D4E
330
B64
100
AcDbEntity
  8
0
  6
Continuous
 62
     1
100
AcDbLine
 10
893.35
 20
427.7499999999998
 30
0.0
 11
892.35
 21
427.7499999999998
 31
0.0
  0
LINE
  5
D4F
330
B64
100
AcDbEntity
  8
0
  6
Continuous
 62
     1
100
AcDbLine
 10
892.35
 20
425.25
 30
0.0
 11
892.35
 21
426.25
 31
0.0
  0
LINE
  5
D50
330
B64
100
AcDbEntity
  8
0
  6
Continuous
 62
     1
100
AcDbLine
 10
892.35
 20
426.25
 30
0.0
 11
893.35
 21
426.25
 31
0.0
  0
LINE
  5
D51
330
B64
100
AcDbEntity
  8
0
  6
Continuous
 62
     1
100
AcDbLine
 10
893.35
 20
426.25
 30
0.0
 11
893.35
 21
425.25
 31
0.0
  0
LINE
  5
D52
330
B64
100
AcDbEntity
  8
0
  6
Continuous
 62
     1
100
AcDbLine
 10
893.35
 20
425.25
 30
0.0
 11
892.35
 21
425.25
 31
0.0
  0
LINE
  5
D53
330
B64
100
AcDbEntity
  8
0
  6
Continuous
 62
     1
100
AcDbLine
 10
899.8499999999996
 20
427.7499999999998
 30
0.0
 11
899.8499999999996
 21
428.75
 31
0.0
  0
LINE
  5
D54
330
B64
100
AcDbEntity
  8
0
  6
Continuous
 62
     1
100
AcDbLine
 10
899.8499999999996
 20
428.75
 30
0.0
 11
900.8499999999999
 21
428.75
 31
0.0
  0
LINE
  5
D55
330
B64
100
AcDbEntity
  8
0
  6
Continuous
 62
     1
100
AcDbLine
 10
900.8499999999999
 20
428.75
 30
0.0
 11
900.8499999999999
 21
427.7499999999998
 31
0.0
  0
LINE
  5
D56
330
B64
100
AcDbEntity
  8
0
  6
Continuous
 62
     1
100
AcDbLine
 10
900.8499999999999
 20
427.7499999999998
 30
0.0
 11
899.8499999999996
 21
427.7499999999998
 31
0.0
  0
LINE
  5
D57
330
B64
100
AcDbEntity
  8
0
  6
Continuous
 62
     1
100
AcDbLine
 10
899.8499999999996
 20
425.25
 30
0.0
 11
899.8499999999996
 21
426.25
 31
0.0
  0
LINE
  5
D58
330
B64
100
AcDbEntity
  8
0
  6
Continuous
 62
     1
100
AcDbLine
 10
899.8499999999996
 20
426.25
 30
0.0
 11
900.8499999999999
 21
426.25
 31
0.0
  0
LINE
  5
D59
330
B64
100
AcDbEntity
  8
0
  6
Continuous
 62
     1
100
AcDbLine
 10
900.8499999999999
 20
426.25
 30
0.0
 11
900.8499999999999
 21
425.25
 31
0.0
  0
LINE
  5
D5A
330
B64
100
AcDbEntity
  8
0
  6
Continuous
 62
     1
100
AcDbLine
 10
900.8499999999999
 20
425.25
 30
0.0
 11
899.8499999999996
 21
425.25
 31
0.0
  0
LINE
  5
D5B
330
B64
100
AcDbEntity
  8
0
  6
Continuous
 62
     1
100
AcDbLine
 10
902.35
 20
427.7499999999998
 30
0.0
 11
902.35
 21
428.75
 31
0.0
  0
LINE
  5
D5C
330
B64
100
AcDbEntity
  8
0
  6
Continuous
 62
     1
100
AcDbLine
 10
902.35
 20
428.75
 30
0.0
 11
903.35
 21
428.75
 31
0.0
  0
LINE
  5
D5D
330
B64
100
AcDbEntity
  8
0
  6
Continuous
 62
     1
100
AcDbLine
 10
903.35
 20
428.75
 30
0.0
 11
903.35
 21
427.7499999999998
 31
0.0
  0
LINE
  5
D5E
330
B64
100
AcDbEntity
  8
0
  6
Continuous
 62
     1
100
AcDbLine
 10
903.35
 20
427.7499999999998
 30
0.0
 11
902.35
 21
427.7499999999998
 31
0.0
  0
LINE
  5
D5F
330
B64
100
AcDbEntity
  8
0
  6
Continuous
 62
     1
100
AcDbLine
 10
902.35
 20
425.25
 30
0.0
 11
902.35
 21
426.25
 31
0.0
  0
LINE
  5
D60
330
B64
100
AcDbEntity
  8
0
  6
Continuous
 62
     1
100
AcDbLine
 10
902.35
 20
426.25
 30
0.0
 11
903.35
 21
426.25
 31
0.0
  0
LINE
  5
D61
330
B64
100
AcDbEntity
  8
0
  6
Continuous
 62
     1
100
AcDbLine
 10
903.35
 20
426.25
 30
0.0
 11
903.35
 21
425.25
 31
0.0
  0
LINE
  5
D62
330
B64
100
AcDbEntity
  8
0
  6
Continuous
 62
     1
100
AcDbLine
 10
903.35
 20
425.25
 30
0.0
 11
902.35
 21
425.25
 31
0.0
  0
LINE
  5
D63
330
B64
100
AcDbEntity
  8
0
  6
Continuous
 62
     1
100
AcDbLine
 10
904.85
 20
427.7499999999998
 30
0.0
 11
904.85
 21
428.75
 31
0.0
  0
LINE
  5
D64
330
B64
100
AcDbEntity
  8
0
  6
Continuous
 62
     1
100
AcDbLine
 10
904.85
 20
428.75
 30
0.0
 11
905.85
 21
428.75
 31
0.0
  0
LINE
  5
D65
330
B64
100
AcDbEntity
  8
0
  6
Continuous
 62
     1
100
AcDbLine
 10
905.85
 20
428.75
 30
0.0
 11
905.85
 21
427.7499999999998
 31
0.0
  0
LINE
  5
D66
330
B64
100
AcDbEntity
  8
0
  6
Continuous
 62
     1
100
AcDbLine
 10
905.85
 20
427.7499999999998
 30
0.0
 11
904.85
 21
427.7499999999998
 31
0.0
  0
LINE
  5
D67
330
B64
100
AcDbEntity
  8
0
  6
Continuous
 62
     1
100
AcDbLine
 10
904.85
 20
425.25
 30
0.0
 11
904.85
 21
426.25
 31
0.0
  0
LINE
  5
D68
330
B64
100
AcDbEntity
  8
0
  6
Continuous
 62
     1
100
AcDbLine
 10
904.85
 20
426.25
 30
0.0
 11
905.85
 21
426.25
 31
0.0
  0
LINE
  5
D69
330
B64
100
AcDbEntity
  8
0
  6
Continuous
 62
     1
100
AcDbLine
 10
905.85
 20
426.25
 30
0.0
 11
905.85
 21
425.25
 31
0.0
  0
LINE
  5
D6A
330
B64
100
AcDbEntity
  8
0
  6
Continuous
 62
     1
100
AcDbLine
 10
905.85
 20
425.25
 30
0.0
 11
904.85
 21
425.25
 31
0.0
  0
LINE
  5
D6B
330
B64
100
AcDbEntity
  8
0
  6
Continuous
 62
     1
100
AcDbLine
 10
907.3500000000001
 20
427.7499999999998
 30
0.0
 11
907.3500000000001
 21
428.75
 31
0.0
  0
LINE
  5
D6C
330
B64
100
AcDbEntity
  8
0
  6
Continuous
 62
     1
100
AcDbLine
 10
907.3500000000001
 20
428.75
 30
0.0
 11
908.35
 21
428.75
 31
0.0
  0
LINE
  5
D6D
330
B64
100
AcDbEntity
  8
0
  6
Continuous
 62
     1
100
AcDbLine
 10
908.35
 20
428.75
 30
0.0
 11
908.35
 21
427.7499999999998
 31
0.0
  0
LINE
  5
D6E
330
B64
100
AcDbEntity
  8
0
  6
Continuous
 62
     1
100
AcDbLine
 10
908.35
 20
427.7499999999998
 30
0.0
 11
907.3500000000001
 21
427.7499999999998
 31
0.0
  0
LINE
  5
D6F
330
B64
100
AcDbEntity
  8
0
  6
Continuous
 62
     1
100
AcDbLine
 10
907.3500000000001
 20
425.25
 30
0.0
 11
907.3500000000001
 21
426.25
 31
0.0
  0
LINE
  5
D70
330
B64
100
AcDbEntity
  8
0
  6
Continuous
 62
     1
100
AcDbLine
 10
907.3500000000001
 20
426.25
 30
0.0
 11
908.35
 21
426.25
 31
0.0
  0
LINE
  5
D71
330
B64
100
AcDbEntity
  8
0
  6
Continuous
 62
     1
100
AcDbLine
 10
908.35
 20
426.25
 30
0.0
 11
908.35
 21
425.25
 31
0.0
  0
LINE
  5
D72
330
B64
100
AcDbEntity
  8
0
  6
Continuous
 62
     1
100
AcDbLine
 10
908.35
 20
425.25
 30
0.0
 11
907.3500000000001
 21
425.25
 31
0.0
  0
LINE
  5
D73
330
B64
100
AcDbEntity
  8
0
  6
Continuous
 62
     1
100
AcDbLine
 10
909.8499999999999
 20
427.7499999999998
 30
0.0
 11
909.8499999999999
 21
428.75
 31
0.0
  0
LINE
  5
D74
330
B64
100
AcDbEntity
  8
0
  6
Continuous
 62
     1
100
AcDbLine
 10
909.8499999999999
 20
428.75
 30
0.0
 11
910.8500000000001
 21
428.75
 31
0.0
  0
LINE
  5
D75
330
B64
100
AcDbEntity
  8
0
  6
Continuous
 62
     1
100
AcDbLine
 10
910.8500000000001
 20
428.75
 30
0.0
 11
910.8500000000001
 21
427.7499999999998
 31
0.0
  0
LINE
  5
D76
330
B64
100
AcDbEntity
  8
0
  6
Continuous
 62
     1
100
AcDbLine
 10
910.8500000000001
 20
427.7499999999998
 30
0.0
 11
909.8499999999999
 21
427.7499999999998
 31
0.0
  0
LINE
  5
D77
330
B64
100
AcDbEntity
  8
0
  6
Continuous
 62
     1
100
AcDbLine
 10
909.8499999999999
 20
425.25
 30
0.0
 11
909.8499999999999
 21
426.25
 31
0.0
  0
LINE
  5
D78
330
B64
100
AcDbEntity
  8
0
  6
Continuous
 62
     1
100
AcDbLine
 10
909.8499999999999
 20
426.25
 30
0.0
 11
910.8500000000001
 21
426.25
 31
0.0
  0
LINE
  5
D79
330
B64
100
AcDbEntity
  8
0
  6
Continuous
 62
     1
100
AcDbLine
 10
910.8500000000001
 20
426.25
 30
0.0
 11
910.8500000000001
 21
425.25
 31
0.0
  0
LINE
  5
D7A
330
B64
100
AcDbEntity
  8
0
  6
Continuous
 62
     1
100
AcDbLine
 10
910.8500000000001
 20
425.25
 30
0.0
 11
909.8499999999999
 21
425.25
 31
0.0
  0
LINE
  5
D7B
330
B64
100
AcDbEntity
  8
0
  6
Continuous
 62
     1
100
AcDbLine
 10
912.3499999999999
 20
427.7499999999998
 30
0.0
 11
912.3499999999999
 21
428.75
 31
0.0
  0
LINE
  5
D7C
330
B64
100
AcDbEntity
  8
0
  6
Continuous
 62
     1
100
AcDbLine
 10
912.3499999999999
 20
428.75
 30
0.0
 11
913.3499999999999
 21
428.75
 31
0.0
  0
LINE
  5
D7D
330
B64
100
AcDbEntity
  8
0
  6
Continuous
 62
     1
100
AcDbLine
 10
913.3499999999999
 20
428.75
 30
0.0
 11
913.3499999999999
 21
427.7499999999998
 31
0.0
  0
LINE
  5
D7E
330
B64
100
AcDbEntity
  8
0
  6
Continuous
 62
     1
100
AcDbLine
 10
913.3499999999999
 20
427.7499999999998
 30
0.0
 11
912.3499999999999
 21
427.7499999999998
 31
0.0
  0
LINE
  5
D7F
330
B64
100
AcDbEntity
  8
0
  6
Continuous
 62
     1
100
AcDbLine
 10
912.3499999999999
 20
425.25
 30
0.0
 11
912.3499999999999
 21
426.25
 31
0.0
  0
LINE
  5
D80
330
B64
100
AcDbEntity
  8
0
  6
Continuous
 62
     1
100
AcDbLine
 10
912.3499999999999
 20
426.25
 30
0.0
 11
913.3499999999999
 21
426.25
 31
0.0
  0
LINE
  5
D81
330
B64
100
AcDbEntity
  8
0
  6
Continuous
 62
     1
100
AcDbLine
 10
913.3499999999999
 20
426.25
 30
0.0
 11
913.3499999999999
 21
425.25
 31
0.0
  0
LINE
  5
D82
330
B64
100
AcDbEntity
  8
0
  6
Continuous
 62
     1
100
AcDbLine
 10
913.3499999999999
 20
425.25
 30
0.0
 11
912.3499999999999
 21
425.25
 31
0.0
  0
LINE
  5
D83
330
B64
100
AcDbEntity
  8
0
  6
Continuous
 62
     1
100
AcDbLine
 10
914.85
 20
427.7499999999998
 30
0.0
 11
914.85
 21
428.75
 31
0.0
  0
LINE
  5
D84
330
B64
100
AcDbEntity
  8
0
  6
Continuous
 62
     1
100
AcDbLine
 10
914.85
 20
428.75
 30
0.0
 11
915.85
 21
428.75
 31
0.0
  0
LINE
  5
D85
330
B64
100
AcDbEntity
  8
0
  6
Continuous
 62
     1
100
AcDbLine
 10
915.85
 20
428.75
 30
0.0
 11
915.85
 21
427.7499999999998
 31
0.0
  0
LINE
  5
D86
330
B64
100
AcDbEntity
  8
0
  6
Continuous
 62
     1
100
AcDbLine
 10
915.85
 20
427.7499999999998
 30
0.0
 11
914.85
 21
427.7499999999998
 31
0.0
  0
LINE
  5
D87
330
B64
100
AcDbEntity
  8
0
  6
Continuous
 62
     1
100
AcDbLine
 10
914.85
 20
425.25
 30
0.0
 11
914.85
 21
426.25
 31
0.0
  0
LINE
  5
D88
330
B64
100
AcDbEntity
  8
0
  6
Continuous
 62
     1
100
AcDbLine
 10
914.85
 20
426.25
 30
0.0
 11
915.85
 21
426.25
 31
0.0
  0
LINE
  5
D89
330
B64
100
AcDbEntity
  8
0
  6
Continuous
 62
     1
100
AcDbLine
 10
915.85
 20
426.25
 30
0.0
 11
915.85
 21
425.25
 31
0.0
  0
LINE
  5
D8A
330
B64
100
AcDbEntity
  8
0
  6
Continuous
 62
     1
100
AcDbLine
 10
915.85
 20
425.25
 30
0.0
 11
914.85
 21
425.25
 31
0.0
  0
LINE
  5
D8B
330
B64
100
AcDbEntity
  8
0
  6
Continuous
 62
     1
100
AcDbLine
 10
889.85
 20
427.7499999999998
 30
0.0
 11
889.85
 21
428.75
 31
0.0
  0
LINE
  5
D8C
330
B64
100
AcDbEntity
  8
0
  6
Continuous
 62
     1
100
AcDbLine
 10
889.85
 20
428.75
 30
0.0
 11
890.85
 21
428.75
 31
0.0
  0
LINE
  5
D8D
330
B64
100
AcDbEntity
  8
0
  6
Continuous
 62
     1
100
AcDbLine
 10
890.85
 20
428.75
 30
0.0
 11
890.85
 21
427.7499999999998
 31
0.0
  0
LINE
  5
D8E
330
B64
100
AcDbEntity
  8
0
  6
Continuous
 62
     1
100
AcDbLine
 10
890.85
 20
427.7499999999998
 30
0.0
 11
889.85
 21
427.7499999999998
 31
0.0
  0
LINE
  5
D8F
330
B64
100
AcDbEntity
  8
0
  6
Continuous
 62
     1
100
AcDbLine
 10
889.85
 20
425.25
 30
0.0
 11
889.85
 21
426.25
 31
0.0
  0
LINE
  5
D90
330
B64
100
AcDbEntity
  8
0
  6
Continuous
 62
     1
100
AcDbLine
 10
889.85
 20
426.25
 30
0.0
 11
890.85
 21
426.25
 31
0.0
  0
LINE
  5
D91
330
B64
100
AcDbEntity
  8
0
  6
Continuous
 62
     1
100
AcDbLine
 10
890.85
 20
426.25
 30
0.0
 11
890.85
 21
425.25
 31
0.0
  0
LINE
  5
D92
330
B64
100
AcDbEntity
  8
0
  6
Continuous
 62
     1
100
AcDbLine
 10
890.85
 20
425.25
 30
0.0
 11
889.85
 21
425.25
 31
0.0
  0
LINE
  5
D93
330
B64
100
AcDbEntity
  8
0
  6
Continuous
 62
     1
100
AcDbLine
 10
887.3499999999996
 20
427.7499999999998
 30
0.0
 11
887.3499999999996
 21
428.75
 31
0.0
  0
LINE
  5
D94
330
B64
100
AcDbEntity
  8
0
  6
Continuous
 62
     1
100
AcDbLine
 10
887.3499999999996
 20
428.75
 30
0.0
 11
888.3499999999996
 21
428.75
 31
0.0
  0
LINE
  5
D95
330
B64
100
AcDbEntity
  8
0
  6
Continuous
 62
     1
100
AcDbLine
 10
888.3499999999996
 20
428.75
 30
0.0
 11
888.3499999999996
 21
427.7499999999998
 31
0.0
  0
LINE
  5
D96
330
B64
100
AcDbEntity
  8
0
  6
Continuous
 62
     1
100
AcDbLine
 10
888.3499999999996
 20
427.7499999999998
 30
0.0
 11
887.3499999999996
 21
427.7499999999998
 31
0.0
  0
LINE
  5
D97
330
B64
100
AcDbEntity
  8
0
  6
Continuous
 62
     1
100
AcDbLine
 10
887.3499999999996
 20
425.25
 30
0.0
 11
887.3499999999996
 21
426.25
 31
0.0
  0
LINE
  5
D98
330
B64
100
AcDbEntity
  8
0
  6
Continuous
 62
     1
100
AcDbLine
 10
887.3499999999996
 20
426.25
 30
0.0
 11
888.3499999999996
 21
426.25
 31
0.0
  0
LINE
  5
D99
330
B64
100
AcDbEntity
  8
0
  6
Continuous
 62
     1
100
AcDbLine
 10
888.3499999999996
 20
426.25
 30
0.0
 11
888.3499999999996
 21
425.25
 31
0.0
  0
LINE
  5
D9A
330
B64
100
AcDbEntity
  8
0
  6
Continuous
 62
     1
100
AcDbLine
 10
888.3499999999996
 20
425.25
 30
0.0
 11
887.3499999999996
 21
425.25
 31
0.0
  0
LINE
  5
D9B
330
B64
100
AcDbEntity
  8
0
  6
Continuous
 62
     1
100
AcDbLine
 10
884.8499999999997
 20
427.7499999999998
 30
0.0
 11
884.8499999999997
 21
428.75
 31
0.0
  0
LINE
  5
D9C
330
B64
100
AcDbEntity
  8
0
  6
Continuous
 62
     1
100
AcDbLine
 10
884.8499999999997
 20
428.75
 30
0.0
 11
885.8500000000001
 21
428.75
 31
0.0
  0
LINE
  5
D9D
330
B64
100
AcDbEntity
  8
0
  6
Continuous
 62
     1
100
AcDbLine
 10
885.8500000000001
 20
428.75
 30
0.0
 11
885.8500000000001
 21
427.7499999999998
 31
0.0
  0
LINE
  5
D9E
330
B64
100
AcDbEntity
  8
0
  6
Continuous
 62
     1
100
AcDbLine
 10
885.8500000000001
 20
427.7499999999998
 30
0.0
 11
884.8499999999997
 21
427.7499999999998
 31
0.0
  0
LINE
  5
D9F
330
B64
100
AcDbEntity
  8
0
  6
Continuous
 62
     1
100
AcDbLine
 10
884.8499999999997
 20
425.25
 30
0.0
 11
884.8499999999997
 21
426.25
 31
0.0
  0
LINE
  5
DA0
330
B64
100
AcDbEntity
  8
0
  6
Continuous
 62
     1
100
AcDbLine
 10
884.8499999999997
 20
426.25
 30
0.0
 11
885.8500000000001
 21
426.25
 31
0.0
  0
LINE
  5
DA1
330
B64
100
AcDbEntity
  8
0
  6
Continuous
 62
     1
100
AcDbLine
 10
885.8500000000001
 20
426.25
 30
0.0
 11
885.8500000000001
 21
425.25
 31
0.0
  0
LINE
  5
DA2
330
B64
100
AcDbEntity
  8
0
  6
Continuous
 62
     1
100
AcDbLine
 10
885.8500000000001
 20
425.25
 30
0.0
 11
884.8499999999997
 21
425.25
 31
0.0
  0
LINE
  5
DA3
330
B64
100
AcDbEntity
  8
0
  6
Continuous
 62
     1
100
AcDbLine
 10
882.3500000000001
 20
427.7499999999998
 30
0.0
 11
882.3500000000001
 21
428.75
 31
0.0
  0
LINE
  5
DA4
330
B64
100
AcDbEntity
  8
0
  6
Continuous
 62
     1
100
AcDbLine
 10
882.3500000000001
 20
428.75
 30
0.0
 11
883.35
 21
428.75
 31
0.0
  0
LINE
  5
DA5
330
B64
100
AcDbEntity
  8
0
  6
Continuous
 62
     1
100
AcDbLine
 10
883.35
 20
428.75
 30
0.0
 11
883.35
 21
427.7499999999998
 31
0.0
  0
LINE
  5
DA6
330
B64
100
AcDbEntity
  8
0
  6
Continuous
 62
     1
100
AcDbLine
 10
883.35
 20
427.7499999999998
 30
0.0
 11
882.3500000000001
 21
427.7499999999998
 31
0.0
  0
LINE
  5
DA7
330
B64
100
AcDbEntity
  8
0
  6
Continuous
 62
     1
100
AcDbLine
 10
882.3500000000001
 20
425.25
 30
0.0
 11
882.3500000000001
 21
426.25
 31
0.0
  0
LINE
  5
DA8
330
B64
100
AcDbEntity
  8
0
  6
Continuous
 62
     1
100
AcDbLine
 10
882.3500000000001
 20
426.25
 30
0.0
 11
883.35
 21
426.25
 31
0.0
  0
LINE
  5
DA9
330
B64
100
AcDbEntity
  8
0
  6
Continuous
 62
     1
100
AcDbLine
 10
883.35
 20
426.25
 30
0.0
 11
883.35
 21
425.25
 31
0.0
  0
LINE
  5
DAA
330
B64
100
AcDbEntity
  8
0
  6
Continuous
 62
     1
100
AcDbLine
 10
883.35
 20
425.25
 30
0.0
 11
882.3500000000001
 21
425.25
 31
0.0
  0
LINE
  5
DAB
330
B64
100
AcDbEntity
  8
0
  6
Continuous
 62
     1
100
AcDbLine
 10
879.85
 20
427.7499999999998
 30
0.0
 11
879.85
 21
428.75
 31
0.0
  0
LINE
  5
DAC
330
B64
100
AcDbEntity
  8
0
  6
Continuous
 62
     1
100
AcDbLine
 10
879.85
 20
428.75
 30
0.0
 11
880.85
 21
428.75
 31
0.0
  0
LINE
  5
DAD
330
B64
100
AcDbEntity
  8
0
  6
Continuous
 62
     1
100
AcDbLine
 10
880.85
 20
428.75
 30
0.0
 11
880.85
 21
427.7499999999998
 31
0.0
  0
LINE
  5
DAE
330
B64
100
AcDbEntity
  8
0
  6
Continuous
 62
     1
100
AcDbLine
 10
880.85
 20
427.7499999999998
 30
0.0
 11
879.85
 21
427.7499999999998
 31
0.0
  0
LINE
  5
DAF
330
B64
100
AcDbEntity
  8
0
  6
Continuous
 62
     1
100
AcDbLine
 10
879.85
 20
425.25
 30
0.0
 11
879.85
 21
426.25
 31
0.0
  0
LINE
  5
DB0
330
B64
100
AcDbEntity
  8
0
  6
Continuous
 62
     1
100
AcDbLine
 10
879.85
 20
426.25
 30
0.0
 11
880.85
 21
426.25
 31
0.0
  0
LINE
  5
DB1
330
B64
100
AcDbEntity
  8
0
  6
Continuous
 62
     1
100
AcDbLine
 10
880.85
 20
426.25
 30
0.0
 11
880.85
 21
425.25
 31
0.0
  0
LINE
  5
DB2
330
B64
100
AcDbEntity
  8
0
  6
Continuous
 62
     1
100
AcDbLine
 10
880.85
 20
425.25
 30
0.0
 11
879.85
 21
425.25
 31
0.0
  0
LINE
  5
DB3
330
B64
100
AcDbEntity
  8
0
  6
Continuous
 62
     1
100
AcDbLine
 10
877.35
 20
427.7499999999998
 30
0.0
 11
877.35
 21
428.75
 31
0.0
  0
LINE
  5
DB4
330
B64
100
AcDbEntity
  8
0
  6
Continuous
 62
     1
100
AcDbLine
 10
877.35
 20
428.75
 30
0.0
 11
878.35
 21
428.75
 31
0.0
  0
LINE
  5
DB5
330
B64
100
AcDbEntity
  8
0
  6
Continuous
 62
     1
100
AcDbLine
 10
878.35
 20
428.75
 30
0.0
 11
878.35
 21
427.7499999999998
 31
0.0
  0
LINE
  5
DB6
330
B64
100
AcDbEntity
  8
0
  6
Continuous
 62
     1
100
AcDbLine
 10
878.35
 20
427.7499999999998
 30
0.0
 11
877.35
 21
427.7499999999998
 31
0.0
  0
LINE
  5
DB7
330
B64
100
AcDbEntity
  8
0
  6
Continuous
 62
     1
100
AcDbLine
 10
877.35
 20
425.25
 30
0.0
 11
877.35
 21
426.25
 31
0.0
  0
LINE
  5
DB8
330
B64
100
AcDbEntity
  8
0
  6
Continuous
 62
     1
100
AcDbLine
 10
877.35
 20
426.25
 30
0.0
 11
878.35
 21
426.25
 31
0.0
  0
LINE
  5
DB9
330
B64
100
AcDbEntity
  8
0
  6
Continuous
 62
     1
100
AcDbLine
 10
878.35
 20
426.25
 30
0.0
 11
878.35
 21
425.25
 31
0.0
  0
LINE
  5
DBA
330
B64
100
AcDbEntity
  8
0
  6
Continuous
 62
     1
100
AcDbLine
 10
878.35
 20
425.25
 30
0.0
 11
877.35
 21
425.25
 31
0.0
  0
LINE
  5
DBB
330
B64
100
AcDbEntity
  8
0
  6
Continuous
 62
     1
100
AcDbLine
 10
874.8499999999996
 20
427.7499999999998
 30
0.0
 11
874.8499999999996
 21
428.75
 31
0.0
  0
LINE
  5
DBC
330
B64
100
AcDbEntity
  8
0
  6
Continuous
 62
     1
100
AcDbLine
 10
874.8499999999996
 20
428.75
 30
0.0
 11
875.8499999999996
 21
428.75
 31
0.0
  0
LINE
  5
DBD
330
B64
100
AcDbEntity
  8
0
  6
Continuous
 62
     1
100
AcDbLine
 10
875.8499999999996
 20
428.75
 30
0.0
 11
875.8499999999996
 21
427.7499999999998
 31
0.0
  0
LINE
  5
DBE
330
B64
100
AcDbEntity
  8
0
  6
Continuous
 62
     1
100
AcDbLine
 10
875.8499999999996
 20
427.7499999999998
 30
0.0
 11
874.8499999999996
 21
427.7499999999998
 31
0.0
  0
LINE
  5
DBF
330
B64
100
AcDbEntity
  8
0
  6
Continuous
 62
     1
100
AcDbLine
 10
874.8499999999996
 20
425.25
 30
0.0
 11
874.8499999999996
 21
426.25
 31
0.0
  0
LINE
  5
DC0
330
B64
100
AcDbEntity
  8
0
  6
Continuous
 62
     1
100
AcDbLine
 10
874.8499999999996
 20
426.25
 30
0.0
 11
875.8499999999996
 21
426.25
 31
0.0
  0
LINE
  5
DC1
330
B64
100
AcDbEntity
  8
0
  6
Continuous
 62
     1
100
AcDbLine
 10
875.8499999999996
 20
426.25
 30
0.0
 11
875.8499999999996
 21
425.25
 31
0.0
  0
LINE
  5
DC2
330
B64
100
AcDbEntity
  8
0
  6
Continuous
 62
     1
100
AcDbLine
 10
875.8499999999996
 20
425.25
 30
0.0
 11
874.8499999999996
 21
425.25
 31
0.0
  0
LINE
  5
DC3
330
B64
100
AcDbEntity
  8
0
  6
Continuous
 62
     1
100
AcDbLine
 10
872.3499999999997
 20
427.7499999999998
 30
0.0
 11
872.3499999999997
 21
428.75
 31
0.0
  0
LINE
  5
DC4
330
B64
100
AcDbEntity
  8
0
  6
Continuous
 62
     1
100
AcDbLine
 10
872.3499999999997
 20
428.75
 30
0.0
 11
873.3500000000001
 21
428.75
 31
0.0
  0
LINE
  5
DC5
330
B64
100
AcDbEntity
  8
0
  6
Continuous
 62
     1
100
AcDbLine
 10
873.3500000000001
 20
428.75
 30
0.0
 11
873.3500000000001
 21
427.7499999999998
 31
0.0
  0
LINE
  5
DC6
330
B64
100
AcDbEntity
  8
0
  6
Continuous
 62
     1
100
AcDbLine
 10
873.3500000000001
 20
427.7499999999998
 30
0.0
 11
872.3499999999997
 21
427.7499999999998
 31
0.0
  0
LINE
  5
DC7
330
B64
100
AcDbEntity
  8
0
  6
Continuous
 62
     1
100
AcDbLine
 10
872.3499999999997
 20
425.25
 30
0.0
 11
872.3499999999997
 21
426.25
 31
0.0
  0
LINE
  5
DC8
330
B64
100
AcDbEntity
  8
0
  6
Continuous
 62
     1
100
AcDbLine
 10
872.3499999999997
 20
426.25
 30
0.0
 11
873.3500000000001
 21
426.25
 31
0.0
  0
LINE
  5
DC9
330
B64
100
AcDbEntity
  8
0
  6
Continuous
 62
     1
100
AcDbLine
 10
873.3500000000001
 20
426.25
 30
0.0
 11
873.3500000000001
 21
425.25
 31
0.0
  0
LINE
  5
DCA
330
B64
100
AcDbEntity
  8
0
  6
Continuous
 62
     1
100
AcDbLine
 10
873.3500000000001
 20
425.25
 30
0.0
 11
872.3499999999997
 21
425.25
 31
0.0
  0
ARC
  5
DCB
330
B64
100
AcDbEntity
  8
0
  6
Continuous
 62
     1
100
AcDbCircle
 10
870.7999999999996
 20
424.2499999999997
 30
0.0
 40
1.0
100
AcDbArc
 50
168.6999999999999
 51
270.0
  0
LINE
  5
DCC
330
B64
100
AcDbEntity
  8
0
  6
Continuous
 62
     1
100
AcDbLine
 10
869.8500000000001
 20
424.45
 30
0.0
 11
870.95
 21
429.95
 31
0.0
  0
ARC
  5
DCD
330
B64
100
AcDbEntity
  8
0
  6
Continuous
 62
     1
100
AcDbCircle
 10
871.95
 20
429.75
 30
0.0
 40
1.0
100
AcDbArc
 50
90.0
 51
169.9
  0
LINE
  5
DCE
330
B64
100
AcDbEntity
  8
0
  6
Continuous
 62
     1
100
AcDbLine
 10
871.95
 20
430.75
 30
0.0
 11
916.3
 21
430.75
 31
0.0
  0
ARC
  5
DCF
330
B64
100
AcDbEntity
  8
0
  6
Continuous
 62
     1
100
AcDbCircle
 10
916.3
 20
429.75
 30
0.0
 40
1.0
100
AcDbArc
 50
11.4
 51
90.0
  0
LINE
  5
DD0
330
B64
100
AcDbEntity
  8
0
  6
Continuous
 62
     1
100
AcDbLine
 10
917.2499999999999
 20
429.95
 30
0.0
 11
918.35
 21
424.45
 31
0.0
  0
ARC
  5
DD1
330
B64
100
AcDbEntity
  8
0
  6
Continuous
 62
     1
100
AcDbCircle
 10
917.35
 20
424.2499999999997
 30
0.0
 40
1.0
100
AcDbArc
 50
270.0
 51
12.0
  0
LINE
  5
DD2
330
B64
100
AcDbEntity
  8
0
  6
Continuous
 62
     1
100
AcDbLine
 10
917.35
 20
423.2499999999998
 30
0.0
 11
870.7999999999996
 21
423.2499999999998
 31
0.0
  0
ARC
  5
DD3
330
B64
100
AcDbEntity
  8
0
  6
Continuous
 62
     1
100
AcDbCircle
 10
867.6
 20
440.0
 30
0.0
 40
1.0
100
AcDbArc
 50
90.0
 51
180.0
  0
ARC
  5
DD4
330
B64
100
AcDbEntity
  8
0
  6
Continuous
 62
     1
100
AcDbCircle
 10
867.6
 20
414.0
 30
0.0
 40
1.0
100
AcDbArc
 50
180.0
 51
270.0
  0
LINE
  5
DD5
330
B64
100
AcDbEntity
  8
0
  6
Continuous
 62
     1
100
AcDbLine
 10
866.6
 20
414.0
 30
0.0
 11
866.6
 21
440.0
 31
0.0
  0
ARC
  5
DD6
330
B64
100
AcDbEntity
  8
0
  6
Continuous
 62
     1
100
AcDbCircle
 10
920.6000000000001
 20
414.0
 30
0.0
 40
1.0
100
AcDbArc
 50
270.0
 51
0.0
  0
LINE
  5
DD7
330
B64
100
AcDbEntity
  8
0
  6
Continuous
 62
     1
100
AcDbLine
 10
920.6000000000001
 20
413.0
 30
0.0
 11
867.6
 21
413.0
 31
0.0
  0
LINE
  5
DD8
330
B64
100
AcDbEntity
  8
0
  6
Continuous
 62
     1
100
AcDbLine
 10
867.6
 20
441.0
 30
0.0
 11
920.6000000000001
 21
441.0
 31
0.0
  0
ARC
  5
DD9
330
B64
100
AcDbEntity
  8
0
  6
Continuous
 62
     1
100
AcDbCircle
 10
920.6000000000001
 20
440.0
 30
0.0
 40
1.0
100
AcDbArc
 50
0.0
 51
90.0
  0
LINE
  5
DDA
330
B64
100
AcDbEntity
  8
0
  6
Continuous
 62
     1
100
AcDbLine
 10
921.6000000000001
 20
440.0
 30
0.0
 11
921.6000000000001
 21
414.0
 31
0.0
  0
LINE
  5
DDB
330
B64
100
AcDbEntity
  8
0
  6
Continuous
 62
     1
100
AcDbLine
 10
894.8500000000001
 20
427.7499999999998
 30
0.0
 11
894.8500000000001
 21
428.75
 31
0.0
  0
LINE
  5
DDC
330
B64
100
AcDbEntity
  8
0
  6
Continuous
 62
     1
100
AcDbLine
 10
894.8500000000001
 20
428.75
 30
0.0
 11
895.85
 21
428.75
 31
0.0
  0
LINE
  5
DDD
330
B64
100
AcDbEntity
  8
0
  6
Continuous
 62
     1
100
AcDbLine
 10
895.85
 20
428.75
 30
0.0
 11
895.85
 21
427.7499999999998
 31
0.0
  0
LINE
  5
DDE
330
B64
100
AcDbEntity
  8
0
  6
Continuous
 62
     1
100
AcDbLine
 10
895.85
 20
427.7499999999998
 30
0.0
 11
894.8500000000001
 21
427.7499999999998
 31
0.0
  0
LINE
  5
DDF
330
B64
100
AcDbEntity
  8
0
  6
Continuous
 62
     1
100
AcDbLine
 10
894.8500000000001
 20
425.25
 30
0.0
 11
894.8500000000001
 21
426.25
 31
0.0
  0
LINE
  5
DE0
330
B64
100
AcDbEntity
  8
0
  6
Continuous
 62
     1
100
AcDbLine
 10
894.8500000000001
 20
426.25
 30
0.0
 11
895.85
 21
426.25
 31
0.0
  0
LINE
  5
DE1
330
B64
100
AcDbEntity
  8
0
  6
Continuous
 62
     1
100
AcDbLine
 10
895.85
 20
426.25
 30
0.0
 11
895.85
 21
425.25
 31
0.0
  0
LINE
  5
DE2
330
B64
100
AcDbEntity
  8
0
  6
Continuous
 62
     1
100
AcDbLine
 10
895.85
 20
425.25
 30
0.0
 11
894.8500000000001
 21
425.25
 31
0.0
  0
LINE
  5
DE3
330
B64
100
AcDbEntity
  8
0
  6
Continuous
 62
     1
100
AcDbLine
 10
897.3499999999997
 20
427.7499999999998
 30
0.0
 11
897.3499999999997
 21
428.75
 31
0.0
  0
LINE
  5
DE4
330
B64
100
AcDbEntity
  8
0
  6
Continuous
 62
     1
100
AcDbLine
 10
897.3499999999997
 20
428.75
 30
0.0
 11
898.3500000000001
 21
428.75
 31
0.0
  0
LINE
  5
DE5
330
B64
100
AcDbEntity
  8
0
  6
Continuous
 62
     1
100
AcDbLine
 10
898.3500000000001
 20
428.75
 30
0.0
 11
898.3500000000001
 21
427.7499999999998
 31
0.0
  0
LINE
  5
DE6
330
B64
100
AcDbEntity
  8
0
  6
Continuous
 62
     1
100
AcDbLine
 10
898.3500000000001
 20
427.7499999999998
 30
0.0
 11
897.3499999999997
 21
427.7499999999998
 31
0.0
  0
LINE
  5
DE7
330
B64
100
AcDbEntity
  8
0
  6
Continuous
 62
     1
100
AcDbLine
 10
897.3499999999997
 20
425.25
 30
0.0
 11
897.3499999999997
 21
426.25
 31
0.0
  0
LINE
  5
DE8
330
B64
100
AcDbEntity
  8
0
  6
Continuous
 62
     1
100
AcDbLine
 10
897.3499999999997
 20
426.25
 30
0.0
 11
898.3500000000001
 21
426.25
 31
0.0
  0
LINE
  5
DE9
330
B64
100
AcDbEntity
  8
0
  6
Continuous
 62
     1
100
AcDbLine
 10
898.3500000000001
 20
426.25
 30
0.0
 11
898.3500000000001
 21
425.25
 31
0.0
  0
LINE
  5
DEA
330
B64
100
AcDbEntity
  8
0
  6
Continuous
 62
     1
100
AcDbLine
 10
898.3500000000001
 20
425.25
 30
0.0
 11
897.3499999999997
 21
425.25
 31
0.0
  0
LINE
  5
DEB
330
B64
100
AcDbEntity
  8
0
  6
Continuous
 62
     1
100
AcDbLine
 10
892.35
 20
427.7499999999998
 30
0.0
 11
892.35
 21
428.75
 31
0.0
  0
LINE
  5
DEC
330
B64
100
AcDbEntity
  8
0
  6
Continuous
 62
     1
100
AcDbLine
 10
892.35
 20
428.75
 30
0.0
 11
893.35
 21
428.75
 31
0.0
  0
LINE
  5
DED
330
B64
100
AcDbEntity
  8
0
  6
Continuous
 62
     1
100
AcDbLine
 10
893.35
 20
428.75
 30
0.0
 11
893.35
 21
427.7499999999998
 31
0.0
  0
LINE
  5
DEE
330
B64
100
AcDbEntity
  8
0
  6
Continuous
 62
     1
100
AcDbLine
 10
893.35
 20
427.7499999999998
 30
0.0
 11
892.35
 21
427.7499999999998
 31
0.0
  0
LINE
  5
DEF
330
B64
100
AcDbEntity
  8
0
  6
Continuous
 62
     1
100
AcDbLine
 10
892.35
 20
425.25
 30
0.0
 11
892.35
 21
426.25
 31
0.0
  0
LINE
  5
DF0
330
B64
100
AcDbEntity
  8
0
  6
Continuous
 62
     1
100
AcDbLine
 10
892.35
 20
426.25
 30
0.0
 11
893.35
 21
426.25
 31
0.0
  0
LINE
  5
DF1
330
B64
100
AcDbEntity
  8
0
  6
Continuous
 62
     1
100
AcDbLine
 10
893.35
 20
426.25
 30
0.0
 11
893.35
 21
425.25
 31
0.0
  0
LINE
  5
DF2
330
B64
100
AcDbEntity
  8
0
  6
Continuous
 62
     1
100
AcDbLine
 10
893.35
 20
425.25
 30
0.0
 11
892.35
 21
425.25
 31
0.0
  0
LINE
  5
DF3
330
B64
100
AcDbEntity
  8
0
  6
Continuous
 62
     1
100
AcDbLine
 10
899.8499999999996
 20
427.7499999999998
 30
0.0
 11
899.8499999999996
 21
428.75
 31
0.0
  0
LINE
  5
DF4
330
B64
100
AcDbEntity
  8
0
  6
Continuous
 62
     1
100
AcDbLine
 10
899.8499999999996
 20
428.75
 30
0.0
 11
900.8499999999999
 21
428.75
 31
0.0
  0
LINE
  5
DF5
330
B64
100
AcDbEntity
  8
0
  6
Continuous
 62
     1
100
AcDbLine
 10
900.8499999999999
 20
428.75
 30
0.0
 11
900.8499999999999
 21
427.7499999999998
 31
0.0
  0
LINE
  5
DF6
330
B64
100
AcDbEntity
  8
0
  6
Continuous
 62
     1
100
AcDbLine
 10
900.8499999999999
 20
427.7499999999998
 30
0.0
 11
899.8499999999996
 21
427.7499999999998
 31
0.0
  0
LINE
  5
DF7
330
B64
100
AcDbEntity
  8
0
  6
Continuous
 62
     1
100
AcDbLine
 10
899.8499999999996
 20
425.25
 30
0.0
 11
899.8499999999996
 21
426.25
 31
0.0
  0
LINE
  5
DF8
330
B64
100
AcDbEntity
  8
0
  6
Continuous
 62
     1
100
AcDbLine
 10
899.8499999999996
 20
426.25
 30
0.0
 11
900.8499999999999
 21
426.25
 31
0.0
  0
LINE
  5
DF9
330
B64
100
AcDbEntity
  8
0
  6
Continuous
 62
     1
100
AcDbLine
 10
900.8499999999999
 20
426.25
 30
0.0
 11
900.8499999999999
 21
425.25
 31
0.0
  0
LINE
  5
DFA
330
B64
100
AcDbEntity
  8
0
  6
Continuous
 62
     1
100
AcDbLine
 10
900.8499999999999
 20
425.25
 30
0.0
 11
899.8499999999996
 21
425.25
 31
0.0
  0
LINE
  5
DFB
330
B64
100
AcDbEntity
  8
0
  6
Continuous
 62
     1
100
AcDbLine
 10
902.35
 20
427.7499999999998
 30
0.0
 11
902.35
 21
428.75
 31
0.0
  0
LINE
  5
DFC
330
B64
100
AcDbEntity
  8
0
  6
Continuous
 62
     1
100
AcDbLine
 10
902.35
 20
428.75
 30
0.0
 11
903.35
 21
428.75
 31
0.0
  0
LINE
  5
DFD
330
B64
100
AcDbEntity
  8
0
  6
Continuous
 62
     1
100
AcDbLine
 10
903.35
 20
428.75
 30
0.0
 11
903.35
 21
427.7499999999998
 31
0.0
  0
LINE
  5
DFE
330
B64
100
AcDbEntity
  8
0
  6
Continuous
 62
     1
100
AcDbLine
 10
903.35
 20
427.7499999999998
 30
0.0
 11
902.35
 21
427.7499999999998
 31
0.0
  0
LINE
  5
DFF
330
B64
100
AcDbEntity
  8
0
  6
Continuous
 62
     1
100
AcDbLine
 10
902.35
 20
425.25
 30
0.0
 11
902.35
 21
426.25
 31
0.0
  0
LINE
  5
E00
330
B64
100
AcDbEntity
  8
0
  6
Continuous
 62
     1
100
AcDbLine
 10
902.35
 20
426.25
 30
0.0
 11
903.35
 21
426.25
 31
0.0
  0
LINE
  5
E01
330
B64
100
AcDbEntity
  8
0
  6
Continuous
 62
     1
100
AcDbLine
 10
903.35
 20
426.25
 30
0.0
 11
903.35
 21
425.25
 31
0.0
  0
LINE
  5
E02
330
B64
100
AcDbEntity
  8
0
  6
Continuous
 62
     1
100
AcDbLine
 10
903.35
 20
425.25
 30
0.0
 11
902.35
 21
425.25
 31
0.0
  0
LINE
  5
E03
330
B64
100
AcDbEntity
  8
0
  6
Continuous
 62
     1
100
AcDbLine
 10
904.85
 20
427.7499999999998
 30
0.0
 11
904.85
 21
428.75
 31
0.0
  0
LINE
  5
E04
330
B64
100
AcDbEntity
  8
0
  6
Continuous
 62
     1
100
AcDbLine
 10
904.85
 20
428.75
 30
0.0
 11
905.85
 21
428.75
 31
0.0
  0
LINE
  5
E05
330
B64
100
AcDbEntity
  8
0
  6
Continuous
 62
     1
100
AcDbLine
 10
905.85
 20
428.75
 30
0.0
 11
905.85
 21
427.7499999999998
 31
0.0
  0
LINE
  5
E06
330
B64
100
AcDbEntity
  8
0
  6
Continuous
 62
     1
100
AcDbLine
 10
905.85
 20
427.7499999999998
 30
0.0
 11
904.85
 21
427.7499999999998
 31
0.0
  0
LINE
  5
E07
330
B64
100
AcDbEntity
  8
0
  6
Continuous
 62
     1
100
AcDbLine
 10
904.85
 20
425.25
 30
0.0
 11
904.85
 21
426.25
 31
0.0
  0
LINE
  5
E08
330
B64
100
AcDbEntity
  8
0
  6
Continuous
 62
     1
100
AcDbLine
 10
904.85
 20
426.25
 30
0.0
 11
905.85
 21
426.25
 31
0.0
  0
LINE
  5
E09
330
B64
100
AcDbEntity
  8
0
  6
Continuous
 62
     1
100
AcDbLine
 10
905.85
 20
426.25
 30
0.0
 11
905.85
 21
425.25
 31
0.0
  0
LINE
  5
E0A
330
B64
100
AcDbEntity
  8
0
  6
Continuous
 62
     1
100
AcDbLine
 10
905.85
 20
425.25
 30
0.0
 11
904.85
 21
425.25
 31
0.0
  0
LINE
  5
E0B
330
B64
100
AcDbEntity
  8
0
  6
Continuous
 62
     1
100
AcDbLine
 10
907.3500000000001
 20
427.7499999999998
 30
0.0
 11
907.3500000000001
 21
428.75
 31
0.0
  0
LINE
  5
E0C
330
B64
100
AcDbEntity
  8
0
  6
Continuous
 62
     1
100
AcDbLine
 10
907.3500000000001
 20
428.75
 30
0.0
 11
908.35
 21
428.75
 31
0.0
  0
LINE
  5
E0D
330
B64
100
AcDbEntity
  8
0
  6
Continuous
 62
     1
100
AcDbLine
 10
908.35
 20
428.75
 30
0.0
 11
908.35
 21
427.7499999999998
 31
0.0
  0
LINE
  5
E0E
330
B64
100
AcDbEntity
  8
0
  6
Continuous
 62
     1
100
AcDbLine
 10
908.35
 20
427.7499999999998
 30
0.0
 11
907.3500000000001
 21
427.7499999999998
 31
0.0
  0
LINE
  5
E0F
330
B64
100
AcDbEntity
  8
0
  6
Continuous
 62
     1
100
AcDbLine
 10
907.3500000000001
 20
425.25
 30
0.0
 11
907.3500000000001
 21
426.25
 31
0.0
  0
LINE
  5
E10
330
B64
100
AcDbEntity
  8
0
  6
Continuous
 62
     1
100
AcDbLine
 10
907.3500000000001
 20
426.25
 30
0.0
 11
908.35
 21
426.25
 31
0.0
  0
LINE
  5
E11
330
B64
100
AcDbEntity
  8
0
  6
Continuous
 62
     1
100
AcDbLine
 10
908.35
 20
426.25
 30
0.0
 11
908.35
 21
425.25
 31
0.0
  0
LINE
  5
E12
330
B64
100
AcDbEntity
  8
0
  6
Continuous
 62
     1
100
AcDbLine
 10
908.35
 20
425.25
 30
0.0
 11
907.3500000000001
 21
425.25
 31
0.0
  0
LINE
  5
E13
330
B64
100
AcDbEntity
  8
0
  6
Continuous
 62
     1
100
AcDbLine
 10
909.8499999999999
 20
427.7499999999998
 30
0.0
 11
909.8499999999999
 21
428.75
 31
0.0
  0
LINE
  5
E14
330
B64
100
AcDbEntity
  8
0
  6
Continuous
 62
     1
100
AcDbLine
 10
909.8499999999999
 20
428.75
 30
0.0
 11
910.8500000000001
 21
428.75
 31
0.0
  0
LINE
  5
E15
330
B64
100
AcDbEntity
  8
0
  6
Continuous
 62
     1
100
AcDbLine
 10
910.8500000000001
 20
428.75
 30
0.0
 11
910.8500000000001
 21
427.7499999999998
 31
0.0
  0
LINE
  5
E16
330
B64
100
AcDbEntity
  8
0
  6
Continuous
 62
     1
100
AcDbLine
 10
910.8500000000001
 20
427.7499999999998
 30
0.0
 11
909.8499999999999
 21
427.7499999999998
 31
0.0
  0
LINE
  5
E17
330
B64
100
AcDbEntity
  8
0
  6
Continuous
 62
     1
100
AcDbLine
 10
909.8499999999999
 20
425.25
 30
0.0
 11
909.8499999999999
 21
426.25
 31
0.0
  0
LINE
  5
E18
330
B64
100
AcDbEntity
  8
0
  6
Continuous
 62
     1
100
AcDbLine
 10
909.8499999999999
 20
426.25
 30
0.0
 11
910.8500000000001
 21
426.25
 31
0.0
  0
LINE
  5
E19
330
B64
100
AcDbEntity
  8
0
  6
Continuous
 62
     1
100
AcDbLine
 10
910.8500000000001
 20
426.25
 30
0.0
 11
910.8500000000001
 21
425.25
 31
0.0
  0
LINE
  5
E1A
330
B64
100
AcDbEntity
  8
0
  6
Continuous
 62
     1
100
AcDbLine
 10
910.8500000000001
 20
425.25
 30
0.0
 11
909.8499999999999
 21
425.25
 31
0.0
  0
LINE
  5
E1B
330
B64
100
AcDbEntity
  8
0
  6
Continuous
 62
     1
100
AcDbLine
 10
912.3499999999999
 20
427.7499999999998
 30
0.0
 11
912.3499999999999
 21
428.75
 31
0.0
  0
LINE
  5
E1C
330
B64
100
AcDbEntity
  8
0
  6
Continuous
 62
     1
100
AcDbLine
 10
912.3499999999999
 20
428.75
 30
0.0
 11
913.3499999999999
 21
428.75
 31
0.0
  0
LINE
  5
E1D
330
B64
100
AcDbEntity
  8
0
  6
Continuous
 62
     1
100
AcDbLine
 10
913.3499999999999
 20
428.75
 30
0.0
 11
913.3499999999999
 21
427.7499999999998
 31
0.0
  0
LINE
  5
E1E
330
B64
100
AcDbEntity
  8
0
  6
Continuous
 62
     1
100
AcDbLine
 10
913.3499999999999
 20
427.7499999999998
 30
0.0
 11
912.3499999999999
 21
427.7499999999998
 31
0.0
  0
LINE
  5
E1F
330
B64
100
AcDbEntity
  8
0
  6
Continuous
 62
     1
100
AcDbLine
 10
912.3499999999999
 20
425.25
 30
0.0
 11
912.3499999999999
 21
426.25
 31
0.0
  0
LINE
  5
E20
330
B64
100
AcDbEntity
  8
0
  6
Continuous
 62
     1
100
AcDbLine
 10
912.3499999999999
 20
426.25
 30
0.0
 11
913.3499999999999
 21
426.25
 31
0.0
  0
LINE
  5
E21
330
B64
100
AcDbEntity
  8
0
  6
Continuous
 62
     1
100
AcDbLine
 10
913.3499999999999
 20
426.25
 30
0.0
 11
913.3499999999999
 21
425.25
 31
0.0
  0
LINE
  5
E22
330
B64
100
AcDbEntity
  8
0
  6
Continuous
 62
     1
100
AcDbLine
 10
913.3499999999999
 20
425.25
 30
0.0
 11
912.3499999999999
 21
425.25
 31
0.0
  0
LINE
  5
E23
330
B64
100
AcDbEntity
  8
0
  6
Continuous
 62
     1
100
AcDbLine
 10
914.85
 20
427.7499999999998
 30
0.0
 11
914.85
 21
428.75
 31
0.0
  0
LINE
  5
E24
330
B64
100
AcDbEntity
  8
0
  6
Continuous
 62
     1
100
AcDbLine
 10
914.85
 20
428.75
 30
0.0
 11
915.85
 21
428.75
 31
0.0
  0
LINE
  5
E25
330
B64
100
AcDbEntity
  8
0
  6
Continuous
 62
     1
100
AcDbLine
 10
915.85
 20
428.75
 30
0.0
 11
915.85
 21
427.7499999999998
 31
0.0
  0
LINE
  5
E26
330
B64
100
AcDbEntity
  8
0
  6
Continuous
 62
     1
100
AcDbLine
 10
915.85
 20
427.7499999999998
 30
0.0
 11
914.85
 21
427.7499999999998
 31
0.0
  0
LINE
  5
E27
330
B64
100
AcDbEntity
  8
0
  6
Continuous
 62
     1
100
AcDbLine
 10
914.85
 20
425.25
 30
0.0
 11
914.85
 21
426.25
 31
0.0
  0
LINE
  5
E28
330
B64
100
AcDbEntity
  8
0
  6
Continuous
 62
     1
100
AcDbLine
 10
914.85
 20
426.25
 30
0.0
 11
915.85
 21
426.25
 31
0.0
  0
LINE
  5
E29
330
B64
100
AcDbEntity
  8
0
  6
Continuous
 62
     1
100
AcDbLine
 10
915.85
 20
426.25
 30
0.0
 11
915.85
 21
425.25
 31
0.0
  0
LINE
  5
E2A
330
B64
100
AcDbEntity
  8
0
  6
Continuous
 62
     1
100
AcDbLine
 10
915.85
 20
425.25
 30
0.0
 11
914.85
 21
425.25
 31
0.0
  0
LINE
  5
E2B
330
B64
100
AcDbEntity
  8
0
  6
Continuous
 62
     1
100
AcDbLine
 10
889.85
 20
427.7499999999998
 30
0.0
 11
889.85
 21
428.75
 31
0.0
  0
LINE
  5
E2C
330
B64
100
AcDbEntity
  8
0
  6
Continuous
 62
     1
100
AcDbLine
 10
889.85
 20
428.75
 30
0.0
 11
890.85
 21
428.75
 31
0.0
  0
LINE
  5
E2D
330
B64
100
AcDbEntity
  8
0
  6
Continuous
 62
     1
100
AcDbLine
 10
890.85
 20
428.75
 30
0.0
 11
890.85
 21
427.7499999999998
 31
0.0
  0
LINE
  5
E2E
330
B64
100
AcDbEntity
  8
0
  6
Continuous
 62
     1
100
AcDbLine
 10
890.85
 20
427.7499999999998
 30
0.0
 11
889.85
 21
427.7499999999998
 31
0.0
  0
LINE
  5
E2F
330
B64
100
AcDbEntity
  8
0
  6
Continuous
 62
     1
100
AcDbLine
 10
889.85
 20
425.25
 30
0.0
 11
889.85
 21
426.25
 31
0.0
  0
LINE
  5
E30
330
B64
100
AcDbEntity
  8
0
  6
Continuous
 62
     1
100
AcDbLine
 10
889.85
 20
426.25
 30
0.0
 11
890.85
 21
426.25
 31
0.0
  0
LINE
  5
E31
330
B64
100
AcDbEntity
  8
0
  6
Continuous
 62
     1
100
AcDbLine
 10
890.85
 20
426.25
 30
0.0
 11
890.85
 21
425.25
 31
0.0
  0
LINE
  5
E32
330
B64
100
AcDbEntity
  8
0
  6
Continuous
 62
     1
100
AcDbLine
 10
890.85
 20
425.25
 30
0.0
 11
889.85
 21
425.25
 31
0.0
  0
LINE
  5
E33
330
B64
100
AcDbEntity
  8
0
  6
Continuous
 62
     1
100
AcDbLine
 10
887.3499999999996
 20
427.7499999999998
 30
0.0
 11
887.3499999999996
 21
428.75
 31
0.0
  0
LINE
  5
E34
330
B64
100
AcDbEntity
  8
0
  6
Continuous
 62
     1
100
AcDbLine
 10
887.3499999999996
 20
428.75
 30
0.0
 11
888.3499999999996
 21
428.75
 31
0.0
  0
LINE
  5
E35
330
B64
100
AcDbEntity
  8
0
  6
Continuous
 62
     1
100
AcDbLine
 10
888.3499999999996
 20
428.75
 30
0.0
 11
888.3499999999996
 21
427.7499999999998
 31
0.0
  0
LINE
  5
E36
330
B64
100
AcDbEntity
  8
0
  6
Continuous
 62
     1
100
AcDbLine
 10
888.3499999999996
 20
427.7499999999998
 30
0.0
 11
887.3499999999996
 21
427.7499999999998
 31
0.0
  0
LINE
  5
E37
330
B64
100
AcDbEntity
  8
0
  6
Continuous
 62
     1
100
AcDbLine
 10
887.3499999999996
 20
425.25
 30
0.0
 11
887.3499999999996
 21
426.25
 31
0.0
  0
LINE
  5
E38
330
B64
100
AcDbEntity
  8
0
  6
Continuous
 62
     1
100
AcDbLine
 10
887.3499999999996
 20
426.25
 30
0.0
 11
888.3499999999996
 21
426.25
 31
0.0
  0
LINE
  5
E39
330
B64
100
AcDbEntity
  8
0
  6
Continuous
 62
     1
100
AcDbLine
 10
888.3499999999996
 20
426.25
 30
0.0
 11
888.3499999999996
 21
425.25
 31
0.0
  0
LINE
  5
E3A
330
B64
100
AcDbEntity
  8
0
  6
Continuous
 62
     1
100
AcDbLine
 10
888.3499999999996
 20
425.25
 30
0.0
 11
887.3499999999996
 21
425.25
 31
0.0
  0
LINE
  5
E3B
330
B64
100
AcDbEntity
  8
0
  6
Continuous
 62
     1
100
AcDbLine
 10
884.8499999999997
 20
427.7499999999998
 30
0.0
 11
884.8499999999997
 21
428.75
 31
0.0
  0
LINE
  5
E3C
330
B64
100
AcDbEntity
  8
0
  6
Continuous
 62
     1
100
AcDbLine
 10
884.8499999999997
 20
428.75
 30
0.0
 11
885.8500000000001
 21
428.75
 31
0.0
  0
LINE
  5
E3D
330
B64
100
AcDbEntity
  8
0
  6
Continuous
 62
     1
100
AcDbLine
 10
885.8500000000001
 20
428.75
 30
0.0
 11
885.8500000000001
 21
427.7499999999998
 31
0.0
  0
LINE
  5
E3E
330
B64
100
AcDbEntity
  8
0
  6
Continuous
 62
     1
100
AcDbLine
 10
885.8500000000001
 20
427.7499999999998
 30
0.0
 11
884.8499999999997
 21
427.7499999999998
 31
0.0
  0
LINE
  5
E3F
330
B64
100
AcDbEntity
  8
0
  6
Continuous
 62
     1
100
AcDbLine
 10
884.8499999999997
 20
425.25
 30
0.0
 11
884.8499999999997
 21
426.25
 31
0.0
  0
LINE
  5
E40
330
B64
100
AcDbEntity
  8
0
  6
Continuous
 62
     1
100
AcDbLine
 10
884.8499999999997
 20
426.25
 30
0.0
 11
885.8500000000001
 21
426.25
 31
0.0
  0
LINE
  5
E41
330
B64
100
AcDbEntity
  8
0
  6
Continuous
 62
     1
100
AcDbLine
 10
885.8500000000001
 20
426.25
 30
0.0
 11
885.8500000000001
 21
425.25
 31
0.0
  0
LINE
  5
E42
330
B64
100
AcDbEntity
  8
0
  6
Continuous
 62
     1
100
AcDbLine
 10
885.8500000000001
 20
425.25
 30
0.0
 11
884.8499999999997
 21
425.25
 31
0.0
  0
LINE
  5
E43
330
B64
100
AcDbEntity
  8
0
  6
Continuous
 62
     1
100
AcDbLine
 10
882.3500000000001
 20
427.7499999999998
 30
0.0
 11
882.3500000000001
 21
428.75
 31
0.0
  0
LINE
  5
E44
330
B64
100
AcDbEntity
  8
0
  6
Continuous
 62
     1
100
AcDbLine
 10
882.3500000000001
 20
428.75
 30
0.0
 11
883.35
 21
428.75
 31
0.0
  0
LINE
  5
E45
330
B64
100
AcDbEntity
  8
0
  6
Continuous
 62
     1
100
AcDbLine
 10
883.35
 20
428.75
 30
0.0
 11
883.35
 21
427.7499999999998
 31
0.0
  0
LINE
  5
E46
330
B64
100
AcDbEntity
  8
0
  6
Continuous
 62
     1
100
AcDbLine
 10
883.35
 20
427.7499999999998
 30
0.0
 11
882.3500000000001
 21
427.7499999999998
 31
0.0
  0
LINE
  5
E47
330
B64
100
AcDbEntity
  8
0
  6
Continuous
 62
     1
100
AcDbLine
 10
882.3500000000001
 20
425.25
 30
0.0
 11
882.3500000000001
 21
426.25
 31
0.0
  0
LINE
  5
E48
330
B64
100
AcDbEntity
  8
0
  6
Continuous
 62
     1
100
AcDbLine
 10
882.3500000000001
 20
426.25
 30
0.0
 11
883.35
 21
426.25
 31
0.0
  0
LINE
  5
E49
330
B64
100
AcDbEntity
  8
0
  6
Continuous
 62
     1
100
AcDbLine
 10
883.35
 20
426.25
 30
0.0
 11
883.35
 21
425.25
 31
0.0
  0
LINE
  5
E4A
330
B64
100
AcDbEntity
  8
0
  6
Continuous
 62
     1
100
AcDbLine
 10
883.35
 20
425.25
 30
0.0
 11
882.3500000000001
 21
425.25
 31
0.0
  0
LINE
  5
E4B
330
B64
100
AcDbEntity
  8
0
  6
Continuous
 62
     1
100
AcDbLine
 10
879.85
 20
427.7499999999998
 30
0.0
 11
879.85
 21
428.75
 31
0.0
  0
LINE
  5
E4C
330
B64
100
AcDbEntity
  8
0
  6
Continuous
 62
     1
100
AcDbLine
 10
879.85
 20
428.75
 30
0.0
 11
880.85
 21
428.75
 31
0.0
  0
LINE
  5
E4D
330
B64
100
AcDbEntity
  8
0
  6
Continuous
 62
     1
100
AcDbLine
 10
880.85
 20
428.75
 30
0.0
 11
880.85
 21
427.7499999999998
 31
0.0
  0
LINE
  5
E4E
330
B64
100
AcDbEntity
  8
0
  6
Continuous
 62
     1
100
AcDbLine
 10
880.85
 20
427.7499999999998
 30
0.0
 11
879.85
 21
427.7499999999998
 31
0.0
  0
LINE
  5
E4F
330
B64
100
AcDbEntity
  8
0
  6
Continuous
 62
     1
100
AcDbLine
 10
879.85
 20
425.25
 30
0.0
 11
879.85
 21
426.25
 31
0.0
  0
LINE
  5
E50
330
B64
100
AcDbEntity
  8
0
  6
Continuous
 62
     1
100
AcDbLine
 10
879.85
 20
426.25
 30
0.0
 11
880.85
 21
426.25
 31
0.0
  0
LINE
  5
E51
330
B64
100
AcDbEntity
  8
0
  6
Continuous
 62
     1
100
AcDbLine
 10
880.85
 20
426.25
 30
0.0
 11
880.85
 21
425.25
 31
0.0
  0
LINE
  5
E52
330
B64
100
AcDbEntity
  8
0
  6
Continuous
 62
     1
100
AcDbLine
 10
880.85
 20
425.25
 30
0.0
 11
879.85
 21
425.25
 31
0.0
  0
LINE
  5
E53
330
B64
100
AcDbEntity
  8
0
  6
Continuous
 62
     1
100
AcDbLine
 10
877.35
 20
427.7499999999998
 30
0.0
 11
877.35
 21
428.75
 31
0.0
  0
LINE
  5
E54
330
B64
100
AcDbEntity
  8
0
  6
Continuous
 62
     1
100
AcDbLine
 10
877.35
 20
428.75
 30
0.0
 11
878.35
 21
428.75
 31
0.0
  0
LINE
  5
E55
330
B64
100
AcDbEntity
  8
0
  6
Continuous
 62
     1
100
AcDbLine
 10
878.35
 20
428.75
 30
0.0
 11
878.35
 21
427.7499999999998
 31
0.0
  0
LINE
  5
E56
330
B64
100
AcDbEntity
  8
0
  6
Continuous
 62
     1
100
AcDbLine
 10
878.35
 20
427.7499999999998
 30
0.0
 11
877.35
 21
427.7499999999998
 31
0.0
  0
LINE
  5
E57
330
B64
100
AcDbEntity
  8
0
  6
Continuous
 62
     1
100
AcDbLine
 10
877.35
 20
425.25
 30
0.0
 11
877.35
 21
426.25
 31
0.0
  0
LINE
  5
E58
330
B64
100
AcDbEntity
  8
0
  6
Continuous
 62
     1
100
AcDbLine
 10
877.35
 20
426.25
 30
0.0
 11
878.35
 21
426.25
 31
0.0
  0
LINE
  5
E59
330
B64
100
AcDbEntity
  8
0
  6
Continuous
 62
     1
100
AcDbLine
 10
878.35
 20
426.25
 30
0.0
 11
878.35
 21
425.25
 31
0.0
  0
LINE
  5
E5A
330
B64
100
AcDbEntity
  8
0
  6
Continuous
 62
     1
100
AcDbLine
 10
878.35
 20
425.25
 30
0.0
 11
877.35
 21
425.25
 31
0.0
  0
LINE
  5
E5B
330
B64
100
AcDbEntity
  8
0
  6
Continuous
 62
     1
100
AcDbLine
 10
874.8499999999996
 20
427.7499999999998
 30
0.0
 11
874.8499999999996
 21
428.75
 31
0.0
  0
LINE
  5
E5C
330
B64
100
AcDbEntity
  8
0
  6
Continuous
 62
     1
100
AcDbLine
 10
874.8499999999996
 20
428.75
 30
0.0
 11
875.8499999999996
 21
428.75
 31
0.0
  0
LINE
  5
E5D
330
B64
100
AcDbEntity
  8
0
  6
Continuous
 62
     1
100
AcDbLine
 10
875.8499999999996
 20
428.75
 30
0.0
 11
875.8499999999996
 21
427.7499999999998
 31
0.0
  0
LINE
  5
E5E
330
B64
100
AcDbEntity
  8
0
  6
Continuous
 62
     1
100
AcDbLine
 10
875.8499999999996
 20
427.7499999999998
 30
0.0
 11
874.8499999999996
 21
427.7499999999998
 31
0.0
  0
LINE
  5
E5F
330
B64
100
AcDbEntity
  8
0
  6
Continuous
 62
     1
100
AcDbLine
 10
874.8499999999996
 20
425.25
 30
0.0
 11
874.8499999999996
 21
426.25
 31
0.0
  0
LINE
  5
E60
330
B64
100
AcDbEntity
  8
0
  6
Continuous
 62
     1
100
AcDbLine
 10
874.8499999999996
 20
426.25
 30
0.0
 11
875.8499999999996
 21
426.25
 31
0.0
  0
LINE
  5
E61
330
B64
100
AcDbEntity
  8
0
  6
Continuous
 62
     1
100
AcDbLine
 10
875.8499999999996
 20
426.25
 30
0.0
 11
875.8499999999996
 21
425.25
 31
0.0
  0
LINE
  5
E62
330
B64
100
AcDbEntity
  8
0
  6
Continuous
 62
     1
100
AcDbLine
 10
875.8499999999996
 20
425.25
 30
0.0
 11
874.8499999999996
 21
425.25
 31
0.0
  0
LINE
  5
E63
330
B64
100
AcDbEntity
  8
0
  6
Continuous
 62
     1
100
AcDbLine
 10
872.3499999999997
 20
427.7499999999998
 30
0.0
 11
872.3499999999997
 21
428.75
 31
0.0
  0
LINE
  5
E64
330
B64
100
AcDbEntity
  8
0
  6
Continuous
 62
     1
100
AcDbLine
 10
872.3499999999997
 20
428.75
 30
0.0
 11
873.3500000000001
 21
428.75
 31
0.0
  0
LINE
  5
E65
330
B64
100
AcDbEntity
  8
0
  6
Continuous
 62
     1
100
AcDbLine
 10
873.3500000000001
 20
428.75
 30
0.0
 11
873.3500000000001
 21
427.7499999999998
 31
0.0
  0
LINE
  5
E66
330
B64
100
AcDbEntity
  8
0
  6
Continuous
 62
     1
100
AcDbLine
 10
873.3500000000001
 20
427.7499999999998
 30
0.0
 11
872.3499999999997
 21
427.7499999999998
 31
0.0
  0
LINE
  5
E67
330
B64
100
AcDbEntity
  8
0
  6
Continuous
 62
     1
100
AcDbLine
 10
872.3499999999997
 20
425.25
 30
0.0
 11
872.3499999999997
 21
426.25
 31
0.0
  0
LINE
  5
E68
330
B64
100
AcDbEntity
  8
0
  6
Continuous
 62
     1
100
AcDbLine
 10
872.3499999999997
 20
426.25
 30
0.0
 11
873.3500000000001
 21
426.25
 31
0.0
  0
LINE
  5
E69
330
B64
100
AcDbEntity
  8
0
  6
Continuous
 62
     1
100
AcDbLine
 10
873.3500000000001
 20
426.25
 30
0.0
 11
873.3500000000001
 21
425.25
 31
0.0
  0
LINE
  5
E6A
330
B64
100
AcDbEntity
  8
0
  6
Continuous
 62
     1
100
AcDbLine
 10
873.3500000000001
 20
425.25
 30
0.0
 11
872.3499999999997
 21
425.25
 31
0.0
  0
ARC
  5
E6B
330
B64
100
AcDbEntity
  8
0
  6
Continuous
 62
     1
100
AcDbCircle
 10
870.7999999999996
 20
424.2499999999997
 30
0.0
 40
1.0
100
AcDbArc
 50
168.6999999999999
 51
270.0
  0
LINE
  5
E6C
330
B64
100
AcDbEntity
  8
0
  6
Continuous
 62
     1
100
AcDbLine
 10
869.8500000000001
 20
424.45
 30
0.0
 11
870.95
 21
429.95
 31
0.0
  0
ARC
  5
E6D
330
B64
100
AcDbEntity
  8
0
  6
Continuous
 62
     1
100
AcDbCircle
 10
871.95
 20
429.75
 30
0.0
 40
1.0
100
AcDbArc
 50
90.0
 51
169.9
  0
LINE
  5
E6E
330
B64
100
AcDbEntity
  8
0
  6
Continuous
 62
     1
100
AcDbLine
 10
871.95
 20
430.75
 30
0.0
 11
916.3
 21
430.75
 31
0.0
  0
ARC
  5
E6F
330
B64
100
AcDbEntity
  8
0
  6
Continuous
 62
     1
100
AcDbCircle
 10
916.3
 20
429.75
 30
0.0
 40
1.0
100
AcDbArc
 50
11.4
 51
90.0
  0
LINE
  5
E70
330
B64
100
AcDbEntity
  8
0
  6
Continuous
 62
     1
100
AcDbLine
 10
917.2499999999999
 20
429.95
 30
0.0
 11
918.35
 21
424.45
 31
0.0
  0
ARC
  5
E71
330
B64
100
AcDbEntity
  8
0
  6
Continuous
 62
     1
100
AcDbCircle
 10
917.35
 20
424.2499999999997
 30
0.0
 40
1.0
100
AcDbArc
 50
270.0
 51
12.0
  0
LINE
  5
E72
330
B64
100
AcDbEntity
  8
0
  6
Continuous
 62
     1
100
AcDbLine
 10
917.35
 20
423.2499999999998
 30
0.0
 11
870.7999999999996
 21
423.2499999999998
 31
0.0
  0
ARC
  5
E73
330
B64
100
AcDbEntity
  8
0
  6
Continuous
 62
     1
100
AcDbCircle
 10
867.6
 20
440.0
 30
0.0
 40
1.0
100
AcDbArc
 50
90.0
 51
180.0
  0
ARC
  5
E74
330
B64
100
AcDbEntity
  8
0
  6
Continuous
 62
     1
100
AcDbCircle
 10
867.6
 20
414.0
 30
0.0
 40
1.0
100
AcDbArc
 50
180.0
 51
270.0
  0
LINE
  5
E75
330
B64
100
AcDbEntity
  8
0
  6
Continuous
 62
     1
100
AcDbLine
 10
866.6
 20
414.0
 30
0.0
 11
866.6
 21
440.0
 31
0.0
  0
ARC
  5
E76
330
B64
100
AcDbEntity
  8
0
  6
Continuous
 62
     1
100
AcDbCircle
 10
920.6000000000001
 20
414.0
 30
0.0
 40
1.0
100
AcDbArc
 50
270.0
 51
0.0
  0
LINE
  5
E77
330
B64
100
AcDbEntity
  8
0
  6
Continuous
 62
     1
100
AcDbLine
 10
920.6000000000001
 20
413.0
 30
0.0
 11
867.6
 21
413.0
 31
0.0
  0
LINE
  5
E78
330
B64
100
AcDbEntity
  8
0
  6
Continuous
 62
     1
100
AcDbLine
 10
867.6
 20
441.0
 30
0.0
 11
920.6000000000001
 21
441.0
 31
0.0
  0
ARC
  5
E79
330
B64
100
AcDbEntity
  8
0
  6
Continuous
 62
     1
100
AcDbCircle
 10
920.6000000000001
 20
440.0
 30
0.0
 40
1.0
100
AcDbArc
 50
0.0
 51
90.0
  0
LINE
  5
E7A
330
B64
100
AcDbEntity
  8
0
  6
Continuous
 62
     1
100
AcDbLine
 10
921.6000000000001
 20
440.0
 30
0.0
 11
921.6000000000001
 21
414.0
 31
0.0
  0
LINE
  5
E7B
330
B64
100
AcDbEntity
  8
0
  6
Continuous
 62
     6
100
AcDbLine
 10
866.6
 20
441.5
 30
0.0
 11
866.6
 21
467.0
 31
0.0
  0
LINE
  5
E7C
330
B64
100
AcDbEntity
  8
0
  6
Continuous
 62
     6
100
AcDbLine
 10
869.5999999999996
 20
425.4999999999998
 30
0.0
 11
869.5999999999996
 21
462.0
 31
0.0
  0
LINE
  5
E7D
330
B64
100
AcDbEntity
  8
0
  6
Continuous
 62
     6
100
AcDbLine
 10
871.1
 20
431.0
 30
0.0
 11
871.1
 21
457.0
 31
0.0
  0
LINE
  5
E7E
330
B64
100
AcDbEntity
  8
0
  6
Continuous
 62
     6
100
AcDbLine
 10
872.85
 20
436.7499999999998
 30
0.0
 11
872.85
 21
452.0
 31
0.0
  0
LINE
  5
E7F
330
B64
100
AcDbEntity
  8
0
  6
Continuous
 62
     6
100
AcDbLine
 10
915.3500000000001
 20
435.7499999999998
 30
0.0
 11
915.3500000000001
 21
452.0
 31
0.0
  0
LINE
  5
E80
330
B64
100
AcDbEntity
  8
0
  6
Continuous
 62
     6
100
AcDbLine
 10
917.1000000000001
 20
431.0
 30
0.0
 11
917.1000000000001
 21
457.0
 31
0.0
  0
LINE
  5
E81
330
B64
100
AcDbEntity
  8
0
  6
Continuous
 62
     6
100
AcDbLine
 10
918.5999999999999
 20
462.0
 30
0.0
 11
918.5999999999999
 21
425.0
 31
0.0
  0
LINE
  5
E82
330
B64
100
AcDbEntity
  8
0
  6
Continuous
 62
     6
100
AcDbLine
 10
921.6000000000001
 20
441.0
 30
0.0
 11
921.6000000000001
 21
467.0
 31
0.0
  0
LINE
  5
E83
330
B64
100
AcDbEntity
  8
0
  6
Continuous
 62
     6
100
AcDbLine
 10
867.7999999999999
 20
465.7
 30
0.0
 11
866.6
 21
466.0
 31
0.0
  0
LINE
  5
E84
330
B64
100
AcDbEntity
  8
0
  6
Continuous
 62
     6
100
AcDbLine
 10
866.6
 20
466.0
 30
0.0
 11
867.7999999999999
 21
466.3
 31
0.0
  0
LINE
  5
E85
330
B64
100
AcDbEntity
  8
0
  6
Continuous
 62
     6
100
AcDbLine
 10
866.6
 20
466.0
 30
0.0
 11
921.6000000000001
 21
466.0
 31
0.0
  0
LINE
  5
E86
330
B64
100
AcDbEntity
  8
0
  6
Continuous
 62
     6
100
AcDbLine
 10
920.4
 20
465.7
 30
0.0
 11
921.6000000000001
 21
466.0
 31
0.0
  0
LINE
  5
E87
330
B64
100
AcDbEntity
  8
0
  6
Continuous
 62
     6
100
AcDbLine
 10
921.6000000000001
 20
466.0
 30
0.0
 11
920.4
 21
466.3
 31
0.0
  0
TEXT
  5
E88
330
B64
100
AcDbEntity
  8
0
  6
Continuous
 62
     6
100
AcDbText
 10
893.2999999999998
 20
466.75
 30
0.1875
 40
1.5
  1
５５
 41
0.75
  7
KANJI3
100
AcDbText
  0
LINE
  5
E89
330
B64
100
AcDbEntity
  8
0
  6
Continuous
 62
     6
100
AcDbLine
 10
917.3999999999999
 20
461.3
 30
0.1875
 11
918.5999999999999
 21
461.0
 31
0.1875
  0
LINE
  5
E8A
330
B64
100
AcDbEntity
  8
0
  6
Continuous
 62
     6
100
AcDbLine
 10
918.5999999999999
 20
461.0
 30
0.0
 11
917.3999999999999
 21
460.7
 31
0.0
  0
LINE
  5
E8B
330
B64
100
AcDbEntity
  8
0
  6
Continuous
 62
     6
100
AcDbLine
 10
918.5999999999999
 20
461.0
 30
0.0
 11
869.5999999999996
 21
461.0
 31
0.0
  0
LINE
  5
E8C
330
B64
100
AcDbEntity
  8
0
  6
Continuous
 62
     6
100
AcDbLine
 10
870.7999999999996
 20
461.3
 30
0.0
 11
869.5999999999996
 21
461.0
 31
0.0
  0
LINE
  5
E8D
330
B64
100
AcDbEntity
  8
0
  6
Continuous
 62
     6
100
AcDbLine
 10
869.5999999999996
 20
461.0
 30
0.0
 11
870.7999999999996
 21
460.7
 31
0.0
  0
TEXT
  5
E8E
330
B64
100
AcDbEntity
  8
0
  6
Continuous
 62
     6
100
AcDbText
 10
893.2999999999998
 20
461.7499999999998
 30
0.1875
 40
1.5
  1
４９
 41
0.75
  7
KANJI3
100
AcDbText
  0
LINE
  5
E8F
330
B64
100
AcDbEntity
  8
0
  6
Continuous
 62
     6
100
AcDbLine
 10
915.9
 20
456.3
 30
0.1875
 11
917.1000000000001
 21
456.0
 31
0.1875
  0
LINE
  5
E90
330
B64
100
AcDbEntity
  8
0
  6
Continuous
 62
     6
100
AcDbLine
 10
917.1000000000001
 20
456.0
 30
0.0
 11
915.9
 21
455.7
 31
0.0
  0
LINE
  5
E91
330
B64
100
AcDbEntity
  8
0
  6
Continuous
 62
     6
100
AcDbLine
 10
917.1000000000001
 20
456.0
 30
0.0
 11
871.1
 21
456.0
 31
0.0
  0
LINE
  5
E92
330
B64
100
AcDbEntity
  8
0
  6
Continuous
 62
     6
100
AcDbLine
 10
872.2999999999997
 20
456.3
 30
0.0
 11
871.1
 21
456.0
 31
0.0
  0
LINE
  5
E93
330
B64
100
AcDbEntity
  8
0
  6
Continuous
 62
     6
100
AcDbLine
 10
871.1
 20
456.0
 30
0.0
 11
872.2999999999997
 21
455.7
 31
0.0
  0
TEXT
  5
E94
330
B64
100
AcDbEntity
  8
0
  6
Continuous
 62
     6
100
AcDbText
 10
893.2999999999998
 20
456.7499999999998
 30
0.1875
 40
1.5
  1
４６
 41
0.75
  7
KANJI3
100
AcDbText
  0
LINE
  5
E95
330
B64
100
AcDbEntity
  8
0
  6
Continuous
 62
     6
100
AcDbLine
 10
914.15
 20
451.2999999999998
 30
0.1875
 11
915.3500000000001
 21
451.0
 31
0.1875
  0
LINE
  5
E96
330
B64
100
AcDbEntity
  8
0
  6
Continuous
 62
     6
100
AcDbLine
 10
915.3500000000001
 20
451.0
 30
0.0
 11
914.15
 21
450.6999999999998
 31
0.0
  0
LINE
  5
E97
330
B64
100
AcDbEntity
  8
0
  6
Continuous
 62
     6
100
AcDbLine
 10
915.3500000000001
 20
451.0
 30
0.0
 11
872.85
 21
451.0
 31
0.0
  0
LINE
  5
E98
330
B64
100
AcDbEntity
  8
0
  6
Continuous
 62
     6
100
AcDbLine
 10
874.0499999999999
 20
451.2999999999998
 30
0.0
 11
872.85
 21
451.0
 31
0.0
  0
LINE
  5
E99
330
B64
100
AcDbEntity
  8
0
  6
Continuous
 62
     6
100
AcDbLine
 10
872.85
 20
451.0
 30
0.0
 11
874.0499999999999
 21
450.6999999999998
 31
0.0
  0
TEXT
  5
E9A
330
B64
100
AcDbEntity
  8
0
  6
Continuous
 62
     6
100
AcDbText
 10
889.4999999999999
 20
451.75
 30
0.1875
 40
1.5
  1
２．５　Ｘ　１７
 41
0.75
  7
KANJI3
100
AcDbText
  0
LINE
  5
E9B
330
B64
100
AcDbEntity
  8
0
  6
Continuous
 62
     6
100
AcDbLine
 10
922.1
 20
441.0
 30
0.1875
 11
944.1
 21
441.0
 31
0.1875
  0
LINE
  5
E9C
330
B64
100
AcDbEntity
  8
0
  6
Continuous
 62
     6
100
AcDbLine
 10
944.1
 20
413.0
 30
0.0
 11
922.1
 21
413.0
 31
0.0
  0
LINE
  5
E9D
330
B64
100
AcDbEntity
  8
0
  6
Continuous
 62
     6
100
AcDbLine
 10
942.7999999999999
 20
439.8
 30
0.0
 11
943.1
 21
441.0
 31
0.0
  0
LINE
  5
E9E
330
B64
100
AcDbEntity
  8
0
  6
Continuous
 62
     6
100
AcDbLine
 10
943.1
 20
441.0
 30
0.0
 11
943.3999999999999
 21
439.8
 31
0.0
  0
LINE
  5
E9F
330
B64
100
AcDbEntity
  8
0
  6
Continuous
 62
     6
100
AcDbLine
 10
943.1
 20
441.0
 30
0.0
 11
943.1
 21
413.0
 31
0.0
  0
LINE
  5
EA0
330
B64
100
AcDbEntity
  8
0
  6
Continuous
 62
     6
100
AcDbLine
 10
942.7999999999999
 20
414.2
 30
0.0
 11
943.1
 21
413.0
 31
0.0
  0
LINE
  5
EA1
330
B64
100
AcDbEntity
  8
0
  6
Continuous
 62
     6
100
AcDbLine
 10
943.1
 20
413.0
 30
0.0
 11
943.3999999999999
 21
414.2
 31
0.0
  0
TEXT
  5
EA2
330
B64
100
AcDbEntity
  8
0
  6
Continuous
 62
     6
100
AcDbText
 10
942.35
 20
426.1999999999998
 30
0.1875
 40
1.5
  1
２８
 50
90.0
 41
0.75
  7
KANJI3
100
AcDbText
  0
LINE
  5
EA3
330
B64
100
AcDbEntity
  8
0
  6
Continuous
 62
     6
100
AcDbLine
 10
866.6
 20
441.5
 30
0.1875
 11
866.6
 21
467.0
 31
0.1875
  0
LINE
  5
EA4
330
B64
100
AcDbEntity
  8
0
  6
Continuous
 62
     6
100
AcDbLine
 10
869.5999999999996
 20
425.4999999999998
 30
0.0
 11
869.5999999999996
 21
462.0
 31
0.0
  0
LINE
  5
EA5
330
B64
100
AcDbEntity
  8
0
  6
Continuous
 62
     6
100
AcDbLine
 10
871.1
 20
431.0
 30
0.0
 11
871.1
 21
457.0
 31
0.0
  0
LINE
  5
EA6
330
B64
100
AcDbEntity
  8
0
  6
Continuous
 62
     6
100
AcDbLine
 10
872.85
 20
436.7499999999998
 30
0.0
 11
872.85
 21
452.0
 31
0.0
  0
LINE
  5
EA7
330
B64
100
AcDbEntity
  8
0
  6
Continuous
 62
     6
100
AcDbLine
 10
915.3500000000001
 20
435.7499999999998
 30
0.0
 11
915.3500000000001
 21
452.0
 31
0.0
  0
LINE
  5
EA8
330
B64
100
AcDbEntity
  8
0
  6
Continuous
 62
     6
100
AcDbLine
 10
917.1000000000001
 20
431.0
 30
0.0
 11
917.1000000000001
 21
457.0
 31
0.0
  0
LINE
  5
EA9
330
B64
100
AcDbEntity
  8
0
  6
Continuous
 62
     6
100
AcDbLine
 10
918.5999999999999
 20
462.0
 30
0.0
 11
918.5999999999999
 21
425.0
 31
0.0
  0
LINE
  5
EAA
330
B64
100
AcDbEntity
  8
0
  6
Continuous
 62
     6
100
AcDbLine
 10
921.6000000000001
 20
441.0
 30
0.0
 11
921.6000000000001
 21
467.0
 31
0.0
  0
LINE
  5
EAB
330
B64
100
AcDbEntity
  8
0
  6
Continuous
 62
     6
100
AcDbLine
 10
867.7999999999999
 20
465.7
 30
0.0
 11
866.6
 21
466.0
 31
0.0
  0
LINE
  5
EAC
330
B64
100
AcDbEntity
  8
0
  6
Continuous
 62
     6
100
AcDbLine
 10
866.6
 20
466.0
 30
0.0
 11
867.7999999999999
 21
466.3
 31
0.0
  0
LINE
  5
EAD
330
B64
100
AcDbEntity
  8
0
  6
Continuous
 62
     6
100
AcDbLine
 10
866.6
 20
466.0
 30
0.0
 11
921.6000000000001
 21
466.0
 31
0.0
  0
LINE
  5
EAE
330
B64
100
AcDbEntity
  8
0
  6
Continuous
 62
     6
100
AcDbLine
 10
920.4
 20
465.7
 30
0.0
 11
921.6000000000001
 21
466.0
 31
0.0
  0
LINE
  5
EAF
330
B64
100
AcDbEntity
  8
0
  6
Continuous
 62
     6
100
AcDbLine
 10
921.6000000000001
 20
466.0
 30
0.0
 11
920.4
 21
466.3
 31
0.0
  0
TEXT
  5
EB0
330
B64
100
AcDbEntity
  8
0
  6
Continuous
 62
     6
100
AcDbText
 10
893.2999999999998
 20
466.75
 30
0.1875
 40
1.5
  1
５５
 41
0.75
  7
KANJI3
100
AcDbText
  0
LINE
  5
EB1
330
B64
100
AcDbEntity
  8
0
  6
Continuous
 62
     6
100
AcDbLine
 10
917.3999999999999
 20
461.3
 30
0.1875
 11
918.5999999999999
 21
461.0
 31
0.1875
  0
LINE
  5
EB2
330
B64
100
AcDbEntity
  8
0
  6
Continuous
 62
     6
100
AcDbLine
 10
918.5999999999999
 20
461.0
 30
0.0
 11
917.3999999999999
 21
460.7
 31
0.0
  0
LINE
  5
EB3
330
B64
100
AcDbEntity
  8
0
  6
Continuous
 62
     6
100
AcDbLine
 10
918.5999999999999
 20
461.0
 30
0.0
 11
869.5999999999996
 21
461.0
 31
0.0
  0
LINE
  5
EB4
330
B64
100
AcDbEntity
  8
0
  6
Continuous
 62
     6
100
AcDbLine
 10
870.7999999999996
 20
461.3
 30
0.0
 11
869.5999999999996
 21
461.0
 31
0.0
  0
LINE
  5
EB5
330
B64
100
AcDbEntity
  8
0
  6
Continuous
 62
     6
100
AcDbLine
 10
869.5999999999996
 20
461.0
 30
0.0
 11
870.7999999999996
 21
460.7
 31
0.0
  0
TEXT
  5
EB6
330
B64
100
AcDbEntity
  8
0
  6
Continuous
 62
     6
100
AcDbText
 10
893.2999999999998
 20
461.7499999999998
 30
0.1875
 40
1.5
  1
４９
 41
0.75
  7
KANJI3
100
AcDbText
  0
LINE
  5
EB7
330
B64
100
AcDbEntity
  8
0
  6
Continuous
 62
     6
100
AcDbLine
 10
915.9
 20
456.3
 30
0.1875
 11
917.1000000000001
 21
456.0
 31
0.1875
  0
LINE
  5
EB8
330
B64
100
AcDbEntity
  8
0
  6
Continuous
 62
     6
100
AcDbLine
 10
917.1000000000001
 20
456.0
 30
0.0
 11
915.9
 21
455.7
 31
0.0
  0
LINE
  5
EB9
330
B64
100
AcDbEntity
  8
0
  6
Continuous
 62
     6
100
AcDbLine
 10
917.1000000000001
 20
456.0
 30
0.0
 11
871.1
 21
456.0
 31
0.0
  0
LINE
  5
EBA
330
B64
100
AcDbEntity
  8
0
  6
Continuous
 62
     6
100
AcDbLine
 10
872.2999999999997
 20
456.3
 30
0.0
 11
871.1
 21
456.0
 31
0.0
  0
LINE
  5
EBB
330
B64
100
AcDbEntity
  8
0
  6
Continuous
 62
     6
100
AcDbLine
 10
871.1
 20
456.0
 30
0.0
 11
872.2999999999997
 21
455.7
 31
0.0
  0
TEXT
  5
EBC
330
B64
100
AcDbEntity
  8
0
  6
Continuous
 62
     6
100
AcDbText
 10
893.2999999999998
 20
456.7499999999998
 30
0.1875
 40
1.5
  1
４６
 41
0.75
  7
KANJI3
100
AcDbText
  0
LINE
  5
EBD
330
B64
100
AcDbEntity
  8
0
  6
Continuous
 62
     6
100
AcDbLine
 10
914.15
 20
451.2999999999998
 30
0.1875
 11
915.3500000000001
 21
451.0
 31
0.1875
  0
LINE
  5
EBE
330
B64
100
AcDbEntity
  8
0
  6
Continuous
 62
     6
100
AcDbLine
 10
915.3500000000001
 20
451.0
 30
0.0
 11
914.15
 21
450.6999999999998
 31
0.0
  0
LINE
  5
EBF
330
B64
100
AcDbEntity
  8
0
  6
Continuous
 62
     6
100
AcDbLine
 10
915.3500000000001
 20
451.0
 30
0.0
 11
872.85
 21
451.0
 31
0.0
  0
LINE
  5
EC0
330
B64
100
AcDbEntity
  8
0
  6
Continuous
 62
     6
100
AcDbLine
 10
874.0499999999999
 20
451.2999999999998
 30
0.0
 11
872.85
 21
451.0
 31
0.0
  0
LINE
  5
EC1
330
B64
100
AcDbEntity
  8
0
  6
Continuous
 62
     6
100
AcDbLine
 10
872.85
 20
451.0
 30
0.0
 11
874.0499999999999
 21
450.6999999999998
 31
0.0
  0
TEXT
  5
EC2
330
B64
100
AcDbEntity
  8
0
  6
Continuous
 62
     6
100
AcDbText
 10
889.4999999999999
 20
451.75
 30
0.1875
 40
1.5
  1
２．５　Ｘ　１７
 41
0.75
  7
KANJI3
100
AcDbText
  0
LINE
  5
EC3
330
B64
100
AcDbEntity
  8
0
  6
Continuous
 62
     6
100
AcDbLine
 10
922.1
 20
441.0
 30
0.1875
 11
944.1
 21
441.0
 31
0.1875
  0
LINE
  5
EC4
330
B64
100
AcDbEntity
  8
0
  6
Continuous
 62
     6
100
AcDbLine
 10
944.1
 20
413.0
 30
0.0
 11
922.1
 21
413.0
 31
0.0
  0
LINE
  5
EC5
330
B64
100
AcDbEntity
  8
0
  6
Continuous
 62
     6
100
AcDbLine
 10
942.7999999999999
 20
439.8
 30
0.0
 11
943.1
 21
441.0
 31
0.0
  0
LINE
  5
EC6
330
B64
100
AcDbEntity
  8
0
  6
Continuous
 62
     6
100
AcDbLine
 10
943.1
 20
441.0
 30
0.0
 11
943.3999999999999
 21
439.8
 31
0.0
  0
LINE
  5
EC7
330
B64
100
AcDbEntity
  8
0
  6
Continuous
 62
     6
100
AcDbLine
 10
943.1
 20
441.0
 30
0.0
 11
943.1
 21
413.0
 31
0.0
  0
LINE
  5
EC8
330
B64
100
AcDbEntity
  8
0
  6
Continuous
 62
     6
100
AcDbLine
 10
942.7999999999999
 20
414.2
 30
0.0
 11
943.1
 21
413.0
 31
0.0
  0
LINE
  5
EC9
330
B64
100
AcDbEntity
  8
0
  6
Continuous
 62
     6
100
AcDbLine
 10
943.1
 20
413.0
 30
0.0
 11
943.3999999999999
 21
414.2
 31
0.0
  0
TEXT
  5
ECA
330
B64
100
AcDbEntity
  8
0
  6
Continuous
 62
     6
100
AcDbText
 10
942.35
 20
426.1999999999998
 30
0.1875
 40
1.5
  1
２８
 50
90.0
 41
0.75
  7
KANJI3
100
AcDbText
  0
LINE
  5
ECB
330
B64
100
AcDbEntity
  8
0
  6
Continuous
 62
     4
100
AcDbLine
 10
66.0
 20
136.2125
 30
0.1875
 11
158.0
 21
136.2125
 31
0.1875
  0
TEXT
  5
ECC
330
B64
100
AcDbEntity
  8
0
  6
Continuous
 62
     4
100
AcDbText
 10
113.3
 20
137.2125
 30
0.3
 40
3.0
  1
９１.８
 41
0.833333333
  7
KANJI0
100
AcDbText
  0
LINE
  5
ECD
330
B64
100
AcDbEntity
  8
1
  6
Continuous
 62
     4
100
AcDbLine
 10
66.29999999999999
 20
178.0
 30
0.3
 11
50.8
 21
178.0
 31
0.3
  0
LINE
  5
ECE
330
B64
100
AcDbEntity
  8
1
  6
Continuous
 62
     4
100
AcDbLine
 10
51.79999999999999
 20
178.0
 30
0.0
 11
51.411771432
 21
176.5511112609999
 31
0.0
  0
LINE
  5
ECF
330
B64
100
AcDbEntity
  8
1
  6
Continuous
 62
     4
100
AcDbLine
 10
51.79999999999999
 20
178.0
 30
0.0
 11
52.188228568
 21
176.5511112609999
 31
0.0
  0
LINE
  5
ED0
330
B64
100
AcDbEntity
  8
1
  6
Continuous
 62
     4
100
AcDbLine
 10
51.79999999999999
 20
178.0
 30
0.0
 11
51.79999999999999
 21
122.0
 31
0.0
  0
LINE
  5
ED1
330
B64
100
AcDbEntity
  8
1
  6
Continuous
 62
     4
100
AcDbLine
 10
51.79999999999999
 20
122.0
 30
0.0
 11
52.188228568
 21
123.4488887389999
 31
0.0
  0
LINE
  5
ED2
330
B64
100
AcDbEntity
  8
1
  6
Continuous
 62
     4
100
AcDbLine
 10
51.79999999999999
 20
122.0
 30
0.0
 11
51.411771432
 21
123.4488887389999
 31
0.0
  0
LINE
  5
ED3
330
B64
100
AcDbEntity
  8
1
  6
Continuous
 62
     4
100
AcDbLine
 10
63.5
 20
122.0
 30
0.0
 11
50.8
 21
122.0
 31
0.0
  0
TEXT
  5
ED4
330
B64
100
AcDbEntity
  8
1
  6
Continuous
 62
     4
100
AcDbText
 10
50.8
 20
148.15
 30
0.0
 40
2.0
  1
５６
 50
90.0
 41
0.925
  7
KANJI4
100
AcDbText
  0
LINE
  5
ED5
330
B64
100
AcDbEntity
  8
1
  6
Continuous
 62
     4
100
AcDbLine
 10
65.3
 20
175.0
 30
0.0
 11
58.79999999999999
 21
175.0
 31
0.0
  0
LINE
  5
ED6
330
B64
100
AcDbEntity
  8
1
  6
Continuous
 62
     4
100
AcDbLine
 10
59.8
 20
175.0
 30
0.0
 11
59.411771432
 21
173.551111261
 31
0.0
  0
LINE
  5
ED7
330
B64
100
AcDbEntity
  8
1
  6
Continuous
 62
     4
100
AcDbLine
 10
59.8
 20
175.0
 30
0.0
 11
60.18822856799999
 21
173.551111261
 31
0.0
  0
LINE
  5
ED8
330
B64
100
AcDbEntity
  8
1
  6
Continuous
 62
     4
100
AcDbLine
 10
59.8
 20
172.75
 30
0.0
 11
59.8
 21
175.0
 31
0.0
  0
LINE
  5
ED9
330
B64
100
AcDbEntity
  8
1
  6
Continuous
 62
     4
100
AcDbLine
 10
59.8
 20
175.0
 30
0.0
 11
59.8
 21
178.0
 31
0.0
  0
LINE
  5
EDA
330
B64
100
AcDbEntity
  8
1
  6
Continuous
 62
     4
100
AcDbLine
 10
59.8
 20
178.0
 30
0.0
 11
59.8
 21
180.25
 31
0.0
  0
LINE
  5
EDB
330
B64
100
AcDbEntity
  8
1
  6
Continuous
 62
     4
100
AcDbLine
 10
59.8
 20
178.0
 30
0.0
 11
60.18822856799999
 21
179.448888739
 31
0.0
  0
LINE
  5
EDC
330
B64
100
AcDbEntity
  8
1
  6
Continuous
 62
     4
100
AcDbLine
 10
59.8
 20
178.0
 30
0.0
 11
59.411771432
 21
179.448888739
 31
0.0
  0
LINE
  5
EDD
330
B64
100
AcDbEntity
  8
1
  6
Continuous
 62
     4
100
AcDbLine
 10
66.29999999999999
 20
178.0
 30
0.0
 11
58.79999999999999
 21
178.0
 31
0.0
  0
TEXT
  5
EDE
330
B64
100
AcDbEntity
  8
1
  6
Continuous
 62
     4
100
AcDbText
 10
58.79999999999999
 20
175.5749999999999
 30
0.0
 40
2.0
  1
３
 50
90.0
 41
0.925
  7
KANJI4
100
AcDbText
  0
LINE
  5
EDF
330
B64
100
AcDbEntity
  8
1
  6
Continuous
 62
     4
100
AcDbLine
 10
63.5
 20
128.4999999999998
 30
0.0
 11
57.0
 21
128.4999999999998
 31
0.0
  0
LINE
  5
EE0
330
B64
100
AcDbEntity
  8
1
  6
Continuous
 62
     4
100
AcDbLine
 10
58.0
 20
128.4999999999998
 30
0.0
 11
57.611771432
 21
127.051111261
 31
0.0
  0
LINE
  5
EE1
330
B64
100
AcDbEntity
  8
1
  6
Continuous
 62
     4
100
AcDbLine
 10
58.0
 20
128.4999999999998
 30
0.0
 11
58.388228568
 21
127.051111261
 31
0.0
  0
LINE
  5
EE2
330
B64
100
AcDbEntity
  8
1
  6
Continuous
 62
     4
100
AcDbLine
 10
58.0
 20
128.4999999999998
 30
0.0
 11
58.0
 21
122.0
 31
0.0
  0
LINE
  5
EE3
330
B64
100
AcDbEntity
  8
1
  6
Continuous
 62
     4
100
AcDbLine
 10
58.0
 20
122.0
 30
0.0
 11
58.388228568
 21
123.4488887389999
 31
0.0
  0
LINE
  5
EE4
330
B64
100
AcDbEntity
  8
1
  6
Continuous
 62
     4
100
AcDbLine
 10
58.0
 20
122.0
 30
0.0
 11
57.611771432
 21
123.4488887389999
 31
0.0
  0
LINE
  5
EE5
330
B64
100
AcDbEntity
  8
1
  6
Continuous
 62
     4
100
AcDbLine
 10
63.5
 20
122.0
 30
0.0
 11
57.0
 21
122.0
 31
0.0
  0
TEXT
  5
EE6
330
B64
100
AcDbEntity
  8
1
  6
Continuous
 62
     4
100
AcDbText
 10
56.956
 20
121.7655
 30
0.0
 40
2.375999999999999
  1
６.５
 50
90.0
 41
0.925
  7
KANJI5
100
AcDbText
  0
LINE
  5
EE7
330
B64
100
AcDbEntity
  8
0
  6
Continuous
 62
     4
100
AcDbLine
 10
66.0
 20
148.5
 30
0.0
 11
64.2
 21
143.6999999999999
 31
0.0
  0
LINE
  5
EE8
330
B64
100
AcDbEntity
  8
0
  6
Continuous
 62
     4
100
AcDbLine
 10
64.2
 20
143.6999999999999
 30
0.0
 11
62.4
 21
140.6999999999999
 31
0.0
  0
LINE
  5
EE9
330
B64
100
AcDbEntity
  8
0
  6
Continuous
 62
     4
100
AcDbLine
 10
62.4
 20
140.6999999999999
 30
0.0
 11
60.8
 21
138.7
 31
0.0
  0
LINE
  5
EEA
330
B64
100
AcDbEntity
  8
0
  6
Continuous
 62
     4
100
AcDbLine
 10
60.8
 20
138.7
 30
0.0
 11
66.0
 21
128.4999999999998
 31
0.0
  0
POINT
  5
EEB
330
B64
100
AcDbEntity
  8
0
  6
Continuous
 62
     1
100
AcDbPoint
 10
1.269263905633295E+99
 20
-5.479536498971387E+72
 30
0.0
  0
POINT
  5
EEC
330
B64
100
AcDbEntity
  8
0
  6
Continuous
 62
     1
100
AcDbPoint
 10
1.269263905633295E+99
 20
-5.479536498971387E+72
 30
0.0
  0
LINE
  5
EED
330
B64
100
AcDbEntity
  8
0
  6
Continuous
 62
     1
100
AcDbLine
 10
-5.941616374145985E+73
 20
42.0
 30
0.0
 11
-5.941616374145985E+73
 21
42.647047613
 31
0.0
  0
LINE
  5
EEE
330
B64
100
AcDbEntity
  8
0
  6
Continuous
 62
     1
100
AcDbLine
 10
-5.941616374145985E+73
 20
42.0
 30
0.0
 11
-5.941616374145985E+73
 21
41.35295238699999
 31
0.0
  0
POINT
  5
EEF
330
B64
100
AcDbEntity
  8
2
  6
Continuous
 62
     1
100
AcDbPoint
 10
1.269263905633295E+99
 20
252.0
 30
0.0
  0
POINT
  5
EF0
330
B64
100
AcDbEntity
  8
2
  6
Continuous
 62
     1
100
AcDbPoint
 10
1.269263905633295E+99
 20
252.0
 30
0.0
  0
POINT
  5
EF1
330
B64
100
AcDbEntity
  8
2
  6
Continuous
 62
     1
100
AcDbPoint
 10
-5.941616374145985E+73
 20
252.0
 30
0.0
  0
POINT
  5
EF2
330
B64
100
AcDbEntity
  8
2
  6
Continuous
 62
     1
100
AcDbPoint
 10
-5.941616374145985E+73
 20
252.0
 30
0.0
  0
POINT
  5
EF3
330
B64
100
AcDbEntity
  8
2
  6
Continuous
 62
     1
100
AcDbPoint
 10
6.282985302827068E+99
 20
-1.269263905633295E+99
 30
0.0
  0
POINT
  5
EF4
330
B64
100
AcDbEntity
  8
2
  6
Continuous
 62
     1
100
AcDbPoint
 10
6.282985302827068E+99
 20
-1.269263905633295E+99
 30
0.0
  0
POINT
  5
EF5
330
B64
100
AcDbEntity
  8
2
  6
Continuous
 62
     1
100
AcDbPoint
 10
-2.941160477983472E+62
 20
5.941616374145985E+73
 30
0.0
  0
POINT
  5
EF6
330
B64
100
AcDbEntity
  8
2
  6
Continuous
 62
     1
100
AcDbPoint
 10
-2.941160477983472E+62
 20
5.941616374145985E+73
 30
0.0
  0
POINT
  5
EF7
330
B64
100
AcDbEntity
  8
2
  6
Continuous
 62
     1
100
AcDbPoint
 10
6.282985302827068E+99
 20
-1.269263905633295E+99
 30
0.0
  0
POINT
  5
EF8
330
B64
100
AcDbEntity
  8
2
  6
Continuous
 62
     1
100
AcDbPoint
 10
6.282985302827068E+99
 20
-1.269263905633295E+99
 30
0.0
  0
POINT
  5
EF9
330
B64
100
AcDbEntity
  8
2
  6
Continuous
 62
     1
100
AcDbPoint
 10
-2.941160477983472E+62
 20
5.941616374145985E+73
 30
0.0
  0
POINT
  5
EFA
330
B64
100
AcDbEntity
  8
2
  6
Continuous
 62
     1
100
AcDbPoint
 10
-2.941160477983472E+62
 20
5.941616374145985E+73
 30
0.0
  0
POINT
  5
EFB
330
B64
100
AcDbEntity
  8
2
  6
Continuous
 62
     1
100
AcDbPoint
 10
1.269263905633295E+99
 20
252.0
 30
0.0
  0
POINT
  5
EFC
330
B64
100
AcDbEntity
  8
2
  6
Continuous
 62
     1
100
AcDbPoint
 10
1.269263905633295E+99
 20
252.0
 30
0.0
  0
POINT
  5
EFD
330
B64
100
AcDbEntity
  8
2
  6
Continuous
 62
     1
100
AcDbPoint
 10
-5.941616374145985E+73
 20
252.0
 30
0.0
  0
POINT
  5
EFE
330
B64
100
AcDbEntity
  8
2
  6
Continuous
 62
     1
100
AcDbPoint
 10
-5.941616374145985E+73
 20
252.0
 30
0.0
  0
POINT
  5
EFF
330
B64
100
AcDbEntity
  8
2
  6
Continuous
 62
     1
100
AcDbPoint
 10
1.269263905633295E+99
 20
252.0
 30
0.0
  0
POINT
  5
F00
330
B64
100
AcDbEntity
  8
2
  6
Continuous
 62
     1
100
AcDbPoint
 10
1.269263905633295E+99
 20
252.0
 30
0.0
  0
POINT
  5
F01
330
B64
100
AcDbEntity
  8
2
  6
Continuous
 62
     1
100
AcDbPoint
 10
-5.941616374145985E+73
 20
252.0
 30
0.0
  0
POINT
  5
F02
330
B64
100
AcDbEntity
  8
2
  6
Continuous
 62
     1
100
AcDbPoint
 10
-5.941616374145985E+73
 20
252.0
 30
0.0
  0
POINT
  5
F03
330
B64
100
AcDbEntity
  8
0
  6
Continuous
 62
     1
100
AcDbPoint
 10
1.269263905633295E+99
 20
-5.479536498971387E+72
 30
0.0
  0
POINT
  5
F04
330
B64
100
AcDbEntity
  8
0
  6
Continuous
 62
     1
100
AcDbPoint
 10
1.269263905633295E+99
 20
-5.479536498971387E+72
 30
0.0
  0
LINE
  5
F05
330
B64
100
AcDbEntity
  8
0
  6
Continuous
 62
     1
100
AcDbLine
 10
-5.941616374145985E+73
 20
42.0
 30
0.0
 11
-5.941616374145985E+73
 21
42.647047613
 31
0.0
  0
LINE
  5
F06
330
B64
100
AcDbEntity
  8
0
  6
Continuous
 62
     1
100
AcDbLine
 10
-5.941616374145985E+73
 20
42.0
 30
0.0
 11
-5.941616374145985E+73
 21
41.35295238699999
 31
0.0
  0
POINT
  5
F07
330
B64
100
AcDbEntity
  8
0
  6
Continuous
 62
     1
100
AcDbPoint
 10
1.269263905633295E+99
 20
-5.479536498971387E+72
 30
0.0
  0
POINT
  5
F08
330
B64
100
AcDbEntity
  8
0
  6
Continuous
 62
     1
100
AcDbPoint
 10
1.269263905633295E+99
 20
-5.479536498971387E+72
 30
0.0
  0
LINE
  5
F09
330
B64
100
AcDbEntity
  8
0
  6
Continuous
 62
     1
100
AcDbLine
 10
-5.941616374145985E+73
 20
42.0
 30
0.0
 11
-5.941616374145985E+73
 21
42.647047613
 31
0.0
  0
LINE
  5
F0A
330
B64
100
AcDbEntity
  8
0
  6
Continuous
 62
     1
100
AcDbLine
 10
-5.941616374145985E+73
 20
42.0
 30
0.0
 11
-5.941616374145985E+73
 21
41.35295238699999
 31
0.0
  0
POINT
  5
F0B
330
B64
100
AcDbEntity
  8
0
  6
Continuous
 62
     1
100
AcDbPoint
 10
1.269263905633295E+99
 20
-5.479536498971387E+72
 30
0.0
  0
POINT
  5
F0C
330
B64
100
AcDbEntity
  8
0
  6
Continuous
 62
     1
100
AcDbPoint
 10
1.269263905633295E+99
 20
-5.479536498971387E+72
 30
0.0
  0
LINE
  5
F0D
330
B64
100
AcDbEntity
  8
0
  6
Continuous
 62
     1
100
AcDbLine
 10
-5.941616374145985E+73
 20
42.0
 30
0.0
 11
-5.941616374145985E+73
 21
42.647047613
 31
0.0
  0
LINE
  5
F0E
330
B64
100
AcDbEntity
  8
0
  6
Continuous
 62
     1
100
AcDbLine
 10
-5.941616374145985E+73
 20
42.0
 30
0.0
 11
-5.941616374145985E+73
 21
41.35295238699999
 31
0.0
  0
POINT
  5
F0F
330
B64
100
AcDbEntity
  8
2
  6
Continuous
 62
     1
100
AcDbPoint
 10
1.269263905633295E+99
 20
252.0
 30
0.0
  0
POINT
  5
F10
330
B64
100
AcDbEntity
  8
2
  6
Continuous
 62
     1
100
AcDbPoint
 10
1.269263905633295E+99
 20
252.0
 30
0.0
  0
POINT
  5
F11
330
B64
100
AcDbEntity
  8
2
  6
Continuous
 62
     1
100
AcDbPoint
 10
-5.941616374145985E+73
 20
252.0
 30
0.0
  0
POINT
  5
F12
330
B64
100
AcDbEntity
  8
2
  6
Continuous
 62
     1
100
AcDbPoint
 10
-5.941616374145985E+73
 20
252.0
 30
0.0
  0
POINT
  5
F13
330
B64
100
AcDbEntity
  8
2
  6
Continuous
 62
     1
100
AcDbPoint
 10
6.282985302827068E+99
 20
-1.269263905633295E+99
 30
0.0
  0
POINT
  5
F14
330
B64
100
AcDbEntity
  8
2
  6
Continuous
 62
     1
100
AcDbPoint
 10
6.282985302827068E+99
 20
-1.269263905633295E+99
 30
0.0
  0
POINT
  5
F15
330
B64
100
AcDbEntity
  8
2
  6
Continuous
 62
     1
100
AcDbPoint
 10
-2.941160477983472E+62
 20
5.941616374145985E+73
 30
0.0
  0
POINT
  5
F16
330
B64
100
AcDbEntity
  8
2
  6
Continuous
 62
     1
100
AcDbPoint
 10
-2.941160477983472E+62
 20
5.941616374145985E+73
 30
0.0
  0
POINT
  5
F17
330
B64
100
AcDbEntity
  8
2
  6
Continuous
 62
     1
100
AcDbPoint
 10
6.282985302827068E+99
 20
-1.269263905633295E+99
 30
0.0
  0
POINT
  5
F18
330
B64
100
AcDbEntity
  8
2
  6
Continuous
 62
     1
100
AcDbPoint
 10
6.282985302827068E+99
 20
-1.269263905633295E+99
 30
0.0
  0
POINT
  5
F19
330
B64
100
AcDbEntity
  8
2
  6
Continuous
 62
     1
100
AcDbPoint
 10
-2.941160477983472E+62
 20
5.941616374145985E+73
 30
0.0
  0
POINT
  5
F1A
330
B64
100
AcDbEntity
  8
2
  6
Continuous
 62
     1
100
AcDbPoint
 10
-2.941160477983472E+62
 20
5.941616374145985E+73
 30
0.0
  0
POINT
  5
F1B
330
B64
100
AcDbEntity
  8
2
  6
Continuous
 62
     1
100
AcDbPoint
 10
1.269263905633295E+99
 20
252.0
 30
0.0
  0
POINT
  5
F1C
330
B64
100
AcDbEntity
  8
2
  6
Continuous
 62
     1
100
AcDbPoint
 10
1.269263905633295E+99
 20
252.0
 30
0.0
  0
POINT
  5
F1D
330
B64
100
AcDbEntity
  8
2
  6
Continuous
 62
     1
100
AcDbPoint
 10
-5.941616374145985E+73
 20
252.0
 30
0.0
  0
POINT
  5
F1E
330
B64
100
AcDbEntity
  8
2
  6
Continuous
 62
     1
100
AcDbPoint
 10
-5.941616374145985E+73
 20
252.0
 30
0.0
  0
POINT
  5
F1F
330
B64
100
AcDbEntity
  8
2
  6
Continuous
 62
     1
100
AcDbPoint
 10
1.269263905633295E+99
 20
252.0
 30
0.0
  0
POINT
  5
F20
330
B64
100
AcDbEntity
  8
2
  6
Continuous
 62
     1
100
AcDbPoint
 10
1.269263905633295E+99
 20
252.0
 30
0.0
  0
POINT
  5
F21
330
B64
100
AcDbEntity
  8
2
  6
Continuous
 62
     1
100
AcDbPoint
 10
-5.941616374145985E+73
 20
252.0
 30
0.0
  0
POINT
  5
F22
330
B64
100
AcDbEntity
  8
2
  6
Continuous
 62
     1
100
AcDbPoint
 10
-5.941616374145985E+73
 20
252.0
 30
0.0
  0
POINT
  5
F23
330
B64
100
AcDbEntity
  8
0
  6
Continuous
 62
     1
100
AcDbPoint
 10
1.269263905633295E+99
 20
-5.479536498971387E+72
 30
0.0
  0
POINT
  5
F24
330
B64
100
AcDbEntity
  8
0
  6
Continuous
 62
     1
100
AcDbPoint
 10
1.269263905633295E+99
 20
-5.479536498971387E+72
 30
0.0
  0
LINE
  5
F25
330
B64
100
AcDbEntity
  8
0
  6
Continuous
 62
     1
100
AcDbLine
 10
-5.941616374145985E+73
 20
42.0
 30
0.0
 11
-5.941616374145985E+73
 21
42.647047613
 31
0.0
  0
LINE
  5
F26
330
B64
100
AcDbEntity
  8
0
  6
Continuous
 62
     1
100
AcDbLine
 10
-5.941616374145985E+73
 20
42.0
 30
0.0
 11
-5.941616374145985E+73
 21
41.35295238699999
 31
0.0
  0
POINT
  5
F27
330
B64
100
AcDbEntity
  8
0
  6
Continuous
 62
     1
100
AcDbPoint
 10
1.269263905633295E+99
 20
-5.479536498971387E+72
 30
0.0
  0
POINT
  5
F28
330
B64
100
AcDbEntity
  8
0
  6
Continuous
 62
     1
100
AcDbPoint
 10
1.269263905633295E+99
 20
-5.479536498971387E+72
 30
0.0
  0
LINE
  5
F29
330
B64
100
AcDbEntity
  8
0
  6
Continuous
 62
     1
100
AcDbLine
 10
-5.941616374145985E+73
 20
42.0
 30
0.0
 11
-5.941616374145985E+73
 21
42.647047613
 31
0.0
  0
LINE
  5
F2A
330
B64
100
AcDbEntity
  8
0
  6
Continuous
 62
     1
100
AcDbLine
 10
-5.941616374145985E+73
 20
42.0
 30
0.0
 11
-5.941616374145985E+73
 21
41.35295238699999
 31
0.0
  0
LINE
  5
F2B
330
B64
100
AcDbEntity
  8
0
  6
Continuous
 62
     1
100
AcDbLine
 10
160.0
 20
59.0
 30
0.0
 11
160.0
 21
107.0
 31
0.0
  0
LINE
  5
F2C
330
B64
100
AcDbEntity
  8
0
  6
Continuous
 62
     1
100
AcDbLine
 10
157.0
 20
67.5
 30
0.0
 11
157.0
 21
98.50000000000001
 31
0.0
  0
LINE
  5
F2D
330
B64
100
AcDbEntity
  8
0
  6
Continuous
 62
     1
100
AcDbLine
 10
64.0
 20
107.0
 30
0.0
 11
64.0
 21
59.0
 31
0.0
  0
LINE
  5
F2E
330
B64
100
AcDbEntity
  8
0
  6
Continuous
 62
     1
100
AcDbLine
 10
112.0
 20
98.50000000000001
 30
0.0
 11
67.0
 21
98.50000000000001
 31
0.0
  0
LINE
  5
F2F
330
B64
100
AcDbEntity
  8
0
  6
Continuous
 62
     1
100
AcDbLine
 10
157.0
 20
67.5
 30
0.0
 11
67.0
 21
67.5
 31
0.0
  0
LINE
  5
F30
330
B64
100
AcDbEntity
  8
0
  6
Continuous
 62
     1
100
AcDbLine
 10
157.0
 20
69.0
 30
0.0
 11
67.0
 21
69.0
 31
0.0
  0
POINT
  5
F31
330
B64
100
AcDbEntity
  8
0
  6
Continuous
 62
     1
100
AcDbPoint
 10
67.0
 20
69.0
 30
0.0
  0
LINE
  5
F32
330
B64
100
AcDbEntity
  8
0
  6
Continuous
 62
     1
100
AcDbLine
 10
67.0
 20
98.50000000000001
 30
0.0
 11
67.0
 21
67.5
 31
0.0
  0
LINE
  5
F33
330
B64
100
AcDbEntity
  8
0
  6
Continuous
 62
     1
100
AcDbLine
 10
157.0
 20
69.5
 30
0.0
 11
67.0
 21
69.5
 31
0.0
  0
LINE
  5
F34
330
B64
100
AcDbEntity
  8
0
  6
Continuous
 62
     1
100
AcDbLine
 10
64.0
 20
59.0
 30
0.0
 11
160.0
 21
59.0
 31
0.0
  0
LINE
  5
F35
330
B64
100
AcDbEntity
  8
0
  6
Continuous
 62
     1
100
AcDbLine
 10
64.0
 20
59.5
 30
0.0
 11
160.0
 21
59.5
 31
0.0
  0
LINE
  5
F36
330
B64
100
AcDbEntity
  8
0
  6
Continuous
 62
     1
100
AcDbLine
 10
112.0
 20
98.50000000000001
 30
0.0
 11
157.0
 21
98.50000000000001
 31
0.0
  0
LINE
  5
F37
330
B64
100
AcDbEntity
  8
0
  6
Continuous
 62
     1
100
AcDbLine
 10
67.0
 20
97.0
 30
0.0
 11
157.0
 21
97.0
 31
0.0
  0
LINE
  5
F38
330
B64
100
AcDbEntity
  8
0
  6
Continuous
 62
     1
100
AcDbLine
 10
157.0
 20
96.5
 30
0.0
 11
67.0
 21
96.5
 31
0.0
  0
LINE
  5
F39
330
B64
100
AcDbEntity
  8
0
  6
Continuous
 62
     1
100
AcDbLine
 10
160.0
 20
107.0
 30
0.0
 11
64.0
 21
107.0
 31
0.0
  0
LINE
  5
F3A
330
B64
100
AcDbEntity
  8
0
  6
Continuous
 62
     1
100
AcDbLine
 10
160.0
 20
106.4999999999999
 30
0.0
 11
64.0
 21
106.4999999999999
 31
0.0
  0
LINE
  5
F3B
330
B64
100
AcDbEntity
  8
0
  6
Continuous
 62
     1
100
AcDbLine
 10
64.0
 20
122.0
 30
0.0
 11
160.0
 21
122.0
 31
0.0
  0
LINE
  5
F3C
330
B64
100
AcDbEntity
  8
0
  6
Continuous
 62
     1
100
AcDbLine
 10
74.0
 20
143.0
 30
0.0
 11
74.0
 21
172.0
 31
0.0
  0
LINE
  5
F3D
330
B64
100
AcDbEntity
  8
0
  6
Continuous
 62
     1
100
AcDbLine
 10
150.0
 20
143.0
 30
0.0
 11
74.0
 21
143.0
 31
0.0
  0
LINE
  5
F3E
330
B64
100
AcDbEntity
  8
0
  6
Continuous
 62
     1
100
AcDbLine
 10
160.0
 20
127.0
 30
0.0
 11
160.0
 21
128.4999999999998
 31
0.0
  0
LINE
  5
F3F
330
B64
100
AcDbEntity
  8
0
  6
Continuous
 62
     1
100
AcDbLine
 10
160.0
 20
122.0
 30
0.0
 11
160.0
 21
127.0
 31
0.0
  0
LINE
  5
F40
330
B64
100
AcDbEntity
  8
0
  6
Continuous
 62
     1
100
AcDbLine
 10
158.0
 20
128.4999999999998
 30
0.0
 11
158.0
 21
137.2125
 31
0.0
  0
LINE
  5
F41
330
B64
100
AcDbEntity
  8
0
  6
Continuous
 62
     1
100
AcDbLine
 10
64.0
 20
127.0
 30
0.0
 11
160.0
 21
127.0
 31
0.0
  0
LINE
  5
F42
330
B64
100
AcDbEntity
  8
0
  6
Continuous
 62
     1
100
AcDbLine
 10
160.0
 20
128.4999999999998
 30
0.0
 11
64.0
 21
128.4999999999998
 31
0.0
  0
LINE
  5
F43
330
B64
100
AcDbEntity
  8
0
  6
Continuous
 62
     1
100
AcDbLine
 10
160.0
 20
127.0
 30
0.0
 11
64.0
 21
127.0
 31
0.0
  0
LINE
  5
F44
330
B64
100
AcDbEntity
  8
0
  6
Continuous
 62
     1
100
AcDbLine
 10
160.0
 20
127.0
 30
0.0
 11
64.0
 21
127.0
 31
0.0
  0
LINE
  5
F45
330
B64
100
AcDbEntity
  8
0
  6
Continuous
 62
     1
100
AcDbLine
 10
64.0
 20
128.4999999999998
 30
0.0
 11
160.0
 21
128.4999999999998
 31
0.0
  0
LINE
  5
F46
330
B64
100
AcDbEntity
  8
0
  6
Continuous
 62
     1
100
AcDbLine
 10
64.0
 20
127.0
 30
0.0
 11
160.0
 21
127.0
 31
0.0
  0
LINE
  5
F47
330
B64
100
AcDbEntity
  8
0
  6
Continuous
 62
     1
100
AcDbLine
 10
158.0
 20
148.5
 30
0.0
 11
159.8
 21
143.6999999999999
 31
0.0
  0
LINE
  5
F48
330
B64
100
AcDbEntity
  8
0
  6
Continuous
 62
     1
100
AcDbLine
 10
159.8
 20
143.6999999999999
 30
0.0
 11
161.5999999999999
 21
140.6999999999999
 31
0.0
  0
LINE
  5
F49
330
B64
100
AcDbEntity
  8
0
  6
Continuous
 62
     1
100
AcDbLine
 10
158.0
 20
128.4999999999998
 30
0.0
 11
157.6999999999999
 21
175.0
 31
0.0
  0
LINE
  5
F4A
330
B64
100
AcDbEntity
  8
0
  6
Continuous
 62
     1
100
AcDbLine
 10
161.5999999999999
 20
140.6999999999999
 30
0.0
 11
163.1999999999998
 21
138.7
 31
0.0
  0
LINE
  5
F4B
330
B64
100
AcDbEntity
  8
0
  6
Continuous
 62
     1
100
AcDbLine
 10
163.1999999999998
 20
138.7
 30
0.0
 11
158.0
 21
128.4999999999998
 31
0.0
  0
LINE
  5
F4C
330
B64
100
AcDbEntity
  8
0
  6
Continuous
 62
     1
100
AcDbLine
 10
74.0
 20
172.0
 30
0.0
 11
150.0
 21
172.0
 31
0.0
  0
LINE
  5
F4D
330
B64
100
AcDbEntity
  8
0
  6
Continuous
 62
     1
100
AcDbLine
 10
81.29999999999999
 20
178.0
 30
0.0
 11
81.29999999999999
 21
175.0
 31
0.0
  0
LINE
  5
F4E
330
B64
100
AcDbEntity
  8
0
  6
Continuous
 62
     1
100
AcDbLine
 10
75.29999999999998
 20
175.0
 30
0.0
 11
75.29999999999998
 21
178.0
 31
0.0
  0
LINE
  5
F4F
330
B64
100
AcDbEntity
  8
0
  6
Continuous
 62
     1
100
AcDbLine
 10
75.29999999999998
 20
178.0
 30
0.0
 11
81.29999999999999
 21
178.0
 31
0.0
  0
LINE
  5
F50
330
B64
100
AcDbEntity
  8
0
  6
Continuous
 62
     1
100
AcDbLine
 10
157.1999999999999
 20
178.0
 30
0.0
 11
151.2
 21
178.0
 31
0.0
  0
LINE
  5
F51
330
B64
100
AcDbEntity
  8
0
  6
Continuous
 62
     1
100
AcDbLine
 10
148.6999999999999
 20
178.0
 30
0.0
 11
142.6999999999999
 21
178.0
 31
0.0
  0
LINE
  5
F52
330
B64
100
AcDbEntity
  8
0
  6
Continuous
 62
     1
100
AcDbLine
 10
151.2
 20
178.0
 30
0.0
 11
151.2
 21
175.0
 31
0.0
  0
LINE
  5
F53
330
B64
100
AcDbEntity
  8
0
  6
Continuous
 62
     1
100
AcDbLine
 10
148.6999999999999
 20
178.0
 30
0.0
 11
148.6999999999999
 21
175.0
 31
0.0
  0
LINE
  5
F54
330
B64
100
AcDbEntity
  8
0
  6
Continuous
 62
     1
100
AcDbLine
 10
142.6999999999999
 20
178.0
 30
0.0
 11
142.6999999999999
 21
175.0
 31
0.0
  0
LINE
  5
F55
330
B64
100
AcDbEntity
  8
0
  6
Continuous
 62
     1
100
AcDbLine
 10
157.1999999999999
 20
175.0
 30
0.0
 11
157.1999999999999
 21
178.0
 31
0.0
  0
LINE
  5
F56
330
B64
100
AcDbEntity
  8
0
  6
Continuous
 62
     1
100
AcDbLine
 10
66.79999999999998
 20
178.0
 30
0.0
 11
72.79999999999998
 21
178.0
 31
0.0
  0
LINE
  5
F57
330
B64
100
AcDbEntity
  8
0
  6
Continuous
 62
     1
100
AcDbLine
 10
72.79999999999998
 20
178.0
 30
0.0
 11
72.79999999999998
 21
175.0
 31
0.0
  0
LINE
  5
F58
330
B64
100
AcDbEntity
  8
0
  6
Continuous
 62
     1
100
AcDbLine
 10
66.0
 20
128.4999999999998
 30
0.0
 11
66.29999999999999
 21
175.0
 31
0.0
  0
LINE
  5
F59
330
B64
100
AcDbEntity
  8
0
  6
Continuous
 62
     1
100
AcDbLine
 10
66.79999999999998
 20
175.0
 30
0.0
 11
66.79999999999998
 21
178.0
 31
0.0
  0
LINE
  5
F5A
330
B64
100
AcDbEntity
  8
0
  6
Continuous
 62
     1
100
AcDbLine
 10
66.29999999999999
 20
175.0
 30
0.0
 11
157.6999999999999
 21
175.0
 31
0.0
  0
LINE
  5
F60
330
B64
100
AcDbEntity
  8
0
  6
Continuous
 62
     1
100
AcDbLine
 10
150.0
 20
172.0
 30
0.0
 11
150.0
 21
143.0
 31
0.0
  0
CIRCLE
  5
F61
330
B64
100
AcDbEntity
  8
0
  6
Continuous
 62
     1
100
AcDbCircle
 10
78.5
 20
222.6624999999999
 30
0.0
 40
1.25
  0
CIRCLE
  5
F62
330
B64
100
AcDbEntity
  8
0
  6
Continuous
 62
     1
100
AcDbCircle
 10
78.5
 20
222.6624999999999
 30
0.0
 40
3.0
  0
CIRCLE
  5
F63
330
B64
100
AcDbEntity
  8
0
  6
Continuous
 62
     1
100
AcDbCircle
 10
145.5
 20
222.6624999999999
 30
0.0
 40
3.0
  0
CIRCLE
  5
F64
330
B64
100
AcDbEntity
  8
0
  6
Continuous
 62
     1
100
AcDbCircle
 10
145.5
 20
222.6624999999999
 30
0.0
 40
1.25
  0
LINE
  5
F65
330
B64
100
AcDbEntity
  8
0
  6
Continuous
 62
     1
100
AcDbLine
 10
83.49999999999999
 20
221.6625
 30
0.0
 11
83.49999999999999
 21
223.6625
 31
0.0
  0
LINE
  5
F66
330
B64
100
AcDbEntity
  8
0
  6
Continuous
 62
     1
100
AcDbLine
 10
83.49999999999999
 20
223.6625
 30
0.0
 11
140.5
 21
223.6625
 31
0.0
  0
LINE
  5
F67
330
B64
100
AcDbEntity
  8
0
  6
Continuous
 62
     1
100
AcDbLine
 10
140.5
 20
223.6625
 30
0.0
 11
140.5
 21
221.6625
 31
0.0
  0
LINE
  5
F68
330
B64
100
AcDbEntity
  8
0
  6
Continuous
 62
     1
100
AcDbLine
 10
140.5
 20
221.6625
 30
0.0
 11
83.49999999999999
 21
221.6625
 31
0.0
  0
LINE
  5
F6A
330
B64
100
AcDbEntity
  8
0
  6
Continuous
 62
     1
100
AcDbLine
 10
66.0
 20
260.0124999999998
 30
0.0
 11
66.0
 21
216.0124999999999
 31
0.0
  0
POINT
  5
F6B
330
B64
100
AcDbEntity
  8
0
  6
Continuous
 62
     1
100
AcDbPoint
 10
158.0
 20
262.0124999999998
 30
0.0
  0
LINE
  5
F6C
330
B64
100
AcDbEntity
  8
0
  6
Continuous
 62
     1
100
AcDbLine
 10
158.0
 20
260.0124999999998
 30
0.0
 11
158.0
 21
216.0124999999999
 31
0.0
  0
LINE
  5
F6D
330
B64
100
AcDbEntity
  8
0
  6
Continuous
 62
     1
100
AcDbLine
 10
158.0
 20
216.0124999999999
 30
0.0
 11
66.0
 21
216.0124999999999
 31
0.0
  0
LINE
  5
F6E
330
B64
100
AcDbEntity
  8
0
  6
Continuous
 62
     1
100
AcDbLine
 10
66.0
 20
260.0124999999998
 30
0.0
 11
158.0
 21
260.0124999999998
 31
0.0
  0
LINE
  5
F6F
330
B64
100
AcDbEntity
  8
0
  6
Continuous
 62
     1
100
AcDbLine
 10
75.0
 20
252.3625
 30
0.0
 11
75.0
 21
254.3625
 31
0.0
  0
LINE
  5
F70
330
B64
100
AcDbEntity
  8
0
  6
Continuous
 62
     1
100
AcDbLine
 10
149.0
 20
252.3625
 30
0.0
 11
149.0
 21
254.3625
 31
0.0
  0
LINE
  5
F71
330
B64
100
AcDbEntity
  8
0
  6
Continuous
 62
     1
100
AcDbLine
 10
66.0
 20
237.0124999999999
 30
0.0
 11
67.5
 21
237.0124999999999
 31
0.0
  0
LINE
  5
F72
330
B64
100
AcDbEntity
  8
0
  6
Continuous
 62
     1
100
AcDbLine
 10
67.5
 20
237.0124999999999
 30
0.0
 11
67.5
 21
239.0124999999999
 31
0.0
  0
LINE
  5
F73
330
B64
100
AcDbEntity
  8
0
  6
Continuous
 62
     1
100
AcDbLine
 10
67.5
 20
239.0124999999999
 30
0.0
 11
66.0
 21
239.0124999999999
 31
0.0
  0
LINE
  5
F74
330
B64
100
AcDbEntity
  8
0
  6
Continuous
 62
     1
100
AcDbLine
 10
66.0
 20
242.0125
 30
0.0
 11
67.5
 21
242.0125
 31
0.0
  0
LINE
  5
F75
330
B64
100
AcDbEntity
  8
0
  6
Continuous
 62
     1
100
AcDbLine
 10
67.5
 20
242.0125
 30
0.0
 11
67.5
 21
244.0125
 31
0.0
  0
LINE
  5
F76
330
B64
100
AcDbEntity
  8
0
  6
Continuous
 62
     1
100
AcDbLine
 10
67.5
 20
244.0125
 30
0.0
 11
66.0
 21
244.0125
 31
0.0
  0
LINE
  5
F77
330
B64
100
AcDbEntity
  8
0
  6
Continuous
 62
     1
100
AcDbLine
 10
66.0
 20
247.0124999999999
 30
0.0
 11
67.5
 21
247.0124999999999
 31
0.0
  0
LINE
  5
F78
330
B64
100
AcDbEntity
  8
0
  6
Continuous
 62
     1
100
AcDbLine
 10
67.5
 20
247.0124999999999
 30
0.0
 11
67.5
 21
249.0124999999999
 31
0.0
  0
LINE
  5
F79
330
B64
100
AcDbEntity
  8
0
  6
Continuous
 62
     1
100
AcDbLine
 10
67.5
 20
249.0124999999999
 30
0.0
 11
66.0
 21
249.0124999999999
 31
0.0
  0
LINE
  5
F7A
330
B64
100
AcDbEntity
  8
0
  6
Continuous
 62
     1
100
AcDbLine
 10
66.0
 20
234.0125
 30
0.0
 11
67.5
 21
234.0125
 31
0.0
  0
LINE
  5
F7B
330
B64
100
AcDbEntity
  8
0
  6
Continuous
 62
     1
100
AcDbLine
 10
67.5
 20
234.0125
 30
0.0
 11
67.5
 21
232.0124999999999
 31
0.0
  0
LINE
  5
F7C
330
B64
100
AcDbEntity
  8
0
  6
Continuous
 62
     1
100
AcDbLine
 10
67.5
 20
232.0124999999999
 30
0.0
 11
66.0
 21
232.0124999999999
 31
0.0
  0
LINE
  5
F7D
330
B64
100
AcDbEntity
  8
0
  6
Continuous
 62
     1
100
AcDbLine
 10
66.0
 20
229.0124999999999
 30
0.0
 11
67.5
 21
229.0124999999999
 31
0.0
  0
LINE
  5
F7E
330
B64
100
AcDbEntity
  8
0
  6
Continuous
 62
     1
100
AcDbLine
 10
67.5
 20
229.0124999999999
 30
0.0
 11
67.5
 21
227.0124999999999
 31
0.0
  0
LINE
  5
F7F
330
B64
100
AcDbEntity
  8
0
  6
Continuous
 62
     1
100
AcDbLine
 10
67.5
 20
227.0124999999999
 30
0.0
 11
66.0
 21
227.0124999999999
 31
0.0
  0
LINE
  5
F80
330
B64
100
AcDbEntity
  8
0
  6
Continuous
 62
     1
100
AcDbLine
 10
158.0
 20
239.0124999999999
 30
0.0
 11
156.4999999999996
 21
239.0124999999999
 31
0.0
  0
LINE
  5
F81
330
B64
100
AcDbEntity
  8
0
  6
Continuous
 62
     1
100
AcDbLine
 10
156.4999999999996
 20
239.0124999999999
 30
0.0
 11
156.4999999999996
 21
237.0124999999999
 31
0.0
  0
LINE
  5
F82
330
B64
100
AcDbEntity
  8
0
  6
Continuous
 62
     1
100
AcDbLine
 10
156.4999999999996
 20
237.0124999999999
 30
0.0
 11
158.0
 21
237.0124999999999
 31
0.0
  0
LINE
  5
F83
330
B64
100
AcDbEntity
  8
0
  6
Continuous
 62
     1
100
AcDbLine
 10
158.0
 20
234.0125
 30
0.0
 11
156.4999999999996
 21
234.0125
 31
0.0
  0
LINE
  5
F84
330
B64
100
AcDbEntity
  8
0
  6
Continuous
 62
     1
100
AcDbLine
 10
156.4999999999996
 20
234.0125
 30
0.0
 11
156.4999999999996
 21
232.0124999999999
 31
0.0
  0
LINE
  5
F85
330
B64
100
AcDbEntity
  8
0
  6
Continuous
 62
     1
100
AcDbLine
 10
156.4999999999996
 20
232.0124999999999
 30
0.0
 11
158.0
 21
232.0124999999999
 31
0.0
  0
LINE
  5
F86
330
B64
100
AcDbEntity
  8
0
  6
Continuous
 62
     1
100
AcDbLine
 10
158.0
 20
229.0124999999999
 30
0.0
 11
156.4999999999996
 21
229.0124999999999
 31
0.0
  0
LINE
  5
F87
330
B64
100
AcDbEntity
  8
0
  6
Continuous
 62
     1
100
AcDbLine
 10
156.4999999999996
 20
229.0124999999999
 30
0.0
 11
156.4999999999996
 21
227.0124999999999
 31
0.0
  0
LINE
  5
F88
330
B64
100
AcDbEntity
  8
0
  6
Continuous
 62
     1
100
AcDbLine
 10
156.4999999999996
 20
227.0124999999999
 30
0.0
 11
158.0
 21
227.0124999999999
 31
0.0
  0
LINE
  5
F89
330
B64
100
AcDbEntity
  8
0
  6
Continuous
 62
     1
100
AcDbLine
 10
158.0
 20
242.0125
 30
0.0
 11
156.4999999999996
 21
242.0125
 31
0.0
  0
LINE
  5
F8A
330
B64
100
AcDbEntity
  8
0
  6
Continuous
 62
     1
100
AcDbLine
 10
156.4999999999996
 20
242.0125
 30
0.0
 11
156.4999999999996
 21
244.0125
 31
0.0
  0
LINE
  5
F8B
330
B64
100
AcDbEntity
  8
0
  6
Continuous
 62
     1
100
AcDbLine
 10
156.4999999999996
 20
244.0125
 30
0.0
 11
158.0
 21
244.0125
 31
0.0
  0
LINE
  5
F8C
330
B64
100
AcDbEntity
  8
0
  6
Continuous
 62
     1
100
AcDbLine
 10
158.0
 20
247.0124999999999
 30
0.0
 11
156.4999999999996
 21
247.0124999999999
 31
0.0
  0
LINE
  5
F8D
330
B64
100
AcDbEntity
  8
0
  6
Continuous
 62
     1
100
AcDbLine
 10
156.4999999999996
 20
247.0124999999999
 30
0.0
 11
156.4999999999996
 21
249.0124999999999
 31
0.0
  0
LINE
  5
F8E
330
B64
100
AcDbEntity
  8
0
  6
Continuous
 62
     1
100
AcDbLine
 10
156.4999999999996
 20
249.0124999999999
 30
0.0
 11
158.0
 21
249.0124999999999
 31
0.0
  0
LINE
  5
F8F
330
B64
100
AcDbEntity
  8
0
  6
Continuous
 62
     1
100
AcDbLine
 10
161.0
 20
262.0124999999998
 30
0.0
 11
63.0
 21
262.0124999999998
 31
0.0
  0
LINE
  5
F90
330
B64
100
AcDbEntity
  8
0
  6
Continuous
 62
     1
100
AcDbLine
 10
63.0
 20
214.0124999999999
 30
0.0
 11
161.0
 21
214.0124999999999
 31
0.0
  0
LINE
  5
F91
330
B64
100
AcDbEntity
  8
0
  6
Continuous
 62
     1
100
AcDbLine
 10
158.0
 20
229.0124999999999
 30
0.0
 11
162.0
 21
229.0124999999999
 31
0.0
  0
LINE
  5
F92
330
B64
100
AcDbEntity
  8
0
  6
Continuous
 62
     1
100
AcDbLine
 10
162.0
 20
229.0124999999999
 30
0.0
 11
162.0
 21
247.0124999999999
 31
0.0
  0
LINE
  5
F93
330
B64
100
AcDbEntity
  8
0
  6
Continuous
 62
     1
100
AcDbLine
 10
162.0
 20
247.0124999999999
 30
0.0
 11
158.0
 21
247.0124999999999
 31
0.0
  0
LINE
  5
F94
330
B64
100
AcDbEntity
  8
0
  6
Continuous
 62
     1
100
AcDbLine
 10
66.0
 20
229.0124999999999
 30
0.0
 11
62.0
 21
229.0124999999999
 31
0.0
  0
LINE
  5
F95
330
B64
100
AcDbEntity
  8
0
  6
Continuous
 62
     1
100
AcDbLine
 10
62.0
 20
229.0124999999999
 30
0.0
 11
62.0
 21
247.0124999999999
 31
0.0
  0
LINE
  5
F96
330
B64
100
AcDbEntity
  8
0
  6
Continuous
 62
     1
100
AcDbLine
 10
62.0
 20
247.0124999999999
 30
0.0
 11
66.0
 21
247.0124999999999
 31
0.0
  0
LINE
  5
F97
330
B64
100
AcDbEntity
  8
0
  6
Continuous
 62
     1
100
AcDbLine
 10
161.0
 20
262.0124999999998
 30
0.0
 11
161.0
 21
247.0124999999999
 31
0.0
  0
LINE
  5
F98
330
B64
100
AcDbEntity
  8
0
  6
Continuous
 62
     1
100
AcDbLine
 10
161.0
 20
229.0124999999999
 30
0.0
 11
161.0
 21
214.0124999999999
 31
0.0
  0
LINE
  5
F99
330
B64
100
AcDbEntity
  8
0
  6
Continuous
 62
     1
100
AcDbLine
 10
63.0
 20
214.0124999999999
 30
0.0
 11
63.0
 21
229.0124999999999
 31
0.0
  0
LINE
  5
F9A
330
B64
100
AcDbEntity
  8
0
  6
Continuous
 62
     1
100
AcDbLine
 10
63.0
 20
247.0124999999999
 30
0.0
 11
63.0
 21
262.0124999999998
 31
0.0
  0
LINE
  5
F9B
330
B64
100
AcDbEntity
  8
0
  6
Continuous
 62
     4
100
AcDbLine
 10
78.5
 20
228.7125
 30
0.0
 11
78.5
 21
203.0124999999999
 31
0.0
  0
LINE
  5
F9C
330
B64
100
AcDbEntity
  8
0
  6
Continuous
 62
     4
100
AcDbLine
 10
78.5
 20
204.0124999999999
 30
0.0
 11
80.238666487
 21
203.546625719
 31
0.0
  0
LINE
  5
F9D
330
B64
100
AcDbEntity
  8
0
  6
Continuous
 62
     4
100
AcDbLine
 10
78.5
 20
204.0124999999999
 30
0.0
 11
80.238666487
 21
204.4783742809999
 31
0.0
  0
LINE
  5
F9E
330
B64
100
AcDbEntity
  8
0
  6
Continuous
 62
     4
100
AcDbLine
 10
78.5
 20
204.0124999999999
 30
0.0
 11
145.5
 21
204.0124999999999
 31
0.0
  0
LINE
  5
F9F
330
B64
100
AcDbEntity
  8
0
  6
Continuous
 62
     4
100
AcDbLine
 10
145.5
 20
204.0124999999999
 30
0.0
 11
143.7613335129998
 21
204.4783742809999
 31
0.0
  0
LINE
  5
FA0
330
B64
100
AcDbEntity
  8
0
  6
Continuous
 62
     4
100
AcDbLine
 10
145.5
 20
204.0124999999999
 30
0.0
 11
143.7613335129998
 21
203.546625719
 31
0.0
  0
LINE
  5
FA1
330
B64
100
AcDbEntity
  8
0
  6
Continuous
 62
     4
100
AcDbLine
 10
145.5
 20
228.7125
 30
0.0
 11
145.5
 21
203.0124999999999
 31
0.0
  0
TEXT
  5
FA2
330
B64
100
AcDbEntity
  8
0
  6
Continuous
 62
     4
100
AcDbText
 10
110.0
 20
205.0124999999999
 30
0.0
 40
2.0
  1
６７
  7
KANJI7
100
AcDbText
  0
LINE
  5
FA3
330
B64
100
AcDbEntity
  8
0
  6
Continuous
 62
     4
100
AcDbLine
 10
70.0
 20
247.3125
 30
0.0
 11
70.0
 21
268.0124999999998
 31
0.0
  0
LINE
  5
FA4
330
B64
100
AcDbEntity
  8
0
  6
Continuous
 62
     4
100
AcDbLine
 10
70.0
 20
267.0125
 30
0.0
 11
71.738666487
 21
266.546625719
 31
0.0
  0
LINE
  5
FA5
330
B64
100
AcDbEntity
  8
0
  6
Continuous
 62
     4
100
AcDbLine
 10
70.0
 20
267.0125
 30
0.0
 11
71.738666487
 21
267.4783742809998
 31
0.0
  0
LINE
  5
FA6
330
B64
100
AcDbEntity
  8
0
  6
Continuous
 62
     4
100
AcDbLine
 10
70.0
 20
267.0125
 30
0.0
 11
154.0
 21
267.0125
 31
0.0
  0
LINE
  5
FA7
330
B64
100
AcDbEntity
  8
0
  6
Continuous
 62
     4
100
AcDbLine
 10
154.0
 20
267.0125
 30
0.0
 11
152.2613335129999
 21
267.4783742809998
 31
0.0
  0
LINE
  5
FA8
330
B64
100
AcDbEntity
  8
0
  6
Continuous
 62
     4
100
AcDbLine
 10
154.0
 20
267.0125
 30
0.0
 11
152.2613335129999
 21
266.546625719
 31
0.0
  0
LINE
  5
FA9
330
B64
100
AcDbEntity
  8
0
  6
Continuous
 62
     4
100
AcDbLine
 10
154.0
 20
247.3125
 30
0.0
 11
154.0
 21
268.0124999999998
 31
0.0
  0
TEXT
  5
FAA
330
B64
100
AcDbEntity
  8
0
  6
Continuous
 62
     4
100
AcDbText
 10
110.0
 20
268.0124999999998
 30
0.0
 40
2.0
  1
８４
  7
KANJI7
100
AcDbText
  0
CIRCLE
  5
FAB
330
B64
100
AcDbEntity
  8
0
  6
Continuous
 62
     1
100
AcDbCircle
 10
70.0
 20
253.3625
 30
0.0
 40
3.0
  0
CIRCLE
  5
FAC
330
B64
100
AcDbEntity
  8
0
  6
Continuous
 62
     1
100
AcDbCircle
 10
70.0
 20
253.3625
 30
0.0
 40
1.25
  0
CIRCLE
  5
FAD
330
B64
100
AcDbEntity
  8
0
  6
Continuous
 62
     1
100
AcDbCircle
 10
154.0
 20
253.3625
 30
0.0
 40
1.25
  0
CIRCLE
  5
FAE
330
B64
100
AcDbEntity
  8
0
  6
Continuous
 62
     1
100
AcDbCircle
 10
154.0
 20
253.3625
 30
0.0
 40
3.0
  0
LINE
  5
FAF
330
B64
100
AcDbEntity
  8
0
  6
Continuous
 62
     4
100
AcDbLine
 10
59.8
 20
222.6624999999999
 30
0.0
 11
184.4999999999996
 21
222.6624999999999
 31
0.0
  0
LINE
  5
FB0
330
B64
100
AcDbEntity
  8
0
  6
Continuous
 62
     4
100
AcDbLine
 10
183.4999999999998
 20
222.6624999999999
 30
0.0
 11
183.965874281
 21
224.401166487
 31
0.0
  0
LINE
  5
FB1
330
B64
100
AcDbEntity
  8
0
  6
Continuous
 62
     4
100
AcDbLine
 10
183.4999999999998
 20
222.6624999999999
 30
0.0
 11
183.0341257189998
 21
224.401166487
 31
0.0
  0
LINE
  5
FB2
330
B64
100
AcDbEntity
  8
0
  6
Continuous
 62
     4
100
AcDbLine
 10
183.4999999999998
 20
222.6624999999999
 30
0.0
 11
183.4999999999998
 21
253.3625
 31
0.0
  0
LINE
  5
FB3
330
B64
100
AcDbEntity
  8
0
  6
Continuous
 62
     4
100
AcDbLine
 10
183.4999999999998
 20
253.3625
 30
0.0
 11
183.0341257189998
 21
251.623833513
 31
0.0
  0
LINE
  5
FB4
330
B64
100
AcDbEntity
  8
0
  6
Continuous
 62
     4
100
AcDbLine
 10
183.4999999999998
 20
253.3625
 30
0.0
 11
183.965874281
 21
251.623833513
 31
0.0
  0
LINE
  5
FB5
330
B64
100
AcDbEntity
  8
0
  6
Continuous
 62
     4
100
AcDbLine
 10
59.8
 20
253.3625
 30
0.0
 11
184.4999999999996
 21
253.3625
 31
0.0
  0
TEXT
  5
FB6
330
B64
100
AcDbEntity
  8
0
  6
Continuous
 62
     4
100
AcDbText
 10
182.5
 20
234.0125
 30
0.0
 40
2.0
  1
３０．７
 50
90.0
  7
KANJI7
100
AcDbText
  0
LINE
  5
FC2
330
B64
100
AcDbEntity
  8
1
  6
Continuous
 62
     4
100
AcDbLine
 10
62.5
 20
122.0
 30
0.0
 11
41.0
 21
122.0
 31
0.0
  0
LINE
  5
FC3
330
B64
100
AcDbEntity
  8
1
  6
Continuous
 62
     4
100
AcDbLine
 10
42.0
 20
122.0
 30
0.0
 11
42.388228568
 21
123.4488887389999
 31
0.0
  0
LINE
  5
FC4
330
B64
100
AcDbEntity
  8
1
  6
Continuous
 62
     4
100
AcDbLine
 10
42.0
 20
122.0
 30
0.0
 11
41.61177143199997
 21
123.4488887389999
 31
0.0
  0
LINE
  5
152D
330
B64
100
AcDbEntity
  8
1
  6
Continuous
 62
     4
100
AcDbLine
 10
104.4
 20
253.3625
 30
0.1875
 11
93.9
 21
253.3625
 31
0.1875
  0
LINE
  5
1531
330
B64
100
AcDbEntity
  8
0
  6
Continuous
 62
     4
100
AcDbLine
 10
207.2
 20
121.1999999999999
 30
0.0
 11
207.2
 21
107.4999999999999
 31
0.0
  0
LINE
  5
1532
330
B64
100
AcDbEntity
  8
0
  6
Continuous
 62
     4
100
AcDbLine
 10
207.2
 20
108.4999999999999
 30
0.0
 11
208.938666487
 21
108.0341257189999
 31
0.0
  0
LINE
  5
1533
330
B64
100
AcDbEntity
  8
0
  6
Continuous
 62
     4
100
AcDbLine
 10
207.2
 20
108.4999999999999
 30
0.0
 11
208.938666487
 21
108.9658742809999
 31
0.0
  0
LINE
  5
1534
330
B64
100
AcDbEntity
  8
0
  6
Continuous
 62
     4
100
AcDbLine
 10
207.2
 20
108.4999999999999
 30
0.0
 11
252.0
 21
108.4999999999999
 31
0.0
  0
LINE
  5
1535
330
B64
100
AcDbEntity
  8
0
  6
Continuous
 62
     4
100
AcDbLine
 10
252.0
 20
108.4999999999999
 30
0.0
 11
250.2613335129999
 21
108.9658742809999
 31
0.0
  0
LINE
  5
1536
330
B64
100
AcDbEntity
  8
0
  6
Continuous
 62
     4
100
AcDbLine
 10
252.0
 20
108.4999999999999
 30
0.0
 11
250.2613335129999
 21
108.0341257189999
 31
0.0
  0
LINE
  5
1537
330
B64
100
AcDbEntity
  8
0
  6
Continuous
 62
     4
100
AcDbLine
 10
252.0
 20
121.1999999999999
 30
0.0
 11
252.0
 21
107.4999999999999
 31
0.0
  0
TEXT
  5
1538
330
B64
100
AcDbEntity
  8
0
  6
Continuous
 62
     4
100
AcDbText
 10
225.5999999999999
 20
109.4999999999999
 30
0.0
 40
2.0
  1
４４.８
  7
KANJI7
100
AcDbText
  0
LINE
  5
1539
330
B64
100
AcDbEntity
  8
0
  6
Continuous
 62
     1
100
AcDbLine
 10
229.5999999999999
 20
122.3
 30
0.0
 11
207.35
 21
122.3
 31
0.0
  0
LINE
  5
153A
330
B64
100
AcDbEntity
  8
0
  6
Continuous
 62
     1
100
AcDbLine
 10
207.35
 20
122.3
 30
0.0
 11
207.35
 21
122.0
 31
0.0
  0
LINE
  5
153B
330
B64
100
AcDbEntity
  8
0
  6
Continuous
 62
     1
100
AcDbLine
 10
207.35
 20
122.0
 30
0.0
 11
205.1
 21
122.0
 31
0.0
  0
LINE
  5
153C
330
B64
100
AcDbEntity
  8
0
  6
Continuous
 62
     1
100
AcDbLine
 10
205.1
 20
122.0
 30
0.0
 11
204.5999999999999
 21
122.5
 31
0.0
  0
LINE
  5
153D
330
B64
100
AcDbEntity
  8
0
  6
Continuous
 62
     1
100
AcDbLine
 10
204.5999999999999
 20
122.5
 30
0.0
 11
204.5999999999999
 21
127.0
 31
0.0
  0
LINE
  5
153E
330
B64
100
AcDbEntity
  8
0
  6
Continuous
 62
     1
100
AcDbLine
 10
204.5999999999999
 20
127.0
 30
0.0
 11
204.5999999999999
 21
128.4999999999998
 31
0.0
  0
POINT
  5
153F
330
B64
100
AcDbEntity
  8
0
  6
Continuous
 62
     1
100
AcDbPoint
 10
204.5999999999999
 20
128.4999999999998
 30
0.0
  0
LINE
  5
1540
330
B64
100
AcDbEntity
  8
0
  6
Continuous
 62
     1
100
AcDbLine
 10
204.5999999999999
 20
128.4999999999998
 30
0.0
 11
206.1999999999999
 21
128.4999999999998
 31
0.0
  0
POINT
  5
1541
330
B64
100
AcDbEntity
  8
0
  6
Continuous
 62
     1
100
AcDbPoint
 10
206.1999999999999
 20
128.4999999999998
 30
0.0
  0
LINE
  5
1542
330
B64
100
AcDbEntity
  8
0
  6
Continuous
 62
     1
100
AcDbLine
 10
207.2
 20
131.1999999999999
 30
0.0
 11
207.2
 21
128.4999999999998
 31
0.0
  0
LINE
  5
1543
330
B64
100
AcDbEntity
  8
0
  6
Continuous
 62
     1
100
AcDbLine
 10
254.5999999999999
 20
122.5
 30
0.0
 11
254.5999999999999
 21
127.0
 31
0.0
  0
LINE
  5
1544
330
B64
100
AcDbEntity
  8
0
  6
Continuous
 62
     1
100
AcDbLine
 10
254.5999999999999
 20
127.0
 30
0.0
 11
254.5999999999999
 21
128.4999999999998
 31
0.0
  0
POINT
  5
1545
330
B64
100
AcDbEntity
  8
0
  6
Continuous
 62
     1
100
AcDbPoint
 10
254.5999999999999
 20
128.4999999999998
 30
0.0
  0
LINE
  5
1546
330
B64
100
AcDbEntity
  8
0
  6
Continuous
 62
     1
100
AcDbLine
 10
254.5999999999999
 20
128.4999999999998
 30
0.0
 11
253.0
 21
128.4999999999998
 31
0.0
  0
POINT
  5
1547
330
B64
100
AcDbEntity
  8
0
  6
Continuous
 62
     1
100
AcDbPoint
 10
253.0
 20
128.4999999999998
 30
0.0
  0
LINE
  5
1548
330
B64
100
AcDbEntity
  8
0
  6
Continuous
 62
     1
100
AcDbLine
 10
252.0
 20
128.4999999999998
 30
0.0
 11
252.0
 21
131.1999999999999
 31
0.0
  0
LINE
  5
1549
330
B64
100
AcDbEntity
  8
0
  6
Continuous
 62
     1
100
AcDbLine
 10
251.8499999999999
 20
122.3
 30
0.0
 11
251.8499999999999
 21
122.0
 31
0.0
  0
LINE
  5
154A
330
B64
100
AcDbEntity
  8
0
  6
Continuous
 62
     1
100
AcDbLine
 10
229.5999999999999
 20
122.3
 30
0.0
 11
251.8499999999999
 21
122.3
 31
0.0
  0
LINE
  5
154B
330
B64
100
AcDbEntity
  8
0
  6
Continuous
 62
     1
100
AcDbLine
 10
251.8499999999999
 20
122.0
 30
0.0
 11
254.0999999999999
 21
122.0
 31
0.0
  0
LINE
  5
154C
330
B64
100
AcDbEntity
  8
0
  6
Continuous
 62
     1
100
AcDbLine
 10
254.0999999999999
 20
122.0
 30
0.0
 11
254.5999999999999
 21
122.5
 31
0.0
  0
LINE
  5
154D
330
B64
100
AcDbEntity
  8
0
  6
Continuous
 62
     1
100
AcDbLine
 10
252.0
 20
175.0
 30
0.0
 11
252.0
 21
131.1999999999999
 31
0.0
  0
LINE
  5
154E
330
B64
100
AcDbEntity
  8
0
  6
Continuous
 62
     1
100
AcDbLine
 10
224.5999999999999
 20
128.6
 30
0.0
 11
234.6
 21
128.6
 31
0.0
  0
LINE
  5
154F
330
B64
100
AcDbEntity
  8
0
  6
Continuous
 62
     1
100
AcDbLine
 10
239.5999999999999
 20
128.4999999999998
 30
0.0
 11
239.5999999999999
 21
146.5
 31
0.0
  0
LINE
  5
1550
330
B64
100
AcDbEntity
  8
0
  6
Continuous
 62
     1
100
AcDbLine
 10
238.6
 20
128.4999999999998
 30
0.0
 11
238.6
 21
146.5
 31
0.0
  0
LINE
  5
1551
330
B64
100
AcDbEntity
  8
0
  6
Continuous
 62
     1
100
AcDbLine
 10
219.6
 20
128.4999999999998
 30
0.0
 11
219.6
 21
146.5
 31
0.0
  0
LINE
  5
1552
330
B64
100
AcDbEntity
  8
0
  6
Continuous
 62
     1
100
AcDbLine
 10
220.5999999999999
 20
146.5
 30
0.0
 11
220.5999999999999
 21
128.4999999999998
 31
0.0
  0
LINE
  5
1553
330
B64
100
AcDbEntity
  8
0
  6
Continuous
 62
     1
100
AcDbLine
 10
220.5999999999999
 20
134.4999999999996
 30
0.0
 11
238.6
 21
134.4999999999996
 31
0.0
  0
LINE
  5
1554
330
B64
100
AcDbEntity
  8
0
  6
Continuous
 62
     1
100
AcDbLine
 10
238.6
 20
134.0
 30
0.0
 11
220.5999999999999
 21
134.0
 31
0.0
  0
LINE
  5
1555
330
B64
100
AcDbEntity
  8
0
  6
Continuous
 62
     1
100
AcDbLine
 10
220.5999999999999
 20
133.4999999999996
 30
0.0
 11
238.6
 21
133.4999999999996
 31
0.0
  0
LINE
  5
1556
330
B64
100
AcDbEntity
  8
0
  6
Continuous
 62
     1
100
AcDbLine
 10
238.6
 20
133.0
 30
0.0
 11
220.5999999999999
 21
133.0
 31
0.0
  0
LINE
  5
1557
330
B64
100
AcDbEntity
  8
0
  6
Continuous
 62
     1
100
AcDbLine
 10
220.5999999999999
 20
132.4999999999996
 30
0.0
 11
238.6
 21
132.4999999999996
 31
0.0
  0
LINE
  5
1558
330
B64
100
AcDbEntity
  8
0
  6
Continuous
 62
     1
100
AcDbLine
 10
238.6
 20
132.0
 30
0.0
 11
220.5999999999999
 21
132.0
 31
0.0
  0
LINE
  5
1559
330
B64
100
AcDbEntity
  8
0
  6
Continuous
 62
     1
100
AcDbLine
 10
220.5999999999999
 20
131.4999999999996
 30
0.0
 11
238.6
 21
131.4999999999996
 31
0.0
  0
LINE
  5
155A
330
B64
100
AcDbEntity
  8
0
  6
Continuous
 62
     1
100
AcDbLine
 10
238.6
 20
131.0
 30
0.0
 11
220.5999999999999
 21
131.0
 31
0.0
  0
LINE
  5
155B
330
B64
100
AcDbEntity
  8
0
  6
Continuous
 62
     1
100
AcDbLine
 10
220.5999999999999
 20
130.4999999999996
 30
0.0
 11
238.6
 21
130.4999999999996
 31
0.0
  0
LINE
  5
155C
330
B64
100
AcDbEntity
  8
0
  6
Continuous
 62
     1
100
AcDbLine
 10
238.6
 20
130.0
 30
0.0
 11
220.5999999999999
 21
130.0
 31
0.0
  0
LINE
  5
155D
330
B64
100
AcDbEntity
  8
0
  6
Continuous
 62
     1
100
AcDbLine
 10
220.5999999999999
 20
129.4999999999996
 30
0.0
 11
238.6
 21
129.4999999999996
 31
0.0
  0
LINE
  5
155E
330
B64
100
AcDbEntity
  8
0
  6
Continuous
 62
     1
100
AcDbLine
 10
238.6
 20
129.0
 30
0.0
 11
220.5999999999999
 21
129.0
 31
0.0
  0
LINE
  5
155F
330
B64
100
AcDbEntity
  8
0
  6
Continuous
 62
     1
100
AcDbLine
 10
206.1999999999999
 20
128.4999999999998
 30
0.0
 11
253.0
 21
128.4999999999998
 31
0.0
  0
LINE
  5
1560
330
B64
100
AcDbEntity
  8
0
  6
Continuous
 62
     1
100
AcDbLine
 10
254.5999999999999
 20
127.0
 30
0.0
 11
204.5999999999999
 21
127.0
 31
0.0
  0
LINE
  5
1561
330
B64
100
AcDbEntity
  8
0
  6
Continuous
 62
     1
100
AcDbLine
 10
206.1999999999999
 20
128.4999999999998
 30
0.0
 11
253.0
 21
128.4999999999998
 31
0.0
  0
LINE
  5
1562
330
B64
100
AcDbEntity
  8
0
  6
Continuous
 62
     1
100
AcDbLine
 10
211.2499999999998
 20
178.0
 30
0.0
 11
211.2499999999998
 21
175.0
 31
0.0
  0
LINE
  5
1563
330
B64
100
AcDbEntity
  8
0
  6
Continuous
 62
     1
100
AcDbLine
 10
207.2
 20
131.1999999999999
 30
0.0
 11
207.2
 21
175.0
 31
0.0
  0
ARC
  5
1564
330
B64
100
AcDbEntity
  8
0
  6
Continuous
 62
     1
100
AcDbCircle
 10
224.35
 20
163.0
 30
0.0
 40
1.0
100
AcDbArc
 50
180.0
 51
284.477512187
  0
ARC
  5
1565
330
B64
100
AcDbEntity
  8
0
  6
Continuous
 62
     1
100
AcDbCircle
 10
219.0999999999999
 20
163.0
 30
0.0
 40
1.0
100
AcDbArc
 50
180.0
 51
0.0
  0
ARC
  5
1566
330
B64
100
AcDbEntity
  8
0
  6
Continuous
 62
     1
100
AcDbCircle
 10
224.35
 20
163.0
 30
0.0
 40
1.0
100
AcDbArc
 50
180.0
 51
0.0
  0
LINE
  5
1567
330
B64
100
AcDbEntity
  8
0
  6
Continuous
 62
     1
100
AcDbLine
 10
218.1
 20
163.0
 30
0.0
 11
218.1
 21
175.0
 31
0.0
  0
LINE
  5
1568
330
B64
100
AcDbEntity
  8
0
  6
Continuous
 62
     1
100
AcDbLine
 10
220.1
 20
163.0
 30
0.0
 11
220.1
 21
175.0
 31
0.0
  0
LINE
  5
1569
330
B64
100
AcDbEntity
  8
0
  6
Continuous
 62
     1
100
AcDbLine
 10
223.3499999999999
 20
163.0
 30
0.0
 11
223.3499999999999
 21
175.0
 31
0.0
  0
LINE
  5
156A
330
B64
100
AcDbEntity
  8
0
  6
Continuous
 62
     1
100
AcDbLine
 10
225.3499999999999
 20
163.0
 30
0.0
 11
225.3499999999999
 21
175.0
 31
0.0
  0
ARC
  5
156B
330
B64
100
AcDbEntity
  8
0
  6
Continuous
 62
     1
100
AcDbCircle
 10
234.85
 20
163.0
 30
0.0
 40
1.0
100
AcDbArc
 50
180.0
 51
0.0
  0
LINE
  5
156C
330
B64
100
AcDbEntity
  8
0
  6
Continuous
 62
     1
100
AcDbLine
 10
233.8499999999999
 20
163.0
 30
0.0
 11
233.8499999999999
 21
175.0
 31
0.0
  0
LINE
  5
156D
330
B64
100
AcDbEntity
  8
0
  6
Continuous
 62
     1
100
AcDbLine
 10
235.8499999999999
 20
163.0
 30
0.0
 11
235.8499999999999
 21
175.0
 31
0.0
  0
ARC
  5
156E
330
B64
100
AcDbEntity
  8
0
  6
Continuous
 62
     1
100
AcDbCircle
 10
229.5999999999999
 20
160.0
 30
0.0
 40
1.0
100
AcDbArc
 50
180.0
 51
0.0
  0
LINE
  5
156F
330
B64
100
AcDbEntity
  8
0
  6
Continuous
 62
     1
100
AcDbLine
 10
228.6
 20
160.0
 30
0.0
 11
228.6
 21
175.0
 31
0.0
  0
LINE
  5
1570
330
B64
100
AcDbEntity
  8
0
  6
Continuous
 62
     1
100
AcDbLine
 10
230.6
 20
160.0
 30
0.0
 11
230.6
 21
175.0
 31
0.0
  0
LINE
  5
1571
330
B64
100
AcDbEntity
  8
0
  6
Continuous
 62
     1
100
AcDbLine
 10
217.2499999999998
 20
175.0
 30
0.0
 11
217.2499999999998
 21
178.0
 31
0.0
  0
LINE
  5
1572
330
B64
100
AcDbEntity
  8
0
  6
Continuous
 62
     1
100
AcDbLine
 10
217.2499999999998
 20
178.0
 30
0.0
 11
211.2499999999998
 21
178.0
 31
0.0
  0
ARC
  5
1573
330
B64
100
AcDbEntity
  8
0
  6
Continuous
 62
     1
100
AcDbCircle
 10
240.0999999999999
 20
163.0
 30
0.0
 40
1.0
100
AcDbArc
 50
180.0
 51
0.0
  0
LINE
  5
1574
330
B64
100
AcDbEntity
  8
0
  6
Continuous
 62
     1
100
AcDbLine
 10
239.1
 20
163.0
 30
0.0
 11
239.1
 21
175.0
 31
0.0
  0
LINE
  5
1575
330
B64
100
AcDbEntity
  8
0
  6
Continuous
 62
     1
100
AcDbLine
 10
241.1
 20
163.0
 30
0.0
 11
241.1
 21
175.0
 31
0.0
  0
LINE
  5
1576
330
B64
100
AcDbEntity
  8
0
  6
Continuous
 62
     1
100
AcDbLine
 10
241.9499999999999
 20
178.0
 30
0.0
 11
241.9499999999999
 21
175.0
 31
0.0
  0
LINE
  5
1577
330
B64
100
AcDbEntity
  8
0
  6
Continuous
 62
     1
100
AcDbLine
 10
247.9499999999999
 20
178.0
 30
0.0
 11
241.9499999999999
 21
178.0
 31
0.0
  0
LINE
  5
1578
330
B64
100
AcDbEntity
  8
0
  6
Continuous
 62
     1
100
AcDbLine
 10
247.9499999999999
 20
175.0
 30
0.0
 11
247.9499999999999
 21
178.0
 31
0.0
  0
LINE
  5
1579
330
B64
100
AcDbEntity
  8
0
  6
Continuous
 62
     1
100
AcDbLine
 10
207.2
 20
175.0
 30
0.0
 11
252.0
 21
175.0
 31
0.0
  0
LINE
  5
157A
330
B64
100
AcDbEntity
  8
1
  6
Continuous
 62
     4
100
AcDbLine
 10
265.75
 20
122.3
 30
0.0
 11
266.1382285679998
 21
123.748888739
 31
0.0
  0
LINE
  5
157B
330
B64
100
AcDbEntity
  8
1
  6
Continuous
 62
     4
100
AcDbLine
 10
265.75
 20
122.3
 30
0.0
 11
265.361771432
 21
123.748888739
 31
0.0
  0
LINE
  5
157C
330
B64
100
AcDbEntity
  8
1
  6
Continuous
 62
     4
100
AcDbLine
 10
256.85
 20
122.3
 30
0.0
 11
266.7499999999999
 21
122.3
 31
0.0
  0
LINE
  5
1580
330
B64
100
AcDbEntity
  8
0
  6
Continuous
 62
     4
100
AcDbLine
 10
381.3
 20
170.0
 30
0.0
 11
395.0
 21
170.0
 31
0.0
  0
LINE
  5
1581
330
B64
100
AcDbEntity
  8
0
  6
Continuous
 62
     4
100
AcDbLine
 10
394.0
 20
170.0
 30
0.0
 11
393.534125719
 21
168.2613335129999
 31
0.0
  0
LINE
  5
1582
330
B64
100
AcDbEntity
  8
0
  6
Continuous
 62
     4
100
AcDbLine
 10
394.0
 20
170.0
 30
0.0
 11
394.4658742809999
 21
168.2613335129999
 31
0.0
  0
LINE
  5
1583
330
B64
100
AcDbEntity
  8
0
  6
Continuous
 62
     4
100
AcDbLine
 10
394.0
 20
170.0
 30
0.0
 11
394.0
 21
125.0
 31
0.0
  0
LINE
  5
1584
330
B64
100
AcDbEntity
  8
0
  6
Continuous
 62
     4
100
AcDbLine
 10
394.0
 20
125.0
 30
0.0
 11
394.4658742809999
 21
126.738666487
 31
0.0
  0
LINE
  5
1585
330
B64
100
AcDbEntity
  8
0
  6
Continuous
 62
     4
100
AcDbLine
 10
394.0
 20
125.0
 30
0.0
 11
393.534125719
 21
126.738666487
 31
0.0
  0
LINE
  5
1586
330
B64
100
AcDbEntity
  8
0
  6
Continuous
 62
     4
100
AcDbLine
 10
381.3
 20
125.0
 30
0.0
 11
395.0
 21
125.0
 31
0.0
  0
TEXT
  5
1587
330
B64
100
AcDbEntity
  8
0
  6
Continuous
 62
     4
100
AcDbText
 10
393.0
 20
145.5
 30
0.0
 40
2.0
  1
４５
 50
90.0
  7
KANJI7
100
AcDbText
  0
LINE
  5
1588
330
B64
100
AcDbEntity
  8
0
  6
Continuous
 62
     4
100
AcDbLine
 10
287.0
 20
122.7
 30
0.0
 11
287.0
 21
104.0
 31
0.0
  0
LINE
  5
1589
330
B64
100
AcDbEntity
  8
0
  6
Continuous
 62
     4
100
AcDbLine
 10
287.0
 20
105.0
 30
0.0
 11
288.7386664869998
 21
104.534125719
 31
0.0
  0
LINE
  5
158A
330
B64
100
AcDbEntity
  8
0
  6
Continuous
 62
     4
100
AcDbLine
 10
287.0
 20
105.0
 30
0.0
 11
288.7386664869998
 21
105.465874281
 31
0.0
  0
LINE
  5
158B
330
B64
100
AcDbEntity
  8
0
  6
Continuous
 62
     4
100
AcDbLine
 10
287.0
 20
105.0
 30
0.0
 11
379.0
 21
105.0
 31
0.0
  0
LINE
  5
158C
330
B64
100
AcDbEntity
  8
0
  6
Continuous
 62
     4
100
AcDbLine
 10
379.0
 20
105.0
 30
0.0
 11
377.2613335129999
 21
105.465874281
 31
0.0
  0
LINE
  5
158D
330
B64
100
AcDbEntity
  8
0
  6
Continuous
 62
     4
100
AcDbLine
 10
379.0
 20
105.0
 30
0.0
 11
377.2613335129999
 21
104.534125719
 31
0.0
  0
LINE
  5
158E
330
B64
100
AcDbEntity
  8
0
  6
Continuous
 62
     4
100
AcDbLine
 10
379.0
 20
122.7
 30
0.0
 11
379.0
 21
104.0
 31
0.0
  0
TEXT
  5
158F
330
B64
100
AcDbEntity
  8
0
  6
Continuous
 62
     4
100
AcDbText
 10
331.0
 20
106.0
 30
0.0
 40
2.0
  1
９２
  7
KANJI7
100
AcDbText
  0
TEXT
  5
1590
330
B64
100
AcDbEntity
  8
0
  6
Continuous
 62
     4
100
AcDbText
 10
334.8999999999997
 20
106.9
 30
0.0
 40
1.5
  1
＋０.８
  7
KANJI9
100
AcDbText
  0
TEXT
  5
1591
330
B64
100
AcDbEntity
  8
0
  6
Continuous
 62
     4
100
AcDbText
 10
334.8999999999997
 20
105.2999999999999
 30
0.0
 40
1.5
  1
－０
  7
KANJI9
100
AcDbText
  0
TEXT
  5
1592
330
B64
100
AcDbEntity
  8
0
  6
Continuous
 62
     4
100
AcDbText
 10
392.0
 20
149.5999999999999
 30
0.0
 40
1.5
  1
＋０.６
 50
90.0
  7
KANJI9
100
AcDbText
  0
TEXT
  5
1593
330
B64
100
AcDbEntity
  8
0
  6
Continuous
 62
     4
100
AcDbText
 10
393.5
 20
149.5999999999999
 30
0.0
 40
1.5
  1
－０
 50
90.0
  7
KANJI9
100
AcDbText
  0
LINE
  5
1594
330
B64
100
AcDbEntity
  8
0
  6
Continuous
 62
     1
100
AcDbLine
 10
287.0
 20
170.0
 30
0.0
 11
287.0
 21
125.0
 31
0.0
  0
LINE
  5
1595
330
B64
100
AcDbEntity
  8
0
  6
Continuous
 62
     1
100
AcDbLine
 10
379.0
 20
170.0
 30
0.0
 11
287.0
 21
170.0
 31
0.0
  0
LINE
  5
1596
330
B64
100
AcDbEntity
  8
0
  6
Continuous
 62
     1
100
AcDbLine
 10
287.0
 20
125.0
 30
0.0
 11
379.0
 21
125.0
 31
0.0
  0
LINE
  5
1597
330
B64
100
AcDbEntity
  8
0
  6
Continuous
 62
     1
100
AcDbLine
 10
379.0
 20
125.0
 30
0.0
 11
379.0
 21
170.0
 31
0.0
  0
TEXT
  5
1598
330
B64
100
AcDbEntity
  8
0
  6
Continuous
 62
     1
100
AcDbText
 10
315.7
 20
183.6
 30
0.0
 40
4.0
  1
ＰＡＮＥＬ　ＣＵＴ
  7
KANJI10
100
AcDbText
  0
LINE
  5
1599
330
B64
100
AcDbEntity
  8
0
  6
Continuous
 62
     1
100
AcDbLine
 10
149.0
 20
254.3625
 30
0.0
 11
75.0
 21
254.3625
 31
0.0
  0
LINE
  5
159A
330
B64
100
AcDbEntity
  8
0
  6
Continuous
 62
     1
100
AcDbLine
 10
149.0
 20
252.3625
 30
0.0
 11
75.0
 21
252.3625
 31
0.0
  0
LINE
  5
159B
330
B64
100
AcDbEntity
  8
1
  6
Continuous
 62
     4
100
AcDbLine
 10
42.0
 20
184.0
 30
0.0
 11
41.61177143199997
 21
182.5511112609999
 31
0.0
  0
LINE
  5
159C
330
B64
100
AcDbEntity
  8
1
  6
Continuous
 62
     4
100
AcDbLine
 10
42.0
 20
184.0
 30
0.0
 11
42.388228568
 21
182.5511112609999
 31
0.0
  0
LINE
  5
159D
330
B64
100
AcDbEntity
  8
1
  6
Continuous
 62
     4
100
AcDbLine
 10
75.5
 20
184.0
 30
0.0
 11
41.0
 21
184.0
 31
0.0
  0
LINE
  5
159E
330
B64
100
AcDbEntity
  8
1
  6
Continuous
 62
     4
100
AcDbLine
 10
42.0
 20
122.0
 30
0.0
 11
42.0
 21
184.0
 31
0.0
  0
TEXT
  5
159F
330
B64
100
AcDbEntity
  8
1
  6
Continuous
 62
     4
100
AcDbText
 10
41.0
 20
152.5399999999999
 30
0.0
 40
2.0
  1
６２
 50
90.0
 41
0.925
  7
KANJI4
100
AcDbText
  0
TEXT
  5
15A0
330
B64
100
AcDbEntity
  8
1
  6
Continuous
 62
     4
100
AcDbText
 10
41.0
 20
156.7024999999999
 30
0.0
 40
1.199999999999999
  1
±０.５
 50
90.0
 41
0.925
  7
KANJI11
100
AcDbText
  0
LINE
  5
15A1
330
B64
100
AcDbEntity
  8
0
  6
Continuous
 62
     1
100
AcDbLine
 10
112.0
 20
184.0
 30
0.0
 11
77.5
 21
184.0
 31
0.0
  0
LINE
  5
15A2
330
B64
100
AcDbEntity
  8
0
  6
Continuous
 62
     1
100
AcDbLine
 10
77.5
 20
184.0
 30
0.0
 11
76.5
 21
183.0
 31
0.0
  0
LINE
  5
15A3
330
B64
100
AcDbEntity
  8
0
  6
Continuous
 62
     1
100
AcDbLine
 10
76.5
 20
183.0
 30
0.0
 11
76.5
 21
178.0
 31
0.0
  0
LINE
  5
15A4
330
B64
100
AcDbEntity
  8
0
  6
Continuous
 62
     1
100
AcDbLine
 10
147.5
 20
183.0
 30
0.0
 11
147.5
 21
181.0
 31
0.0
  0
LINE
  5
15A5
330
B64
100
AcDbEntity
  8
0
  6
Continuous
 62
     1
100
AcDbLine
 10
112.0
 20
184.0
 30
0.0
 11
146.5
 21
184.0
 31
0.0
  0
LINE
  5
15A6
330
B64
100
AcDbEntity
  8
0
  6
Continuous
 62
     1
100
AcDbLine
 10
147.5
 20
183.0
 30
0.0
 11
146.5
 21
184.0
 31
0.0
  0
LINE
  5
15A7
330
B64
100
AcDbEntity
  8
0
  6
Continuous
 62
     1
100
AcDbLine
 10
147.5
 20
181.0
 30
0.0
 11
147.5
 21
178.0
 31
0.0
  0
POINT
  5
15A8
330
B64
100
AcDbEntity
  8
0
  6
Continuous
 62
     3
100
AcDbPoint
 10
109.0
 20
75.84999999999998
 30
0.0
  0
LINE
  5
15A9
330
B64
100
AcDbEntity
  8
0
  6
Continuous
 62
     1
100
AcDbLine
 10
99.50000000000001
 20
83.54999999999998
 30
0.0
 11
97.2
 21
83.54999999999998
 31
0.0
  0
LINE
  5
15AA
330
B64
100
AcDbEntity
  8
0
  6
Continuous
 62
     1
100
AcDbLine
 10
97.1
 20
82.04999999999998
 30
0.0
 11
102.0999999999997
 21
82.04999999999998
 31
0.0
  0
LINE
  5
15AB
330
B64
100
AcDbEntity
  8
0
  6
Continuous
 62
     1
100
AcDbLine
 10
102.0999999999997
 20
83.75
 30
0.0
 11
103.4
 21
82.75
 31
0.0
  0
LINE
  5
15AC
330
B64
100
AcDbEntity
  8
0
  6
Continuous
 62
     1
100
AcDbLine
 10
102.0
 20
83.45
 30
0.0
 11
103.2999999999999
 21
82.45
 31
0.0
  0
LINE
  5
15AD
330
B64
100
AcDbEntity
  8
0
  6
Continuous
 62
     1
100
AcDbLine
 10
103.2999999999999
 20
82.45
 30
0.0
 11
101.9
 21
82.04999999999998
 31
0.0
  0
LINE
  5
15AE
330
B64
100
AcDbEntity
  8
0
  6
Continuous
 62
     1
100
AcDbLine
 10
101.9
 20
81.75
 30
0.0
 11
103.4
 21
82.15000000000001
 31
0.0
  0
LINE
  5
15AF
330
B64
100
AcDbEntity
  8
0
  6
Continuous
 62
     1
100
AcDbLine
 10
97.1
 20
83.54999999999998
 30
0.0
 11
95.8
 21
82.94999999999998
 31
0.0
  0
LINE
  5
15B0
330
B64
100
AcDbEntity
  8
0
  6
Continuous
 62
     1
100
AcDbLine
 10
95.8
 20
82.94999999999998
 30
0.0
 11
97.0
 21
82.04999999999998
 31
0.0
  0
LINE
  5
15B1
330
B64
100
AcDbEntity
  8
0
  6
Continuous
 62
     1
100
AcDbLine
 10
96.79999999999999
 20
81.84999999999998
 30
0.0
 11
95.5
 21
82.75
 31
0.0
  0
LINE
  5
15B2
330
B64
100
AcDbEntity
  8
0
  6
Continuous
 62
     1
100
AcDbLine
 10
95.6
 20
83.15000000000003
 30
0.0
 11
97.1
 21
83.95000000000001
 31
0.0
  0
LINE
  5
15B3
330
B64
100
AcDbEntity
  8
0
  6
Continuous
 62
     1
100
AcDbLine
 10
101.9
 20
83.54999999999998
 30
0.0
 11
99.6
 21
83.54999999999998
 31
0.0
  0
POINT
  5
15B4
330
B64
100
AcDbEntity
  8
0
  6
Continuous
 62
     1
100
AcDbPoint
 10
103.0
 20
89.84999999999997
 30
0.0
  0
LINE
  5
15B5
330
B64
100
AcDbEntity
  8
0
  6
Continuous
 62
     1
100
AcDbLine
 10
102.7
 20
88.34999999999999
 30
0.0
 11
103.7
 21
89.54999999999998
 31
0.0
  0
LINE
  5
15B6
330
B64
100
AcDbEntity
  8
0
  6
Continuous
 62
     1
100
AcDbLine
 10
104.0999999999997
 20
89.45
 30
0.0
 11
102.9
 21
87.94999999999998
 31
0.0
  0
LINE
  5
15B7
330
B64
100
AcDbEntity
  8
0
  6
Continuous
 62
     1
100
AcDbLine
 10
98.0
 20
88.45
 30
0.0
 11
97.1
 21
89.54999999999998
 31
0.0
  0
LINE
  5
15B8
330
B64
100
AcDbEntity
  8
0
  6
Continuous
 62
     1
100
AcDbLine
 10
97.80000000000001
 20
88.04999999999997
 30
0.0
 11
96.79999999999999
 21
89.34999999999998
 31
0.0
  0
LINE
  5
15B9
330
B64
100
AcDbEntity
  8
0
  6
Continuous
 62
     1
100
AcDbLine
 10
97.159375
 20
84.12499999999999
 30
0.0
 11
97.771875
 21
88.025
 31
0.0
  0
LINE
  5
15BA
330
B64
100
AcDbEntity
  8
0
  6
Continuous
 62
     1
100
AcDbLine
 10
96.70000000000001
 20
89.321428571
 30
0.0
 11
96.5
 21
89.15
 31
0.0
  0
LINE
  5
15BB
330
B64
100
AcDbEntity
  8
0
  6
Continuous
 62
     1
100
AcDbLine
 10
97.2
 20
89.74999999999999
 30
0.0
 11
97.1
 21
89.66428571399998
 31
0.0
  0
LINE
  5
15BC
330
B64
100
AcDbEntity
  8
0
  6
Continuous
 62
     1
100
AcDbLine
 10
95.53437499999999
 20
83.125
 30
0.0
 11
96.396875
 21
89.02500000000001
 31
0.0
  0
LINE
  5
15BD
330
B64
100
AcDbEntity
  8
0
  6
Continuous
 62
     1
100
AcDbLine
 10
98.1
 20
88.34999999999999
 30
0.0
 11
102.8
 21
88.34999999999999
 31
0.0
  0
LINE
  5
15BE
330
B64
100
AcDbEntity
  8
0
  6
Continuous
 62
     1
100
AcDbLine
 10
102.746875
 20
87.825
 30
0.0
 11
102.1093749999999
 21
83.72499999999998
 31
0.0
  0
LINE
  5
15BF
330
B64
100
AcDbEntity
  8
0
  6
Continuous
 62
     1
100
AcDbLine
 10
104.2
 20
89.464285714
 30
0.0
 11
104.4
 21
89.34999999999998
 31
0.0
  0
LINE
  5
15C0
330
B64
100
AcDbEntity
  8
0
  6
Continuous
 62
     1
100
AcDbLine
 10
103.7
 20
89.74999999999999
 30
0.0
 11
103.8
 21
89.69285714299999
 31
0.0
  0
LINE
  5
15C1
330
B64
100
AcDbEntity
  8
0
  6
Continuous
 62
     1
100
AcDbLine
 10
97.3
 20
89.84999999999997
 30
0.0
 11
103.6
 21
89.84999999999997
 31
0.0
  0
LINE
  5
15C2
330
B64
100
AcDbEntity
  8
0
  6
Continuous
 62
     1
100
AcDbLine
 10
104.434375
 20
89.325
 30
0.0
 11
103.484375
 21
82.72499999999999
 31
0.0
  0
POINT
  5
15C3
330
B64
100
AcDbEntity
  8
0
  6
Continuous
 62
     1
100
AcDbPoint
 10
96.0
 20
75.84999999999998
 30
0.0
  0
LINE
  5
15C4
330
B64
100
AcDbEntity
  8
0
  6
Continuous
 62
     1
100
AcDbLine
 10
101.2
 20
77.54999999999999
 30
0.0
 11
102.2999999999999
 21
76.45
 31
0.0
  0
LINE
  5
15C5
330
B64
100
AcDbEntity
  8
0
  6
Continuous
 62
     1
100
AcDbLine
 10
101.0
 20
77.34999999999998
 30
0.0
 11
102.0999999999997
 21
76.25
 31
0.0
  0
LINE
  5
15C6
330
B64
100
AcDbEntity
  8
0
  6
Continuous
 62
     1
100
AcDbLine
 10
96.2
 20
77.54999999999999
 30
0.0
 11
94.8
 21
76.54999999999998
 31
0.0
  0
LINE
  5
15C7
330
B64
100
AcDbEntity
  8
0
  6
Continuous
 62
     1
100
AcDbLine
 10
95.0
 20
76.34999999999998
 30
0.0
 11
96.2
 21
77.25
 31
0.0
  0
LINE
  5
15C8
330
B64
100
AcDbEntity
  8
0
  6
Continuous
 62
     1
100
AcDbLine
 10
94.61249999999997
 20
76.75
 30
0.0
 11
95.5
 21
82.84999999999998
 31
0.0
  0
LINE
  5
15C9
330
B64
100
AcDbEntity
  8
0
  6
Continuous
 62
     1
100
AcDbLine
 10
94.93333333299998
 20
76.25
 30
0.0
 11
95.20000000000001
 21
75.84999999999998
 31
0.0
  0
LINE
  5
15CA
330
B64
100
AcDbEntity
  8
0
  6
Continuous
 62
     1
100
AcDbLine
 10
94.59999999999999
 20
76.75
 30
0.0
 11
94.8
 21
76.45
 31
0.0
  0
LINE
  5
15CB
330
B64
100
AcDbEntity
  8
0
  6
Continuous
 62
     1
100
AcDbLine
 10
101.0
 20
77.34999999999998
 30
0.0
 11
96.2
 21
77.34999999999998
 31
0.0
  0
LINE
  5
15CC
330
B64
100
AcDbEntity
  8
0
  6
Continuous
 62
     1
100
AcDbLine
 10
102.2999999999999
 20
76.394444444
 30
0.0
 11
102.4999999999999
 21
76.54999999999998
 31
0.0
  0
LINE
  5
15CD
330
B64
100
AcDbEntity
  8
0
  6
Continuous
 62
     1
100
AcDbLine
 10
101.6
 20
75.84999999999998
 30
0.0
 11
102.0999999999997
 21
76.23888888899998
 31
0.0
  0
LINE
  5
15CE
330
B64
100
AcDbEntity
  8
0
  6
Continuous
 62
     1
100
AcDbLine
 10
101.6
 20
75.84999999999998
 30
0.0
 11
95.09999999999999
 21
75.84999999999998
 31
0.0
  0
LINE
  5
15CF
330
B64
100
AcDbEntity
  8
0
  6
Continuous
 62
     1
100
AcDbLine
 10
103.409375
 20
82.125
 30
0.0
 11
102.5843749999997
 21
76.525
 31
0.0
  0
LINE
  5
15D0
330
B64
100
AcDbEntity
  8
0
  6
Continuous
 62
     1
100
AcDbLine
 10
96.25
 20
77.59999999999998
 30
0.0
 11
96.75
 21
81.59999999999998
 31
0.0
  0
LINE
  5
15D1
330
B64
100
AcDbEntity
  8
0
  6
Continuous
 62
     1
100
AcDbLine
 10
101.2499999999999
 20
77.59999999999998
 30
0.0
 11
101.75
 21
81.59999999999998
 31
0.0
  0
LINE
  5
15D2
330
B64
100
AcDbEntity
  8
0
  6
Continuous
 62
     1
100
AcDbLine
 10
125.5
 20
83.54999999999998
 30
0.0
 11
123.1999999999999
 21
83.54999999999998
 31
0.0
  0
LINE
  5
15D3
330
B64
100
AcDbEntity
  8
0
  6
Continuous
 62
     1
100
AcDbLine
 10
123.0999999999996
 20
82.04999999999998
 30
0.0
 11
128.0999999999999
 21
82.04999999999998
 31
0.0
  0
LINE
  5
15D4
330
B64
100
AcDbEntity
  8
0
  6
Continuous
 62
     1
100
AcDbLine
 10
128.0999999999999
 20
83.75
 30
0.0
 11
129.4
 21
82.75
 31
0.0
  0
LINE
  5
15D5
330
B64
100
AcDbEntity
  8
0
  6
Continuous
 62
     1
100
AcDbLine
 10
128.0
 20
83.45
 30
0.0
 11
129.3
 21
82.45
 31
0.0
  0
LINE
  5
15D6
330
B64
100
AcDbEntity
  8
0
  6
Continuous
 62
     1
100
AcDbLine
 10
129.3
 20
82.45
 30
0.0
 11
127.9
 21
82.04999999999998
 31
0.0
  0
LINE
  5
15D7
330
B64
100
AcDbEntity
  8
0
  6
Continuous
 62
     1
100
AcDbLine
 10
127.9
 20
81.75
 30
0.0
 11
129.4
 21
82.15000000000001
 31
0.0
  0
LINE
  5
15D8
330
B64
100
AcDbEntity
  8
0
  6
Continuous
 62
     1
100
AcDbLine
 10
123.0999999999996
 20
83.54999999999998
 30
0.0
 11
121.7999999999999
 21
82.94999999999998
 31
0.0
  0
LINE
  5
15D9
330
B64
100
AcDbEntity
  8
0
  6
Continuous
 62
     1
100
AcDbLine
 10
121.7999999999999
 20
82.94999999999998
 30
0.0
 11
123.0
 21
82.04999999999998
 31
0.0
  0
LINE
  5
15DA
330
B64
100
AcDbEntity
  8
0
  6
Continuous
 62
     1
100
AcDbLine
 10
122.7999999999999
 20
81.84999999999998
 30
0.0
 11
121.5
 21
82.75
 31
0.0
  0
LINE
  5
15DB
330
B64
100
AcDbEntity
  8
0
  6
Continuous
 62
     1
100
AcDbLine
 10
121.5999999999997
 20
83.15000000000003
 30
0.0
 11
123.0999999999996
 21
83.95000000000001
 31
0.0
  0
LINE
  5
15DC
330
B64
100
AcDbEntity
  8
0
  6
Continuous
 62
     1
100
AcDbLine
 10
127.9
 20
83.54999999999998
 30
0.0
 11
125.6
 21
83.54999999999998
 31
0.0
  0
POINT
  5
15DD
330
B64
100
AcDbEntity
  8
0
  6
Continuous
 62
     1
100
AcDbPoint
 10
129.0
 20
89.84999999999997
 30
0.0
  0
LINE
  5
15DE
330
B64
100
AcDbEntity
  8
0
  6
Continuous
 62
     1
100
AcDbLine
 10
130.0999999999999
 20
89.45
 30
0.0
 11
128.9
 21
87.94999999999998
 31
0.0
  0
LINE
  5
15DF
330
B64
100
AcDbEntity
  8
0
  6
Continuous
 62
     1
100
AcDbLine
 10
123.7999999999999
 20
88.04999999999997
 30
0.0
 11
122.7999999999999
 21
89.34999999999998
 31
0.0
  0
LINE
  5
15E0
330
B64
100
AcDbEntity
  8
0
  6
Continuous
 62
     1
100
AcDbLine
 10
123.159375
 20
84.12499999999999
 30
0.0
 11
123.7718749999997
 21
88.025
 31
0.0
  0
LINE
  5
15E1
330
B64
100
AcDbEntity
  8
0
  6
Continuous
 62
     1
100
AcDbLine
 10
122.7
 20
89.321428571
 30
0.0
 11
122.5
 21
89.15
 31
0.0
  0
LINE
  5
15E2
330
B64
100
AcDbEntity
  8
0
  6
Continuous
 62
     1
100
AcDbLine
 10
123.1999999999999
 20
89.74999999999999
 30
0.0
 11
123.0999999999996
 21
89.66428571399998
 31
0.0
  0
LINE
  5
15E3
330
B64
100
AcDbEntity
  8
0
  6
Continuous
 62
     1
100
AcDbLine
 10
121.5343749999999
 20
83.125
 30
0.0
 11
122.396875
 21
89.02500000000001
 31
0.0
  0
LINE
  5
15E4
330
B64
100
AcDbEntity
  8
0
  6
Continuous
 62
     1
100
AcDbLine
 10
128.7468749999999
 20
87.825
 30
0.0
 11
128.1093749999998
 21
83.72499999999998
 31
0.0
  0
LINE
  5
15E5
330
B64
100
AcDbEntity
  8
0
  6
Continuous
 62
     1
100
AcDbLine
 10
130.1999999999999
 20
89.464285714
 30
0.0
 11
130.4
 21
89.34999999999998
 31
0.0
  0
LINE
  5
15E6
330
B64
100
AcDbEntity
  8
0
  6
Continuous
 62
     1
100
AcDbLine
 10
123.3
 20
89.84999999999997
 30
0.0
 11
129.6
 21
89.84999999999997
 31
0.0
  0
LINE
  5
15E7
330
B64
100
AcDbEntity
  8
0
  6
Continuous
 62
     1
100
AcDbLine
 10
130.4343749999999
 20
89.325
 30
0.0
 11
129.484375
 21
82.72499999999999
 31
0.0
  0
LINE
  5
15E8
330
B64
100
AcDbEntity
  8
0
  6
Continuous
 62
     1
100
AcDbLine
 10
115.1
 20
83.75
 30
0.0
 11
116.4
 21
82.75
 31
0.0
  0
LINE
  5
15E9
330
B64
100
AcDbEntity
  8
0
  6
Continuous
 62
     1
100
AcDbLine
 10
115.0
 20
83.45
 30
0.0
 11
116.3
 21
82.45
 31
0.0
  0
LINE
  5
15EA
330
B64
100
AcDbEntity
  8
0
  6
Continuous
 62
     1
100
AcDbLine
 10
116.3
 20
82.45
 30
0.0
 11
114.9
 21
82.04999999999998
 31
0.0
  0
LINE
  5
15EB
330
B64
100
AcDbEntity
  8
0
  6
Continuous
 62
     1
100
AcDbLine
 10
114.9
 20
81.75
 30
0.0
 11
116.4
 21
82.15000000000001
 31
0.0
  0
LINE
  5
15EC
330
B64
100
AcDbEntity
  8
0
  6
Continuous
 62
     1
100
AcDbLine
 10
114.9
 20
83.54999999999998
 30
0.0
 11
112.5999999999997
 21
83.54999999999998
 31
0.0
  0
POINT
  5
15ED
330
B64
100
AcDbEntity
  8
0
  6
Continuous
 62
     1
100
AcDbPoint
 10
116.0
 20
89.84999999999997
 30
0.0
  0
LINE
  5
15EE
330
B64
100
AcDbEntity
  8
0
  6
Continuous
 62
     1
100
AcDbLine
 10
115.7
 20
88.34999999999999
 30
0.0
 11
116.7
 21
89.54999999999998
 31
0.0
  0
LINE
  5
15EF
330
B64
100
AcDbEntity
  8
0
  6
Continuous
 62
     1
100
AcDbLine
 10
117.1
 20
89.45
 30
0.0
 11
115.9
 21
87.94999999999998
 31
0.0
  0
LINE
  5
15F0
330
B64
100
AcDbEntity
  8
0
  6
Continuous
 62
     1
100
AcDbLine
 10
111.0999999999996
 20
88.34999999999999
 30
0.0
 11
115.7999999999999
 21
88.34999999999999
 31
0.0
  0
LINE
  5
15F1
330
B64
100
AcDbEntity
  8
0
  6
Continuous
 62
     1
100
AcDbLine
 10
115.746875
 20
87.825
 30
0.0
 11
115.109375
 21
83.72499999999998
 31
0.0
  0
LINE
  5
15F2
330
B64
100
AcDbEntity
  8
0
  6
Continuous
 62
     1
100
AcDbLine
 10
117.2
 20
89.464285714
 30
0.0
 11
117.4
 21
89.34999999999998
 31
0.0
  0
LINE
  5
15F3
330
B64
100
AcDbEntity
  8
0
  6
Continuous
 62
     1
100
AcDbLine
 10
116.7
 20
89.74999999999999
 30
0.0
 11
116.7999999999999
 21
89.69285714299999
 31
0.0
  0
LINE
  5
15F4
330
B64
100
AcDbEntity
  8
0
  6
Continuous
 62
     1
100
AcDbLine
 10
117.434375
 20
89.325
 30
0.0
 11
116.4843749999999
 21
82.72499999999999
 31
0.0
  0
POINT
  5
15F5
330
B64
100
AcDbEntity
  8
0
  6
Continuous
 62
     1
100
AcDbPoint
 10
122.0
 20
75.84999999999998
 30
0.0
  0
LINE
  5
15F6
330
B64
100
AcDbEntity
  8
0
  6
Continuous
 62
     1
100
AcDbLine
 10
127.2
 20
77.54999999999999
 30
0.0
 11
128.3
 21
76.45
 31
0.0
  0
LINE
  5
15F7
330
B64
100
AcDbEntity
  8
0
  6
Continuous
 62
     1
100
AcDbLine
 10
127.0
 20
77.34999999999998
 30
0.0
 11
128.0999999999999
 21
76.25
 31
0.0
  0
LINE
  5
15F8
330
B64
100
AcDbEntity
  8
0
  6
Continuous
 62
     1
100
AcDbLine
 10
122.1999999999999
 20
77.54999999999999
 30
0.0
 11
120.7999999999999
 21
76.54999999999998
 31
0.0
  0
LINE
  5
15F9
330
B64
100
AcDbEntity
  8
0
  6
Continuous
 62
     1
100
AcDbLine
 10
121.0
 20
76.34999999999998
 30
0.0
 11
122.1999999999999
 21
77.25
 31
0.0
  0
LINE
  5
15FA
330
B64
100
AcDbEntity
  8
0
  6
Continuous
 62
     1
100
AcDbLine
 10
120.6124999999999
 20
76.75
 30
0.0
 11
121.5
 21
82.84999999999998
 31
0.0
  0
LINE
  5
15FB
330
B64
100
AcDbEntity
  8
0
  6
Continuous
 62
     1
100
AcDbLine
 10
120.933333333
 20
76.25
 30
0.0
 11
121.1999999999999
 21
75.84999999999998
 31
0.0
  0
LINE
  5
15FC
330
B64
100
AcDbEntity
  8
0
  6
Continuous
 62
     1
100
AcDbLine
 10
120.5999999999997
 20
76.75
 30
0.0
 11
120.7999999999999
 21
76.45
 31
0.0
  0
LINE
  5
15FD
330
B64
100
AcDbEntity
  8
0
  6
Continuous
 62
     1
100
AcDbLine
 10
127.0
 20
77.34999999999998
 30
0.0
 11
122.1999999999999
 21
77.34999999999998
 31
0.0
  0
LINE
  5
15FE
330
B64
100
AcDbEntity
  8
0
  6
Continuous
 62
     1
100
AcDbLine
 10
128.3
 20
76.394444444
 30
0.0
 11
128.4999999999998
 21
76.54999999999998
 31
0.0
  0
LINE
  5
15FF
330
B64
100
AcDbEntity
  8
0
  6
Continuous
 62
     1
100
AcDbLine
 10
127.6
 20
75.84999999999998
 30
0.0
 11
128.0999999999999
 21
76.23888888899998
 31
0.0
  0
LINE
  5
1600
330
B64
100
AcDbEntity
  8
0
  6
Continuous
 62
     1
100
AcDbLine
 10
127.6
 20
75.84999999999998
 30
0.0
 11
121.1
 21
75.84999999999998
 31
0.0
  0
LINE
  5
1601
330
B64
100
AcDbEntity
  8
0
  6
Continuous
 62
     1
100
AcDbLine
 10
129.409375
 20
82.125
 30
0.0
 11
128.5843749999999
 21
76.525
 31
0.0
  0
LINE
  5
1602
330
B64
100
AcDbEntity
  8
0
  6
Continuous
 62
     1
100
AcDbLine
 10
114.2
 20
77.54999999999999
 30
0.0
 11
115.3
 21
76.45
 31
0.0
  0
LINE
  5
1603
330
B64
100
AcDbEntity
  8
0
  6
Continuous
 62
     1
100
AcDbLine
 10
114.0
 20
77.34999999999998
 30
0.0
 11
115.1
 21
76.25
 31
0.0
  0
LINE
  5
1604
330
B64
100
AcDbEntity
  8
0
  6
Continuous
 62
     1
100
AcDbLine
 10
114.0
 20
77.34999999999998
 30
0.0
 11
109.2
 21
77.34999999999998
 31
0.0
  0
LINE
  5
1605
330
B64
100
AcDbEntity
  8
0
  6
Continuous
 62
     1
100
AcDbLine
 10
115.3
 20
76.394444444
 30
0.0
 11
115.5
 21
76.54999999999998
 31
0.0
  0
LINE
  5
1606
330
B64
100
AcDbEntity
  8
0
  6
Continuous
 62
     1
100
AcDbLine
 10
114.5999999999997
 20
75.84999999999998
 30
0.0
 11
115.1
 21
76.23888888899998
 31
0.0
  0
LINE
  5
1607
330
B64
100
AcDbEntity
  8
0
  6
Continuous
 62
     1
100
AcDbLine
 10
116.4093749999999
 20
82.125
 30
0.0
 11
115.584375
 21
76.525
 31
0.0
  0
LINE
  5
1608
330
B64
100
AcDbEntity
  8
0
  6
Continuous
 62
     1
100
AcDbLine
 10
114.7499999999999
 20
81.59999999999998
 30
0.0
 11
114.25
 21
77.59999999999998
 31
0.0
  0
LINE
  5
1609
330
B64
100
AcDbEntity
  8
0
  6
Continuous
 62
     1
100
AcDbLine
 10
127.75
 20
81.59999999999998
 30
0.0
 11
127.2499999999999
 21
77.59999999999998
 31
0.0
  0
LINE
  5
160A
330
B64
100
AcDbEntity
  8
0
  6
Continuous
 62
     1
100
AcDbLine
 10
122.75
 20
81.84999999999998
 30
0.0
 11
122.2499999999999
 21
77.84999999999998
 31
0.0
  0
LINE
  5
160B
330
B64
100
AcDbEntity
  8
0
  6
Continuous
 62
     1
100
AcDbLine
 10
124.0999999999996
 20
88.34999999999999
 30
0.0
 11
128.6999999999999
 21
88.34999999999999
 31
0.0
  0
LINE
  5
160C
330
B64
100
AcDbEntity
  8
0
  6
Continuous
 62
     1
100
AcDbLine
 10
124.081818182
 20
88.34999999999999
 30
0.0
 11
123.0999999999996
 21
89.54999999999998
 31
0.0
  0
LINE
  5
160D
330
B64
100
AcDbEntity
  8
0
  6
Continuous
 62
     1
100
AcDbLine
 10
128.6999999999999
 20
88.34999999999999
 30
0.0
 11
129.783333333
 21
89.65000000000001
 31
0.0
  0
LINE
  5
160E
330
B64
100
AcDbEntity
  8
0
  6
Continuous
 62
     1
100
AcDbLine
 10
129.6
 20
89.80714285700001
 30
0.0
 11
129.8
 21
89.69285714299999
 31
0.0
  0
LINE
  5
160F
330
B64
100
AcDbEntity
  8
0
  6
Continuous
 62
     1
100
AcDbLine
 10
109.2
 20
77.54999999999999
 30
0.0
 11
107.8
 21
76.54999999999998
 31
0.0
  0
LINE
  5
1610
330
B64
100
AcDbEntity
  8
0
  6
Continuous
 62
     1
100
AcDbLine
 10
108.0
 20
76.34999999999998
 30
0.0
 11
109.2
 21
77.25
 31
0.0
  0
LINE
  5
1611
330
B64
100
AcDbEntity
  8
0
  6
Continuous
 62
     1
100
AcDbLine
 10
107.6124999999999
 20
76.75
 30
0.0
 11
108.4999999999999
 21
82.84999999999998
 31
0.0
  0
LINE
  5
1612
330
B64
100
AcDbEntity
  8
0
  6
Continuous
 62
     1
100
AcDbLine
 10
107.9333333329998
 20
76.25
 30
0.0
 11
108.2
 21
75.84999999999998
 31
0.0
  0
LINE
  5
1613
330
B64
100
AcDbEntity
  8
0
  6
Continuous
 62
     1
100
AcDbLine
 10
107.6
 20
76.75
 30
0.0
 11
107.8
 21
76.45
 31
0.0
  0
LINE
  5
1614
330
B64
100
AcDbEntity
  8
0
  6
Continuous
 62
     1
100
AcDbLine
 10
114.5999999999997
 20
75.84999999999998
 30
0.0
 11
108.0999999999997
 21
75.84999999999998
 31
0.0
  0
LINE
  5
1615
330
B64
100
AcDbEntity
  8
0
  6
Continuous
 62
     1
100
AcDbLine
 10
109.25
 20
77.59999999999998
 30
0.0
 11
109.7499999999999
 21
81.59999999999998
 31
0.0
  0
LINE
  5
1616
330
B64
100
AcDbEntity
  8
0
  6
Continuous
 62
     1
100
AcDbLine
 10
110.0999999999997
 20
83.54999999999998
 30
0.0
 11
108.8
 21
82.94999999999998
 31
0.0
  0
LINE
  5
1617
330
B64
100
AcDbEntity
  8
0
  6
Continuous
 62
     1
100
AcDbLine
 10
108.8
 20
82.94999999999998
 30
0.0
 11
110.0
 21
82.04999999999998
 31
0.0
  0
LINE
  5
1618
330
B64
100
AcDbEntity
  8
0
  6
Continuous
 62
     1
100
AcDbLine
 10
109.8
 20
81.84999999999998
 30
0.0
 11
108.4999999999999
 21
82.75
 31
0.0
  0
LINE
  5
1619
330
B64
100
AcDbEntity
  8
0
  6
Continuous
 62
     1
100
AcDbLine
 10
108.6
 20
83.15000000000003
 30
0.0
 11
110.0999999999997
 21
83.95000000000001
 31
0.0
  0
LINE
  5
161A
330
B64
100
AcDbEntity
  8
0
  6
Continuous
 62
     1
100
AcDbLine
 10
112.5
 20
83.54999999999998
 30
0.0
 11
110.2
 21
83.54999999999998
 31
0.0
  0
LINE
  5
161B
330
B64
100
AcDbEntity
  8
0
  6
Continuous
 62
     1
100
AcDbLine
 10
110.0999999999997
 20
82.04999999999998
 30
0.0
 11
115.1
 21
82.04999999999998
 31
0.0
  0
LINE
  5
161C
330
B64
100
AcDbEntity
  8
0
  6
Continuous
 62
     1
100
AcDbLine
 10
110.1593749999999
 20
84.12499999999999
 30
0.0
 11
110.7718749999998
 21
88.025
 31
0.0
  0
LINE
  5
161D
330
B64
100
AcDbEntity
  8
0
  6
Continuous
 62
     1
100
AcDbLine
 10
108.534375
 20
83.125
 30
0.0
 11
109.3968749999997
 21
89.02500000000001
 31
0.0
  0
LINE
  5
161E
330
B64
100
AcDbEntity
  8
0
  6
Continuous
 62
     1
100
AcDbLine
 10
109.6999999999999
 20
89.321428571
 30
0.0
 11
109.4999999999999
 21
89.15
 31
0.0
  0
LINE
  5
161F
330
B64
100
AcDbEntity
  8
0
  6
Continuous
 62
     1
100
AcDbLine
 10
110.2
 20
89.74999999999999
 30
0.0
 11
110.0999999999997
 21
89.66428571399998
 31
0.0
  0
LINE
  5
1620
330
B64
100
AcDbEntity
  8
0
  6
Continuous
 62
     1
100
AcDbLine
 10
111.0
 20
88.45
 30
0.0
 11
110.0999999999997
 21
89.54999999999998
 31
0.0
  0
LINE
  5
1621
330
B64
100
AcDbEntity
  8
0
  6
Continuous
 62
     1
100
AcDbLine
 10
110.8
 20
88.04999999999997
 30
0.0
 11
109.8
 21
89.34999999999998
 31
0.0
  0
LINE
  5
1622
330
B64
100
AcDbEntity
  8
0
  6
Continuous
 62
     1
100
AcDbLine
 10
110.2999999999999
 20
89.84999999999997
 30
0.0
 11
116.5999999999997
 21
89.84999999999997
 31
0.0
  0
LINE
  5
1623
330
B64
100
AcDbEntity
  8
0
  6
Continuous
 62
     1
100
AcDbLine
 10
138.5
 20
83.54999999999998
 30
0.0
 11
136.1999999999996
 21
83.54999999999998
 31
0.0
  0
LINE
  5
1624
330
B64
100
AcDbEntity
  8
0
  6
Continuous
 62
     1
100
AcDbLine
 10
136.0999999999999
 20
82.04999999999998
 30
0.0
 11
141.1
 21
82.04999999999998
 31
0.0
  0
LINE
  5
1625
330
B64
100
AcDbEntity
  8
0
  6
Continuous
 62
     1
100
AcDbLine
 10
141.1
 20
83.75
 30
0.0
 11
142.4
 21
82.75
 31
0.0
  0
LINE
  5
1626
330
B64
100
AcDbEntity
  8
0
  6
Continuous
 62
     1
100
AcDbLine
 10
141.0
 20
83.45
 30
0.0
 11
142.3
 21
82.45
 31
0.0
  0
LINE
  5
1627
330
B64
100
AcDbEntity
  8
0
  6
Continuous
 62
     1
100
AcDbLine
 10
142.3
 20
82.45
 30
0.0
 11
140.8999999999998
 21
82.04999999999998
 31
0.0
  0
LINE
  5
1628
330
B64
100
AcDbEntity
  8
0
  6
Continuous
 62
     1
100
AcDbLine
 10
140.8999999999998
 20
81.75
 30
0.0
 11
142.4
 21
82.15000000000001
 31
0.0
  0
LINE
  5
1629
330
B64
100
AcDbEntity
  8
0
  6
Continuous
 62
     1
100
AcDbLine
 10
136.0999999999999
 20
83.54999999999998
 30
0.0
 11
134.8
 21
82.94999999999998
 31
0.0
  0
LINE
  5
162A
330
B64
100
AcDbEntity
  8
0
  6
Continuous
 62
     1
100
AcDbLine
 10
134.8
 20
82.94999999999998
 30
0.0
 11
136.0
 21
82.04999999999998
 31
0.0
  0
LINE
  5
162B
330
B64
100
AcDbEntity
  8
0
  6
Continuous
 62
     1
100
AcDbLine
 10
135.8
 20
81.84999999999998
 30
0.0
 11
134.4999999999996
 21
82.75
 31
0.0
  0
LINE
  5
162C
330
B64
100
AcDbEntity
  8
0
  6
Continuous
 62
     1
100
AcDbLine
 10
134.5999999999999
 20
83.15000000000003
 30
0.0
 11
136.0999999999999
 21
83.95000000000001
 31
0.0
  0
LINE
  5
162D
330
B64
100
AcDbEntity
  8
0
  6
Continuous
 62
     1
100
AcDbLine
 10
140.8999999999998
 20
83.54999999999998
 30
0.0
 11
138.5999999999999
 21
83.54999999999998
 31
0.0
  0
POINT
  5
162E
330
B64
100
AcDbEntity
  8
0
  6
Continuous
 62
     1
100
AcDbPoint
 10
142.0
 20
89.84999999999997
 30
0.0
  0
LINE
  5
162F
330
B64
100
AcDbEntity
  8
0
  6
Continuous
 62
     1
100
AcDbLine
 10
143.1
 20
89.45
 30
0.0
 11
141.9
 21
87.94999999999998
 31
0.0
  0
LINE
  5
1630
330
B64
100
AcDbEntity
  8
0
  6
Continuous
 62
     1
100
AcDbLine
 10
136.8
 20
88.04999999999997
 30
0.0
 11
135.8
 21
89.34999999999998
 31
0.0
  0
LINE
  5
1631
330
B64
100
AcDbEntity
  8
0
  6
Continuous
 62
     1
100
AcDbLine
 10
136.159375
 20
84.12499999999999
 30
0.0
 11
136.7718749999999
 21
88.025
 31
0.0
  0
LINE
  5
1632
330
B64
100
AcDbEntity
  8
0
  6
Continuous
 62
     1
100
AcDbLine
 10
135.6999999999999
 20
89.321428571
 30
0.0
 11
135.4999999999996
 21
89.15
 31
0.0
  0
LINE
  5
1633
330
B64
100
AcDbEntity
  8
0
  6
Continuous
 62
     1
100
AcDbLine
 10
136.1999999999996
 20
89.74999999999999
 30
0.0
 11
136.0999999999999
 21
89.66428571399998
 31
0.0
  0
LINE
  5
1634
330
B64
100
AcDbEntity
  8
0
  6
Continuous
 62
     1
100
AcDbLine
 10
134.534375
 20
83.125
 30
0.0
 11
135.3968749999999
 21
89.02500000000001
 31
0.0
  0
LINE
  5
1635
330
B64
100
AcDbEntity
  8
0
  6
Continuous
 62
     1
100
AcDbLine
 10
141.7468749999999
 20
87.825
 30
0.0
 11
141.109375
 21
83.72499999999998
 31
0.0
  0
LINE
  5
1636
330
B64
100
AcDbEntity
  8
0
  6
Continuous
 62
     1
100
AcDbLine
 10
143.1999999999999
 20
89.464285714
 30
0.0
 11
143.4
 21
89.34999999999998
 31
0.0
  0
LINE
  5
1637
330
B64
100
AcDbEntity
  8
0
  6
Continuous
 62
     1
100
AcDbLine
 10
136.3
 20
89.84999999999997
 30
0.0
 11
142.5999999999999
 21
89.84999999999997
 31
0.0
  0
LINE
  5
1638
330
B64
100
AcDbEntity
  8
0
  6
Continuous
 62
     1
100
AcDbLine
 10
143.4343749999999
 20
89.325
 30
0.0
 11
142.4843749999998
 21
82.72499999999999
 31
0.0
  0
POINT
  5
1639
330
B64
100
AcDbEntity
  8
0
  6
Continuous
 62
     1
100
AcDbPoint
 10
135.0
 20
75.84999999999998
 30
0.0
  0
LINE
  5
163A
330
B64
100
AcDbEntity
  8
0
  6
Continuous
 62
     1
100
AcDbLine
 10
140.1999999999999
 20
77.54999999999999
 30
0.0
 11
141.3
 21
76.45
 31
0.0
  0
LINE
  5
163B
330
B64
100
AcDbEntity
  8
0
  6
Continuous
 62
     1
100
AcDbLine
 10
140.0
 20
77.34999999999998
 30
0.0
 11
141.1
 21
76.25
 31
0.0
  0
LINE
  5
163C
330
B64
100
AcDbEntity
  8
0
  6
Continuous
 62
     1
100
AcDbLine
 10
135.1999999999996
 20
77.54999999999999
 30
0.0
 11
133.8
 21
76.54999999999998
 31
0.0
  0
LINE
  5
163D
330
B64
100
AcDbEntity
  8
0
  6
Continuous
 62
     1
100
AcDbLine
 10
134.0
 20
76.34999999999998
 30
0.0
 11
135.1999999999996
 21
77.25
 31
0.0
  0
LINE
  5
163E
330
B64
100
AcDbEntity
  8
0
  6
Continuous
 62
     1
100
AcDbLine
 10
133.6125
 20
76.75
 30
0.0
 11
134.4999999999996
 21
82.84999999999998
 31
0.0
  0
LINE
  5
163F
330
B64
100
AcDbEntity
  8
0
  6
Continuous
 62
     1
100
AcDbLine
 10
133.9333333329998
 20
76.25
 30
0.0
 11
134.1999999999996
 21
75.84999999999998
 31
0.0
  0
LINE
  5
1640
330
B64
100
AcDbEntity
  8
0
  6
Continuous
 62
     1
100
AcDbLine
 10
133.6
 20
76.75
 30
0.0
 11
133.8
 21
76.45
 31
0.0
  0
LINE
  5
1641
330
B64
100
AcDbEntity
  8
0
  6
Continuous
 62
     1
100
AcDbLine
 10
140.0
 20
77.34999999999998
 30
0.0
 11
135.1999999999996
 21
77.34999999999998
 31
0.0
  0
LINE
  5
1642
330
B64
100
AcDbEntity
  8
0
  6
Continuous
 62
     1
100
AcDbLine
 10
141.3
 20
76.394444444
 30
0.0
 11
141.5
 21
76.54999999999998
 31
0.0
  0
LINE
  5
1643
330
B64
100
AcDbEntity
  8
0
  6
Continuous
 62
     1
100
AcDbLine
 10
140.5999999999997
 20
75.84999999999998
 30
0.0
 11
141.1
 21
76.23888888899998
 31
0.0
  0
LINE
  5
1644
330
B64
100
AcDbEntity
  8
0
  6
Continuous
 62
     1
100
AcDbLine
 10
140.5999999999997
 20
75.84999999999998
 30
0.0
 11
134.0999999999999
 21
75.84999999999998
 31
0.0
  0
LINE
  5
1645
330
B64
100
AcDbEntity
  8
0
  6
Continuous
 62
     1
100
AcDbLine
 10
142.409375
 20
82.125
 30
0.0
 11
141.584375
 21
76.525
 31
0.0
  0
LINE
  5
1646
330
B64
100
AcDbEntity
  8
0
  6
Continuous
 62
     1
100
AcDbLine
 10
140.7499999999996
 20
81.59999999999998
 30
0.0
 11
140.25
 21
77.59999999999998
 31
0.0
  0
LINE
  5
1647
330
B64
100
AcDbEntity
  8
0
  6
Continuous
 62
     1
100
AcDbLine
 10
135.7499999999996
 20
81.84999999999998
 30
0.0
 11
135.25
 21
77.84999999999998
 31
0.0
  0
LINE
  5
1648
330
B64
100
AcDbEntity
  8
0
  6
Continuous
 62
     1
100
AcDbLine
 10
137.0999999999999
 20
88.34999999999999
 30
0.0
 11
141.6999999999999
 21
88.34999999999999
 31
0.0
  0
LINE
  5
1649
330
B64
100
AcDbEntity
  8
0
  6
Continuous
 62
     1
100
AcDbLine
 10
137.081818182
 20
88.34999999999999
 30
0.0
 11
136.0999999999999
 21
89.54999999999998
 31
0.0
  0
LINE
  5
164A
330
B64
100
AcDbEntity
  8
0
  6
Continuous
 62
     1
100
AcDbLine
 10
141.6999999999999
 20
88.34999999999999
 30
0.0
 11
142.7833333329998
 21
89.65000000000001
 31
0.0
  0
LINE
  5
164B
330
B64
100
AcDbEntity
  8
0
  6
Continuous
 62
     1
100
AcDbLine
 10
142.5999999999999
 20
89.80714285700001
 30
0.0
 11
142.8
 21
89.69285714299999
 31
0.0
  0
LINE
  5
164C
330
B64
100
AcDbEntity
  8
0
  6
LTYPE1
 62
     1
100
AcDbLine
 10
240.0
 20
182.0
 30
0.0
 11
250.0
 21
182.0
 31
0.0
  0
LINE
  5
164D
330
B64
100
AcDbEntity
  8
0
  6
LTYPE1
 62
     1
100
AcDbLine
 10
250.0
 20
178.0
 30
0.0
 11
248.0
 21
178.0
 31
0.0
  0
LINE
  5
164E
330
B64
100
AcDbEntity
  8
0
  6
LTYPE1
 62
     1
100
AcDbLine
 10
242.0
 20
178.0
 30
0.0
 11
240.0
 21
178.0
 31
0.0
  0
LINE
  5
164F
330
B64
100
AcDbEntity
  8
1
  6
Continuous
 62
     4
100
AcDbLine
 10
248.2499999999999
 20
194.8
 30
0.0
 11
266.7499999999999
 21
194.8
 31
0.0
  0
LINE
  5
1650
330
B64
100
AcDbEntity
  8
1
  6
Continuous
 62
     4
100
AcDbLine
 10
265.75
 20
194.8
 30
0.0
 11
265.361771432
 21
193.3511112609996
 31
0.0
  0
LINE
  5
1651
330
B64
100
AcDbEntity
  8
1
  6
Continuous
 62
     4
100
AcDbLine
 10
265.75
 20
194.8
 30
0.0
 11
266.1382285679998
 21
193.3511112609996
 31
0.0
  0
LINE
  5
1652
330
B64
100
AcDbEntity
  8
1
  6
Continuous
 62
     4
100
AcDbLine
 10
265.75
 20
194.8
 30
0.0
 11
265.75
 21
122.3
 31
0.0
  0
LINE
  5
1653
330
B64
100
AcDbEntity
  8
0
  6
Continuous
 62
     6
100
AcDbLine
 10
220.55
 20
146.5
 30
0.0
 11
219.55
 21
146.5
 31
0.0
  0
LINE
  5
1654
330
B64
100
AcDbEntity
  8
0
  6
Continuous
 62
     6
100
AcDbLine
 10
239.5999999999999
 20
146.5
 30
0.0
 11
238.6
 21
146.5
 31
0.0
  0
POINT
  5
1655
330
B64
100
AcDbEntity
  8
0
  6
Continuous
 62
     3
100
AcDbPoint
 10
82.79999999999999
 20
75.84999999999998
 30
0.0
  0
LINE
  5
1656
330
B64
100
AcDbEntity
  8
0
  6
Continuous
 62
     1
100
AcDbLine
 10
88.9
 20
83.75
 30
0.0
 11
90.20000000000001
 21
82.75
 31
0.0
  0
LINE
  5
1657
330
B64
100
AcDbEntity
  8
0
  6
Continuous
 62
     1
100
AcDbLine
 10
88.79999999999999
 20
83.45
 30
0.0
 11
90.09999999999999
 21
82.45
 31
0.0
  0
LINE
  5
1658
330
B64
100
AcDbEntity
  8
0
  6
Continuous
 62
     1
100
AcDbLine
 10
90.09999999999999
 20
82.45
 30
0.0
 11
88.7
 21
82.04999999999998
 31
0.0
  0
LINE
  5
1659
330
B64
100
AcDbEntity
  8
0
  6
Continuous
 62
     1
100
AcDbLine
 10
88.7
 20
81.75
 30
0.0
 11
90.20000000000001
 21
82.15000000000001
 31
0.0
  0
LINE
  5
165A
330
B64
100
AcDbEntity
  8
0
  6
Continuous
 62
     1
100
AcDbLine
 10
88.7
 20
83.54999999999998
 30
0.0
 11
86.4
 21
83.54999999999998
 31
0.0
  0
POINT
  5
165B
330
B64
100
AcDbEntity
  8
0
  6
Continuous
 62
     1
100
AcDbPoint
 10
89.79999999999998
 20
89.84999999999997
 30
0.0
  0
LINE
  5
165C
330
B64
100
AcDbEntity
  8
0
  6
Continuous
 62
     1
100
AcDbLine
 10
89.50000000000001
 20
88.34999999999999
 30
0.0
 11
90.5
 21
89.54999999999998
 31
0.0
  0
LINE
  5
165D
330
B64
100
AcDbEntity
  8
0
  6
Continuous
 62
     1
100
AcDbLine
 10
90.90000000000001
 20
89.45
 30
0.0
 11
89.7
 21
87.94999999999998
 31
0.0
  0
LINE
  5
165E
330
B64
100
AcDbEntity
  8
0
  6
Continuous
 62
     1
100
AcDbLine
 10
84.9
 20
88.34999999999999
 30
0.0
 11
89.59999999999999
 21
88.34999999999999
 31
0.0
  0
LINE
  5
165F
330
B64
100
AcDbEntity
  8
0
  6
Continuous
 62
     1
100
AcDbLine
 10
89.546875
 20
87.825
 30
0.0
 11
88.90937499999997
 21
83.72499999999998
 31
0.0
  0
LINE
  5
1660
330
B64
100
AcDbEntity
  8
0
  6
Continuous
 62
     1
100
AcDbLine
 10
91.0
 20
89.464285714
 30
0.0
 11
91.2
 21
89.34999999999998
 31
0.0
  0
LINE
  5
1661
330
B64
100
AcDbEntity
  8
0
  6
Continuous
 62
     1
100
AcDbLine
 10
90.5
 20
89.74999999999999
 30
0.0
 11
90.6
 21
89.69285714299999
 31
0.0
  0
LINE
  5
1662
330
B64
100
AcDbEntity
  8
0
  6
Continuous
 62
     1
100
AcDbLine
 10
91.23437499999999
 20
89.325
 30
0.0
 11
90.284375
 21
82.72499999999999
 31
0.0
  0
LINE
  5
1663
330
B64
100
AcDbEntity
  8
0
  6
Continuous
 62
     1
100
AcDbLine
 10
88.0
 20
77.54999999999999
 30
0.0
 11
89.09999999999998
 21
76.45
 31
0.0
  0
LINE
  5
1664
330
B64
100
AcDbEntity
  8
0
  6
Continuous
 62
     1
100
AcDbLine
 10
87.79999999999999
 20
77.34999999999998
 30
0.0
 11
88.9
 21
76.25
 31
0.0
  0
LINE
  5
1665
330
B64
100
AcDbEntity
  8
0
  6
Continuous
 62
     1
100
AcDbLine
 10
87.79999999999999
 20
77.34999999999998
 30
0.0
 11
83.0
 21
77.34999999999998
 31
0.0
  0
LINE
  5
1666
330
B64
100
AcDbEntity
  8
0
  6
Continuous
 62
     1
100
AcDbLine
 10
89.09999999999998
 20
76.394444444
 30
0.0
 11
89.29999999999997
 21
76.54999999999998
 31
0.0
  0
LINE
  5
1667
330
B64
100
AcDbEntity
  8
0
  6
Continuous
 62
     1
100
AcDbLine
 10
88.40000000000001
 20
75.84999999999998
 30
0.0
 11
88.9
 21
76.23888888899998
 31
0.0
  0
LINE
  5
1668
330
B64
100
AcDbEntity
  8
0
  6
Continuous
 62
     1
100
AcDbLine
 10
90.209375
 20
82.125
 30
0.0
 11
89.384375
 21
76.525
 31
0.0
  0
LINE
  5
1669
330
B64
100
AcDbEntity
  8
0
  6
Continuous
 62
     1
100
AcDbLine
 10
88.54999999999998
 20
81.59999999999998
 30
0.0
 11
88.04999999999997
 21
77.59999999999998
 31
0.0
  0
LINE
  5
166A
330
B64
100
AcDbEntity
  8
0
  6
Continuous
 62
     1
100
AcDbLine
 10
83.0
 20
77.54999999999999
 30
0.0
 11
81.59999999999998
 21
76.54999999999998
 31
0.0
  0
LINE
  5
166B
330
B64
100
AcDbEntity
  8
0
  6
Continuous
 62
     1
100
AcDbLine
 10
81.79999999999997
 20
76.34999999999998
 30
0.0
 11
83.0
 21
77.25
 31
0.0
  0
LINE
  5
166C
330
B64
100
AcDbEntity
  8
0
  6
Continuous
 62
     1
100
AcDbLine
 10
81.41249999999997
 20
76.75
 30
0.0
 11
82.29999999999998
 21
82.84999999999998
 31
0.0
  0
LINE
  5
166D
330
B64
100
AcDbEntity
  8
0
  6
Continuous
 62
     1
100
AcDbLine
 10
81.733333333
 20
76.25
 30
0.0
 11
82.0
 21
75.84999999999998
 31
0.0
  0
LINE
  5
166E
330
B64
100
AcDbEntity
  8
0
  6
Continuous
 62
     1
100
AcDbLine
 10
81.4
 20
76.75
 30
0.0
 11
81.59999999999998
 21
76.45
 31
0.0
  0
LINE
  5
166F
330
B64
100
AcDbEntity
  8
0
  6
Continuous
 62
     1
100
AcDbLine
 10
88.40000000000001
 20
75.84999999999998
 30
0.0
 11
81.90000000000003
 21
75.84999999999998
 31
0.0
  0
LINE
  5
1670
330
B64
100
AcDbEntity
  8
0
  6
Continuous
 62
     1
100
AcDbLine
 10
83.04999999999997
 20
77.59999999999998
 30
0.0
 11
83.54999999999998
 21
81.59999999999998
 31
0.0
  0
LINE
  5
1671
330
B64
100
AcDbEntity
  8
0
  6
Continuous
 62
     1
100
AcDbLine
 10
83.9
 20
83.54999999999998
 30
0.0
 11
82.59999999999998
 21
82.94999999999998
 31
0.0
  0
LINE
  5
1672
330
B64
100
AcDbEntity
  8
0
  6
Continuous
 62
     1
100
AcDbLine
 10
82.59999999999998
 20
82.94999999999998
 30
0.0
 11
83.79999999999999
 21
82.04999999999998
 31
0.0
  0
LINE
  5
1673
330
B64
100
AcDbEntity
  8
0
  6
Continuous
 62
     1
100
AcDbLine
 10
83.59999999999997
 20
81.84999999999998
 30
0.0
 11
82.29999999999998
 21
82.75
 31
0.0
  0
LINE
  5
1674
330
B64
100
AcDbEntity
  8
0
  6
Continuous
 62
     1
100
AcDbLine
 10
82.4
 20
83.15000000000003
 30
0.0
 11
83.9
 21
83.95000000000001
 31
0.0
  0
LINE
  5
1675
330
B64
100
AcDbEntity
  8
0
  6
Continuous
 62
     1
100
AcDbLine
 10
86.29999999999999
 20
83.54999999999998
 30
0.0
 11
84.0
 21
83.54999999999998
 31
0.0
  0
LINE
  5
1676
330
B64
100
AcDbEntity
  8
0
  6
Continuous
 62
     1
100
AcDbLine
 10
83.9
 20
82.04999999999998
 30
0.0
 11
88.9
 21
82.04999999999998
 31
0.0
  0
LINE
  5
1677
330
B64
100
AcDbEntity
  8
0
  6
Continuous
 62
     1
100
AcDbLine
 10
83.95937499999998
 20
84.12499999999999
 30
0.0
 11
84.57187500000001
 21
88.025
 31
0.0
  0
LINE
  5
1678
330
B64
100
AcDbEntity
  8
0
  6
Continuous
 62
     1
100
AcDbLine
 10
82.33437499999999
 20
83.125
 30
0.0
 11
83.196875
 21
89.02500000000001
 31
0.0
  0
LINE
  5
1679
330
B64
100
AcDbEntity
  8
0
  6
Continuous
 62
     1
100
AcDbLine
 10
83.49999999999999
 20
89.321428571
 30
0.0
 11
83.29999999999998
 21
89.15
 31
0.0
  0
LINE
  5
167A
330
B64
100
AcDbEntity
  8
0
  6
Continuous
 62
     1
100
AcDbLine
 10
84.0
 20
89.74999999999999
 30
0.0
 11
83.9
 21
89.66428571399998
 31
0.0
  0
LINE
  5
167B
330
B64
100
AcDbEntity
  8
0
  6
Continuous
 62
     1
100
AcDbLine
 10
84.79999999999998
 20
88.45
 30
0.0
 11
83.9
 21
89.54999999999998
 31
0.0
  0
LINE
  5
167C
330
B64
100
AcDbEntity
  8
0
  6
Continuous
 62
     1
100
AcDbLine
 10
84.59999999999999
 20
88.04999999999997
 30
0.0
 11
83.59999999999997
 21
89.34999999999998
 31
0.0
  0
LINE
  5
167D
330
B64
100
AcDbEntity
  8
0
  6
Continuous
 62
     1
100
AcDbLine
 10
84.09999999999998
 20
89.84999999999997
 30
0.0
 11
90.4
 21
89.84999999999997
 31
0.0
  0
LINE
  5
167E
330
B64
100
AcDbEntity
  8
0
  6
Continuous
 62
     1
100
AcDbLine
 10
75.0
 20
82.0
 30
0.0
 11
75.0
 21
83.49999999999999
 31
0.0
  0
LINE
  5
167F
330
B64
100
AcDbEntity
  8
0
  6
Continuous
 62
     1
100
AcDbLine
 10
71.0
 20
82.0
 30
0.0
 11
71.0
 21
83.49999999999999
 31
0.0
  0
LINE
  5
1680
330
B64
100
AcDbEntity
  8
0
  6
Continuous
 62
     1
100
AcDbLine
 10
72.9
 20
83.54999999999998
 30
0.0
 11
71.0
 21
83.54999999999998
 31
0.0
  0
LINE
  5
1681
330
B64
100
AcDbEntity
  8
0
  6
Continuous
 62
     1
100
AcDbLine
 10
71.0
 20
82.04999999999998
 30
0.0
 11
75.0
 21
82.04999999999998
 31
0.0
  0
LINE
  5
1682
330
B64
100
AcDbEntity
  8
0
  6
Continuous
 62
     1
100
AcDbLine
 10
75.0
 20
83.54999999999998
 30
0.0
 11
73.0
 21
83.54999999999998
 31
0.0
  0
LINE
  5
1683
330
B64
100
AcDbEntity
  8
0
  6
LTYPE1
 62
     1
100
AcDbLine
 10
250.0
 20
175.0
 30
0.0
 11
250.0
 21
191.0
 31
0.0
  0
LINE
  5
1684
330
B64
100
AcDbEntity
  8
0
  6
LTYPE1
 62
     1
100
AcDbLine
 10
240.0
 20
191.0
 30
0.0
 11
240.0
 21
175.0
 31
0.0
  0
LINE
  5
1685
330
B64
100
AcDbEntity
  8
0
  6
LTYPE1
 62
     1
100
AcDbLine
 10
240.0
 20
191.0
 30
0.0
 11
250.0
 21
191.0
 31
0.0
  0
LINE
  5
1686
330
B64
100
AcDbEntity
  8
0
  6
LTYPE1
 62
     1
100
AcDbLine
 10
247.9499999999999
 20
191.0
 30
0.0
 11
247.9499999999999
 21
195.0
 31
0.0
  0
LINE
  5
1687
330
B64
100
AcDbEntity
  8
0
  6
LTYPE1
 62
     1
100
AcDbLine
 10
247.9499999999999
 20
195.0
 30
0.0
 11
246.95
 21
195.0
 31
0.0
  0
LINE
  5
1688
330
B64
100
AcDbEntity
  8
0
  6
LTYPE1
 62
     1
100
AcDbLine
 10
246.95
 20
195.0
 30
0.0
 11
246.95
 21
191.0
 31
0.0
  0
LINE
  5
1689
330
B64
100
AcDbEntity
  8
0
  6
LTYPE1
 62
     1
100
AcDbLine
 10
242.9499999999999
 20
191.0
 30
0.0
 11
242.9499999999999
 21
195.0
 31
0.0
  0
LINE
  5
168A
330
B64
100
AcDbEntity
  8
0
  6
LTYPE1
 62
     1
100
AcDbLine
 10
242.9499999999999
 20
195.0
 30
0.0
 11
241.9499999999999
 21
195.0
 31
0.0
  0
LINE
  5
168B
330
B64
100
AcDbEntity
  8
0
  6
LTYPE1
 62
     1
100
AcDbLine
 10
241.9499999999999
 20
195.0
 30
0.0
 11
241.9499999999999
 21
191.0
 31
0.0
  0
TEXT
  5
168C
330
B64
100
AcDbEntity
  8
1
  6
Continuous
 62
     4
100
AcDbText
 10
264.7499999999999
 20
153.9499999999998
 30
0.0
 40
2.0
  1
７３
 50
90.0
 41
0.925
  7
KANJI4
100
AcDbText
  0
LINE
  5
169C
330
B64
100
AcDbEntity
  8
0
  6
Continuous
 62
     1
100
AcDbLine
 10
64.0
 20
128.4999999999998
 30
0.0
 11
64.0
 21
122.0
 31
0.0
  0
ENDSEC
  0
SECTION
  2
OBJECTS
  0
DICTIONARY
  5
B52
330
0
100
AcDbDictionary
281
     1
  3
ACAD_GROUP
350
B53
  3
ACAD_PLOTSTYLENAME
350
B54
  3
ACAD_MLINESTYLE
350
B5C
  3
ACAD_PLOTSETTINGS
350
B5E
  3
ACAD_LAYOUT
350
B5F
  0
DICTIONARY
  5
B53
102
{ACAD_REACTORS
330
B52
102
}
330
B52
100
AcDbDictionary
281
     1
  0
ACDBDICTIONARYWDFLT
  5
B54
102
{ACAD_REACTORS
330
B52
102
}
330
B52
100
AcDbDictionary
281
     1
  3
Normal
350
B55
100
AcDbDictionaryWithDefault
340
B55
  0
DICTIONARY
  5
B5C
102
{ACAD_REACTORS
330
B52
102
}
330
B52
100
AcDbDictionary
281
     1
  3
Standard
350
B5D
  0
DICTIONARY
  5
B5E
102
{ACAD_REACTORS
330
B52
102
}
330
B52
100
AcDbDictionary
281
     1
  0
DICTIONARY
  5
B5F
102
{ACAD_REACTORS
330
B52
102
}
330
B52
100
AcDbDictionary
281
     1
  3
ﾚｲｱｳﾄ1
350
B63
  3
Model
350
B67
  0
ACDBPLACEHOLDER
  5
B55
102
{ACAD_REACTORS
330
B54
102
}
330
B54
  0
MLINESTYLE
  5
B5D
102
{ACAD_REACTORS
330
B5C
102
}
330
B5C
100
AcDbMlineStyle
  2
STANDARD
 70
     0
  3

 62
   256
 51
90.0
 52
90.0
 71
     2
 49
0.5
 62
   256
  6
BYLAYER
 49
-0.5
 62
   256
  6
BYLAYER
  0
LAYOUT
  5
B63
102
{ACAD_REACTORS
330
B5F
102
}
330
B5F
100
AcDbPlotSettings
  1

  2
Canon LBP-880
  4

  6

 40
0.0
 41
0.0
 42
0.0
 43
0.0
 44
0.0
 45
0.0
 46
0.0
 47
0.0
 48
0.0
 49
0.0
140
0.0
141
0.0
142
1.0
143
1.0
 70
   688
 72
     0
 73
     0
 74
     5
  7

 75
    16
147
1.0
148
0.0
149
0.0
100
AcDbLayout
  1
ﾚｲｱｳﾄ1
 70
     1
 71
     1
 10
0.0
 20
0.0
 11
12.0
 21
9.0
 12
0.0
 22
0.0
 32
0.0
 14
1.000000000000000E+20
 24
1.000000000000000E+20
 34
1.000000000000000E+20
 15
-1.000000000000000E+20
 25
-1.000000000000000E+20
 35
-1.000000000000000E+20
146
0.0
 13
0.0
 23
0.0
 33
0.0
 16
1.0
 26
0.0
 36
0.0
 17
0.0
 27
1.0
 37
0.0
 76
     0
330
B60
  0
LAYOUT
  5
B67
102
{ACAD_REACTORS
330
B5F
102
}
330
B5F
100
AcDbPlotSettings
  1

  2
Canon LBP-880
  4

  6

 40
0.0
 41
0.0
 42
0.0
 43
0.0
 44
0.0
 45
0.0
 46
0.0
 47
0.0
 48
0.0
 49
0.0
140
0.0
141
0.0
142
1.0
143
1.0
 70
  1712
 72
     0
 73
     0
 74
     0
  7

 75
     0
147
1.0
148
0.0
149
0.0
100
AcDbLayout
  1
Model
 70
     1
 71
     0
 10
0.0
 20
0.0
 11
12.0
 21
9.0
 12
0.0
 22
0.0
 32
0.0
 14
0.0
 24
0.0
 34
0.0
 15
0.0
 25
0.0
 35
0.0
146
0.0
 13
0.0
 23
0.0
 33
0.0
 16
1.0
 26
0.0
 36
0.0
 17
0.0
 27
1.0
 37
0.0
 76
     0
330
B64
  0
ENDSEC
  0
EOF
