  0
SECTION
  2
HEADER
  9
$ACADVER
  1
AC1015
  9
$ACADMAINTVER
 70
     6
  9
$DWGCODEPAGE
  3
ANSI_932
  9
$INSBASE
 10
0.0
 20
0.0
 30
0.0
  9
$EXTMIN
 10
-5.941616374145985E+73
 20
-1.269263905633295E+99
 30
0.0
  9
$EXTMAX
 10
6.282985302827068E+99
 20
5.941616374145985E+73
 30
0.4
  9
$LIMMIN
 10
0.0
 20
0.0
  9
$LIMMAX
 10
12.0
 20
9.0
  9
$ORTHOMODE
 70
     0
  9
$REGENMODE
 70
     1
  9
$FILLMODE
 70
     1
  9
$QTEXTMODE
 70
     0
  9
$MIRRTEXT
 70
     1
  9
$LTSCALE
 40
1.0
  9
$ATTMODE
 70
     1
  9
$TEXTSIZE
 40
0.2
  9
$TRACEWID
 40
0.05
  9
$TEXTSTYLE
  7
STANDARD
  9
$CLAYER
  8
0
  9
$CELTYPE
  6
CONTINUOUS
  9
$CECOLOR
 62
   256
  9
$CELTSCALE
 40
1.0
  9
$DISPSILH
 70
     0
  9
$DIMSCALE
 40
1.0
  9
$DIMASZ
 40
0.18
  9
$DIMEXO
 40
0.0625
  9
$DIMDLI
 40
0.38
  9
$DIMRND
 40
0.0
  9
$DIMDLE
 40
0.0
  9
$DIMEXE
 40
0.18
  9
$DIMTP
 40
0.0
  9
$DIMTM
 40
0.0
  9
$DIMTXT
 40
0.18
  9
$DIMCEN
 40
0.09
  9
$DIMTSZ
 40
0.0
  9
$DIMTOL
 70
     0
  9
$DIMLIM
 70
     0
  9
$DIMTIH
 70
     1
  9
$DIMTOH
 70
     1
  9
$DIMSE1
 70
     0
  9
$DIMSE2
 70
     0
  9
$DIMTAD
 70
     0
  9
$DIMZIN
 70
     0
  9
$DIMBLK
  1

  9
$DIMASO
 70
     1
  9
$DIMSHO
 70
     1
  9
$DIMPOST
  1

  9
$DIMAPOST
  1

  9
$DIMALT
 70
     0
  9
$DIMALTD
 70
     2
  9
$DIMALTF
 40
25.4
  9
$DIMLFAC
 40
1.0
  9
$DIMTOFL
 70
     0
  9
$DIMTVP
 40
0.0
  9
$DIMTIX
 70
     0
  9
$DIMSOXD
 70
     0
  9
$DIMSAH
 70
     0
  9
$DIMBLK1
  1

  9
$DIMBLK2
  1

  9
$DIMSTYLE
  2
STANDARD
  9
$DIMCLRD
 70
     0
  9
$DIMCLRE
 70
     0
  9
$DIMCLRT
 70
     0
  9
$DIMTFAC
 40
1.0
  9
$DIMGAP
 40
0.09
  9
$DIMJUST
 70
     0
  9
$DIMSD1
 70
     0
  9
$DIMSD2
 70
     0
  9
$DIMTOLJ
 70
     1
  9
$DIMTZIN
 70
     0
  9
$DIMALTZ
 70
     0
  9
$DIMALTTZ
 70
     0
  9
$DIMUPT
 70
     0
  9
$DIMDEC
 70
     4
  9
$DIMTDEC
 70
     4
  9
$DIMALTU
 70
     2
  9
$DIMALTTD
 70
     2
  9
$DIMTXSTY
  7
STANDARD
  9
$DIMAUNIT
 70
     0
  9
$DIMADEC
 70
     0
  9
$DIMALTRND
 40
0.0
  9
$DIMAZIN
 70
     0
  9
$DIMDSEP
 70
    46
  9
$DIMATFIT
 70
     3
  9
$DIMFRAC
 70
     0
  9
$DIMLDRBLK
  1

  9
$DIMLUNIT
 70
     2
  9
$DIMLWD
 70
    -2
  9
$DIMLWE
 70
    -2
  9
$DIMTMOVE
 70
     0
  9
$LUNITS
 70
     2
  9
$LUPREC
 70
     4
  9
$SKETCHINC
 40
0.1
  9
$FILLETRAD
 40
0.0
  9
$AUNITS
 70
     0
  9
$AUPREC
 70
     0
  9
$MENU
  1
.
  9
$ELEVATION
 40
0.0
  9
$PELEVATION
 40
0.0
  9
$THICKNESS
 40
0.0
  9
$LIMCHECK
 70
     0
  9
$CHAMFERA
 40
0.0
  9
$CHAMFERB
 40
0.0
  9
$CHAMFERC
 40
0.0
  9
$CHAMFERD
 40
0.0
  9
$SKPOLY
 70
     0
  9
$TDCREATE
 40
2452153.685971863
  9
$TDUCREATE
 40
2452153.310971863
  9
$TDUPDATE
 40
2452723.623204051
  9
$TDUUPDATE
 40
2452723.248204051
  9
$TDINDWG
 40
0.0058979282
  9
$TDUSRTIMER
 40
0.0058965394
  9
$USRTIMER
 70
     1
  9
$ANGBASE
 50
0.0
  9
$ANGDIR
 70
     0
  9
$PDMODE
 70
     0
  9
$PDSIZE
 40
0.0
  9
$PLINEWID
 40
0.0
  9
$SPLFRAME
 70
     0
  9
$SPLINETYPE
 70
     6
  9
$SPLINESEGS
 70
     8
  9
$HANDSEED
  5
FB6
  9
$SURFTAB1
 70
     6
  9
$SURFTAB2
 70
     6
  9
$SURFTYPE
 70
     6
  9
$SURFU
 70
     6
  9
$SURFV
 70
     6
  9
$UCSBASE
  2

  9
$UCSNAME
  2

  9
$UCSORG
 10
0.0
 20
0.0
 30
0.0
  9
$UCSXDIR
 10
1.0
 20
0.0
 30
0.0
  9
$UCSYDIR
 10
0.0
 20
1.0
 30
0.0
  9
$UCSORTHOREF
  2

  9
$UCSORTHOVIEW
 70
     0
  9
$UCSORGTOP
 10
0.0
 20
0.0
 30
0.0
  9
$UCSORGBOTTOM
 10
0.0
 20
0.0
 30
0.0
  9
$UCSORGLEFT
 10
0.0
 20
0.0
 30
0.0
  9
$UCSORGRIGHT
 10
0.0
 20
0.0
 30
0.0
  9
$UCSORGFRONT
 10
0.0
 20
0.0
 30
0.0
  9
$UCSORGBACK
 10
0.0
 20
0.0
 30
0.0
  9
$PUCSBASE
  2

  9
$PUCSNAME
  2

  9
$PUCSORG
 10
0.0
 20
0.0
 30
0.0
  9
$PUCSXDIR
 10
1.0
 20
0.0
 30
0.0
  9
$PUCSYDIR
 10
0.0
 20
1.0
 30
0.0
  9
$PUCSORTHOREF
  2

  9
$PUCSORTHOVIEW
 70
     0
  9
$PUCSORGTOP
 10
0.0
 20
0.0
 30
0.0
  9
$PUCSORGBOTTOM
 10
0.0
 20
0.0
 30
0.0
  9
$PUCSORGLEFT
 10
0.0
 20
0.0
 30
0.0
  9
$PUCSORGRIGHT
 10
0.0
 20
0.0
 30
0.0
  9
$PUCSORGFRONT
 10
0.0
 20
0.0
 30
0.0
  9
$PUCSORGBACK
 10
0.0
 20
0.0
 30
0.0
  9
$USERI1
 70
     0
  9
$USERI2
 70
     0
  9
$USERI3
 70
     0
  9
$USERI4
 70
     0
  9
$USERI5
 70
     0
  9
$USERR1
 40
0.0
  9
$USERR2
 40
0.0
  9
$USERR3
 40
0.0
  9
$USERR4
 40
0.0
  9
$USERR5
 40
0.0
  9
$WORLDVIEW
 70
     1
  9
$SHADEDGE
 70
     3
  9
$SHADEDIF
 70
    70
  9
$TILEMODE
 70
     1
  9
$MAXACTVP
 70
    64
  9
$PINSBASE
 10
0.0
 20
0.0
 30
0.0
  9
$PLIMCHECK
 70
     0
  9
$PEXTMIN
 10
1.000000000000000E+20
 20
1.000000000000000E+20
 30
1.000000000000000E+20
  9
$PEXTMAX
 10
-1.000000000000000E+20
 20
-1.000000000000000E+20
 30
-1.000000000000000E+20
  9
$PLIMMIN
 10
0.0
 20
0.0
  9
$PLIMMAX
 10
12.0
 20
9.0
  9
$UNITMODE
 70
     0
  9
$VISRETAIN
 70
     1
  9
$PLINEGEN
 70
     0
  9
$PSLTSCALE
 70
     1
  9
$TREEDEPTH
 70
  3020
  9
$CMLSTYLE
  2
Standard
  9
$CMLJUST
 70
     0
  9
$CMLSCALE
 40
1.0
  9
$PROXYGRAPHICS
 70
     1
  9
$MEASUREMENT
 70
     0
  9
$CELWEIGHT
370
    -1
  9
$ENDCAPS
280
     0
  9
$JOINSTYLE
280
     0
  9
$LWDISPLAY
290
     0
  9
$INSUNITS
 70
     0
  9
$HYPERLINKBASE
  1

  9
$STYLESHEET
  1

  9
$XEDIT
290
     1
  9
$CEPSNTYPE
380
     0
  9
$PSTYLEMODE
290
     1
  9
$FINGERPRINTGUID
  2
{2E270A88-4FE3-11D7-9C19-0040267F10D4}
  9
$VERSIONGUID
  2
{897AE18F-5E08-11D7-9C19-0040267F10D4}
  9
$EXTNAMES
290
     1
  9
$PSVPSCALE
 40
0.0
  9
$OLESTARTUP
290
     0
  0
ENDSEC
  0
SECTION
  2
CLASSES
  0
CLASS
  1
ACDBDICTIONARYWDFLT
  2
AcDbDictionaryWithDefault
  3
AutoCAD 2000
 90
        0
280
     0
281
     0
  0
CLASS
  1
ACDBPLACEHOLDER
  2
AcDbPlaceHolder
  3
AutoCAD 2000
 90
        0
280
     0
281
     0
  0
CLASS
  1
LAYOUT
  2
AcDbLayout
  3
AutoCAD 2000
 90
        0
280
     0
281
     0
  0
ENDSEC
  0
SECTION
  2
TABLES
  0
TABLE
  2
VPORT
  5
7DA
330
0
100
AcDbSymbolTable
 70
     3
  0
VPORT
  5
FB5
330
7DA
100
AcDbSymbolTableRecord
100
AcDbViewportTableRecord
  2
*Active
 70
     0
 10
0.0
 20
0.0
 11
1.0
 21
1.0
 12
188.2891443074009
 22
90.18784783664159
 13
0.0
 23
0.0
 14
1.0
 24
1.0
 15
0.0
 25
0.0
 16
0.0
 26
0.0
 36
1.0
 17
0.0
 27
0.0
 37
0.0
 40
174.0384792864788
 41
2.210374639769452
 42
50.0
 43
0.0
 44
0.0
 50
0.0
 51
0.0
 71
     0
 72
   100
 73
     1
 74
     1
 75
     0
 76
     0
 77
     0
 78
     0
281
     0
 65
     1
110
0.0
120
0.0
130
0.0
111
1.0
121
0.0
131
0.0
112
0.0
122
1.0
132
0.0
 79
     0
146
0.0
  0
ENDTAB
  0
TABLE
  2
LTYPE
  5
7D7
330
0
100
AcDbSymbolTable
 70
     3
  0
LTYPE
  5
7E5
330
7D7
100
AcDbSymbolTableRecord
100
AcDbLinetypeTableRecord
  2
ByBlock
 70
     0
  3

 72
    65
 73
     0
 40
0.0
  0
LTYPE
  5
7E6
330
7D7
100
AcDbSymbolTableRecord
100
AcDbLinetypeTableRecord
  2
ByLayer
 70
     0
  3

 72
    65
 73
     0
 40
0.0
  0
LTYPE
  5
7E7
330
7D7
100
AcDbSymbolTableRecord
100
AcDbLinetypeTableRecord
  2
CONTINUOUS
 70
     0
  3
Solid line
 72
    65
 73
     0
 40
0.0
  0
LTYPE
  5
7F5
330
7D7
100
AcDbSymbolTableRecord
100
AcDbLinetypeTableRecord
  2
LTYPE1
 70
     0
  3
HIDDEN
 72
    65
 73
     2
 40
3.0
 49
1.8
 74
     0
 49
-1.199999999999999
 74
     0
  0
LTYPE
  5
7F6
330
7D7
100
AcDbSymbolTableRecord
100
AcDbLinetypeTableRecord
  2
LTYPE2
 70
     0
  3
CENTER
 72
    65
 73
     4
 40
10.0
 49
7.0
 74
     0
 49
-1.0
 74
     0
 49
1.0
 74
     0
 49
-1.0
 74
     0
  0
ENDTAB
  0
TABLE
  2
LAYER
  5
7D4
330
0
100
AcDbSymbolTable
 70
   128
  0
LAYER
  5
7E2
330
7D4
100
AcDbSymbolTableRecord
100
AcDbLayerTableRecord
  2
0
 70
     0
 62
     7
  6
CONTINUOUS
370
    -3
390
7E1
  0
LAYER
  5
7F7
330
7D4
100
AcDbSymbolTableRecord
100
AcDbLayerTableRecord
  2
1
 70
     0
 62
     7
  6
CONTINUOUS
370
    -3
390
7E1
  0
LAYER
  5
7F8
330
7D4
100
AcDbSymbolTableRecord
100
AcDbLayerTableRecord
  2
2
 70
     0
 62
     7
  6
CONTINUOUS
370
    -3
390
7E1
  0
LAYER
  5
7F9
330
7D4
100
AcDbSymbolTableRecord
100
AcDbLayerTableRecord
  2
3
 70
     0
 62
     7
  6
CONTINUOUS
370
    -3
390
7E1
  0
LAYER
  5
7FA
330
7D4
100
AcDbSymbolTableRecord
100
AcDbLayerTableRecord
  2
4
 70
     0
 62
     7
  6
CONTINUOUS
370
    -3
390
7E1
  0
LAYER
  5
7FB
330
7D4
100
AcDbSymbolTableRecord
100
AcDbLayerTableRecord
  2
5
 70
     0
 62
     7
  6
CONTINUOUS
370
    -3
390
7E1
  0
LAYER
  5
7FC
330
7D4
100
AcDbSymbolTableRecord
100
AcDbLayerTableRecord
  2
6
 70
     0
 62
     7
  6
CONTINUOUS
370
    -3
390
7E1
  0
LAYER
  5
7FD
330
7D4
100
AcDbSymbolTableRecord
100
AcDbLayerTableRecord
  2
7
 70
     0
 62
     7
  6
CONTINUOUS
370
    -3
390
7E1
  0
LAYER
  5
7FE
330
7D4
100
AcDbSymbolTableRecord
100
AcDbLayerTableRecord
  2
8
 70
     0
 62
     7
  6
CONTINUOUS
370
    -3
390
7E1
  0
LAYER
  5
7FF
330
7D4
100
AcDbSymbolTableRecord
100
AcDbLayerTableRecord
  2
9
 70
     0
 62
     7
  6
CONTINUOUS
370
    -3
390
7E1
  0
LAYER
  5
800
330
7D4
100
AcDbSymbolTableRecord
100
AcDbLayerTableRecord
  2
10
 70
     0
 62
     7
  6
CONTINUOUS
370
    -3
390
7E1
  0
LAYER
  5
801
330
7D4
100
AcDbSymbolTableRecord
100
AcDbLayerTableRecord
  2
11
 70
     0
 62
     7
  6
CONTINUOUS
370
    -3
390
7E1
  0
LAYER
  5
802
330
7D4
100
AcDbSymbolTableRecord
100
AcDbLayerTableRecord
  2
12
 70
     0
 62
     7
  6
CONTINUOUS
370
    -3
390
7E1
  0
LAYER
  5
803
330
7D4
100
AcDbSymbolTableRecord
100
AcDbLayerTableRecord
  2
13
 70
     0
 62
     7
  6
CONTINUOUS
370
    -3
390
7E1
  0
LAYER
  5
804
330
7D4
100
AcDbSymbolTableRecord
100
AcDbLayerTableRecord
  2
14
 70
     0
 62
     7
  6
CONTINUOUS
370
    -3
390
7E1
  0
LAYER
  5
805
330
7D4
100
AcDbSymbolTableRecord
100
AcDbLayerTableRecord
  2
15
 70
     0
 62
     7
  6
CONTINUOUS
370
    -3
390
7E1
  0
LAYER
  5
806
330
7D4
100
AcDbSymbolTableRecord
100
AcDbLayerTableRecord
  2
16
 70
     0
 62
     7
  6
CONTINUOUS
370
    -3
390
7E1
  0
LAYER
  5
807
330
7D4
100
AcDbSymbolTableRecord
100
AcDbLayerTableRecord
  2
17
 70
     0
 62
     7
  6
CONTINUOUS
370
    -3
390
7E1
  0
LAYER
  5
808
330
7D4
100
AcDbSymbolTableRecord
100
AcDbLayerTableRecord
  2
18
 70
     0
 62
     7
  6
CONTINUOUS
370
    -3
390
7E1
  0
LAYER
  5
809
330
7D4
100
AcDbSymbolTableRecord
100
AcDbLayerTableRecord
  2
19
 70
     0
 62
     7
  6
CONTINUOUS
370
    -3
390
7E1
  0
LAYER
  5
80A
330
7D4
100
AcDbSymbolTableRecord
100
AcDbLayerTableRecord
  2
20
 70
     0
 62
     7
  6
CONTINUOUS
370
    -3
390
7E1
  0
LAYER
  5
80B
330
7D4
100
AcDbSymbolTableRecord
100
AcDbLayerTableRecord
  2
21
 70
     0
 62
     7
  6
CONTINUOUS
370
    -3
390
7E1
  0
LAYER
  5
80C
330
7D4
100
AcDbSymbolTableRecord
100
AcDbLayerTableRecord
  2
22
 70
     0
 62
     7
  6
CONTINUOUS
370
    -3
390
7E1
  0
LAYER
  5
80D
330
7D4
100
AcDbSymbolTableRecord
100
AcDbLayerTableRecord
  2
23
 70
     0
 62
     7
  6
CONTINUOUS
370
    -3
390
7E1
  0
LAYER
  5
80E
330
7D4
100
AcDbSymbolTableRecord
100
AcDbLayerTableRecord
  2
24
 70
     0
 62
     7
  6
CONTINUOUS
370
    -3
390
7E1
  0
LAYER
  5
80F
330
7D4
100
AcDbSymbolTableRecord
100
AcDbLayerTableRecord
  2
25
 70
     0
 62
     7
  6
CONTINUOUS
370
    -3
390
7E1
  0
LAYER
  5
810
330
7D4
100
AcDbSymbolTableRecord
100
AcDbLayerTableRecord
  2
26
 70
     0
 62
     7
  6
CONTINUOUS
370
    -3
390
7E1
  0
LAYER
  5
811
330
7D4
100
AcDbSymbolTableRecord
100
AcDbLayerTableRecord
  2
27
 70
     0
 62
     7
  6
CONTINUOUS
370
    -3
390
7E1
  0
LAYER
  5
812
330
7D4
100
AcDbSymbolTableRecord
100
AcDbLayerTableRecord
  2
28
 70
     0
 62
     7
  6
CONTINUOUS
370
    -3
390
7E1
  0
LAYER
  5
813
330
7D4
100
AcDbSymbolTableRecord
100
AcDbLayerTableRecord
  2
29
 70
     0
 62
     7
  6
CONTINUOUS
370
    -3
390
7E1
  0
LAYER
  5
814
330
7D4
100
AcDbSymbolTableRecord
100
AcDbLayerTableRecord
  2
30
 70
     0
 62
     7
  6
CONTINUOUS
370
    -3
390
7E1
  0
LAYER
  5
815
330
7D4
100
AcDbSymbolTableRecord
100
AcDbLayerTableRecord
  2
31
 70
     0
 62
     7
  6
CONTINUOUS
370
    -3
390
7E1
  0
LAYER
  5
816
330
7D4
100
AcDbSymbolTableRecord
100
AcDbLayerTableRecord
  2
32
 70
     0
 62
     7
  6
CONTINUOUS
370
    -3
390
7E1
  0
LAYER
  5
817
330
7D4
100
AcDbSymbolTableRecord
100
AcDbLayerTableRecord
  2
33
 70
     0
 62
     7
  6
CONTINUOUS
370
    -3
390
7E1
  0
LAYER
  5
818
330
7D4
100
AcDbSymbolTableRecord
100
AcDbLayerTableRecord
  2
34
 70
     0
 62
     7
  6
CONTINUOUS
370
    -3
390
7E1
  0
LAYER
  5
819
330
7D4
100
AcDbSymbolTableRecord
100
AcDbLayerTableRecord
  2
35
 70
     0
 62
     7
  6
CONTINUOUS
370
    -3
390
7E1
  0
LAYER
  5
81A
330
7D4
100
AcDbSymbolTableRecord
100
AcDbLayerTableRecord
  2
36
 70
     0
 62
     7
  6
CONTINUOUS
370
    -3
390
7E1
  0
LAYER
  5
81B
330
7D4
100
AcDbSymbolTableRecord
100
AcDbLayerTableRecord
  2
37
 70
     0
 62
     7
  6
CONTINUOUS
370
    -3
390
7E1
  0
LAYER
  5
81C
330
7D4
100
AcDbSymbolTableRecord
100
AcDbLayerTableRecord
  2
38
 70
     0
 62
     7
  6
CONTINUOUS
370
    -3
390
7E1
  0
LAYER
  5
81D
330
7D4
100
AcDbSymbolTableRecord
100
AcDbLayerTableRecord
  2
39
 70
     0
 62
     7
  6
CONTINUOUS
370
    -3
390
7E1
  0
LAYER
  5
81E
330
7D4
100
AcDbSymbolTableRecord
100
AcDbLayerTableRecord
  2
40
 70
     0
 62
     7
  6
CONTINUOUS
370
    -3
390
7E1
  0
LAYER
  5
81F
330
7D4
100
AcDbSymbolTableRecord
100
AcDbLayerTableRecord
  2
41
 70
     0
 62
     7
  6
CONTINUOUS
370
    -3
390
7E1
  0
LAYER
  5
820
330
7D4
100
AcDbSymbolTableRecord
100
AcDbLayerTableRecord
  2
42
 70
     0
 62
     7
  6
CONTINUOUS
370
    -3
390
7E1
  0
LAYER
  5
821
330
7D4
100
AcDbSymbolTableRecord
100
AcDbLayerTableRecord
  2
43
 70
     0
 62
     7
  6
CONTINUOUS
370
    -3
390
7E1
  0
LAYER
  5
822
330
7D4
100
AcDbSymbolTableRecord
100
AcDbLayerTableRecord
  2
44
 70
     0
 62
     7
  6
CONTINUOUS
370
    -3
390
7E1
  0
LAYER
  5
823
330
7D4
100
AcDbSymbolTableRecord
100
AcDbLayerTableRecord
  2
45
 70
     0
 62
     7
  6
CONTINUOUS
370
    -3
390
7E1
  0
LAYER
  5
824
330
7D4
100
AcDbSymbolTableRecord
100
AcDbLayerTableRecord
  2
46
 70
     0
 62
     7
  6
CONTINUOUS
370
    -3
390
7E1
  0
LAYER
  5
825
330
7D4
100
AcDbSymbolTableRecord
100
AcDbLayerTableRecord
  2
47
 70
     0
 62
     7
  6
CONTINUOUS
370
    -3
390
7E1
  0
LAYER
  5
826
330
7D4
100
AcDbSymbolTableRecord
100
AcDbLayerTableRecord
  2
48
 70
     0
 62
     7
  6
CONTINUOUS
370
    -3
390
7E1
  0
LAYER
  5
827
330
7D4
100
AcDbSymbolTableRecord
100
AcDbLayerTableRecord
  2
49
 70
     0
 62
     7
  6
CONTINUOUS
370
    -3
390
7E1
  0
LAYER
  5
828
330
7D4
100
AcDbSymbolTableRecord
100
AcDbLayerTableRecord
  2
50
 70
     0
 62
     7
  6
CONTINUOUS
370
    -3
390
7E1
  0
LAYER
  5
829
330
7D4
100
AcDbSymbolTableRecord
100
AcDbLayerTableRecord
  2
51
 70
     0
 62
     7
  6
CONTINUOUS
370
    -3
390
7E1
  0
LAYER
  5
82A
330
7D4
100
AcDbSymbolTableRecord
100
AcDbLayerTableRecord
  2
52
 70
     0
 62
     7
  6
CONTINUOUS
370
    -3
390
7E1
  0
LAYER
  5
82B
330
7D4
100
AcDbSymbolTableRecord
100
AcDbLayerTableRecord
  2
53
 70
     0
 62
     7
  6
CONTINUOUS
370
    -3
390
7E1
  0
LAYER
  5
82C
330
7D4
100
AcDbSymbolTableRecord
100
AcDbLayerTableRecord
  2
54
 70
     0
 62
     7
  6
CONTINUOUS
370
    -3
390
7E1
  0
LAYER
  5
82D
330
7D4
100
AcDbSymbolTableRecord
100
AcDbLayerTableRecord
  2
55
 70
     0
 62
     7
  6
CONTINUOUS
370
    -3
390
7E1
  0
LAYER
  5
82E
330
7D4
100
AcDbSymbolTableRecord
100
AcDbLayerTableRecord
  2
56
 70
     0
 62
     7
  6
CONTINUOUS
370
    -3
390
7E1
  0
LAYER
  5
82F
330
7D4
100
AcDbSymbolTableRecord
100
AcDbLayerTableRecord
  2
57
 70
     0
 62
     7
  6
CONTINUOUS
370
    -3
390
7E1
  0
LAYER
  5
830
330
7D4
100
AcDbSymbolTableRecord
100
AcDbLayerTableRecord
  2
58
 70
     0
 62
     7
  6
CONTINUOUS
370
    -3
390
7E1
  0
LAYER
  5
831
330
7D4
100
AcDbSymbolTableRecord
100
AcDbLayerTableRecord
  2
59
 70
     0
 62
     7
  6
CONTINUOUS
370
    -3
390
7E1
  0
LAYER
  5
832
330
7D4
100
AcDbSymbolTableRecord
100
AcDbLayerTableRecord
  2
60
 70
     0
 62
     7
  6
CONTINUOUS
370
    -3
390
7E1
  0
LAYER
  5
833
330
7D4
100
AcDbSymbolTableRecord
100
AcDbLayerTableRecord
  2
61
 70
     0
 62
     7
  6
CONTINUOUS
370
    -3
390
7E1
  0
LAYER
  5
834
330
7D4
100
AcDbSymbolTableRecord
100
AcDbLayerTableRecord
  2
62
 70
     0
 62
     7
  6
CONTINUOUS
370
    -3
390
7E1
  0
LAYER
  5
835
330
7D4
100
AcDbSymbolTableRecord
100
AcDbLayerTableRecord
  2
63
 70
     0
 62
     7
  6
CONTINUOUS
370
    -3
390
7E1
  0
LAYER
  5
836
330
7D4
100
AcDbSymbolTableRecord
100
AcDbLayerTableRecord
  2
64
 70
     0
 62
     7
  6
CONTINUOUS
370
    -3
390
7E1
  0
LAYER
  5
837
330
7D4
100
AcDbSymbolTableRecord
100
AcDbLayerTableRecord
  2
65
 70
     0
 62
     7
  6
CONTINUOUS
370
    -3
390
7E1
  0
LAYER
  5
838
330
7D4
100
AcDbSymbolTableRecord
100
AcDbLayerTableRecord
  2
66
 70
     0
 62
     7
  6
CONTINUOUS
370
    -3
390
7E1
  0
LAYER
  5
839
330
7D4
100
AcDbSymbolTableRecord
100
AcDbLayerTableRecord
  2
67
 70
     0
 62
     7
  6
CONTINUOUS
370
    -3
390
7E1
  0
LAYER
  5
83A
330
7D4
100
AcDbSymbolTableRecord
100
AcDbLayerTableRecord
  2
68
 70
     0
 62
     7
  6
CONTINUOUS
370
    -3
390
7E1
  0
LAYER
  5
83B
330
7D4
100
AcDbSymbolTableRecord
100
AcDbLayerTableRecord
  2
69
 70
     0
 62
     7
  6
CONTINUOUS
370
    -3
390
7E1
  0
LAYER
  5
83C
330
7D4
100
AcDbSymbolTableRecord
100
AcDbLayerTableRecord
  2
70
 70
     0
 62
     7
  6
CONTINUOUS
370
    -3
390
7E1
  0
LAYER
  5
83D
330
7D4
100
AcDbSymbolTableRecord
100
AcDbLayerTableRecord
  2
71
 70
     0
 62
     7
  6
CONTINUOUS
370
    -3
390
7E1
  0
LAYER
  5
83E
330
7D4
100
AcDbSymbolTableRecord
100
AcDbLayerTableRecord
  2
72
 70
     0
 62
     7
  6
CONTINUOUS
370
    -3
390
7E1
  0
LAYER
  5
83F
330
7D4
100
AcDbSymbolTableRecord
100
AcDbLayerTableRecord
  2
73
 70
     0
 62
     7
  6
CONTINUOUS
370
    -3
390
7E1
  0
LAYER
  5
840
330
7D4
100
AcDbSymbolTableRecord
100
AcDbLayerTableRecord
  2
74
 70
     0
 62
     7
  6
CONTINUOUS
370
    -3
390
7E1
  0
LAYER
  5
841
330
7D4
100
AcDbSymbolTableRecord
100
AcDbLayerTableRecord
  2
75
 70
     0
 62
     7
  6
CONTINUOUS
370
    -3
390
7E1
  0
LAYER
  5
842
330
7D4
100
AcDbSymbolTableRecord
100
AcDbLayerTableRecord
  2
76
 70
     0
 62
     7
  6
CONTINUOUS
370
    -3
390
7E1
  0
LAYER
  5
843
330
7D4
100
AcDbSymbolTableRecord
100
AcDbLayerTableRecord
  2
77
 70
     0
 62
     7
  6
CONTINUOUS
370
    -3
390
7E1
  0
LAYER
  5
844
330
7D4
100
AcDbSymbolTableRecord
100
AcDbLayerTableRecord
  2
78
 70
     0
 62
     7
  6
CONTINUOUS
370
    -3
390
7E1
  0
LAYER
  5
845
330
7D4
100
AcDbSymbolTableRecord
100
AcDbLayerTableRecord
  2
79
 70
     0
 62
     7
  6
CONTINUOUS
370
    -3
390
7E1
  0
LAYER
  5
846
330
7D4
100
AcDbSymbolTableRecord
100
AcDbLayerTableRecord
  2
80
 70
     0
 62
     7
  6
CONTINUOUS
370
    -3
390
7E1
  0
LAYER
  5
847
330
7D4
100
AcDbSymbolTableRecord
100
AcDbLayerTableRecord
  2
81
 70
     0
 62
     7
  6
CONTINUOUS
370
    -3
390
7E1
  0
LAYER
  5
848
330
7D4
100
AcDbSymbolTableRecord
100
AcDbLayerTableRecord
  2
82
 70
     0
 62
     7
  6
CONTINUOUS
370
    -3
390
7E1
  0
LAYER
  5
849
330
7D4
100
AcDbSymbolTableRecord
100
AcDbLayerTableRecord
  2
83
 70
     0
 62
     7
  6
CONTINUOUS
370
    -3
390
7E1
  0
LAYER
  5
84A
330
7D4
100
AcDbSymbolTableRecord
100
AcDbLayerTableRecord
  2
84
 70
     0
 62
     7
  6
CONTINUOUS
370
    -3
390
7E1
  0
LAYER
  5
84B
330
7D4
100
AcDbSymbolTableRecord
100
AcDbLayerTableRecord
  2
85
 70
     0
 62
     7
  6
CONTINUOUS
370
    -3
390
7E1
  0
LAYER
  5
84C
330
7D4
100
AcDbSymbolTableRecord
100
AcDbLayerTableRecord
  2
86
 70
     0
 62
     7
  6
CONTINUOUS
370
    -3
390
7E1
  0
LAYER
  5
84D
330
7D4
100
AcDbSymbolTableRecord
100
AcDbLayerTableRecord
  2
87
 70
     0
 62
     7
  6
CONTINUOUS
370
    -3
390
7E1
  0
LAYER
  5
84E
330
7D4
100
AcDbSymbolTableRecord
100
AcDbLayerTableRecord
  2
88
 70
     0
 62
     7
  6
CONTINUOUS
370
    -3
390
7E1
  0
LAYER
  5
84F
330
7D4
100
AcDbSymbolTableRecord
100
AcDbLayerTableRecord
  2
89
 70
     0
 62
     7
  6
CONTINUOUS
370
    -3
390
7E1
  0
LAYER
  5
850
330
7D4
100
AcDbSymbolTableRecord
100
AcDbLayerTableRecord
  2
90
 70
     0
 62
     7
  6
CONTINUOUS
370
    -3
390
7E1
  0
LAYER
  5
851
330
7D4
100
AcDbSymbolTableRecord
100
AcDbLayerTableRecord
  2
91
 70
     0
 62
     7
  6
CONTINUOUS
370
    -3
390
7E1
  0
LAYER
  5
852
330
7D4
100
AcDbSymbolTableRecord
100
AcDbLayerTableRecord
  2
92
 70
     0
 62
     7
  6
CONTINUOUS
370
    -3
390
7E1
  0
LAYER
  5
853
330
7D4
100
AcDbSymbolTableRecord
100
AcDbLayerTableRecord
  2
93
 70
     0
 62
     7
  6
CONTINUOUS
370
    -3
390
7E1
  0
LAYER
  5
854
330
7D4
100
AcDbSymbolTableRecord
100
AcDbLayerTableRecord
  2
94
 70
     0
 62
     7
  6
CONTINUOUS
370
    -3
390
7E1
  0
LAYER
  5
855
330
7D4
100
AcDbSymbolTableRecord
100
AcDbLayerTableRecord
  2
95
 70
     0
 62
     7
  6
CONTINUOUS
370
    -3
390
7E1
  0
LAYER
  5
856
330
7D4
100
AcDbSymbolTableRecord
100
AcDbLayerTableRecord
  2
96
 70
     0
 62
     7
  6
CONTINUOUS
370
    -3
390
7E1
  0
LAYER
  5
857
330
7D4
100
AcDbSymbolTableRecord
100
AcDbLayerTableRecord
  2
97
 70
     0
 62
     7
  6
CONTINUOUS
370
    -3
390
7E1
  0
LAYER
  5
858
330
7D4
100
AcDbSymbolTableRecord
100
AcDbLayerTableRecord
  2
98
 70
     0
 62
     7
  6
CONTINUOUS
370
    -3
390
7E1
  0
LAYER
  5
859
330
7D4
100
AcDbSymbolTableRecord
100
AcDbLayerTableRecord
  2
99
 70
     0
 62
     7
  6
CONTINUOUS
370
    -3
390
7E1
  0
LAYER
  5
85A
330
7D4
100
AcDbSymbolTableRecord
100
AcDbLayerTableRecord
  2
100
 70
     0
 62
     7
  6
CONTINUOUS
370
    -3
390
7E1
  0
LAYER
  5
85B
330
7D4
100
AcDbSymbolTableRecord
100
AcDbLayerTableRecord
  2
101
 70
     0
 62
     7
  6
CONTINUOUS
370
    -3
390
7E1
  0
LAYER
  5
85C
330
7D4
100
AcDbSymbolTableRecord
100
AcDbLayerTableRecord
  2
102
 70
     0
 62
     7
  6
CONTINUOUS
370
    -3
390
7E1
  0
LAYER
  5
85D
330
7D4
100
AcDbSymbolTableRecord
100
AcDbLayerTableRecord
  2
103
 70
     0
 62
     7
  6
CONTINUOUS
370
    -3
390
7E1
  0
LAYER
  5
85E
330
7D4
100
AcDbSymbolTableRecord
100
AcDbLayerTableRecord
  2
104
 70
     0
 62
     7
  6
CONTINUOUS
370
    -3
390
7E1
  0
LAYER
  5
85F
330
7D4
100
AcDbSymbolTableRecord
100
AcDbLayerTableRecord
  2
105
 70
     0
 62
     7
  6
CONTINUOUS
370
    -3
390
7E1
  0
LAYER
  5
860
330
7D4
100
AcDbSymbolTableRecord
100
AcDbLayerTableRecord
  2
106
 70
     0
 62
     7
  6
CONTINUOUS
370
    -3
390
7E1
  0
LAYER
  5
861
330
7D4
100
AcDbSymbolTableRecord
100
AcDbLayerTableRecord
  2
107
 70
     0
 62
     7
  6
CONTINUOUS
370
    -3
390
7E1
  0
LAYER
  5
862
330
7D4
100
AcDbSymbolTableRecord
100
AcDbLayerTableRecord
  2
108
 70
     0
 62
     7
  6
CONTINUOUS
370
    -3
390
7E1
  0
LAYER
  5
863
330
7D4
100
AcDbSymbolTableRecord
100
AcDbLayerTableRecord
  2
109
 70
     0
 62
     7
  6
CONTINUOUS
370
    -3
390
7E1
  0
LAYER
  5
864
330
7D4
100
AcDbSymbolTableRecord
100
AcDbLayerTableRecord
  2
110
 70
     0
 62
     7
  6
CONTINUOUS
370
    -3
390
7E1
  0
LAYER
  5
865
330
7D4
100
AcDbSymbolTableRecord
100
AcDbLayerTableRecord
  2
111
 70
     0
 62
     7
  6
CONTINUOUS
370
    -3
390
7E1
  0
LAYER
  5
866
330
7D4
100
AcDbSymbolTableRecord
100
AcDbLayerTableRecord
  2
112
 70
     0
 62
     7
  6
CONTINUOUS
370
    -3
390
7E1
  0
LAYER
  5
867
330
7D4
100
AcDbSymbolTableRecord
100
AcDbLayerTableRecord
  2
113
 70
     0
 62
     7
  6
CONTINUOUS
370
    -3
390
7E1
  0
LAYER
  5
868
330
7D4
100
AcDbSymbolTableRecord
100
AcDbLayerTableRecord
  2
114
 70
     0
 62
     7
  6
CONTINUOUS
370
    -3
390
7E1
  0
LAYER
  5
869
330
7D4
100
AcDbSymbolTableRecord
100
AcDbLayerTableRecord
  2
115
 70
     0
 62
     7
  6
CONTINUOUS
370
    -3
390
7E1
  0
LAYER
  5
86A
330
7D4
100
AcDbSymbolTableRecord
100
AcDbLayerTableRecord
  2
116
 70
     0
 62
     7
  6
CONTINUOUS
370
    -3
390
7E1
  0
LAYER
  5
86B
330
7D4
100
AcDbSymbolTableRecord
100
AcDbLayerTableRecord
  2
117
 70
     0
 62
     7
  6
CONTINUOUS
370
    -3
390
7E1
  0
LAYER
  5
86C
330
7D4
100
AcDbSymbolTableRecord
100
AcDbLayerTableRecord
  2
118
 70
     0
 62
     7
  6
CONTINUOUS
370
    -3
390
7E1
  0
LAYER
  5
86D
330
7D4
100
AcDbSymbolTableRecord
100
AcDbLayerTableRecord
  2
119
 70
     0
 62
     7
  6
CONTINUOUS
370
    -3
390
7E1
  0
LAYER
  5
86E
330
7D4
100
AcDbSymbolTableRecord
100
AcDbLayerTableRecord
  2
120
 70
     0
 62
     7
  6
CONTINUOUS
370
    -3
390
7E1
  0
LAYER
  5
86F
330
7D4
100
AcDbSymbolTableRecord
100
AcDbLayerTableRecord
  2
121
 70
     0
 62
     7
  6
CONTINUOUS
370
    -3
390
7E1
  0
LAYER
  5
870
330
7D4
100
AcDbSymbolTableRecord
100
AcDbLayerTableRecord
  2
122
 70
     0
 62
     7
  6
CONTINUOUS
370
    -3
390
7E1
  0
LAYER
  5
871
330
7D4
100
AcDbSymbolTableRecord
100
AcDbLayerTableRecord
  2
123
 70
     0
 62
     7
  6
CONTINUOUS
370
    -3
390
7E1
  0
LAYER
  5
872
330
7D4
100
AcDbSymbolTableRecord
100
AcDbLayerTableRecord
  2
124
 70
     0
 62
     7
  6
CONTINUOUS
370
    -3
390
7E1
  0
LAYER
  5
873
330
7D4
100
AcDbSymbolTableRecord
100
AcDbLayerTableRecord
  2
125
 70
     0
 62
     7
  6
CONTINUOUS
370
    -3
390
7E1
  0
LAYER
  5
874
330
7D4
100
AcDbSymbolTableRecord
100
AcDbLayerTableRecord
  2
126
 70
     0
 62
     7
  6
CONTINUOUS
370
    -3
390
7E1
  0
LAYER
  5
875
330
7D4
100
AcDbSymbolTableRecord
100
AcDbLayerTableRecord
  2
127
 70
     0
 62
     7
  6
CONTINUOUS
370
    -3
390
7E1
  0
ENDTAB
  0
TABLE
  2
STYLE
  5
7D5
330
0
100
AcDbSymbolTable
 70
    12
  0
STYLE
  5
7E3
330
7D5
100
AcDbSymbolTableRecord
100
AcDbTextStyleTableRecord
  2
STANDARD
 70
     0
 40
0.0
 41
1.0
 50
0.0
 71
     0
 42
0.2
  3
txt
  4

  0
STYLE
  5
876
330
7D5
100
AcDbSymbolTableRecord
100
AcDbTextStyleTableRecord
  2
KANJI0
 70
     0
 40
1.0
 41
0.7
 50
0.0
 71
     0
 42
1.0
  3
txt
  4
bigfont
  0
STYLE
  5
877
330
7D5
100
AcDbSymbolTableRecord
100
AcDbTextStyleTableRecord
  2
KANJI1
 70
     0
 40
0.5
 41
0.7
 50
0.0
 71
     0
 42
0.5
  3
txt
  4
bigfont
  0
STYLE
  5
878
330
7D5
100
AcDbSymbolTableRecord
100
AcDbTextStyleTableRecord
  2
KANJI2
 70
     0
 40
1.5
 41
0.75
 50
0.0
 71
     0
 42
1.5
  3
txt
  4
bigfont
  0
STYLE
  5
879
330
7D5
100
AcDbSymbolTableRecord
100
AcDbTextStyleTableRecord
  2
KANJI3
 70
     0
 40
3.0
 41
0.6
 50
0.0
 71
     0
 42
3.0
  3
txt
  4
bigfont
  0
STYLE
  5
87A
330
7D5
100
AcDbSymbolTableRecord
100
AcDbTextStyleTableRecord
  2
KANJI4
 70
     0
 40
2.399999999999999
 41
0.925
 50
0.0
 71
     0
 42
2.399999999999999
  3
txt
  4
bigfont
  0
STYLE
  5
87B
330
7D5
100
AcDbSymbolTableRecord
100
AcDbTextStyleTableRecord
  2
KANJI5
 70
     0
 40
3.0
 41
0.8
 50
0.0
 71
     0
 42
3.0
  3
txt
  4
bigfont
  0
STYLE
  5
87C
330
7D5
100
AcDbSymbolTableRecord
100
AcDbTextStyleTableRecord
  2
KANJI6
 70
     0
 40
3.0
 41
0.925
 50
0.0
 71
     0
 42
3.0
  3
txt
  4
bigfont
  0
STYLE
  5
87D
330
7D5
100
AcDbSymbolTableRecord
100
AcDbTextStyleTableRecord
  2
KANJI7
 70
     0
 40
2.24
 41
0.925
 50
0.0
 71
     0
 42
2.24
  3
txt
  4
bigfont
  0
STYLE
  5
87E
330
7D5
100
AcDbSymbolTableRecord
100
AcDbTextStyleTableRecord
  2
KANJI8
 70
     0
 40
2.1
 41
0.9
 50
0.0
 71
     0
 42
2.1
  3
txt
  4
bigfont
  0
STYLE
  5
87F
330
7D5
100
AcDbSymbolTableRecord
100
AcDbTextStyleTableRecord
  2
KANJI9
 70
     0
 40
4.0
 41
0.9
 50
0.0
 71
     0
 42
4.0
  3
txt
  4
bigfont
  0
STYLE
  5
880
330
7D5
100
AcDbSymbolTableRecord
100
AcDbTextStyleTableRecord
  2
KANJI10
 70
     0
 40
3.0
 41
0.666666667
 50
0.0
 71
     0
 42
3.0
  3
txt
  4
bigfont
  0
ENDTAB
  0
TABLE
  2
VIEW
  5
7D8
330
0
100
AcDbSymbolTable
 70
     0
  0
ENDTAB
  0
TABLE
  2
UCS
  5
7D9
330
0
100
AcDbSymbolTable
 70
     0
  0
ENDTAB
  0
TABLE
  2
APPID
  5
7DB
330
0
100
AcDbSymbolTable
 70
     1
  0
APPID
  5
7E4
330
7DB
100
AcDbSymbolTableRecord
100
AcDbRegAppTableRecord
  2
ACAD
 70
     0
  0
ENDTAB
  0
TABLE
  2
DIMSTYLE
  5
7DC
330
0
100
AcDbSymbolTable
 70
     1
100
AcDbDimStyleTable
 71
     0
  0
DIMSTYLE
105
881
330
7DC
100
AcDbSymbolTableRecord
100
AcDbDimStyleTableRecord
  2
STANDARD
 70
     0
279
     2
340
7E3
  0
ENDTAB
  0
TABLE
  2
BLOCK_RECORD
  5
7D3
330
0
100
AcDbSymbolTable
 70
     2
  0
BLOCK_RECORD
  5
7F0
330
7D3
100
AcDbSymbolTableRecord
100
AcDbBlockTableRecord
  2
*Model_Space
340
7F3
  0
BLOCK_RECORD
  5
7EC
330
7D3
100
AcDbSymbolTableRecord
100
AcDbBlockTableRecord
  2
*Paper_Space
340
7EF
  0
BLOCK_RECORD
  5
884
330
7D3
100
AcDbSymbolTableRecord
100
AcDbBlockTableRecord
  2
$MODEL_SPACE
340
0
  0
BLOCK_RECORD
  5
887
330
7D3
100
AcDbSymbolTableRecord
100
AcDbBlockTableRecord
  2
$PAPER_SPACE
340
0
  0
ENDTAB
  0
ENDSEC
  0
SECTION
  2
BLOCKS
  0
BLOCK
  5
7F1
330
7F0
100
AcDbEntity
  8
0
100
AcDbBlockBegin
  2
*Model_Space
 70
     0
 10
0.0
 20
0.0
 30
0.0
  3
*Model_Space
  1

  0
ENDBLK
  5
7F2
330
7F0
100
AcDbEntity
  8
0
100
AcDbBlockEnd
  0
BLOCK
  5
7ED
330
7EC
100
AcDbEntity
 67
     1
  8
0
100
AcDbBlockBegin
  2
*Paper_Space
 70
     0
 10
0.0
 20
0.0
 30
0.0
  3
*Paper_Space
  1

  0
ENDBLK
  5
7EE
330
7EC
100
AcDbEntity
 67
     1
  8
0
100
AcDbBlockEnd
  0
BLOCK
  5
885
330
884
100
AcDbEntity
  8
0
100
AcDbBlockBegin
  2
$MODEL_SPACE
 70
     0
 10
0.0
 20
0.0
 30
0.0
  3
$MODEL_SPACE
  1

  0
ENDBLK
  5
886
330
884
100
AcDbEntity
  8
0
100
AcDbBlockEnd
  0
BLOCK
  5
888
330
887
100
AcDbEntity
  8
0
100
AcDbBlockBegin
  2
$PAPER_SPACE
 70
     0
 10
0.0
 20
0.0
 30
0.0
  3
$PAPER_SPACE
  1

  0
ENDBLK
  5
889
330
887
100
AcDbEntity
  8
0
100
AcDbBlockEnd
  0
ENDSEC
  0
SECTION
  2
ENTITIES
  0
POINT
  5
88A
330
7F0
100
AcDbEntity
  8
0
  6
Continuous
 62
     1
100
AcDbPoint
 10
1.269263905633295E+99
 20
-5.479536498971387E+72
 30
0.0
  0
POINT
  5
88B
330
7F0
100
AcDbEntity
  8
0
  6
Continuous
 62
     1
100
AcDbPoint
 10
1.269263905633295E+99
 20
-5.479536498971387E+72
 30
0.0
  0
LINE
  5
88C
330
7F0
100
AcDbEntity
  8
0
  6
Continuous
 62
     1
100
AcDbLine
 10
-5.941616374145985E+73
 20
0.0
 30
0.0
 11
-5.941616374145985E+73
 21
0.647047613
 31
0.0
  0
LINE
  5
88D
330
7F0
100
AcDbEntity
  8
0
  6
Continuous
 62
     1
100
AcDbLine
 10
-5.941616374145985E+73
 20
0.0
 30
0.0
 11
-5.941616374145985E+73
 21
-0.647047613
 31
0.0
  0
POINT
  5
88E
330
7F0
100
AcDbEntity
  8
1
  6
Continuous
 62
     1
100
AcDbPoint
 10
1.269263905633295E+99
 20
210.0
 30
0.0
  0
POINT
  5
88F
330
7F0
100
AcDbEntity
  8
1
  6
Continuous
 62
     1
100
AcDbPoint
 10
1.269263905633295E+99
 20
210.0
 30
0.0
  0
POINT
  5
890
330
7F0
100
AcDbEntity
  8
1
  6
Continuous
 62
     1
100
AcDbPoint
 10
-5.941616374145985E+73
 20
210.0
 30
0.0
  0
POINT
  5
891
330
7F0
100
AcDbEntity
  8
1
  6
Continuous
 62
     1
100
AcDbPoint
 10
-5.941616374145985E+73
 20
210.0
 30
0.0
  0
POINT
  5
892
330
7F0
100
AcDbEntity
  8
1
  6
Continuous
 62
     1
100
AcDbPoint
 10
6.282985302827068E+99
 20
-1.269263905633295E+99
 30
0.0
  0
POINT
  5
893
330
7F0
100
AcDbEntity
  8
1
  6
Continuous
 62
     1
100
AcDbPoint
 10
6.282985302827068E+99
 20
-1.269263905633295E+99
 30
0.0
  0
POINT
  5
894
330
7F0
100
AcDbEntity
  8
1
  6
Continuous
 62
     1
100
AcDbPoint
 10
-2.941160477983472E+62
 20
5.941616374145985E+73
 30
0.0
  0
POINT
  5
895
330
7F0
100
AcDbEntity
  8
1
  6
Continuous
 62
     1
100
AcDbPoint
 10
-2.941160477983472E+62
 20
5.941616374145985E+73
 30
0.0
  0
POINT
  5
896
330
7F0
100
AcDbEntity
  8
1
  6
Continuous
 62
     1
100
AcDbPoint
 10
6.282985302827068E+99
 20
-1.269263905633295E+99
 30
0.0
  0
POINT
  5
897
330
7F0
100
AcDbEntity
  8
1
  6
Continuous
 62
     1
100
AcDbPoint
 10
6.282985302827068E+99
 20
-1.269263905633295E+99
 30
0.0
  0
POINT
  5
898
330
7F0
100
AcDbEntity
  8
1
  6
Continuous
 62
     1
100
AcDbPoint
 10
-2.941160477983472E+62
 20
5.941616374145985E+73
 30
0.0
  0
POINT
  5
899
330
7F0
100
AcDbEntity
  8
1
  6
Continuous
 62
     1
100
AcDbPoint
 10
-2.941160477983472E+62
 20
5.941616374145985E+73
 30
0.0
  0
POINT
  5
89A
330
7F0
100
AcDbEntity
  8
1
  6
Continuous
 62
     1
100
AcDbPoint
 10
1.269263905633295E+99
 20
210.0
 30
0.0
  0
POINT
  5
89B
330
7F0
100
AcDbEntity
  8
1
  6
Continuous
 62
     1
100
AcDbPoint
 10
1.269263905633295E+99
 20
210.0
 30
0.0
  0
POINT
  5
89C
330
7F0
100
AcDbEntity
  8
1
  6
Continuous
 62
     1
100
AcDbPoint
 10
-5.941616374145985E+73
 20
210.0
 30
0.0
  0
POINT
  5
89D
330
7F0
100
AcDbEntity
  8
1
  6
Continuous
 62
     1
100
AcDbPoint
 10
-5.941616374145985E+73
 20
210.0
 30
0.0
  0
POINT
  5
89E
330
7F0
100
AcDbEntity
  8
1
  6
Continuous
 62
     1
100
AcDbPoint
 10
1.269263905633295E+99
 20
210.0
 30
0.0
  0
POINT
  5
89F
330
7F0
100
AcDbEntity
  8
1
  6
Continuous
 62
     1
100
AcDbPoint
 10
1.269263905633295E+99
 20
210.0
 30
0.0
  0
POINT
  5
8A0
330
7F0
100
AcDbEntity
  8
1
  6
Continuous
 62
     1
100
AcDbPoint
 10
-5.941616374145985E+73
 20
210.0
 30
0.0
  0
POINT
  5
8A1
330
7F0
100
AcDbEntity
  8
1
  6
Continuous
 62
     1
100
AcDbPoint
 10
-5.941616374145985E+73
 20
210.0
 30
0.0
  0
LINE
  5
8A2
330
7F0
100
AcDbEntity
  8
0
  6
Continuous
 62
     1
100
AcDbLine
 10
87.0
 20
52.0
 30
0.0
 11
87.0
 21
32.0
 31
0.0
  0
LINE
  5
8A3
330
7F0
100
AcDbEntity
  8
0
  6
Continuous
 62
     1
100
AcDbLine
 10
87.0
 20
32.0
 30
0.0
 11
131.0
 21
32.0
 31
0.0
  0
LINE
  5
8A4
330
7F0
100
AcDbEntity
  8
0
  6
Continuous
 62
     1
100
AcDbLine
 10
131.0
 20
32.0
 30
0.0
 11
131.0
 21
52.0
 31
0.0
  0
LINE
  5
8A5
330
7F0
100
AcDbEntity
  8
0
  6
Continuous
 62
     1
100
AcDbLine
 10
131.0
 20
52.0
 30
0.0
 11
87.0
 21
52.0
 31
0.0
  0
ARC
  5
8A6
330
7F0
100
AcDbEntity
  8
0
  6
Continuous
 62
     1
100
AcDbCircle
 10
86.0
 20
53.0
 30
0.0
 40
1.0
100
AcDbArc
 50
90.0
 51
180.0
  0
LINE
  5
8A7
330
7F0
100
AcDbEntity
  8
0
  6
Continuous
 62
     1
100
AcDbLine
 10
85.0
 20
53.0
 30
0.0
 11
85.0
 21
31.0
 31
0.0
  0
ARC
  5
8A8
330
7F0
100
AcDbEntity
  8
0
  6
Continuous
 62
     1
100
AcDbCircle
 10
86.0
 20
31.0
 30
0.0
 40
1.0
100
AcDbArc
 50
180.0
 51
270.0
  0
LINE
  5
8A9
330
7F0
100
AcDbEntity
  8
0
  6
Continuous
 62
     1
100
AcDbLine
 10
86.0
 20
30.0
 30
0.0
 11
132.0
 21
30.0
 31
0.0
  0
ARC
  5
8AA
330
7F0
100
AcDbEntity
  8
0
  6
Continuous
 62
     1
100
AcDbCircle
 10
132.0
 20
31.0
 30
0.0
 40
1.0
100
AcDbArc
 50
270.0
 51
0.0
  0
LINE
  5
8AB
330
7F0
100
AcDbEntity
  8
0
  6
Continuous
 62
     1
100
AcDbLine
 10
132.0
 20
54.0
 30
0.0
 11
86.0
 21
54.0
 31
0.0
  0
LINE
  5
8AC
330
7F0
100
AcDbEntity
  8
0
  6
Continuous
 62
     1
100
AcDbLine
 10
133.0
 20
31.0
 30
0.0
 11
133.0
 21
53.0
 31
0.0
  0
ARC
  5
8AD
330
7F0
100
AcDbEntity
  8
0
  6
Continuous
 62
     1
100
AcDbCircle
 10
132.0
 20
53.0
 30
0.0
 40
1.0
100
AcDbArc
 50
0.0
 51
90.0
  0
LINE
  5
8AE
330
7F0
100
AcDbEntity
  8
0
  6
Continuous
 62
     1
100
AcDbLine
 10
85.0
 20
47.0
 30
0.0
 11
84.0
 21
47.0
 31
0.0
  0
LINE
  5
8AF
330
7F0
100
AcDbEntity
  8
0
  6
Continuous
 62
     1
100
AcDbLine
 10
84.0
 20
47.0
 30
0.0
 11
84.0
 21
37.0
 31
0.0
  0
LINE
  5
8B0
330
7F0
100
AcDbEntity
  8
0
  6
Continuous
 62
     1
100
AcDbLine
 10
84.0
 20
37.0
 30
0.0
 11
85.0
 21
37.0
 31
0.0
  0
LINE
  5
8B1
330
7F0
100
AcDbEntity
  8
0
  6
Continuous
 62
     1
100
AcDbLine
 10
133.0
 20
37.0
 30
0.0
 11
134.0
 21
37.0
 31
0.0
  0
LINE
  5
8B2
330
7F0
100
AcDbEntity
  8
0
  6
Continuous
 62
     1
100
AcDbLine
 10
134.0
 20
37.0
 30
0.0
 11
134.0
 21
47.0
 31
0.0
  0
LINE
  5
8B3
330
7F0
100
AcDbEntity
  8
0
  6
Continuous
 62
     1
100
AcDbLine
 10
134.0
 20
47.0
 30
0.0
 11
133.0
 21
47.0
 31
0.0
  0
LINE
  5
8B4
330
7F0
100
AcDbEntity
  8
0
  6
Continuous
 62
     1
100
AcDbLine
 10
133.0
 20
84.79999999999998
 30
0.0
 11
85.0
 21
84.79999999999998
 31
0.0
  0
LINE
  5
8B5
330
7F0
100
AcDbEntity
  8
0
  6
Continuous
 62
     1
100
AcDbLine
 10
85.0
 20
84.79999999999998
 30
0.0
 11
85.91707856799999
 21
80.398022873
 31
0.0
  0
ARC
  5
8B6
330
7F0
100
AcDbEntity
  8
0
  6
Continuous
 62
     1
100
AcDbCircle
 10
86.40656877799999
 20
80.5
 30
0.0
 40
0.5
100
AcDbArc
 50
191.768288932
 51
270.0
  0
LINE
  5
8B7
330
7F0
100
AcDbEntity
  8
0
  6
Continuous
 62
     1
100
AcDbLine
 10
132.082921432
 20
80.398022873
 30
0.0
 11
133.0
 21
84.79999999999998
 31
0.0
  0
LINE
  5
8B8
330
7F0
100
AcDbEntity
  8
0
  6
Continuous
 62
     1
100
AcDbLine
 10
86.40656877799999
 20
80.0
 30
0.0
 11
131.593431222
 21
80.0
 31
0.0
  0
ARC
  5
8B9
330
7F0
100
AcDbEntity
  8
0
  6
Continuous
 62
     1
100
AcDbCircle
 10
131.593431222
 20
80.5
 30
0.0
 40
0.5
100
AcDbArc
 50
270.0
 51
348.231711068
  0
LINE
  5
8BA
330
7F0
100
AcDbEntity
  8
0
  6
Continuous
 62
     1
100
AcDbLine
 10
131.0
 20
84.79999999999998
 30
0.0
 11
131.0
 21
134.8
 31
0.0
  0
ARC
  5
8BB
330
7F0
100
AcDbEntity
  8
0
  6
Continuous
 62
     1
100
AcDbCircle
 10
130.0
 20
134.8
 30
0.0
 40
1.0
100
AcDbArc
 50
0.0
 51
90.0
  0
LINE
  5
8BC
330
7F0
100
AcDbEntity
  8
0
  6
Continuous
 62
     1
100
AcDbLine
 10
87.0
 20
134.8
 30
0.0
 11
87.0
 21
84.79999999999998
 31
0.0
  0
LINE
  5
8BD
330
7F0
100
AcDbEntity
  8
0
  6
Continuous
 62
     1
100
AcDbLine
 10
130.0
 20
135.8
 30
0.0
 11
88.0
 21
135.8
 31
0.0
  0
ARC
  5
8BE
330
7F0
100
AcDbEntity
  8
0
  6
Continuous
 62
     1
100
AcDbCircle
 10
88.0
 20
134.8
 30
0.0
 40
1.0
100
AcDbArc
 50
90.0
 51
180.0
  0
LINE
  5
8BF
330
7F0
100
AcDbEntity
  8
0
  6
Continuous
 62
     1
100
AcDbLine
 10
131.0
 20
84.79999999999998
 30
0.0
 11
131.4999999999996
 21
84.79999999999998
 31
0.0
  0
LINE
  5
8C0
330
7F0
100
AcDbEntity
  8
0
  6
Continuous
 62
     1
100
AcDbLine
 10
131.4999999999996
 20
84.79999999999998
 30
0.0
 11
131.4999999999996
 21
85.79999999999998
 31
0.0
  0
LINE
  5
8C1
330
7F0
100
AcDbEntity
  8
0
  6
Continuous
 62
     1
100
AcDbLine
 10
131.4999999999996
 20
85.79999999999998
 30
0.0
 11
132.0
 21
85.79999999999998
 31
0.0
  0
LINE
  5
8C2
330
7F0
100
AcDbEntity
  8
0
  6
Continuous
 62
     1
100
AcDbLine
 10
132.0
 20
85.79999999999998
 30
0.0
 11
132.0
 21
86.79999999999997
 31
0.0
  0
LINE
  5
8C3
330
7F0
100
AcDbEntity
  8
0
  6
Continuous
 62
     1
100
AcDbLine
 10
132.0
 20
86.79999999999997
 30
0.0
 11
132.4999999999996
 21
86.79999999999997
 31
0.0
  0
LINE
  5
8C4
330
7F0
100
AcDbEntity
  8
0
  6
Continuous
 62
     1
100
AcDbLine
 10
132.4999999999996
 20
86.79999999999997
 30
0.0
 11
132.4999999999996
 21
87.79999999999999
 31
0.0
  0
LINE
  5
8C5
330
7F0
100
AcDbEntity
  8
0
  6
Continuous
 62
     1
100
AcDbLine
 10
132.4999999999996
 20
87.79999999999999
 30
0.0
 11
133.0
 21
87.79999999999999
 31
0.0
  0
LINE
  5
8C6
330
7F0
100
AcDbEntity
  8
0
  6
Continuous
 62
     1
100
AcDbLine
 10
133.0
 20
87.79999999999999
 30
0.0
 11
133.0
 21
88.79999999999999
 31
0.0
  0
LINE
  5
8C7
330
7F0
100
AcDbEntity
  8
0
  6
Continuous
 62
     1
100
AcDbLine
 10
133.0
 20
88.79999999999999
 30
0.0
 11
133.4999999999996
 21
88.79999999999999
 31
0.0
  0
LINE
  5
8C8
330
7F0
100
AcDbEntity
  8
0
  6
Continuous
 62
     1
100
AcDbLine
 10
133.4999999999996
 20
88.79999999999999
 30
0.0
 11
133.4999999999996
 21
89.79999999999998
 31
0.0
  0
ARC
  5
8C9
330
7F0
100
AcDbEntity
  8
0
  6
Continuous
 62
     1
100
AcDbCircle
 10
159.8928571429999
 20
101.9785714289999
 30
0.0
 40
29.067172381
100
AcDbArc
 50
186.277998251
 51
204.770223742
  0
LINE
  5
8CA
330
7F0
100
AcDbEntity
  8
0
  6
Continuous
 62
     1
100
AcDbLine
 10
86.5
 20
84.79999999999998
 30
0.0
 11
86.5
 21
85.79999999999998
 31
0.0
  0
LINE
  5
8CB
330
7F0
100
AcDbEntity
  8
0
  6
Continuous
 62
     1
100
AcDbLine
 10
86.5
 20
85.79999999999998
 30
0.0
 11
86.0
 21
85.79999999999998
 31
0.0
  0
LINE
  5
8CC
330
7F0
100
AcDbEntity
  8
0
  6
Continuous
 62
     1
100
AcDbLine
 10
86.0
 20
85.79999999999998
 30
0.0
 11
86.0
 21
86.79999999999997
 31
0.0
  0
LINE
  5
8CD
330
7F0
100
AcDbEntity
  8
0
  6
Continuous
 62
     1
100
AcDbLine
 10
86.0
 20
86.79999999999997
 30
0.0
 11
85.5
 21
86.79999999999997
 31
0.0
  0
LINE
  5
8CE
330
7F0
100
AcDbEntity
  8
0
  6
Continuous
 62
     1
100
AcDbLine
 10
85.5
 20
86.79999999999997
 30
0.0
 11
85.5
 21
87.79999999999999
 31
0.0
  0
LINE
  5
8CF
330
7F0
100
AcDbEntity
  8
0
  6
Continuous
 62
     1
100
AcDbLine
 10
85.5
 20
87.79999999999999
 30
0.0
 11
85.0
 21
87.79999999999999
 31
0.0
  0
LINE
  5
8D0
330
7F0
100
AcDbEntity
  8
0
  6
Continuous
 62
     1
100
AcDbLine
 10
85.0
 20
87.79999999999999
 30
0.0
 11
85.0
 21
88.79999999999999
 31
0.0
  0
LINE
  5
8D1
330
7F0
100
AcDbEntity
  8
0
  6
Continuous
 62
     1
100
AcDbLine
 10
85.0
 20
88.79999999999999
 30
0.0
 11
84.50000000000001
 21
88.79999999999999
 31
0.0
  0
LINE
  5
8D2
330
7F0
100
AcDbEntity
  8
0
  6
Continuous
 62
     1
100
AcDbLine
 10
84.50000000000001
 20
88.79999999999999
 30
0.0
 11
84.50000000000001
 21
89.79999999999998
 31
0.0
  0
ARC
  5
8D3
330
7F0
100
AcDbEntity
  8
0
  6
Continuous
 62
     1
100
AcDbCircle
 10
58.107142857
 20
101.9785714289999
 30
0.0
 40
29.067172381
100
AcDbArc
 50
335.229776258
 51
353.722001749
  0
LINE
  5
8D4
330
7F0
100
AcDbEntity
  8
0
  6
Continuous
 62
     1
100
AcDbLine
 10
163.4999999999998
 20
84.79999999999998
 30
0.0
 11
188.4999999999998
 21
84.79999999999998
 31
0.0
  0
LINE
  5
8D5
330
7F0
100
AcDbEntity
  8
0
  6
Continuous
 62
     1
100
AcDbLine
 10
188.4999999999998
 20
84.79999999999998
 30
0.0
 11
188.046687183
 21
80.44819695799999
 31
0.0
  0
ARC
  5
8D6
330
7F0
100
AcDbEntity
  8
0
  6
Continuous
 62
     1
100
AcDbCircle
 10
187.549377979
 20
80.5
 30
0.0
 40
0.5
100
AcDbArc
 50
270.0
 51
354.053136946
  0
LINE
  5
8D7
330
7F0
100
AcDbEntity
  8
0
  6
Continuous
 62
     1
100
AcDbLine
 10
163.953312817
 20
80.44819695799999
 30
0.0
 11
163.4999999999998
 21
84.79999999999998
 31
0.0
  0
LINE
  5
8D8
330
7F0
100
AcDbEntity
  8
0
  6
Continuous
 62
     1
100
AcDbLine
 10
187.549377979
 20
80.0
 30
0.0
 11
164.450622021
 21
80.0
 31
0.0
  0
ARC
  5
8D9
330
7F0
100
AcDbEntity
  8
0
  6
Continuous
 62
     1
100
AcDbCircle
 10
164.450622021
 20
80.5
 30
0.0
 40
0.5
100
AcDbArc
 50
185.946863054
 51
270.0
  0
LINE
  5
8DA
330
7F0
100
AcDbEntity
  8
0
  6
Continuous
 62
     1
100
AcDbLine
 10
182.0
 20
102.8
 30
0.0
 11
182.0
 21
84.79999999999998
 31
0.0
  0
LINE
  5
8DB
330
7F0
100
AcDbEntity
  8
0
  6
Continuous
 62
     1
100
AcDbLine
 10
181.0
 20
84.79999999999998
 30
0.0
 11
181.0
 21
102.8
 31
0.0
  0
LINE
  5
8DC
330
7F0
100
AcDbEntity
  8
0
  6
Continuous
 62
     1
100
AcDbLine
 10
170.0
 20
84.79999999999998
 30
0.0
 11
170.0
 21
102.8
 31
0.0
  0
LINE
  5
8DD
330
7F0
100
AcDbEntity
  8
0
  6
Continuous
 62
     1
100
AcDbLine
 10
171.0
 20
102.8
 30
0.0
 11
171.0
 21
84.79999999999998
 31
0.0
  0
LINE
  5
8DE
330
7F0
100
AcDbEntity
  8
0
  6
Continuous
 62
     1
100
AcDbLine
 10
171.0
 20
89.79999999999998
 30
0.0
 11
181.0
 21
89.79999999999998
 31
0.0
  0
LINE
  5
8DF
330
7F0
100
AcDbEntity
  8
0
  6
Continuous
 62
     1
100
AcDbLine
 10
171.0
 20
88.79999999999999
 30
0.0
 11
181.0
 21
88.79999999999999
 31
0.0
  0
LINE
  5
8E0
330
7F0
100
AcDbEntity
  8
0
  6
Continuous
 62
     1
100
AcDbLine
 10
181.0
 20
87.79999999999999
 30
0.0
 11
171.0
 21
87.79999999999999
 31
0.0
  0
LINE
  5
8E1
330
7F0
100
AcDbEntity
  8
0
  6
Continuous
 62
     1
100
AcDbLine
 10
171.0
 20
86.79999999999997
 30
0.0
 11
181.0
 21
86.79999999999997
 31
0.0
  0
LINE
  5
8E2
330
7F0
100
AcDbEntity
  8
0
  6
Continuous
 62
     1
100
AcDbLine
 10
181.0
 20
85.79999999999998
 30
0.0
 11
171.0
 21
85.79999999999998
 31
0.0
  0
ARC
  5
8E3
330
7F0
100
AcDbEntity
  8
0
  6
Continuous
 62
     1
100
AcDbCircle
 10
170.5
 20
102.8
 30
0.0
 40
0.5
100
AcDbArc
 50
0.0
 51
180.0
  0
ARC
  5
8E4
330
7F0
100
AcDbEntity
  8
0
  6
Continuous
 62
     1
100
AcDbCircle
 10
181.4999999999996
 20
102.8
 30
0.0
 40
0.5
100
AcDbArc
 50
0.0
 51
180.0
  0
ARC
  5
8E5
330
7F0
100
AcDbEntity
  8
0
  6
Continuous
 62
     1
100
AcDbCircle
 10
166.5
 20
134.8
 30
0.0
 40
1.0
100
AcDbArc
 50
90.0
 51
180.0
  0
ARC
  5
8E6
330
7F0
100
AcDbEntity
  8
0
  6
Continuous
 62
     1
100
AcDbCircle
 10
185.5
 20
134.8
 30
0.0
 40
1.0
100
AcDbArc
 50
0.0
 51
90.0
  0
LINE
  5
8E7
330
7F0
100
AcDbEntity
  8
0
  6
Continuous
 62
     1
100
AcDbLine
 10
185.5
 20
135.8
 30
0.0
 11
166.5
 21
135.8
 31
0.0
  0
LINE
  5
8E8
330
7F0
100
AcDbEntity
  8
0
  6
Continuous
 62
     1
100
AcDbLine
 10
186.5
 20
134.8
 30
0.0
 11
187.0
 21
84.79999999999998
 31
0.0
  0
LINE
  5
8E9
330
7F0
100
AcDbEntity
  8
0
  6
Continuous
 62
     1
100
AcDbLine
 10
165.0
 20
84.79999999999998
 30
0.0
 11
165.5
 21
134.8
 31
0.0
  0
POINT
  5
8EA
330
7F0
100
AcDbEntity
  8
0
  6
Continuous
 62
     1
100
AcDbPoint
 10
1.269263905633295E+99
 20
-5.479536498971387E+72
 30
0.0
  0
POINT
  5
8EB
330
7F0
100
AcDbEntity
  8
0
  6
Continuous
 62
     1
100
AcDbPoint
 10
1.269263905633295E+99
 20
-5.479536498971387E+72
 30
0.0
  0
LINE
  5
8EC
330
7F0
100
AcDbEntity
  8
0
  6
Continuous
 62
     1
100
AcDbLine
 10
-5.941616374145985E+73
 20
0.0
 30
0.0
 11
-5.941616374145985E+73
 21
0.647047613
 31
0.0
  0
LINE
  5
8ED
330
7F0
100
AcDbEntity
  8
0
  6
Continuous
 62
     1
100
AcDbLine
 10
-5.941616374145985E+73
 20
0.0
 30
0.0
 11
-5.941616374145985E+73
 21
-0.647047613
 31
0.0
  0
POINT
  5
8EE
330
7F0
100
AcDbEntity
  8
0
  6
Continuous
 62
     1
100
AcDbPoint
 10
1.269263905633295E+99
 20
-5.479536498971387E+72
 30
0.0
  0
POINT
  5
8EF
330
7F0
100
AcDbEntity
  8
0
  6
Continuous
 62
     1
100
AcDbPoint
 10
1.269263905633295E+99
 20
-5.479536498971387E+72
 30
0.0
  0
LINE
  5
8F0
330
7F0
100
AcDbEntity
  8
0
  6
Continuous
 62
     1
100
AcDbLine
 10
-5.941616374145985E+73
 20
0.0
 30
0.0
 11
-5.941616374145985E+73
 21
0.647047613
 31
0.0
  0
LINE
  5
8F1
330
7F0
100
AcDbEntity
  8
0
  6
Continuous
 62
     1
100
AcDbLine
 10
-5.941616374145985E+73
 20
0.0
 30
0.0
 11
-5.941616374145985E+73
 21
-0.647047613
 31
0.0
  0
LINE
  5
8F2
330
7F0
100
AcDbEntity
  8
0
  6
Continuous
 62
     1
100
AcDbLine
 10
88.49999999999999
 20
135.8
 30
0.0
 11
88.49999999999999
 21
146.0
 31
0.0
  0
LINE
  5
8F3
330
7F0
100
AcDbEntity
  8
0
  6
Continuous
 62
     1
100
AcDbLine
 10
88.49999999999999
 20
146.0
 30
0.0
 11
89.50000000000001
 21
147.0
 31
0.0
  0
LINE
  5
8F4
330
7F0
100
AcDbEntity
  8
0
  6
Continuous
 62
     1
100
AcDbLine
 10
129.4999999999996
 20
135.8
 30
0.0
 11
129.4999999999996
 21
146.0
 31
0.0
  0
LINE
  5
8F5
330
7F0
100
AcDbEntity
  8
0
  6
Continuous
 62
     1
100
AcDbLine
 10
129.4999999999996
 20
146.0
 30
0.0
 11
128.4999999999998
 21
147.0
 31
0.0
  0
LINE
  5
8F6
330
7F0
100
AcDbEntity
  8
0
  6
Continuous
 62
     1
100
AcDbLine
 10
89.50000000000001
 20
147.0
 30
0.0
 11
128.4999999999998
 21
147.0
 31
0.0
  0
POINT
  5
8F7
330
7F0
100
AcDbEntity
  8
0
  6
Continuous
 62
     3
100
AcDbPoint
 10
434.0
 20
21.0
 30
0.0
  0
TEXT
  5
8F8
330
7F0
100
AcDbEntity
  8
0
  6
Continuous
 62
     3
100
AcDbText
 10
1016.6
 20
435.7499999999998
 30
0.05
 40
1.0
  1
１
 41
0.7
  7
KANJI0
100
AcDbText
  0
TEXT
  5
8F9
330
7F0
100
AcDbEntity
  8
0
  6
Continuous
 62
     3
100
AcDbText
 10
1019.1
 20
435.7499999999998
 30
0.05
 40
1.0
  1
２
 41
0.7
  7
KANJI0
100
AcDbText
  0
TEXT
  5
8FA
330
7F0
100
AcDbEntity
  8
0
  6
Continuous
 62
     3
100
AcDbText
 10
1021.6
 20
435.7499999999998
 30
0.05
 40
1.0
  1
３
 41
0.7
  7
KANJI0
100
AcDbText
  0
TEXT
  5
8FB
330
7F0
100
AcDbEntity
  8
0
  6
Continuous
 62
     3
100
AcDbText
 10
1024.1
 20
435.7499999999998
 30
0.05
 40
1.0
  1
４
 41
0.7
  7
KANJI0
100
AcDbText
  0
TEXT
  5
8FC
330
7F0
100
AcDbEntity
  8
0
  6
Continuous
 62
     3
100
AcDbText
 10
1026.599999999999
 20
435.7499999999998
 30
0.05
 40
1.0
  1
５
 41
0.7
  7
KANJI0
100
AcDbText
  0
TEXT
  5
8FD
330
7F0
100
AcDbEntity
  8
0
  6
Continuous
 62
     3
100
AcDbText
 10
1029.099999999999
 20
435.7499999999998
 30
0.05
 40
1.0
  1
６
 41
0.7
  7
KANJI0
100
AcDbText
  0
TEXT
  5
8FE
330
7F0
100
AcDbEntity
  8
0
  6
Continuous
 62
     3
100
AcDbText
 10
1031.599999999998
 20
435.7499999999998
 30
0.05
 40
1.0
  1
７
 41
0.7
  7
KANJI0
100
AcDbText
  0
TEXT
  5
8FF
330
7F0
100
AcDbEntity
  8
0
  6
Continuous
 62
     3
100
AcDbText
 10
1034.1
 20
435.7499999999998
 30
0.05
 40
1.0
  1
８
 41
0.7
  7
KANJI0
100
AcDbText
  0
TEXT
  5
900
330
7F0
100
AcDbEntity
  8
0
  6
Continuous
 62
     3
100
AcDbText
 10
1036.599999999999
 20
435.7499999999998
 30
0.05
 40
1.0
  1
９
 41
0.7
  7
KANJI0
100
AcDbText
  0
TEXT
  5
901
330
7F0
100
AcDbEntity
  8
0
  6
Continuous
 62
     3
100
AcDbText
 10
1038.7
 20
435.7499999999998
 30
0.05
 40
1.0
  1
１０
 41
0.7
  7
KANJI0
100
AcDbText
  0
TEXT
  5
902
330
7F0
100
AcDbEntity
  8
0
  6
Continuous
 62
     3
100
AcDbText
 10
1041.2
 20
435.7499999999998
 30
0.05
 40
1.0
  1
１１
 41
0.7
  7
KANJI0
100
AcDbText
  0
TEXT
  5
903
330
7F0
100
AcDbEntity
  8
0
  6
Continuous
 62
     3
100
AcDbText
 10
1043.7
 20
435.7499999999998
 30
0.05
 40
1.0
  1
１２
 41
0.7
  7
KANJI0
100
AcDbText
  0
TEXT
  5
904
330
7F0
100
AcDbEntity
  8
0
  6
Continuous
 62
     3
100
AcDbText
 10
1046.2
 20
435.7499999999998
 30
0.05
 40
1.0
  1
１３
 41
0.7
  7
KANJI0
100
AcDbText
  0
TEXT
  5
905
330
7F0
100
AcDbEntity
  8
0
  6
Continuous
 62
     3
100
AcDbText
 10
1048.699999999998
 20
435.7499999999998
 30
0.05
 40
1.0
  1
１４
 41
0.7
  7
KANJI0
100
AcDbText
  0
TEXT
  5
906
330
7F0
100
AcDbEntity
  8
0
  6
Continuous
 62
     3
100
AcDbText
 10
1051.2
 20
435.7499999999998
 30
0.05
 40
1.0
  1
１５
 41
0.7
  7
KANJI0
100
AcDbText
  0
TEXT
  5
907
330
7F0
100
AcDbEntity
  8
0
  6
Continuous
 62
     3
100
AcDbText
 10
1053.7
 20
435.7499999999998
 30
0.05
 40
1.0
  1
１６
 41
0.7
  7
KANJI0
100
AcDbText
  0
TEXT
  5
908
330
7F0
100
AcDbEntity
  8
0
  6
Continuous
 62
     3
100
AcDbText
 10
1056.2
 20
435.7499999999998
 30
0.05
 40
1.0
  1
１７
 41
0.7
  7
KANJI0
100
AcDbText
  0
TEXT
  5
909
330
7F0
100
AcDbEntity
  8
0
  6
Continuous
 62
     3
100
AcDbText
 10
1058.7
 20
435.7499999999998
 30
0.05
 40
1.0
  1
１８
 41
0.7
  7
KANJI0
100
AcDbText
  0
TEXT
  5
90A
330
7F0
100
AcDbEntity
  8
0
  6
Continuous
 62
     3
100
AcDbText
 10
1016.2
 20
441.25
 30
0.05
 40
1.0
  1
１９
 41
0.7
  7
KANJI0
100
AcDbText
  0
TEXT
  5
90B
330
7F0
100
AcDbEntity
  8
0
  6
Continuous
 62
     3
100
AcDbText
 10
1018.7
 20
441.25
 30
0.05
 40
1.0
  1
２０
 41
0.7
  7
KANJI0
100
AcDbText
  0
TEXT
  5
90C
330
7F0
100
AcDbEntity
  8
0
  6
Continuous
 62
     3
100
AcDbText
 10
1021.2
 20
441.25
 30
0.05
 40
1.0
  1
２１
 41
0.7
  7
KANJI0
100
AcDbText
  0
TEXT
  5
90D
330
7F0
100
AcDbEntity
  8
0
  6
Continuous
 62
     3
100
AcDbText
 10
1023.7
 20
441.25
 30
0.05
 40
1.0
  1
２２
 41
0.7
  7
KANJI0
100
AcDbText
  0
TEXT
  5
90E
330
7F0
100
AcDbEntity
  8
0
  6
Continuous
 62
     3
100
AcDbText
 10
1026.2
 20
441.25
 30
0.05
 40
1.0
  1
２３
 41
0.7
  7
KANJI0
100
AcDbText
  0
TEXT
  5
90F
330
7F0
100
AcDbEntity
  8
0
  6
Continuous
 62
     3
100
AcDbText
 10
1028.7
 20
441.25
 30
0.05
 40
1.0
  1
２４
 41
0.7
  7
KANJI0
100
AcDbText
  0
TEXT
  5
910
330
7F0
100
AcDbEntity
  8
0
  6
Continuous
 62
     3
100
AcDbText
 10
1031.2
 20
441.25
 30
0.05
 40
1.0
  1
２５
 41
0.7
  7
KANJI0
100
AcDbText
  0
TEXT
  5
911
330
7F0
100
AcDbEntity
  8
0
  6
Continuous
 62
     3
100
AcDbText
 10
1033.7
 20
441.25
 30
0.05
 40
1.0
  1
２６
 41
0.7
  7
KANJI0
100
AcDbText
  0
TEXT
  5
912
330
7F0
100
AcDbEntity
  8
0
  6
Continuous
 62
     3
100
AcDbText
 10
1036.2
 20
441.25
 30
0.05
 40
1.0
  1
２７
 41
0.7
  7
KANJI0
100
AcDbText
  0
TEXT
  5
913
330
7F0
100
AcDbEntity
  8
0
  6
Continuous
 62
     3
100
AcDbText
 10
1038.7
 20
441.25
 30
0.05
 40
1.0
  1
２８
 41
0.7
  7
KANJI0
100
AcDbText
  0
TEXT
  5
914
330
7F0
100
AcDbEntity
  8
0
  6
Continuous
 62
     3
100
AcDbText
 10
1041.2
 20
441.25
 30
0.05
 40
1.0
  1
２９
 41
0.7
  7
KANJI0
100
AcDbText
  0
TEXT
  5
915
330
7F0
100
AcDbEntity
  8
0
  6
Continuous
 62
     3
100
AcDbText
 10
1043.7
 20
441.25
 30
0.05
 40
1.0
  1
３０
 41
0.7
  7
KANJI0
100
AcDbText
  0
TEXT
  5
916
330
7F0
100
AcDbEntity
  8
0
  6
Continuous
 62
     3
100
AcDbText
 10
1046.2
 20
441.25
 30
0.05
 40
1.0
  1
３１
 41
0.7
  7
KANJI0
100
AcDbText
  0
TEXT
  5
917
330
7F0
100
AcDbEntity
  8
0
  6
Continuous
 62
     3
100
AcDbText
 10
1048.699999999998
 20
441.25
 30
0.05
 40
1.0
  1
３２
 41
0.7
  7
KANJI0
100
AcDbText
  0
TEXT
  5
918
330
7F0
100
AcDbEntity
  8
0
  6
Continuous
 62
     3
100
AcDbText
 10
1051.2
 20
441.25
 30
0.05
 40
1.0
  1
３３
 41
0.7
  7
KANJI0
100
AcDbText
  0
TEXT
  5
919
330
7F0
100
AcDbEntity
  8
0
  6
Continuous
 62
     3
100
AcDbText
 10
1053.7
 20
441.25
 30
0.05
 40
1.0
  1
３４
 41
0.7
  7
KANJI0
100
AcDbText
  0
TEXT
  5
91A
330
7F0
100
AcDbEntity
  8
0
  6
Continuous
 62
     3
100
AcDbText
 10
1056.2
 20
441.25
 30
0.05
 40
1.0
  1
３５
 41
0.7
  7
KANJI0
100
AcDbText
  0
TEXT
  5
91B
330
7F0
100
AcDbEntity
  8
0
  6
Continuous
 62
     3
100
AcDbText
 10
1058.7
 20
441.25
 30
0.05
 40
1.0
  1
３６
 41
0.7
  7
KANJI0
100
AcDbText
  0
TEXT
  5
91C
330
7F0
100
AcDbEntity
  8
0
  6
Continuous
 62
     3
100
AcDbText
 10
1016.6
 20
433.75
 30
0.05
 40
1.0
  1
１
 41
0.7
  7
KANJI0
100
AcDbText
  0
TEXT
  5
91D
330
7F0
100
AcDbEntity
  8
0
  6
Continuous
 62
     3
100
AcDbText
 10
1019.1
 20
433.75
 30
0.05
 40
1.0
  1
２
 41
0.7
  7
KANJI0
100
AcDbText
  0
TEXT
  5
91E
330
7F0
100
AcDbEntity
  8
0
  6
Continuous
 62
     3
100
AcDbText
 10
1024.1
 20
433.75
 30
0.05
 40
1.0
  1
８
 41
0.7
  7
KANJI0
100
AcDbText
  0
TEXT
  5
91F
330
7F0
100
AcDbEntity
  8
0
  6
Continuous
 62
     3
100
AcDbText
 10
1026.599999999999
 20
433.75
 30
0.05
 40
1.0
  1
１
 41
0.7
  7
KANJI0
100
AcDbText
  0
TEXT
  5
920
330
7F0
100
AcDbEntity
  8
0
  6
Continuous
 62
     3
100
AcDbText
 10
1029.099999999999
 20
433.75
 30
0.05
 40
1.0
  1
２
 41
0.7
  7
KANJI0
100
AcDbText
  0
TEXT
  5
921
330
7F0
100
AcDbEntity
  8
0
  6
Continuous
 62
     3
100
AcDbText
 10
1031.599999999998
 20
433.75
 30
0.05
 40
1.0
  1
４
 41
0.7
  7
KANJI0
100
AcDbText
  0
TEXT
  5
922
330
7F0
100
AcDbEntity
  8
0
  6
Continuous
 62
     3
100
AcDbText
 10
1034.1
 20
433.75
 30
0.05
 40
1.0
  1
８
 41
0.7
  7
KANJI0
100
AcDbText
  0
TEXT
  5
923
330
7F0
100
AcDbEntity
  8
0
  6
Continuous
 62
     3
100
AcDbText
 10
1036.599999999999
 20
433.75
 30
0.05
 40
1.0
  1
１
 41
0.7
  7
KANJI0
100
AcDbText
  0
TEXT
  5
924
330
7F0
100
AcDbEntity
  8
0
  6
Continuous
 62
     3
100
AcDbText
 10
1039.1
 20
433.75
 30
0.05
 40
1.0
  1
２
 41
0.7
  7
KANJI0
100
AcDbText
  0
TEXT
  5
925
330
7F0
100
AcDbEntity
  8
0
  6
Continuous
 62
     3
100
AcDbText
 10
1056.599999999999
 20
433.75
 30
0.05
 40
1.0
  1
０
 41
0.7
  7
KANJI0
100
AcDbText
  0
TEXT
  5
926
330
7F0
100
AcDbEntity
  8
0
  6
Continuous
 62
     3
100
AcDbText
 10
1058.3
 20
433.75
 30
0.05
 40
1.0
  1
ＣＯＭ
 41
0.7
  7
KANJI0
100
AcDbText
  0
TEXT
  5
927
330
7F0
100
AcDbEntity
  8
0
  6
Continuous
 62
     3
100
AcDbText
 10
1053.749999999997
 20
433.75
 30
0.05
 40
1.0
  1
ＳＧ
 41
0.7
  7
KANJI0
100
AcDbText
  0
TEXT
  5
928
330
7F0
100
AcDbEntity
  8
0
  6
Continuous
 62
     3
100
AcDbText
 10
1050.9
 20
433.75
 30
0.05
 40
1.0
  1
ＴＸＤ
 41
0.7
  7
KANJI0
100
AcDbText
  0
TEXT
  5
929
330
7F0
100
AcDbEntity
  8
0
  6
Continuous
 62
     3
100
AcDbText
 10
1048.349999999999
 20
433.75
 30
0.05
 40
1.0
  1
ＲＸＤ
 41
0.7
  7
KANJI0
100
AcDbText
  0
TEXT
  5
92A
330
7F0
100
AcDbEntity
  8
0
  6
Continuous
 62
     3
100
AcDbText
 10
1016.6
 20
443.25
 30
0.05
 40
1.0
  1
１
 41
0.7
  7
KANJI0
100
AcDbText
  0
TEXT
  5
92B
330
7F0
100
AcDbEntity
  8
0
  6
Continuous
 62
     3
100
AcDbText
 10
1019.1
 20
443.25
 30
0.05
 40
1.0
  1
２
 41
0.7
  7
KANJI0
100
AcDbText
  0
TEXT
  5
92C
330
7F0
100
AcDbEntity
  8
0
  6
Continuous
 62
     3
100
AcDbText
 10
1021.6
 20
443.25
 30
0.05
 40
1.0
  1
４
 41
0.7
  7
KANJI0
100
AcDbText
  0
TEXT
  5
92D
330
7F0
100
AcDbEntity
  8
0
  6
Continuous
 62
     3
100
AcDbText
 10
1024.1
 20
443.25
 30
0.05
 40
1.0
  1
８
 41
0.7
  7
KANJI0
100
AcDbText
  0
TEXT
  5
92E
330
7F0
100
AcDbEntity
  8
0
  6
Continuous
 62
     3
100
AcDbText
 10
1026.599999999999
 20
443.25
 30
0.05
 40
1.0
  1
１
 41
0.7
  7
KANJI0
100
AcDbText
  0
TEXT
  5
92F
330
7F0
100
AcDbEntity
  8
0
  6
Continuous
 62
     3
100
AcDbText
 10
1029.099999999999
 20
443.25
 30
0.05
 40
1.0
  1
２
 41
0.7
  7
KANJI0
100
AcDbText
  0
TEXT
  5
930
330
7F0
100
AcDbEntity
  8
0
  6
Continuous
 62
     3
100
AcDbText
 10
1031.599999999998
 20
443.25
 30
0.05
 40
1.0
  1
４
 41
0.7
  7
KANJI0
100
AcDbText
  0
TEXT
  5
931
330
7F0
100
AcDbEntity
  8
0
  6
Continuous
 62
     3
100
AcDbText
 10
1034.1
 20
443.25
 30
0.05
 40
1.0
  1
８
 41
0.7
  7
KANJI0
100
AcDbText
  0
TEXT
  5
932
330
7F0
100
AcDbEntity
  8
0
  6
Continuous
 62
     3
100
AcDbText
 10
1056.599999999999
 20
443.25
 30
0.05
 40
1.0
  1
１
 41
0.7
  7
KANJI0
100
AcDbText
  0
TEXT
  5
933
330
7F0
100
AcDbEntity
  8
0
  6
Continuous
 62
     3
100
AcDbText
 10
1058.349999999999
 20
443.25
 30
0.05
 40
1.0
  1
ＣＯＭ
 41
0.7
  7
KANJI0
100
AcDbText
  0
TEXT
  5
934
330
7F0
100
AcDbEntity
  8
0
  6
Continuous
 62
     3
100
AcDbText
 10
1048.25
 20
443.25
 30
0.05
 40
1.0
  1
ＲＴＳ
 41
0.7
  7
KANJI0
100
AcDbText
  0
TEXT
  5
935
330
7F0
100
AcDbEntity
  8
0
  6
Continuous
 62
     3
100
AcDbText
 10
1050.85
 20
443.25
 30
0.05
 40
1.0
  1
ＣＴＳ
 41
0.7
  7
KANJI0
100
AcDbText
  0
TEXT
  5
936
330
7F0
100
AcDbEntity
  8
0
  6
Continuous
 62
     3
100
AcDbText
 10
1053.7
 20
443.25
 30
0.05
 40
1.0
  1
ＳＧ
 41
0.7
  7
KANJI0
100
AcDbText
  0
TEXT
  5
937
330
7F0
100
AcDbEntity
  8
0
  6
Continuous
 62
     3
100
AcDbText
 10
1021.6
 20
433.75
 30
0.05
 40
1.0
  1
４
 41
0.7
  7
KANJI0
100
AcDbText
  0
TEXT
  5
938
330
7F0
100
AcDbEntity
  8
0
  6
Continuous
 62
     3
100
AcDbText
 10
1019.6
 20
432.2499999999998
 30
0.05
 40
1.0
  1
１０
 41
0.7
  7
KANJI0
100
AcDbText
  0
TEXT
  5
939
330
7F0
100
AcDbEntity
  8
0
  6
Continuous
 62
     3
100
AcDbText
 10
1021.1
 20
432.7499999999998
 30
0.025
 40
0.5
  1
０
 41
0.7
  7
KANJI1
100
AcDbText
  0
TEXT
  5
93A
330
7F0
100
AcDbEntity
  8
0
  6
Continuous
 62
     3
100
AcDbText
 10
1019.6
 20
444.7499999999998
 30
0.05
 40
1.0
  1
１０
 41
0.7
  7
KANJI0
100
AcDbText
  0
TEXT
  5
93B
330
7F0
100
AcDbEntity
  8
0
  6
Continuous
 62
     3
100
AcDbText
 10
1021.1
 20
445.2499999999998
 30
0.025
 40
0.5
  1
１
 41
0.7
  7
KANJI1
100
AcDbText
  0
TEXT
  5
93C
330
7F0
100
AcDbEntity
  8
0
  6
Continuous
 62
     3
100
AcDbText
 10
1029.6
 20
444.7499999999998
 30
0.05
 40
1.0
  1
１０
 41
0.7
  7
KANJI0
100
AcDbText
  0
TEXT
  5
93D
330
7F0
100
AcDbEntity
  8
0
  6
Continuous
 62
     3
100
AcDbText
 10
1031.1
 20
445.2499999999998
 30
0.025
 40
0.5
  1
３
 41
0.7
  7
KANJI1
100
AcDbText
  0
TEXT
  5
93E
330
7F0
100
AcDbEntity
  8
0
  6
Continuous
 62
     3
100
AcDbText
 10
1029.6
 20
432.2499999999998
 30
0.05
 40
1.0
  1
１０
 41
0.7
  7
KANJI0
100
AcDbText
  0
TEXT
  5
93F
330
7F0
100
AcDbEntity
  8
0
  6
Continuous
 62
     3
100
AcDbText
 10
1031.1
 20
432.7499999999998
 30
0.025
 40
0.5
  1
２
 41
0.7
  7
KANJI1
100
AcDbText
  0
LINE
  5
940
330
7F0
100
AcDbEntity
  8
0
  6
Continuous
 62
     3
100
AcDbLine
 10
1016.85
 20
444.7499999999998
 30
0.025
 11
1016.85
 21
445.2499999999998
 31
0.025
  0
LINE
  5
941
330
7F0
100
AcDbEntity
  8
0
  6
Continuous
 62
     3
100
AcDbLine
 10
1016.85
 20
445.2499999999998
 30
0.0
 11
1019.349999999999
 21
445.2499999999998
 31
0.0
  0
LINE
  5
942
330
7F0
100
AcDbEntity
  8
0
  6
Continuous
 62
     3
100
AcDbLine
 10
1021.6
 20
445.2499999999998
 30
0.0
 11
1024.349999999998
 21
445.2499999999998
 31
0.0
  0
LINE
  5
943
330
7F0
100
AcDbEntity
  8
0
  6
Continuous
 62
     3
100
AcDbLine
 10
1024.349999999998
 20
445.2499999999998
 30
0.0
 11
1024.349999999998
 21
444.7499999999998
 31
0.0
  0
LINE
  5
944
330
7F0
100
AcDbEntity
  8
0
  6
Continuous
 62
     3
100
AcDbLine
 10
1026.85
 20
444.7499999999998
 30
0.0
 11
1026.85
 21
445.2499999999998
 31
0.0
  0
LINE
  5
945
330
7F0
100
AcDbEntity
  8
0
  6
Continuous
 62
     3
100
AcDbLine
 10
1026.85
 20
445.2499999999998
 30
0.0
 11
1029.349999999999
 21
445.2499999999998
 31
0.0
  0
LINE
  5
946
330
7F0
100
AcDbEntity
  8
0
  6
Continuous
 62
     3
100
AcDbLine
 10
1031.599999999998
 20
445.2499999999998
 30
0.0
 11
1034.349999999998
 21
445.2499999999998
 31
0.0
  0
LINE
  5
947
330
7F0
100
AcDbEntity
  8
0
  6
Continuous
 62
     3
100
AcDbLine
 10
1034.349999999998
 20
445.2499999999998
 30
0.0
 11
1034.349999999998
 21
444.7499999999998
 31
0.0
  0
LINE
  5
948
330
7F0
100
AcDbEntity
  8
0
  6
Continuous
 62
     3
100
AcDbLine
 10
1034.349999999998
 20
433.25
 30
0.0
 11
1034.349999999998
 21
432.7499999999998
 31
0.0
  0
LINE
  5
949
330
7F0
100
AcDbEntity
  8
0
  6
Continuous
 62
     3
100
AcDbLine
 10
1034.349999999998
 20
432.7499999999998
 30
0.0
 11
1031.599999999998
 21
432.7499999999998
 31
0.0
  0
LINE
  5
94A
330
7F0
100
AcDbEntity
  8
0
  6
Continuous
 62
     3
100
AcDbLine
 10
1029.349999999999
 20
432.7499999999998
 30
0.0
 11
1026.85
 21
432.7499999999998
 31
0.0
  0
LINE
  5
94B
330
7F0
100
AcDbEntity
  8
0
  6
Continuous
 62
     3
100
AcDbLine
 10
1026.85
 20
432.7499999999998
 30
0.0
 11
1026.85
 21
433.25
 31
0.0
  0
LINE
  5
94C
330
7F0
100
AcDbEntity
  8
0
  6
Continuous
 62
     3
100
AcDbLine
 10
1024.349999999998
 20
433.25
 30
0.0
 11
1024.349999999998
 21
432.7499999999998
 31
0.0
  0
LINE
  5
94D
330
7F0
100
AcDbEntity
  8
0
  6
Continuous
 62
     3
100
AcDbLine
 10
1024.349999999998
 20
432.7499999999998
 30
0.0
 11
1021.6
 21
432.7499999999998
 31
0.0
  0
LINE
  5
94E
330
7F0
100
AcDbEntity
  8
0
  6
Continuous
 62
     3
100
AcDbLine
 10
1019.349999999999
 20
432.7499999999998
 30
0.0
 11
1016.85
 21
432.7499999999998
 31
0.0
  0
LINE
  5
94F
330
7F0
100
AcDbEntity
  8
0
  6
Continuous
 62
     3
100
AcDbLine
 10
1016.85
 20
432.7499999999998
 30
0.0
 11
1016.85
 21
433.25
 31
0.0
  0
LINE
  5
950
330
7F0
100
AcDbEntity
  8
0
  6
Continuous
 62
     3
100
AcDbLine
 10
1036.85
 20
433.25
 30
0.0
 11
1036.85
 21
432.7499999999998
 31
0.0
  0
LINE
  5
951
330
7F0
100
AcDbEntity
  8
0
  6
Continuous
 62
     3
100
AcDbLine
 10
1036.85
 20
432.7499999999998
 30
0.0
 11
1037.099999999999
 21
432.7499999999998
 31
0.0
  0
LINE
  5
952
330
7F0
100
AcDbEntity
  8
0
  6
Continuous
 62
     3
100
AcDbLine
 10
1039.1
 20
432.7499999999998
 30
0.0
 11
1039.349999999999
 21
432.7499999999998
 31
0.0
  0
LINE
  5
953
330
7F0
100
AcDbEntity
  8
0
  6
Continuous
 62
     3
100
AcDbLine
 10
1039.349999999999
 20
432.7499999999998
 30
0.0
 11
1039.349999999999
 21
433.25
 31
0.0
  0
TEXT
  5
954
330
7F0
100
AcDbEntity
  8
0
  6
Continuous
 62
     3
100
AcDbText
 10
1037.25
 20
432.2499999999998
 30
0.05
 40
1.0
  1
１０
 41
0.7
  7
KANJI0
100
AcDbText
  0
TEXT
  5
955
330
7F0
100
AcDbEntity
  8
0
  6
Continuous
 62
     3
100
AcDbText
 10
1038.75
 20
432.7499999999998
 30
0.025
 40
0.5
  1
４
 41
0.7
  7
KANJI1
100
AcDbText
  0
TEXT
  5
956
330
7F0
100
AcDbEntity
  8
0
  6
Continuous
 62
     3
100
AcDbText
 10
1033.099999999999
 20
427.7499999999998
 30
0.05
 40
1.0
  1
ＡＮＡＬＯＧ　ＯＵＴ
 41
0.7
  7
KANJI0
100
AcDbText
  0
TEXT
  5
957
330
7F0
100
AcDbEntity
  8
0
  6
Continuous
 62
     3
100
AcDbText
 10
1022.1
 20
429.25
 30
0.05
 40
1.0
  1
ＢＣＤ　ＯＵＴ
 41
0.7
  7
KANJI0
100
AcDbText
  0
LINE
  5
958
330
7F0
100
AcDbEntity
  8
0
  6
Continuous
 62
     3
100
AcDbLine
 10
1016.85
 20
432.2499999999998
 30
0.05
 11
1016.85
 21
429.75
 31
0.05
  0
LINE
  5
959
330
7F0
100
AcDbEntity
  8
0
  6
Continuous
 62
     3
100
AcDbLine
 10
1016.85
 20
429.75
 30
0.0
 11
1021.85
 21
429.75
 31
0.0
  0
LINE
  5
95A
330
7F0
100
AcDbEntity
  8
0
  6
Continuous
 62
     3
100
AcDbLine
 10
1041.849999999999
 20
434.75
 30
0.0
 11
1041.849999999999
 21
431.25
 31
0.0
  0
LINE
  5
95B
330
7F0
100
AcDbEntity
  8
0
  6
Continuous
 62
     3
100
AcDbLine
 10
1041.849999999999
 20
431.25
 30
0.0
 11
1040.85
 21
431.25
 31
0.0
  0
TEXT
  5
95C
330
7F0
100
AcDbEntity
  8
0
  6
Continuous
 62
     3
100
AcDbText
 10
1036.1
 20
430.75
 30
0.05
 40
1.0
  1
ＥＮＡＢＬＥ
 41
0.7
  7
KANJI0
100
AcDbText
  0
TEXT
  5
95D
330
7F0
100
AcDbEntity
  8
0
  6
Continuous
 62
     3
100
AcDbText
 10
1035.349999999999
 20
429.25
 30
0.05
 40
1.0
  1
ＤＩＧ．ＣＯＭ
 41
0.7
  7
KANJI0
100
AcDbText
  0
LINE
  5
95E
330
7F0
100
AcDbEntity
  8
0
  6
Continuous
 62
     3
100
AcDbLine
 10
1035.099999999999
 20
429.75
 30
0.05
 11
1027.349999999999
 21
429.75
 31
0.05
  0
LINE
  5
95F
330
7F0
100
AcDbEntity
  8
0
  6
Continuous
 62
     3
100
AcDbLine
 10
1040.85
 20
429.75
 30
0.0
 11
1044.349999999999
 21
429.75
 31
0.0
  0
LINE
  5
960
330
7F0
100
AcDbEntity
  8
0
  6
Continuous
 62
     3
100
AcDbLine
 10
1044.349999999999
 20
429.75
 30
0.0
 11
1044.349999999999
 21
434.75
 31
0.0
  0
LINE
  5
961
330
7F0
100
AcDbEntity
  8
0
  6
Continuous
 62
     3
100
AcDbLine
 10
1046.849999999998
 20
434.75
 30
0.0
 11
1046.849999999998
 21
428.2499999999997
 31
0.0
  0
LINE
  5
962
330
7F0
100
AcDbEntity
  8
0
  6
Continuous
 62
     3
100
AcDbLine
 10
1046.849999999998
 20
428.2499999999997
 30
0.0
 11
1040.85
 21
428.2499999999997
 31
0.0
  0
LINE
  5
963
330
7F0
100
AcDbEntity
  8
0
  6
Continuous
 62
     3
100
AcDbLine
 10
1049.35
 20
433.25
 30
0.0
 11
1049.35
 21
432.7499999999998
 31
0.0
  0
LINE
  5
964
330
7F0
100
AcDbEntity
  8
0
  6
Continuous
 62
     3
100
AcDbLine
 10
1049.35
 20
432.7499999999998
 30
0.0
 11
1054.35
 21
432.7499999999998
 31
0.0
  0
LINE
  5
965
330
7F0
100
AcDbEntity
  8
0
  6
Continuous
 62
     3
100
AcDbLine
 10
1054.35
 20
432.7499999999998
 30
0.0
 11
1054.35
 21
433.25
 31
0.0
  0
LINE
  5
966
330
7F0
100
AcDbEntity
  8
0
  6
Continuous
 62
     3
100
AcDbLine
 10
1056.849999999998
 20
433.25
 30
0.0
 11
1056.849999999998
 21
432.7499999999998
 31
0.0
  0
LINE
  5
967
330
7F0
100
AcDbEntity
  8
0
  6
Continuous
 62
     3
100
AcDbLine
 10
1056.849999999998
 20
432.7499999999998
 30
0.0
 11
1059.35
 21
432.7499999999998
 31
0.0
  0
LINE
  5
968
330
7F0
100
AcDbEntity
  8
0
  6
Continuous
 62
     3
100
AcDbLine
 10
1059.35
 20
432.7499999999998
 30
0.0
 11
1059.35
 21
433.25
 31
0.0
  0
LINE
  5
969
330
7F0
100
AcDbEntity
  8
0
  6
Continuous
 62
     3
100
AcDbLine
 10
1059.35
 20
444.7499999999998
 30
0.0
 11
1059.35
 21
445.2499999999998
 31
0.0
  0
LINE
  5
96A
330
7F0
100
AcDbEntity
  8
0
  6
Continuous
 62
     3
100
AcDbLine
 10
1059.35
 20
445.2499999999998
 30
0.0
 11
1056.849999999998
 21
445.2499999999998
 31
0.0
  0
LINE
  5
96B
330
7F0
100
AcDbEntity
  8
0
  6
Continuous
 62
     3
100
AcDbLine
 10
1056.849999999998
 20
445.2499999999998
 30
0.0
 11
1056.849999999998
 21
444.7499999999998
 31
0.0
  0
LINE
  5
96C
330
7F0
100
AcDbEntity
  8
0
  6
Continuous
 62
     3
100
AcDbLine
 10
1054.35
 20
444.7499999999998
 30
0.0
 11
1054.35
 21
445.2499999999998
 31
0.0
  0
LINE
  5
96D
330
7F0
100
AcDbEntity
  8
0
  6
Continuous
 62
     3
100
AcDbLine
 10
1054.35
 20
445.2499999999998
 30
0.0
 11
1049.35
 21
445.2499999999998
 31
0.0
  0
LINE
  5
96E
330
7F0
100
AcDbEntity
  8
0
  6
Continuous
 62
     3
100
AcDbLine
 10
1049.35
 20
445.2499999999998
 30
0.0
 11
1049.35
 21
444.7499999999998
 31
0.0
  0
TEXT
  5
96F
330
7F0
100
AcDbEntity
  8
0
  6
Continuous
 62
     3
100
AcDbText
 10
1049.35
 20
445.75
 30
0.05
 40
1.0
  1
ＲＳ－２３２Ｃ
 41
0.7
  7
KANJI0
100
AcDbText
  0
TEXT
  5
970
330
7F0
100
AcDbEntity
  8
0
  6
Continuous
 62
     3
100
AcDbText
 10
1056.349999999999
 20
445.75
 30
0.05
 40
1.0
  1
Ｐ．ＳＥＬ
 41
0.7
  7
KANJI0
100
AcDbText
  0
TEXT
  5
971
330
7F0
100
AcDbEntity
  8
0
  6
Continuous
 62
     3
100
AcDbText
 10
1056.349999999999
 20
431.25
 30
0.05
 40
1.0
  1
Ｐ．ＳＥＬ
 41
0.7
  7
KANJI0
100
AcDbText
  0
TEXT
  5
972
330
7F0
100
AcDbEntity
  8
0
  6
Continuous
 62
     3
100
AcDbText
 10
1049.35
 20
431.25
 30
0.05
 40
1.0
  1
ＲＳ－２３２Ｃ
 41
0.7
  7
KANJI0
100
AcDbText
  0
TEXT
  5
973
330
7F0
100
AcDbEntity
  8
0
  6
Continuous
 62
     3
100
AcDbText
 10
1050.85
 20
426.25
 30
0.05
 40
1.0
  1
ＵＨ－４４４１５
 41
0.7
  7
KANJI0
100
AcDbText
  0
TEXT
  5
974
330
7F0
100
AcDbEntity
  8
0
  6
Continuous
 62
     3
100
AcDbText
 10
1041.2
 20
444.7499999999998
 30
0.05
 40
1.0
  1
ＰＣ
 41
0.7
  7
KANJI0
100
AcDbText
  0
TEXT
  5
975
330
7F0
100
AcDbEntity
  8
0
  6
Continuous
 62
     3
100
AcDbText
 10
1035.849999999999
 20
444.7499999999998
 30
0.05
 40
1.0
  1
ＰＯＬ
 41
0.7
  7
KANJI0
100
AcDbText
  0
LINE
  5
976
330
7F0
100
AcDbEntity
  8
0
  6
Continuous
 62
     3
100
AcDbLine
 10
1036.85
 20
443.25
 30
0.05
 11
1036.85
 21
444.2499999999998
 31
0.05
  0
LINE
  5
977
330
7F0
100
AcDbEntity
  8
0
  6
Continuous
 62
     3
100
AcDbLine
 10
1041.849999999999
 20
444.2499999999998
 30
0.0
 11
1041.849999999999
 21
443.25
 31
0.0
  0
TEXT
  5
978
330
7F0
100
AcDbEntity
  8
0
  6
Continuous
 62
     3
100
AcDbText
 10
1035.849999999999
 20
446.25
 30
0.05
 40
1.0
  1
ＯＶＥＲ
 41
0.7
  7
KANJI0
100
AcDbText
  0
TEXT
  5
979
330
7F0
100
AcDbEntity
  8
0
  6
Continuous
 62
     3
100
AcDbText
 10
1035.849999999999
 20
447.75
 30
0.05
 40
1.0
  1
ＤＩＧ．ＣＯＭ
 41
0.7
  7
KANJI0
100
AcDbText
  0
TEXT
  5
97A
330
7F0
100
AcDbEntity
  8
0
  6
Continuous
 62
     3
100
AcDbText
 10
1035.849999999999
 20
449.2499999999998
 30
0.05
 40
1.0
  1
ＡＮＡＬＯＧ　ＣＯＭ
 41
0.7
  7
KANJI0
100
AcDbText
  0
TEXT
  5
97B
330
7F0
100
AcDbEntity
  8
0
  6
Continuous
 62
     3
100
AcDbText
 10
1022.1
 20
447.75
 30
0.05
 40
1.0
  1
ＢＣＤ　ＯＵＴ
 41
0.7
  7
KANJI0
100
AcDbText
  0
LINE
  5
97C
330
7F0
100
AcDbEntity
  8
0
  6
Continuous
 62
     3
100
AcDbLine
 10
1016.85
 20
445.75
 30
0.05
 11
1016.85
 21
448.2499999999998
 31
0.05
  0
LINE
  5
97D
330
7F0
100
AcDbEntity
  8
0
  6
Continuous
 62
     3
100
AcDbLine
 10
1016.85
 20
448.2499999999998
 30
0.0
 11
1021.85
 21
448.2499999999998
 31
0.0
  0
LINE
  5
97E
330
7F0
100
AcDbEntity
  8
0
  6
Continuous
 62
     3
100
AcDbLine
 10
1027.349999999999
 20
448.2499999999998
 30
0.0
 11
1035.6
 21
448.2499999999998
 31
0.0
  0
LINE
  5
97F
330
7F0
100
AcDbEntity
  8
0
  6
Continuous
 62
     3
100
AcDbLine
 10
1041.349999999999
 20
448.2499999999998
 30
0.0
 11
1044.349999999999
 21
448.2499999999998
 31
0.0
  0
LINE
  5
980
330
7F0
100
AcDbEntity
  8
0
  6
Continuous
 62
     3
100
AcDbLine
 10
1044.349999999999
 20
448.2499999999998
 30
0.0
 11
1044.349999999999
 21
443.25
 31
0.0
  0
LINE
  5
981
330
7F0
100
AcDbEntity
  8
0
  6
Continuous
 62
     3
100
AcDbLine
 10
1043.6
 20
449.75
 30
0.0
 11
1046.849999999998
 21
449.75
 31
0.0
  0
LINE
  5
982
330
7F0
100
AcDbEntity
  8
0
  6
Continuous
 62
     3
100
AcDbLine
 10
1046.849999999998
 20
449.75
 30
0.0
 11
1046.849999999998
 21
443.25
 31
0.0
  0
LINE
  5
983
330
7F0
100
AcDbEntity
  8
0
  6
Continuous
 62
     3
100
AcDbLine
 10
1038.849999999998
 20
446.75
 30
0.0
 11
1039.349999999999
 21
446.75
 31
0.0
  0
LINE
  5
984
330
7F0
100
AcDbEntity
  8
0
  6
Continuous
 62
     3
100
AcDbLine
 10
1039.349999999999
 20
446.75
 30
0.0
 11
1039.349999999999
 21
443.25
 31
0.0
  0
LINE
  5
985
330
7F0
100
AcDbEntity
  8
0
  6
LTYPE1
 62
     3
100
AcDbLine
 10
1044.349999999999
 20
439.7499999999998
 30
0.0
 11
1044.349999999999
 21
438.25
 31
0.0
  0
LINE
  5
986
330
7F0
100
AcDbEntity
  8
0
  6
LTYPE1
 62
     3
100
AcDbLine
 10
1044.85
 20
440.2499999999998
 30
0.0
 11
1046.35
 21
440.2499999999998
 31
0.0
  0
LINE
  5
987
330
7F0
100
AcDbEntity
  8
0
  6
LTYPE1
 62
     3
100
AcDbLine
 10
1044.349999999999
 20
439.0
 30
0.0
 11
1054.35
 21
439.0
 31
0.0
  0
LINE
  5
988
330
7F0
100
AcDbEntity
  8
0
  6
LTYPE1
 62
     3
100
AcDbLine
 10
1054.35
 20
439.7499999999998
 30
0.0
 11
1054.35
 21
438.25
 31
0.0
  0
LINE
  5
989
330
7F0
100
AcDbEntity
  8
0
  6
LTYPE1
 62
     3
100
AcDbLine
 10
1059.35
 20
438.25
 30
0.0
 11
1059.35
 21
439.7499999999998
 31
0.0
  0
TEXT
  5
98A
330
7F0
100
AcDbEntity
  8
0
  6
Continuous
 62
     3
100
AcDbText
 10
1016.6
 20
435.7499999999998
 30
0.05
 40
1.0
  1
１
 41
0.7
  7
KANJI0
100
AcDbText
  0
TEXT
  5
98B
330
7F0
100
AcDbEntity
  8
0
  6
Continuous
 62
     3
100
AcDbText
 10
1019.1
 20
435.7499999999998
 30
0.05
 40
1.0
  1
２
 41
0.7
  7
KANJI0
100
AcDbText
  0
TEXT
  5
98C
330
7F0
100
AcDbEntity
  8
0
  6
Continuous
 62
     3
100
AcDbText
 10
1021.6
 20
435.7499999999998
 30
0.05
 40
1.0
  1
３
 41
0.7
  7
KANJI0
100
AcDbText
  0
TEXT
  5
98D
330
7F0
100
AcDbEntity
  8
0
  6
Continuous
 62
     3
100
AcDbText
 10
1024.1
 20
435.7499999999998
 30
0.05
 40
1.0
  1
４
 41
0.7
  7
KANJI0
100
AcDbText
  0
TEXT
  5
98E
330
7F0
100
AcDbEntity
  8
0
  6
Continuous
 62
     3
100
AcDbText
 10
1026.599999999999
 20
435.7499999999998
 30
0.05
 40
1.0
  1
５
 41
0.7
  7
KANJI0
100
AcDbText
  0
TEXT
  5
98F
330
7F0
100
AcDbEntity
  8
0
  6
Continuous
 62
     3
100
AcDbText
 10
1029.099999999999
 20
435.7499999999998
 30
0.05
 40
1.0
  1
６
 41
0.7
  7
KANJI0
100
AcDbText
  0
TEXT
  5
990
330
7F0
100
AcDbEntity
  8
0
  6
Continuous
 62
     3
100
AcDbText
 10
1031.599999999998
 20
435.7499999999998
 30
0.05
 40
1.0
  1
７
 41
0.7
  7
KANJI0
100
AcDbText
  0
TEXT
  5
991
330
7F0
100
AcDbEntity
  8
0
  6
Continuous
 62
     3
100
AcDbText
 10
1034.1
 20
435.7499999999998
 30
0.05
 40
1.0
  1
８
 41
0.7
  7
KANJI0
100
AcDbText
  0
TEXT
  5
992
330
7F0
100
AcDbEntity
  8
0
  6
Continuous
 62
     3
100
AcDbText
 10
1036.599999999999
 20
435.7499999999998
 30
0.05
 40
1.0
  1
９
 41
0.7
  7
KANJI0
100
AcDbText
  0
TEXT
  5
993
330
7F0
100
AcDbEntity
  8
0
  6
Continuous
 62
     3
100
AcDbText
 10
1038.7
 20
435.7499999999998
 30
0.05
 40
1.0
  1
１０
 41
0.7
  7
KANJI0
100
AcDbText
  0
TEXT
  5
994
330
7F0
100
AcDbEntity
  8
0
  6
Continuous
 62
     3
100
AcDbText
 10
1041.2
 20
435.7499999999998
 30
0.05
 40
1.0
  1
１１
 41
0.7
  7
KANJI0
100
AcDbText
  0
TEXT
  5
995
330
7F0
100
AcDbEntity
  8
0
  6
Continuous
 62
     3
100
AcDbText
 10
1043.7
 20
435.7499999999998
 30
0.05
 40
1.0
  1
１２
 41
0.7
  7
KANJI0
100
AcDbText
  0
TEXT
  5
996
330
7F0
100
AcDbEntity
  8
0
  6
Continuous
 62
     3
100
AcDbText
 10
1046.2
 20
435.7499999999998
 30
0.05
 40
1.0
  1
１３
 41
0.7
  7
KANJI0
100
AcDbText
  0
TEXT
  5
997
330
7F0
100
AcDbEntity
  8
0
  6
Continuous
 62
     3
100
AcDbText
 10
1048.699999999998
 20
435.7499999999998
 30
0.05
 40
1.0
  1
１４
 41
0.7
  7
KANJI0
100
AcDbText
  0
TEXT
  5
998
330
7F0
100
AcDbEntity
  8
0
  6
Continuous
 62
     3
100
AcDbText
 10
1051.2
 20
435.7499999999998
 30
0.05
 40
1.0
  1
１５
 41
0.7
  7
KANJI0
100
AcDbText
  0
TEXT
  5
999
330
7F0
100
AcDbEntity
  8
0
  6
Continuous
 62
     3
100
AcDbText
 10
1053.7
 20
435.7499999999998
 30
0.05
 40
1.0
  1
１６
 41
0.7
  7
KANJI0
100
AcDbText
  0
TEXT
  5
99A
330
7F0
100
AcDbEntity
  8
0
  6
Continuous
 62
     3
100
AcDbText
 10
1056.2
 20
435.7499999999998
 30
0.05
 40
1.0
  1
１７
 41
0.7
  7
KANJI0
100
AcDbText
  0
TEXT
  5
99B
330
7F0
100
AcDbEntity
  8
0
  6
Continuous
 62
     3
100
AcDbText
 10
1058.7
 20
435.7499999999998
 30
0.05
 40
1.0
  1
１８
 41
0.7
  7
KANJI0
100
AcDbText
  0
TEXT
  5
99C
330
7F0
100
AcDbEntity
  8
0
  6
Continuous
 62
     3
100
AcDbText
 10
1016.2
 20
441.25
 30
0.05
 40
1.0
  1
１９
 41
0.7
  7
KANJI0
100
AcDbText
  0
TEXT
  5
99D
330
7F0
100
AcDbEntity
  8
0
  6
Continuous
 62
     3
100
AcDbText
 10
1018.7
 20
441.25
 30
0.05
 40
1.0
  1
２０
 41
0.7
  7
KANJI0
100
AcDbText
  0
TEXT
  5
99E
330
7F0
100
AcDbEntity
  8
0
  6
Continuous
 62
     3
100
AcDbText
 10
1021.2
 20
441.25
 30
0.05
 40
1.0
  1
２１
 41
0.7
  7
KANJI0
100
AcDbText
  0
TEXT
  5
99F
330
7F0
100
AcDbEntity
  8
0
  6
Continuous
 62
     3
100
AcDbText
 10
1023.7
 20
441.25
 30
0.05
 40
1.0
  1
２２
 41
0.7
  7
KANJI0
100
AcDbText
  0
TEXT
  5
9A0
330
7F0
100
AcDbEntity
  8
0
  6
Continuous
 62
     3
100
AcDbText
 10
1026.2
 20
441.25
 30
0.05
 40
1.0
  1
２３
 41
0.7
  7
KANJI0
100
AcDbText
  0
TEXT
  5
9A1
330
7F0
100
AcDbEntity
  8
0
  6
Continuous
 62
     3
100
AcDbText
 10
1028.7
 20
441.25
 30
0.05
 40
1.0
  1
２４
 41
0.7
  7
KANJI0
100
AcDbText
  0
TEXT
  5
9A2
330
7F0
100
AcDbEntity
  8
0
  6
Continuous
 62
     3
100
AcDbText
 10
1031.2
 20
441.25
 30
0.05
 40
1.0
  1
２５
 41
0.7
  7
KANJI0
100
AcDbText
  0
TEXT
  5
9A3
330
7F0
100
AcDbEntity
  8
0
  6
Continuous
 62
     3
100
AcDbText
 10
1033.7
 20
441.25
 30
0.05
 40
1.0
  1
２６
 41
0.7
  7
KANJI0
100
AcDbText
  0
TEXT
  5
9A4
330
7F0
100
AcDbEntity
  8
0
  6
Continuous
 62
     3
100
AcDbText
 10
1036.2
 20
441.25
 30
0.05
 40
1.0
  1
２７
 41
0.7
  7
KANJI0
100
AcDbText
  0
TEXT
  5
9A5
330
7F0
100
AcDbEntity
  8
0
  6
Continuous
 62
     3
100
AcDbText
 10
1038.7
 20
441.25
 30
0.05
 40
1.0
  1
２８
 41
0.7
  7
KANJI0
100
AcDbText
  0
TEXT
  5
9A6
330
7F0
100
AcDbEntity
  8
0
  6
Continuous
 62
     3
100
AcDbText
 10
1041.2
 20
441.25
 30
0.05
 40
1.0
  1
２９
 41
0.7
  7
KANJI0
100
AcDbText
  0
TEXT
  5
9A7
330
7F0
100
AcDbEntity
  8
0
  6
Continuous
 62
     3
100
AcDbText
 10
1043.7
 20
441.25
 30
0.05
 40
1.0
  1
３０
 41
0.7
  7
KANJI0
100
AcDbText
  0
TEXT
  5
9A8
330
7F0
100
AcDbEntity
  8
0
  6
Continuous
 62
     3
100
AcDbText
 10
1046.2
 20
441.25
 30
0.05
 40
1.0
  1
３１
 41
0.7
  7
KANJI0
100
AcDbText
  0
TEXT
  5
9A9
330
7F0
100
AcDbEntity
  8
0
  6
Continuous
 62
     3
100
AcDbText
 10
1048.699999999998
 20
441.25
 30
0.05
 40
1.0
  1
３２
 41
0.7
  7
KANJI0
100
AcDbText
  0
TEXT
  5
9AA
330
7F0
100
AcDbEntity
  8
0
  6
Continuous
 62
     3
100
AcDbText
 10
1051.2
 20
441.25
 30
0.05
 40
1.0
  1
３３
 41
0.7
  7
KANJI0
100
AcDbText
  0
TEXT
  5
9AB
330
7F0
100
AcDbEntity
  8
0
  6
Continuous
 62
     3
100
AcDbText
 10
1053.7
 20
441.25
 30
0.05
 40
1.0
  1
３４
 41
0.7
  7
KANJI0
100
AcDbText
  0
TEXT
  5
9AC
330
7F0
100
AcDbEntity
  8
0
  6
Continuous
 62
     3
100
AcDbText
 10
1056.2
 20
441.25
 30
0.05
 40
1.0
  1
３５
 41
0.7
  7
KANJI0
100
AcDbText
  0
TEXT
  5
9AD
330
7F0
100
AcDbEntity
  8
0
  6
Continuous
 62
     3
100
AcDbText
 10
1058.7
 20
441.25
 30
0.05
 40
1.0
  1
３６
 41
0.7
  7
KANJI0
100
AcDbText
  0
TEXT
  5
9AE
330
7F0
100
AcDbEntity
  8
0
  6
Continuous
 62
     3
100
AcDbText
 10
1016.6
 20
433.75
 30
0.05
 40
1.0
  1
１
 41
0.7
  7
KANJI0
100
AcDbText
  0
TEXT
  5
9AF
330
7F0
100
AcDbEntity
  8
0
  6
Continuous
 62
     3
100
AcDbText
 10
1019.1
 20
433.75
 30
0.05
 40
1.0
  1
２
 41
0.7
  7
KANJI0
100
AcDbText
  0
TEXT
  5
9B0
330
7F0
100
AcDbEntity
  8
0
  6
Continuous
 62
     3
100
AcDbText
 10
1024.1
 20
433.75
 30
0.05
 40
1.0
  1
８
 41
0.7
  7
KANJI0
100
AcDbText
  0
TEXT
  5
9B1
330
7F0
100
AcDbEntity
  8
0
  6
Continuous
 62
     3
100
AcDbText
 10
1026.599999999999
 20
433.75
 30
0.05
 40
1.0
  1
１
 41
0.7
  7
KANJI0
100
AcDbText
  0
TEXT
  5
9B2
330
7F0
100
AcDbEntity
  8
0
  6
Continuous
 62
     3
100
AcDbText
 10
1029.099999999999
 20
433.75
 30
0.05
 40
1.0
  1
２
 41
0.7
  7
KANJI0
100
AcDbText
  0
TEXT
  5
9B3
330
7F0
100
AcDbEntity
  8
0
  6
Continuous
 62
     3
100
AcDbText
 10
1031.599999999998
 20
433.75
 30
0.05
 40
1.0
  1
４
 41
0.7
  7
KANJI0
100
AcDbText
  0
TEXT
  5
9B4
330
7F0
100
AcDbEntity
  8
0
  6
Continuous
 62
     3
100
AcDbText
 10
1034.1
 20
433.75
 30
0.05
 40
1.0
  1
８
 41
0.7
  7
KANJI0
100
AcDbText
  0
TEXT
  5
9B5
330
7F0
100
AcDbEntity
  8
0
  6
Continuous
 62
     3
100
AcDbText
 10
1036.599999999999
 20
433.75
 30
0.05
 40
1.0
  1
１
 41
0.7
  7
KANJI0
100
AcDbText
  0
TEXT
  5
9B6
330
7F0
100
AcDbEntity
  8
0
  6
Continuous
 62
     3
100
AcDbText
 10
1039.1
 20
433.75
 30
0.05
 40
1.0
  1
２
 41
0.7
  7
KANJI0
100
AcDbText
  0
TEXT
  5
9B7
330
7F0
100
AcDbEntity
  8
0
  6
Continuous
 62
     3
100
AcDbText
 10
1056.599999999999
 20
433.75
 30
0.05
 40
1.0
  1
０
 41
0.7
  7
KANJI0
100
AcDbText
  0
TEXT
  5
9B8
330
7F0
100
AcDbEntity
  8
0
  6
Continuous
 62
     3
100
AcDbText
 10
1058.3
 20
433.75
 30
0.05
 40
1.0
  1
ＣＯＭ
 41
0.7
  7
KANJI0
100
AcDbText
  0
TEXT
  5
9B9
330
7F0
100
AcDbEntity
  8
0
  6
Continuous
 62
     3
100
AcDbText
 10
1053.749999999997
 20
433.75
 30
0.05
 40
1.0
  1
ＳＧ
 41
0.7
  7
KANJI0
100
AcDbText
  0
TEXT
  5
9BA
330
7F0
100
AcDbEntity
  8
0
  6
Continuous
 62
     3
100
AcDbText
 10
1050.9
 20
433.75
 30
0.05
 40
1.0
  1
ＴＸＤ
 41
0.7
  7
KANJI0
100
AcDbText
  0
TEXT
  5
9BB
330
7F0
100
AcDbEntity
  8
0
  6
Continuous
 62
     3
100
AcDbText
 10
1048.349999999999
 20
433.75
 30
0.05
 40
1.0
  1
ＲＸＤ
 41
0.7
  7
KANJI0
100
AcDbText
  0
TEXT
  5
9BC
330
7F0
100
AcDbEntity
  8
0
  6
Continuous
 62
     3
100
AcDbText
 10
1016.6
 20
443.25
 30
0.05
 40
1.0
  1
１
 41
0.7
  7
KANJI0
100
AcDbText
  0
TEXT
  5
9BD
330
7F0
100
AcDbEntity
  8
0
  6
Continuous
 62
     3
100
AcDbText
 10
1019.1
 20
443.25
 30
0.05
 40
1.0
  1
２
 41
0.7
  7
KANJI0
100
AcDbText
  0
TEXT
  5
9BE
330
7F0
100
AcDbEntity
  8
0
  6
Continuous
 62
     3
100
AcDbText
 10
1021.6
 20
443.25
 30
0.05
 40
1.0
  1
４
 41
0.7
  7
KANJI0
100
AcDbText
  0
TEXT
  5
9BF
330
7F0
100
AcDbEntity
  8
0
  6
Continuous
 62
     3
100
AcDbText
 10
1024.1
 20
443.25
 30
0.05
 40
1.0
  1
８
 41
0.7
  7
KANJI0
100
AcDbText
  0
TEXT
  5
9C0
330
7F0
100
AcDbEntity
  8
0
  6
Continuous
 62
     3
100
AcDbText
 10
1026.599999999999
 20
443.25
 30
0.05
 40
1.0
  1
１
 41
0.7
  7
KANJI0
100
AcDbText
  0
TEXT
  5
9C1
330
7F0
100
AcDbEntity
  8
0
  6
Continuous
 62
     3
100
AcDbText
 10
1029.099999999999
 20
443.25
 30
0.05
 40
1.0
  1
２
 41
0.7
  7
KANJI0
100
AcDbText
  0
TEXT
  5
9C2
330
7F0
100
AcDbEntity
  8
0
  6
Continuous
 62
     3
100
AcDbText
 10
1031.599999999998
 20
443.25
 30
0.05
 40
1.0
  1
４
 41
0.7
  7
KANJI0
100
AcDbText
  0
TEXT
  5
9C3
330
7F0
100
AcDbEntity
  8
0
  6
Continuous
 62
     3
100
AcDbText
 10
1034.1
 20
443.25
 30
0.05
 40
1.0
  1
８
 41
0.7
  7
KANJI0
100
AcDbText
  0
TEXT
  5
9C4
330
7F0
100
AcDbEntity
  8
0
  6
Continuous
 62
     3
100
AcDbText
 10
1056.599999999999
 20
443.25
 30
0.05
 40
1.0
  1
１
 41
0.7
  7
KANJI0
100
AcDbText
  0
TEXT
  5
9C5
330
7F0
100
AcDbEntity
  8
0
  6
Continuous
 62
     3
100
AcDbText
 10
1058.349999999999
 20
443.25
 30
0.05
 40
1.0
  1
ＣＯＭ
 41
0.7
  7
KANJI0
100
AcDbText
  0
TEXT
  5
9C6
330
7F0
100
AcDbEntity
  8
0
  6
Continuous
 62
     3
100
AcDbText
 10
1048.25
 20
443.25
 30
0.05
 40
1.0
  1
ＲＴＳ
 41
0.7
  7
KANJI0
100
AcDbText
  0
TEXT
  5
9C7
330
7F0
100
AcDbEntity
  8
0
  6
Continuous
 62
     3
100
AcDbText
 10
1050.85
 20
443.25
 30
0.05
 40
1.0
  1
ＣＴＳ
 41
0.7
  7
KANJI0
100
AcDbText
  0
TEXT
  5
9C8
330
7F0
100
AcDbEntity
  8
0
  6
Continuous
 62
     3
100
AcDbText
 10
1053.7
 20
443.25
 30
0.05
 40
1.0
  1
ＳＧ
 41
0.7
  7
KANJI0
100
AcDbText
  0
TEXT
  5
9C9
330
7F0
100
AcDbEntity
  8
0
  6
Continuous
 62
     3
100
AcDbText
 10
1021.6
 20
433.75
 30
0.05
 40
1.0
  1
４
 41
0.7
  7
KANJI0
100
AcDbText
  0
TEXT
  5
9CA
330
7F0
100
AcDbEntity
  8
0
  6
Continuous
 62
     3
100
AcDbText
 10
1019.6
 20
432.2499999999998
 30
0.05
 40
1.0
  1
１０
 41
0.7
  7
KANJI0
100
AcDbText
  0
TEXT
  5
9CB
330
7F0
100
AcDbEntity
  8
0
  6
Continuous
 62
     3
100
AcDbText
 10
1021.1
 20
432.7499999999998
 30
0.025
 40
0.5
  1
０
 41
0.7
  7
KANJI1
100
AcDbText
  0
TEXT
  5
9CC
330
7F0
100
AcDbEntity
  8
0
  6
Continuous
 62
     3
100
AcDbText
 10
1019.6
 20
444.7499999999998
 30
0.05
 40
1.0
  1
１０
 41
0.7
  7
KANJI0
100
AcDbText
  0
TEXT
  5
9CD
330
7F0
100
AcDbEntity
  8
0
  6
Continuous
 62
     3
100
AcDbText
 10
1021.1
 20
445.2499999999998
 30
0.025
 40
0.5
  1
１
 41
0.7
  7
KANJI1
100
AcDbText
  0
TEXT
  5
9CE
330
7F0
100
AcDbEntity
  8
0
  6
Continuous
 62
     3
100
AcDbText
 10
1029.6
 20
444.7499999999998
 30
0.05
 40
1.0
  1
１０
 41
0.7
  7
KANJI0
100
AcDbText
  0
TEXT
  5
9CF
330
7F0
100
AcDbEntity
  8
0
  6
Continuous
 62
     3
100
AcDbText
 10
1031.1
 20
445.2499999999998
 30
0.025
 40
0.5
  1
３
 41
0.7
  7
KANJI1
100
AcDbText
  0
TEXT
  5
9D0
330
7F0
100
AcDbEntity
  8
0
  6
Continuous
 62
     3
100
AcDbText
 10
1029.6
 20
432.2499999999998
 30
0.05
 40
1.0
  1
１０
 41
0.7
  7
KANJI0
100
AcDbText
  0
TEXT
  5
9D1
330
7F0
100
AcDbEntity
  8
0
  6
Continuous
 62
     3
100
AcDbText
 10
1031.1
 20
432.7499999999998
 30
0.025
 40
0.5
  1
２
 41
0.7
  7
KANJI1
100
AcDbText
  0
LINE
  5
9D2
330
7F0
100
AcDbEntity
  8
0
  6
Continuous
 62
     3
100
AcDbLine
 10
1016.85
 20
444.7499999999998
 30
0.025
 11
1016.85
 21
445.2499999999998
 31
0.025
  0
LINE
  5
9D3
330
7F0
100
AcDbEntity
  8
0
  6
Continuous
 62
     3
100
AcDbLine
 10
1016.85
 20
445.2499999999998
 30
0.0
 11
1019.349999999999
 21
445.2499999999998
 31
0.0
  0
LINE
  5
9D4
330
7F0
100
AcDbEntity
  8
0
  6
Continuous
 62
     3
100
AcDbLine
 10
1021.6
 20
445.2499999999998
 30
0.0
 11
1024.349999999998
 21
445.2499999999998
 31
0.0
  0
LINE
  5
9D5
330
7F0
100
AcDbEntity
  8
0
  6
Continuous
 62
     3
100
AcDbLine
 10
1024.349999999998
 20
445.2499999999998
 30
0.0
 11
1024.349999999998
 21
444.7499999999998
 31
0.0
  0
LINE
  5
9D6
330
7F0
100
AcDbEntity
  8
0
  6
Continuous
 62
     3
100
AcDbLine
 10
1026.85
 20
444.7499999999998
 30
0.0
 11
1026.85
 21
445.2499999999998
 31
0.0
  0
LINE
  5
9D7
330
7F0
100
AcDbEntity
  8
0
  6
Continuous
 62
     3
100
AcDbLine
 10
1026.85
 20
445.2499999999998
 30
0.0
 11
1029.349999999999
 21
445.2499999999998
 31
0.0
  0
LINE
  5
9D8
330
7F0
100
AcDbEntity
  8
0
  6
Continuous
 62
     3
100
AcDbLine
 10
1031.599999999998
 20
445.2499999999998
 30
0.0
 11
1034.349999999998
 21
445.2499999999998
 31
0.0
  0
LINE
  5
9D9
330
7F0
100
AcDbEntity
  8
0
  6
Continuous
 62
     3
100
AcDbLine
 10
1034.349999999998
 20
445.2499999999998
 30
0.0
 11
1034.349999999998
 21
444.7499999999998
 31
0.0
  0
LINE
  5
9DA
330
7F0
100
AcDbEntity
  8
0
  6
Continuous
 62
     3
100
AcDbLine
 10
1034.349999999998
 20
433.25
 30
0.0
 11
1034.349999999998
 21
432.7499999999998
 31
0.0
  0
LINE
  5
9DB
330
7F0
100
AcDbEntity
  8
0
  6
Continuous
 62
     3
100
AcDbLine
 10
1034.349999999998
 20
432.7499999999998
 30
0.0
 11
1031.599999999998
 21
432.7499999999998
 31
0.0
  0
LINE
  5
9DC
330
7F0
100
AcDbEntity
  8
0
  6
Continuous
 62
     3
100
AcDbLine
 10
1029.349999999999
 20
432.7499999999998
 30
0.0
 11
1026.85
 21
432.7499999999998
 31
0.0
  0
LINE
  5
9DD
330
7F0
100
AcDbEntity
  8
0
  6
Continuous
 62
     3
100
AcDbLine
 10
1026.85
 20
432.7499999999998
 30
0.0
 11
1026.85
 21
433.25
 31
0.0
  0
LINE
  5
9DE
330
7F0
100
AcDbEntity
  8
0
  6
Continuous
 62
     3
100
AcDbLine
 10
1024.349999999998
 20
433.25
 30
0.0
 11
1024.349999999998
 21
432.7499999999998
 31
0.0
  0
LINE
  5
9DF
330
7F0
100
AcDbEntity
  8
0
  6
Continuous
 62
     3
100
AcDbLine
 10
1024.349999999998
 20
432.7499999999998
 30
0.0
 11
1021.6
 21
432.7499999999998
 31
0.0
  0
LINE
  5
9E0
330
7F0
100
AcDbEntity
  8
0
  6
Continuous
 62
     3
100
AcDbLine
 10
1019.349999999999
 20
432.7499999999998
 30
0.0
 11
1016.85
 21
432.7499999999998
 31
0.0
  0
LINE
  5
9E1
330
7F0
100
AcDbEntity
  8
0
  6
Continuous
 62
     3
100
AcDbLine
 10
1016.85
 20
432.7499999999998
 30
0.0
 11
1016.85
 21
433.25
 31
0.0
  0
LINE
  5
9E2
330
7F0
100
AcDbEntity
  8
0
  6
Continuous
 62
     3
100
AcDbLine
 10
1036.85
 20
433.25
 30
0.0
 11
1036.85
 21
432.7499999999998
 31
0.0
  0
LINE
  5
9E3
330
7F0
100
AcDbEntity
  8
0
  6
Continuous
 62
     3
100
AcDbLine
 10
1036.85
 20
432.7499999999998
 30
0.0
 11
1037.099999999999
 21
432.7499999999998
 31
0.0
  0
LINE
  5
9E4
330
7F0
100
AcDbEntity
  8
0
  6
Continuous
 62
     3
100
AcDbLine
 10
1039.1
 20
432.7499999999998
 30
0.0
 11
1039.349999999999
 21
432.7499999999998
 31
0.0
  0
LINE
  5
9E5
330
7F0
100
AcDbEntity
  8
0
  6
Continuous
 62
     3
100
AcDbLine
 10
1039.349999999999
 20
432.7499999999998
 30
0.0
 11
1039.349999999999
 21
433.25
 31
0.0
  0
TEXT
  5
9E6
330
7F0
100
AcDbEntity
  8
0
  6
Continuous
 62
     3
100
AcDbText
 10
1037.25
 20
432.2499999999998
 30
0.05
 40
1.0
  1
１０
 41
0.7
  7
KANJI0
100
AcDbText
  0
TEXT
  5
9E7
330
7F0
100
AcDbEntity
  8
0
  6
Continuous
 62
     3
100
AcDbText
 10
1038.75
 20
432.7499999999998
 30
0.025
 40
0.5
  1
４
 41
0.7
  7
KANJI1
100
AcDbText
  0
TEXT
  5
9E8
330
7F0
100
AcDbEntity
  8
0
  6
Continuous
 62
     3
100
AcDbText
 10
1033.099999999999
 20
427.7499999999998
 30
0.05
 40
1.0
  1
ＡＮＡＬＯＧ　ＯＵＴ
 41
0.7
  7
KANJI0
100
AcDbText
  0
TEXT
  5
9E9
330
7F0
100
AcDbEntity
  8
0
  6
Continuous
 62
     3
100
AcDbText
 10
1022.1
 20
429.25
 30
0.05
 40
1.0
  1
ＢＣＤ　ＯＵＴ
 41
0.7
  7
KANJI0
100
AcDbText
  0
LINE
  5
9EA
330
7F0
100
AcDbEntity
  8
0
  6
Continuous
 62
     3
100
AcDbLine
 10
1016.85
 20
432.2499999999998
 30
0.05
 11
1016.85
 21
429.75
 31
0.05
  0
LINE
  5
9EB
330
7F0
100
AcDbEntity
  8
0
  6
Continuous
 62
     3
100
AcDbLine
 10
1016.85
 20
429.75
 30
0.0
 11
1021.85
 21
429.75
 31
0.0
  0
LINE
  5
9EC
330
7F0
100
AcDbEntity
  8
0
  6
Continuous
 62
     3
100
AcDbLine
 10
1041.849999999999
 20
434.75
 30
0.0
 11
1041.849999999999
 21
431.25
 31
0.0
  0
LINE
  5
9ED
330
7F0
100
AcDbEntity
  8
0
  6
Continuous
 62
     3
100
AcDbLine
 10
1041.849999999999
 20
431.25
 30
0.0
 11
1040.85
 21
431.25
 31
0.0
  0
TEXT
  5
9EE
330
7F0
100
AcDbEntity
  8
0
  6
Continuous
 62
     3
100
AcDbText
 10
1036.1
 20
430.75
 30
0.05
 40
1.0
  1
ＥＮＡＢＬＥ
 41
0.7
  7
KANJI0
100
AcDbText
  0
TEXT
  5
9EF
330
7F0
100
AcDbEntity
  8
0
  6
Continuous
 62
     3
100
AcDbText
 10
1035.349999999999
 20
429.25
 30
0.05
 40
1.0
  1
ＤＩＧ．ＣＯＭ
 41
0.7
  7
KANJI0
100
AcDbText
  0
LINE
  5
9F0
330
7F0
100
AcDbEntity
  8
0
  6
Continuous
 62
     3
100
AcDbLine
 10
1035.099999999999
 20
429.75
 30
0.05
 11
1027.349999999999
 21
429.75
 31
0.05
  0
LINE
  5
9F1
330
7F0
100
AcDbEntity
  8
0
  6
Continuous
 62
     3
100
AcDbLine
 10
1040.85
 20
429.75
 30
0.0
 11
1044.349999999999
 21
429.75
 31
0.0
  0
LINE
  5
9F2
330
7F0
100
AcDbEntity
  8
0
  6
Continuous
 62
     3
100
AcDbLine
 10
1044.349999999999
 20
429.75
 30
0.0
 11
1044.349999999999
 21
434.75
 31
0.0
  0
LINE
  5
9F3
330
7F0
100
AcDbEntity
  8
0
  6
Continuous
 62
     3
100
AcDbLine
 10
1046.849999999998
 20
434.75
 30
0.0
 11
1046.849999999998
 21
428.2499999999997
 31
0.0
  0
LINE
  5
9F4
330
7F0
100
AcDbEntity
  8
0
  6
Continuous
 62
     3
100
AcDbLine
 10
1046.849999999998
 20
428.2499999999997
 30
0.0
 11
1040.85
 21
428.2499999999997
 31
0.0
  0
LINE
  5
9F5
330
7F0
100
AcDbEntity
  8
0
  6
Continuous
 62
     3
100
AcDbLine
 10
1049.35
 20
433.25
 30
0.0
 11
1049.35
 21
432.7499999999998
 31
0.0
  0
LINE
  5
9F6
330
7F0
100
AcDbEntity
  8
0
  6
Continuous
 62
     3
100
AcDbLine
 10
1049.35
 20
432.7499999999998
 30
0.0
 11
1054.35
 21
432.7499999999998
 31
0.0
  0
LINE
  5
9F7
330
7F0
100
AcDbEntity
  8
0
  6
Continuous
 62
     3
100
AcDbLine
 10
1054.35
 20
432.7499999999998
 30
0.0
 11
1054.35
 21
433.25
 31
0.0
  0
LINE
  5
9F8
330
7F0
100
AcDbEntity
  8
0
  6
Continuous
 62
     3
100
AcDbLine
 10
1056.849999999998
 20
433.25
 30
0.0
 11
1056.849999999998
 21
432.7499999999998
 31
0.0
  0
LINE
  5
9F9
330
7F0
100
AcDbEntity
  8
0
  6
Continuous
 62
     3
100
AcDbLine
 10
1056.849999999998
 20
432.7499999999998
 30
0.0
 11
1059.35
 21
432.7499999999998
 31
0.0
  0
LINE
  5
9FA
330
7F0
100
AcDbEntity
  8
0
  6
Continuous
 62
     3
100
AcDbLine
 10
1059.35
 20
432.7499999999998
 30
0.0
 11
1059.35
 21
433.25
 31
0.0
  0
LINE
  5
9FB
330
7F0
100
AcDbEntity
  8
0
  6
Continuous
 62
     3
100
AcDbLine
 10
1059.35
 20
444.7499999999998
 30
0.0
 11
1059.35
 21
445.2499999999998
 31
0.0
  0
LINE
  5
9FC
330
7F0
100
AcDbEntity
  8
0
  6
Continuous
 62
     3
100
AcDbLine
 10
1059.35
 20
445.2499999999998
 30
0.0
 11
1056.849999999998
 21
445.2499999999998
 31
0.0
  0
LINE
  5
9FD
330
7F0
100
AcDbEntity
  8
0
  6
Continuous
 62
     3
100
AcDbLine
 10
1056.849999999998
 20
445.2499999999998
 30
0.0
 11
1056.849999999998
 21
444.7499999999998
 31
0.0
  0
LINE
  5
9FE
330
7F0
100
AcDbEntity
  8
0
  6
Continuous
 62
     3
100
AcDbLine
 10
1054.35
 20
444.7499999999998
 30
0.0
 11
1054.35
 21
445.2499999999998
 31
0.0
  0
LINE
  5
9FF
330
7F0
100
AcDbEntity
  8
0
  6
Continuous
 62
     3
100
AcDbLine
 10
1054.35
 20
445.2499999999998
 30
0.0
 11
1049.35
 21
445.2499999999998
 31
0.0
  0
LINE
  5
A00
330
7F0
100
AcDbEntity
  8
0
  6
Continuous
 62
     3
100
AcDbLine
 10
1049.35
 20
445.2499999999998
 30
0.0
 11
1049.35
 21
444.7499999999998
 31
0.0
  0
TEXT
  5
A01
330
7F0
100
AcDbEntity
  8
0
  6
Continuous
 62
     3
100
AcDbText
 10
1049.35
 20
445.75
 30
0.05
 40
1.0
  1
ＲＳ－２３２Ｃ
 41
0.7
  7
KANJI0
100
AcDbText
  0
TEXT
  5
A02
330
7F0
100
AcDbEntity
  8
0
  6
Continuous
 62
     3
100
AcDbText
 10
1056.349999999999
 20
445.75
 30
0.05
 40
1.0
  1
Ｐ．ＳＥＬ
 41
0.7
  7
KANJI0
100
AcDbText
  0
TEXT
  5
A03
330
7F0
100
AcDbEntity
  8
0
  6
Continuous
 62
     3
100
AcDbText
 10
1056.349999999999
 20
431.25
 30
0.05
 40
1.0
  1
Ｐ．ＳＥＬ
 41
0.7
  7
KANJI0
100
AcDbText
  0
TEXT
  5
A04
330
7F0
100
AcDbEntity
  8
0
  6
Continuous
 62
     3
100
AcDbText
 10
1049.35
 20
431.25
 30
0.05
 40
1.0
  1
ＲＳ－２３２Ｃ
 41
0.7
  7
KANJI0
100
AcDbText
  0
TEXT
  5
A05
330
7F0
100
AcDbEntity
  8
0
  6
Continuous
 62
     3
100
AcDbText
 10
1050.85
 20
426.25
 30
0.05
 40
1.0
  1
ＵＨ－４４４１５
 41
0.7
  7
KANJI0
100
AcDbText
  0
TEXT
  5
A06
330
7F0
100
AcDbEntity
  8
0
  6
Continuous
 62
     3
100
AcDbText
 10
1041.2
 20
444.7499999999998
 30
0.05
 40
1.0
  1
ＰＣ
 41
0.7
  7
KANJI0
100
AcDbText
  0
TEXT
  5
A07
330
7F0
100
AcDbEntity
  8
0
  6
Continuous
 62
     3
100
AcDbText
 10
1035.849999999999
 20
444.7499999999998
 30
0.05
 40
1.0
  1
ＰＯＬ
 41
0.7
  7
KANJI0
100
AcDbText
  0
LINE
  5
A08
330
7F0
100
AcDbEntity
  8
0
  6
Continuous
 62
     3
100
AcDbLine
 10
1036.85
 20
443.25
 30
0.05
 11
1036.85
 21
444.2499999999998
 31
0.05
  0
LINE
  5
A09
330
7F0
100
AcDbEntity
  8
0
  6
Continuous
 62
     3
100
AcDbLine
 10
1041.849999999999
 20
444.2499999999998
 30
0.0
 11
1041.849999999999
 21
443.25
 31
0.0
  0
TEXT
  5
A0A
330
7F0
100
AcDbEntity
  8
0
  6
Continuous
 62
     3
100
AcDbText
 10
1035.849999999999
 20
446.25
 30
0.05
 40
1.0
  1
ＯＶＥＲ
 41
0.7
  7
KANJI0
100
AcDbText
  0
TEXT
  5
A0B
330
7F0
100
AcDbEntity
  8
0
  6
Continuous
 62
     3
100
AcDbText
 10
1035.849999999999
 20
447.75
 30
0.05
 40
1.0
  1
ＤＩＧ．ＣＯＭ
 41
0.7
  7
KANJI0
100
AcDbText
  0
TEXT
  5
A0C
330
7F0
100
AcDbEntity
  8
0
  6
Continuous
 62
     3
100
AcDbText
 10
1035.849999999999
 20
449.2499999999998
 30
0.05
 40
1.0
  1
ＡＮＡＬＯＧ　ＣＯＭ
 41
0.7
  7
KANJI0
100
AcDbText
  0
TEXT
  5
A0D
330
7F0
100
AcDbEntity
  8
0
  6
Continuous
 62
     3
100
AcDbText
 10
1022.1
 20
447.75
 30
0.05
 40
1.0
  1
ＢＣＤ　ＯＵＴ
 41
0.7
  7
KANJI0
100
AcDbText
  0
LINE
  5
A0E
330
7F0
100
AcDbEntity
  8
0
  6
Continuous
 62
     3
100
AcDbLine
 10
1016.85
 20
445.75
 30
0.05
 11
1016.85
 21
448.2499999999998
 31
0.05
  0
LINE
  5
A0F
330
7F0
100
AcDbEntity
  8
0
  6
Continuous
 62
     3
100
AcDbLine
 10
1016.85
 20
448.2499999999998
 30
0.0
 11
1021.85
 21
448.2499999999998
 31
0.0
  0
LINE
  5
A10
330
7F0
100
AcDbEntity
  8
0
  6
Continuous
 62
     3
100
AcDbLine
 10
1027.349999999999
 20
448.2499999999998
 30
0.0
 11
1035.6
 21
448.2499999999998
 31
0.0
  0
LINE
  5
A11
330
7F0
100
AcDbEntity
  8
0
  6
Continuous
 62
     3
100
AcDbLine
 10
1041.349999999999
 20
448.2499999999998
 30
0.0
 11
1044.349999999999
 21
448.2499999999998
 31
0.0
  0
LINE
  5
A12
330
7F0
100
AcDbEntity
  8
0
  6
Continuous
 62
     3
100
AcDbLine
 10
1044.349999999999
 20
448.2499999999998
 30
0.0
 11
1044.349999999999
 21
443.25
 31
0.0
  0
LINE
  5
A13
330
7F0
100
AcDbEntity
  8
0
  6
Continuous
 62
     3
100
AcDbLine
 10
1043.6
 20
449.75
 30
0.0
 11
1046.849999999998
 21
449.75
 31
0.0
  0
LINE
  5
A14
330
7F0
100
AcDbEntity
  8
0
  6
Continuous
 62
     3
100
AcDbLine
 10
1046.849999999998
 20
449.75
 30
0.0
 11
1046.849999999998
 21
443.25
 31
0.0
  0
LINE
  5
A15
330
7F0
100
AcDbEntity
  8
0
  6
Continuous
 62
     3
100
AcDbLine
 10
1038.849999999998
 20
446.75
 30
0.0
 11
1039.349999999999
 21
446.75
 31
0.0
  0
LINE
  5
A16
330
7F0
100
AcDbEntity
  8
0
  6
Continuous
 62
     3
100
AcDbLine
 10
1039.349999999999
 20
446.75
 30
0.0
 11
1039.349999999999
 21
443.25
 31
0.0
  0
LINE
  5
A17
330
7F0
100
AcDbEntity
  8
0
  6
LTYPE1
 62
     3
100
AcDbLine
 10
1044.349999999999
 20
439.7499999999998
 30
0.0
 11
1044.349999999999
 21
438.25
 31
0.0
  0
LINE
  5
A18
330
7F0
100
AcDbEntity
  8
0
  6
LTYPE1
 62
     3
100
AcDbLine
 10
1044.85
 20
440.2499999999998
 30
0.0
 11
1046.35
 21
440.2499999999998
 31
0.0
  0
LINE
  5
A19
330
7F0
100
AcDbEntity
  8
0
  6
LTYPE1
 62
     3
100
AcDbLine
 10
1044.349999999999
 20
439.0
 30
0.0
 11
1054.35
 21
439.0
 31
0.0
  0
LINE
  5
A1A
330
7F0
100
AcDbEntity
  8
0
  6
LTYPE1
 62
     3
100
AcDbLine
 10
1054.35
 20
439.7499999999998
 30
0.0
 11
1054.35
 21
438.25
 31
0.0
  0
LINE
  5
A1B
330
7F0
100
AcDbEntity
  8
0
  6
LTYPE1
 62
     3
100
AcDbLine
 10
1059.35
 20
438.25
 30
0.0
 11
1059.35
 21
439.7499999999998
 31
0.0
  0
LINE
  5
A1C
330
7F0
100
AcDbEntity
  8
0
  6
Continuous
 62
     1
100
AcDbLine
 10
1038.849999999998
 20
439.7499999999998
 30
0.0
 11
1038.849999999998
 21
440.7499999999997
 31
0.0
  0
LINE
  5
A1D
330
7F0
100
AcDbEntity
  8
0
  6
Continuous
 62
     1
100
AcDbLine
 10
1038.849999999998
 20
440.7499999999997
 30
0.0
 11
1039.849999999999
 21
440.7499999999997
 31
0.0
  0
LINE
  5
A1E
330
7F0
100
AcDbEntity
  8
0
  6
Continuous
 62
     1
100
AcDbLine
 10
1039.849999999999
 20
440.7499999999997
 30
0.0
 11
1039.849999999999
 21
439.7499999999998
 31
0.0
  0
LINE
  5
A1F
330
7F0
100
AcDbEntity
  8
0
  6
Continuous
 62
     1
100
AcDbLine
 10
1039.849999999999
 20
439.7499999999998
 30
0.0
 11
1038.849999999998
 21
439.7499999999998
 31
0.0
  0
LINE
  5
A20
330
7F0
100
AcDbEntity
  8
0
  6
Continuous
 62
     1
100
AcDbLine
 10
1038.849999999998
 20
437.25
 30
0.0
 11
1038.849999999998
 21
438.25
 31
0.0
  0
LINE
  5
A21
330
7F0
100
AcDbEntity
  8
0
  6
Continuous
 62
     1
100
AcDbLine
 10
1038.849999999998
 20
438.25
 30
0.0
 11
1039.849999999999
 21
438.25
 31
0.0
  0
LINE
  5
A22
330
7F0
100
AcDbEntity
  8
0
  6
Continuous
 62
     1
100
AcDbLine
 10
1039.849999999999
 20
438.25
 30
0.0
 11
1039.849999999999
 21
437.25
 31
0.0
  0
LINE
  5
A23
330
7F0
100
AcDbEntity
  8
0
  6
Continuous
 62
     1
100
AcDbLine
 10
1039.849999999999
 20
437.25
 30
0.0
 11
1038.849999999998
 21
437.25
 31
0.0
  0
LINE
  5
A24
330
7F0
100
AcDbEntity
  8
0
  6
Continuous
 62
     1
100
AcDbLine
 10
1041.349999999999
 20
439.7499999999998
 30
0.0
 11
1041.349999999999
 21
440.7499999999997
 31
0.0
  0
LINE
  5
A25
330
7F0
100
AcDbEntity
  8
0
  6
Continuous
 62
     1
100
AcDbLine
 10
1041.349999999999
 20
440.7499999999997
 30
0.0
 11
1042.349999999998
 21
440.7499999999997
 31
0.0
  0
LINE
  5
A26
330
7F0
100
AcDbEntity
  8
0
  6
Continuous
 62
     1
100
AcDbLine
 10
1042.349999999998
 20
440.7499999999997
 30
0.0
 11
1042.349999999998
 21
439.7499999999998
 31
0.0
  0
LINE
  5
A27
330
7F0
100
AcDbEntity
  8
0
  6
Continuous
 62
     1
100
AcDbLine
 10
1042.349999999998
 20
439.7499999999998
 30
0.0
 11
1041.349999999999
 21
439.7499999999998
 31
0.0
  0
LINE
  5
A28
330
7F0
100
AcDbEntity
  8
0
  6
Continuous
 62
     1
100
AcDbLine
 10
1041.349999999999
 20
437.25
 30
0.0
 11
1041.349999999999
 21
438.25
 31
0.0
  0
LINE
  5
A29
330
7F0
100
AcDbEntity
  8
0
  6
Continuous
 62
     1
100
AcDbLine
 10
1041.349999999999
 20
438.25
 30
0.0
 11
1042.349999999998
 21
438.25
 31
0.0
  0
LINE
  5
A2A
330
7F0
100
AcDbEntity
  8
0
  6
Continuous
 62
     1
100
AcDbLine
 10
1042.349999999998
 20
438.25
 30
0.0
 11
1042.349999999998
 21
437.25
 31
0.0
  0
LINE
  5
A2B
330
7F0
100
AcDbEntity
  8
0
  6
Continuous
 62
     1
100
AcDbLine
 10
1042.349999999998
 20
437.25
 30
0.0
 11
1041.349999999999
 21
437.25
 31
0.0
  0
LINE
  5
A2C
330
7F0
100
AcDbEntity
  8
0
  6
Continuous
 62
     1
100
AcDbLine
 10
1036.35
 20
439.7499999999998
 30
0.0
 11
1036.35
 21
440.7499999999997
 31
0.0
  0
LINE
  5
A2D
330
7F0
100
AcDbEntity
  8
0
  6
Continuous
 62
     1
100
AcDbLine
 10
1036.35
 20
440.7499999999997
 30
0.0
 11
1037.349999999999
 21
440.7499999999997
 31
0.0
  0
LINE
  5
A2E
330
7F0
100
AcDbEntity
  8
0
  6
Continuous
 62
     1
100
AcDbLine
 10
1037.349999999999
 20
440.7499999999997
 30
0.0
 11
1037.349999999999
 21
439.7499999999998
 31
0.0
  0
LINE
  5
A2F
330
7F0
100
AcDbEntity
  8
0
  6
Continuous
 62
     1
100
AcDbLine
 10
1037.349999999999
 20
439.7499999999998
 30
0.0
 11
1036.35
 21
439.7499999999998
 31
0.0
  0
LINE
  5
A30
330
7F0
100
AcDbEntity
  8
0
  6
Continuous
 62
     1
100
AcDbLine
 10
1036.35
 20
437.25
 30
0.0
 11
1036.35
 21
438.25
 31
0.0
  0
LINE
  5
A31
330
7F0
100
AcDbEntity
  8
0
  6
Continuous
 62
     1
100
AcDbLine
 10
1036.35
 20
438.25
 30
0.0
 11
1037.349999999999
 21
438.25
 31
0.0
  0
LINE
  5
A32
330
7F0
100
AcDbEntity
  8
0
  6
Continuous
 62
     1
100
AcDbLine
 10
1037.349999999999
 20
438.25
 30
0.0
 11
1037.349999999999
 21
437.25
 31
0.0
  0
LINE
  5
A33
330
7F0
100
AcDbEntity
  8
0
  6
Continuous
 62
     1
100
AcDbLine
 10
1037.349999999999
 20
437.25
 30
0.0
 11
1036.35
 21
437.25
 31
0.0
  0
LINE
  5
A34
330
7F0
100
AcDbEntity
  8
0
  6
Continuous
 62
     1
100
AcDbLine
 10
1043.849999999999
 20
439.7499999999998
 30
0.0
 11
1043.849999999999
 21
440.7499999999997
 31
0.0
  0
LINE
  5
A35
330
7F0
100
AcDbEntity
  8
0
  6
Continuous
 62
     1
100
AcDbLine
 10
1043.849999999999
 20
440.7499999999997
 30
0.0
 11
1044.85
 21
440.7499999999997
 31
0.0
  0
LINE
  5
A36
330
7F0
100
AcDbEntity
  8
0
  6
Continuous
 62
     1
100
AcDbLine
 10
1044.85
 20
440.7499999999997
 30
0.0
 11
1044.85
 21
439.7499999999998
 31
0.0
  0
LINE
  5
A37
330
7F0
100
AcDbEntity
  8
0
  6
Continuous
 62
     1
100
AcDbLine
 10
1044.85
 20
439.7499999999998
 30
0.0
 11
1043.849999999999
 21
439.7499999999998
 31
0.0
  0
LINE
  5
A38
330
7F0
100
AcDbEntity
  8
0
  6
Continuous
 62
     1
100
AcDbLine
 10
1043.849999999999
 20
437.25
 30
0.0
 11
1043.849999999999
 21
438.25
 31
0.0
  0
LINE
  5
A39
330
7F0
100
AcDbEntity
  8
0
  6
Continuous
 62
     1
100
AcDbLine
 10
1043.849999999999
 20
438.25
 30
0.0
 11
1044.85
 21
438.25
 31
0.0
  0
LINE
  5
A3A
330
7F0
100
AcDbEntity
  8
0
  6
Continuous
 62
     1
100
AcDbLine
 10
1044.85
 20
438.25
 30
0.0
 11
1044.85
 21
437.25
 31
0.0
  0
LINE
  5
A3B
330
7F0
100
AcDbEntity
  8
0
  6
Continuous
 62
     1
100
AcDbLine
 10
1044.85
 20
437.25
 30
0.0
 11
1043.849999999999
 21
437.25
 31
0.0
  0
LINE
  5
A3C
330
7F0
100
AcDbEntity
  8
0
  6
Continuous
 62
     1
100
AcDbLine
 10
1046.35
 20
439.7499999999998
 30
0.0
 11
1046.35
 21
440.7499999999997
 31
0.0
  0
LINE
  5
A3D
330
7F0
100
AcDbEntity
  8
0
  6
Continuous
 62
     1
100
AcDbLine
 10
1046.35
 20
440.7499999999997
 30
0.0
 11
1047.35
 21
440.7499999999997
 31
0.0
  0
LINE
  5
A3E
330
7F0
100
AcDbEntity
  8
0
  6
Continuous
 62
     1
100
AcDbLine
 10
1047.35
 20
440.7499999999997
 30
0.0
 11
1047.35
 21
439.7499999999998
 31
0.0
  0
LINE
  5
A3F
330
7F0
100
AcDbEntity
  8
0
  6
Continuous
 62
     1
100
AcDbLine
 10
1047.35
 20
439.7499999999998
 30
0.0
 11
1046.35
 21
439.7499999999998
 31
0.0
  0
LINE
  5
A40
330
7F0
100
AcDbEntity
  8
0
  6
Continuous
 62
     1
100
AcDbLine
 10
1046.35
 20
437.25
 30
0.0
 11
1046.35
 21
438.25
 31
0.0
  0
LINE
  5
A41
330
7F0
100
AcDbEntity
  8
0
  6
Continuous
 62
     1
100
AcDbLine
 10
1046.35
 20
438.25
 30
0.0
 11
1047.35
 21
438.25
 31
0.0
  0
LINE
  5
A42
330
7F0
100
AcDbEntity
  8
0
  6
Continuous
 62
     1
100
AcDbLine
 10
1047.35
 20
438.25
 30
0.0
 11
1047.35
 21
437.25
 31
0.0
  0
LINE
  5
A43
330
7F0
100
AcDbEntity
  8
0
  6
Continuous
 62
     1
100
AcDbLine
 10
1047.35
 20
437.25
 30
0.0
 11
1046.35
 21
437.25
 31
0.0
  0
LINE
  5
A44
330
7F0
100
AcDbEntity
  8
0
  6
Continuous
 62
     1
100
AcDbLine
 10
1048.85
 20
439.7499999999998
 30
0.0
 11
1048.85
 21
440.7499999999997
 31
0.0
  0
LINE
  5
A45
330
7F0
100
AcDbEntity
  8
0
  6
Continuous
 62
     1
100
AcDbLine
 10
1048.85
 20
440.7499999999997
 30
0.0
 11
1049.849999999999
 21
440.7499999999997
 31
0.0
  0
LINE
  5
A46
330
7F0
100
AcDbEntity
  8
0
  6
Continuous
 62
     1
100
AcDbLine
 10
1049.849999999999
 20
440.7499999999997
 30
0.0
 11
1049.849999999999
 21
439.7499999999998
 31
0.0
  0
LINE
  5
A47
330
7F0
100
AcDbEntity
  8
0
  6
Continuous
 62
     1
100
AcDbLine
 10
1049.849999999999
 20
439.7499999999998
 30
0.0
 11
1048.85
 21
439.7499999999998
 31
0.0
  0
LINE
  5
A48
330
7F0
100
AcDbEntity
  8
0
  6
Continuous
 62
     1
100
AcDbLine
 10
1048.85
 20
437.25
 30
0.0
 11
1048.85
 21
438.25
 31
0.0
  0
LINE
  5
A49
330
7F0
100
AcDbEntity
  8
0
  6
Continuous
 62
     1
100
AcDbLine
 10
1048.85
 20
438.25
 30
0.0
 11
1049.849999999999
 21
438.25
 31
0.0
  0
LINE
  5
A4A
330
7F0
100
AcDbEntity
  8
0
  6
Continuous
 62
     1
100
AcDbLine
 10
1049.849999999999
 20
438.25
 30
0.0
 11
1049.849999999999
 21
437.25
 31
0.0
  0
LINE
  5
A4B
330
7F0
100
AcDbEntity
  8
0
  6
Continuous
 62
     1
100
AcDbLine
 10
1049.849999999999
 20
437.25
 30
0.0
 11
1048.85
 21
437.25
 31
0.0
  0
LINE
  5
A4C
330
7F0
100
AcDbEntity
  8
0
  6
Continuous
 62
     1
100
AcDbLine
 10
1051.35
 20
439.7499999999998
 30
0.0
 11
1051.35
 21
440.7499999999997
 31
0.0
  0
LINE
  5
A4D
330
7F0
100
AcDbEntity
  8
0
  6
Continuous
 62
     1
100
AcDbLine
 10
1051.35
 20
440.7499999999997
 30
0.0
 11
1052.349999999999
 21
440.7499999999997
 31
0.0
  0
LINE
  5
A4E
330
7F0
100
AcDbEntity
  8
0
  6
Continuous
 62
     1
100
AcDbLine
 10
1052.349999999999
 20
440.7499999999997
 30
0.0
 11
1052.349999999999
 21
439.7499999999998
 31
0.0
  0
LINE
  5
A4F
330
7F0
100
AcDbEntity
  8
0
  6
Continuous
 62
     1
100
AcDbLine
 10
1052.349999999999
 20
439.7499999999998
 30
0.0
 11
1051.35
 21
439.7499999999998
 31
0.0
  0
LINE
  5
A50
330
7F0
100
AcDbEntity
  8
0
  6
Continuous
 62
     1
100
AcDbLine
 10
1051.35
 20
437.25
 30
0.0
 11
1051.35
 21
438.25
 31
0.0
  0
LINE
  5
A51
330
7F0
100
AcDbEntity
  8
0
  6
Continuous
 62
     1
100
AcDbLine
 10
1051.35
 20
438.25
 30
0.0
 11
1052.349999999999
 21
438.25
 31
0.0
  0
LINE
  5
A52
330
7F0
100
AcDbEntity
  8
0
  6
Continuous
 62
     1
100
AcDbLine
 10
1052.349999999999
 20
438.25
 30
0.0
 11
1052.349999999999
 21
437.25
 31
0.0
  0
LINE
  5
A53
330
7F0
100
AcDbEntity
  8
0
  6
Continuous
 62
     1
100
AcDbLine
 10
1052.349999999999
 20
437.25
 30
0.0
 11
1051.35
 21
437.25
 31
0.0
  0
LINE
  5
A54
330
7F0
100
AcDbEntity
  8
0
  6
Continuous
 62
     1
100
AcDbLine
 10
1053.849999999999
 20
439.7499999999998
 30
0.0
 11
1053.849999999999
 21
440.7499999999997
 31
0.0
  0
LINE
  5
A55
330
7F0
100
AcDbEntity
  8
0
  6
Continuous
 62
     1
100
AcDbLine
 10
1053.849999999999
 20
440.7499999999997
 30
0.0
 11
1054.849999999998
 21
440.7499999999997
 31
0.0
  0
LINE
  5
A56
330
7F0
100
AcDbEntity
  8
0
  6
Continuous
 62
     1
100
AcDbLine
 10
1054.849999999998
 20
440.7499999999997
 30
0.0
 11
1054.849999999998
 21
439.7499999999998
 31
0.0
  0
LINE
  5
A57
330
7F0
100
AcDbEntity
  8
0
  6
Continuous
 62
     1
100
AcDbLine
 10
1054.849999999998
 20
439.7499999999998
 30
0.0
 11
1053.849999999999
 21
439.7499999999998
 31
0.0
  0
LINE
  5
A58
330
7F0
100
AcDbEntity
  8
0
  6
Continuous
 62
     1
100
AcDbLine
 10
1053.849999999999
 20
437.25
 30
0.0
 11
1053.849999999999
 21
438.25
 31
0.0
  0
LINE
  5
A59
330
7F0
100
AcDbEntity
  8
0
  6
Continuous
 62
     1
100
AcDbLine
 10
1053.849999999999
 20
438.25
 30
0.0
 11
1054.849999999998
 21
438.25
 31
0.0
  0
LINE
  5
A5A
330
7F0
100
AcDbEntity
  8
0
  6
Continuous
 62
     1
100
AcDbLine
 10
1054.849999999998
 20
438.25
 30
0.0
 11
1054.849999999998
 21
437.25
 31
0.0
  0
LINE
  5
A5B
330
7F0
100
AcDbEntity
  8
0
  6
Continuous
 62
     1
100
AcDbLine
 10
1054.849999999998
 20
437.25
 30
0.0
 11
1053.849999999999
 21
437.25
 31
0.0
  0
LINE
  5
A5C
330
7F0
100
AcDbEntity
  8
0
  6
Continuous
 62
     1
100
AcDbLine
 10
1056.349999999999
 20
439.7499999999998
 30
0.0
 11
1056.349999999999
 21
440.7499999999997
 31
0.0
  0
LINE
  5
A5D
330
7F0
100
AcDbEntity
  8
0
  6
Continuous
 62
     1
100
AcDbLine
 10
1056.349999999999
 20
440.7499999999997
 30
0.0
 11
1057.35
 21
440.7499999999997
 31
0.0
  0
LINE
  5
A5E
330
7F0
100
AcDbEntity
  8
0
  6
Continuous
 62
     1
100
AcDbLine
 10
1057.35
 20
440.7499999999997
 30
0.0
 11
1057.35
 21
439.7499999999998
 31
0.0
  0
LINE
  5
A5F
330
7F0
100
AcDbEntity
  8
0
  6
Continuous
 62
     1
100
AcDbLine
 10
1057.35
 20
439.7499999999998
 30
0.0
 11
1056.349999999999
 21
439.7499999999998
 31
0.0
  0
LINE
  5
A60
330
7F0
100
AcDbEntity
  8
0
  6
Continuous
 62
     1
100
AcDbLine
 10
1056.349999999999
 20
437.25
 30
0.0
 11
1056.349999999999
 21
438.25
 31
0.0
  0
LINE
  5
A61
330
7F0
100
AcDbEntity
  8
0
  6
Continuous
 62
     1
100
AcDbLine
 10
1056.349999999999
 20
438.25
 30
0.0
 11
1057.35
 21
438.25
 31
0.0
  0
LINE
  5
A62
330
7F0
100
AcDbEntity
  8
0
  6
Continuous
 62
     1
100
AcDbLine
 10
1057.35
 20
438.25
 30
0.0
 11
1057.35
 21
437.25
 31
0.0
  0
LINE
  5
A63
330
7F0
100
AcDbEntity
  8
0
  6
Continuous
 62
     1
100
AcDbLine
 10
1057.35
 20
437.25
 30
0.0
 11
1056.349999999999
 21
437.25
 31
0.0
  0
LINE
  5
A64
330
7F0
100
AcDbEntity
  8
0
  6
Continuous
 62
     1
100
AcDbLine
 10
1058.85
 20
439.7499999999998
 30
0.0
 11
1058.85
 21
440.7499999999997
 31
0.0
  0
LINE
  5
A65
330
7F0
100
AcDbEntity
  8
0
  6
Continuous
 62
     1
100
AcDbLine
 10
1058.85
 20
440.7499999999997
 30
0.0
 11
1059.849999999999
 21
440.7499999999997
 31
0.0
  0
LINE
  5
A66
330
7F0
100
AcDbEntity
  8
0
  6
Continuous
 62
     1
100
AcDbLine
 10
1059.849999999999
 20
440.7499999999997
 30
0.0
 11
1059.849999999999
 21
439.7499999999998
 31
0.0
  0
LINE
  5
A67
330
7F0
100
AcDbEntity
  8
0
  6
Continuous
 62
     1
100
AcDbLine
 10
1059.849999999999
 20
439.7499999999998
 30
0.0
 11
1058.85
 21
439.7499999999998
 31
0.0
  0
LINE
  5
A68
330
7F0
100
AcDbEntity
  8
0
  6
Continuous
 62
     1
100
AcDbLine
 10
1058.85
 20
437.25
 30
0.0
 11
1058.85
 21
438.25
 31
0.0
  0
LINE
  5
A69
330
7F0
100
AcDbEntity
  8
0
  6
Continuous
 62
     1
100
AcDbLine
 10
1058.85
 20
438.25
 30
0.0
 11
1059.849999999999
 21
438.25
 31
0.0
  0
LINE
  5
A6A
330
7F0
100
AcDbEntity
  8
0
  6
Continuous
 62
     1
100
AcDbLine
 10
1059.849999999999
 20
438.25
 30
0.0
 11
1059.849999999999
 21
437.25
 31
0.0
  0
LINE
  5
A6B
330
7F0
100
AcDbEntity
  8
0
  6
Continuous
 62
     1
100
AcDbLine
 10
1059.849999999999
 20
437.25
 30
0.0
 11
1058.85
 21
437.25
 31
0.0
  0
LINE
  5
A6C
330
7F0
100
AcDbEntity
  8
0
  6
Continuous
 62
     1
100
AcDbLine
 10
1033.849999999999
 20
439.7499999999998
 30
0.0
 11
1033.849999999999
 21
440.7499999999997
 31
0.0
  0
LINE
  5
A6D
330
7F0
100
AcDbEntity
  8
0
  6
Continuous
 62
     1
100
AcDbLine
 10
1033.849999999999
 20
440.7499999999997
 30
0.0
 11
1034.85
 21
440.7499999999997
 31
0.0
  0
LINE
  5
A6E
330
7F0
100
AcDbEntity
  8
0
  6
Continuous
 62
     1
100
AcDbLine
 10
1034.85
 20
440.7499999999997
 30
0.0
 11
1034.85
 21
439.7499999999998
 31
0.0
  0
LINE
  5
A6F
330
7F0
100
AcDbEntity
  8
0
  6
Continuous
 62
     1
100
AcDbLine
 10
1034.85
 20
439.7499999999998
 30
0.0
 11
1033.849999999999
 21
439.7499999999998
 31
0.0
  0
LINE
  5
A70
330
7F0
100
AcDbEntity
  8
0
  6
Continuous
 62
     1
100
AcDbLine
 10
1033.849999999999
 20
437.25
 30
0.0
 11
1033.849999999999
 21
438.25
 31
0.0
  0
LINE
  5
A71
330
7F0
100
AcDbEntity
  8
0
  6
Continuous
 62
     1
100
AcDbLine
 10
1033.849999999999
 20
438.25
 30
0.0
 11
1034.85
 21
438.25
 31
0.0
  0
LINE
  5
A72
330
7F0
100
AcDbEntity
  8
0
  6
Continuous
 62
     1
100
AcDbLine
 10
1034.85
 20
438.25
 30
0.0
 11
1034.85
 21
437.25
 31
0.0
  0
LINE
  5
A73
330
7F0
100
AcDbEntity
  8
0
  6
Continuous
 62
     1
100
AcDbLine
 10
1034.85
 20
437.25
 30
0.0
 11
1033.849999999999
 21
437.25
 31
0.0
  0
LINE
  5
A74
330
7F0
100
AcDbEntity
  8
0
  6
Continuous
 62
     1
100
AcDbLine
 10
1031.349999999999
 20
439.7499999999998
 30
0.0
 11
1031.349999999999
 21
440.7499999999997
 31
0.0
  0
LINE
  5
A75
330
7F0
100
AcDbEntity
  8
0
  6
Continuous
 62
     1
100
AcDbLine
 10
1031.349999999999
 20
440.7499999999997
 30
0.0
 11
1032.349999999998
 21
440.7499999999997
 31
0.0
  0
LINE
  5
A76
330
7F0
100
AcDbEntity
  8
0
  6
Continuous
 62
     1
100
AcDbLine
 10
1032.349999999998
 20
440.7499999999997
 30
0.0
 11
1032.349999999998
 21
439.7499999999998
 31
0.0
  0
LINE
  5
A77
330
7F0
100
AcDbEntity
  8
0
  6
Continuous
 62
     1
100
AcDbLine
 10
1032.349999999998
 20
439.7499999999998
 30
0.0
 11
1031.349999999999
 21
439.7499999999998
 31
0.0
  0
LINE
  5
A78
330
7F0
100
AcDbEntity
  8
0
  6
Continuous
 62
     1
100
AcDbLine
 10
1031.349999999999
 20
437.25
 30
0.0
 11
1031.349999999999
 21
438.25
 31
0.0
  0
LINE
  5
A79
330
7F0
100
AcDbEntity
  8
0
  6
Continuous
 62
     1
100
AcDbLine
 10
1031.349999999999
 20
438.25
 30
0.0
 11
1032.349999999998
 21
438.25
 31
0.0
  0
LINE
  5
A7A
330
7F0
100
AcDbEntity
  8
0
  6
Continuous
 62
     1
100
AcDbLine
 10
1032.349999999998
 20
438.25
 30
0.0
 11
1032.349999999998
 21
437.25
 31
0.0
  0
LINE
  5
A7B
330
7F0
100
AcDbEntity
  8
0
  6
Continuous
 62
     1
100
AcDbLine
 10
1032.349999999998
 20
437.25
 30
0.0
 11
1031.349999999999
 21
437.25
 31
0.0
  0
LINE
  5
A7C
330
7F0
100
AcDbEntity
  8
0
  6
Continuous
 62
     1
100
AcDbLine
 10
1028.85
 20
439.7499999999998
 30
0.0
 11
1028.85
 21
440.7499999999997
 31
0.0
  0
LINE
  5
A7D
330
7F0
100
AcDbEntity
  8
0
  6
Continuous
 62
     1
100
AcDbLine
 10
1028.85
 20
440.7499999999997
 30
0.0
 11
1029.849999999999
 21
440.7499999999997
 31
0.0
  0
LINE
  5
A7E
330
7F0
100
AcDbEntity
  8
0
  6
Continuous
 62
     1
100
AcDbLine
 10
1029.849999999999
 20
440.7499999999997
 30
0.0
 11
1029.849999999999
 21
439.7499999999998
 31
0.0
  0
LINE
  5
A7F
330
7F0
100
AcDbEntity
  8
0
  6
Continuous
 62
     1
100
AcDbLine
 10
1029.849999999999
 20
439.7499999999998
 30
0.0
 11
1028.85
 21
439.7499999999998
 31
0.0
  0
LINE
  5
A80
330
7F0
100
AcDbEntity
  8
0
  6
Continuous
 62
     1
100
AcDbLine
 10
1028.85
 20
437.25
 30
0.0
 11
1028.85
 21
438.25
 31
0.0
  0
LINE
  5
A81
330
7F0
100
AcDbEntity
  8
0
  6
Continuous
 62
     1
100
AcDbLine
 10
1028.85
 20
438.25
 30
0.0
 11
1029.849999999999
 21
438.25
 31
0.0
  0
LINE
  5
A82
330
7F0
100
AcDbEntity
  8
0
  6
Continuous
 62
     1
100
AcDbLine
 10
1029.849999999999
 20
438.25
 30
0.0
 11
1029.849999999999
 21
437.25
 31
0.0
  0
LINE
  5
A83
330
7F0
100
AcDbEntity
  8
0
  6
Continuous
 62
     1
100
AcDbLine
 10
1029.849999999999
 20
437.25
 30
0.0
 11
1028.85
 21
437.25
 31
0.0
  0
LINE
  5
A84
330
7F0
100
AcDbEntity
  8
0
  6
Continuous
 62
     1
100
AcDbLine
 10
1026.349999999998
 20
439.7499999999998
 30
0.0
 11
1026.349999999998
 21
440.7499999999997
 31
0.0
  0
LINE
  5
A85
330
7F0
100
AcDbEntity
  8
0
  6
Continuous
 62
     1
100
AcDbLine
 10
1026.349999999998
 20
440.7499999999997
 30
0.0
 11
1027.349999999999
 21
440.7499999999997
 31
0.0
  0
LINE
  5
A86
330
7F0
100
AcDbEntity
  8
0
  6
Continuous
 62
     1
100
AcDbLine
 10
1027.349999999999
 20
440.7499999999997
 30
0.0
 11
1027.349999999999
 21
439.7499999999998
 31
0.0
  0
LINE
  5
A87
330
7F0
100
AcDbEntity
  8
0
  6
Continuous
 62
     1
100
AcDbLine
 10
1027.349999999999
 20
439.7499999999998
 30
0.0
 11
1026.349999999998
 21
439.7499999999998
 31
0.0
  0
LINE
  5
A88
330
7F0
100
AcDbEntity
  8
0
  6
Continuous
 62
     1
100
AcDbLine
 10
1026.349999999998
 20
437.25
 30
0.0
 11
1026.349999999998
 21
438.25
 31
0.0
  0
LINE
  5
A89
330
7F0
100
AcDbEntity
  8
0
  6
Continuous
 62
     1
100
AcDbLine
 10
1026.349999999998
 20
438.25
 30
0.0
 11
1027.349999999999
 21
438.25
 31
0.0
  0
LINE
  5
A8A
330
7F0
100
AcDbEntity
  8
0
  6
Continuous
 62
     1
100
AcDbLine
 10
1027.349999999999
 20
438.25
 30
0.0
 11
1027.349999999999
 21
437.25
 31
0.0
  0
LINE
  5
A8B
330
7F0
100
AcDbEntity
  8
0
  6
Continuous
 62
     1
100
AcDbLine
 10
1027.349999999999
 20
437.25
 30
0.0
 11
1026.349999999998
 21
437.25
 31
0.0
  0
LINE
  5
A8C
330
7F0
100
AcDbEntity
  8
0
  6
Continuous
 62
     1
100
AcDbLine
 10
1023.85
 20
439.7499999999998
 30
0.0
 11
1023.85
 21
440.7499999999997
 31
0.0
  0
LINE
  5
A8D
330
7F0
100
AcDbEntity
  8
0
  6
Continuous
 62
     1
100
AcDbLine
 10
1023.85
 20
440.7499999999997
 30
0.0
 11
1024.85
 21
440.7499999999997
 31
0.0
  0
LINE
  5
A8E
330
7F0
100
AcDbEntity
  8
0
  6
Continuous
 62
     1
100
AcDbLine
 10
1024.85
 20
440.7499999999997
 30
0.0
 11
1024.85
 21
439.7499999999998
 31
0.0
  0
LINE
  5
A8F
330
7F0
100
AcDbEntity
  8
0
  6
Continuous
 62
     1
100
AcDbLine
 10
1024.85
 20
439.7499999999998
 30
0.0
 11
1023.85
 21
439.7499999999998
 31
0.0
  0
LINE
  5
A90
330
7F0
100
AcDbEntity
  8
0
  6
Continuous
 62
     1
100
AcDbLine
 10
1023.85
 20
437.25
 30
0.0
 11
1023.85
 21
438.25
 31
0.0
  0
LINE
  5
A91
330
7F0
100
AcDbEntity
  8
0
  6
Continuous
 62
     1
100
AcDbLine
 10
1023.85
 20
438.25
 30
0.0
 11
1024.85
 21
438.25
 31
0.0
  0
LINE
  5
A92
330
7F0
100
AcDbEntity
  8
0
  6
Continuous
 62
     1
100
AcDbLine
 10
1024.85
 20
438.25
 30
0.0
 11
1024.85
 21
437.25
 31
0.0
  0
LINE
  5
A93
330
7F0
100
AcDbEntity
  8
0
  6
Continuous
 62
     1
100
AcDbLine
 10
1024.85
 20
437.25
 30
0.0
 11
1023.85
 21
437.25
 31
0.0
  0
LINE
  5
A94
330
7F0
100
AcDbEntity
  8
0
  6
Continuous
 62
     1
100
AcDbLine
 10
1021.349999999997
 20
439.7499999999998
 30
0.0
 11
1021.349999999997
 21
440.7499999999997
 31
0.0
  0
LINE
  5
A95
330
7F0
100
AcDbEntity
  8
0
  6
Continuous
 62
     1
100
AcDbLine
 10
1021.349999999997
 20
440.7499999999997
 30
0.0
 11
1022.35
 21
440.7499999999997
 31
0.0
  0
LINE
  5
A96
330
7F0
100
AcDbEntity
  8
0
  6
Continuous
 62
     1
100
AcDbLine
 10
1022.35
 20
440.7499999999997
 30
0.0
 11
1022.35
 21
439.7499999999998
 31
0.0
  0
LINE
  5
A97
330
7F0
100
AcDbEntity
  8
0
  6
Continuous
 62
     1
100
AcDbLine
 10
1022.35
 20
439.7499999999998
 30
0.0
 11
1021.349999999997
 21
439.7499999999998
 31
0.0
  0
LINE
  5
A98
330
7F0
100
AcDbEntity
  8
0
  6
Continuous
 62
     1
100
AcDbLine
 10
1021.349999999997
 20
437.25
 30
0.0
 11
1021.349999999997
 21
438.25
 31
0.0
  0
LINE
  5
A99
330
7F0
100
AcDbEntity
  8
0
  6
Continuous
 62
     1
100
AcDbLine
 10
1021.349999999997
 20
438.25
 30
0.0
 11
1022.35
 21
438.25
 31
0.0
  0
LINE
  5
A9A
330
7F0
100
AcDbEntity
  8
0
  6
Continuous
 62
     1
100
AcDbLine
 10
1022.35
 20
438.25
 30
0.0
 11
1022.35
 21
437.25
 31
0.0
  0
LINE
  5
A9B
330
7F0
100
AcDbEntity
  8
0
  6
Continuous
 62
     1
100
AcDbLine
 10
1022.35
 20
437.25
 30
0.0
 11
1021.349999999997
 21
437.25
 31
0.0
  0
LINE
  5
A9C
330
7F0
100
AcDbEntity
  8
0
  6
Continuous
 62
     1
100
AcDbLine
 10
1018.85
 20
439.7499999999998
 30
0.0
 11
1018.85
 21
440.7499999999997
 31
0.0
  0
LINE
  5
A9D
330
7F0
100
AcDbEntity
  8
0
  6
Continuous
 62
     1
100
AcDbLine
 10
1018.85
 20
440.7499999999997
 30
0.0
 11
1019.85
 21
440.7499999999997
 31
0.0
  0
LINE
  5
A9E
330
7F0
100
AcDbEntity
  8
0
  6
Continuous
 62
     1
100
AcDbLine
 10
1019.85
 20
440.7499999999997
 30
0.0
 11
1019.85
 21
439.7499999999998
 31
0.0
  0
LINE
  5
A9F
330
7F0
100
AcDbEntity
  8
0
  6
Continuous
 62
     1
100
AcDbLine
 10
1019.85
 20
439.7499999999998
 30
0.0
 11
1018.85
 21
439.7499999999998
 31
0.0
  0
LINE
  5
AA0
330
7F0
100
AcDbEntity
  8
0
  6
Continuous
 62
     1
100
AcDbLine
 10
1018.85
 20
437.25
 30
0.0
 11
1018.85
 21
438.25
 31
0.0
  0
LINE
  5
AA1
330
7F0
100
AcDbEntity
  8
0
  6
Continuous
 62
     1
100
AcDbLine
 10
1018.85
 20
438.25
 30
0.0
 11
1019.85
 21
438.25
 31
0.0
  0
LINE
  5
AA2
330
7F0
100
AcDbEntity
  8
0
  6
Continuous
 62
     1
100
AcDbLine
 10
1019.85
 20
438.25
 30
0.0
 11
1019.85
 21
437.25
 31
0.0
  0
LINE
  5
AA3
330
7F0
100
AcDbEntity
  8
0
  6
Continuous
 62
     1
100
AcDbLine
 10
1019.85
 20
437.25
 30
0.0
 11
1018.85
 21
437.25
 31
0.0
  0
LINE
  5
AA4
330
7F0
100
AcDbEntity
  8
0
  6
Continuous
 62
     1
100
AcDbLine
 10
1016.35
 20
439.7499999999998
 30
0.0
 11
1016.35
 21
440.7499999999997
 31
0.0
  0
LINE
  5
AA5
330
7F0
100
AcDbEntity
  8
0
  6
Continuous
 62
     1
100
AcDbLine
 10
1016.35
 20
440.7499999999997
 30
0.0
 11
1017.35
 21
440.7499999999997
 31
0.0
  0
LINE
  5
AA6
330
7F0
100
AcDbEntity
  8
0
  6
Continuous
 62
     1
100
AcDbLine
 10
1017.35
 20
440.7499999999997
 30
0.0
 11
1017.35
 21
439.7499999999998
 31
0.0
  0
LINE
  5
AA7
330
7F0
100
AcDbEntity
  8
0
  6
Continuous
 62
     1
100
AcDbLine
 10
1017.35
 20
439.7499999999998
 30
0.0
 11
1016.35
 21
439.7499999999998
 31
0.0
  0
LINE
  5
AA8
330
7F0
100
AcDbEntity
  8
0
  6
Continuous
 62
     1
100
AcDbLine
 10
1016.35
 20
437.25
 30
0.0
 11
1016.35
 21
438.25
 31
0.0
  0
LINE
  5
AA9
330
7F0
100
AcDbEntity
  8
0
  6
Continuous
 62
     1
100
AcDbLine
 10
1016.35
 20
438.25
 30
0.0
 11
1017.35
 21
438.25
 31
0.0
  0
LINE
  5
AAA
330
7F0
100
AcDbEntity
  8
0
  6
Continuous
 62
     1
100
AcDbLine
 10
1017.35
 20
438.25
 30
0.0
 11
1017.35
 21
437.25
 31
0.0
  0
LINE
  5
AAB
330
7F0
100
AcDbEntity
  8
0
  6
Continuous
 62
     1
100
AcDbLine
 10
1017.35
 20
437.25
 30
0.0
 11
1016.35
 21
437.25
 31
0.0
  0
ARC
  5
AAC
330
7F0
100
AcDbEntity
  8
0
  6
Continuous
 62
     1
100
AcDbCircle
 10
1014.799999999999
 20
436.2499999999998
 30
0.0
 40
1.0
100
AcDbArc
 50
168.6999999999999
 51
270.0
  0
LINE
  5
AAD
330
7F0
100
AcDbEntity
  8
0
  6
Continuous
 62
     1
100
AcDbLine
 10
1013.85
 20
436.4499999999998
 30
0.0
 11
1014.95
 21
441.95
 31
0.0
  0
ARC
  5
AAE
330
7F0
100
AcDbEntity
  8
0
  6
Continuous
 62
     1
100
AcDbCircle
 10
1015.95
 20
441.75
 30
0.0
 40
1.0
100
AcDbArc
 50
90.0
 51
169.9
  0
LINE
  5
AAF
330
7F0
100
AcDbEntity
  8
0
  6
Continuous
 62
     1
100
AcDbLine
 10
1015.95
 20
442.75
 30
0.0
 11
1060.3
 21
442.75
 31
0.0
  0
ARC
  5
AB0
330
7F0
100
AcDbEntity
  8
0
  6
Continuous
 62
     1
100
AcDbCircle
 10
1060.3
 20
441.75
 30
0.0
 40
1.0
100
AcDbArc
 50
11.4
 51
90.0
  0
LINE
  5
AB1
330
7F0
100
AcDbEntity
  8
0
  6
Continuous
 62
     1
100
AcDbLine
 10
1061.25
 20
441.95
 30
0.0
 11
1062.35
 21
436.4499999999998
 31
0.0
  0
ARC
  5
AB2
330
7F0
100
AcDbEntity
  8
0
  6
Continuous
 62
     1
100
AcDbCircle
 10
1061.35
 20
436.2499999999998
 30
0.0
 40
1.0
100
AcDbArc
 50
270.0
 51
12.0
  0
LINE
  5
AB3
330
7F0
100
AcDbEntity
  8
0
  6
Continuous
 62
     1
100
AcDbLine
 10
1061.35
 20
435.25
 30
0.0
 11
1014.799999999999
 21
435.25
 31
0.0
  0
ARC
  5
AB4
330
7F0
100
AcDbEntity
  8
0
  6
Continuous
 62
     1
100
AcDbCircle
 10
1011.6
 20
452.0
 30
0.0
 40
1.0
100
AcDbArc
 50
90.0
 51
180.0
  0
ARC
  5
AB5
330
7F0
100
AcDbEntity
  8
0
  6
Continuous
 62
     1
100
AcDbCircle
 10
1011.6
 20
426.0
 30
0.0
 40
1.0
100
AcDbArc
 50
180.0
 51
270.0
  0
LINE
  5
AB6
330
7F0
100
AcDbEntity
  8
0
  6
Continuous
 62
     1
100
AcDbLine
 10
1010.599999999999
 20
426.0
 30
0.0
 11
1010.599999999999
 21
452.0
 31
0.0
  0
ARC
  5
AB7
330
7F0
100
AcDbEntity
  8
0
  6
Continuous
 62
     1
100
AcDbCircle
 10
1064.599999999999
 20
426.0
 30
0.0
 40
1.0
100
AcDbArc
 50
270.0
 51
0.0
  0
LINE
  5
AB8
330
7F0
100
AcDbEntity
  8
0
  6
Continuous
 62
     1
100
AcDbLine
 10
1064.599999999999
 20
425.0
 30
0.0
 11
1011.6
 21
425.0
 31
0.0
  0
LINE
  5
AB9
330
7F0
100
AcDbEntity
  8
0
  6
Continuous
 62
     1
100
AcDbLine
 10
1011.6
 20
453.0
 30
0.0
 11
1064.599999999999
 21
453.0
 31
0.0
  0
ARC
  5
ABA
330
7F0
100
AcDbEntity
  8
0
  6
Continuous
 62
     1
100
AcDbCircle
 10
1064.599999999999
 20
452.0
 30
0.0
 40
1.0
100
AcDbArc
 50
0.0
 51
90.0
  0
LINE
  5
ABB
330
7F0
100
AcDbEntity
  8
0
  6
Continuous
 62
     1
100
AcDbLine
 10
1065.599999999998
 20
452.0
 30
0.0
 11
1065.599999999998
 21
426.0
 31
0.0
  0
LINE
  5
ABC
330
7F0
100
AcDbEntity
  8
0
  6
Continuous
 62
     1
100
AcDbLine
 10
1038.849999999998
 20
439.7499999999998
 30
0.0
 11
1038.849999999998
 21
440.7499999999997
 31
0.0
  0
LINE
  5
ABD
330
7F0
100
AcDbEntity
  8
0
  6
Continuous
 62
     1
100
AcDbLine
 10
1038.849999999998
 20
440.7499999999997
 30
0.0
 11
1039.849999999999
 21
440.7499999999997
 31
0.0
  0
LINE
  5
ABE
330
7F0
100
AcDbEntity
  8
0
  6
Continuous
 62
     1
100
AcDbLine
 10
1039.849999999999
 20
440.7499999999997
 30
0.0
 11
1039.849999999999
 21
439.7499999999998
 31
0.0
  0
LINE
  5
ABF
330
7F0
100
AcDbEntity
  8
0
  6
Continuous
 62
     1
100
AcDbLine
 10
1039.849999999999
 20
439.7499999999998
 30
0.0
 11
1038.849999999998
 21
439.7499999999998
 31
0.0
  0
LINE
  5
AC0
330
7F0
100
AcDbEntity
  8
0
  6
Continuous
 62
     1
100
AcDbLine
 10
1038.849999999998
 20
437.25
 30
0.0
 11
1038.849999999998
 21
438.25
 31
0.0
  0
LINE
  5
AC1
330
7F0
100
AcDbEntity
  8
0
  6
Continuous
 62
     1
100
AcDbLine
 10
1038.849999999998
 20
438.25
 30
0.0
 11
1039.849999999999
 21
438.25
 31
0.0
  0
LINE
  5
AC2
330
7F0
100
AcDbEntity
  8
0
  6
Continuous
 62
     1
100
AcDbLine
 10
1039.849999999999
 20
438.25
 30
0.0
 11
1039.849999999999
 21
437.25
 31
0.0
  0
LINE
  5
AC3
330
7F0
100
AcDbEntity
  8
0
  6
Continuous
 62
     1
100
AcDbLine
 10
1039.849999999999
 20
437.25
 30
0.0
 11
1038.849999999998
 21
437.25
 31
0.0
  0
LINE
  5
AC4
330
7F0
100
AcDbEntity
  8
0
  6
Continuous
 62
     1
100
AcDbLine
 10
1041.349999999999
 20
439.7499999999998
 30
0.0
 11
1041.349999999999
 21
440.7499999999997
 31
0.0
  0
LINE
  5
AC5
330
7F0
100
AcDbEntity
  8
0
  6
Continuous
 62
     1
100
AcDbLine
 10
1041.349999999999
 20
440.7499999999997
 30
0.0
 11
1042.349999999998
 21
440.7499999999997
 31
0.0
  0
LINE
  5
AC6
330
7F0
100
AcDbEntity
  8
0
  6
Continuous
 62
     1
100
AcDbLine
 10
1042.349999999998
 20
440.7499999999997
 30
0.0
 11
1042.349999999998
 21
439.7499999999998
 31
0.0
  0
LINE
  5
AC7
330
7F0
100
AcDbEntity
  8
0
  6
Continuous
 62
     1
100
AcDbLine
 10
1042.349999999998
 20
439.7499999999998
 30
0.0
 11
1041.349999999999
 21
439.7499999999998
 31
0.0
  0
LINE
  5
AC8
330
7F0
100
AcDbEntity
  8
0
  6
Continuous
 62
     1
100
AcDbLine
 10
1041.349999999999
 20
437.25
 30
0.0
 11
1041.349999999999
 21
438.25
 31
0.0
  0
LINE
  5
AC9
330
7F0
100
AcDbEntity
  8
0
  6
Continuous
 62
     1
100
AcDbLine
 10
1041.349999999999
 20
438.25
 30
0.0
 11
1042.349999999998
 21
438.25
 31
0.0
  0
LINE
  5
ACA
330
7F0
100
AcDbEntity
  8
0
  6
Continuous
 62
     1
100
AcDbLine
 10
1042.349999999998
 20
438.25
 30
0.0
 11
1042.349999999998
 21
437.25
 31
0.0
  0
LINE
  5
ACB
330
7F0
100
AcDbEntity
  8
0
  6
Continuous
 62
     1
100
AcDbLine
 10
1042.349999999998
 20
437.25
 30
0.0
 11
1041.349999999999
 21
437.25
 31
0.0
  0
LINE
  5
ACC
330
7F0
100
AcDbEntity
  8
0
  6
Continuous
 62
     1
100
AcDbLine
 10
1036.35
 20
439.7499999999998
 30
0.0
 11
1036.35
 21
440.7499999999997
 31
0.0
  0
LINE
  5
ACD
330
7F0
100
AcDbEntity
  8
0
  6
Continuous
 62
     1
100
AcDbLine
 10
1036.35
 20
440.7499999999997
 30
0.0
 11
1037.349999999999
 21
440.7499999999997
 31
0.0
  0
LINE
  5
ACE
330
7F0
100
AcDbEntity
  8
0
  6
Continuous
 62
     1
100
AcDbLine
 10
1037.349999999999
 20
440.7499999999997
 30
0.0
 11
1037.349999999999
 21
439.7499999999998
 31
0.0
  0
LINE
  5
ACF
330
7F0
100
AcDbEntity
  8
0
  6
Continuous
 62
     1
100
AcDbLine
 10
1037.349999999999
 20
439.7499999999998
 30
0.0
 11
1036.35
 21
439.7499999999998
 31
0.0
  0
LINE
  5
AD0
330
7F0
100
AcDbEntity
  8
0
  6
Continuous
 62
     1
100
AcDbLine
 10
1036.35
 20
437.25
 30
0.0
 11
1036.35
 21
438.25
 31
0.0
  0
LINE
  5
AD1
330
7F0
100
AcDbEntity
  8
0
  6
Continuous
 62
     1
100
AcDbLine
 10
1036.35
 20
438.25
 30
0.0
 11
1037.349999999999
 21
438.25
 31
0.0
  0
LINE
  5
AD2
330
7F0
100
AcDbEntity
  8
0
  6
Continuous
 62
     1
100
AcDbLine
 10
1037.349999999999
 20
438.25
 30
0.0
 11
1037.349999999999
 21
437.25
 31
0.0
  0
LINE
  5
AD3
330
7F0
100
AcDbEntity
  8
0
  6
Continuous
 62
     1
100
AcDbLine
 10
1037.349999999999
 20
437.25
 30
0.0
 11
1036.35
 21
437.25
 31
0.0
  0
LINE
  5
AD4
330
7F0
100
AcDbEntity
  8
0
  6
Continuous
 62
     1
100
AcDbLine
 10
1043.849999999999
 20
439.7499999999998
 30
0.0
 11
1043.849999999999
 21
440.7499999999997
 31
0.0
  0
LINE
  5
AD5
330
7F0
100
AcDbEntity
  8
0
  6
Continuous
 62
     1
100
AcDbLine
 10
1043.849999999999
 20
440.7499999999997
 30
0.0
 11
1044.85
 21
440.7499999999997
 31
0.0
  0
LINE
  5
AD6
330
7F0
100
AcDbEntity
  8
0
  6
Continuous
 62
     1
100
AcDbLine
 10
1044.85
 20
440.7499999999997
 30
0.0
 11
1044.85
 21
439.7499999999998
 31
0.0
  0
LINE
  5
AD7
330
7F0
100
AcDbEntity
  8
0
  6
Continuous
 62
     1
100
AcDbLine
 10
1044.85
 20
439.7499999999998
 30
0.0
 11
1043.849999999999
 21
439.7499999999998
 31
0.0
  0
LINE
  5
AD8
330
7F0
100
AcDbEntity
  8
0
  6
Continuous
 62
     1
100
AcDbLine
 10
1043.849999999999
 20
437.25
 30
0.0
 11
1043.849999999999
 21
438.25
 31
0.0
  0
LINE
  5
AD9
330
7F0
100
AcDbEntity
  8
0
  6
Continuous
 62
     1
100
AcDbLine
 10
1043.849999999999
 20
438.25
 30
0.0
 11
1044.85
 21
438.25
 31
0.0
  0
LINE
  5
ADA
330
7F0
100
AcDbEntity
  8
0
  6
Continuous
 62
     1
100
AcDbLine
 10
1044.85
 20
438.25
 30
0.0
 11
1044.85
 21
437.25
 31
0.0
  0
LINE
  5
ADB
330
7F0
100
AcDbEntity
  8
0
  6
Continuous
 62
     1
100
AcDbLine
 10
1044.85
 20
437.25
 30
0.0
 11
1043.849999999999
 21
437.25
 31
0.0
  0
LINE
  5
ADC
330
7F0
100
AcDbEntity
  8
0
  6
Continuous
 62
     1
100
AcDbLine
 10
1046.35
 20
439.7499999999998
 30
0.0
 11
1046.35
 21
440.7499999999997
 31
0.0
  0
LINE
  5
ADD
330
7F0
100
AcDbEntity
  8
0
  6
Continuous
 62
     1
100
AcDbLine
 10
1046.35
 20
440.7499999999997
 30
0.0
 11
1047.35
 21
440.7499999999997
 31
0.0
  0
LINE
  5
ADE
330
7F0
100
AcDbEntity
  8
0
  6
Continuous
 62
     1
100
AcDbLine
 10
1047.35
 20
440.7499999999997
 30
0.0
 11
1047.35
 21
439.7499999999998
 31
0.0
  0
LINE
  5
ADF
330
7F0
100
AcDbEntity
  8
0
  6
Continuous
 62
     1
100
AcDbLine
 10
1047.35
 20
439.7499999999998
 30
0.0
 11
1046.35
 21
439.7499999999998
 31
0.0
  0
LINE
  5
AE0
330
7F0
100
AcDbEntity
  8
0
  6
Continuous
 62
     1
100
AcDbLine
 10
1046.35
 20
437.25
 30
0.0
 11
1046.35
 21
438.25
 31
0.0
  0
LINE
  5
AE1
330
7F0
100
AcDbEntity
  8
0
  6
Continuous
 62
     1
100
AcDbLine
 10
1046.35
 20
438.25
 30
0.0
 11
1047.35
 21
438.25
 31
0.0
  0
LINE
  5
AE2
330
7F0
100
AcDbEntity
  8
0
  6
Continuous
 62
     1
100
AcDbLine
 10
1047.35
 20
438.25
 30
0.0
 11
1047.35
 21
437.25
 31
0.0
  0
LINE
  5
AE3
330
7F0
100
AcDbEntity
  8
0
  6
Continuous
 62
     1
100
AcDbLine
 10
1047.35
 20
437.25
 30
0.0
 11
1046.35
 21
437.25
 31
0.0
  0
LINE
  5
AE4
330
7F0
100
AcDbEntity
  8
0
  6
Continuous
 62
     1
100
AcDbLine
 10
1048.85
 20
439.7499999999998
 30
0.0
 11
1048.85
 21
440.7499999999997
 31
0.0
  0
LINE
  5
AE5
330
7F0
100
AcDbEntity
  8
0
  6
Continuous
 62
     1
100
AcDbLine
 10
1048.85
 20
440.7499999999997
 30
0.0
 11
1049.849999999999
 21
440.7499999999997
 31
0.0
  0
LINE
  5
AE6
330
7F0
100
AcDbEntity
  8
0
  6
Continuous
 62
     1
100
AcDbLine
 10
1049.849999999999
 20
440.7499999999997
 30
0.0
 11
1049.849999999999
 21
439.7499999999998
 31
0.0
  0
LINE
  5
AE7
330
7F0
100
AcDbEntity
  8
0
  6
Continuous
 62
     1
100
AcDbLine
 10
1049.849999999999
 20
439.7499999999998
 30
0.0
 11
1048.85
 21
439.7499999999998
 31
0.0
  0
LINE
  5
AE8
330
7F0
100
AcDbEntity
  8
0
  6
Continuous
 62
     1
100
AcDbLine
 10
1048.85
 20
437.25
 30
0.0
 11
1048.85
 21
438.25
 31
0.0
  0
LINE
  5
AE9
330
7F0
100
AcDbEntity
  8
0
  6
Continuous
 62
     1
100
AcDbLine
 10
1048.85
 20
438.25
 30
0.0
 11
1049.849999999999
 21
438.25
 31
0.0
  0
LINE
  5
AEA
330
7F0
100
AcDbEntity
  8
0
  6
Continuous
 62
     1
100
AcDbLine
 10
1049.849999999999
 20
438.25
 30
0.0
 11
1049.849999999999
 21
437.25
 31
0.0
  0
LINE
  5
AEB
330
7F0
100
AcDbEntity
  8
0
  6
Continuous
 62
     1
100
AcDbLine
 10
1049.849999999999
 20
437.25
 30
0.0
 11
1048.85
 21
437.25
 31
0.0
  0
LINE
  5
AEC
330
7F0
100
AcDbEntity
  8
0
  6
Continuous
 62
     1
100
AcDbLine
 10
1051.35
 20
439.7499999999998
 30
0.0
 11
1051.35
 21
440.7499999999997
 31
0.0
  0
LINE
  5
AED
330
7F0
100
AcDbEntity
  8
0
  6
Continuous
 62
     1
100
AcDbLine
 10
1051.35
 20
440.7499999999997
 30
0.0
 11
1052.349999999999
 21
440.7499999999997
 31
0.0
  0
LINE
  5
AEE
330
7F0
100
AcDbEntity
  8
0
  6
Continuous
 62
     1
100
AcDbLine
 10
1052.349999999999
 20
440.7499999999997
 30
0.0
 11
1052.349999999999
 21
439.7499999999998
 31
0.0
  0
LINE
  5
AEF
330
7F0
100
AcDbEntity
  8
0
  6
Continuous
 62
     1
100
AcDbLine
 10
1052.349999999999
 20
439.7499999999998
 30
0.0
 11
1051.35
 21
439.7499999999998
 31
0.0
  0
LINE
  5
AF0
330
7F0
100
AcDbEntity
  8
0
  6
Continuous
 62
     1
100
AcDbLine
 10
1051.35
 20
437.25
 30
0.0
 11
1051.35
 21
438.25
 31
0.0
  0
LINE
  5
AF1
330
7F0
100
AcDbEntity
  8
0
  6
Continuous
 62
     1
100
AcDbLine
 10
1051.35
 20
438.25
 30
0.0
 11
1052.349999999999
 21
438.25
 31
0.0
  0
LINE
  5
AF2
330
7F0
100
AcDbEntity
  8
0
  6
Continuous
 62
     1
100
AcDbLine
 10
1052.349999999999
 20
438.25
 30
0.0
 11
1052.349999999999
 21
437.25
 31
0.0
  0
LINE
  5
AF3
330
7F0
100
AcDbEntity
  8
0
  6
Continuous
 62
     1
100
AcDbLine
 10
1052.349999999999
 20
437.25
 30
0.0
 11
1051.35
 21
437.25
 31
0.0
  0
LINE
  5
AF4
330
7F0
100
AcDbEntity
  8
0
  6
Continuous
 62
     1
100
AcDbLine
 10
1053.849999999999
 20
439.7499999999998
 30
0.0
 11
1053.849999999999
 21
440.7499999999997
 31
0.0
  0
LINE
  5
AF5
330
7F0
100
AcDbEntity
  8
0
  6
Continuous
 62
     1
100
AcDbLine
 10
1053.849999999999
 20
440.7499999999997
 30
0.0
 11
1054.849999999998
 21
440.7499999999997
 31
0.0
  0
LINE
  5
AF6
330
7F0
100
AcDbEntity
  8
0
  6
Continuous
 62
     1
100
AcDbLine
 10
1054.849999999998
 20
440.7499999999997
 30
0.0
 11
1054.849999999998
 21
439.7499999999998
 31
0.0
  0
LINE
  5
AF7
330
7F0
100
AcDbEntity
  8
0
  6
Continuous
 62
     1
100
AcDbLine
 10
1054.849999999998
 20
439.7499999999998
 30
0.0
 11
1053.849999999999
 21
439.7499999999998
 31
0.0
  0
LINE
  5
AF8
330
7F0
100
AcDbEntity
  8
0
  6
Continuous
 62
     1
100
AcDbLine
 10
1053.849999999999
 20
437.25
 30
0.0
 11
1053.849999999999
 21
438.25
 31
0.0
  0
LINE
  5
AF9
330
7F0
100
AcDbEntity
  8
0
  6
Continuous
 62
     1
100
AcDbLine
 10
1053.849999999999
 20
438.25
 30
0.0
 11
1054.849999999998
 21
438.25
 31
0.0
  0
LINE
  5
AFA
330
7F0
100
AcDbEntity
  8
0
  6
Continuous
 62
     1
100
AcDbLine
 10
1054.849999999998
 20
438.25
 30
0.0
 11
1054.849999999998
 21
437.25
 31
0.0
  0
LINE
  5
AFB
330
7F0
100
AcDbEntity
  8
0
  6
Continuous
 62
     1
100
AcDbLine
 10
1054.849999999998
 20
437.25
 30
0.0
 11
1053.849999999999
 21
437.25
 31
0.0
  0
LINE
  5
AFC
330
7F0
100
AcDbEntity
  8
0
  6
Continuous
 62
     1
100
AcDbLine
 10
1056.349999999999
 20
439.7499999999998
 30
0.0
 11
1056.349999999999
 21
440.7499999999997
 31
0.0
  0
LINE
  5
AFD
330
7F0
100
AcDbEntity
  8
0
  6
Continuous
 62
     1
100
AcDbLine
 10
1056.349999999999
 20
440.7499999999997
 30
0.0
 11
1057.35
 21
440.7499999999997
 31
0.0
  0
LINE
  5
AFE
330
7F0
100
AcDbEntity
  8
0
  6
Continuous
 62
     1
100
AcDbLine
 10
1057.35
 20
440.7499999999997
 30
0.0
 11
1057.35
 21
439.7499999999998
 31
0.0
  0
LINE
  5
AFF
330
7F0
100
AcDbEntity
  8
0
  6
Continuous
 62
     1
100
AcDbLine
 10
1057.35
 20
439.7499999999998
 30
0.0
 11
1056.349999999999
 21
439.7499999999998
 31
0.0
  0
LINE
  5
B00
330
7F0
100
AcDbEntity
  8
0
  6
Continuous
 62
     1
100
AcDbLine
 10
1056.349999999999
 20
437.25
 30
0.0
 11
1056.349999999999
 21
438.25
 31
0.0
  0
LINE
  5
B01
330
7F0
100
AcDbEntity
  8
0
  6
Continuous
 62
     1
100
AcDbLine
 10
1056.349999999999
 20
438.25
 30
0.0
 11
1057.35
 21
438.25
 31
0.0
  0
LINE
  5
B02
330
7F0
100
AcDbEntity
  8
0
  6
Continuous
 62
     1
100
AcDbLine
 10
1057.35
 20
438.25
 30
0.0
 11
1057.35
 21
437.25
 31
0.0
  0
LINE
  5
B03
330
7F0
100
AcDbEntity
  8
0
  6
Continuous
 62
     1
100
AcDbLine
 10
1057.35
 20
437.25
 30
0.0
 11
1056.349999999999
 21
437.25
 31
0.0
  0
LINE
  5
B04
330
7F0
100
AcDbEntity
  8
0
  6
Continuous
 62
     1
100
AcDbLine
 10
1058.85
 20
439.7499999999998
 30
0.0
 11
1058.85
 21
440.7499999999997
 31
0.0
  0
LINE
  5
B05
330
7F0
100
AcDbEntity
  8
0
  6
Continuous
 62
     1
100
AcDbLine
 10
1058.85
 20
440.7499999999997
 30
0.0
 11
1059.849999999999
 21
440.7499999999997
 31
0.0
  0
LINE
  5
B06
330
7F0
100
AcDbEntity
  8
0
  6
Continuous
 62
     1
100
AcDbLine
 10
1059.849999999999
 20
440.7499999999997
 30
0.0
 11
1059.849999999999
 21
439.7499999999998
 31
0.0
  0
LINE
  5
B07
330
7F0
100
AcDbEntity
  8
0
  6
Continuous
 62
     1
100
AcDbLine
 10
1059.849999999999
 20
439.7499999999998
 30
0.0
 11
1058.85
 21
439.7499999999998
 31
0.0
  0
LINE
  5
B08
330
7F0
100
AcDbEntity
  8
0
  6
Continuous
 62
     1
100
AcDbLine
 10
1058.85
 20
437.25
 30
0.0
 11
1058.85
 21
438.25
 31
0.0
  0
LINE
  5
B09
330
7F0
100
AcDbEntity
  8
0
  6
Continuous
 62
     1
100
AcDbLine
 10
1058.85
 20
438.25
 30
0.0
 11
1059.849999999999
 21
438.25
 31
0.0
  0
LINE
  5
B0A
330
7F0
100
AcDbEntity
  8
0
  6
Continuous
 62
     1
100
AcDbLine
 10
1059.849999999999
 20
438.25
 30
0.0
 11
1059.849999999999
 21
437.25
 31
0.0
  0
LINE
  5
B0B
330
7F0
100
AcDbEntity
  8
0
  6
Continuous
 62
     1
100
AcDbLine
 10
1059.849999999999
 20
437.25
 30
0.0
 11
1058.85
 21
437.25
 31
0.0
  0
LINE
  5
B0C
330
7F0
100
AcDbEntity
  8
0
  6
Continuous
 62
     1
100
AcDbLine
 10
1033.849999999999
 20
439.7499999999998
 30
0.0
 11
1033.849999999999
 21
440.7499999999997
 31
0.0
  0
LINE
  5
B0D
330
7F0
100
AcDbEntity
  8
0
  6
Continuous
 62
     1
100
AcDbLine
 10
1033.849999999999
 20
440.7499999999997
 30
0.0
 11
1034.85
 21
440.7499999999997
 31
0.0
  0
LINE
  5
B0E
330
7F0
100
AcDbEntity
  8
0
  6
Continuous
 62
     1
100
AcDbLine
 10
1034.85
 20
440.7499999999997
 30
0.0
 11
1034.85
 21
439.7499999999998
 31
0.0
  0
LINE
  5
B0F
330
7F0
100
AcDbEntity
  8
0
  6
Continuous
 62
     1
100
AcDbLine
 10
1034.85
 20
439.7499999999998
 30
0.0
 11
1033.849999999999
 21
439.7499999999998
 31
0.0
  0
LINE
  5
B10
330
7F0
100
AcDbEntity
  8
0
  6
Continuous
 62
     1
100
AcDbLine
 10
1033.849999999999
 20
437.25
 30
0.0
 11
1033.849999999999
 21
438.25
 31
0.0
  0
LINE
  5
B11
330
7F0
100
AcDbEntity
  8
0
  6
Continuous
 62
     1
100
AcDbLine
 10
1033.849999999999
 20
438.25
 30
0.0
 11
1034.85
 21
438.25
 31
0.0
  0
LINE
  5
B12
330
7F0
100
AcDbEntity
  8
0
  6
Continuous
 62
     1
100
AcDbLine
 10
1034.85
 20
438.25
 30
0.0
 11
1034.85
 21
437.25
 31
0.0
  0
LINE
  5
B13
330
7F0
100
AcDbEntity
  8
0
  6
Continuous
 62
     1
100
AcDbLine
 10
1034.85
 20
437.25
 30
0.0
 11
1033.849999999999
 21
437.25
 31
0.0
  0
LINE
  5
B14
330
7F0
100
AcDbEntity
  8
0
  6
Continuous
 62
     1
100
AcDbLine
 10
1031.349999999999
 20
439.7499999999998
 30
0.0
 11
1031.349999999999
 21
440.7499999999997
 31
0.0
  0
LINE
  5
B15
330
7F0
100
AcDbEntity
  8
0
  6
Continuous
 62
     1
100
AcDbLine
 10
1031.349999999999
 20
440.7499999999997
 30
0.0
 11
1032.349999999998
 21
440.7499999999997
 31
0.0
  0
LINE
  5
B16
330
7F0
100
AcDbEntity
  8
0
  6
Continuous
 62
     1
100
AcDbLine
 10
1032.349999999998
 20
440.7499999999997
 30
0.0
 11
1032.349999999998
 21
439.7499999999998
 31
0.0
  0
LINE
  5
B17
330
7F0
100
AcDbEntity
  8
0
  6
Continuous
 62
     1
100
AcDbLine
 10
1032.349999999998
 20
439.7499999999998
 30
0.0
 11
1031.349999999999
 21
439.7499999999998
 31
0.0
  0
LINE
  5
B18
330
7F0
100
AcDbEntity
  8
0
  6
Continuous
 62
     1
100
AcDbLine
 10
1031.349999999999
 20
437.25
 30
0.0
 11
1031.349999999999
 21
438.25
 31
0.0
  0
LINE
  5
B19
330
7F0
100
AcDbEntity
  8
0
  6
Continuous
 62
     1
100
AcDbLine
 10
1031.349999999999
 20
438.25
 30
0.0
 11
1032.349999999998
 21
438.25
 31
0.0
  0
LINE
  5
B1A
330
7F0
100
AcDbEntity
  8
0
  6
Continuous
 62
     1
100
AcDbLine
 10
1032.349999999998
 20
438.25
 30
0.0
 11
1032.349999999998
 21
437.25
 31
0.0
  0
LINE
  5
B1B
330
7F0
100
AcDbEntity
  8
0
  6
Continuous
 62
     1
100
AcDbLine
 10
1032.349999999998
 20
437.25
 30
0.0
 11
1031.349999999999
 21
437.25
 31
0.0
  0
LINE
  5
B1C
330
7F0
100
AcDbEntity
  8
0
  6
Continuous
 62
     1
100
AcDbLine
 10
1028.85
 20
439.7499999999998
 30
0.0
 11
1028.85
 21
440.7499999999997
 31
0.0
  0
LINE
  5
B1D
330
7F0
100
AcDbEntity
  8
0
  6
Continuous
 62
     1
100
AcDbLine
 10
1028.85
 20
440.7499999999997
 30
0.0
 11
1029.849999999999
 21
440.7499999999997
 31
0.0
  0
LINE
  5
B1E
330
7F0
100
AcDbEntity
  8
0
  6
Continuous
 62
     1
100
AcDbLine
 10
1029.849999999999
 20
440.7499999999997
 30
0.0
 11
1029.849999999999
 21
439.7499999999998
 31
0.0
  0
LINE
  5
B1F
330
7F0
100
AcDbEntity
  8
0
  6
Continuous
 62
     1
100
AcDbLine
 10
1029.849999999999
 20
439.7499999999998
 30
0.0
 11
1028.85
 21
439.7499999999998
 31
0.0
  0
LINE
  5
B20
330
7F0
100
AcDbEntity
  8
0
  6
Continuous
 62
     1
100
AcDbLine
 10
1028.85
 20
437.25
 30
0.0
 11
1028.85
 21
438.25
 31
0.0
  0
LINE
  5
B21
330
7F0
100
AcDbEntity
  8
0
  6
Continuous
 62
     1
100
AcDbLine
 10
1028.85
 20
438.25
 30
0.0
 11
1029.849999999999
 21
438.25
 31
0.0
  0
LINE
  5
B22
330
7F0
100
AcDbEntity
  8
0
  6
Continuous
 62
     1
100
AcDbLine
 10
1029.849999999999
 20
438.25
 30
0.0
 11
1029.849999999999
 21
437.25
 31
0.0
  0
LINE
  5
B23
330
7F0
100
AcDbEntity
  8
0
  6
Continuous
 62
     1
100
AcDbLine
 10
1029.849999999999
 20
437.25
 30
0.0
 11
1028.85
 21
437.25
 31
0.0
  0
LINE
  5
B24
330
7F0
100
AcDbEntity
  8
0
  6
Continuous
 62
     1
100
AcDbLine
 10
1026.349999999998
 20
439.7499999999998
 30
0.0
 11
1026.349999999998
 21
440.7499999999997
 31
0.0
  0
LINE
  5
B25
330
7F0
100
AcDbEntity
  8
0
  6
Continuous
 62
     1
100
AcDbLine
 10
1026.349999999998
 20
440.7499999999997
 30
0.0
 11
1027.349999999999
 21
440.7499999999997
 31
0.0
  0
LINE
  5
B26
330
7F0
100
AcDbEntity
  8
0
  6
Continuous
 62
     1
100
AcDbLine
 10
1027.349999999999
 20
440.7499999999997
 30
0.0
 11
1027.349999999999
 21
439.7499999999998
 31
0.0
  0
LINE
  5
B27
330
7F0
100
AcDbEntity
  8
0
  6
Continuous
 62
     1
100
AcDbLine
 10
1027.349999999999
 20
439.7499999999998
 30
0.0
 11
1026.349999999998
 21
439.7499999999998
 31
0.0
  0
LINE
  5
B28
330
7F0
100
AcDbEntity
  8
0
  6
Continuous
 62
     1
100
AcDbLine
 10
1026.349999999998
 20
437.25
 30
0.0
 11
1026.349999999998
 21
438.25
 31
0.0
  0
LINE
  5
B29
330
7F0
100
AcDbEntity
  8
0
  6
Continuous
 62
     1
100
AcDbLine
 10
1026.349999999998
 20
438.25
 30
0.0
 11
1027.349999999999
 21
438.25
 31
0.0
  0
LINE
  5
B2A
330
7F0
100
AcDbEntity
  8
0
  6
Continuous
 62
     1
100
AcDbLine
 10
1027.349999999999
 20
438.25
 30
0.0
 11
1027.349999999999
 21
437.25
 31
0.0
  0
LINE
  5
B2B
330
7F0
100
AcDbEntity
  8
0
  6
Continuous
 62
     1
100
AcDbLine
 10
1027.349999999999
 20
437.25
 30
0.0
 11
1026.349999999998
 21
437.25
 31
0.0
  0
LINE
  5
B2C
330
7F0
100
AcDbEntity
  8
0
  6
Continuous
 62
     1
100
AcDbLine
 10
1023.85
 20
439.7499999999998
 30
0.0
 11
1023.85
 21
440.7499999999997
 31
0.0
  0
LINE
  5
B2D
330
7F0
100
AcDbEntity
  8
0
  6
Continuous
 62
     1
100
AcDbLine
 10
1023.85
 20
440.7499999999997
 30
0.0
 11
1024.85
 21
440.7499999999997
 31
0.0
  0
LINE
  5
B2E
330
7F0
100
AcDbEntity
  8
0
  6
Continuous
 62
     1
100
AcDbLine
 10
1024.85
 20
440.7499999999997
 30
0.0
 11
1024.85
 21
439.7499999999998
 31
0.0
  0
LINE
  5
B2F
330
7F0
100
AcDbEntity
  8
0
  6
Continuous
 62
     1
100
AcDbLine
 10
1024.85
 20
439.7499999999998
 30
0.0
 11
1023.85
 21
439.7499999999998
 31
0.0
  0
LINE
  5
B30
330
7F0
100
AcDbEntity
  8
0
  6
Continuous
 62
     1
100
AcDbLine
 10
1023.85
 20
437.25
 30
0.0
 11
1023.85
 21
438.25
 31
0.0
  0
LINE
  5
B31
330
7F0
100
AcDbEntity
  8
0
  6
Continuous
 62
     1
100
AcDbLine
 10
1023.85
 20
438.25
 30
0.0
 11
1024.85
 21
438.25
 31
0.0
  0
LINE
  5
B32
330
7F0
100
AcDbEntity
  8
0
  6
Continuous
 62
     1
100
AcDbLine
 10
1024.85
 20
438.25
 30
0.0
 11
1024.85
 21
437.25
 31
0.0
  0
LINE
  5
B33
330
7F0
100
AcDbEntity
  8
0
  6
Continuous
 62
     1
100
AcDbLine
 10
1024.85
 20
437.25
 30
0.0
 11
1023.85
 21
437.25
 31
0.0
  0
LINE
  5
B34
330
7F0
100
AcDbEntity
  8
0
  6
Continuous
 62
     1
100
AcDbLine
 10
1021.349999999997
 20
439.7499999999998
 30
0.0
 11
1021.349999999997
 21
440.7499999999997
 31
0.0
  0
LINE
  5
B35
330
7F0
100
AcDbEntity
  8
0
  6
Continuous
 62
     1
100
AcDbLine
 10
1021.349999999997
 20
440.7499999999997
 30
0.0
 11
1022.35
 21
440.7499999999997
 31
0.0
  0
LINE
  5
B36
330
7F0
100
AcDbEntity
  8
0
  6
Continuous
 62
     1
100
AcDbLine
 10
1022.35
 20
440.7499999999997
 30
0.0
 11
1022.35
 21
439.7499999999998
 31
0.0
  0
LINE
  5
B37
330
7F0
100
AcDbEntity
  8
0
  6
Continuous
 62
     1
100
AcDbLine
 10
1022.35
 20
439.7499999999998
 30
0.0
 11
1021.349999999997
 21
439.7499999999998
 31
0.0
  0
LINE
  5
B38
330
7F0
100
AcDbEntity
  8
0
  6
Continuous
 62
     1
100
AcDbLine
 10
1021.349999999997
 20
437.25
 30
0.0
 11
1021.349999999997
 21
438.25
 31
0.0
  0
LINE
  5
B39
330
7F0
100
AcDbEntity
  8
0
  6
Continuous
 62
     1
100
AcDbLine
 10
1021.349999999997
 20
438.25
 30
0.0
 11
1022.35
 21
438.25
 31
0.0
  0
LINE
  5
B3A
330
7F0
100
AcDbEntity
  8
0
  6
Continuous
 62
     1
100
AcDbLine
 10
1022.35
 20
438.25
 30
0.0
 11
1022.35
 21
437.25
 31
0.0
  0
LINE
  5
B3B
330
7F0
100
AcDbEntity
  8
0
  6
Continuous
 62
     1
100
AcDbLine
 10
1022.35
 20
437.25
 30
0.0
 11
1021.349999999997
 21
437.25
 31
0.0
  0
LINE
  5
B3C
330
7F0
100
AcDbEntity
  8
0
  6
Continuous
 62
     1
100
AcDbLine
 10
1018.85
 20
439.7499999999998
 30
0.0
 11
1018.85
 21
440.7499999999997
 31
0.0
  0
LINE
  5
B3D
330
7F0
100
AcDbEntity
  8
0
  6
Continuous
 62
     1
100
AcDbLine
 10
1018.85
 20
440.7499999999997
 30
0.0
 11
1019.85
 21
440.7499999999997
 31
0.0
  0
LINE
  5
B3E
330
7F0
100
AcDbEntity
  8
0
  6
Continuous
 62
     1
100
AcDbLine
 10
1019.85
 20
440.7499999999997
 30
0.0
 11
1019.85
 21
439.7499999999998
 31
0.0
  0
LINE
  5
B3F
330
7F0
100
AcDbEntity
  8
0
  6
Continuous
 62
     1
100
AcDbLine
 10
1019.85
 20
439.7499999999998
 30
0.0
 11
1018.85
 21
439.7499999999998
 31
0.0
  0
LINE
  5
B40
330
7F0
100
AcDbEntity
  8
0
  6
Continuous
 62
     1
100
AcDbLine
 10
1018.85
 20
437.25
 30
0.0
 11
1018.85
 21
438.25
 31
0.0
  0
LINE
  5
B41
330
7F0
100
AcDbEntity
  8
0
  6
Continuous
 62
     1
100
AcDbLine
 10
1018.85
 20
438.25
 30
0.0
 11
1019.85
 21
438.25
 31
0.0
  0
LINE
  5
B42
330
7F0
100
AcDbEntity
  8
0
  6
Continuous
 62
     1
100
AcDbLine
 10
1019.85
 20
438.25
 30
0.0
 11
1019.85
 21
437.25
 31
0.0
  0
LINE
  5
B43
330
7F0
100
AcDbEntity
  8
0
  6
Continuous
 62
     1
100
AcDbLine
 10
1019.85
 20
437.25
 30
0.0
 11
1018.85
 21
437.25
 31
0.0
  0
LINE
  5
B44
330
7F0
100
AcDbEntity
  8
0
  6
Continuous
 62
     1
100
AcDbLine
 10
1016.35
 20
439.7499999999998
 30
0.0
 11
1016.35
 21
440.7499999999997
 31
0.0
  0
LINE
  5
B45
330
7F0
100
AcDbEntity
  8
0
  6
Continuous
 62
     1
100
AcDbLine
 10
1016.35
 20
440.7499999999997
 30
0.0
 11
1017.35
 21
440.7499999999997
 31
0.0
  0
LINE
  5
B46
330
7F0
100
AcDbEntity
  8
0
  6
Continuous
 62
     1
100
AcDbLine
 10
1017.35
 20
440.7499999999997
 30
0.0
 11
1017.35
 21
439.7499999999998
 31
0.0
  0
LINE
  5
B47
330
7F0
100
AcDbEntity
  8
0
  6
Continuous
 62
     1
100
AcDbLine
 10
1017.35
 20
439.7499999999998
 30
0.0
 11
1016.35
 21
439.7499999999998
 31
0.0
  0
LINE
  5
B48
330
7F0
100
AcDbEntity
  8
0
  6
Continuous
 62
     1
100
AcDbLine
 10
1016.35
 20
437.25
 30
0.0
 11
1016.35
 21
438.25
 31
0.0
  0
LINE
  5
B49
330
7F0
100
AcDbEntity
  8
0
  6
Continuous
 62
     1
100
AcDbLine
 10
1016.35
 20
438.25
 30
0.0
 11
1017.35
 21
438.25
 31
0.0
  0
LINE
  5
B4A
330
7F0
100
AcDbEntity
  8
0
  6
Continuous
 62
     1
100
AcDbLine
 10
1017.35
 20
438.25
 30
0.0
 11
1017.35
 21
437.25
 31
0.0
  0
LINE
  5
B4B
330
7F0
100
AcDbEntity
  8
0
  6
Continuous
 62
     1
100
AcDbLine
 10
1017.35
 20
437.25
 30
0.0
 11
1016.35
 21
437.25
 31
0.0
  0
ARC
  5
B4C
330
7F0
100
AcDbEntity
  8
0
  6
Continuous
 62
     1
100
AcDbCircle
 10
1014.799999999999
 20
436.2499999999998
 30
0.0
 40
1.0
100
AcDbArc
 50
168.6999999999999
 51
270.0
  0
LINE
  5
B4D
330
7F0
100
AcDbEntity
  8
0
  6
Continuous
 62
     1
100
AcDbLine
 10
1013.85
 20
436.4499999999998
 30
0.0
 11
1014.95
 21
441.95
 31
0.0
  0
ARC
  5
B4E
330
7F0
100
AcDbEntity
  8
0
  6
Continuous
 62
     1
100
AcDbCircle
 10
1015.95
 20
441.75
 30
0.0
 40
1.0
100
AcDbArc
 50
90.0
 51
169.9
  0
LINE
  5
B4F
330
7F0
100
AcDbEntity
  8
0
  6
Continuous
 62
     1
100
AcDbLine
 10
1015.95
 20
442.75
 30
0.0
 11
1060.3
 21
442.75
 31
0.0
  0
ARC
  5
B50
330
7F0
100
AcDbEntity
  8
0
  6
Continuous
 62
     1
100
AcDbCircle
 10
1060.3
 20
441.75
 30
0.0
 40
1.0
100
AcDbArc
 50
11.4
 51
90.0
  0
LINE
  5
B51
330
7F0
100
AcDbEntity
  8
0
  6
Continuous
 62
     1
100
AcDbLine
 10
1061.25
 20
441.95
 30
0.0
 11
1062.35
 21
436.4499999999998
 31
0.0
  0
ARC
  5
B52
330
7F0
100
AcDbEntity
  8
0
  6
Continuous
 62
     1
100
AcDbCircle
 10
1061.35
 20
436.2499999999998
 30
0.0
 40
1.0
100
AcDbArc
 50
270.0
 51
12.0
  0
LINE
  5
B53
330
7F0
100
AcDbEntity
  8
0
  6
Continuous
 62
     1
100
AcDbLine
 10
1061.35
 20
435.25
 30
0.0
 11
1014.799999999999
 21
435.25
 31
0.0
  0
ARC
  5
B54
330
7F0
100
AcDbEntity
  8
0
  6
Continuous
 62
     1
100
AcDbCircle
 10
1011.6
 20
452.0
 30
0.0
 40
1.0
100
AcDbArc
 50
90.0
 51
180.0
  0
ARC
  5
B55
330
7F0
100
AcDbEntity
  8
0
  6
Continuous
 62
     1
100
AcDbCircle
 10
1011.6
 20
426.0
 30
0.0
 40
1.0
100
AcDbArc
 50
180.0
 51
270.0
  0
LINE
  5
B56
330
7F0
100
AcDbEntity
  8
0
  6
Continuous
 62
     1
100
AcDbLine
 10
1010.599999999999
 20
426.0
 30
0.0
 11
1010.599999999999
 21
452.0
 31
0.0
  0
ARC
  5
B57
330
7F0
100
AcDbEntity
  8
0
  6
Continuous
 62
     1
100
AcDbCircle
 10
1064.599999999999
 20
426.0
 30
0.0
 40
1.0
100
AcDbArc
 50
270.0
 51
0.0
  0
LINE
  5
B58
330
7F0
100
AcDbEntity
  8
0
  6
Continuous
 62
     1
100
AcDbLine
 10
1064.599999999999
 20
425.0
 30
0.0
 11
1011.6
 21
425.0
 31
0.0
  0
LINE
  5
B59
330
7F0
100
AcDbEntity
  8
0
  6
Continuous
 62
     1
100
AcDbLine
 10
1011.6
 20
453.0
 30
0.0
 11
1064.599999999999
 21
453.0
 31
0.0
  0
ARC
  5
B5A
330
7F0
100
AcDbEntity
  8
0
  6
Continuous
 62
     1
100
AcDbCircle
 10
1064.599999999999
 20
452.0
 30
0.0
 40
1.0
100
AcDbArc
 50
0.0
 51
90.0
  0
LINE
  5
B5B
330
7F0
100
AcDbEntity
  8
0
  6
Continuous
 62
     1
100
AcDbLine
 10
1065.599999999998
 20
452.0
 30
0.0
 11
1065.599999999998
 21
426.0
 31
0.0
  0
LINE
  5
B5C
330
7F0
100
AcDbEntity
  8
0
  6
Continuous
 62
     6
100
AcDbLine
 10
1010.599999999999
 20
453.5
 30
0.0
 11
1010.599999999999
 21
479.0
 31
0.0
  0
LINE
  5
B5D
330
7F0
100
AcDbEntity
  8
0
  6
Continuous
 62
     6
100
AcDbLine
 10
1013.6
 20
437.5
 30
0.0
 11
1013.6
 21
474.0
 31
0.0
  0
LINE
  5
B5E
330
7F0
100
AcDbEntity
  8
0
  6
Continuous
 62
     6
100
AcDbLine
 10
1015.1
 20
443.0
 30
0.0
 11
1015.1
 21
469.0
 31
0.0
  0
LINE
  5
B5F
330
7F0
100
AcDbEntity
  8
0
  6
Continuous
 62
     6
100
AcDbLine
 10
1016.85
 20
448.7499999999998
 30
0.0
 11
1016.85
 21
464.0
 31
0.0
  0
LINE
  5
B60
330
7F0
100
AcDbEntity
  8
0
  6
Continuous
 62
     6
100
AcDbLine
 10
1059.35
 20
447.75
 30
0.0
 11
1059.35
 21
464.0
 31
0.0
  0
LINE
  5
B61
330
7F0
100
AcDbEntity
  8
0
  6
Continuous
 62
     6
100
AcDbLine
 10
1061.099999999999
 20
443.0
 30
0.0
 11
1061.099999999999
 21
469.0
 31
0.0
  0
LINE
  5
B62
330
7F0
100
AcDbEntity
  8
0
  6
Continuous
 62
     6
100
AcDbLine
 10
1062.599999999999
 20
474.0
 30
0.0
 11
1062.599999999999
 21
437.0
 31
0.0
  0
LINE
  5
B63
330
7F0
100
AcDbEntity
  8
0
  6
Continuous
 62
     6
100
AcDbLine
 10
1065.599999999998
 20
453.0
 30
0.0
 11
1065.599999999998
 21
479.0
 31
0.0
  0
LINE
  5
B64
330
7F0
100
AcDbEntity
  8
0
  6
Continuous
 62
     6
100
AcDbLine
 10
1011.8
 20
477.7
 30
0.0
 11
1010.599999999999
 21
478.0
 31
0.0
  0
LINE
  5
B65
330
7F0
100
AcDbEntity
  8
0
  6
Continuous
 62
     6
100
AcDbLine
 10
1010.599999999999
 20
478.0
 30
0.0
 11
1011.8
 21
478.3
 31
0.0
  0
LINE
  5
B66
330
7F0
100
AcDbEntity
  8
0
  6
Continuous
 62
     6
100
AcDbLine
 10
1010.599999999999
 20
478.0
 30
0.0
 11
1065.599999999998
 21
478.0
 31
0.0
  0
LINE
  5
B67
330
7F0
100
AcDbEntity
  8
0
  6
Continuous
 62
     6
100
AcDbLine
 10
1064.4
 20
477.7
 30
0.0
 11
1065.599999999998
 21
478.0
 31
0.0
  0
LINE
  5
B68
330
7F0
100
AcDbEntity
  8
0
  6
Continuous
 62
     6
100
AcDbLine
 10
1065.599999999998
 20
478.0
 30
0.0
 11
1064.4
 21
478.3
 31
0.0
  0
TEXT
  5
B69
330
7F0
100
AcDbEntity
  8
0
  6
Continuous
 62
     6
100
AcDbText
 10
1037.299999999999
 20
478.75
 30
0.1875
 40
1.5
  1
５５
 41
0.75
  7
KANJI2
100
AcDbText
  0
LINE
  5
B6A
330
7F0
100
AcDbEntity
  8
0
  6
Continuous
 62
     6
100
AcDbLine
 10
1061.4
 20
473.3
 30
0.1875
 11
1062.599999999999
 21
473.0
 31
0.1875
  0
LINE
  5
B6B
330
7F0
100
AcDbEntity
  8
0
  6
Continuous
 62
     6
100
AcDbLine
 10
1062.599999999999
 20
473.0
 30
0.0
 11
1061.4
 21
472.7
 31
0.0
  0
LINE
  5
B6C
330
7F0
100
AcDbEntity
  8
0
  6
Continuous
 62
     6
100
AcDbLine
 10
1062.599999999999
 20
473.0
 30
0.0
 11
1013.6
 21
473.0
 31
0.0
  0
LINE
  5
B6D
330
7F0
100
AcDbEntity
  8
0
  6
Continuous
 62
     6
100
AcDbLine
 10
1014.799999999999
 20
473.3
 30
0.0
 11
1013.6
 21
473.0
 31
0.0
  0
LINE
  5
B6E
330
7F0
100
AcDbEntity
  8
0
  6
Continuous
 62
     6
100
AcDbLine
 10
1013.6
 20
473.0
 30
0.0
 11
1014.799999999999
 21
472.7
 31
0.0
  0
TEXT
  5
B6F
330
7F0
100
AcDbEntity
  8
0
  6
Continuous
 62
     6
100
AcDbText
 10
1037.299999999999
 20
473.7499999999998
 30
0.1875
 40
1.5
  1
４９
 41
0.75
  7
KANJI2
100
AcDbText
  0
LINE
  5
B70
330
7F0
100
AcDbEntity
  8
0
  6
Continuous
 62
     6
100
AcDbLine
 10
1059.9
 20
468.2999999999998
 30
0.1875
 11
1061.099999999999
 21
468.0
 31
0.1875
  0
LINE
  5
B71
330
7F0
100
AcDbEntity
  8
0
  6
Continuous
 62
     6
100
AcDbLine
 10
1061.099999999999
 20
468.0
 30
0.0
 11
1059.9
 21
467.6999999999998
 31
0.0
  0
LINE
  5
B72
330
7F0
100
AcDbEntity
  8
0
  6
Continuous
 62
     6
100
AcDbLine
 10
1061.099999999999
 20
468.0
 30
0.0
 11
1015.1
 21
468.0
 31
0.0
  0
LINE
  5
B73
330
7F0
100
AcDbEntity
  8
0
  6
Continuous
 62
     6
100
AcDbLine
 10
1016.299999999999
 20
468.2999999999998
 30
0.0
 11
1015.1
 21
468.0
 31
0.0
  0
LINE
  5
B74
330
7F0
100
AcDbEntity
  8
0
  6
Continuous
 62
     6
100
AcDbLine
 10
1015.1
 20
468.0
 30
0.0
 11
1016.299999999999
 21
467.6999999999998
 31
0.0
  0
TEXT
  5
B75
330
7F0
100
AcDbEntity
  8
0
  6
Continuous
 62
     6
100
AcDbText
 10
1037.299999999999
 20
468.75
 30
0.1875
 40
1.5
  1
４６
 41
0.75
  7
KANJI2
100
AcDbText
  0
LINE
  5
B76
330
7F0
100
AcDbEntity
  8
0
  6
Continuous
 62
     6
100
AcDbLine
 10
1058.15
 20
463.3
 30
0.1875
 11
1059.35
 21
463.0
 31
0.1875
  0
LINE
  5
B77
330
7F0
100
AcDbEntity
  8
0
  6
Continuous
 62
     6
100
AcDbLine
 10
1059.35
 20
463.0
 30
0.0
 11
1058.15
 21
462.6999999999998
 31
0.0
  0
LINE
  5
B78
330
7F0
100
AcDbEntity
  8
0
  6
Continuous
 62
     6
100
AcDbLine
 10
1059.35
 20
463.0
 30
0.0
 11
1016.85
 21
463.0
 31
0.0
  0
LINE
  5
B79
330
7F0
100
AcDbEntity
  8
0
  6
Continuous
 62
     6
100
AcDbLine
 10
1018.05
 20
463.3
 30
0.0
 11
1016.85
 21
463.0
 31
0.0
  0
LINE
  5
B7A
330
7F0
100
AcDbEntity
  8
0
  6
Continuous
 62
     6
100
AcDbLine
 10
1016.85
 20
463.0
 30
0.0
 11
1018.05
 21
462.6999999999998
 31
0.0
  0
TEXT
  5
B7B
330
7F0
100
AcDbEntity
  8
0
  6
Continuous
 62
     6
100
AcDbText
 10
1033.5
 20
463.75
 30
0.1875
 40
1.5
  1
２．５　Ｘ　１７
 41
0.75
  7
KANJI2
100
AcDbText
  0
LINE
  5
B7C
330
7F0
100
AcDbEntity
  8
0
  6
Continuous
 62
     6
100
AcDbLine
 10
1066.1
 20
453.0
 30
0.1875
 11
1088.099999999998
 21
453.0
 31
0.1875
  0
LINE
  5
B7D
330
7F0
100
AcDbEntity
  8
0
  6
Continuous
 62
     6
100
AcDbLine
 10
1088.099999999998
 20
425.0
 30
0.0
 11
1066.1
 21
425.0
 31
0.0
  0
LINE
  5
B7E
330
7F0
100
AcDbEntity
  8
0
  6
Continuous
 62
     6
100
AcDbLine
 10
1086.799999999999
 20
451.7999999999998
 30
0.0
 11
1087.099999999999
 21
453.0
 31
0.0
  0
LINE
  5
B7F
330
7F0
100
AcDbEntity
  8
0
  6
Continuous
 62
     6
100
AcDbLine
 10
1087.099999999999
 20
453.0
 30
0.0
 11
1087.4
 21
451.7999999999998
 31
0.0
  0
LINE
  5
B80
330
7F0
100
AcDbEntity
  8
0
  6
Continuous
 62
     6
100
AcDbLine
 10
1087.099999999999
 20
453.0
 30
0.0
 11
1087.099999999999
 21
425.0
 31
0.0
  0
LINE
  5
B81
330
7F0
100
AcDbEntity
  8
0
  6
Continuous
 62
     6
100
AcDbLine
 10
1086.799999999999
 20
426.1999999999998
 30
0.0
 11
1087.099999999999
 21
425.0
 31
0.0
  0
LINE
  5
B82
330
7F0
100
AcDbEntity
  8
0
  6
Continuous
 62
     6
100
AcDbLine
 10
1087.099999999999
 20
425.0
 30
0.0
 11
1087.4
 21
426.1999999999998
 31
0.0
  0
TEXT
  5
B83
330
7F0
100
AcDbEntity
  8
0
  6
Continuous
 62
     6
100
AcDbText
 10
1086.35
 20
438.1999999999998
 30
0.1875
 40
1.5
  1
２８
 50
90.0
 41
0.75
  7
KANJI2
100
AcDbText
  0
LINE
  5
B84
330
7F0
100
AcDbEntity
  8
0
  6
Continuous
 62
     6
100
AcDbLine
 10
1010.599999999999
 20
453.5
 30
0.1875
 11
1010.599999999999
 21
479.0
 31
0.1875
  0
LINE
  5
B85
330
7F0
100
AcDbEntity
  8
0
  6
Continuous
 62
     6
100
AcDbLine
 10
1013.6
 20
437.5
 30
0.0
 11
1013.6
 21
474.0
 31
0.0
  0
LINE
  5
B86
330
7F0
100
AcDbEntity
  8
0
  6
Continuous
 62
     6
100
AcDbLine
 10
1015.1
 20
443.0
 30
0.0
 11
1015.1
 21
469.0
 31
0.0
  0
LINE
  5
B87
330
7F0
100
AcDbEntity
  8
0
  6
Continuous
 62
     6
100
AcDbLine
 10
1016.85
 20
448.7499999999998
 30
0.0
 11
1016.85
 21
464.0
 31
0.0
  0
LINE
  5
B88
330
7F0
100
AcDbEntity
  8
0
  6
Continuous
 62
     6
100
AcDbLine
 10
1059.35
 20
447.75
 30
0.0
 11
1059.35
 21
464.0
 31
0.0
  0
LINE
  5
B89
330
7F0
100
AcDbEntity
  8
0
  6
Continuous
 62
     6
100
AcDbLine
 10
1061.099999999999
 20
443.0
 30
0.0
 11
1061.099999999999
 21
469.0
 31
0.0
  0
LINE
  5
B8A
330
7F0
100
AcDbEntity
  8
0
  6
Continuous
 62
     6
100
AcDbLine
 10
1062.599999999999
 20
474.0
 30
0.0
 11
1062.599999999999
 21
437.0
 31
0.0
  0
LINE
  5
B8B
330
7F0
100
AcDbEntity
  8
0
  6
Continuous
 62
     6
100
AcDbLine
 10
1065.599999999998
 20
453.0
 30
0.0
 11
1065.599999999998
 21
479.0
 31
0.0
  0
LINE
  5
B8C
330
7F0
100
AcDbEntity
  8
0
  6
Continuous
 62
     6
100
AcDbLine
 10
1011.8
 20
477.7
 30
0.0
 11
1010.599999999999
 21
478.0
 31
0.0
  0
LINE
  5
B8D
330
7F0
100
AcDbEntity
  8
0
  6
Continuous
 62
     6
100
AcDbLine
 10
1010.599999999999
 20
478.0
 30
0.0
 11
1011.8
 21
478.3
 31
0.0
  0
LINE
  5
B8E
330
7F0
100
AcDbEntity
  8
0
  6
Continuous
 62
     6
100
AcDbLine
 10
1010.599999999999
 20
478.0
 30
0.0
 11
1065.599999999998
 21
478.0
 31
0.0
  0
LINE
  5
B8F
330
7F0
100
AcDbEntity
  8
0
  6
Continuous
 62
     6
100
AcDbLine
 10
1064.4
 20
477.7
 30
0.0
 11
1065.599999999998
 21
478.0
 31
0.0
  0
LINE
  5
B90
330
7F0
100
AcDbEntity
  8
0
  6
Continuous
 62
     6
100
AcDbLine
 10
1065.599999999998
 20
478.0
 30
0.0
 11
1064.4
 21
478.3
 31
0.0
  0
TEXT
  5
B91
330
7F0
100
AcDbEntity
  8
0
  6
Continuous
 62
     6
100
AcDbText
 10
1037.299999999999
 20
478.75
 30
0.1875
 40
1.5
  1
５５
 41
0.75
  7
KANJI2
100
AcDbText
  0
LINE
  5
B92
330
7F0
100
AcDbEntity
  8
0
  6
Continuous
 62
     6
100
AcDbLine
 10
1061.4
 20
473.3
 30
0.1875
 11
1062.599999999999
 21
473.0
 31
0.1875
  0
LINE
  5
B93
330
7F0
100
AcDbEntity
  8
0
  6
Continuous
 62
     6
100
AcDbLine
 10
1062.599999999999
 20
473.0
 30
0.0
 11
1061.4
 21
472.7
 31
0.0
  0
LINE
  5
B94
330
7F0
100
AcDbEntity
  8
0
  6
Continuous
 62
     6
100
AcDbLine
 10
1062.599999999999
 20
473.0
 30
0.0
 11
1013.6
 21
473.0
 31
0.0
  0
LINE
  5
B95
330
7F0
100
AcDbEntity
  8
0
  6
Continuous
 62
     6
100
AcDbLine
 10
1014.799999999999
 20
473.3
 30
0.0
 11
1013.6
 21
473.0
 31
0.0
  0
LINE
  5
B96
330
7F0
100
AcDbEntity
  8
0
  6
Continuous
 62
     6
100
AcDbLine
 10
1013.6
 20
473.0
 30
0.0
 11
1014.799999999999
 21
472.7
 31
0.0
  0
TEXT
  5
B97
330
7F0
100
AcDbEntity
  8
0
  6
Continuous
 62
     6
100
AcDbText
 10
1037.299999999999
 20
473.7499999999998
 30
0.1875
 40
1.5
  1
４９
 41
0.75
  7
KANJI2
100
AcDbText
  0
LINE
  5
B98
330
7F0
100
AcDbEntity
  8
0
  6
Continuous
 62
     6
100
AcDbLine
 10
1059.9
 20
468.2999999999998
 30
0.1875
 11
1061.099999999999
 21
468.0
 31
0.1875
  0
LINE
  5
B99
330
7F0
100
AcDbEntity
  8
0
  6
Continuous
 62
     6
100
AcDbLine
 10
1061.099999999999
 20
468.0
 30
0.0
 11
1059.9
 21
467.6999999999998
 31
0.0
  0
LINE
  5
B9A
330
7F0
100
AcDbEntity
  8
0
  6
Continuous
 62
     6
100
AcDbLine
 10
1061.099999999999
 20
468.0
 30
0.0
 11
1015.1
 21
468.0
 31
0.0
  0
LINE
  5
B9B
330
7F0
100
AcDbEntity
  8
0
  6
Continuous
 62
     6
100
AcDbLine
 10
1016.299999999999
 20
468.2999999999998
 30
0.0
 11
1015.1
 21
468.0
 31
0.0
  0
LINE
  5
B9C
330
7F0
100
AcDbEntity
  8
0
  6
Continuous
 62
     6
100
AcDbLine
 10
1015.1
 20
468.0
 30
0.0
 11
1016.299999999999
 21
467.6999999999998
 31
0.0
  0
TEXT
  5
B9D
330
7F0
100
AcDbEntity
  8
0
  6
Continuous
 62
     6
100
AcDbText
 10
1037.299999999999
 20
468.75
 30
0.1875
 40
1.5
  1
４６
 41
0.75
  7
KANJI2
100
AcDbText
  0
LINE
  5
B9E
330
7F0
100
AcDbEntity
  8
0
  6
Continuous
 62
     6
100
AcDbLine
 10
1058.15
 20
463.3
 30
0.1875
 11
1059.35
 21
463.0
 31
0.1875
  0
LINE
  5
B9F
330
7F0
100
AcDbEntity
  8
0
  6
Continuous
 62
     6
100
AcDbLine
 10
1059.35
 20
463.0
 30
0.0
 11
1058.15
 21
462.6999999999998
 31
0.0
  0
LINE
  5
BA0
330
7F0
100
AcDbEntity
  8
0
  6
Continuous
 62
     6
100
AcDbLine
 10
1059.35
 20
463.0
 30
0.0
 11
1016.85
 21
463.0
 31
0.0
  0
LINE
  5
BA1
330
7F0
100
AcDbEntity
  8
0
  6
Continuous
 62
     6
100
AcDbLine
 10
1018.05
 20
463.3
 30
0.0
 11
1016.85
 21
463.0
 31
0.0
  0
LINE
  5
BA2
330
7F0
100
AcDbEntity
  8
0
  6
Continuous
 62
     6
100
AcDbLine
 10
1016.85
 20
463.0
 30
0.0
 11
1018.05
 21
462.6999999999998
 31
0.0
  0
TEXT
  5
BA3
330
7F0
100
AcDbEntity
  8
0
  6
Continuous
 62
     6
100
AcDbText
 10
1033.5
 20
463.75
 30
0.1875
 40
1.5
  1
２．５　Ｘ　１７
 41
0.75
  7
KANJI2
100
AcDbText
  0
LINE
  5
BA4
330
7F0
100
AcDbEntity
  8
0
  6
Continuous
 62
     6
100
AcDbLine
 10
1066.1
 20
453.0
 30
0.1875
 11
1088.099999999998
 21
453.0
 31
0.1875
  0
LINE
  5
BA5
330
7F0
100
AcDbEntity
  8
0
  6
Continuous
 62
     6
100
AcDbLine
 10
1088.099999999998
 20
425.0
 30
0.0
 11
1066.1
 21
425.0
 31
0.0
  0
LINE
  5
BA6
330
7F0
100
AcDbEntity
  8
0
  6
Continuous
 62
     6
100
AcDbLine
 10
1086.799999999999
 20
451.7999999999998
 30
0.0
 11
1087.099999999999
 21
453.0
 31
0.0
  0
LINE
  5
BA7
330
7F0
100
AcDbEntity
  8
0
  6
Continuous
 62
     6
100
AcDbLine
 10
1087.099999999999
 20
453.0
 30
0.0
 11
1087.4
 21
451.7999999999998
 31
0.0
  0
LINE
  5
BA8
330
7F0
100
AcDbEntity
  8
0
  6
Continuous
 62
     6
100
AcDbLine
 10
1087.099999999999
 20
453.0
 30
0.0
 11
1087.099999999999
 21
425.0
 31
0.0
  0
LINE
  5
BA9
330
7F0
100
AcDbEntity
  8
0
  6
Continuous
 62
     6
100
AcDbLine
 10
1086.799999999999
 20
426.1999999999998
 30
0.0
 11
1087.099999999999
 21
425.0
 31
0.0
  0
LINE
  5
BAA
330
7F0
100
AcDbEntity
  8
0
  6
Continuous
 62
     6
100
AcDbLine
 10
1087.099999999999
 20
425.0
 30
0.0
 11
1087.4
 21
426.1999999999998
 31
0.0
  0
TEXT
  5
BAB
330
7F0
100
AcDbEntity
  8
0
  6
Continuous
 62
     6
100
AcDbText
 10
1086.35
 20
438.1999999999998
 30
0.1875
 40
1.5
  1
２８
 50
90.0
 41
0.75
  7
KANJI2
100
AcDbText
  0
POINT
  5
BAC
330
7F0
100
AcDbEntity
  8
0
  6
Continuous
 62
     3
100
AcDbPoint
 10
448.176
 20
27.69199999999999
 30
0.1875
  0
TEXT
  5
BAD
330
7F0
100
AcDbEntity
  8
0
  6
Continuous
 62
     3
100
AcDbText
 10
1030.776
 20
442.4419999999998
 30
0.05
 40
1.0
  1
１
 41
0.7
  7
KANJI0
100
AcDbText
  0
TEXT
  5
BAE
330
7F0
100
AcDbEntity
  8
0
  6
Continuous
 62
     3
100
AcDbText
 10
1033.276
 20
442.4419999999998
 30
0.05
 40
1.0
  1
２
 41
0.7
  7
KANJI0
100
AcDbText
  0
TEXT
  5
BAF
330
7F0
100
AcDbEntity
  8
0
  6
Continuous
 62
     3
100
AcDbText
 10
1035.776
 20
442.4419999999998
 30
0.05
 40
1.0
  1
３
 41
0.7
  7
KANJI0
100
AcDbText
  0
TEXT
  5
BB0
330
7F0
100
AcDbEntity
  8
0
  6
Continuous
 62
     3
100
AcDbText
 10
1038.276
 20
442.4419999999998
 30
0.05
 40
1.0
  1
４
 41
0.7
  7
KANJI0
100
AcDbText
  0
TEXT
  5
BB1
330
7F0
100
AcDbEntity
  8
0
  6
Continuous
 62
     3
100
AcDbText
 10
1040.776
 20
442.4419999999998
 30
0.05
 40
1.0
  1
５
 41
0.7
  7
KANJI0
100
AcDbText
  0
TEXT
  5
BB2
330
7F0
100
AcDbEntity
  8
0
  6
Continuous
 62
     3
100
AcDbText
 10
1043.276
 20
442.4419999999998
 30
0.05
 40
1.0
  1
６
 41
0.7
  7
KANJI0
100
AcDbText
  0
TEXT
  5
BB3
330
7F0
100
AcDbEntity
  8
0
  6
Continuous
 62
     3
100
AcDbText
 10
1045.776
 20
442.4419999999998
 30
0.05
 40
1.0
  1
７
 41
0.7
  7
KANJI0
100
AcDbText
  0
TEXT
  5
BB4
330
7F0
100
AcDbEntity
  8
0
  6
Continuous
 62
     3
100
AcDbText
 10
1048.276
 20
442.4419999999998
 30
0.05
 40
1.0
  1
８
 41
0.7
  7
KANJI0
100
AcDbText
  0
TEXT
  5
BB5
330
7F0
100
AcDbEntity
  8
0
  6
Continuous
 62
     3
100
AcDbText
 10
1050.776
 20
442.4419999999998
 30
0.05
 40
1.0
  1
９
 41
0.7
  7
KANJI0
100
AcDbText
  0
TEXT
  5
BB6
330
7F0
100
AcDbEntity
  8
0
  6
Continuous
 62
     3
100
AcDbText
 10
1052.876
 20
442.4419999999998
 30
0.05
 40
1.0
  1
１０
 41
0.7
  7
KANJI0
100
AcDbText
  0
TEXT
  5
BB7
330
7F0
100
AcDbEntity
  8
0
  6
Continuous
 62
     3
100
AcDbText
 10
1055.376
 20
442.4419999999998
 30
0.05
 40
1.0
  1
１１
 41
0.7
  7
KANJI0
100
AcDbText
  0
TEXT
  5
BB8
330
7F0
100
AcDbEntity
  8
0
  6
Continuous
 62
     3
100
AcDbText
 10
1057.876
 20
442.4419999999998
 30
0.05
 40
1.0
  1
１２
 41
0.7
  7
KANJI0
100
AcDbText
  0
TEXT
  5
BB9
330
7F0
100
AcDbEntity
  8
0
  6
Continuous
 62
     3
100
AcDbText
 10
1060.375999999997
 20
442.4419999999998
 30
0.05
 40
1.0
  1
１３
 41
0.7
  7
KANJI0
100
AcDbText
  0
TEXT
  5
BBA
330
7F0
100
AcDbEntity
  8
0
  6
Continuous
 62
     3
100
AcDbText
 10
1062.875999999999
 20
442.4419999999998
 30
0.05
 40
1.0
  1
１４
 41
0.7
  7
KANJI0
100
AcDbText
  0
TEXT
  5
BBB
330
7F0
100
AcDbEntity
  8
0
  6
Continuous
 62
     3
100
AcDbText
 10
1065.376
 20
442.4419999999998
 30
0.05
 40
1.0
  1
１５
 41
0.7
  7
KANJI0
100
AcDbText
  0
TEXT
  5
BBC
330
7F0
100
AcDbEntity
  8
0
  6
Continuous
 62
     3
100
AcDbText
 10
1067.876
 20
442.4419999999998
 30
0.05
 40
1.0
  1
１６
 41
0.7
  7
KANJI0
100
AcDbText
  0
TEXT
  5
BBD
330
7F0
100
AcDbEntity
  8
0
  6
Continuous
 62
     3
100
AcDbText
 10
1070.376
 20
442.4419999999998
 30
0.05
 40
1.0
  1
１７
 41
0.7
  7
KANJI0
100
AcDbText
  0
TEXT
  5
BBE
330
7F0
100
AcDbEntity
  8
0
  6
Continuous
 62
     3
100
AcDbText
 10
1072.875999999997
 20
442.4419999999998
 30
0.05
 40
1.0
  1
１８
 41
0.7
  7
KANJI0
100
AcDbText
  0
TEXT
  5
BBF
330
7F0
100
AcDbEntity
  8
0
  6
Continuous
 62
     3
100
AcDbText
 10
1030.376
 20
447.9419999999998
 30
0.05
 40
1.0
  1
１９
 41
0.7
  7
KANJI0
100
AcDbText
  0
TEXT
  5
BC0
330
7F0
100
AcDbEntity
  8
0
  6
Continuous
 62
     3
100
AcDbText
 10
1032.876
 20
447.9419999999998
 30
0.05
 40
1.0
  1
２０
 41
0.7
  7
KANJI0
100
AcDbText
  0
TEXT
  5
BC1
330
7F0
100
AcDbEntity
  8
0
  6
Continuous
 62
     3
100
AcDbText
 10
1035.376
 20
447.9419999999998
 30
0.05
 40
1.0
  1
２１
 41
0.7
  7
KANJI0
100
AcDbText
  0
TEXT
  5
BC2
330
7F0
100
AcDbEntity
  8
0
  6
Continuous
 62
     3
100
AcDbText
 10
1037.876
 20
447.9419999999998
 30
0.05
 40
1.0
  1
２２
 41
0.7
  7
KANJI0
100
AcDbText
  0
TEXT
  5
BC3
330
7F0
100
AcDbEntity
  8
0
  6
Continuous
 62
     3
100
AcDbText
 10
1040.375999999999
 20
447.9419999999998
 30
0.05
 40
1.0
  1
２３
 41
0.7
  7
KANJI0
100
AcDbText
  0
TEXT
  5
BC4
330
7F0
100
AcDbEntity
  8
0
  6
Continuous
 62
     3
100
AcDbText
 10
1042.876
 20
447.9419999999998
 30
0.05
 40
1.0
  1
２４
 41
0.7
  7
KANJI0
100
AcDbText
  0
TEXT
  5
BC5
330
7F0
100
AcDbEntity
  8
0
  6
Continuous
 62
     3
100
AcDbText
 10
1045.376
 20
447.9419999999998
 30
0.05
 40
1.0
  1
２５
 41
0.7
  7
KANJI0
100
AcDbText
  0
TEXT
  5
BC6
330
7F0
100
AcDbEntity
  8
0
  6
Continuous
 62
     3
100
AcDbText
 10
1047.876
 20
447.9419999999998
 30
0.05
 40
1.0
  1
２６
 41
0.7
  7
KANJI0
100
AcDbText
  0
TEXT
  5
BC7
330
7F0
100
AcDbEntity
  8
0
  6
Continuous
 62
     3
100
AcDbText
 10
1050.375999999997
 20
447.9419999999998
 30
0.05
 40
1.0
  1
２７
 41
0.7
  7
KANJI0
100
AcDbText
  0
TEXT
  5
BC8
330
7F0
100
AcDbEntity
  8
0
  6
Continuous
 62
     3
100
AcDbText
 10
1052.876
 20
447.9419999999998
 30
0.05
 40
1.0
  1
２８
 41
0.7
  7
KANJI0
100
AcDbText
  0
TEXT
  5
BC9
330
7F0
100
AcDbEntity
  8
0
  6
Continuous
 62
     3
100
AcDbText
 10
1055.376
 20
447.9419999999998
 30
0.05
 40
1.0
  1
２９
 41
0.7
  7
KANJI0
100
AcDbText
  0
TEXT
  5
BCA
330
7F0
100
AcDbEntity
  8
0
  6
Continuous
 62
     3
100
AcDbText
 10
1057.876
 20
447.9419999999998
 30
0.05
 40
1.0
  1
３０
 41
0.7
  7
KANJI0
100
AcDbText
  0
TEXT
  5
BCB
330
7F0
100
AcDbEntity
  8
0
  6
Continuous
 62
     3
100
AcDbText
 10
1060.375999999997
 20
447.9419999999998
 30
0.05
 40
1.0
  1
３１
 41
0.7
  7
KANJI0
100
AcDbText
  0
TEXT
  5
BCC
330
7F0
100
AcDbEntity
  8
0
  6
Continuous
 62
     3
100
AcDbText
 10
1062.875999999999
 20
447.9419999999998
 30
0.05
 40
1.0
  1
３２
 41
0.7
  7
KANJI0
100
AcDbText
  0
TEXT
  5
BCD
330
7F0
100
AcDbEntity
  8
0
  6
Continuous
 62
     3
100
AcDbText
 10
1065.376
 20
447.9419999999998
 30
0.05
 40
1.0
  1
３３
 41
0.7
  7
KANJI0
100
AcDbText
  0
TEXT
  5
BCE
330
7F0
100
AcDbEntity
  8
0
  6
Continuous
 62
     3
100
AcDbText
 10
1067.876
 20
447.9419999999998
 30
0.05
 40
1.0
  1
３４
 41
0.7
  7
KANJI0
100
AcDbText
  0
TEXT
  5
BCF
330
7F0
100
AcDbEntity
  8
0
  6
Continuous
 62
     3
100
AcDbText
 10
1070.376
 20
447.9419999999998
 30
0.05
 40
1.0
  1
３５
 41
0.7
  7
KANJI0
100
AcDbText
  0
TEXT
  5
BD0
330
7F0
100
AcDbEntity
  8
0
  6
Continuous
 62
     3
100
AcDbText
 10
1072.875999999997
 20
447.9419999999998
 30
0.05
 40
1.0
  1
３６
 41
0.7
  7
KANJI0
100
AcDbText
  0
TEXT
  5
BD1
330
7F0
100
AcDbEntity
  8
0
  6
Continuous
 62
     3
100
AcDbText
 10
1030.776
 20
440.442
 30
0.05
 40
1.0
  1
１
 41
0.7
  7
KANJI0
100
AcDbText
  0
TEXT
  5
BD2
330
7F0
100
AcDbEntity
  8
0
  6
Continuous
 62
     3
100
AcDbText
 10
1033.276
 20
440.442
 30
0.05
 40
1.0
  1
２
 41
0.7
  7
KANJI0
100
AcDbText
  0
TEXT
  5
BD3
330
7F0
100
AcDbEntity
  8
0
  6
Continuous
 62
     3
100
AcDbText
 10
1038.276
 20
440.442
 30
0.05
 40
1.0
  1
８
 41
0.7
  7
KANJI0
100
AcDbText
  0
TEXT
  5
BD4
330
7F0
100
AcDbEntity
  8
0
  6
Continuous
 62
     3
100
AcDbText
 10
1040.776
 20
440.442
 30
0.05
 40
1.0
  1
１
 41
0.7
  7
KANJI0
100
AcDbText
  0
TEXT
  5
BD5
330
7F0
100
AcDbEntity
  8
0
  6
Continuous
 62
     3
100
AcDbText
 10
1043.276
 20
440.442
 30
0.05
 40
1.0
  1
２
 41
0.7
  7
KANJI0
100
AcDbText
  0
TEXT
  5
BD6
330
7F0
100
AcDbEntity
  8
0
  6
Continuous
 62
     3
100
AcDbText
 10
1045.776
 20
440.442
 30
0.05
 40
1.0
  1
４
 41
0.7
  7
KANJI0
100
AcDbText
  0
TEXT
  5
BD7
330
7F0
100
AcDbEntity
  8
0
  6
Continuous
 62
     3
100
AcDbText
 10
1048.276
 20
440.442
 30
0.05
 40
1.0
  1
８
 41
0.7
  7
KANJI0
100
AcDbText
  0
TEXT
  5
BD8
330
7F0
100
AcDbEntity
  8
0
  6
Continuous
 62
     3
100
AcDbText
 10
1050.776
 20
440.442
 30
0.05
 40
1.0
  1
１
 41
0.7
  7
KANJI0
100
AcDbText
  0
TEXT
  5
BD9
330
7F0
100
AcDbEntity
  8
0
  6
Continuous
 62
     3
100
AcDbText
 10
1053.276
 20
440.442
 30
0.05
 40
1.0
  1
２
 41
0.7
  7
KANJI0
100
AcDbText
  0
TEXT
  5
BDA
330
7F0
100
AcDbEntity
  8
0
  6
Continuous
 62
     3
100
AcDbText
 10
1070.776
 20
440.442
 30
0.05
 40
1.0
  1
０
 41
0.7
  7
KANJI0
100
AcDbText
  0
TEXT
  5
BDB
330
7F0
100
AcDbEntity
  8
0
  6
Continuous
 62
     3
100
AcDbText
 10
1072.476
 20
440.442
 30
0.05
 40
1.0
  1
ＣＯＭ
 41
0.7
  7
KANJI0
100
AcDbText
  0
TEXT
  5
BDC
330
7F0
100
AcDbEntity
  8
0
  6
Continuous
 62
     3
100
AcDbText
 10
1067.925999999999
 20
440.442
 30
0.05
 40
1.0
  1
ＳＧ
 41
0.7
  7
KANJI0
100
AcDbText
  0
TEXT
  5
BDD
330
7F0
100
AcDbEntity
  8
0
  6
Continuous
 62
     3
100
AcDbText
 10
1065.076
 20
440.442
 30
0.05
 40
1.0
  1
ＴＸＤ
 41
0.7
  7
KANJI0
100
AcDbText
  0
TEXT
  5
BDE
330
7F0
100
AcDbEntity
  8
0
  6
Continuous
 62
     3
100
AcDbText
 10
1062.526
 20
440.442
 30
0.05
 40
1.0
  1
ＲＸＤ
 41
0.7
  7
KANJI0
100
AcDbText
  0
TEXT
  5
BDF
330
7F0
100
AcDbEntity
  8
0
  6
Continuous
 62
     3
100
AcDbText
 10
1030.776
 20
449.9419999999998
 30
0.05
 40
1.0
  1
１
 41
0.7
  7
KANJI0
100
AcDbText
  0
TEXT
  5
BE0
330
7F0
100
AcDbEntity
  8
0
  6
Continuous
 62
     3
100
AcDbText
 10
1033.276
 20
449.9419999999998
 30
0.05
 40
1.0
  1
２
 41
0.7
  7
KANJI0
100
AcDbText
  0
TEXT
  5
BE1
330
7F0
100
AcDbEntity
  8
0
  6
Continuous
 62
     3
100
AcDbText
 10
1035.776
 20
449.9419999999998
 30
0.05
 40
1.0
  1
４
 41
0.7
  7
KANJI0
100
AcDbText
  0
TEXT
  5
BE2
330
7F0
100
AcDbEntity
  8
0
  6
Continuous
 62
     3
100
AcDbText
 10
1038.276
 20
449.9419999999998
 30
0.05
 40
1.0
  1
８
 41
0.7
  7
KANJI0
100
AcDbText
  0
TEXT
  5
BE3
330
7F0
100
AcDbEntity
  8
0
  6
Continuous
 62
     3
100
AcDbText
 10
1040.776
 20
449.9419999999998
 30
0.05
 40
1.0
  1
１
 41
0.7
  7
KANJI0
100
AcDbText
  0
TEXT
  5
BE4
330
7F0
100
AcDbEntity
  8
0
  6
Continuous
 62
     3
100
AcDbText
 10
1043.276
 20
449.9419999999998
 30
0.05
 40
1.0
  1
２
 41
0.7
  7
KANJI0
100
AcDbText
  0
TEXT
  5
BE5
330
7F0
100
AcDbEntity
  8
0
  6
Continuous
 62
     3
100
AcDbText
 10
1045.776
 20
449.9419999999998
 30
0.05
 40
1.0
  1
４
 41
0.7
  7
KANJI0
100
AcDbText
  0
TEXT
  5
BE6
330
7F0
100
AcDbEntity
  8
0
  6
Continuous
 62
     3
100
AcDbText
 10
1048.276
 20
449.9419999999998
 30
0.05
 40
1.0
  1
８
 41
0.7
  7
KANJI0
100
AcDbText
  0
TEXT
  5
BE7
330
7F0
100
AcDbEntity
  8
0
  6
Continuous
 62
     3
100
AcDbText
 10
1070.776
 20
449.9419999999998
 30
0.05
 40
1.0
  1
１
 41
0.7
  7
KANJI0
100
AcDbText
  0
TEXT
  5
BE8
330
7F0
100
AcDbEntity
  8
0
  6
Continuous
 62
     3
100
AcDbText
 10
1072.526
 20
449.9419999999998
 30
0.05
 40
1.0
  1
ＣＯＭ
 41
0.7
  7
KANJI0
100
AcDbText
  0
TEXT
  5
BE9
330
7F0
100
AcDbEntity
  8
0
  6
Continuous
 62
     3
100
AcDbText
 10
1062.426
 20
449.9419999999998
 30
0.05
 40
1.0
  1
ＲＴＳ
 41
0.7
  7
KANJI0
100
AcDbText
  0
TEXT
  5
BEA
330
7F0
100
AcDbEntity
  8
0
  6
Continuous
 62
     3
100
AcDbText
 10
1065.026
 20
449.9419999999998
 30
0.05
 40
1.0
  1
ＣＴＳ
 41
0.7
  7
KANJI0
100
AcDbText
  0
TEXT
  5
BEB
330
7F0
100
AcDbEntity
  8
0
  6
Continuous
 62
     3
100
AcDbText
 10
1067.876
 20
449.9419999999998
 30
0.05
 40
1.0
  1
ＳＧ
 41
0.7
  7
KANJI0
100
AcDbText
  0
TEXT
  5
BEC
330
7F0
100
AcDbEntity
  8
0
  6
Continuous
 62
     3
100
AcDbText
 10
1035.776
 20
440.442
 30
0.05
 40
1.0
  1
４
 41
0.7
  7
KANJI0
100
AcDbText
  0
TEXT
  5
BED
330
7F0
100
AcDbEntity
  8
0
  6
Continuous
 62
     3
100
AcDbText
 10
1033.776
 20
438.9419999999998
 30
0.05
 40
1.0
  1
１０
 41
0.7
  7
KANJI0
100
AcDbText
  0
TEXT
  5
BEE
330
7F0
100
AcDbEntity
  8
0
  6
Continuous
 62
     3
100
AcDbText
 10
1035.276
 20
439.4419999999998
 30
0.025
 40
0.5
  1
０
 41
0.7
  7
KANJI1
100
AcDbText
  0
TEXT
  5
BEF
330
7F0
100
AcDbEntity
  8
0
  6
Continuous
 62
     3
100
AcDbText
 10
1033.776
 20
451.4419999999998
 30
0.05
 40
1.0
  1
１０
 41
0.7
  7
KANJI0
100
AcDbText
  0
TEXT
  5
BF0
330
7F0
100
AcDbEntity
  8
0
  6
Continuous
 62
     3
100
AcDbText
 10
1035.276
 20
451.9419999999998
 30
0.025
 40
0.5
  1
１
 41
0.7
  7
KANJI1
100
AcDbText
  0
TEXT
  5
BF1
330
7F0
100
AcDbEntity
  8
0
  6
Continuous
 62
     3
100
AcDbText
 10
1043.776
 20
451.4419999999998
 30
0.05
 40
1.0
  1
１０
 41
0.7
  7
KANJI0
100
AcDbText
  0
TEXT
  5
BF2
330
7F0
100
AcDbEntity
  8
0
  6
Continuous
 62
     3
100
AcDbText
 10
1045.276
 20
451.9419999999998
 30
0.025
 40
0.5
  1
３
 41
0.7
  7
KANJI1
100
AcDbText
  0
TEXT
  5
BF3
330
7F0
100
AcDbEntity
  8
0
  6
Continuous
 62
     3
100
AcDbText
 10
1043.776
 20
438.9419999999998
 30
0.05
 40
1.0
  1
１０
 41
0.7
  7
KANJI0
100
AcDbText
  0
TEXT
  5
BF4
330
7F0
100
AcDbEntity
  8
0
  6
Continuous
 62
     3
100
AcDbText
 10
1045.276
 20
439.4419999999998
 30
0.025
 40
0.5
  1
２
 41
0.7
  7
KANJI1
100
AcDbText
  0
LINE
  5
BF5
330
7F0
100
AcDbEntity
  8
0
  6
Continuous
 62
     3
100
AcDbLine
 10
1031.026
 20
451.4419999999998
 30
0.025
 11
1031.026
 21
451.9419999999998
 31
0.025
  0
LINE
  5
BF6
330
7F0
100
AcDbEntity
  8
0
  6
Continuous
 62
     3
100
AcDbLine
 10
1031.026
 20
451.9419999999998
 30
0.0
 11
1033.526
 21
451.9419999999998
 31
0.0
  0
LINE
  5
BF7
330
7F0
100
AcDbEntity
  8
0
  6
Continuous
 62
     3
100
AcDbLine
 10
1035.776
 20
451.9419999999998
 30
0.0
 11
1038.526
 21
451.9419999999998
 31
0.0
  0
LINE
  5
BF8
330
7F0
100
AcDbEntity
  8
0
  6
Continuous
 62
     3
100
AcDbLine
 10
1038.526
 20
451.9419999999998
 30
0.0
 11
1038.526
 21
451.4419999999998
 31
0.0
  0
LINE
  5
BF9
330
7F0
100
AcDbEntity
  8
0
  6
Continuous
 62
     3
100
AcDbLine
 10
1041.026
 20
451.4419999999998
 30
0.0
 11
1041.026
 21
451.9419999999998
 31
0.0
  0
LINE
  5
BFA
330
7F0
100
AcDbEntity
  8
0
  6
Continuous
 62
     3
100
AcDbLine
 10
1041.026
 20
451.9419999999998
 30
0.0
 11
1043.526
 21
451.9419999999998
 31
0.0
  0
LINE
  5
BFB
330
7F0
100
AcDbEntity
  8
0
  6
Continuous
 62
     3
100
AcDbLine
 10
1045.776
 20
451.9419999999998
 30
0.0
 11
1048.526
 21
451.9419999999998
 31
0.0
  0
LINE
  5
BFC
330
7F0
100
AcDbEntity
  8
0
  6
Continuous
 62
     3
100
AcDbLine
 10
1048.526
 20
451.9419999999998
 30
0.0
 11
1048.526
 21
451.4419999999998
 31
0.0
  0
LINE
  5
BFD
330
7F0
100
AcDbEntity
  8
0
  6
Continuous
 62
     3
100
AcDbLine
 10
1048.526
 20
439.9419999999998
 30
0.0
 11
1048.526
 21
439.4419999999998
 31
0.0
  0
LINE
  5
BFE
330
7F0
100
AcDbEntity
  8
0
  6
Continuous
 62
     3
100
AcDbLine
 10
1048.526
 20
439.4419999999998
 30
0.0
 11
1045.776
 21
439.4419999999998
 31
0.0
  0
LINE
  5
BFF
330
7F0
100
AcDbEntity
  8
0
  6
Continuous
 62
     3
100
AcDbLine
 10
1043.526
 20
439.4419999999998
 30
0.0
 11
1041.026
 21
439.4419999999998
 31
0.0
  0
LINE
  5
C00
330
7F0
100
AcDbEntity
  8
0
  6
Continuous
 62
     3
100
AcDbLine
 10
1041.026
 20
439.4419999999998
 30
0.0
 11
1041.026
 21
439.9419999999998
 31
0.0
  0
LINE
  5
C01
330
7F0
100
AcDbEntity
  8
0
  6
Continuous
 62
     3
100
AcDbLine
 10
1038.526
 20
439.9419999999998
 30
0.0
 11
1038.526
 21
439.4419999999998
 31
0.0
  0
LINE
  5
C02
330
7F0
100
AcDbEntity
  8
0
  6
Continuous
 62
     3
100
AcDbLine
 10
1038.526
 20
439.4419999999998
 30
0.0
 11
1035.776
 21
439.4419999999998
 31
0.0
  0
LINE
  5
C03
330
7F0
100
AcDbEntity
  8
0
  6
Continuous
 62
     3
100
AcDbLine
 10
1033.526
 20
439.4419999999998
 30
0.0
 11
1031.026
 21
439.4419999999998
 31
0.0
  0
LINE
  5
C04
330
7F0
100
AcDbEntity
  8
0
  6
Continuous
 62
     3
100
AcDbLine
 10
1031.026
 20
439.4419999999998
 30
0.0
 11
1031.026
 21
439.9419999999998
 31
0.0
  0
LINE
  5
C05
330
7F0
100
AcDbEntity
  8
0
  6
Continuous
 62
     3
100
AcDbLine
 10
1051.026
 20
439.9419999999998
 30
0.0
 11
1051.026
 21
439.4419999999998
 31
0.0
  0
LINE
  5
C06
330
7F0
100
AcDbEntity
  8
0
  6
Continuous
 62
     3
100
AcDbLine
 10
1051.026
 20
439.4419999999998
 30
0.0
 11
1051.276
 21
439.4419999999998
 31
0.0
  0
LINE
  5
C07
330
7F0
100
AcDbEntity
  8
0
  6
Continuous
 62
     3
100
AcDbLine
 10
1053.276
 20
439.4419999999998
 30
0.0
 11
1053.526
 21
439.4419999999998
 31
0.0
  0
LINE
  5
C08
330
7F0
100
AcDbEntity
  8
0
  6
Continuous
 62
     3
100
AcDbLine
 10
1053.526
 20
439.4419999999998
 30
0.0
 11
1053.526
 21
439.9419999999998
 31
0.0
  0
TEXT
  5
C09
330
7F0
100
AcDbEntity
  8
0
  6
Continuous
 62
     3
100
AcDbText
 10
1051.425999999999
 20
438.9419999999998
 30
0.05
 40
1.0
  1
１０
 41
0.7
  7
KANJI0
100
AcDbText
  0
TEXT
  5
C0A
330
7F0
100
AcDbEntity
  8
0
  6
Continuous
 62
     3
100
AcDbText
 10
1052.926
 20
439.4419999999998
 30
0.025
 40
0.5
  1
４
 41
0.7
  7
KANJI1
100
AcDbText
  0
TEXT
  5
C0B
330
7F0
100
AcDbEntity
  8
0
  6
Continuous
 62
     3
100
AcDbText
 10
1047.276
 20
434.4419999999998
 30
0.05
 40
1.0
  1
ＡＮＡＬＯＧ　ＯＵＴ
 41
0.7
  7
KANJI0
100
AcDbText
  0
TEXT
  5
C0C
330
7F0
100
AcDbEntity
  8
0
  6
Continuous
 62
     3
100
AcDbText
 10
1036.276
 20
435.9419999999998
 30
0.05
 40
1.0
  1
ＢＣＤ　ＯＵＴ
 41
0.7
  7
KANJI0
100
AcDbText
  0
LINE
  5
C0D
330
7F0
100
AcDbEntity
  8
0
  6
Continuous
 62
     3
100
AcDbLine
 10
1031.026
 20
438.9419999999998
 30
0.05
 11
1031.026
 21
436.4419999999998
 31
0.05
  0
LINE
  5
C0E
330
7F0
100
AcDbEntity
  8
0
  6
Continuous
 62
     3
100
AcDbLine
 10
1031.026
 20
436.4419999999998
 30
0.0
 11
1036.026
 21
436.4419999999998
 31
0.0
  0
LINE
  5
C0F
330
7F0
100
AcDbEntity
  8
0
  6
Continuous
 62
     3
100
AcDbLine
 10
1056.026
 20
441.4419999999998
 30
0.0
 11
1056.026
 21
437.9419999999998
 31
0.0
  0
LINE
  5
C10
330
7F0
100
AcDbEntity
  8
0
  6
Continuous
 62
     3
100
AcDbLine
 10
1056.026
 20
437.9419999999998
 30
0.0
 11
1055.026
 21
437.9419999999998
 31
0.0
  0
TEXT
  5
C11
330
7F0
100
AcDbEntity
  8
0
  6
Continuous
 62
     3
100
AcDbText
 10
1050.275999999998
 20
437.4419999999998
 30
0.05
 40
1.0
  1
ＥＮＡＢＬＥ
 41
0.7
  7
KANJI0
100
AcDbText
  0
TEXT
  5
C12
330
7F0
100
AcDbEntity
  8
0
  6
Continuous
 62
     3
100
AcDbText
 10
1049.525999999998
 20
435.9419999999998
 30
0.05
 40
1.0
  1
ＤＩＧ．ＣＯＭ
 41
0.7
  7
KANJI0
100
AcDbText
  0
LINE
  5
C13
330
7F0
100
AcDbEntity
  8
0
  6
Continuous
 62
     3
100
AcDbLine
 10
1049.276
 20
436.4419999999998
 30
0.05
 11
1041.526
 21
436.4419999999998
 31
0.05
  0
LINE
  5
C14
330
7F0
100
AcDbEntity
  8
0
  6
Continuous
 62
     3
100
AcDbLine
 10
1055.026
 20
436.4419999999998
 30
0.0
 11
1058.526
 21
436.4419999999998
 31
0.0
  0
LINE
  5
C15
330
7F0
100
AcDbEntity
  8
0
  6
Continuous
 62
     3
100
AcDbLine
 10
1058.526
 20
436.4419999999998
 30
0.0
 11
1058.526
 21
441.4419999999998
 31
0.0
  0
LINE
  5
C16
330
7F0
100
AcDbEntity
  8
0
  6
Continuous
 62
     3
100
AcDbLine
 10
1061.026
 20
441.4419999999998
 30
0.0
 11
1061.026
 21
434.9419999999998
 31
0.0
  0
LINE
  5
C17
330
7F0
100
AcDbEntity
  8
0
  6
Continuous
 62
     3
100
AcDbLine
 10
1061.026
 20
434.9419999999998
 30
0.0
 11
1055.026
 21
434.9419999999998
 31
0.0
  0
LINE
  5
C18
330
7F0
100
AcDbEntity
  8
0
  6
Continuous
 62
     3
100
AcDbLine
 10
1063.526
 20
439.9419999999998
 30
0.0
 11
1063.526
 21
439.4419999999998
 31
0.0
  0
LINE
  5
C19
330
7F0
100
AcDbEntity
  8
0
  6
Continuous
 62
     3
100
AcDbLine
 10
1063.526
 20
439.4419999999998
 30
0.0
 11
1068.526
 21
439.4419999999998
 31
0.0
  0
LINE
  5
C1A
330
7F0
100
AcDbEntity
  8
0
  6
Continuous
 62
     3
100
AcDbLine
 10
1068.526
 20
439.4419999999998
 30
0.0
 11
1068.526
 21
439.9419999999998
 31
0.0
  0
LINE
  5
C1B
330
7F0
100
AcDbEntity
  8
0
  6
Continuous
 62
     3
100
AcDbLine
 10
1071.026
 20
439.9419999999998
 30
0.0
 11
1071.026
 21
439.4419999999998
 31
0.0
  0
LINE
  5
C1C
330
7F0
100
AcDbEntity
  8
0
  6
Continuous
 62
     3
100
AcDbLine
 10
1071.026
 20
439.4419999999998
 30
0.0
 11
1073.525999999998
 21
439.4419999999998
 31
0.0
  0
LINE
  5
C1D
330
7F0
100
AcDbEntity
  8
0
  6
Continuous
 62
     3
100
AcDbLine
 10
1073.525999999998
 20
439.4419999999998
 30
0.0
 11
1073.525999999998
 21
439.9419999999998
 31
0.0
  0
LINE
  5
C1E
330
7F0
100
AcDbEntity
  8
0
  6
Continuous
 62
     3
100
AcDbLine
 10
1073.525999999998
 20
451.4419999999998
 30
0.0
 11
1073.525999999998
 21
451.9419999999998
 31
0.0
  0
LINE
  5
C1F
330
7F0
100
AcDbEntity
  8
0
  6
Continuous
 62
     3
100
AcDbLine
 10
1073.525999999998
 20
451.9419999999998
 30
0.0
 11
1071.026
 21
451.9419999999998
 31
0.0
  0
LINE
  5
C20
330
7F0
100
AcDbEntity
  8
0
  6
Continuous
 62
     3
100
AcDbLine
 10
1071.026
 20
451.9419999999998
 30
0.0
 11
1071.026
 21
451.4419999999998
 31
0.0
  0
LINE
  5
C21
330
7F0
100
AcDbEntity
  8
0
  6
Continuous
 62
     3
100
AcDbLine
 10
1068.526
 20
451.4419999999998
 30
0.0
 11
1068.526
 21
451.9419999999998
 31
0.0
  0
LINE
  5
C22
330
7F0
100
AcDbEntity
  8
0
  6
Continuous
 62
     3
100
AcDbLine
 10
1068.526
 20
451.9419999999998
 30
0.0
 11
1063.526
 21
451.9419999999998
 31
0.0
  0
LINE
  5
C23
330
7F0
100
AcDbEntity
  8
0
  6
Continuous
 62
     3
100
AcDbLine
 10
1063.526
 20
451.9419999999998
 30
0.0
 11
1063.526
 21
451.4419999999998
 31
0.0
  0
TEXT
  5
C24
330
7F0
100
AcDbEntity
  8
0
  6
Continuous
 62
     3
100
AcDbText
 10
1063.526
 20
452.4419999999998
 30
0.05
 40
1.0
  1
ＲＳ－２３２Ｃ
 41
0.7
  7
KANJI0
100
AcDbText
  0
TEXT
  5
C25
330
7F0
100
AcDbEntity
  8
0
  6
Continuous
 62
     3
100
AcDbText
 10
1070.526
 20
452.4419999999998
 30
0.05
 40
1.0
  1
Ｐ．ＳＥＬ
 41
0.7
  7
KANJI0
100
AcDbText
  0
TEXT
  5
C26
330
7F0
100
AcDbEntity
  8
0
  6
Continuous
 62
     3
100
AcDbText
 10
1070.526
 20
437.9419999999998
 30
0.05
 40
1.0
  1
Ｐ．ＳＥＬ
 41
0.7
  7
KANJI0
100
AcDbText
  0
TEXT
  5
C27
330
7F0
100
AcDbEntity
  8
0
  6
Continuous
 62
     3
100
AcDbText
 10
1063.526
 20
437.9419999999998
 30
0.05
 40
1.0
  1
ＲＳ－２３２Ｃ
 41
0.7
  7
KANJI0
100
AcDbText
  0
TEXT
  5
C28
330
7F0
100
AcDbEntity
  8
0
  6
Continuous
 62
     3
100
AcDbText
 10
1065.026
 20
432.9419999999998
 30
0.05
 40
1.0
  1
ＵＨ－４４４１５
 41
0.7
  7
KANJI0
100
AcDbText
  0
TEXT
  5
C29
330
7F0
100
AcDbEntity
  8
0
  6
Continuous
 62
     3
100
AcDbText
 10
1055.376
 20
451.4419999999998
 30
0.05
 40
1.0
  1
ＰＣ
 41
0.7
  7
KANJI0
100
AcDbText
  0
TEXT
  5
C2A
330
7F0
100
AcDbEntity
  8
0
  6
Continuous
 62
     3
100
AcDbText
 10
1050.026
 20
451.4419999999998
 30
0.05
 40
1.0
  1
ＰＯＬ
 41
0.7
  7
KANJI0
100
AcDbText
  0
LINE
  5
C2B
330
7F0
100
AcDbEntity
  8
0
  6
Continuous
 62
     3
100
AcDbLine
 10
1051.026
 20
449.9419999999998
 30
0.05
 11
1051.026
 21
450.9419999999998
 31
0.05
  0
LINE
  5
C2C
330
7F0
100
AcDbEntity
  8
0
  6
Continuous
 62
     3
100
AcDbLine
 10
1056.026
 20
450.9419999999998
 30
0.0
 11
1056.026
 21
449.9419999999998
 31
0.0
  0
TEXT
  5
C2D
330
7F0
100
AcDbEntity
  8
0
  6
Continuous
 62
     3
100
AcDbText
 10
1050.026
 20
452.942
 30
0.05
 40
1.0
  1
ＯＶＥＲ
 41
0.7
  7
KANJI0
100
AcDbText
  0
TEXT
  5
C2E
330
7F0
100
AcDbEntity
  8
0
  6
Continuous
 62
     3
100
AcDbText
 10
1050.026
 20
454.4419999999998
 30
0.05
 40
1.0
  1
ＤＩＧ．ＣＯＭ
 41
0.7
  7
KANJI0
100
AcDbText
  0
TEXT
  5
C2F
330
7F0
100
AcDbEntity
  8
0
  6
Continuous
 62
     3
100
AcDbText
 10
1050.026
 20
455.9419999999998
 30
0.05
 40
1.0
  1
ＡＮＡＬＯＧ　ＣＯＭ
 41
0.7
  7
KANJI0
100
AcDbText
  0
TEXT
  5
C30
330
7F0
100
AcDbEntity
  8
0
  6
Continuous
 62
     3
100
AcDbText
 10
1036.276
 20
454.4419999999998
 30
0.05
 40
1.0
  1
ＢＣＤ　ＯＵＴ
 41
0.7
  7
KANJI0
100
AcDbText
  0
LINE
  5
C31
330
7F0
100
AcDbEntity
  8
0
  6
Continuous
 62
     3
100
AcDbLine
 10
1031.026
 20
452.4419999999998
 30
0.05
 11
1031.026
 21
454.9419999999998
 31
0.05
  0
LINE
  5
C32
330
7F0
100
AcDbEntity
  8
0
  6
Continuous
 62
     3
100
AcDbLine
 10
1031.026
 20
454.9419999999998
 30
0.0
 11
1036.026
 21
454.9419999999998
 31
0.0
  0
LINE
  5
C33
330
7F0
100
AcDbEntity
  8
0
  6
Continuous
 62
     3
100
AcDbLine
 10
1041.526
 20
454.9419999999998
 30
0.0
 11
1049.776
 21
454.9419999999998
 31
0.0
  0
LINE
  5
C34
330
7F0
100
AcDbEntity
  8
0
  6
Continuous
 62
     3
100
AcDbLine
 10
1055.526
 20
454.9419999999998
 30
0.0
 11
1058.526
 21
454.9419999999998
 31
0.0
  0
LINE
  5
C35
330
7F0
100
AcDbEntity
  8
0
  6
Continuous
 62
     3
100
AcDbLine
 10
1058.526
 20
454.9419999999998
 30
0.0
 11
1058.526
 21
449.9419999999998
 31
0.0
  0
LINE
  5
C36
330
7F0
100
AcDbEntity
  8
0
  6
Continuous
 62
     3
100
AcDbLine
 10
1057.776
 20
456.4419999999998
 30
0.0
 11
1061.026
 21
456.4419999999998
 31
0.0
  0
LINE
  5
C37
330
7F0
100
AcDbEntity
  8
0
  6
Continuous
 62
     3
100
AcDbLine
 10
1061.026
 20
456.4419999999998
 30
0.0
 11
1061.026
 21
449.9419999999998
 31
0.0
  0
LINE
  5
C38
330
7F0
100
AcDbEntity
  8
0
  6
Continuous
 62
     3
100
AcDbLine
 10
1053.026
 20
453.4419999999998
 30
0.0
 11
1053.526
 21
453.4419999999998
 31
0.0
  0
LINE
  5
C39
330
7F0
100
AcDbEntity
  8
0
  6
Continuous
 62
     3
100
AcDbLine
 10
1053.526
 20
453.4419999999998
 30
0.0
 11
1053.526
 21
449.9419999999998
 31
0.0
  0
LINE
  5
C3A
330
7F0
100
AcDbEntity
  8
0
  6
LTYPE1
 62
     3
100
AcDbLine
 10
1058.526
 20
446.4419999999998
 30
0.0
 11
1058.526
 21
444.9419999999998
 31
0.0
  0
LINE
  5
C3B
330
7F0
100
AcDbEntity
  8
0
  6
LTYPE1
 62
     3
100
AcDbLine
 10
1059.026
 20
446.9419999999998
 30
0.0
 11
1060.526
 21
446.9419999999998
 31
0.0
  0
LINE
  5
C3C
330
7F0
100
AcDbEntity
  8
0
  6
LTYPE1
 62
     3
100
AcDbLine
 10
1058.526
 20
445.6919999999998
 30
0.0
 11
1068.526
 21
445.6919999999998
 31
0.0
  0
LINE
  5
C3D
330
7F0
100
AcDbEntity
  8
0
  6
LTYPE1
 62
     3
100
AcDbLine
 10
1068.526
 20
446.4419999999998
 30
0.0
 11
1068.526
 21
444.9419999999998
 31
0.0
  0
LINE
  5
C3E
330
7F0
100
AcDbEntity
  8
0
  6
LTYPE1
 62
     3
100
AcDbLine
 10
1073.525999999998
 20
444.9419999999998
 30
0.0
 11
1073.525999999998
 21
446.4419999999998
 31
0.0
  0
TEXT
  5
C3F
330
7F0
100
AcDbEntity
  8
0
  6
Continuous
 62
     3
100
AcDbText
 10
1030.776
 20
442.4419999999998
 30
0.05
 40
1.0
  1
１
 41
0.7
  7
KANJI0
100
AcDbText
  0
TEXT
  5
C40
330
7F0
100
AcDbEntity
  8
0
  6
Continuous
 62
     3
100
AcDbText
 10
1033.276
 20
442.4419999999998
 30
0.05
 40
1.0
  1
２
 41
0.7
  7
KANJI0
100
AcDbText
  0
TEXT
  5
C41
330
7F0
100
AcDbEntity
  8
0
  6
Continuous
 62
     3
100
AcDbText
 10
1035.776
 20
442.4419999999998
 30
0.05
 40
1.0
  1
３
 41
0.7
  7
KANJI0
100
AcDbText
  0
TEXT
  5
C42
330
7F0
100
AcDbEntity
  8
0
  6
Continuous
 62
     3
100
AcDbText
 10
1038.276
 20
442.4419999999998
 30
0.05
 40
1.0
  1
４
 41
0.7
  7
KANJI0
100
AcDbText
  0
TEXT
  5
C43
330
7F0
100
AcDbEntity
  8
0
  6
Continuous
 62
     3
100
AcDbText
 10
1040.776
 20
442.4419999999998
 30
0.05
 40
1.0
  1
５
 41
0.7
  7
KANJI0
100
AcDbText
  0
TEXT
  5
C44
330
7F0
100
AcDbEntity
  8
0
  6
Continuous
 62
     3
100
AcDbText
 10
1043.276
 20
442.4419999999998
 30
0.05
 40
1.0
  1
６
 41
0.7
  7
KANJI0
100
AcDbText
  0
TEXT
  5
C45
330
7F0
100
AcDbEntity
  8
0
  6
Continuous
 62
     3
100
AcDbText
 10
1045.776
 20
442.4419999999998
 30
0.05
 40
1.0
  1
７
 41
0.7
  7
KANJI0
100
AcDbText
  0
TEXT
  5
C46
330
7F0
100
AcDbEntity
  8
0
  6
Continuous
 62
     3
100
AcDbText
 10
1048.276
 20
442.4419999999998
 30
0.05
 40
1.0
  1
８
 41
0.7
  7
KANJI0
100
AcDbText
  0
TEXT
  5
C47
330
7F0
100
AcDbEntity
  8
0
  6
Continuous
 62
     3
100
AcDbText
 10
1050.776
 20
442.4419999999998
 30
0.05
 40
1.0
  1
９
 41
0.7
  7
KANJI0
100
AcDbText
  0
TEXT
  5
C48
330
7F0
100
AcDbEntity
  8
0
  6
Continuous
 62
     3
100
AcDbText
 10
1052.876
 20
442.4419999999998
 30
0.05
 40
1.0
  1
１０
 41
0.7
  7
KANJI0
100
AcDbText
  0
TEXT
  5
C49
330
7F0
100
AcDbEntity
  8
0
  6
Continuous
 62
     3
100
AcDbText
 10
1055.376
 20
442.4419999999998
 30
0.05
 40
1.0
  1
１１
 41
0.7
  7
KANJI0
100
AcDbText
  0
TEXT
  5
C4A
330
7F0
100
AcDbEntity
  8
0
  6
Continuous
 62
     3
100
AcDbText
 10
1057.876
 20
442.4419999999998
 30
0.05
 40
1.0
  1
１２
 41
0.7
  7
KANJI0
100
AcDbText
  0
TEXT
  5
C4B
330
7F0
100
AcDbEntity
  8
0
  6
Continuous
 62
     3
100
AcDbText
 10
1060.375999999997
 20
442.4419999999998
 30
0.05
 40
1.0
  1
１３
 41
0.7
  7
KANJI0
100
AcDbText
  0
TEXT
  5
C4C
330
7F0
100
AcDbEntity
  8
0
  6
Continuous
 62
     3
100
AcDbText
 10
1062.875999999999
 20
442.4419999999998
 30
0.05
 40
1.0
  1
１４
 41
0.7
  7
KANJI0
100
AcDbText
  0
TEXT
  5
C4D
330
7F0
100
AcDbEntity
  8
0
  6
Continuous
 62
     3
100
AcDbText
 10
1065.376
 20
442.4419999999998
 30
0.05
 40
1.0
  1
１５
 41
0.7
  7
KANJI0
100
AcDbText
  0
TEXT
  5
C4E
330
7F0
100
AcDbEntity
  8
0
  6
Continuous
 62
     3
100
AcDbText
 10
1067.876
 20
442.4419999999998
 30
0.05
 40
1.0
  1
１６
 41
0.7
  7
KANJI0
100
AcDbText
  0
TEXT
  5
C4F
330
7F0
100
AcDbEntity
  8
0
  6
Continuous
 62
     3
100
AcDbText
 10
1070.376
 20
442.4419999999998
 30
0.05
 40
1.0
  1
１７
 41
0.7
  7
KANJI0
100
AcDbText
  0
TEXT
  5
C50
330
7F0
100
AcDbEntity
  8
0
  6
Continuous
 62
     3
100
AcDbText
 10
1072.875999999997
 20
442.4419999999998
 30
0.05
 40
1.0
  1
１８
 41
0.7
  7
KANJI0
100
AcDbText
  0
TEXT
  5
C51
330
7F0
100
AcDbEntity
  8
0
  6
Continuous
 62
     3
100
AcDbText
 10
1030.376
 20
447.9419999999998
 30
0.05
 40
1.0
  1
１９
 41
0.7
  7
KANJI0
100
AcDbText
  0
TEXT
  5
C52
330
7F0
100
AcDbEntity
  8
0
  6
Continuous
 62
     3
100
AcDbText
 10
1032.876
 20
447.9419999999998
 30
0.05
 40
1.0
  1
２０
 41
0.7
  7
KANJI0
100
AcDbText
  0
TEXT
  5
C53
330
7F0
100
AcDbEntity
  8
0
  6
Continuous
 62
     3
100
AcDbText
 10
1035.376
 20
447.9419999999998
 30
0.05
 40
1.0
  1
２１
 41
0.7
  7
KANJI0
100
AcDbText
  0
TEXT
  5
C54
330
7F0
100
AcDbEntity
  8
0
  6
Continuous
 62
     3
100
AcDbText
 10
1037.876
 20
447.9419999999998
 30
0.05
 40
1.0
  1
２２
 41
0.7
  7
KANJI0
100
AcDbText
  0
TEXT
  5
C55
330
7F0
100
AcDbEntity
  8
0
  6
Continuous
 62
     3
100
AcDbText
 10
1040.375999999999
 20
447.9419999999998
 30
0.05
 40
1.0
  1
２３
 41
0.7
  7
KANJI0
100
AcDbText
  0
TEXT
  5
C56
330
7F0
100
AcDbEntity
  8
0
  6
Continuous
 62
     3
100
AcDbText
 10
1042.876
 20
447.9419999999998
 30
0.05
 40
1.0
  1
２４
 41
0.7
  7
KANJI0
100
AcDbText
  0
TEXT
  5
C57
330
7F0
100
AcDbEntity
  8
0
  6
Continuous
 62
     3
100
AcDbText
 10
1045.376
 20
447.9419999999998
 30
0.05
 40
1.0
  1
２５
 41
0.7
  7
KANJI0
100
AcDbText
  0
TEXT
  5
C58
330
7F0
100
AcDbEntity
  8
0
  6
Continuous
 62
     3
100
AcDbText
 10
1047.876
 20
447.9419999999998
 30
0.05
 40
1.0
  1
２６
 41
0.7
  7
KANJI0
100
AcDbText
  0
TEXT
  5
C59
330
7F0
100
AcDbEntity
  8
0
  6
Continuous
 62
     3
100
AcDbText
 10
1050.375999999997
 20
447.9419999999998
 30
0.05
 40
1.0
  1
２７
 41
0.7
  7
KANJI0
100
AcDbText
  0
TEXT
  5
C5A
330
7F0
100
AcDbEntity
  8
0
  6
Continuous
 62
     3
100
AcDbText
 10
1052.876
 20
447.9419999999998
 30
0.05
 40
1.0
  1
２８
 41
0.7
  7
KANJI0
100
AcDbText
  0
TEXT
  5
C5B
330
7F0
100
AcDbEntity
  8
0
  6
Continuous
 62
     3
100
AcDbText
 10
1055.376
 20
447.9419999999998
 30
0.05
 40
1.0
  1
２９
 41
0.7
  7
KANJI0
100
AcDbText
  0
TEXT
  5
C5C
330
7F0
100
AcDbEntity
  8
0
  6
Continuous
 62
     3
100
AcDbText
 10
1057.876
 20
447.9419999999998
 30
0.05
 40
1.0
  1
３０
 41
0.7
  7
KANJI0
100
AcDbText
  0
TEXT
  5
C5D
330
7F0
100
AcDbEntity
  8
0
  6
Continuous
 62
     3
100
AcDbText
 10
1060.375999999997
 20
447.9419999999998
 30
0.05
 40
1.0
  1
３１
 41
0.7
  7
KANJI0
100
AcDbText
  0
TEXT
  5
C5E
330
7F0
100
AcDbEntity
  8
0
  6
Continuous
 62
     3
100
AcDbText
 10
1062.875999999999
 20
447.9419999999998
 30
0.05
 40
1.0
  1
３２
 41
0.7
  7
KANJI0
100
AcDbText
  0
TEXT
  5
C5F
330
7F0
100
AcDbEntity
  8
0
  6
Continuous
 62
     3
100
AcDbText
 10
1065.376
 20
447.9419999999998
 30
0.05
 40
1.0
  1
３３
 41
0.7
  7
KANJI0
100
AcDbText
  0
TEXT
  5
C60
330
7F0
100
AcDbEntity
  8
0
  6
Continuous
 62
     3
100
AcDbText
 10
1067.876
 20
447.9419999999998
 30
0.05
 40
1.0
  1
３４
 41
0.7
  7
KANJI0
100
AcDbText
  0
TEXT
  5
C61
330
7F0
100
AcDbEntity
  8
0
  6
Continuous
 62
     3
100
AcDbText
 10
1070.376
 20
447.9419999999998
 30
0.05
 40
1.0
  1
３５
 41
0.7
  7
KANJI0
100
AcDbText
  0
TEXT
  5
C62
330
7F0
100
AcDbEntity
  8
0
  6
Continuous
 62
     3
100
AcDbText
 10
1072.875999999997
 20
447.9419999999998
 30
0.05
 40
1.0
  1
３６
 41
0.7
  7
KANJI0
100
AcDbText
  0
TEXT
  5
C63
330
7F0
100
AcDbEntity
  8
0
  6
Continuous
 62
     3
100
AcDbText
 10
1030.776
 20
440.442
 30
0.05
 40
1.0
  1
１
 41
0.7
  7
KANJI0
100
AcDbText
  0
TEXT
  5
C64
330
7F0
100
AcDbEntity
  8
0
  6
Continuous
 62
     3
100
AcDbText
 10
1033.276
 20
440.442
 30
0.05
 40
1.0
  1
２
 41
0.7
  7
KANJI0
100
AcDbText
  0
TEXT
  5
C65
330
7F0
100
AcDbEntity
  8
0
  6
Continuous
 62
     3
100
AcDbText
 10
1038.276
 20
440.442
 30
0.05
 40
1.0
  1
８
 41
0.7
  7
KANJI0
100
AcDbText
  0
TEXT
  5
C66
330
7F0
100
AcDbEntity
  8
0
  6
Continuous
 62
     3
100
AcDbText
 10
1040.776
 20
440.442
 30
0.05
 40
1.0
  1
１
 41
0.7
  7
KANJI0
100
AcDbText
  0
TEXT
  5
C67
330
7F0
100
AcDbEntity
  8
0
  6
Continuous
 62
     3
100
AcDbText
 10
1043.276
 20
440.442
 30
0.05
 40
1.0
  1
２
 41
0.7
  7
KANJI0
100
AcDbText
  0
TEXT
  5
C68
330
7F0
100
AcDbEntity
  8
0
  6
Continuous
 62
     3
100
AcDbText
 10
1045.776
 20
440.442
 30
0.05
 40
1.0
  1
４
 41
0.7
  7
KANJI0
100
AcDbText
  0
TEXT
  5
C69
330
7F0
100
AcDbEntity
  8
0
  6
Continuous
 62
     3
100
AcDbText
 10
1048.276
 20
440.442
 30
0.05
 40
1.0
  1
８
 41
0.7
  7
KANJI0
100
AcDbText
  0
TEXT
  5
C6A
330
7F0
100
AcDbEntity
  8
0
  6
Continuous
 62
     3
100
AcDbText
 10
1050.776
 20
440.442
 30
0.05
 40
1.0
  1
１
 41
0.7
  7
KANJI0
100
AcDbText
  0
TEXT
  5
C6B
330
7F0
100
AcDbEntity
  8
0
  6
Continuous
 62
     3
100
AcDbText
 10
1053.276
 20
440.442
 30
0.05
 40
1.0
  1
２
 41
0.7
  7
KANJI0
100
AcDbText
  0
TEXT
  5
C6C
330
7F0
100
AcDbEntity
  8
0
  6
Continuous
 62
     3
100
AcDbText
 10
1070.776
 20
440.442
 30
0.05
 40
1.0
  1
０
 41
0.7
  7
KANJI0
100
AcDbText
  0
TEXT
  5
C6D
330
7F0
100
AcDbEntity
  8
0
  6
Continuous
 62
     3
100
AcDbText
 10
1072.476
 20
440.442
 30
0.05
 40
1.0
  1
ＣＯＭ
 41
0.7
  7
KANJI0
100
AcDbText
  0
TEXT
  5
C6E
330
7F0
100
AcDbEntity
  8
0
  6
Continuous
 62
     3
100
AcDbText
 10
1067.925999999999
 20
440.442
 30
0.05
 40
1.0
  1
ＳＧ
 41
0.7
  7
KANJI0
100
AcDbText
  0
TEXT
  5
C6F
330
7F0
100
AcDbEntity
  8
0
  6
Continuous
 62
     3
100
AcDbText
 10
1065.076
 20
440.442
 30
0.05
 40
1.0
  1
ＴＸＤ
 41
0.7
  7
KANJI0
100
AcDbText
  0
TEXT
  5
C70
330
7F0
100
AcDbEntity
  8
0
  6
Continuous
 62
     3
100
AcDbText
 10
1062.526
 20
440.442
 30
0.05
 40
1.0
  1
ＲＸＤ
 41
0.7
  7
KANJI0
100
AcDbText
  0
TEXT
  5
C71
330
7F0
100
AcDbEntity
  8
0
  6
Continuous
 62
     3
100
AcDbText
 10
1030.776
 20
449.9419999999998
 30
0.05
 40
1.0
  1
１
 41
0.7
  7
KANJI0
100
AcDbText
  0
TEXT
  5
C72
330
7F0
100
AcDbEntity
  8
0
  6
Continuous
 62
     3
100
AcDbText
 10
1033.276
 20
449.9419999999998
 30
0.05
 40
1.0
  1
２
 41
0.7
  7
KANJI0
100
AcDbText
  0
TEXT
  5
C73
330
7F0
100
AcDbEntity
  8
0
  6
Continuous
 62
     3
100
AcDbText
 10
1035.776
 20
449.9419999999998
 30
0.05
 40
1.0
  1
４
 41
0.7
  7
KANJI0
100
AcDbText
  0
TEXT
  5
C74
330
7F0
100
AcDbEntity
  8
0
  6
Continuous
 62
     3
100
AcDbText
 10
1038.276
 20
449.9419999999998
 30
0.05
 40
1.0
  1
８
 41
0.7
  7
KANJI0
100
AcDbText
  0
TEXT
  5
C75
330
7F0
100
AcDbEntity
  8
0
  6
Continuous
 62
     3
100
AcDbText
 10
1040.776
 20
449.9419999999998
 30
0.05
 40
1.0
  1
１
 41
0.7
  7
KANJI0
100
AcDbText
  0
TEXT
  5
C76
330
7F0
100
AcDbEntity
  8
0
  6
Continuous
 62
     3
100
AcDbText
 10
1043.276
 20
449.9419999999998
 30
0.05
 40
1.0
  1
２
 41
0.7
  7
KANJI0
100
AcDbText
  0
TEXT
  5
C77
330
7F0
100
AcDbEntity
  8
0
  6
Continuous
 62
     3
100
AcDbText
 10
1045.776
 20
449.9419999999998
 30
0.05
 40
1.0
  1
４
 41
0.7
  7
KANJI0
100
AcDbText
  0
TEXT
  5
C78
330
7F0
100
AcDbEntity
  8
0
  6
Continuous
 62
     3
100
AcDbText
 10
1048.276
 20
449.9419999999998
 30
0.05
 40
1.0
  1
８
 41
0.7
  7
KANJI0
100
AcDbText
  0
TEXT
  5
C79
330
7F0
100
AcDbEntity
  8
0
  6
Continuous
 62
     3
100
AcDbText
 10
1070.776
 20
449.9419999999998
 30
0.05
 40
1.0
  1
１
 41
0.7
  7
KANJI0
100
AcDbText
  0
TEXT
  5
C7A
330
7F0
100
AcDbEntity
  8
0
  6
Continuous
 62
     3
100
AcDbText
 10
1072.526
 20
449.9419999999998
 30
0.05
 40
1.0
  1
ＣＯＭ
 41
0.7
  7
KANJI0
100
AcDbText
  0
TEXT
  5
C7B
330
7F0
100
AcDbEntity
  8
0
  6
Continuous
 62
     3
100
AcDbText
 10
1062.426
 20
449.9419999999998
 30
0.05
 40
1.0
  1
ＲＴＳ
 41
0.7
  7
KANJI0
100
AcDbText
  0
TEXT
  5
C7C
330
7F0
100
AcDbEntity
  8
0
  6
Continuous
 62
     3
100
AcDbText
 10
1065.026
 20
449.9419999999998
 30
0.05
 40
1.0
  1
ＣＴＳ
 41
0.7
  7
KANJI0
100
AcDbText
  0
TEXT
  5
C7D
330
7F0
100
AcDbEntity
  8
0
  6
Continuous
 62
     3
100
AcDbText
 10
1067.876
 20
449.9419999999998
 30
0.05
 40
1.0
  1
ＳＧ
 41
0.7
  7
KANJI0
100
AcDbText
  0
TEXT
  5
C7E
330
7F0
100
AcDbEntity
  8
0
  6
Continuous
 62
     3
100
AcDbText
 10
1035.776
 20
440.442
 30
0.05
 40
1.0
  1
４
 41
0.7
  7
KANJI0
100
AcDbText
  0
TEXT
  5
C7F
330
7F0
100
AcDbEntity
  8
0
  6
Continuous
 62
     3
100
AcDbText
 10
1033.776
 20
438.9419999999998
 30
0.05
 40
1.0
  1
１０
 41
0.7
  7
KANJI0
100
AcDbText
  0
TEXT
  5
C80
330
7F0
100
AcDbEntity
  8
0
  6
Continuous
 62
     3
100
AcDbText
 10
1035.276
 20
439.4419999999998
 30
0.025
 40
0.5
  1
０
 41
0.7
  7
KANJI1
100
AcDbText
  0
TEXT
  5
C81
330
7F0
100
AcDbEntity
  8
0
  6
Continuous
 62
     3
100
AcDbText
 10
1033.776
 20
451.4419999999998
 30
0.05
 40
1.0
  1
１０
 41
0.7
  7
KANJI0
100
AcDbText
  0
TEXT
  5
C82
330
7F0
100
AcDbEntity
  8
0
  6
Continuous
 62
     3
100
AcDbText
 10
1035.276
 20
451.9419999999998
 30
0.025
 40
0.5
  1
１
 41
0.7
  7
KANJI1
100
AcDbText
  0
TEXT
  5
C83
330
7F0
100
AcDbEntity
  8
0
  6
Continuous
 62
     3
100
AcDbText
 10
1043.776
 20
451.4419999999998
 30
0.05
 40
1.0
  1
１０
 41
0.7
  7
KANJI0
100
AcDbText
  0
TEXT
  5
C84
330
7F0
100
AcDbEntity
  8
0
  6
Continuous
 62
     3
100
AcDbText
 10
1045.276
 20
451.9419999999998
 30
0.025
 40
0.5
  1
３
 41
0.7
  7
KANJI1
100
AcDbText
  0
TEXT
  5
C85
330
7F0
100
AcDbEntity
  8
0
  6
Continuous
 62
     3
100
AcDbText
 10
1043.776
 20
438.9419999999998
 30
0.05
 40
1.0
  1
１０
 41
0.7
  7
KANJI0
100
AcDbText
  0
TEXT
  5
C86
330
7F0
100
AcDbEntity
  8
0
  6
Continuous
 62
     3
100
AcDbText
 10
1045.276
 20
439.4419999999998
 30
0.025
 40
0.5
  1
２
 41
0.7
  7
KANJI1
100
AcDbText
  0
LINE
  5
C87
330
7F0
100
AcDbEntity
  8
0
  6
Continuous
 62
     3
100
AcDbLine
 10
1031.026
 20
451.4419999999998
 30
0.025
 11
1031.026
 21
451.9419999999998
 31
0.025
  0
LINE
  5
C88
330
7F0
100
AcDbEntity
  8
0
  6
Continuous
 62
     3
100
AcDbLine
 10
1031.026
 20
451.9419999999998
 30
0.0
 11
1033.526
 21
451.9419999999998
 31
0.0
  0
LINE
  5
C89
330
7F0
100
AcDbEntity
  8
0
  6
Continuous
 62
     3
100
AcDbLine
 10
1035.776
 20
451.9419999999998
 30
0.0
 11
1038.526
 21
451.9419999999998
 31
0.0
  0
LINE
  5
C8A
330
7F0
100
AcDbEntity
  8
0
  6
Continuous
 62
     3
100
AcDbLine
 10
1038.526
 20
451.9419999999998
 30
0.0
 11
1038.526
 21
451.4419999999998
 31
0.0
  0
LINE
  5
C8B
330
7F0
100
AcDbEntity
  8
0
  6
Continuous
 62
     3
100
AcDbLine
 10
1041.026
 20
451.4419999999998
 30
0.0
 11
1041.026
 21
451.9419999999998
 31
0.0
  0
LINE
  5
C8C
330
7F0
100
AcDbEntity
  8
0
  6
Continuous
 62
     3
100
AcDbLine
 10
1041.026
 20
451.9419999999998
 30
0.0
 11
1043.526
 21
451.9419999999998
 31
0.0
  0
LINE
  5
C8D
330
7F0
100
AcDbEntity
  8
0
  6
Continuous
 62
     3
100
AcDbLine
 10
1045.776
 20
451.9419999999998
 30
0.0
 11
1048.526
 21
451.9419999999998
 31
0.0
  0
LINE
  5
C8E
330
7F0
100
AcDbEntity
  8
0
  6
Continuous
 62
     3
100
AcDbLine
 10
1048.526
 20
451.9419999999998
 30
0.0
 11
1048.526
 21
451.4419999999998
 31
0.0
  0
LINE
  5
C8F
330
7F0
100
AcDbEntity
  8
0
  6
Continuous
 62
     3
100
AcDbLine
 10
1048.526
 20
439.9419999999998
 30
0.0
 11
1048.526
 21
439.4419999999998
 31
0.0
  0
LINE
  5
C90
330
7F0
100
AcDbEntity
  8
0
  6
Continuous
 62
     3
100
AcDbLine
 10
1048.526
 20
439.4419999999998
 30
0.0
 11
1045.776
 21
439.4419999999998
 31
0.0
  0
LINE
  5
C91
330
7F0
100
AcDbEntity
  8
0
  6
Continuous
 62
     3
100
AcDbLine
 10
1043.526
 20
439.4419999999998
 30
0.0
 11
1041.026
 21
439.4419999999998
 31
0.0
  0
LINE
  5
C92
330
7F0
100
AcDbEntity
  8
0
  6
Continuous
 62
     3
100
AcDbLine
 10
1041.026
 20
439.4419999999998
 30
0.0
 11
1041.026
 21
439.9419999999998
 31
0.0
  0
LINE
  5
C93
330
7F0
100
AcDbEntity
  8
0
  6
Continuous
 62
     3
100
AcDbLine
 10
1038.526
 20
439.9419999999998
 30
0.0
 11
1038.526
 21
439.4419999999998
 31
0.0
  0
LINE
  5
C94
330
7F0
100
AcDbEntity
  8
0
  6
Continuous
 62
     3
100
AcDbLine
 10
1038.526
 20
439.4419999999998
 30
0.0
 11
1035.776
 21
439.4419999999998
 31
0.0
  0
LINE
  5
C95
330
7F0
100
AcDbEntity
  8
0
  6
Continuous
 62
     3
100
AcDbLine
 10
1033.526
 20
439.4419999999998
 30
0.0
 11
1031.026
 21
439.4419999999998
 31
0.0
  0
LINE
  5
C96
330
7F0
100
AcDbEntity
  8
0
  6
Continuous
 62
     3
100
AcDbLine
 10
1031.026
 20
439.4419999999998
 30
0.0
 11
1031.026
 21
439.9419999999998
 31
0.0
  0
LINE
  5
C97
330
7F0
100
AcDbEntity
  8
0
  6
Continuous
 62
     3
100
AcDbLine
 10
1051.026
 20
439.9419999999998
 30
0.0
 11
1051.026
 21
439.4419999999998
 31
0.0
  0
LINE
  5
C98
330
7F0
100
AcDbEntity
  8
0
  6
Continuous
 62
     3
100
AcDbLine
 10
1051.026
 20
439.4419999999998
 30
0.0
 11
1051.276
 21
439.4419999999998
 31
0.0
  0
LINE
  5
C99
330
7F0
100
AcDbEntity
  8
0
  6
Continuous
 62
     3
100
AcDbLine
 10
1053.276
 20
439.4419999999998
 30
0.0
 11
1053.526
 21
439.4419999999998
 31
0.0
  0
LINE
  5
C9A
330
7F0
100
AcDbEntity
  8
0
  6
Continuous
 62
     3
100
AcDbLine
 10
1053.526
 20
439.4419999999998
 30
0.0
 11
1053.526
 21
439.9419999999998
 31
0.0
  0
TEXT
  5
C9B
330
7F0
100
AcDbEntity
  8
0
  6
Continuous
 62
     3
100
AcDbText
 10
1051.425999999999
 20
438.9419999999998
 30
0.05
 40
1.0
  1
１０
 41
0.7
  7
KANJI0
100
AcDbText
  0
TEXT
  5
C9C
330
7F0
100
AcDbEntity
  8
0
  6
Continuous
 62
     3
100
AcDbText
 10
1052.926
 20
439.4419999999998
 30
0.025
 40
0.5
  1
４
 41
0.7
  7
KANJI1
100
AcDbText
  0
TEXT
  5
C9D
330
7F0
100
AcDbEntity
  8
0
  6
Continuous
 62
     3
100
AcDbText
 10
1047.276
 20
434.4419999999998
 30
0.05
 40
1.0
  1
ＡＮＡＬＯＧ　ＯＵＴ
 41
0.7
  7
KANJI0
100
AcDbText
  0
TEXT
  5
C9E
330
7F0
100
AcDbEntity
  8
0
  6
Continuous
 62
     3
100
AcDbText
 10
1036.276
 20
435.9419999999998
 30
0.05
 40
1.0
  1
ＢＣＤ　ＯＵＴ
 41
0.7
  7
KANJI0
100
AcDbText
  0
LINE
  5
C9F
330
7F0
100
AcDbEntity
  8
0
  6
Continuous
 62
     3
100
AcDbLine
 10
1031.026
 20
438.9419999999998
 30
0.05
 11
1031.026
 21
436.4419999999998
 31
0.05
  0
LINE
  5
CA0
330
7F0
100
AcDbEntity
  8
0
  6
Continuous
 62
     3
100
AcDbLine
 10
1031.026
 20
436.4419999999998
 30
0.0
 11
1036.026
 21
436.4419999999998
 31
0.0
  0
LINE
  5
CA1
330
7F0
100
AcDbEntity
  8
0
  6
Continuous
 62
     3
100
AcDbLine
 10
1056.026
 20
441.4419999999998
 30
0.0
 11
1056.026
 21
437.9419999999998
 31
0.0
  0
LINE
  5
CA2
330
7F0
100
AcDbEntity
  8
0
  6
Continuous
 62
     3
100
AcDbLine
 10
1056.026
 20
437.9419999999998
 30
0.0
 11
1055.026
 21
437.9419999999998
 31
0.0
  0
TEXT
  5
CA3
330
7F0
100
AcDbEntity
  8
0
  6
Continuous
 62
     3
100
AcDbText
 10
1050.275999999998
 20
437.4419999999998
 30
0.05
 40
1.0
  1
ＥＮＡＢＬＥ
 41
0.7
  7
KANJI0
100
AcDbText
  0
TEXT
  5
CA4
330
7F0
100
AcDbEntity
  8
0
  6
Continuous
 62
     3
100
AcDbText
 10
1049.525999999998
 20
435.9419999999998
 30
0.05
 40
1.0
  1
ＤＩＧ．ＣＯＭ
 41
0.7
  7
KANJI0
100
AcDbText
  0
LINE
  5
CA5
330
7F0
100
AcDbEntity
  8
0
  6
Continuous
 62
     3
100
AcDbLine
 10
1049.276
 20
436.4419999999998
 30
0.05
 11
1041.526
 21
436.4419999999998
 31
0.05
  0
LINE
  5
CA6
330
7F0
100
AcDbEntity
  8
0
  6
Continuous
 62
     3
100
AcDbLine
 10
1055.026
 20
436.4419999999998
 30
0.0
 11
1058.526
 21
436.4419999999998
 31
0.0
  0
LINE
  5
CA7
330
7F0
100
AcDbEntity
  8
0
  6
Continuous
 62
     3
100
AcDbLine
 10
1058.526
 20
436.4419999999998
 30
0.0
 11
1058.526
 21
441.4419999999998
 31
0.0
  0
LINE
  5
CA8
330
7F0
100
AcDbEntity
  8
0
  6
Continuous
 62
     3
100
AcDbLine
 10
1061.026
 20
441.4419999999998
 30
0.0
 11
1061.026
 21
434.9419999999998
 31
0.0
  0
LINE
  5
CA9
330
7F0
100
AcDbEntity
  8
0
  6
Continuous
 62
     3
100
AcDbLine
 10
1061.026
 20
434.9419999999998
 30
0.0
 11
1055.026
 21
434.9419999999998
 31
0.0
  0
LINE
  5
CAA
330
7F0
100
AcDbEntity
  8
0
  6
Continuous
 62
     3
100
AcDbLine
 10
1063.526
 20
439.9419999999998
 30
0.0
 11
1063.526
 21
439.4419999999998
 31
0.0
  0
LINE
  5
CAB
330
7F0
100
AcDbEntity
  8
0
  6
Continuous
 62
     3
100
AcDbLine
 10
1063.526
 20
439.4419999999998
 30
0.0
 11
1068.526
 21
439.4419999999998
 31
0.0
  0
LINE
  5
CAC
330
7F0
100
AcDbEntity
  8
0
  6
Continuous
 62
     3
100
AcDbLine
 10
1068.526
 20
439.4419999999998
 30
0.0
 11
1068.526
 21
439.9419999999998
 31
0.0
  0
LINE
  5
CAD
330
7F0
100
AcDbEntity
  8
0
  6
Continuous
 62
     3
100
AcDbLine
 10
1071.026
 20
439.9419999999998
 30
0.0
 11
1071.026
 21
439.4419999999998
 31
0.0
  0
LINE
  5
CAE
330
7F0
100
AcDbEntity
  8
0
  6
Continuous
 62
     3
100
AcDbLine
 10
1071.026
 20
439.4419999999998
 30
0.0
 11
1073.525999999998
 21
439.4419999999998
 31
0.0
  0
LINE
  5
CAF
330
7F0
100
AcDbEntity
  8
0
  6
Continuous
 62
     3
100
AcDbLine
 10
1073.525999999998
 20
439.4419999999998
 30
0.0
 11
1073.525999999998
 21
439.9419999999998
 31
0.0
  0
LINE
  5
CB0
330
7F0
100
AcDbEntity
  8
0
  6
Continuous
 62
     3
100
AcDbLine
 10
1073.525999999998
 20
451.4419999999998
 30
0.0
 11
1073.525999999998
 21
451.9419999999998
 31
0.0
  0
LINE
  5
CB1
330
7F0
100
AcDbEntity
  8
0
  6
Continuous
 62
     3
100
AcDbLine
 10
1073.525999999998
 20
451.9419999999998
 30
0.0
 11
1071.026
 21
451.9419999999998
 31
0.0
  0
LINE
  5
CB2
330
7F0
100
AcDbEntity
  8
0
  6
Continuous
 62
     3
100
AcDbLine
 10
1071.026
 20
451.9419999999998
 30
0.0
 11
1071.026
 21
451.4419999999998
 31
0.0
  0
LINE
  5
CB3
330
7F0
100
AcDbEntity
  8
0
  6
Continuous
 62
     3
100
AcDbLine
 10
1068.526
 20
451.4419999999998
 30
0.0
 11
1068.526
 21
451.9419999999998
 31
0.0
  0
LINE
  5
CB4
330
7F0
100
AcDbEntity
  8
0
  6
Continuous
 62
     3
100
AcDbLine
 10
1068.526
 20
451.9419999999998
 30
0.0
 11
1063.526
 21
451.9419999999998
 31
0.0
  0
LINE
  5
CB5
330
7F0
100
AcDbEntity
  8
0
  6
Continuous
 62
     3
100
AcDbLine
 10
1063.526
 20
451.9419999999998
 30
0.0
 11
1063.526
 21
451.4419999999998
 31
0.0
  0
TEXT
  5
CB6
330
7F0
100
AcDbEntity
  8
0
  6
Continuous
 62
     3
100
AcDbText
 10
1063.526
 20
452.4419999999998
 30
0.05
 40
1.0
  1
ＲＳ－２３２Ｃ
 41
0.7
  7
KANJI0
100
AcDbText
  0
TEXT
  5
CB7
330
7F0
100
AcDbEntity
  8
0
  6
Continuous
 62
     3
100
AcDbText
 10
1070.526
 20
452.4419999999998
 30
0.05
 40
1.0
  1
Ｐ．ＳＥＬ
 41
0.7
  7
KANJI0
100
AcDbText
  0
TEXT
  5
CB8
330
7F0
100
AcDbEntity
  8
0
  6
Continuous
 62
     3
100
AcDbText
 10
1070.526
 20
437.9419999999998
 30
0.05
 40
1.0
  1
Ｐ．ＳＥＬ
 41
0.7
  7
KANJI0
100
AcDbText
  0
TEXT
  5
CB9
330
7F0
100
AcDbEntity
  8
0
  6
Continuous
 62
     3
100
AcDbText
 10
1063.526
 20
437.9419999999998
 30
0.05
 40
1.0
  1
ＲＳ－２３２Ｃ
 41
0.7
  7
KANJI0
100
AcDbText
  0
TEXT
  5
CBA
330
7F0
100
AcDbEntity
  8
0
  6
Continuous
 62
     3
100
AcDbText
 10
1065.026
 20
432.9419999999998
 30
0.05
 40
1.0
  1
ＵＨ－４４４１５
 41
0.7
  7
KANJI0
100
AcDbText
  0
TEXT
  5
CBB
330
7F0
100
AcDbEntity
  8
0
  6
Continuous
 62
     3
100
AcDbText
 10
1055.376
 20
451.4419999999998
 30
0.05
 40
1.0
  1
ＰＣ
 41
0.7
  7
KANJI0
100
AcDbText
  0
TEXT
  5
CBC
330
7F0
100
AcDbEntity
  8
0
  6
Continuous
 62
     3
100
AcDbText
 10
1050.026
 20
451.4419999999998
 30
0.05
 40
1.0
  1
ＰＯＬ
 41
0.7
  7
KANJI0
100
AcDbText
  0
LINE
  5
CBD
330
7F0
100
AcDbEntity
  8
0
  6
Continuous
 62
     3
100
AcDbLine
 10
1051.026
 20
449.9419999999998
 30
0.05
 11
1051.026
 21
450.9419999999998
 31
0.05
  0
LINE
  5
CBE
330
7F0
100
AcDbEntity
  8
0
  6
Continuous
 62
     3
100
AcDbLine
 10
1056.026
 20
450.9419999999998
 30
0.0
 11
1056.026
 21
449.9419999999998
 31
0.0
  0
TEXT
  5
CBF
330
7F0
100
AcDbEntity
  8
0
  6
Continuous
 62
     3
100
AcDbText
 10
1050.026
 20
452.942
 30
0.05
 40
1.0
  1
ＯＶＥＲ
 41
0.7
  7
KANJI0
100
AcDbText
  0
TEXT
  5
CC0
330
7F0
100
AcDbEntity
  8
0
  6
Continuous
 62
     3
100
AcDbText
 10
1050.026
 20
454.4419999999998
 30
0.05
 40
1.0
  1
ＤＩＧ．ＣＯＭ
 41
0.7
  7
KANJI0
100
AcDbText
  0
TEXT
  5
CC1
330
7F0
100
AcDbEntity
  8
0
  6
Continuous
 62
     3
100
AcDbText
 10
1050.026
 20
455.9419999999998
 30
0.05
 40
1.0
  1
ＡＮＡＬＯＧ　ＣＯＭ
 41
0.7
  7
KANJI0
100
AcDbText
  0
TEXT
  5
CC2
330
7F0
100
AcDbEntity
  8
0
  6
Continuous
 62
     3
100
AcDbText
 10
1036.276
 20
454.4419999999998
 30
0.05
 40
1.0
  1
ＢＣＤ　ＯＵＴ
 41
0.7
  7
KANJI0
100
AcDbText
  0
LINE
  5
CC3
330
7F0
100
AcDbEntity
  8
0
  6
Continuous
 62
     3
100
AcDbLine
 10
1031.026
 20
452.4419999999998
 30
0.05
 11
1031.026
 21
454.9419999999998
 31
0.05
  0
LINE
  5
CC4
330
7F0
100
AcDbEntity
  8
0
  6
Continuous
 62
     3
100
AcDbLine
 10
1031.026
 20
454.9419999999998
 30
0.0
 11
1036.026
 21
454.9419999999998
 31
0.0
  0
LINE
  5
CC5
330
7F0
100
AcDbEntity
  8
0
  6
Continuous
 62
     3
100
AcDbLine
 10
1041.526
 20
454.9419999999998
 30
0.0
 11
1049.776
 21
454.9419999999998
 31
0.0
  0
LINE
  5
CC6
330
7F0
100
AcDbEntity
  8
0
  6
Continuous
 62
     3
100
AcDbLine
 10
1055.526
 20
454.9419999999998
 30
0.0
 11
1058.526
 21
454.9419999999998
 31
0.0
  0
LINE
  5
CC7
330
7F0
100
AcDbEntity
  8
0
  6
Continuous
 62
     3
100
AcDbLine
 10
1058.526
 20
454.9419999999998
 30
0.0
 11
1058.526
 21
449.9419999999998
 31
0.0
  0
LINE
  5
CC8
330
7F0
100
AcDbEntity
  8
0
  6
Continuous
 62
     3
100
AcDbLine
 10
1057.776
 20
456.4419999999998
 30
0.0
 11
1061.026
 21
456.4419999999998
 31
0.0
  0
LINE
  5
CC9
330
7F0
100
AcDbEntity
  8
0
  6
Continuous
 62
     3
100
AcDbLine
 10
1061.026
 20
456.4419999999998
 30
0.0
 11
1061.026
 21
449.9419999999998
 31
0.0
  0
LINE
  5
CCA
330
7F0
100
AcDbEntity
  8
0
  6
Continuous
 62
     3
100
AcDbLine
 10
1053.026
 20
453.4419999999998
 30
0.0
 11
1053.526
 21
453.4419999999998
 31
0.0
  0
LINE
  5
CCB
330
7F0
100
AcDbEntity
  8
0
  6
Continuous
 62
     3
100
AcDbLine
 10
1053.526
 20
453.4419999999998
 30
0.0
 11
1053.526
 21
449.9419999999998
 31
0.0
  0
LINE
  5
CCC
330
7F0
100
AcDbEntity
  8
0
  6
LTYPE1
 62
     3
100
AcDbLine
 10
1058.526
 20
446.4419999999998
 30
0.0
 11
1058.526
 21
444.9419999999998
 31
0.0
  0
LINE
  5
CCD
330
7F0
100
AcDbEntity
  8
0
  6
LTYPE1
 62
     3
100
AcDbLine
 10
1059.026
 20
446.9419999999998
 30
0.0
 11
1060.526
 21
446.9419999999998
 31
0.0
  0
LINE
  5
CCE
330
7F0
100
AcDbEntity
  8
0
  6
LTYPE1
 62
     3
100
AcDbLine
 10
1058.526
 20
445.6919999999998
 30
0.0
 11
1068.526
 21
445.6919999999998
 31
0.0
  0
LINE
  5
CCF
330
7F0
100
AcDbEntity
  8
0
  6
LTYPE1
 62
     3
100
AcDbLine
 10
1068.526
 20
446.4419999999998
 30
0.0
 11
1068.526
 21
444.9419999999998
 31
0.0
  0
LINE
  5
CD0
330
7F0
100
AcDbEntity
  8
0
  6
LTYPE1
 62
     3
100
AcDbLine
 10
1073.525999999998
 20
444.9419999999998
 30
0.0
 11
1073.525999999998
 21
446.4419999999998
 31
0.0
  0
LINE
  5
CD1
330
7F0
100
AcDbEntity
  8
0
  6
Continuous
 62
     1
100
AcDbLine
 10
1053.026
 20
446.4419999999998
 30
0.0
 11
1053.026
 21
447.4419999999998
 31
0.0
  0
LINE
  5
CD2
330
7F0
100
AcDbEntity
  8
0
  6
Continuous
 62
     1
100
AcDbLine
 10
1053.026
 20
447.4419999999998
 30
0.0
 11
1054.026
 21
447.4419999999998
 31
0.0
  0
LINE
  5
CD3
330
7F0
100
AcDbEntity
  8
0
  6
Continuous
 62
     1
100
AcDbLine
 10
1054.026
 20
447.4419999999998
 30
0.0
 11
1054.026
 21
446.4419999999998
 31
0.0
  0
LINE
  5
CD4
330
7F0
100
AcDbEntity
  8
0
  6
Continuous
 62
     1
100
AcDbLine
 10
1054.026
 20
446.4419999999998
 30
0.0
 11
1053.026
 21
446.4419999999998
 31
0.0
  0
LINE
  5
CD5
330
7F0
100
AcDbEntity
  8
0
  6
Continuous
 62
     1
100
AcDbLine
 10
1053.026
 20
443.9419999999998
 30
0.0
 11
1053.026
 21
444.9419999999998
 31
0.0
  0
LINE
  5
CD6
330
7F0
100
AcDbEntity
  8
0
  6
Continuous
 62
     1
100
AcDbLine
 10
1053.026
 20
444.9419999999998
 30
0.0
 11
1054.026
 21
444.9419999999998
 31
0.0
  0
LINE
  5
CD7
330
7F0
100
AcDbEntity
  8
0
  6
Continuous
 62
     1
100
AcDbLine
 10
1054.026
 20
444.9419999999998
 30
0.0
 11
1054.026
 21
443.9419999999998
 31
0.0
  0
LINE
  5
CD8
330
7F0
100
AcDbEntity
  8
0
  6
Continuous
 62
     1
100
AcDbLine
 10
1054.026
 20
443.9419999999998
 30
0.0
 11
1053.026
 21
443.9419999999998
 31
0.0
  0
LINE
  5
CD9
330
7F0
100
AcDbEntity
  8
0
  6
Continuous
 62
     1
100
AcDbLine
 10
1055.526
 20
446.4419999999998
 30
0.0
 11
1055.526
 21
447.4419999999998
 31
0.0
  0
LINE
  5
CDA
330
7F0
100
AcDbEntity
  8
0
  6
Continuous
 62
     1
100
AcDbLine
 10
1055.526
 20
447.4419999999998
 30
0.0
 11
1056.526
 21
447.4419999999998
 31
0.0
  0
LINE
  5
CDB
330
7F0
100
AcDbEntity
  8
0
  6
Continuous
 62
     1
100
AcDbLine
 10
1056.526
 20
447.4419999999998
 30
0.0
 11
1056.526
 21
446.4419999999998
 31
0.0
  0
LINE
  5
CDC
330
7F0
100
AcDbEntity
  8
0
  6
Continuous
 62
     1
100
AcDbLine
 10
1056.526
 20
446.4419999999998
 30
0.0
 11
1055.526
 21
446.4419999999998
 31
0.0
  0
LINE
  5
CDD
330
7F0
100
AcDbEntity
  8
0
  6
Continuous
 62
     1
100
AcDbLine
 10
1055.526
 20
443.9419999999998
 30
0.0
 11
1055.526
 21
444.9419999999998
 31
0.0
  0
LINE
  5
CDE
330
7F0
100
AcDbEntity
  8
0
  6
Continuous
 62
     1
100
AcDbLine
 10
1055.526
 20
444.9419999999998
 30
0.0
 11
1056.526
 21
444.9419999999998
 31
0.0
  0
LINE
  5
CDF
330
7F0
100
AcDbEntity
  8
0
  6
Continuous
 62
     1
100
AcDbLine
 10
1056.526
 20
444.9419999999998
 30
0.0
 11
1056.526
 21
443.9419999999998
 31
0.0
  0
LINE
  5
CE0
330
7F0
100
AcDbEntity
  8
0
  6
Continuous
 62
     1
100
AcDbLine
 10
1056.526
 20
443.9419999999998
 30
0.0
 11
1055.526
 21
443.9419999999998
 31
0.0
  0
LINE
  5
CE1
330
7F0
100
AcDbEntity
  8
0
  6
Continuous
 62
     1
100
AcDbLine
 10
1050.526
 20
446.4419999999998
 30
0.0
 11
1050.526
 21
447.4419999999998
 31
0.0
  0
LINE
  5
CE2
330
7F0
100
AcDbEntity
  8
0
  6
Continuous
 62
     1
100
AcDbLine
 10
1050.526
 20
447.4419999999998
 30
0.0
 11
1051.526
 21
447.4419999999998
 31
0.0
  0
LINE
  5
CE3
330
7F0
100
AcDbEntity
  8
0
  6
Continuous
 62
     1
100
AcDbLine
 10
1051.526
 20
447.4419999999998
 30
0.0
 11
1051.526
 21
446.4419999999998
 31
0.0
  0
LINE
  5
CE4
330
7F0
100
AcDbEntity
  8
0
  6
Continuous
 62
     1
100
AcDbLine
 10
1051.526
 20
446.4419999999998
 30
0.0
 11
1050.526
 21
446.4419999999998
 31
0.0
  0
LINE
  5
CE5
330
7F0
100
AcDbEntity
  8
0
  6
Continuous
 62
     1
100
AcDbLine
 10
1050.526
 20
443.9419999999998
 30
0.0
 11
1050.526
 21
444.9419999999998
 31
0.0
  0
LINE
  5
CE6
330
7F0
100
AcDbEntity
  8
0
  6
Continuous
 62
     1
100
AcDbLine
 10
1050.526
 20
444.9419999999998
 30
0.0
 11
1051.526
 21
444.9419999999998
 31
0.0
  0
LINE
  5
CE7
330
7F0
100
AcDbEntity
  8
0
  6
Continuous
 62
     1
100
AcDbLine
 10
1051.526
 20
444.9419999999998
 30
0.0
 11
1051.526
 21
443.9419999999998
 31
0.0
  0
LINE
  5
CE8
330
7F0
100
AcDbEntity
  8
0
  6
Continuous
 62
     1
100
AcDbLine
 10
1051.526
 20
443.9419999999998
 30
0.0
 11
1050.526
 21
443.9419999999998
 31
0.0
  0
LINE
  5
CE9
330
7F0
100
AcDbEntity
  8
0
  6
Continuous
 62
     1
100
AcDbLine
 10
1058.026
 20
446.4419999999998
 30
0.0
 11
1058.026
 21
447.4419999999998
 31
0.0
  0
LINE
  5
CEA
330
7F0
100
AcDbEntity
  8
0
  6
Continuous
 62
     1
100
AcDbLine
 10
1058.026
 20
447.4419999999998
 30
0.0
 11
1059.026
 21
447.4419999999998
 31
0.0
  0
LINE
  5
CEB
330
7F0
100
AcDbEntity
  8
0
  6
Continuous
 62
     1
100
AcDbLine
 10
1059.026
 20
447.4419999999998
 30
0.0
 11
1059.026
 21
446.4419999999998
 31
0.0
  0
LINE
  5
CEC
330
7F0
100
AcDbEntity
  8
0
  6
Continuous
 62
     1
100
AcDbLine
 10
1059.026
 20
446.4419999999998
 30
0.0
 11
1058.026
 21
446.4419999999998
 31
0.0
  0
LINE
  5
CED
330
7F0
100
AcDbEntity
  8
0
  6
Continuous
 62
     1
100
AcDbLine
 10
1058.026
 20
443.9419999999998
 30
0.0
 11
1058.026
 21
444.9419999999998
 31
0.0
  0
LINE
  5
CEE
330
7F0
100
AcDbEntity
  8
0
  6
Continuous
 62
     1
100
AcDbLine
 10
1058.026
 20
444.9419999999998
 30
0.0
 11
1059.026
 21
444.9419999999998
 31
0.0
  0
LINE
  5
CEF
330
7F0
100
AcDbEntity
  8
0
  6
Continuous
 62
     1
100
AcDbLine
 10
1059.026
 20
444.9419999999998
 30
0.0
 11
1059.026
 21
443.9419999999998
 31
0.0
  0
LINE
  5
CF0
330
7F0
100
AcDbEntity
  8
0
  6
Continuous
 62
     1
100
AcDbLine
 10
1059.026
 20
443.9419999999998
 30
0.0
 11
1058.026
 21
443.9419999999998
 31
0.0
  0
LINE
  5
CF1
330
7F0
100
AcDbEntity
  8
0
  6
Continuous
 62
     1
100
AcDbLine
 10
1060.526
 20
446.4419999999998
 30
0.0
 11
1060.526
 21
447.4419999999998
 31
0.0
  0
LINE
  5
CF2
330
7F0
100
AcDbEntity
  8
0
  6
Continuous
 62
     1
100
AcDbLine
 10
1060.526
 20
447.4419999999998
 30
0.0
 11
1061.526
 21
447.4419999999998
 31
0.0
  0
LINE
  5
CF3
330
7F0
100
AcDbEntity
  8
0
  6
Continuous
 62
     1
100
AcDbLine
 10
1061.526
 20
447.4419999999998
 30
0.0
 11
1061.526
 21
446.4419999999998
 31
0.0
  0
LINE
  5
CF4
330
7F0
100
AcDbEntity
  8
0
  6
Continuous
 62
     1
100
AcDbLine
 10
1061.526
 20
446.4419999999998
 30
0.0
 11
1060.526
 21
446.4419999999998
 31
0.0
  0
LINE
  5
CF5
330
7F0
100
AcDbEntity
  8
0
  6
Continuous
 62
     1
100
AcDbLine
 10
1060.526
 20
443.9419999999998
 30
0.0
 11
1060.526
 21
444.9419999999998
 31
0.0
  0
LINE
  5
CF6
330
7F0
100
AcDbEntity
  8
0
  6
Continuous
 62
     1
100
AcDbLine
 10
1060.526
 20
444.9419999999998
 30
0.0
 11
1061.526
 21
444.9419999999998
 31
0.0
  0
LINE
  5
CF7
330
7F0
100
AcDbEntity
  8
0
  6
Continuous
 62
     1
100
AcDbLine
 10
1061.526
 20
444.9419999999998
 30
0.0
 11
1061.526
 21
443.9419999999998
 31
0.0
  0
LINE
  5
CF8
330
7F0
100
AcDbEntity
  8
0
  6
Continuous
 62
     1
100
AcDbLine
 10
1061.526
 20
443.9419999999998
 30
0.0
 11
1060.526
 21
443.9419999999998
 31
0.0
  0
LINE
  5
CF9
330
7F0
100
AcDbEntity
  8
0
  6
Continuous
 62
     1
100
AcDbLine
 10
1063.026
 20
446.4419999999998
 30
0.0
 11
1063.026
 21
447.4419999999998
 31
0.0
  0
LINE
  5
CFA
330
7F0
100
AcDbEntity
  8
0
  6
Continuous
 62
     1
100
AcDbLine
 10
1063.026
 20
447.4419999999998
 30
0.0
 11
1064.026
 21
447.4419999999998
 31
0.0
  0
LINE
  5
CFB
330
7F0
100
AcDbEntity
  8
0
  6
Continuous
 62
     1
100
AcDbLine
 10
1064.026
 20
447.4419999999998
 30
0.0
 11
1064.026
 21
446.4419999999998
 31
0.0
  0
LINE
  5
CFC
330
7F0
100
AcDbEntity
  8
0
  6
Continuous
 62
     1
100
AcDbLine
 10
1064.026
 20
446.4419999999998
 30
0.0
 11
1063.026
 21
446.4419999999998
 31
0.0
  0
LINE
  5
CFD
330
7F0
100
AcDbEntity
  8
0
  6
Continuous
 62
     1
100
AcDbLine
 10
1063.026
 20
443.9419999999998
 30
0.0
 11
1063.026
 21
444.9419999999998
 31
0.0
  0
LINE
  5
CFE
330
7F0
100
AcDbEntity
  8
0
  6
Continuous
 62
     1
100
AcDbLine
 10
1063.026
 20
444.9419999999998
 30
0.0
 11
1064.026
 21
444.9419999999998
 31
0.0
  0
LINE
  5
CFF
330
7F0
100
AcDbEntity
  8
0
  6
Continuous
 62
     1
100
AcDbLine
 10
1064.026
 20
444.9419999999998
 30
0.0
 11
1064.026
 21
443.9419999999998
 31
0.0
  0
LINE
  5
D00
330
7F0
100
AcDbEntity
  8
0
  6
Continuous
 62
     1
100
AcDbLine
 10
1064.026
 20
443.9419999999998
 30
0.0
 11
1063.026
 21
443.9419999999998
 31
0.0
  0
LINE
  5
D01
330
7F0
100
AcDbEntity
  8
0
  6
Continuous
 62
     1
100
AcDbLine
 10
1065.525999999998
 20
446.4419999999998
 30
0.0
 11
1065.525999999998
 21
447.4419999999998
 31
0.0
  0
LINE
  5
D02
330
7F0
100
AcDbEntity
  8
0
  6
Continuous
 62
     1
100
AcDbLine
 10
1065.525999999998
 20
447.4419999999998
 30
0.0
 11
1066.526
 21
447.4419999999998
 31
0.0
  0
LINE
  5
D03
330
7F0
100
AcDbEntity
  8
0
  6
Continuous
 62
     1
100
AcDbLine
 10
1066.526
 20
447.4419999999998
 30
0.0
 11
1066.526
 21
446.4419999999998
 31
0.0
  0
LINE
  5
D04
330
7F0
100
AcDbEntity
  8
0
  6
Continuous
 62
     1
100
AcDbLine
 10
1066.526
 20
446.4419999999998
 30
0.0
 11
1065.525999999998
 21
446.4419999999998
 31
0.0
  0
LINE
  5
D05
330
7F0
100
AcDbEntity
  8
0
  6
Continuous
 62
     1
100
AcDbLine
 10
1065.525999999998
 20
443.9419999999998
 30
0.0
 11
1065.525999999998
 21
444.9419999999998
 31
0.0
  0
LINE
  5
D06
330
7F0
100
AcDbEntity
  8
0
  6
Continuous
 62
     1
100
AcDbLine
 10
1065.525999999998
 20
444.9419999999998
 30
0.0
 11
1066.526
 21
444.9419999999998
 31
0.0
  0
LINE
  5
D07
330
7F0
100
AcDbEntity
  8
0
  6
Continuous
 62
     1
100
AcDbLine
 10
1066.526
 20
444.9419999999998
 30
0.0
 11
1066.526
 21
443.9419999999998
 31
0.0
  0
LINE
  5
D08
330
7F0
100
AcDbEntity
  8
0
  6
Continuous
 62
     1
100
AcDbLine
 10
1066.526
 20
443.9419999999998
 30
0.0
 11
1065.525999999998
 21
443.9419999999998
 31
0.0
  0
LINE
  5
D09
330
7F0
100
AcDbEntity
  8
0
  6
Continuous
 62
     1
100
AcDbLine
 10
1068.026
 20
446.4419999999998
 30
0.0
 11
1068.026
 21
447.4419999999998
 31
0.0
  0
LINE
  5
D0A
330
7F0
100
AcDbEntity
  8
0
  6
Continuous
 62
     1
100
AcDbLine
 10
1068.026
 20
447.4419999999998
 30
0.0
 11
1069.026
 21
447.4419999999998
 31
0.0
  0
LINE
  5
D0B
330
7F0
100
AcDbEntity
  8
0
  6
Continuous
 62
     1
100
AcDbLine
 10
1069.026
 20
447.4419999999998
 30
0.0
 11
1069.026
 21
446.4419999999998
 31
0.0
  0
LINE
  5
D0C
330
7F0
100
AcDbEntity
  8
0
  6
Continuous
 62
     1
100
AcDbLine
 10
1069.026
 20
446.4419999999998
 30
0.0
 11
1068.026
 21
446.4419999999998
 31
0.0
  0
LINE
  5
D0D
330
7F0
100
AcDbEntity
  8
0
  6
Continuous
 62
     1
100
AcDbLine
 10
1068.026
 20
443.9419999999998
 30
0.0
 11
1068.026
 21
444.9419999999998
 31
0.0
  0
LINE
  5
D0E
330
7F0
100
AcDbEntity
  8
0
  6
Continuous
 62
     1
100
AcDbLine
 10
1068.026
 20
444.9419999999998
 30
0.0
 11
1069.026
 21
444.9419999999998
 31
0.0
  0
LINE
  5
D0F
330
7F0
100
AcDbEntity
  8
0
  6
Continuous
 62
     1
100
AcDbLine
 10
1069.026
 20
444.9419999999998
 30
0.0
 11
1069.026
 21
443.9419999999998
 31
0.0
  0
LINE
  5
D10
330
7F0
100
AcDbEntity
  8
0
  6
Continuous
 62
     1
100
AcDbLine
 10
1069.026
 20
443.9419999999998
 30
0.0
 11
1068.026
 21
443.9419999999998
 31
0.0
  0
LINE
  5
D11
330
7F0
100
AcDbEntity
  8
0
  6
Continuous
 62
     1
100
AcDbLine
 10
1070.526
 20
446.4419999999998
 30
0.0
 11
1070.526
 21
447.4419999999998
 31
0.0
  0
LINE
  5
D12
330
7F0
100
AcDbEntity
  8
0
  6
Continuous
 62
     1
100
AcDbLine
 10
1070.526
 20
447.4419999999998
 30
0.0
 11
1071.526
 21
447.4419999999998
 31
0.0
  0
LINE
  5
D13
330
7F0
100
AcDbEntity
  8
0
  6
Continuous
 62
     1
100
AcDbLine
 10
1071.526
 20
447.4419999999998
 30
0.0
 11
1071.526
 21
446.4419999999998
 31
0.0
  0
LINE
  5
D14
330
7F0
100
AcDbEntity
  8
0
  6
Continuous
 62
     1
100
AcDbLine
 10
1071.526
 20
446.4419999999998
 30
0.0
 11
1070.526
 21
446.4419999999998
 31
0.0
  0
LINE
  5
D15
330
7F0
100
AcDbEntity
  8
0
  6
Continuous
 62
     1
100
AcDbLine
 10
1070.526
 20
443.9419999999998
 30
0.0
 11
1070.526
 21
444.9419999999998
 31
0.0
  0
LINE
  5
D16
330
7F0
100
AcDbEntity
  8
0
  6
Continuous
 62
     1
100
AcDbLine
 10
1070.526
 20
444.9419999999998
 30
0.0
 11
1071.526
 21
444.9419999999998
 31
0.0
  0
LINE
  5
D17
330
7F0
100
AcDbEntity
  8
0
  6
Continuous
 62
     1
100
AcDbLine
 10
1071.526
 20
444.9419999999998
 30
0.0
 11
1071.526
 21
443.9419999999998
 31
0.0
  0
LINE
  5
D18
330
7F0
100
AcDbEntity
  8
0
  6
Continuous
 62
     1
100
AcDbLine
 10
1071.526
 20
443.9419999999998
 30
0.0
 11
1070.526
 21
443.9419999999998
 31
0.0
  0
LINE
  5
D19
330
7F0
100
AcDbEntity
  8
0
  6
Continuous
 62
     1
100
AcDbLine
 10
1073.026
 20
446.4419999999998
 30
0.0
 11
1073.026
 21
447.4419999999998
 31
0.0
  0
LINE
  5
D1A
330
7F0
100
AcDbEntity
  8
0
  6
Continuous
 62
     1
100
AcDbLine
 10
1073.026
 20
447.4419999999998
 30
0.0
 11
1074.026
 21
447.4419999999998
 31
0.0
  0
LINE
  5
D1B
330
7F0
100
AcDbEntity
  8
0
  6
Continuous
 62
     1
100
AcDbLine
 10
1074.026
 20
447.4419999999998
 30
0.0
 11
1074.026
 21
446.4419999999998
 31
0.0
  0
LINE
  5
D1C
330
7F0
100
AcDbEntity
  8
0
  6
Continuous
 62
     1
100
AcDbLine
 10
1074.026
 20
446.4419999999998
 30
0.0
 11
1073.026
 21
446.4419999999998
 31
0.0
  0
LINE
  5
D1D
330
7F0
100
AcDbEntity
  8
0
  6
Continuous
 62
     1
100
AcDbLine
 10
1073.026
 20
443.9419999999998
 30
0.0
 11
1073.026
 21
444.9419999999998
 31
0.0
  0
LINE
  5
D1E
330
7F0
100
AcDbEntity
  8
0
  6
Continuous
 62
     1
100
AcDbLine
 10
1073.026
 20
444.9419999999998
 30
0.0
 11
1074.026
 21
444.9419999999998
 31
0.0
  0
LINE
  5
D1F
330
7F0
100
AcDbEntity
  8
0
  6
Continuous
 62
     1
100
AcDbLine
 10
1074.026
 20
444.9419999999998
 30
0.0
 11
1074.026
 21
443.9419999999998
 31
0.0
  0
LINE
  5
D20
330
7F0
100
AcDbEntity
  8
0
  6
Continuous
 62
     1
100
AcDbLine
 10
1074.026
 20
443.9419999999998
 30
0.0
 11
1073.026
 21
443.9419999999998
 31
0.0
  0
LINE
  5
D21
330
7F0
100
AcDbEntity
  8
0
  6
Continuous
 62
     1
100
AcDbLine
 10
1048.026
 20
446.4419999999998
 30
0.0
 11
1048.026
 21
447.4419999999998
 31
0.0
  0
LINE
  5
D22
330
7F0
100
AcDbEntity
  8
0
  6
Continuous
 62
     1
100
AcDbLine
 10
1048.026
 20
447.4419999999998
 30
0.0
 11
1049.026
 21
447.4419999999998
 31
0.0
  0
LINE
  5
D23
330
7F0
100
AcDbEntity
  8
0
  6
Continuous
 62
     1
100
AcDbLine
 10
1049.026
 20
447.4419999999998
 30
0.0
 11
1049.026
 21
446.4419999999998
 31
0.0
  0
LINE
  5
D24
330
7F0
100
AcDbEntity
  8
0
  6
Continuous
 62
     1
100
AcDbLine
 10
1049.026
 20
446.4419999999998
 30
0.0
 11
1048.026
 21
446.4419999999998
 31
0.0
  0
LINE
  5
D25
330
7F0
100
AcDbEntity
  8
0
  6
Continuous
 62
     1
100
AcDbLine
 10
1048.026
 20
443.9419999999998
 30
0.0
 11
1048.026
 21
444.9419999999998
 31
0.0
  0
LINE
  5
D26
330
7F0
100
AcDbEntity
  8
0
  6
Continuous
 62
     1
100
AcDbLine
 10
1048.026
 20
444.9419999999998
 30
0.0
 11
1049.026
 21
444.9419999999998
 31
0.0
  0
LINE
  5
D27
330
7F0
100
AcDbEntity
  8
0
  6
Continuous
 62
     1
100
AcDbLine
 10
1049.026
 20
444.9419999999998
 30
0.0
 11
1049.026
 21
443.9419999999998
 31
0.0
  0
LINE
  5
D28
330
7F0
100
AcDbEntity
  8
0
  6
Continuous
 62
     1
100
AcDbLine
 10
1049.026
 20
443.9419999999998
 30
0.0
 11
1048.026
 21
443.9419999999998
 31
0.0
  0
LINE
  5
D29
330
7F0
100
AcDbEntity
  8
0
  6
Continuous
 62
     1
100
AcDbLine
 10
1045.526
 20
446.4419999999998
 30
0.0
 11
1045.526
 21
447.4419999999998
 31
0.0
  0
LINE
  5
D2A
330
7F0
100
AcDbEntity
  8
0
  6
Continuous
 62
     1
100
AcDbLine
 10
1045.526
 20
447.4419999999998
 30
0.0
 11
1046.526
 21
447.4419999999998
 31
0.0
  0
LINE
  5
D2B
330
7F0
100
AcDbEntity
  8
0
  6
Continuous
 62
     1
100
AcDbLine
 10
1046.526
 20
447.4419999999998
 30
0.0
 11
1046.526
 21
446.4419999999998
 31
0.0
  0
LINE
  5
D2C
330
7F0
100
AcDbEntity
  8
0
  6
Continuous
 62
     1
100
AcDbLine
 10
1046.526
 20
446.4419999999998
 30
0.0
 11
1045.526
 21
446.4419999999998
 31
0.0
  0
LINE
  5
D2D
330
7F0
100
AcDbEntity
  8
0
  6
Continuous
 62
     1
100
AcDbLine
 10
1045.526
 20
443.9419999999998
 30
0.0
 11
1045.526
 21
444.9419999999998
 31
0.0
  0
LINE
  5
D2E
330
7F0
100
AcDbEntity
  8
0
  6
Continuous
 62
     1
100
AcDbLine
 10
1045.526
 20
444.9419999999998
 30
0.0
 11
1046.526
 21
444.9419999999998
 31
0.0
  0
LINE
  5
D2F
330
7F0
100
AcDbEntity
  8
0
  6
Continuous
 62
     1
100
AcDbLine
 10
1046.526
 20
444.9419999999998
 30
0.0
 11
1046.526
 21
443.9419999999998
 31
0.0
  0
LINE
  5
D30
330
7F0
100
AcDbEntity
  8
0
  6
Continuous
 62
     1
100
AcDbLine
 10
1046.526
 20
443.9419999999998
 30
0.0
 11
1045.526
 21
443.9419999999998
 31
0.0
  0
LINE
  5
D31
330
7F0
100
AcDbEntity
  8
0
  6
Continuous
 62
     1
100
AcDbLine
 10
1043.026
 20
446.4419999999998
 30
0.0
 11
1043.026
 21
447.4419999999998
 31
0.0
  0
LINE
  5
D32
330
7F0
100
AcDbEntity
  8
0
  6
Continuous
 62
     1
100
AcDbLine
 10
1043.026
 20
447.4419999999998
 30
0.0
 11
1044.026
 21
447.4419999999998
 31
0.0
  0
LINE
  5
D33
330
7F0
100
AcDbEntity
  8
0
  6
Continuous
 62
     1
100
AcDbLine
 10
1044.026
 20
447.4419999999998
 30
0.0
 11
1044.026
 21
446.4419999999998
 31
0.0
  0
LINE
  5
D34
330
7F0
100
AcDbEntity
  8
0
  6
Continuous
 62
     1
100
AcDbLine
 10
1044.026
 20
446.4419999999998
 30
0.0
 11
1043.026
 21
446.4419999999998
 31
0.0
  0
LINE
  5
D35
330
7F0
100
AcDbEntity
  8
0
  6
Continuous
 62
     1
100
AcDbLine
 10
1043.026
 20
443.9419999999998
 30
0.0
 11
1043.026
 21
444.9419999999998
 31
0.0
  0
LINE
  5
D36
330
7F0
100
AcDbEntity
  8
0
  6
Continuous
 62
     1
100
AcDbLine
 10
1043.026
 20
444.9419999999998
 30
0.0
 11
1044.026
 21
444.9419999999998
 31
0.0
  0
LINE
  5
D37
330
7F0
100
AcDbEntity
  8
0
  6
Continuous
 62
     1
100
AcDbLine
 10
1044.026
 20
444.9419999999998
 30
0.0
 11
1044.026
 21
443.9419999999998
 31
0.0
  0
LINE
  5
D38
330
7F0
100
AcDbEntity
  8
0
  6
Continuous
 62
     1
100
AcDbLine
 10
1044.026
 20
443.9419999999998
 30
0.0
 11
1043.026
 21
443.9419999999998
 31
0.0
  0
LINE
  5
D39
330
7F0
100
AcDbEntity
  8
0
  6
Continuous
 62
     1
100
AcDbLine
 10
1040.526
 20
446.4419999999998
 30
0.0
 11
1040.526
 21
447.4419999999998
 31
0.0
  0
LINE
  5
D3A
330
7F0
100
AcDbEntity
  8
0
  6
Continuous
 62
     1
100
AcDbLine
 10
1040.526
 20
447.4419999999998
 30
0.0
 11
1041.526
 21
447.4419999999998
 31
0.0
  0
LINE
  5
D3B
330
7F0
100
AcDbEntity
  8
0
  6
Continuous
 62
     1
100
AcDbLine
 10
1041.526
 20
447.4419999999998
 30
0.0
 11
1041.526
 21
446.4419999999998
 31
0.0
  0
LINE
  5
D3C
330
7F0
100
AcDbEntity
  8
0
  6
Continuous
 62
     1
100
AcDbLine
 10
1041.526
 20
446.4419999999998
 30
0.0
 11
1040.526
 21
446.4419999999998
 31
0.0
  0
LINE
  5
D3D
330
7F0
100
AcDbEntity
  8
0
  6
Continuous
 62
     1
100
AcDbLine
 10
1040.526
 20
443.9419999999998
 30
0.0
 11
1040.526
 21
444.9419999999998
 31
0.0
  0
LINE
  5
D3E
330
7F0
100
AcDbEntity
  8
0
  6
Continuous
 62
     1
100
AcDbLine
 10
1040.526
 20
444.9419999999998
 30
0.0
 11
1041.526
 21
444.9419999999998
 31
0.0
  0
LINE
  5
D3F
330
7F0
100
AcDbEntity
  8
0
  6
Continuous
 62
     1
100
AcDbLine
 10
1041.526
 20
444.9419999999998
 30
0.0
 11
1041.526
 21
443.9419999999998
 31
0.0
  0
LINE
  5
D40
330
7F0
100
AcDbEntity
  8
0
  6
Continuous
 62
     1
100
AcDbLine
 10
1041.526
 20
443.9419999999998
 30
0.0
 11
1040.526
 21
443.9419999999998
 31
0.0
  0
LINE
  5
D41
330
7F0
100
AcDbEntity
  8
0
  6
Continuous
 62
     1
100
AcDbLine
 10
1038.026
 20
446.4419999999998
 30
0.0
 11
1038.026
 21
447.4419999999998
 31
0.0
  0
LINE
  5
D42
330
7F0
100
AcDbEntity
  8
0
  6
Continuous
 62
     1
100
AcDbLine
 10
1038.026
 20
447.4419999999998
 30
0.0
 11
1039.026
 21
447.4419999999998
 31
0.0
  0
LINE
  5
D43
330
7F0
100
AcDbEntity
  8
0
  6
Continuous
 62
     1
100
AcDbLine
 10
1039.026
 20
447.4419999999998
 30
0.0
 11
1039.026
 21
446.4419999999998
 31
0.0
  0
LINE
  5
D44
330
7F0
100
AcDbEntity
  8
0
  6
Continuous
 62
     1
100
AcDbLine
 10
1039.026
 20
446.4419999999998
 30
0.0
 11
1038.026
 21
446.4419999999998
 31
0.0
  0
LINE
  5
D45
330
7F0
100
AcDbEntity
  8
0
  6
Continuous
 62
     1
100
AcDbLine
 10
1038.026
 20
443.9419999999998
 30
0.0
 11
1038.026
 21
444.9419999999998
 31
0.0
  0
LINE
  5
D46
330
7F0
100
AcDbEntity
  8
0
  6
Continuous
 62
     1
100
AcDbLine
 10
1038.026
 20
444.9419999999998
 30
0.0
 11
1039.026
 21
444.9419999999998
 31
0.0
  0
LINE
  5
D47
330
7F0
100
AcDbEntity
  8
0
  6
Continuous
 62
     1
100
AcDbLine
 10
1039.026
 20
444.9419999999998
 30
0.0
 11
1039.026
 21
443.9419999999998
 31
0.0
  0
LINE
  5
D48
330
7F0
100
AcDbEntity
  8
0
  6
Continuous
 62
     1
100
AcDbLine
 10
1039.026
 20
443.9419999999998
 30
0.0
 11
1038.026
 21
443.9419999999998
 31
0.0
  0
LINE
  5
D49
330
7F0
100
AcDbEntity
  8
0
  6
Continuous
 62
     1
100
AcDbLine
 10
1035.526
 20
446.4419999999998
 30
0.0
 11
1035.526
 21
447.4419999999998
 31
0.0
  0
LINE
  5
D4A
330
7F0
100
AcDbEntity
  8
0
  6
Continuous
 62
     1
100
AcDbLine
 10
1035.526
 20
447.4419999999998
 30
0.0
 11
1036.526
 21
447.4419999999998
 31
0.0
  0
LINE
  5
D4B
330
7F0
100
AcDbEntity
  8
0
  6
Continuous
 62
     1
100
AcDbLine
 10
1036.526
 20
447.4419999999998
 30
0.0
 11
1036.526
 21
446.4419999999998
 31
0.0
  0
LINE
  5
D4C
330
7F0
100
AcDbEntity
  8
0
  6
Continuous
 62
     1
100
AcDbLine
 10
1036.526
 20
446.4419999999998
 30
0.0
 11
1035.526
 21
446.4419999999998
 31
0.0
  0
LINE
  5
D4D
330
7F0
100
AcDbEntity
  8
0
  6
Continuous
 62
     1
100
AcDbLine
 10
1035.526
 20
443.9419999999998
 30
0.0
 11
1035.526
 21
444.9419999999998
 31
0.0
  0
LINE
  5
D4E
330
7F0
100
AcDbEntity
  8
0
  6
Continuous
 62
     1
100
AcDbLine
 10
1035.526
 20
444.9419999999998
 30
0.0
 11
1036.526
 21
444.9419999999998
 31
0.0
  0
LINE
  5
D4F
330
7F0
100
AcDbEntity
  8
0
  6
Continuous
 62
     1
100
AcDbLine
 10
1036.526
 20
444.9419999999998
 30
0.0
 11
1036.526
 21
443.9419999999998
 31
0.0
  0
LINE
  5
D50
330
7F0
100
AcDbEntity
  8
0
  6
Continuous
 62
     1
100
AcDbLine
 10
1036.526
 20
443.9419999999998
 30
0.0
 11
1035.526
 21
443.9419999999998
 31
0.0
  0
LINE
  5
D51
330
7F0
100
AcDbEntity
  8
0
  6
Continuous
 62
     1
100
AcDbLine
 10
1033.026
 20
446.4419999999998
 30
0.0
 11
1033.026
 21
447.4419999999998
 31
0.0
  0
LINE
  5
D52
330
7F0
100
AcDbEntity
  8
0
  6
Continuous
 62
     1
100
AcDbLine
 10
1033.026
 20
447.4419999999998
 30
0.0
 11
1034.026
 21
447.4419999999998
 31
0.0
  0
LINE
  5
D53
330
7F0
100
AcDbEntity
  8
0
  6
Continuous
 62
     1
100
AcDbLine
 10
1034.026
 20
447.4419999999998
 30
0.0
 11
1034.026
 21
446.4419999999998
 31
0.0
  0
LINE
  5
D54
330
7F0
100
AcDbEntity
  8
0
  6
Continuous
 62
     1
100
AcDbLine
 10
1034.026
 20
446.4419999999998
 30
0.0
 11
1033.026
 21
446.4419999999998
 31
0.0
  0
LINE
  5
D55
330
7F0
100
AcDbEntity
  8
0
  6
Continuous
 62
     1
100
AcDbLine
 10
1033.026
 20
443.9419999999998
 30
0.0
 11
1033.026
 21
444.9419999999998
 31
0.0
  0
LINE
  5
D56
330
7F0
100
AcDbEntity
  8
0
  6
Continuous
 62
     1
100
AcDbLine
 10
1033.026
 20
444.9419999999998
 30
0.0
 11
1034.026
 21
444.9419999999998
 31
0.0
  0
LINE
  5
D57
330
7F0
100
AcDbEntity
  8
0
  6
Continuous
 62
     1
100
AcDbLine
 10
1034.026
 20
444.9419999999998
 30
0.0
 11
1034.026
 21
443.9419999999998
 31
0.0
  0
LINE
  5
D58
330
7F0
100
AcDbEntity
  8
0
  6
Continuous
 62
     1
100
AcDbLine
 10
1034.026
 20
443.9419999999998
 30
0.0
 11
1033.026
 21
443.9419999999998
 31
0.0
  0
LINE
  5
D59
330
7F0
100
AcDbEntity
  8
0
  6
Continuous
 62
     1
100
AcDbLine
 10
1030.526
 20
446.4419999999998
 30
0.0
 11
1030.526
 21
447.4419999999998
 31
0.0
  0
LINE
  5
D5A
330
7F0
100
AcDbEntity
  8
0
  6
Continuous
 62
     1
100
AcDbLine
 10
1030.526
 20
447.4419999999998
 30
0.0
 11
1031.526
 21
447.4419999999998
 31
0.0
  0
LINE
  5
D5B
330
7F0
100
AcDbEntity
  8
0
  6
Continuous
 62
     1
100
AcDbLine
 10
1031.526
 20
447.4419999999998
 30
0.0
 11
1031.526
 21
446.4419999999998
 31
0.0
  0
LINE
  5
D5C
330
7F0
100
AcDbEntity
  8
0
  6
Continuous
 62
     1
100
AcDbLine
 10
1031.526
 20
446.4419999999998
 30
0.0
 11
1030.526
 21
446.4419999999998
 31
0.0
  0
LINE
  5
D5D
330
7F0
100
AcDbEntity
  8
0
  6
Continuous
 62
     1
100
AcDbLine
 10
1030.526
 20
443.9419999999998
 30
0.0
 11
1030.526
 21
444.9419999999998
 31
0.0
  0
LINE
  5
D5E
330
7F0
100
AcDbEntity
  8
0
  6
Continuous
 62
     1
100
AcDbLine
 10
1030.526
 20
444.9419999999998
 30
0.0
 11
1031.526
 21
444.9419999999998
 31
0.0
  0
LINE
  5
D5F
330
7F0
100
AcDbEntity
  8
0
  6
Continuous
 62
     1
100
AcDbLine
 10
1031.526
 20
444.9419999999998
 30
0.0
 11
1031.526
 21
443.9419999999998
 31
0.0
  0
LINE
  5
D60
330
7F0
100
AcDbEntity
  8
0
  6
Continuous
 62
     1
100
AcDbLine
 10
1031.526
 20
443.9419999999998
 30
0.0
 11
1030.526
 21
443.9419999999998
 31
0.0
  0
ARC
  5
D61
330
7F0
100
AcDbEntity
  8
0
  6
Continuous
 62
     1
100
AcDbCircle
 10
1028.976
 20
442.9419999999998
 30
0.0
 40
1.0
100
AcDbArc
 50
168.6999999999999
 51
270.0
  0
LINE
  5
D62
330
7F0
100
AcDbEntity
  8
0
  6
Continuous
 62
     1
100
AcDbLine
 10
1028.026
 20
443.142
 30
0.0
 11
1029.125999999997
 21
448.6419999999998
 31
0.0
  0
ARC
  5
D63
330
7F0
100
AcDbEntity
  8
0
  6
Continuous
 62
     1
100
AcDbCircle
 10
1030.125999999998
 20
448.4419999999998
 30
0.0
 40
1.0
100
AcDbArc
 50
90.0
 51
169.9
  0
LINE
  5
D64
330
7F0
100
AcDbEntity
  8
0
  6
Continuous
 62
     1
100
AcDbLine
 10
1030.125999999998
 20
449.4419999999998
 30
0.0
 11
1074.476
 21
449.4419999999998
 31
0.0
  0
ARC
  5
D65
330
7F0
100
AcDbEntity
  8
0
  6
Continuous
 62
     1
100
AcDbCircle
 10
1074.476
 20
448.4419999999998
 30
0.0
 40
1.0
100
AcDbArc
 50
11.4
 51
90.0
  0
LINE
  5
D66
330
7F0
100
AcDbEntity
  8
0
  6
Continuous
 62
     1
100
AcDbLine
 10
1075.425999999999
 20
448.6419999999998
 30
0.0
 11
1076.526
 21
443.142
 31
0.0
  0
ARC
  5
D67
330
7F0
100
AcDbEntity
  8
0
  6
Continuous
 62
     1
100
AcDbCircle
 10
1075.526
 20
442.9419999999998
 30
0.0
 40
1.0
100
AcDbArc
 50
270.0
 51
12.0
  0
LINE
  5
D68
330
7F0
100
AcDbEntity
  8
0
  6
Continuous
 62
     1
100
AcDbLine
 10
1075.526
 20
441.9419999999998
 30
0.0
 11
1028.976
 21
441.9419999999998
 31
0.0
  0
ARC
  5
D69
330
7F0
100
AcDbEntity
  8
0
  6
Continuous
 62
     1
100
AcDbCircle
 10
1025.776
 20
458.6919999999998
 30
0.0
 40
1.0
100
AcDbArc
 50
90.0
 51
180.0
  0
ARC
  5
D6A
330
7F0
100
AcDbEntity
  8
0
  6
Continuous
 62
     1
100
AcDbCircle
 10
1025.776
 20
432.6919999999998
 30
0.0
 40
1.0
100
AcDbArc
 50
180.0
 51
270.0
  0
LINE
  5
D6B
330
7F0
100
AcDbEntity
  8
0
  6
Continuous
 62
     1
100
AcDbLine
 10
1024.776
 20
432.6919999999998
 30
0.0
 11
1024.776
 21
458.6919999999998
 31
0.0
  0
ARC
  5
D6C
330
7F0
100
AcDbEntity
  8
0
  6
Continuous
 62
     1
100
AcDbCircle
 10
1078.776
 20
432.6919999999998
 30
0.0
 40
1.0
100
AcDbArc
 50
270.0
 51
0.0
  0
LINE
  5
D6D
330
7F0
100
AcDbEntity
  8
0
  6
Continuous
 62
     1
100
AcDbLine
 10
1078.776
 20
431.6919999999998
 30
0.0
 11
1025.776
 21
431.6919999999998
 31
0.0
  0
LINE
  5
D6E
330
7F0
100
AcDbEntity
  8
0
  6
Continuous
 62
     1
100
AcDbLine
 10
1025.776
 20
459.6919999999998
 30
0.0
 11
1078.776
 21
459.6919999999998
 31
0.0
  0
ARC
  5
D6F
330
7F0
100
AcDbEntity
  8
0
  6
Continuous
 62
     1
100
AcDbCircle
 10
1078.776
 20
458.6919999999998
 30
0.0
 40
1.0
100
AcDbArc
 50
0.0
 51
90.0
  0
LINE
  5
D70
330
7F0
100
AcDbEntity
  8
0
  6
Continuous
 62
     1
100
AcDbLine
 10
1079.776
 20
458.6919999999998
 30
0.0
 11
1079.776
 21
432.6919999999998
 31
0.0
  0
LINE
  5
D71
330
7F0
100
AcDbEntity
  8
0
  6
Continuous
 62
     1
100
AcDbLine
 10
1053.026
 20
446.4419999999998
 30
0.0
 11
1053.026
 21
447.4419999999998
 31
0.0
  0
LINE
  5
D72
330
7F0
100
AcDbEntity
  8
0
  6
Continuous
 62
     1
100
AcDbLine
 10
1053.026
 20
447.4419999999998
 30
0.0
 11
1054.026
 21
447.4419999999998
 31
0.0
  0
LINE
  5
D73
330
7F0
100
AcDbEntity
  8
0
  6
Continuous
 62
     1
100
AcDbLine
 10
1054.026
 20
447.4419999999998
 30
0.0
 11
1054.026
 21
446.4419999999998
 31
0.0
  0
LINE
  5
D74
330
7F0
100
AcDbEntity
  8
0
  6
Continuous
 62
     1
100
AcDbLine
 10
1054.026
 20
446.4419999999998
 30
0.0
 11
1053.026
 21
446.4419999999998
 31
0.0
  0
LINE
  5
D75
330
7F0
100
AcDbEntity
  8
0
  6
Continuous
 62
     1
100
AcDbLine
 10
1053.026
 20
443.9419999999998
 30
0.0
 11
1053.026
 21
444.9419999999998
 31
0.0
  0
LINE
  5
D76
330
7F0
100
AcDbEntity
  8
0
  6
Continuous
 62
     1
100
AcDbLine
 10
1053.026
 20
444.9419999999998
 30
0.0
 11
1054.026
 21
444.9419999999998
 31
0.0
  0
LINE
  5
D77
330
7F0
100
AcDbEntity
  8
0
  6
Continuous
 62
     1
100
AcDbLine
 10
1054.026
 20
444.9419999999998
 30
0.0
 11
1054.026
 21
443.9419999999998
 31
0.0
  0
LINE
  5
D78
330
7F0
100
AcDbEntity
  8
0
  6
Continuous
 62
     1
100
AcDbLine
 10
1054.026
 20
443.9419999999998
 30
0.0
 11
1053.026
 21
443.9419999999998
 31
0.0
  0
LINE
  5
D79
330
7F0
100
AcDbEntity
  8
0
  6
Continuous
 62
     1
100
AcDbLine
 10
1055.526
 20
446.4419999999998
 30
0.0
 11
1055.526
 21
447.4419999999998
 31
0.0
  0
LINE
  5
D7A
330
7F0
100
AcDbEntity
  8
0
  6
Continuous
 62
     1
100
AcDbLine
 10
1055.526
 20
447.4419999999998
 30
0.0
 11
1056.526
 21
447.4419999999998
 31
0.0
  0
LINE
  5
D7B
330
7F0
100
AcDbEntity
  8
0
  6
Continuous
 62
     1
100
AcDbLine
 10
1056.526
 20
447.4419999999998
 30
0.0
 11
1056.526
 21
446.4419999999998
 31
0.0
  0
LINE
  5
D7C
330
7F0
100
AcDbEntity
  8
0
  6
Continuous
 62
     1
100
AcDbLine
 10
1056.526
 20
446.4419999999998
 30
0.0
 11
1055.526
 21
446.4419999999998
 31
0.0
  0
LINE
  5
D7D
330
7F0
100
AcDbEntity
  8
0
  6
Continuous
 62
     1
100
AcDbLine
 10
1055.526
 20
443.9419999999998
 30
0.0
 11
1055.526
 21
444.9419999999998
 31
0.0
  0
LINE
  5
D7E
330
7F0
100
AcDbEntity
  8
0
  6
Continuous
 62
     1
100
AcDbLine
 10
1055.526
 20
444.9419999999998
 30
0.0
 11
1056.526
 21
444.9419999999998
 31
0.0
  0
LINE
  5
D7F
330
7F0
100
AcDbEntity
  8
0
  6
Continuous
 62
     1
100
AcDbLine
 10
1056.526
 20
444.9419999999998
 30
0.0
 11
1056.526
 21
443.9419999999998
 31
0.0
  0
LINE
  5
D80
330
7F0
100
AcDbEntity
  8
0
  6
Continuous
 62
     1
100
AcDbLine
 10
1056.526
 20
443.9419999999998
 30
0.0
 11
1055.526
 21
443.9419999999998
 31
0.0
  0
LINE
  5
D81
330
7F0
100
AcDbEntity
  8
0
  6
Continuous
 62
     1
100
AcDbLine
 10
1050.526
 20
446.4419999999998
 30
0.0
 11
1050.526
 21
447.4419999999998
 31
0.0
  0
LINE
  5
D82
330
7F0
100
AcDbEntity
  8
0
  6
Continuous
 62
     1
100
AcDbLine
 10
1050.526
 20
447.4419999999998
 30
0.0
 11
1051.526
 21
447.4419999999998
 31
0.0
  0
LINE
  5
D83
330
7F0
100
AcDbEntity
  8
0
  6
Continuous
 62
     1
100
AcDbLine
 10
1051.526
 20
447.4419999999998
 30
0.0
 11
1051.526
 21
446.4419999999998
 31
0.0
  0
LINE
  5
D84
330
7F0
100
AcDbEntity
  8
0
  6
Continuous
 62
     1
100
AcDbLine
 10
1051.526
 20
446.4419999999998
 30
0.0
 11
1050.526
 21
446.4419999999998
 31
0.0
  0
LINE
  5
D85
330
7F0
100
AcDbEntity
  8
0
  6
Continuous
 62
     1
100
AcDbLine
 10
1050.526
 20
443.9419999999998
 30
0.0
 11
1050.526
 21
444.9419999999998
 31
0.0
  0
LINE
  5
D86
330
7F0
100
AcDbEntity
  8
0
  6
Continuous
 62
     1
100
AcDbLine
 10
1050.526
 20
444.9419999999998
 30
0.0
 11
1051.526
 21
444.9419999999998
 31
0.0
  0
LINE
  5
D87
330
7F0
100
AcDbEntity
  8
0
  6
Continuous
 62
     1
100
AcDbLine
 10
1051.526
 20
444.9419999999998
 30
0.0
 11
1051.526
 21
443.9419999999998
 31
0.0
  0
LINE
  5
D88
330
7F0
100
AcDbEntity
  8
0
  6
Continuous
 62
     1
100
AcDbLine
 10
1051.526
 20
443.9419999999998
 30
0.0
 11
1050.526
 21
443.9419999999998
 31
0.0
  0
LINE
  5
D89
330
7F0
100
AcDbEntity
  8
0
  6
Continuous
 62
     1
100
AcDbLine
 10
1058.026
 20
446.4419999999998
 30
0.0
 11
1058.026
 21
447.4419999999998
 31
0.0
  0
LINE
  5
D8A
330
7F0
100
AcDbEntity
  8
0
  6
Continuous
 62
     1
100
AcDbLine
 10
1058.026
 20
447.4419999999998
 30
0.0
 11
1059.026
 21
447.4419999999998
 31
0.0
  0
LINE
  5
D8B
330
7F0
100
AcDbEntity
  8
0
  6
Continuous
 62
     1
100
AcDbLine
 10
1059.026
 20
447.4419999999998
 30
0.0
 11
1059.026
 21
446.4419999999998
 31
0.0
  0
LINE
  5
D8C
330
7F0
100
AcDbEntity
  8
0
  6
Continuous
 62
     1
100
AcDbLine
 10
1059.026
 20
446.4419999999998
 30
0.0
 11
1058.026
 21
446.4419999999998
 31
0.0
  0
LINE
  5
D8D
330
7F0
100
AcDbEntity
  8
0
  6
Continuous
 62
     1
100
AcDbLine
 10
1058.026
 20
443.9419999999998
 30
0.0
 11
1058.026
 21
444.9419999999998
 31
0.0
  0
LINE
  5
D8E
330
7F0
100
AcDbEntity
  8
0
  6
Continuous
 62
     1
100
AcDbLine
 10
1058.026
 20
444.9419999999998
 30
0.0
 11
1059.026
 21
444.9419999999998
 31
0.0
  0
LINE
  5
D8F
330
7F0
100
AcDbEntity
  8
0
  6
Continuous
 62
     1
100
AcDbLine
 10
1059.026
 20
444.9419999999998
 30
0.0
 11
1059.026
 21
443.9419999999998
 31
0.0
  0
LINE
  5
D90
330
7F0
100
AcDbEntity
  8
0
  6
Continuous
 62
     1
100
AcDbLine
 10
1059.026
 20
443.9419999999998
 30
0.0
 11
1058.026
 21
443.9419999999998
 31
0.0
  0
LINE
  5
D91
330
7F0
100
AcDbEntity
  8
0
  6
Continuous
 62
     1
100
AcDbLine
 10
1060.526
 20
446.4419999999998
 30
0.0
 11
1060.526
 21
447.4419999999998
 31
0.0
  0
LINE
  5
D92
330
7F0
100
AcDbEntity
  8
0
  6
Continuous
 62
     1
100
AcDbLine
 10
1060.526
 20
447.4419999999998
 30
0.0
 11
1061.526
 21
447.4419999999998
 31
0.0
  0
LINE
  5
D93
330
7F0
100
AcDbEntity
  8
0
  6
Continuous
 62
     1
100
AcDbLine
 10
1061.526
 20
447.4419999999998
 30
0.0
 11
1061.526
 21
446.4419999999998
 31
0.0
  0
LINE
  5
D94
330
7F0
100
AcDbEntity
  8
0
  6
Continuous
 62
     1
100
AcDbLine
 10
1061.526
 20
446.4419999999998
 30
0.0
 11
1060.526
 21
446.4419999999998
 31
0.0
  0
LINE
  5
D95
330
7F0
100
AcDbEntity
  8
0
  6
Continuous
 62
     1
100
AcDbLine
 10
1060.526
 20
443.9419999999998
 30
0.0
 11
1060.526
 21
444.9419999999998
 31
0.0
  0
LINE
  5
D96
330
7F0
100
AcDbEntity
  8
0
  6
Continuous
 62
     1
100
AcDbLine
 10
1060.526
 20
444.9419999999998
 30
0.0
 11
1061.526
 21
444.9419999999998
 31
0.0
  0
LINE
  5
D97
330
7F0
100
AcDbEntity
  8
0
  6
Continuous
 62
     1
100
AcDbLine
 10
1061.526
 20
444.9419999999998
 30
0.0
 11
1061.526
 21
443.9419999999998
 31
0.0
  0
LINE
  5
D98
330
7F0
100
AcDbEntity
  8
0
  6
Continuous
 62
     1
100
AcDbLine
 10
1061.526
 20
443.9419999999998
 30
0.0
 11
1060.526
 21
443.9419999999998
 31
0.0
  0
LINE
  5
D99
330
7F0
100
AcDbEntity
  8
0
  6
Continuous
 62
     1
100
AcDbLine
 10
1063.026
 20
446.4419999999998
 30
0.0
 11
1063.026
 21
447.4419999999998
 31
0.0
  0
LINE
  5
D9A
330
7F0
100
AcDbEntity
  8
0
  6
Continuous
 62
     1
100
AcDbLine
 10
1063.026
 20
447.4419999999998
 30
0.0
 11
1064.026
 21
447.4419999999998
 31
0.0
  0
LINE
  5
D9B
330
7F0
100
AcDbEntity
  8
0
  6
Continuous
 62
     1
100
AcDbLine
 10
1064.026
 20
447.4419999999998
 30
0.0
 11
1064.026
 21
446.4419999999998
 31
0.0
  0
LINE
  5
D9C
330
7F0
100
AcDbEntity
  8
0
  6
Continuous
 62
     1
100
AcDbLine
 10
1064.026
 20
446.4419999999998
 30
0.0
 11
1063.026
 21
446.4419999999998
 31
0.0
  0
LINE
  5
D9D
330
7F0
100
AcDbEntity
  8
0
  6
Continuous
 62
     1
100
AcDbLine
 10
1063.026
 20
443.9419999999998
 30
0.0
 11
1063.026
 21
444.9419999999998
 31
0.0
  0
LINE
  5
D9E
330
7F0
100
AcDbEntity
  8
0
  6
Continuous
 62
     1
100
AcDbLine
 10
1063.026
 20
444.9419999999998
 30
0.0
 11
1064.026
 21
444.9419999999998
 31
0.0
  0
LINE
  5
D9F
330
7F0
100
AcDbEntity
  8
0
  6
Continuous
 62
     1
100
AcDbLine
 10
1064.026
 20
444.9419999999998
 30
0.0
 11
1064.026
 21
443.9419999999998
 31
0.0
  0
LINE
  5
DA0
330
7F0
100
AcDbEntity
  8
0
  6
Continuous
 62
     1
100
AcDbLine
 10
1064.026
 20
443.9419999999998
 30
0.0
 11
1063.026
 21
443.9419999999998
 31
0.0
  0
LINE
  5
DA1
330
7F0
100
AcDbEntity
  8
0
  6
Continuous
 62
     1
100
AcDbLine
 10
1065.525999999998
 20
446.4419999999998
 30
0.0
 11
1065.525999999998
 21
447.4419999999998
 31
0.0
  0
LINE
  5
DA2
330
7F0
100
AcDbEntity
  8
0
  6
Continuous
 62
     1
100
AcDbLine
 10
1065.525999999998
 20
447.4419999999998
 30
0.0
 11
1066.526
 21
447.4419999999998
 31
0.0
  0
LINE
  5
DA3
330
7F0
100
AcDbEntity
  8
0
  6
Continuous
 62
     1
100
AcDbLine
 10
1066.526
 20
447.4419999999998
 30
0.0
 11
1066.526
 21
446.4419999999998
 31
0.0
  0
LINE
  5
DA4
330
7F0
100
AcDbEntity
  8
0
  6
Continuous
 62
     1
100
AcDbLine
 10
1066.526
 20
446.4419999999998
 30
0.0
 11
1065.525999999998
 21
446.4419999999998
 31
0.0
  0
LINE
  5
DA5
330
7F0
100
AcDbEntity
  8
0
  6
Continuous
 62
     1
100
AcDbLine
 10
1065.525999999998
 20
443.9419999999998
 30
0.0
 11
1065.525999999998
 21
444.9419999999998
 31
0.0
  0
LINE
  5
DA6
330
7F0
100
AcDbEntity
  8
0
  6
Continuous
 62
     1
100
AcDbLine
 10
1065.525999999998
 20
444.9419999999998
 30
0.0
 11
1066.526
 21
444.9419999999998
 31
0.0
  0
LINE
  5
DA7
330
7F0
100
AcDbEntity
  8
0
  6
Continuous
 62
     1
100
AcDbLine
 10
1066.526
 20
444.9419999999998
 30
0.0
 11
1066.526
 21
443.9419999999998
 31
0.0
  0
LINE
  5
DA8
330
7F0
100
AcDbEntity
  8
0
  6
Continuous
 62
     1
100
AcDbLine
 10
1066.526
 20
443.9419999999998
 30
0.0
 11
1065.525999999998
 21
443.9419999999998
 31
0.0
  0
LINE
  5
DA9
330
7F0
100
AcDbEntity
  8
0
  6
Continuous
 62
     1
100
AcDbLine
 10
1068.026
 20
446.4419999999998
 30
0.0
 11
1068.026
 21
447.4419999999998
 31
0.0
  0
LINE
  5
DAA
330
7F0
100
AcDbEntity
  8
0
  6
Continuous
 62
     1
100
AcDbLine
 10
1068.026
 20
447.4419999999998
 30
0.0
 11
1069.026
 21
447.4419999999998
 31
0.0
  0
LINE
  5
DAB
330
7F0
100
AcDbEntity
  8
0
  6
Continuous
 62
     1
100
AcDbLine
 10
1069.026
 20
447.4419999999998
 30
0.0
 11
1069.026
 21
446.4419999999998
 31
0.0
  0
LINE
  5
DAC
330
7F0
100
AcDbEntity
  8
0
  6
Continuous
 62
     1
100
AcDbLine
 10
1069.026
 20
446.4419999999998
 30
0.0
 11
1068.026
 21
446.4419999999998
 31
0.0
  0
LINE
  5
DAD
330
7F0
100
AcDbEntity
  8
0
  6
Continuous
 62
     1
100
AcDbLine
 10
1068.026
 20
443.9419999999998
 30
0.0
 11
1068.026
 21
444.9419999999998
 31
0.0
  0
LINE
  5
DAE
330
7F0
100
AcDbEntity
  8
0
  6
Continuous
 62
     1
100
AcDbLine
 10
1068.026
 20
444.9419999999998
 30
0.0
 11
1069.026
 21
444.9419999999998
 31
0.0
  0
LINE
  5
DAF
330
7F0
100
AcDbEntity
  8
0
  6
Continuous
 62
     1
100
AcDbLine
 10
1069.026
 20
444.9419999999998
 30
0.0
 11
1069.026
 21
443.9419999999998
 31
0.0
  0
LINE
  5
DB0
330
7F0
100
AcDbEntity
  8
0
  6
Continuous
 62
     1
100
AcDbLine
 10
1069.026
 20
443.9419999999998
 30
0.0
 11
1068.026
 21
443.9419999999998
 31
0.0
  0
LINE
  5
DB1
330
7F0
100
AcDbEntity
  8
0
  6
Continuous
 62
     1
100
AcDbLine
 10
1070.526
 20
446.4419999999998
 30
0.0
 11
1070.526
 21
447.4419999999998
 31
0.0
  0
LINE
  5
DB2
330
7F0
100
AcDbEntity
  8
0
  6
Continuous
 62
     1
100
AcDbLine
 10
1070.526
 20
447.4419999999998
 30
0.0
 11
1071.526
 21
447.4419999999998
 31
0.0
  0
LINE
  5
DB3
330
7F0
100
AcDbEntity
  8
0
  6
Continuous
 62
     1
100
AcDbLine
 10
1071.526
 20
447.4419999999998
 30
0.0
 11
1071.526
 21
446.4419999999998
 31
0.0
  0
LINE
  5
DB4
330
7F0
100
AcDbEntity
  8
0
  6
Continuous
 62
     1
100
AcDbLine
 10
1071.526
 20
446.4419999999998
 30
0.0
 11
1070.526
 21
446.4419999999998
 31
0.0
  0
LINE
  5
DB5
330
7F0
100
AcDbEntity
  8
0
  6
Continuous
 62
     1
100
AcDbLine
 10
1070.526
 20
443.9419999999998
 30
0.0
 11
1070.526
 21
444.9419999999998
 31
0.0
  0
LINE
  5
DB6
330
7F0
100
AcDbEntity
  8
0
  6
Continuous
 62
     1
100
AcDbLine
 10
1070.526
 20
444.9419999999998
 30
0.0
 11
1071.526
 21
444.9419999999998
 31
0.0
  0
LINE
  5
DB7
330
7F0
100
AcDbEntity
  8
0
  6
Continuous
 62
     1
100
AcDbLine
 10
1071.526
 20
444.9419999999998
 30
0.0
 11
1071.526
 21
443.9419999999998
 31
0.0
  0
LINE
  5
DB8
330
7F0
100
AcDbEntity
  8
0
  6
Continuous
 62
     1
100
AcDbLine
 10
1071.526
 20
443.9419999999998
 30
0.0
 11
1070.526
 21
443.9419999999998
 31
0.0
  0
LINE
  5
DB9
330
7F0
100
AcDbEntity
  8
0
  6
Continuous
 62
     1
100
AcDbLine
 10
1073.026
 20
446.4419999999998
 30
0.0
 11
1073.026
 21
447.4419999999998
 31
0.0
  0
LINE
  5
DBA
330
7F0
100
AcDbEntity
  8
0
  6
Continuous
 62
     1
100
AcDbLine
 10
1073.026
 20
447.4419999999998
 30
0.0
 11
1074.026
 21
447.4419999999998
 31
0.0
  0
LINE
  5
DBB
330
7F0
100
AcDbEntity
  8
0
  6
Continuous
 62
     1
100
AcDbLine
 10
1074.026
 20
447.4419999999998
 30
0.0
 11
1074.026
 21
446.4419999999998
 31
0.0
  0
LINE
  5
DBC
330
7F0
100
AcDbEntity
  8
0
  6
Continuous
 62
     1
100
AcDbLine
 10
1074.026
 20
446.4419999999998
 30
0.0
 11
1073.026
 21
446.4419999999998
 31
0.0
  0
LINE
  5
DBD
330
7F0
100
AcDbEntity
  8
0
  6
Continuous
 62
     1
100
AcDbLine
 10
1073.026
 20
443.9419999999998
 30
0.0
 11
1073.026
 21
444.9419999999998
 31
0.0
  0
LINE
  5
DBE
330
7F0
100
AcDbEntity
  8
0
  6
Continuous
 62
     1
100
AcDbLine
 10
1073.026
 20
444.9419999999998
 30
0.0
 11
1074.026
 21
444.9419999999998
 31
0.0
  0
LINE
  5
DBF
330
7F0
100
AcDbEntity
  8
0
  6
Continuous
 62
     1
100
AcDbLine
 10
1074.026
 20
444.9419999999998
 30
0.0
 11
1074.026
 21
443.9419999999998
 31
0.0
  0
LINE
  5
DC0
330
7F0
100
AcDbEntity
  8
0
  6
Continuous
 62
     1
100
AcDbLine
 10
1074.026
 20
443.9419999999998
 30
0.0
 11
1073.026
 21
443.9419999999998
 31
0.0
  0
LINE
  5
DC1
330
7F0
100
AcDbEntity
  8
0
  6
Continuous
 62
     1
100
AcDbLine
 10
1048.026
 20
446.4419999999998
 30
0.0
 11
1048.026
 21
447.4419999999998
 31
0.0
  0
LINE
  5
DC2
330
7F0
100
AcDbEntity
  8
0
  6
Continuous
 62
     1
100
AcDbLine
 10
1048.026
 20
447.4419999999998
 30
0.0
 11
1049.026
 21
447.4419999999998
 31
0.0
  0
LINE
  5
DC3
330
7F0
100
AcDbEntity
  8
0
  6
Continuous
 62
     1
100
AcDbLine
 10
1049.026
 20
447.4419999999998
 30
0.0
 11
1049.026
 21
446.4419999999998
 31
0.0
  0
LINE
  5
DC4
330
7F0
100
AcDbEntity
  8
0
  6
Continuous
 62
     1
100
AcDbLine
 10
1049.026
 20
446.4419999999998
 30
0.0
 11
1048.026
 21
446.4419999999998
 31
0.0
  0
LINE
  5
DC5
330
7F0
100
AcDbEntity
  8
0
  6
Continuous
 62
     1
100
AcDbLine
 10
1048.026
 20
443.9419999999998
 30
0.0
 11
1048.026
 21
444.9419999999998
 31
0.0
  0
LINE
  5
DC6
330
7F0
100
AcDbEntity
  8
0
  6
Continuous
 62
     1
100
AcDbLine
 10
1048.026
 20
444.9419999999998
 30
0.0
 11
1049.026
 21
444.9419999999998
 31
0.0
  0
LINE
  5
DC7
330
7F0
100
AcDbEntity
  8
0
  6
Continuous
 62
     1
100
AcDbLine
 10
1049.026
 20
444.9419999999998
 30
0.0
 11
1049.026
 21
443.9419999999998
 31
0.0
  0
LINE
  5
DC8
330
7F0
100
AcDbEntity
  8
0
  6
Continuous
 62
     1
100
AcDbLine
 10
1049.026
 20
443.9419999999998
 30
0.0
 11
1048.026
 21
443.9419999999998
 31
0.0
  0
LINE
  5
DC9
330
7F0
100
AcDbEntity
  8
0
  6
Continuous
 62
     1
100
AcDbLine
 10
1045.526
 20
446.4419999999998
 30
0.0
 11
1045.526
 21
447.4419999999998
 31
0.0
  0
LINE
  5
DCA
330
7F0
100
AcDbEntity
  8
0
  6
Continuous
 62
     1
100
AcDbLine
 10
1045.526
 20
447.4419999999998
 30
0.0
 11
1046.526
 21
447.4419999999998
 31
0.0
  0
LINE
  5
DCB
330
7F0
100
AcDbEntity
  8
0
  6
Continuous
 62
     1
100
AcDbLine
 10
1046.526
 20
447.4419999999998
 30
0.0
 11
1046.526
 21
446.4419999999998
 31
0.0
  0
LINE
  5
DCC
330
7F0
100
AcDbEntity
  8
0
  6
Continuous
 62
     1
100
AcDbLine
 10
1046.526
 20
446.4419999999998
 30
0.0
 11
1045.526
 21
446.4419999999998
 31
0.0
  0
LINE
  5
DCD
330
7F0
100
AcDbEntity
  8
0
  6
Continuous
 62
     1
100
AcDbLine
 10
1045.526
 20
443.9419999999998
 30
0.0
 11
1045.526
 21
444.9419999999998
 31
0.0
  0
LINE
  5
DCE
330
7F0
100
AcDbEntity
  8
0
  6
Continuous
 62
     1
100
AcDbLine
 10
1045.526
 20
444.9419999999998
 30
0.0
 11
1046.526
 21
444.9419999999998
 31
0.0
  0
LINE
  5
DCF
330
7F0
100
AcDbEntity
  8
0
  6
Continuous
 62
     1
100
AcDbLine
 10
1046.526
 20
444.9419999999998
 30
0.0
 11
1046.526
 21
443.9419999999998
 31
0.0
  0
LINE
  5
DD0
330
7F0
100
AcDbEntity
  8
0
  6
Continuous
 62
     1
100
AcDbLine
 10
1046.526
 20
443.9419999999998
 30
0.0
 11
1045.526
 21
443.9419999999998
 31
0.0
  0
LINE
  5
DD1
330
7F0
100
AcDbEntity
  8
0
  6
Continuous
 62
     1
100
AcDbLine
 10
1043.026
 20
446.4419999999998
 30
0.0
 11
1043.026
 21
447.4419999999998
 31
0.0
  0
LINE
  5
DD2
330
7F0
100
AcDbEntity
  8
0
  6
Continuous
 62
     1
100
AcDbLine
 10
1043.026
 20
447.4419999999998
 30
0.0
 11
1044.026
 21
447.4419999999998
 31
0.0
  0
LINE
  5
DD3
330
7F0
100
AcDbEntity
  8
0
  6
Continuous
 62
     1
100
AcDbLine
 10
1044.026
 20
447.4419999999998
 30
0.0
 11
1044.026
 21
446.4419999999998
 31
0.0
  0
LINE
  5
DD4
330
7F0
100
AcDbEntity
  8
0
  6
Continuous
 62
     1
100
AcDbLine
 10
1044.026
 20
446.4419999999998
 30
0.0
 11
1043.026
 21
446.4419999999998
 31
0.0
  0
LINE
  5
DD5
330
7F0
100
AcDbEntity
  8
0
  6
Continuous
 62
     1
100
AcDbLine
 10
1043.026
 20
443.9419999999998
 30
0.0
 11
1043.026
 21
444.9419999999998
 31
0.0
  0
LINE
  5
DD6
330
7F0
100
AcDbEntity
  8
0
  6
Continuous
 62
     1
100
AcDbLine
 10
1043.026
 20
444.9419999999998
 30
0.0
 11
1044.026
 21
444.9419999999998
 31
0.0
  0
LINE
  5
DD7
330
7F0
100
AcDbEntity
  8
0
  6
Continuous
 62
     1
100
AcDbLine
 10
1044.026
 20
444.9419999999998
 30
0.0
 11
1044.026
 21
443.9419999999998
 31
0.0
  0
LINE
  5
DD8
330
7F0
100
AcDbEntity
  8
0
  6
Continuous
 62
     1
100
AcDbLine
 10
1044.026
 20
443.9419999999998
 30
0.0
 11
1043.026
 21
443.9419999999998
 31
0.0
  0
LINE
  5
DD9
330
7F0
100
AcDbEntity
  8
0
  6
Continuous
 62
     1
100
AcDbLine
 10
1040.526
 20
446.4419999999998
 30
0.0
 11
1040.526
 21
447.4419999999998
 31
0.0
  0
LINE
  5
DDA
330
7F0
100
AcDbEntity
  8
0
  6
Continuous
 62
     1
100
AcDbLine
 10
1040.526
 20
447.4419999999998
 30
0.0
 11
1041.526
 21
447.4419999999998
 31
0.0
  0
LINE
  5
DDB
330
7F0
100
AcDbEntity
  8
0
  6
Continuous
 62
     1
100
AcDbLine
 10
1041.526
 20
447.4419999999998
 30
0.0
 11
1041.526
 21
446.4419999999998
 31
0.0
  0
LINE
  5
DDC
330
7F0
100
AcDbEntity
  8
0
  6
Continuous
 62
     1
100
AcDbLine
 10
1041.526
 20
446.4419999999998
 30
0.0
 11
1040.526
 21
446.4419999999998
 31
0.0
  0
LINE
  5
DDD
330
7F0
100
AcDbEntity
  8
0
  6
Continuous
 62
     1
100
AcDbLine
 10
1040.526
 20
443.9419999999998
 30
0.0
 11
1040.526
 21
444.9419999999998
 31
0.0
  0
LINE
  5
DDE
330
7F0
100
AcDbEntity
  8
0
  6
Continuous
 62
     1
100
AcDbLine
 10
1040.526
 20
444.9419999999998
 30
0.0
 11
1041.526
 21
444.9419999999998
 31
0.0
  0
LINE
  5
DDF
330
7F0
100
AcDbEntity
  8
0
  6
Continuous
 62
     1
100
AcDbLine
 10
1041.526
 20
444.9419999999998
 30
0.0
 11
1041.526
 21
443.9419999999998
 31
0.0
  0
LINE
  5
DE0
330
7F0
100
AcDbEntity
  8
0
  6
Continuous
 62
     1
100
AcDbLine
 10
1041.526
 20
443.9419999999998
 30
0.0
 11
1040.526
 21
443.9419999999998
 31
0.0
  0
LINE
  5
DE1
330
7F0
100
AcDbEntity
  8
0
  6
Continuous
 62
     1
100
AcDbLine
 10
1038.026
 20
446.4419999999998
 30
0.0
 11
1038.026
 21
447.4419999999998
 31
0.0
  0
LINE
  5
DE2
330
7F0
100
AcDbEntity
  8
0
  6
Continuous
 62
     1
100
AcDbLine
 10
1038.026
 20
447.4419999999998
 30
0.0
 11
1039.026
 21
447.4419999999998
 31
0.0
  0
LINE
  5
DE3
330
7F0
100
AcDbEntity
  8
0
  6
Continuous
 62
     1
100
AcDbLine
 10
1039.026
 20
447.4419999999998
 30
0.0
 11
1039.026
 21
446.4419999999998
 31
0.0
  0
LINE
  5
DE4
330
7F0
100
AcDbEntity
  8
0
  6
Continuous
 62
     1
100
AcDbLine
 10
1039.026
 20
446.4419999999998
 30
0.0
 11
1038.026
 21
446.4419999999998
 31
0.0
  0
LINE
  5
DE5
330
7F0
100
AcDbEntity
  8
0
  6
Continuous
 62
     1
100
AcDbLine
 10
1038.026
 20
443.9419999999998
 30
0.0
 11
1038.026
 21
444.9419999999998
 31
0.0
  0
LINE
  5
DE6
330
7F0
100
AcDbEntity
  8
0
  6
Continuous
 62
     1
100
AcDbLine
 10
1038.026
 20
444.9419999999998
 30
0.0
 11
1039.026
 21
444.9419999999998
 31
0.0
  0
LINE
  5
DE7
330
7F0
100
AcDbEntity
  8
0
  6
Continuous
 62
     1
100
AcDbLine
 10
1039.026
 20
444.9419999999998
 30
0.0
 11
1039.026
 21
443.9419999999998
 31
0.0
  0
LINE
  5
DE8
330
7F0
100
AcDbEntity
  8
0
  6
Continuous
 62
     1
100
AcDbLine
 10
1039.026
 20
443.9419999999998
 30
0.0
 11
1038.026
 21
443.9419999999998
 31
0.0
  0
LINE
  5
DE9
330
7F0
100
AcDbEntity
  8
0
  6
Continuous
 62
     1
100
AcDbLine
 10
1035.526
 20
446.4419999999998
 30
0.0
 11
1035.526
 21
447.4419999999998
 31
0.0
  0
LINE
  5
DEA
330
7F0
100
AcDbEntity
  8
0
  6
Continuous
 62
     1
100
AcDbLine
 10
1035.526
 20
447.4419999999998
 30
0.0
 11
1036.526
 21
447.4419999999998
 31
0.0
  0
LINE
  5
DEB
330
7F0
100
AcDbEntity
  8
0
  6
Continuous
 62
     1
100
AcDbLine
 10
1036.526
 20
447.4419999999998
 30
0.0
 11
1036.526
 21
446.4419999999998
 31
0.0
  0
LINE
  5
DEC
330
7F0
100
AcDbEntity
  8
0
  6
Continuous
 62
     1
100
AcDbLine
 10
1036.526
 20
446.4419999999998
 30
0.0
 11
1035.526
 21
446.4419999999998
 31
0.0
  0
LINE
  5
DED
330
7F0
100
AcDbEntity
  8
0
  6
Continuous
 62
     1
100
AcDbLine
 10
1035.526
 20
443.9419999999998
 30
0.0
 11
1035.526
 21
444.9419999999998
 31
0.0
  0
LINE
  5
DEE
330
7F0
100
AcDbEntity
  8
0
  6
Continuous
 62
     1
100
AcDbLine
 10
1035.526
 20
444.9419999999998
 30
0.0
 11
1036.526
 21
444.9419999999998
 31
0.0
  0
LINE
  5
DEF
330
7F0
100
AcDbEntity
  8
0
  6
Continuous
 62
     1
100
AcDbLine
 10
1036.526
 20
444.9419999999998
 30
0.0
 11
1036.526
 21
443.9419999999998
 31
0.0
  0
LINE
  5
DF0
330
7F0
100
AcDbEntity
  8
0
  6
Continuous
 62
     1
100
AcDbLine
 10
1036.526
 20
443.9419999999998
 30
0.0
 11
1035.526
 21
443.9419999999998
 31
0.0
  0
LINE
  5
DF1
330
7F0
100
AcDbEntity
  8
0
  6
Continuous
 62
     1
100
AcDbLine
 10
1033.026
 20
446.4419999999998
 30
0.0
 11
1033.026
 21
447.4419999999998
 31
0.0
  0
LINE
  5
DF2
330
7F0
100
AcDbEntity
  8
0
  6
Continuous
 62
     1
100
AcDbLine
 10
1033.026
 20
447.4419999999998
 30
0.0
 11
1034.026
 21
447.4419999999998
 31
0.0
  0
LINE
  5
DF3
330
7F0
100
AcDbEntity
  8
0
  6
Continuous
 62
     1
100
AcDbLine
 10
1034.026
 20
447.4419999999998
 30
0.0
 11
1034.026
 21
446.4419999999998
 31
0.0
  0
LINE
  5
DF4
330
7F0
100
AcDbEntity
  8
0
  6
Continuous
 62
     1
100
AcDbLine
 10
1034.026
 20
446.4419999999998
 30
0.0
 11
1033.026
 21
446.4419999999998
 31
0.0
  0
LINE
  5
DF5
330
7F0
100
AcDbEntity
  8
0
  6
Continuous
 62
     1
100
AcDbLine
 10
1033.026
 20
443.9419999999998
 30
0.0
 11
1033.026
 21
444.9419999999998
 31
0.0
  0
LINE
  5
DF6
330
7F0
100
AcDbEntity
  8
0
  6
Continuous
 62
     1
100
AcDbLine
 10
1033.026
 20
444.9419999999998
 30
0.0
 11
1034.026
 21
444.9419999999998
 31
0.0
  0
LINE
  5
DF7
330
7F0
100
AcDbEntity
  8
0
  6
Continuous
 62
     1
100
AcDbLine
 10
1034.026
 20
444.9419999999998
 30
0.0
 11
1034.026
 21
443.9419999999998
 31
0.0
  0
LINE
  5
DF8
330
7F0
100
AcDbEntity
  8
0
  6
Continuous
 62
     1
100
AcDbLine
 10
1034.026
 20
443.9419999999998
 30
0.0
 11
1033.026
 21
443.9419999999998
 31
0.0
  0
LINE
  5
DF9
330
7F0
100
AcDbEntity
  8
0
  6
Continuous
 62
     1
100
AcDbLine
 10
1030.526
 20
446.4419999999998
 30
0.0
 11
1030.526
 21
447.4419999999998
 31
0.0
  0
LINE
  5
DFA
330
7F0
100
AcDbEntity
  8
0
  6
Continuous
 62
     1
100
AcDbLine
 10
1030.526
 20
447.4419999999998
 30
0.0
 11
1031.526
 21
447.4419999999998
 31
0.0
  0
LINE
  5
DFB
330
7F0
100
AcDbEntity
  8
0
  6
Continuous
 62
     1
100
AcDbLine
 10
1031.526
 20
447.4419999999998
 30
0.0
 11
1031.526
 21
446.4419999999998
 31
0.0
  0
LINE
  5
DFC
330
7F0
100
AcDbEntity
  8
0
  6
Continuous
 62
     1
100
AcDbLine
 10
1031.526
 20
446.4419999999998
 30
0.0
 11
1030.526
 21
446.4419999999998
 31
0.0
  0
LINE
  5
DFD
330
7F0
100
AcDbEntity
  8
0
  6
Continuous
 62
     1
100
AcDbLine
 10
1030.526
 20
443.9419999999998
 30
0.0
 11
1030.526
 21
444.9419999999998
 31
0.0
  0
LINE
  5
DFE
330
7F0
100
AcDbEntity
  8
0
  6
Continuous
 62
     1
100
AcDbLine
 10
1030.526
 20
444.9419999999998
 30
0.0
 11
1031.526
 21
444.9419999999998
 31
0.0
  0
LINE
  5
DFF
330
7F0
100
AcDbEntity
  8
0
  6
Continuous
 62
     1
100
AcDbLine
 10
1031.526
 20
444.9419999999998
 30
0.0
 11
1031.526
 21
443.9419999999998
 31
0.0
  0
LINE
  5
E00
330
7F0
100
AcDbEntity
  8
0
  6
Continuous
 62
     1
100
AcDbLine
 10
1031.526
 20
443.9419999999998
 30
0.0
 11
1030.526
 21
443.9419999999998
 31
0.0
  0
ARC
  5
E01
330
7F0
100
AcDbEntity
  8
0
  6
Continuous
 62
     1
100
AcDbCircle
 10
1028.976
 20
442.9419999999998
 30
0.0
 40
1.0
100
AcDbArc
 50
168.6999999999999
 51
270.0
  0
LINE
  5
E02
330
7F0
100
AcDbEntity
  8
0
  6
Continuous
 62
     1
100
AcDbLine
 10
1028.026
 20
443.142
 30
0.0
 11
1029.125999999997
 21
448.6419999999998
 31
0.0
  0
ARC
  5
E03
330
7F0
100
AcDbEntity
  8
0
  6
Continuous
 62
     1
100
AcDbCircle
 10
1030.125999999998
 20
448.4419999999998
 30
0.0
 40
1.0
100
AcDbArc
 50
90.0
 51
169.9
  0
LINE
  5
E04
330
7F0
100
AcDbEntity
  8
0
  6
Continuous
 62
     1
100
AcDbLine
 10
1030.125999999998
 20
449.4419999999998
 30
0.0
 11
1074.476
 21
449.4419999999998
 31
0.0
  0
ARC
  5
E05
330
7F0
100
AcDbEntity
  8
0
  6
Continuous
 62
     1
100
AcDbCircle
 10
1074.476
 20
448.4419999999998
 30
0.0
 40
1.0
100
AcDbArc
 50
11.4
 51
90.0
  0
LINE
  5
E06
330
7F0
100
AcDbEntity
  8
0
  6
Continuous
 62
     1
100
AcDbLine
 10
1075.425999999999
 20
448.6419999999998
 30
0.0
 11
1076.526
 21
443.142
 31
0.0
  0
ARC
  5
E07
330
7F0
100
AcDbEntity
  8
0
  6
Continuous
 62
     1
100
AcDbCircle
 10
1075.526
 20
442.9419999999998
 30
0.0
 40
1.0
100
AcDbArc
 50
270.0
 51
12.0
  0
LINE
  5
E08
330
7F0
100
AcDbEntity
  8
0
  6
Continuous
 62
     1
100
AcDbLine
 10
1075.526
 20
441.9419999999998
 30
0.0
 11
1028.976
 21
441.9419999999998
 31
0.0
  0
ARC
  5
E09
330
7F0
100
AcDbEntity
  8
0
  6
Continuous
 62
     1
100
AcDbCircle
 10
1025.776
 20
458.6919999999998
 30
0.0
 40
1.0
100
AcDbArc
 50
90.0
 51
180.0
  0
ARC
  5
E0A
330
7F0
100
AcDbEntity
  8
0
  6
Continuous
 62
     1
100
AcDbCircle
 10
1025.776
 20
432.6919999999998
 30
0.0
 40
1.0
100
AcDbArc
 50
180.0
 51
270.0
  0
LINE
  5
E0B
330
7F0
100
AcDbEntity
  8
0
  6
Continuous
 62
     1
100
AcDbLine
 10
1024.776
 20
432.6919999999998
 30
0.0
 11
1024.776
 21
458.6919999999998
 31
0.0
  0
ARC
  5
E0C
330
7F0
100
AcDbEntity
  8
0
  6
Continuous
 62
     1
100
AcDbCircle
 10
1078.776
 20
432.6919999999998
 30
0.0
 40
1.0
100
AcDbArc
 50
270.0
 51
0.0
  0
LINE
  5
E0D
330
7F0
100
AcDbEntity
  8
0
  6
Continuous
 62
     1
100
AcDbLine
 10
1078.776
 20
431.6919999999998
 30
0.0
 11
1025.776
 21
431.6919999999998
 31
0.0
  0
LINE
  5
E0E
330
7F0
100
AcDbEntity
  8
0
  6
Continuous
 62
     1
100
AcDbLine
 10
1025.776
 20
459.6919999999998
 30
0.0
 11
1078.776
 21
459.6919999999998
 31
0.0
  0
ARC
  5
E0F
330
7F0
100
AcDbEntity
  8
0
  6
Continuous
 62
     1
100
AcDbCircle
 10
1078.776
 20
458.6919999999998
 30
0.0
 40
1.0
100
AcDbArc
 50
0.0
 51
90.0
  0
LINE
  5
E10
330
7F0
100
AcDbEntity
  8
0
  6
Continuous
 62
     1
100
AcDbLine
 10
1079.776
 20
458.6919999999998
 30
0.0
 11
1079.776
 21
432.6919999999998
 31
0.0
  0
LINE
  5
E11
330
7F0
100
AcDbEntity
  8
0
  6
Continuous
 62
     6
100
AcDbLine
 10
1024.776
 20
460.1919999999998
 30
0.0
 11
1024.776
 21
485.6919999999998
 31
0.0
  0
LINE
  5
E12
330
7F0
100
AcDbEntity
  8
0
  6
Continuous
 62
     6
100
AcDbLine
 10
1027.776
 20
444.1919999999998
 30
0.0
 11
1027.776
 21
480.6919999999998
 31
0.0
  0
LINE
  5
E13
330
7F0
100
AcDbEntity
  8
0
  6
Continuous
 62
     6
100
AcDbLine
 10
1029.276
 20
449.6919999999998
 30
0.0
 11
1029.276
 21
475.692
 31
0.0
  0
LINE
  5
E14
330
7F0
100
AcDbEntity
  8
0
  6
Continuous
 62
     6
100
AcDbLine
 10
1031.026
 20
455.4419999999998
 30
0.0
 11
1031.026
 21
470.6919999999998
 31
0.0
  0
LINE
  5
E15
330
7F0
100
AcDbEntity
  8
0
  6
Continuous
 62
     6
100
AcDbLine
 10
1073.525999999998
 20
454.4419999999998
 30
0.0
 11
1073.525999999998
 21
470.6919999999998
 31
0.0
  0
LINE
  5
E16
330
7F0
100
AcDbEntity
  8
0
  6
Continuous
 62
     6
100
AcDbLine
 10
1075.276
 20
449.6919999999998
 30
0.0
 11
1075.276
 21
475.692
 31
0.0
  0
LINE
  5
E17
330
7F0
100
AcDbEntity
  8
0
  6
Continuous
 62
     6
100
AcDbLine
 10
1076.776
 20
480.6919999999998
 30
0.0
 11
1076.776
 21
443.6919999999998
 31
0.0
  0
LINE
  5
E18
330
7F0
100
AcDbEntity
  8
0
  6
Continuous
 62
     6
100
AcDbLine
 10
1079.776
 20
459.6919999999998
 30
0.0
 11
1079.776
 21
485.6919999999998
 31
0.0
  0
LINE
  5
E19
330
7F0
100
AcDbEntity
  8
0
  6
Continuous
 62
     6
100
AcDbLine
 10
1025.976
 20
484.3919999999998
 30
0.0
 11
1024.776
 21
484.6919999999998
 31
0.0
  0
LINE
  5
E1A
330
7F0
100
AcDbEntity
  8
0
  6
Continuous
 62
     6
100
AcDbLine
 10
1024.776
 20
484.6919999999998
 30
0.0
 11
1025.976
 21
484.992
 31
0.0
  0
LINE
  5
E1B
330
7F0
100
AcDbEntity
  8
0
  6
Continuous
 62
     6
100
AcDbLine
 10
1024.776
 20
484.6919999999998
 30
0.0
 11
1079.776
 21
484.6919999999998
 31
0.0
  0
LINE
  5
E1C
330
7F0
100
AcDbEntity
  8
0
  6
Continuous
 62
     6
100
AcDbLine
 10
1078.575999999997
 20
484.3919999999998
 30
0.0
 11
1079.776
 21
484.6919999999998
 31
0.0
  0
LINE
  5
E1D
330
7F0
100
AcDbEntity
  8
0
  6
Continuous
 62
     6
100
AcDbLine
 10
1079.776
 20
484.6919999999998
 30
0.0
 11
1078.575999999997
 21
484.992
 31
0.0
  0
TEXT
  5
E1E
330
7F0
100
AcDbEntity
  8
0
  6
Continuous
 62
     6
100
AcDbText
 10
1051.476
 20
485.4419999999998
 30
0.1875
 40
1.5
  1
５５
 41
0.75
  7
KANJI2
100
AcDbText
  0
LINE
  5
E1F
330
7F0
100
AcDbEntity
  8
0
  6
Continuous
 62
     6
100
AcDbLine
 10
1075.576
 20
479.9919999999998
 30
0.1875
 11
1076.776
 21
479.6919999999998
 31
0.1875
  0
LINE
  5
E20
330
7F0
100
AcDbEntity
  8
0
  6
Continuous
 62
     6
100
AcDbLine
 10
1076.776
 20
479.6919999999998
 30
0.0
 11
1075.576
 21
479.3919999999998
 31
0.0
  0
LINE
  5
E21
330
7F0
100
AcDbEntity
  8
0
  6
Continuous
 62
     6
100
AcDbLine
 10
1076.776
 20
479.6919999999998
 30
0.0
 11
1027.776
 21
479.6919999999998
 31
0.0
  0
LINE
  5
E22
330
7F0
100
AcDbEntity
  8
0
  6
Continuous
 62
     6
100
AcDbLine
 10
1028.976
 20
479.9919999999998
 30
0.0
 11
1027.776
 21
479.6919999999998
 31
0.0
  0
LINE
  5
E23
330
7F0
100
AcDbEntity
  8
0
  6
Continuous
 62
     6
100
AcDbLine
 10
1027.776
 20
479.6919999999998
 30
0.0
 11
1028.976
 21
479.3919999999998
 31
0.0
  0
TEXT
  5
E24
330
7F0
100
AcDbEntity
  8
0
  6
Continuous
 62
     6
100
AcDbText
 10
1051.476
 20
480.4419999999998
 30
0.1875
 40
1.5
  1
４９
 41
0.75
  7
KANJI2
100
AcDbText
  0
LINE
  5
E25
330
7F0
100
AcDbEntity
  8
0
  6
Continuous
 62
     6
100
AcDbLine
 10
1074.076
 20
474.9919999999998
 30
0.1875
 11
1075.276
 21
474.6919999999998
 31
0.1875
  0
LINE
  5
E26
330
7F0
100
AcDbEntity
  8
0
  6
Continuous
 62
     6
100
AcDbLine
 10
1075.276
 20
474.6919999999998
 30
0.0
 11
1074.076
 21
474.392
 31
0.0
  0
LINE
  5
E27
330
7F0
100
AcDbEntity
  8
0
  6
Continuous
 62
     6
100
AcDbLine
 10
1075.276
 20
474.6919999999998
 30
0.0
 11
1029.276
 21
474.6919999999998
 31
0.0
  0
LINE
  5
E28
330
7F0
100
AcDbEntity
  8
0
  6
Continuous
 62
     6
100
AcDbLine
 10
1030.476
 20
474.9919999999998
 30
0.0
 11
1029.276
 21
474.6919999999998
 31
0.0
  0
LINE
  5
E29
330
7F0
100
AcDbEntity
  8
0
  6
Continuous
 62
     6
100
AcDbLine
 10
1029.276
 20
474.6919999999998
 30
0.0
 11
1030.476
 21
474.392
 31
0.0
  0
TEXT
  5
E2A
330
7F0
100
AcDbEntity
  8
0
  6
Continuous
 62
     6
100
AcDbText
 10
1051.476
 20
475.4419999999998
 30
0.1875
 40
1.5
  1
４６
 41
0.75
  7
KANJI2
100
AcDbText
  0
LINE
  5
E2B
330
7F0
100
AcDbEntity
  8
0
  6
Continuous
 62
     6
100
AcDbLine
 10
1072.326
 20
469.9919999999998
 30
0.1875
 11
1073.525999999998
 21
469.6919999999998
 31
0.1875
  0
LINE
  5
E2C
330
7F0
100
AcDbEntity
  8
0
  6
Continuous
 62
     6
100
AcDbLine
 10
1073.525999999998
 20
469.6919999999998
 30
0.0
 11
1072.326
 21
469.392
 31
0.0
  0
LINE
  5
E2D
330
7F0
100
AcDbEntity
  8
0
  6
Continuous
 62
     6
100
AcDbLine
 10
1073.525999999998
 20
469.6919999999998
 30
0.0
 11
1031.026
 21
469.6919999999998
 31
0.0
  0
LINE
  5
E2E
330
7F0
100
AcDbEntity
  8
0
  6
Continuous
 62
     6
100
AcDbLine
 10
1032.226
 20
469.9919999999998
 30
0.0
 11
1031.026
 21
469.6919999999998
 31
0.0
  0
LINE
  5
E2F
330
7F0
100
AcDbEntity
  8
0
  6
Continuous
 62
     6
100
AcDbLine
 10
1031.026
 20
469.6919999999998
 30
0.0
 11
1032.226
 21
469.392
 31
0.0
  0
TEXT
  5
E30
330
7F0
100
AcDbEntity
  8
0
  6
Continuous
 62
     6
100
AcDbText
 10
1047.675999999998
 20
470.4419999999998
 30
0.1875
 40
1.5
  1
２．５　Ｘ　１７
 41
0.75
  7
KANJI2
100
AcDbText
  0
LINE
  5
E31
330
7F0
100
AcDbEntity
  8
0
  6
Continuous
 62
     6
100
AcDbLine
 10
1080.276
 20
459.6919999999998
 30
0.1875
 11
1102.276
 21
459.6919999999998
 31
0.1875
  0
LINE
  5
E32
330
7F0
100
AcDbEntity
  8
0
  6
Continuous
 62
     6
100
AcDbLine
 10
1102.276
 20
431.6919999999998
 30
0.0
 11
1080.276
 21
431.6919999999998
 31
0.0
  0
LINE
  5
E33
330
7F0
100
AcDbEntity
  8
0
  6
Continuous
 62
     6
100
AcDbLine
 10
1100.976
 20
458.4919999999998
 30
0.0
 11
1101.276
 21
459.6919999999998
 31
0.0
  0
LINE
  5
E34
330
7F0
100
AcDbEntity
  8
0
  6
Continuous
 62
     6
100
AcDbLine
 10
1101.276
 20
459.6919999999998
 30
0.0
 11
1101.576
 21
458.4919999999998
 31
0.0
  0
LINE
  5
E35
330
7F0
100
AcDbEntity
  8
0
  6
Continuous
 62
     6
100
AcDbLine
 10
1101.276
 20
459.6919999999998
 30
0.0
 11
1101.276
 21
431.6919999999998
 31
0.0
  0
LINE
  5
E36
330
7F0
100
AcDbEntity
  8
0
  6
Continuous
 62
     6
100
AcDbLine
 10
1100.976
 20
432.892
 30
0.0
 11
1101.276
 21
431.6919999999998
 31
0.0
  0
LINE
  5
E37
330
7F0
100
AcDbEntity
  8
0
  6
Continuous
 62
     6
100
AcDbLine
 10
1101.276
 20
431.6919999999998
 30
0.0
 11
1101.576
 21
432.892
 31
0.0
  0
TEXT
  5
E38
330
7F0
100
AcDbEntity
  8
0
  6
Continuous
 62
     6
100
AcDbText
 10
1100.526
 20
444.892
 30
0.1875
 40
1.5
  1
２８
 50
90.0
 41
0.75
  7
KANJI2
100
AcDbText
  0
LINE
  5
E39
330
7F0
100
AcDbEntity
  8
0
  6
Continuous
 62
     6
100
AcDbLine
 10
1024.776
 20
460.1919999999998
 30
0.1875
 11
1024.776
 21
485.6919999999998
 31
0.1875
  0
LINE
  5
E3A
330
7F0
100
AcDbEntity
  8
0
  6
Continuous
 62
     6
100
AcDbLine
 10
1027.776
 20
444.1919999999998
 30
0.0
 11
1027.776
 21
480.6919999999998
 31
0.0
  0
LINE
  5
E3B
330
7F0
100
AcDbEntity
  8
0
  6
Continuous
 62
     6
100
AcDbLine
 10
1029.276
 20
449.6919999999998
 30
0.0
 11
1029.276
 21
475.692
 31
0.0
  0
LINE
  5
E3C
330
7F0
100
AcDbEntity
  8
0
  6
Continuous
 62
     6
100
AcDbLine
 10
1031.026
 20
455.4419999999998
 30
0.0
 11
1031.026
 21
470.6919999999998
 31
0.0
  0
LINE
  5
E3D
330
7F0
100
AcDbEntity
  8
0
  6
Continuous
 62
     6
100
AcDbLine
 10
1073.525999999998
 20
454.4419999999998
 30
0.0
 11
1073.525999999998
 21
470.6919999999998
 31
0.0
  0
LINE
  5
E3E
330
7F0
100
AcDbEntity
  8
0
  6
Continuous
 62
     6
100
AcDbLine
 10
1075.276
 20
449.6919999999998
 30
0.0
 11
1075.276
 21
475.692
 31
0.0
  0
LINE
  5
E3F
330
7F0
100
AcDbEntity
  8
0
  6
Continuous
 62
     6
100
AcDbLine
 10
1076.776
 20
480.6919999999998
 30
0.0
 11
1076.776
 21
443.6919999999998
 31
0.0
  0
LINE
  5
E40
330
7F0
100
AcDbEntity
  8
0
  6
Continuous
 62
     6
100
AcDbLine
 10
1079.776
 20
459.6919999999998
 30
0.0
 11
1079.776
 21
485.6919999999998
 31
0.0
  0
LINE
  5
E41
330
7F0
100
AcDbEntity
  8
0
  6
Continuous
 62
     6
100
AcDbLine
 10
1025.976
 20
484.3919999999998
 30
0.0
 11
1024.776
 21
484.6919999999998
 31
0.0
  0
LINE
  5
E42
330
7F0
100
AcDbEntity
  8
0
  6
Continuous
 62
     6
100
AcDbLine
 10
1024.776
 20
484.6919999999998
 30
0.0
 11
1025.976
 21
484.992
 31
0.0
  0
LINE
  5
E43
330
7F0
100
AcDbEntity
  8
0
  6
Continuous
 62
     6
100
AcDbLine
 10
1024.776
 20
484.6919999999998
 30
0.0
 11
1079.776
 21
484.6919999999998
 31
0.0
  0
LINE
  5
E44
330
7F0
100
AcDbEntity
  8
0
  6
Continuous
 62
     6
100
AcDbLine
 10
1078.575999999997
 20
484.3919999999998
 30
0.0
 11
1079.776
 21
484.6919999999998
 31
0.0
  0
LINE
  5
E45
330
7F0
100
AcDbEntity
  8
0
  6
Continuous
 62
     6
100
AcDbLine
 10
1079.776
 20
484.6919999999998
 30
0.0
 11
1078.575999999997
 21
484.992
 31
0.0
  0
TEXT
  5
E46
330
7F0
100
AcDbEntity
  8
0
  6
Continuous
 62
     6
100
AcDbText
 10
1051.476
 20
485.4419999999998
 30
0.1875
 40
1.5
  1
５５
 41
0.75
  7
KANJI2
100
AcDbText
  0
LINE
  5
E47
330
7F0
100
AcDbEntity
  8
0
  6
Continuous
 62
     6
100
AcDbLine
 10
1075.576
 20
479.9919999999998
 30
0.1875
 11
1076.776
 21
479.6919999999998
 31
0.1875
  0
LINE
  5
E48
330
7F0
100
AcDbEntity
  8
0
  6
Continuous
 62
     6
100
AcDbLine
 10
1076.776
 20
479.6919999999998
 30
0.0
 11
1075.576
 21
479.3919999999998
 31
0.0
  0
LINE
  5
E49
330
7F0
100
AcDbEntity
  8
0
  6
Continuous
 62
     6
100
AcDbLine
 10
1076.776
 20
479.6919999999998
 30
0.0
 11
1027.776
 21
479.6919999999998
 31
0.0
  0
LINE
  5
E4A
330
7F0
100
AcDbEntity
  8
0
  6
Continuous
 62
     6
100
AcDbLine
 10
1028.976
 20
479.9919999999998
 30
0.0
 11
1027.776
 21
479.6919999999998
 31
0.0
  0
LINE
  5
E4B
330
7F0
100
AcDbEntity
  8
0
  6
Continuous
 62
     6
100
AcDbLine
 10
1027.776
 20
479.6919999999998
 30
0.0
 11
1028.976
 21
479.3919999999998
 31
0.0
  0
TEXT
  5
E4C
330
7F0
100
AcDbEntity
  8
0
  6
Continuous
 62
     6
100
AcDbText
 10
1051.476
 20
480.4419999999998
 30
0.1875
 40
1.5
  1
４９
 41
0.75
  7
KANJI2
100
AcDbText
  0
LINE
  5
E4D
330
7F0
100
AcDbEntity
  8
0
  6
Continuous
 62
     6
100
AcDbLine
 10
1074.076
 20
474.9919999999998
 30
0.1875
 11
1075.276
 21
474.6919999999998
 31
0.1875
  0
LINE
  5
E4E
330
7F0
100
AcDbEntity
  8
0
  6
Continuous
 62
     6
100
AcDbLine
 10
1075.276
 20
474.6919999999998
 30
0.0
 11
1074.076
 21
474.392
 31
0.0
  0
LINE
  5
E4F
330
7F0
100
AcDbEntity
  8
0
  6
Continuous
 62
     6
100
AcDbLine
 10
1075.276
 20
474.6919999999998
 30
0.0
 11
1029.276
 21
474.6919999999998
 31
0.0
  0
LINE
  5
E50
330
7F0
100
AcDbEntity
  8
0
  6
Continuous
 62
     6
100
AcDbLine
 10
1030.476
 20
474.9919999999998
 30
0.0
 11
1029.276
 21
474.6919999999998
 31
0.0
  0
LINE
  5
E51
330
7F0
100
AcDbEntity
  8
0
  6
Continuous
 62
     6
100
AcDbLine
 10
1029.276
 20
474.6919999999998
 30
0.0
 11
1030.476
 21
474.392
 31
0.0
  0
TEXT
  5
E52
330
7F0
100
AcDbEntity
  8
0
  6
Continuous
 62
     6
100
AcDbText
 10
1051.476
 20
475.4419999999998
 30
0.1875
 40
1.5
  1
４６
 41
0.75
  7
KANJI2
100
AcDbText
  0
LINE
  5
E53
330
7F0
100
AcDbEntity
  8
0
  6
Continuous
 62
     6
100
AcDbLine
 10
1072.326
 20
469.9919999999998
 30
0.1875
 11
1073.525999999998
 21
469.6919999999998
 31
0.1875
  0
LINE
  5
E54
330
7F0
100
AcDbEntity
  8
0
  6
Continuous
 62
     6
100
AcDbLine
 10
1073.525999999998
 20
469.6919999999998
 30
0.0
 11
1072.326
 21
469.392
 31
0.0
  0
LINE
  5
E55
330
7F0
100
AcDbEntity
  8
0
  6
Continuous
 62
     6
100
AcDbLine
 10
1073.525999999998
 20
469.6919999999998
 30
0.0
 11
1031.026
 21
469.6919999999998
 31
0.0
  0
LINE
  5
E56
330
7F0
100
AcDbEntity
  8
0
  6
Continuous
 62
     6
100
AcDbLine
 10
1032.226
 20
469.9919999999998
 30
0.0
 11
1031.026
 21
469.6919999999998
 31
0.0
  0
LINE
  5
E57
330
7F0
100
AcDbEntity
  8
0
  6
Continuous
 62
     6
100
AcDbLine
 10
1031.026
 20
469.6919999999998
 30
0.0
 11
1032.226
 21
469.392
 31
0.0
  0
TEXT
  5
E58
330
7F0
100
AcDbEntity
  8
0
  6
Continuous
 62
     6
100
AcDbText
 10
1047.675999999998
 20
470.4419999999998
 30
0.1875
 40
1.5
  1
２．５　Ｘ　１７
 41
0.75
  7
KANJI2
100
AcDbText
  0
LINE
  5
E59
330
7F0
100
AcDbEntity
  8
0
  6
Continuous
 62
     6
100
AcDbLine
 10
1080.276
 20
459.6919999999998
 30
0.1875
 11
1102.276
 21
459.6919999999998
 31
0.1875
  0
LINE
  5
E5A
330
7F0
100
AcDbEntity
  8
0
  6
Continuous
 62
     6
100
AcDbLine
 10
1102.276
 20
431.6919999999998
 30
0.0
 11
1080.276
 21
431.6919999999998
 31
0.0
  0
LINE
  5
E5B
330
7F0
100
AcDbEntity
  8
0
  6
Continuous
 62
     6
100
AcDbLine
 10
1100.976
 20
458.4919999999998
 30
0.0
 11
1101.276
 21
459.6919999999998
 31
0.0
  0
LINE
  5
E5C
330
7F0
100
AcDbEntity
  8
0
  6
Continuous
 62
     6
100
AcDbLine
 10
1101.276
 20
459.6919999999998
 30
0.0
 11
1101.576
 21
458.4919999999998
 31
0.0
  0
LINE
  5
E5D
330
7F0
100
AcDbEntity
  8
0
  6
Continuous
 62
     6
100
AcDbLine
 10
1101.276
 20
459.6919999999998
 30
0.0
 11
1101.276
 21
431.6919999999998
 31
0.0
  0
LINE
  5
E5E
330
7F0
100
AcDbEntity
  8
0
  6
Continuous
 62
     6
100
AcDbLine
 10
1100.976
 20
432.892
 30
0.0
 11
1101.276
 21
431.6919999999998
 31
0.0
  0
LINE
  5
E5F
330
7F0
100
AcDbEntity
  8
0
  6
Continuous
 62
     6
100
AcDbLine
 10
1101.276
 20
431.6919999999998
 30
0.0
 11
1101.576
 21
432.892
 31
0.0
  0
TEXT
  5
E60
330
7F0
100
AcDbEntity
  8
0
  6
Continuous
 62
     6
100
AcDbText
 10
1100.526
 20
444.892
 30
0.1875
 40
1.5
  1
２８
 50
90.0
 41
0.75
  7
KANJI2
100
AcDbText
  0
POINT
  5
E61
330
7F0
100
AcDbEntity
  8
0
  6
Continuous
 62
     1
100
AcDbPoint
 10
157.7279999999998
 20
24.20799999999999
 30
0.1875
  0
LINE
  5
E62
330
7F0
100
AcDbEntity
  8
0
  6
Continuous
 62
     1
100
AcDbLine
 10
124.112
 20
42.724
 30
0.0
 11
122.456
 21
42.724
 31
0.0
  0
LINE
  5
E63
330
7F0
100
AcDbEntity
  8
0
  6
Continuous
 62
     1
100
AcDbLine
 10
122.384
 20
41.64399999999999
 30
0.0
 11
125.984
 21
41.64399999999999
 31
0.0
  0
LINE
  5
E64
330
7F0
100
AcDbEntity
  8
0
  6
Continuous
 62
     1
100
AcDbLine
 10
125.984
 20
42.868
 30
0.0
 11
126.92
 21
42.148
 31
0.0
  0
LINE
  5
E65
330
7F0
100
AcDbEntity
  8
0
  6
Continuous
 62
     1
100
AcDbLine
 10
125.912
 20
42.652
 30
0.0
 11
126.848
 21
41.932
 31
0.0
  0
LINE
  5
E66
330
7F0
100
AcDbEntity
  8
0
  6
Continuous
 62
     1
100
AcDbLine
 10
126.848
 20
41.932
 30
0.0
 11
125.8399999999999
 21
41.64399999999999
 31
0.0
  0
LINE
  5
E67
330
7F0
100
AcDbEntity
  8
0
  6
Continuous
 62
     1
100
AcDbLine
 10
125.8399999999999
 20
41.428
 30
0.0
 11
126.92
 21
41.716
 31
0.0
  0
LINE
  5
E68
330
7F0
100
AcDbEntity
  8
0
  6
Continuous
 62
     1
100
AcDbLine
 10
122.384
 20
42.724
 30
0.0
 11
121.448
 21
42.292
 31
0.0
  0
LINE
  5
E69
330
7F0
100
AcDbEntity
  8
0
  6
Continuous
 62
     1
100
AcDbLine
 10
121.448
 20
42.292
 30
0.0
 11
122.312
 21
41.64399999999999
 31
0.0
  0
LINE
  5
E6A
330
7F0
100
AcDbEntity
  8
0
  6
Continuous
 62
     1
100
AcDbLine
 10
121.304
 20
42.436
 30
0.0
 11
122.384
 21
43.012
 31
0.0
  0
LINE
  5
E6B
330
7F0
100
AcDbEntity
  8
0
  6
Continuous
 62
     1
100
AcDbLine
 10
125.8399999999999
 20
42.724
 30
0.0
 11
124.184
 21
42.724
 31
0.0
  0
LINE
  5
E6C
330
7F0
100
AcDbEntity
  8
0
  6
Continuous
 62
     1
100
AcDbLine
 10
122.8879999999999
 20
45.964
 30
0.0
 11
122.1679999999997
 21
46.9
 31
0.0
  0
LINE
  5
E6D
330
7F0
100
AcDbEntity
  8
0
  6
Continuous
 62
     1
100
AcDbLine
 10
122.42675
 20
43.13799999999999
 30
0.0
 11
122.86775
 21
45.94599999999998
 31
0.0
  0
LINE
  5
E6E
330
7F0
100
AcDbEntity
  8
0
  6
Continuous
 62
     1
100
AcDbLine
 10
121.25675
 20
42.418
 30
0.0
 11
121.87775
 21
46.66599999999998
 31
0.0
  0
LINE
  5
E6F
330
7F0
100
AcDbEntity
  8
0
  6
Continuous
 62
     1
100
AcDbLine
 10
126.44975
 20
45.802
 30
0.0
 11
125.99075
 21
42.85
 31
0.0
  0
POINT
  5
E70
330
7F0
100
AcDbEntity
  8
0
  6
Continuous
 62
     1
100
AcDbPoint
 10
121.592
 20
37.17999999999999
 30
0.0
  0
LINE
  5
E71
330
7F0
100
AcDbEntity
  8
0
  6
Continuous
 62
     1
100
AcDbLine
 10
125.336
 20
38.404
 30
0.0
 11
126.1279999999999
 21
37.61199999999996
 31
0.0
  0
LINE
  5
E72
330
7F0
100
AcDbEntity
  8
0
  6
Continuous
 62
     1
100
AcDbLine
 10
125.1919999999999
 20
38.26
 30
0.0
 11
125.984
 21
37.468
 31
0.0
  0
LINE
  5
E73
330
7F0
100
AcDbEntity
  8
0
  6
Continuous
 62
     1
100
AcDbLine
 10
120.872
 20
37.54
 30
0.0
 11
121.7359999999999
 21
38.188
 31
0.0
  0
LINE
  5
E74
330
7F0
100
AcDbEntity
  8
0
  6
Continuous
 62
     1
100
AcDbLine
 10
120.8239999999999
 20
37.468
 30
0.0
 11
121.016
 21
37.17999999999999
 31
0.0
  0
LINE
  5
E75
330
7F0
100
AcDbEntity
  8
0
  6
Continuous
 62
     1
100
AcDbLine
 10
125.1919999999999
 20
38.26
 30
0.0
 11
121.7359999999999
 21
38.26
 31
0.0
  0
LINE
  5
E76
330
7F0
100
AcDbEntity
  8
0
  6
Continuous
 62
     1
100
AcDbLine
 10
126.1279999999999
 20
37.57199999999999
 30
0.0
 11
126.272
 21
37.68399999999999
 31
0.0
  0
LINE
  5
E77
330
7F0
100
AcDbEntity
  8
0
  6
Continuous
 62
     1
100
AcDbLine
 10
125.624
 20
37.17999999999999
 30
0.0
 11
125.984
 21
37.46
 31
0.0
  0
LINE
  5
E78
330
7F0
100
AcDbEntity
  8
0
  6
Continuous
 62
     1
100
AcDbLine
 10
125.624
 20
37.17999999999999
 30
0.0
 11
120.944
 21
37.17999999999999
 31
0.0
  0
LINE
  5
E79
330
7F0
100
AcDbEntity
  8
0
  6
Continuous
 62
     1
100
AcDbLine
 10
126.9267499999999
 20
41.698
 30
0.0
 11
126.33275
 21
37.66599999999999
 31
0.0
  0
LINE
  5
E7A
330
7F0
100
AcDbEntity
  8
0
  6
Continuous
 62
     1
100
AcDbLine
 10
125.732
 20
41.32
 30
0.0
 11
125.372
 21
38.43999999999999
 31
0.0
  0
LINE
  5
E7B
330
7F0
100
AcDbEntity
  8
0
  6
Continuous
 62
     1
100
AcDbLine
 10
123.1039999999999
 20
46.18
 30
0.0
 11
126.4159999999999
 21
46.18
 31
0.0
  0
LINE
  5
E7C
330
7F0
100
AcDbEntity
  8
0
  6
Continuous
 62
     1
100
AcDbLine
 10
123.090909091
 20
46.18
 30
0.0
 11
122.384
 21
47.04399999999998
 31
0.0
  0
LINE
  5
E7D
330
7F0
100
AcDbEntity
  8
0
  6
Continuous
 62
     1
100
AcDbLine
 10
122.096
 20
46.879428571
 30
0.0
 11
121.952
 21
46.756
 31
0.0
  0
LINE
  5
E7E
330
7F0
100
AcDbEntity
  8
0
  6
Continuous
 62
     1
100
AcDbLine
 10
122.456
 20
47.188
 30
0.0
 11
122.384
 21
47.12628571399999
 31
0.0
  0
LINE
  5
E7F
330
7F0
100
AcDbEntity
  8
0
  6
Continuous
 62
     1
100
AcDbLine
 10
115.4719999999999
 20
42.868
 30
0.0
 11
116.408
 21
42.148
 31
0.0
  0
LINE
  5
E80
330
7F0
100
AcDbEntity
  8
0
  6
Continuous
 62
     1
100
AcDbLine
 10
115.4
 20
42.652
 30
0.0
 11
116.3359999999999
 21
41.932
 31
0.0
  0
LINE
  5
E81
330
7F0
100
AcDbEntity
  8
0
  6
Continuous
 62
     1
100
AcDbLine
 10
116.3359999999999
 20
41.932
 30
0.0
 11
115.3279999999996
 21
41.64399999999999
 31
0.0
  0
LINE
  5
E82
330
7F0
100
AcDbEntity
  8
0
  6
Continuous
 62
     1
100
AcDbLine
 10
115.3279999999996
 20
41.428
 30
0.0
 11
116.408
 21
41.716
 31
0.0
  0
LINE
  5
E83
330
7F0
100
AcDbEntity
  8
0
  6
Continuous
 62
     1
100
AcDbLine
 10
115.904
 20
46.18
 30
0.0
 11
116.6239999999999
 21
47.04399999999998
 31
0.0
  0
LINE
  5
E84
330
7F0
100
AcDbEntity
  8
0
  6
Continuous
 62
     1
100
AcDbLine
 10
116.912
 20
46.972
 30
0.0
 11
116.0479999999999
 21
45.89199999999999
 31
0.0
  0
LINE
  5
E85
330
7F0
100
AcDbEntity
  8
0
  6
Continuous
 62
     1
100
AcDbLine
 10
115.9377499999997
 20
45.802
 30
0.0
 11
115.47875
 21
42.85
 31
0.0
  0
LINE
  5
E86
330
7F0
100
AcDbEntity
  8
0
  6
Continuous
 62
     1
100
AcDbLine
 10
117.15275
 20
46.882
 30
0.0
 11
116.46875
 21
42.13
 31
0.0
  0
LINE
  5
E87
330
7F0
100
AcDbEntity
  8
0
  6
Continuous
 62
     1
100
AcDbLine
 10
114.8239999999999
 20
38.404
 30
0.0
 11
115.616
 21
37.61199999999996
 31
0.0
  0
LINE
  5
E88
330
7F0
100
AcDbEntity
  8
0
  6
Continuous
 62
     1
100
AcDbLine
 10
115.616
 20
37.57199999999999
 30
0.0
 11
115.76
 21
37.68399999999999
 31
0.0
  0
LINE
  5
E89
330
7F0
100
AcDbEntity
  8
0
  6
Continuous
 62
     1
100
AcDbLine
 10
115.1119999999999
 20
37.17999999999999
 30
0.0
 11
115.4719999999999
 21
37.46
 31
0.0
  0
LINE
  5
E8A
330
7F0
100
AcDbEntity
  8
0
  6
Continuous
 62
     1
100
AcDbLine
 10
116.41475
 20
41.698
 30
0.0
 11
115.82075
 21
37.66599999999999
 31
0.0
  0
LINE
  5
E8B
330
7F0
100
AcDbEntity
  8
0
  6
Continuous
 62
     1
100
AcDbLine
 10
115.22
 20
41.32
 30
0.0
 11
114.86
 21
38.43999999999999
 31
0.0
  0
CIRCLE
  5
E8C
330
7F0
100
AcDbEntity
  8
0
  6
Continuous
 62
     1
100
AcDbCircle
 10
117.2719999999999
 20
37.68399999999999
 30
0.0
 40
0.5400000000000002
  0
POINT
  5
E8D
330
7F0
100
AcDbEntity
  8
0
  6
Continuous
 62
     1
100
AcDbPoint
 10
116.12
 20
47.25999999999999
 30
0.0
  0
LINE
  5
E8E
330
7F0
100
AcDbEntity
  8
0
  6
Continuous
 62
     1
100
AcDbLine
 10
116.9839999999999
 20
46.982285714
 30
0.0
 11
117.1279999999996
 21
46.9
 31
0.0
  0
LINE
  5
E8F
330
7F0
100
AcDbEntity
  8
0
  6
Continuous
 62
     1
100
AcDbLine
 10
116.6239999999999
 20
47.188
 30
0.0
 11
116.6959999999999
 21
47.146857143
 31
0.0
  0
LINE
  5
E90
330
7F0
100
AcDbEntity
  8
0
  6
Continuous
 62
     1
100
AcDbLine
 10
127.496
 20
46.982285714
 30
0.0
 11
127.6399999999999
 21
46.9
 31
0.0
  0
LINE
  5
E91
330
7F0
100
AcDbEntity
  8
0
  6
Continuous
 62
     1
100
AcDbLine
 10
127.424
 20
46.972
 30
0.0
 11
126.56
 21
45.89199999999999
 31
0.0
  0
LINE
  5
E92
330
7F0
100
AcDbEntity
  8
0
  6
Continuous
 62
     1
100
AcDbLine
 10
127.6647499999999
 20
46.882
 30
0.0
 11
126.9807499999999
 21
42.13
 31
0.0
  0
LINE
  5
E93
330
7F0
100
AcDbEntity
  8
0
  6
Continuous
 62
     1
100
AcDbLine
 10
126.4159999999999
 20
46.18
 30
0.0
 11
127.1959999999999
 21
47.116
 31
0.0
  0
POINT
  5
E94
330
7F0
100
AcDbEntity
  8
0
  6
Continuous
 62
     1
100
AcDbPoint
 10
126.632
 20
47.25999999999999
 30
0.0
  0
LINE
  5
E95
330
7F0
100
AcDbEntity
  8
0
  6
Continuous
 62
     1
100
AcDbLine
 10
122.5279999999999
 20
47.25999999999999
 30
0.0
 11
127.0639999999996
 21
47.25999999999999
 31
0.0
  0
LINE
  5
E96
330
7F0
100
AcDbEntity
  8
0
  6
Continuous
 62
     1
100
AcDbLine
 10
127.0639999999996
 20
47.22914285699999
 30
0.0
 11
127.208
 21
47.146857143
 31
0.0
  0
LINE
  5
E97
330
7F0
100
AcDbEntity
  8
0
  6
Continuous
 62
     1
100
AcDbLine
 10
110.7447499999999
 20
42.418
 30
0.0
 11
111.36575
 21
46.66599999999998
 31
0.0
  0
POINT
  5
E98
330
7F0
100
AcDbEntity
  8
0
  6
Continuous
 62
     1
100
AcDbPoint
 10
111.08
 20
37.17999999999999
 30
0.0
  0
LINE
  5
E99
330
7F0
100
AcDbEntity
  8
0
  6
Continuous
 62
     1
100
AcDbLine
 10
110.3599999999999
 20
37.54
 30
0.0
 11
111.2239999999999
 21
38.188
 31
0.0
  0
LINE
  5
E9A
330
7F0
100
AcDbEntity
  8
0
  6
Continuous
 62
     1
100
AcDbLine
 10
110.312
 20
37.468
 30
0.0
 11
110.504
 21
37.17999999999999
 31
0.0
  0
LINE
  5
E9B
330
7F0
100
AcDbEntity
  8
0
  6
Continuous
 62
     1
100
AcDbLine
 10
113.5999999999997
 20
42.724
 30
0.0
 11
111.9439999999999
 21
42.724
 31
0.0
  0
LINE
  5
E9C
330
7F0
100
AcDbEntity
  8
0
  6
Continuous
 62
     1
100
AcDbLine
 10
111.872
 20
41.64399999999999
 30
0.0
 11
115.4719999999999
 21
41.64399999999999
 31
0.0
  0
LINE
  5
E9D
330
7F0
100
AcDbEntity
  8
0
  6
Continuous
 62
     1
100
AcDbLine
 10
111.872
 20
42.724
 30
0.0
 11
110.936
 21
42.292
 31
0.0
  0
LINE
  5
E9E
330
7F0
100
AcDbEntity
  8
0
  6
Continuous
 62
     1
100
AcDbLine
 10
110.936
 20
42.292
 30
0.0
 11
111.8
 21
41.64399999999999
 31
0.0
  0
LINE
  5
E9F
330
7F0
100
AcDbEntity
  8
0
  6
Continuous
 62
     1
100
AcDbLine
 10
110.792
 20
42.436
 30
0.0
 11
111.872
 21
43.012
 31
0.0
  0
LINE
  5
EA0
330
7F0
100
AcDbEntity
  8
0
  6
Continuous
 62
     1
100
AcDbLine
 10
115.3279999999996
 20
42.724
 30
0.0
 11
113.672
 21
42.724
 31
0.0
  0
LINE
  5
EA1
330
7F0
100
AcDbEntity
  8
0
  6
Continuous
 62
     1
100
AcDbLine
 10
112.5199999999999
 20
46.25199999999998
 30
0.0
 11
111.872
 21
47.04399999999998
 31
0.0
  0
LINE
  5
EA2
330
7F0
100
AcDbEntity
  8
0
  6
Continuous
 62
     1
100
AcDbLine
 10
112.376
 20
45.964
 30
0.0
 11
111.6559999999999
 21
46.9
 31
0.0
  0
LINE
  5
EA3
330
7F0
100
AcDbEntity
  8
0
  6
Continuous
 62
     1
100
AcDbLine
 10
111.9147499999999
 20
43.13799999999999
 30
0.0
 11
112.3557499999999
 21
45.94599999999998
 31
0.0
  0
LINE
  5
EA4
330
7F0
100
AcDbEntity
  8
0
  6
Continuous
 62
     1
100
AcDbLine
 10
112.592
 20
46.18
 30
0.0
 11
115.976
 21
46.18
 31
0.0
  0
LINE
  5
EA5
330
7F0
100
AcDbEntity
  8
0
  6
Continuous
 62
     1
100
AcDbLine
 10
114.68
 20
38.26
 30
0.0
 11
115.4719999999999
 21
37.468
 31
0.0
  0
LINE
  5
EA6
330
7F0
100
AcDbEntity
  8
0
  6
Continuous
 62
     1
100
AcDbLine
 10
114.68
 20
38.26
 30
0.0
 11
111.2239999999999
 21
38.26
 31
0.0
  0
LINE
  5
EA7
330
7F0
100
AcDbEntity
  8
0
  6
Continuous
 62
     1
100
AcDbLine
 10
115.1119999999999
 20
37.17999999999999
 30
0.0
 11
110.4319999999999
 21
37.17999999999999
 31
0.0
  0
LINE
  5
EA8
330
7F0
100
AcDbEntity
  8
0
  6
Continuous
 62
     1
100
AcDbLine
 10
111.584
 20
46.879428571
 30
0.0
 11
111.44
 21
46.756
 31
0.0
  0
LINE
  5
EA9
330
7F0
100
AcDbEntity
  8
0
  6
Continuous
 62
     1
100
AcDbLine
 10
111.9439999999999
 20
47.188
 30
0.0
 11
111.872
 21
47.12628571399999
 31
0.0
  0
LINE
  5
EAA
330
7F0
100
AcDbEntity
  8
0
  6
Continuous
 62
     1
100
AcDbLine
 10
112.016
 20
47.25999999999999
 30
0.0
 11
116.552
 21
47.25999999999999
 31
0.0
  0
LINE
  5
EAB
330
7F0
100
AcDbEntity
  8
0
  6
Continuous
 62
     1
100
AcDbLine
 10
103.088
 20
42.724
 30
0.0
 11
101.432
 21
42.724
 31
0.0
  0
LINE
  5
EAC
330
7F0
100
AcDbEntity
  8
0
  6
Continuous
 62
     1
100
AcDbLine
 10
101.36
 20
41.64399999999999
 30
0.0
 11
104.9599999999996
 21
41.64399999999999
 31
0.0
  0
LINE
  5
EAD
330
7F0
100
AcDbEntity
  8
0
  6
Continuous
 62
     1
100
AcDbLine
 10
104.9599999999996
 20
42.868
 30
0.0
 11
105.896
 21
42.148
 31
0.0
  0
LINE
  5
EAE
330
7F0
100
AcDbEntity
  8
0
  6
Continuous
 62
     1
100
AcDbLine
 10
104.888
 20
42.652
 30
0.0
 11
105.824
 21
41.932
 31
0.0
  0
LINE
  5
EAF
330
7F0
100
AcDbEntity
  8
0
  6
Continuous
 62
     1
100
AcDbLine
 10
105.824
 20
41.932
 30
0.0
 11
104.8159999999999
 21
41.64399999999999
 31
0.0
  0
LINE
  5
EB0
330
7F0
100
AcDbEntity
  8
0
  6
Continuous
 62
     1
100
AcDbLine
 10
104.8159999999999
 20
41.428
 30
0.0
 11
105.896
 21
41.716
 31
0.0
  0
LINE
  5
EB1
330
7F0
100
AcDbEntity
  8
0
  6
Continuous
 62
     1
100
AcDbLine
 10
101.36
 20
42.724
 30
0.0
 11
100.424
 21
42.292
 31
0.0
  0
LINE
  5
EB2
330
7F0
100
AcDbEntity
  8
0
  6
Continuous
 62
     1
100
AcDbLine
 10
100.424
 20
42.292
 30
0.0
 11
101.288
 21
41.64399999999999
 31
0.0
  0
LINE
  5
EB3
330
7F0
100
AcDbEntity
  8
0
  6
Continuous
 62
     1
100
AcDbLine
 10
100.28
 20
42.436
 30
0.0
 11
101.36
 21
43.012
 31
0.0
  0
LINE
  5
EB4
330
7F0
100
AcDbEntity
  8
0
  6
Continuous
 62
     1
100
AcDbLine
 10
104.8159999999999
 20
42.724
 30
0.0
 11
103.16
 21
42.724
 31
0.0
  0
LINE
  5
EB5
330
7F0
100
AcDbEntity
  8
0
  6
Continuous
 62
     1
100
AcDbLine
 10
105.392
 20
46.18
 30
0.0
 11
106.112
 21
47.04399999999998
 31
0.0
  0
LINE
  5
EB6
330
7F0
100
AcDbEntity
  8
0
  6
Continuous
 62
     1
100
AcDbLine
 10
106.4
 20
46.972
 30
0.0
 11
105.536
 21
45.89199999999999
 31
0.0
  0
LINE
  5
EB7
330
7F0
100
AcDbEntity
  8
0
  6
Continuous
 62
     1
100
AcDbLine
 10
102.0079999999999
 20
46.25199999999998
 30
0.0
 11
101.36
 21
47.04399999999998
 31
0.0
  0
LINE
  5
EB8
330
7F0
100
AcDbEntity
  8
0
  6
Continuous
 62
     1
100
AcDbLine
 10
101.8639999999999
 20
45.964
 30
0.0
 11
101.1439999999999
 21
46.9
 31
0.0
  0
LINE
  5
EB9
330
7F0
100
AcDbEntity
  8
0
  6
Continuous
 62
     1
100
AcDbLine
 10
101.40275
 20
43.13799999999999
 30
0.0
 11
101.84375
 21
45.94599999999998
 31
0.0
  0
LINE
  5
EBA
330
7F0
100
AcDbEntity
  8
0
  6
Continuous
 62
     1
100
AcDbLine
 10
100.23275
 20
42.418
 30
0.0
 11
100.85375
 21
46.66599999999998
 31
0.0
  0
LINE
  5
EBB
330
7F0
100
AcDbEntity
  8
0
  6
Continuous
 62
     1
100
AcDbLine
 10
102.0799999999999
 20
46.18
 30
0.0
 11
105.464
 21
46.18
 31
0.0
  0
LINE
  5
EBC
330
7F0
100
AcDbEntity
  8
0
  6
Continuous
 62
     1
100
AcDbLine
 10
105.4257499999998
 20
45.802
 30
0.0
 11
104.9667499999999
 21
42.85
 31
0.0
  0
LINE
  5
EBD
330
7F0
100
AcDbEntity
  8
0
  6
Continuous
 62
     1
100
AcDbLine
 10
106.6407499999999
 20
46.882
 30
0.0
 11
105.9567499999999
 21
42.13
 31
0.0
  0
POINT
  5
EBE
330
7F0
100
AcDbEntity
  8
0
  6
Continuous
 62
     1
100
AcDbPoint
 10
100.5679999999999
 20
37.17999999999999
 30
0.0
  0
LINE
  5
EBF
330
7F0
100
AcDbEntity
  8
0
  6
Continuous
 62
     1
100
AcDbLine
 10
104.312
 20
38.404
 30
0.0
 11
105.1039999999999
 21
37.61199999999996
 31
0.0
  0
LINE
  5
EC0
330
7F0
100
AcDbEntity
  8
0
  6
Continuous
 62
     1
100
AcDbLine
 10
104.1679999999999
 20
38.26
 30
0.0
 11
104.9599999999996
 21
37.468
 31
0.0
  0
LINE
  5
EC1
330
7F0
100
AcDbEntity
  8
0
  6
Continuous
 62
     1
100
AcDbLine
 10
99.84799999999999
 20
37.54
 30
0.0
 11
100.712
 21
38.188
 31
0.0
  0
LINE
  5
EC2
330
7F0
100
AcDbEntity
  8
0
  6
Continuous
 62
     1
100
AcDbLine
 10
99.8
 20
37.468
 30
0.0
 11
99.99200000000001
 21
37.17999999999999
 31
0.0
  0
LINE
  5
EC3
330
7F0
100
AcDbEntity
  8
0
  6
Continuous
 62
     1
100
AcDbLine
 10
104.1679999999999
 20
38.26
 30
0.0
 11
100.712
 21
38.26
 31
0.0
  0
LINE
  5
EC4
330
7F0
100
AcDbEntity
  8
0
  6
Continuous
 62
     1
100
AcDbLine
 10
105.1039999999999
 20
37.57199999999999
 30
0.0
 11
105.2479999999997
 21
37.68399999999999
 31
0.0
  0
LINE
  5
EC5
330
7F0
100
AcDbEntity
  8
0
  6
Continuous
 62
     1
100
AcDbLine
 10
104.6
 20
37.17999999999999
 30
0.0
 11
104.9599999999996
 21
37.46
 31
0.0
  0
LINE
  5
EC6
330
7F0
100
AcDbEntity
  8
0
  6
Continuous
 62
     1
100
AcDbLine
 10
104.6
 20
37.17999999999999
 30
0.0
 11
99.92
 21
37.17999999999999
 31
0.0
  0
LINE
  5
EC7
330
7F0
100
AcDbEntity
  8
0
  6
Continuous
 62
     1
100
AcDbLine
 10
105.90275
 20
41.698
 30
0.0
 11
105.3087499999999
 21
37.66599999999999
 31
0.0
  0
LINE
  5
EC8
330
7F0
100
AcDbEntity
  8
0
  6
Continuous
 62
     1
100
AcDbLine
 10
104.3479999999999
 20
38.43999999999999
 30
0.0
 11
104.708
 21
41.32
 31
0.0
  0
CIRCLE
  5
EC9
330
7F0
100
AcDbEntity
  8
0
  6
Continuous
 62
     1
100
AcDbCircle
 10
106.76
 20
37.68399999999999
 30
0.0
 40
0.5400000000000002
  0
CIRCLE
  5
ECA
330
7F0
100
AcDbEntity
  8
0
  6
Continuous
 62
     1
100
AcDbCircle
 10
95.96
 20
37.68399999999999
 30
0.0
 40
0.5400000000000002
  0
POINT
  5
ECB
330
7F0
100
AcDbEntity
  8
0
  6
Continuous
 62
     1
100
AcDbPoint
 10
105.6079999999999
 20
47.25999999999999
 30
0.0
  0
LINE
  5
ECC
330
7F0
100
AcDbEntity
  8
0
  6
Continuous
 62
     1
100
AcDbLine
 10
101.072
 20
46.879428571
 30
0.0
 11
100.9279999999999
 21
46.756
 31
0.0
  0
LINE
  5
ECD
330
7F0
100
AcDbEntity
  8
0
  6
Continuous
 62
     1
100
AcDbLine
 10
101.432
 20
47.188
 30
0.0
 11
101.36
 21
47.12628571399999
 31
0.0
  0
LINE
  5
ECE
330
7F0
100
AcDbEntity
  8
0
  6
Continuous
 62
     1
100
AcDbLine
 10
106.4719999999999
 20
46.982285714
 30
0.0
 11
106.6159999999999
 21
46.9
 31
0.0
  0
LINE
  5
ECF
330
7F0
100
AcDbEntity
  8
0
  6
Continuous
 62
     1
100
AcDbLine
 10
106.112
 20
47.188
 30
0.0
 11
106.1839999999999
 21
47.146857143
 31
0.0
  0
LINE
  5
ED0
330
7F0
100
AcDbEntity
  8
0
  6
Continuous
 62
     1
100
AcDbLine
 10
101.5039999999999
 20
47.25999999999999
 30
0.0
 11
106.04
 21
47.25999999999999
 31
0.0
  0
TEXT
  5
ED1
330
7F0
100
AcDbEntity
  8
0
  6
Continuous
 62
     4
100
AcDbText
 10
78.0
 20
110.7499999999999
 30
0.3
 40
3.0
  1
５１
 50
270.0
 41
0.6
  7
KANJI3
100
AcDbText
  0
LINE
  5
ED2
330
7F0
100
AcDbEntity
  8
0
  6
Continuous
 62
     4
100
AcDbLine
 10
77.0
 20
135.8
 30
0.3
 11
76.352952387
 21
133.3851854339999
 31
0.3
  0
LINE
  5
ED3
330
7F0
100
AcDbEntity
  8
0
  6
Continuous
 62
     4
100
AcDbLine
 10
77.0
 20
135.8
 30
0.0
 11
77.64704761299999
 21
133.3851854339999
 31
0.0
  0
LINE
  5
ED4
330
7F0
100
AcDbEntity
  8
0
  6
Continuous
 62
     4
100
AcDbLine
 10
87.0
 20
135.8
 30
0.0
 11
79.0
 21
135.8
 31
0.0
  0
LINE
  5
ED5
330
7F0
100
AcDbEntity
  8
0
  6
Continuous
 62
     4
100
AcDbLine
 10
87.0
 20
135.8
 30
0.0
 11
75.0
 21
135.8
 31
0.0
  0
LINE
  5
ED6
330
7F0
100
AcDbEntity
  8
2
  6
Continuous
 62
     4
100
AcDbLine
 10
83.0
 20
135.8
 30
0.0
 11
82.61177143199999
 21
134.351111261
 31
0.0
  0
LINE
  5
ED7
330
7F0
100
AcDbEntity
  8
2
  6
Continuous
 62
     4
100
AcDbLine
 10
83.0
 20
135.8
 30
0.0
 11
83.388228568
 21
134.351111261
 31
0.0
  0
LINE
  5
ED8
330
7F0
100
AcDbEntity
  8
2
  6
Continuous
 62
     4
100
AcDbLine
 10
87.0
 20
137.3
 30
0.0
 11
87.0
 21
163.8
 31
0.0
  0
LINE
  5
ED9
330
7F0
100
AcDbEntity
  8
2
  6
Continuous
 62
     4
100
AcDbLine
 10
87.0
 20
162.8
 30
0.0
 11
88.44888873899998
 21
162.411771432
 31
0.0
  0
LINE
  5
EDA
330
7F0
100
AcDbEntity
  8
2
  6
Continuous
 62
     4
100
AcDbLine
 10
87.0
 20
162.8
 30
0.0
 11
88.44888873899998
 21
163.1882285679998
 31
0.0
  0
LINE
  5
EDB
330
7F0
100
AcDbEntity
  8
2
  6
Continuous
 62
     4
100
AcDbLine
 10
131.0
 20
162.8
 30
0.0
 11
129.551111261
 21
163.1882285679998
 31
0.0
  0
LINE
  5
EDC
330
7F0
100
AcDbEntity
  8
2
  6
Continuous
 62
     4
100
AcDbLine
 10
131.0
 20
162.8
 30
0.0
 11
129.551111261
 21
162.411771432
 31
0.0
  0
LINE
  5
EDD
330
7F0
100
AcDbEntity
  8
2
  6
Continuous
 62
     4
100
AcDbLine
 10
131.0
 20
137.3
 30
0.0
 11
131.0
 21
163.8
 31
0.0
  0
LINE
  5
EDE
330
7F0
100
AcDbEntity
  8
2
  6
Continuous
 62
     4
100
AcDbLine
 10
87.0
 20
162.8
 30
0.0
 11
131.0
 21
162.8
 31
0.0
  0
TEXT
  5
EDF
330
7F0
100
AcDbEntity
  8
2
  6
Continuous
 62
     4
100
AcDbText
 10
106.5199999999999
 20
163.7199999999999
 30
0.0
 40
2.399999999999999
  1
４４
 41
0.925
  7
KANJI4
100
AcDbText
  0
LINE
  5
EE0
330
7F0
100
AcDbEntity
  8
0
  6
Continuous
 62
     4
100
AcDbLine
 10
87.0
 20
84.79999999999998
 30
0.0
 11
91.0
 21
95.8
 31
0.0
  0
LINE
  5
EE1
330
7F0
100
AcDbEntity
  8
0
  6
Continuous
 62
     4
100
AcDbLine
 10
90.6
 20
94.8
 30
0.0
 11
92.53185165299999
 21
94.28236191000001
 31
0.0
  0
LINE
  5
EE2
330
7F0
100
AcDbEntity
  8
0
  6
Continuous
 62
     4
100
AcDbLine
 10
90.6
 20
94.8
 30
0.0
 11
92.53185165299999
 21
95.31763809
 31
0.0
  0
TEXT
  5
EE3
330
7F0
100
AcDbEntity
  8
0
  6
Continuous
 62
     4
100
AcDbText
 10
110.8999999999999
 20
95.8
 30
0.3
 40
3.0
  1
４５
 41
0.6
  7
KANJI3
100
AcDbText
  0
LINE
  5
EE4
330
7F0
100
AcDbEntity
  8
0
  6
Continuous
 62
     4
100
AcDbLine
 10
131.0
 20
84.79999999999998
 30
0.3
 11
135.0
 21
95.8
 31
0.3
  0
LINE
  5
EE5
330
7F0
100
AcDbEntity
  8
0
  6
Continuous
 62
     4
100
AcDbLine
 10
134.5999999999999
 20
94.8
 30
0.0
 11
132.668148347
 21
95.31763809
 31
0.0
  0
LINE
  5
EE6
330
7F0
100
AcDbEntity
  8
0
  6
Continuous
 62
     4
100
AcDbLine
 10
134.5999999999999
 20
94.8
 30
0.0
 11
132.668148347
 21
94.28236191000001
 31
0.0
  0
LINE
  5
EE7
330
7F0
100
AcDbEntity
  8
0
  6
Continuous
 62
     4
100
AcDbLine
 10
134.5999999999999
 20
94.8
 30
0.0
 11
90.6
 21
94.8
 31
0.0
  0
TEXT
  5
EE8
330
7F0
100
AcDbEntity
  8
0
  6
Continuous
 62
     4
100
AcDbText
 10
78.0
 20
74.09999999999998
 30
0.3
 40
3.0
  1
４．８
 50
270.0
 41
0.6
  7
KANJI3
100
AcDbText
  0
LINE
  5
EE9
330
7F0
100
AcDbEntity
  8
0
  6
Continuous
 62
     4
100
AcDbLine
 10
77.0
 20
84.79999999999998
 30
0.3
 11
77.64704761299999
 21
87.21481456600002
 31
0.3
  0
LINE
  5
EEA
330
7F0
100
AcDbEntity
  8
0
  6
Continuous
 62
     4
100
AcDbLine
 10
77.0
 20
84.79999999999998
 30
0.0
 11
76.352952387
 21
87.21481456600002
 31
0.0
  0
LINE
  5
EEB
330
7F0
100
AcDbEntity
  8
0
  6
Continuous
 62
     4
100
AcDbLine
 10
77.0
 20
84.79999999999998
 30
0.0
 11
79.0
 21
84.79999999999998
 31
0.0
  0
LINE
  5
EEC
330
7F0
100
AcDbEntity
  8
0
  6
Continuous
 62
     4
100
AcDbLine
 10
85.0
 20
80.0
 30
0.0
 11
75.0
 21
80.0
 31
0.0
  0
LINE
  5
EED
330
7F0
100
AcDbEntity
  8
0
  6
Continuous
 62
     4
100
AcDbLine
 10
77.0
 20
80.0
 30
0.0
 11
76.352952387
 21
77.58518543399998
 31
0.0
  0
LINE
  5
EEE
330
7F0
100
AcDbEntity
  8
0
  6
Continuous
 62
     4
100
AcDbLine
 10
77.0
 20
80.0
 30
0.0
 11
77.64704761299999
 21
77.58518543399998
 31
0.0
  0
LINE
  5
EEF
330
7F0
100
AcDbEntity
  8
0
  6
Continuous
 62
     4
100
AcDbLine
 10
77.0
 20
69.0
 30
0.0
 11
77.0
 21
89.79999999999998
 31
0.0
  0
LINE
  5
EF0
330
7F0
100
AcDbEntity
  8
0
  6
Continuous
 62
     4
100
AcDbLine
 10
77.0
 20
84.79999999999998
 30
0.0
 11
77.64704761299999
 21
87.21481456600002
 31
0.0
  0
LINE
  5
EF1
330
7F0
100
AcDbEntity
  8
0
  6
Continuous
 62
     4
100
AcDbLine
 10
77.0
 20
84.79999999999998
 30
0.0
 11
76.352952387
 21
87.21481456600002
 31
0.0
  0
LINE
  5
EF2
330
7F0
100
AcDbEntity
  8
0
  6
Continuous
 62
     4
100
AcDbLine
 10
85.0
 20
84.79999999999998
 30
0.0
 11
75.0
 21
84.79999999999998
 31
0.0
  0
LINE
  5
EF3
330
7F0
100
AcDbEntity
  8
2
  6
Continuous
 62
     4
100
AcDbLine
 10
85.7
 20
80.0
 30
0.0
 11
66.2
 21
80.0
 31
0.0
  0
LINE
  5
EF4
330
7F0
100
AcDbEntity
  8
2
  6
Continuous
 62
     4
100
AcDbLine
 10
67.2
 20
80.0
 30
0.0
 11
67.58822856800001
 21
81.44888873899999
 31
0.0
  0
LINE
  5
EF5
330
7F0
100
AcDbEntity
  8
2
  6
Continuous
 62
     4
100
AcDbLine
 10
67.2
 20
80.0
 30
0.0
 11
66.811771432
 21
81.44888873899999
 31
0.0
  0
LINE
  5
EF6
330
7F0
100
AcDbEntity
  8
0
  6
Continuous
 62
     4
100
AcDbLine
 10
77.0
 20
135.8
 30
0.0
 11
77.0
 21
84.79999999999998
 31
0.0
  0
TEXT
  5
EF7
330
7F0
100
AcDbEntity
  8
0
  6
Continuous
 62
     4
100
AcDbText
 10
78.0
 20
43.04999999999998
 30
0.3
 40
3.0
  1
２４
 50
270.0
 41
0.6
  7
KANJI3
100
AcDbText
  0
LINE
  5
EF8
330
7F0
100
AcDbEntity
  8
0
  6
Continuous
 62
     4
100
AcDbLine
 10
85.0
 20
30.0
 30
0.3
 11
75.0
 21
30.0
 31
0.3
  0
LINE
  5
EF9
330
7F0
100
AcDbEntity
  8
0
  6
Continuous
 62
     4
100
AcDbLine
 10
77.0
 20
30.0
 30
0.0
 11
77.64704761299999
 21
32.41481456599998
 31
0.0
  0
LINE
  5
EFA
330
7F0
100
AcDbEntity
  8
0
  6
Continuous
 62
     4
100
AcDbLine
 10
77.0
 20
30.0
 30
0.0
 11
76.352952387
 21
32.41481456599998
 31
0.0
  0
LINE
  5
EFB
330
7F0
100
AcDbEntity
  8
0
  6
Continuous
 62
     4
100
AcDbLine
 10
77.0
 20
30.0
 30
0.0
 11
77.0
 21
54.0
 31
0.0
  0
LINE
  5
EFC
330
7F0
100
AcDbEntity
  8
0
  6
Continuous
 62
     4
100
AcDbLine
 10
77.0
 20
54.0
 30
0.0
 11
76.352952387
 21
51.58518543399999
 31
0.0
  0
LINE
  5
EFD
330
7F0
100
AcDbEntity
  8
0
  6
Continuous
 62
     4
100
AcDbLine
 10
77.0
 20
54.0
 30
0.0
 11
77.64704761299999
 21
51.58518543399999
 31
0.0
  0
LINE
  5
EFE
330
7F0
100
AcDbEntity
  8
0
  6
Continuous
 62
     4
100
AcDbLine
 10
85.0
 20
54.0
 30
0.0
 11
75.0
 21
54.0
 31
0.0
  0
TEXT
  5
EFF
330
7F0
100
AcDbEntity
  8
0
  6
Continuous
 62
     4
100
AcDbText
 10
107.05
 20
19.0
 30
0.3
 40
3.0
  1
４８
 41
0.6
  7
KANJI3
100
AcDbText
  0
LINE
  5
F00
330
7F0
100
AcDbEntity
  8
0
  6
Continuous
 62
     4
100
AcDbLine
 10
85.0
 20
30.0
 30
0.3
 11
85.0
 21
16.0
 31
0.3
  0
LINE
  5
F01
330
7F0
100
AcDbEntity
  8
0
  6
Continuous
 62
     4
100
AcDbLine
 10
85.0
 20
18.0
 30
0.0
 11
87.414814566
 21
17.352952387
 31
0.0
  0
LINE
  5
F02
330
7F0
100
AcDbEntity
  8
0
  6
Continuous
 62
     4
100
AcDbLine
 10
85.0
 20
18.0
 30
0.0
 11
87.414814566
 21
18.64704761299998
 31
0.0
  0
LINE
  5
F03
330
7F0
100
AcDbEntity
  8
0
  6
Continuous
 62
     4
100
AcDbLine
 10
85.0
 20
18.0
 30
0.0
 11
133.0
 21
18.0
 31
0.0
  0
LINE
  5
F04
330
7F0
100
AcDbEntity
  8
0
  6
Continuous
 62
     4
100
AcDbLine
 10
133.0
 20
18.0
 30
0.0
 11
130.585185434
 21
18.64704761299998
 31
0.0
  0
LINE
  5
F05
330
7F0
100
AcDbEntity
  8
0
  6
Continuous
 62
     4
100
AcDbLine
 10
133.0
 20
18.0
 30
0.0
 11
130.585185434
 21
17.352952387
 31
0.0
  0
LINE
  5
F06
330
7F0
100
AcDbEntity
  8
0
  6
Continuous
 62
     4
100
AcDbLine
 10
133.0
 20
30.0
 30
0.0
 11
133.0
 21
16.0
 31
0.0
  0
LINE
  5
F08
330
7F0
100
AcDbEntity
  8
0
  6
Continuous
 62
     4
100
AcDbLine
 10
153.38
 20
152.4
 30
0.0
 11
152.86236191
 21
150.468148347
 31
0.0
  0
LINE
  5
F09
330
7F0
100
AcDbEntity
  8
0
  6
Continuous
 62
     4
100
AcDbLine
 10
153.38
 20
152.4
 30
0.0
 11
153.8976380899998
 21
150.468148347
 31
0.0
  0
TEXT
  5
F0A
330
7F0
100
AcDbEntity
  8
0
  6
Continuous
 62
     4
100
AcDbText
 10
154.42
 20
118.5
 30
0.3
 40
3.0
  1
７３
 50
270.0
 41
0.6
  7
KANJI3
100
AcDbText
  0
LINE
  5
F0B
330
7F0
100
AcDbEntity
  8
0
  6
Continuous
 62
     4
100
AcDbLine
 10
163.0
 20
80.0
 30
0.3
 11
152.38
 21
80.0
 31
0.3
  0
LINE
  5
F0C
330
7F0
100
AcDbEntity
  8
0
  6
Continuous
 62
     4
100
AcDbLine
 10
153.38
 20
80.0
 30
0.0
 11
153.8976380899998
 21
81.93185165299999
 31
0.0
  0
LINE
  5
F0D
330
7F0
100
AcDbEntity
  8
0
  6
Continuous
 62
     4
100
AcDbLine
 10
153.38
 20
80.0
 30
0.0
 11
152.86236191
 21
81.93185165299999
 31
0.0
  0
LINE
  5
F0E
330
7F0
100
AcDbEntity
  8
0
  6
Continuous
 62
     4
100
AcDbLine
 10
153.38
 20
152.4
 30
0.0
 11
153.38
 21
80.0
 31
0.0
  0
TEXT
  5
F0F
330
7F0
100
AcDbEntity
  8
0
  6
Continuous
 62
     4
100
AcDbText
 10
160.0999999999999
 20
95.8
 30
0.3
 40
3.0
  1
２２
 41
0.6
  7
KANJI3
100
AcDbText
  0
LINE
  5
F10
330
7F0
100
AcDbEntity
  8
0
  6
Continuous
 62
     4
100
AcDbLine
 10
165.0
 20
84.79999999999998
 30
0.3
 11
169.0
 21
95.8
 31
0.3
  0
LINE
  5
F11
330
7F0
100
AcDbEntity
  8
0
  6
Continuous
 62
     4
100
AcDbLine
 10
168.5
 20
94.8
 30
0.0
 11
166.568148347
 21
94.28236191000001
 31
0.0
  0
LINE
  5
F12
330
7F0
100
AcDbEntity
  8
0
  6
Continuous
 62
     4
100
AcDbLine
 10
168.5
 20
94.8
 30
0.0
 11
166.568148347
 21
95.31763809
 31
0.0
  0
LINE
  5
F13
330
7F0
100
AcDbEntity
  8
0
  6
Continuous
 62
     4
100
AcDbLine
 10
160.0999999999999
 20
94.8
 30
0.0
 11
168.5
 21
94.8
 31
0.0
  0
LINE
  5
F14
330
7F0
100
AcDbEntity
  8
0
  6
Continuous
 62
     4
100
AcDbLine
 10
187.0
 20
84.79999999999998
 30
0.0
 11
191.0
 21
95.8
 31
0.0
  0
LINE
  5
F15
330
7F0
100
AcDbEntity
  8
0
  6
Continuous
 62
     4
100
AcDbLine
 10
190.5
 20
94.8
 30
0.0
 11
193.5
 21
94.8
 31
0.0
  0
LINE
  5
F16
330
7F0
100
AcDbEntity
  8
0
  6
Continuous
 62
     4
100
AcDbLine
 10
190.5
 20
94.8
 30
0.0
 11
192.431851653
 21
94.28236191000001
 31
0.0
  0
LINE
  5
F17
330
7F0
100
AcDbEntity
  8
0
  6
Continuous
 62
     4
100
AcDbLine
 10
190.5
 20
94.8
 30
0.0
 11
192.431851653
 21
95.31763809
 31
0.0
  0
LINE
  5
F18
330
7F0
100
AcDbEntity
  8
0
  6
Continuous
 62
     4
100
AcDbLine
 10
168.5
 20
94.8
 30
0.0
 11
190.5
 21
94.8
 31
0.0
  0
LINE
  5
F20
330
7F0
100
AcDbEntity
  8
2
  6
Continuous
 62
     4
100
AcDbLine
 10
67.2
 20
143.0
 30
0.0
 11
66.811771432
 21
141.551111261
 31
0.0
  0
LINE
  5
F21
330
7F0
100
AcDbEntity
  8
2
  6
Continuous
 62
     4
100
AcDbLine
 10
67.2
 20
143.0
 30
0.0
 11
67.58822856800001
 21
141.551111261
 31
0.0
  0
LINE
  5
F22
330
7F0
100
AcDbEntity
  8
2
  6
Continuous
 62
     4
100
AcDbLine
 10
87.70000000000001
 20
143.0
 30
0.0
 11
66.2
 21
143.0
 31
0.0
  0
LINE
  5
F23
330
7F0
100
AcDbEntity
  8
2
  6
Continuous
 62
     4
100
AcDbLine
 10
67.2
 20
80.0
 30
0.0
 11
67.2
 21
143.0
 31
0.0
  0
TEXT
  5
F24
330
7F0
100
AcDbEntity
  8
2
  6
Continuous
 62
     4
100
AcDbText
 10
68.15000000000001
 20
115.4749999999997
 30
0.0
 40
3.0
  1
６３
 50
270.0
 41
0.925
  7
KANJI6
100
AcDbText
  0
LINE
  5
F25
330
7F0
100
AcDbEntity
  8
2
  6
Continuous
 62
     4
100
AcDbLine
 10
88.49999999999999
 20
130.8
 30
0.0
 11
82.0
 21
130.8
 31
0.0
  0
LINE
  5
F26
330
7F0
100
AcDbEntity
  8
2
  6
Continuous
 62
     4
100
AcDbLine
 10
83.0
 20
130.8
 30
0.0
 11
83.388228568
 21
132.248888739
 31
0.0
  0
LINE
  5
F27
330
7F0
100
AcDbEntity
  8
2
  6
Continuous
 62
     4
100
AcDbLine
 10
83.0
 20
130.8
 30
0.0
 11
82.61177143199999
 21
132.248888739
 31
0.0
  0
LINE
  5
F28
330
7F0
100
AcDbEntity
  8
2
  6
Continuous
 62
     4
100
AcDbLine
 10
83.0
 20
130.8
 30
0.0
 11
83.0
 21
135.8
 31
0.0
  0
TEXT
  5
F29
330
7F0
100
AcDbEntity
  8
2
  6
Continuous
 62
     4
100
AcDbText
 10
83.83599999999999
 20
134.244
 30
0.0
 40
2.24
  1
５
 50
270.0
 41
0.925
  7
KANJI7
100
AcDbText
  0
LINE
  5
F2A
330
7F0
100
AcDbEntity
  8
0
  6
Continuous
 62
     1
100
AcDbLine
 10
90.0
 20
130.8
 30
0.0
 11
128.0
 21
130.8
 31
0.0
  0
LINE
  5
F2B
330
7F0
100
AcDbEntity
  8
0
  6
Continuous
 62
     1
100
AcDbLine
 10
128.0
 20
110.8
 30
0.0
 11
90.0
 21
110.8
 31
0.0
  0
LINE
  5
F2C
330
7F0
100
AcDbEntity
  8
0
  6
Continuous
 62
     1
100
AcDbLine
 10
88.7
 20
111.8
 30
0.0
 11
88.7
 21
129.8
 31
0.0
  0
LINE
  5
F2D
330
7F0
100
AcDbEntity
  8
0
  6
Continuous
 62
     1
100
AcDbLine
 10
129.3
 20
129.8
 30
0.0
 11
129.3
 21
111.8
 31
0.0
  0
ARC
  5
F2E
330
7F0
100
AcDbEntity
  8
0
  6
Continuous
 62
     1
100
AcDbCircle
 10
128.3
 20
111.8
 30
0.0
 40
1.0
100
AcDbArc
 50
270.0
 51
0.0
  0
ARC
  5
F2F
330
7F0
100
AcDbEntity
  8
0
  6
Continuous
 62
     1
100
AcDbCircle
 10
128.3
 20
129.8
 30
0.0
 40
1.0
100
AcDbArc
 50
0.0
 51
90.0
  0
ARC
  5
F30
330
7F0
100
AcDbEntity
  8
0
  6
Continuous
 62
     1
100
AcDbCircle
 10
89.7
 20
129.8
 30
0.0
 40
1.0
100
AcDbArc
 50
90.0
 51
180.0
  0
ARC
  5
F31
330
7F0
100
AcDbEntity
  8
0
  6
Continuous
 62
     1
100
AcDbCircle
 10
89.7
 20
111.8
 30
0.0
 40
1.0
100
AcDbArc
 50
180.0
 51
270.0
  0
LINE
  5
F32
330
7F0
100
AcDbEntity
  8
0
  6
Continuous
 62
     1
100
AcDbLine
 10
90.0
 20
110.8
 30
0.0
 11
89.7
 21
110.8
 31
0.0
  0
LINE
  5
F33
330
7F0
100
AcDbEntity
  8
0
  6
Continuous
 62
     1
100
AcDbLine
 10
90.0
 20
130.8
 30
0.0
 11
89.7
 21
130.8
 31
0.0
  0
LINE
  5
F34
330
7F0
100
AcDbEntity
  8
0
  6
Continuous
 62
     1
100
AcDbLine
 10
128.0
 20
130.8
 30
0.0
 11
128.3
 21
130.8
 31
0.0
  0
LINE
  5
F35
330
7F0
100
AcDbEntity
  8
0
  6
Continuous
 62
     1
100
AcDbLine
 10
128.0
 20
110.8
 30
0.0
 11
128.3
 21
110.8
 31
0.0
  0
LINE
  5
F3E
330
7F0
100
AcDbEntity
  8
0
  6
Continuous
 62
     1
100
AcDbLine
 10
92.28799999999999
 20
42.724
 30
0.3
 11
90.632
 21
42.724
 31
0.3
  0
LINE
  5
F3F
330
7F0
100
AcDbEntity
  8
0
  6
Continuous
 62
     1
100
AcDbLine
 10
90.56
 20
41.64399999999999
 30
0.0
 11
94.16
 21
41.64399999999999
 31
0.0
  0
LINE
  5
F40
330
7F0
100
AcDbEntity
  8
0
  6
Continuous
 62
     1
100
AcDbLine
 10
94.16
 20
42.868
 30
0.0
 11
95.096
 21
42.148
 31
0.0
  0
LINE
  5
F41
330
7F0
100
AcDbEntity
  8
0
  6
Continuous
 62
     1
100
AcDbLine
 10
94.08799999999999
 20
42.652
 30
0.0
 11
95.02399999999999
 21
41.932
 31
0.0
  0
LINE
  5
F42
330
7F0
100
AcDbEntity
  8
0
  6
Continuous
 62
     1
100
AcDbLine
 10
95.02399999999999
 20
41.932
 30
0.0
 11
94.016
 21
41.64399999999999
 31
0.0
  0
LINE
  5
F43
330
7F0
100
AcDbEntity
  8
0
  6
Continuous
 62
     1
100
AcDbLine
 10
94.016
 20
41.428
 30
0.0
 11
95.096
 21
41.716
 31
0.0
  0
LINE
  5
F44
330
7F0
100
AcDbEntity
  8
0
  6
Continuous
 62
     1
100
AcDbLine
 10
90.56
 20
42.724
 30
0.0
 11
89.62399999999998
 21
42.292
 31
0.0
  0
LINE
  5
F45
330
7F0
100
AcDbEntity
  8
0
  6
Continuous
 62
     1
100
AcDbLine
 10
89.62399999999998
 20
42.292
 30
0.0
 11
90.48799999999998
 21
41.64399999999999
 31
0.0
  0
LINE
  5
F46
330
7F0
100
AcDbEntity
  8
0
  6
Continuous
 62
     1
100
AcDbLine
 10
89.48
 20
42.436
 30
0.0
 11
90.56
 21
43.012
 31
0.0
  0
LINE
  5
F47
330
7F0
100
AcDbEntity
  8
0
  6
Continuous
 62
     1
100
AcDbLine
 10
94.016
 20
42.724
 30
0.0
 11
92.36000000000002
 21
42.724
 31
0.0
  0
LINE
  5
F48
330
7F0
100
AcDbEntity
  8
0
  6
Continuous
 62
     1
100
AcDbLine
 10
94.592
 20
46.18
 30
0.0
 11
95.312
 21
47.04399999999998
 31
0.0
  0
LINE
  5
F49
330
7F0
100
AcDbEntity
  8
0
  6
Continuous
 62
     1
100
AcDbLine
 10
95.6
 20
46.972
 30
0.0
 11
94.73600000000001
 21
45.89199999999999
 31
0.0
  0
LINE
  5
F4A
330
7F0
100
AcDbEntity
  8
0
  6
Continuous
 62
     1
100
AcDbLine
 10
91.208
 20
46.25199999999998
 30
0.0
 11
90.56
 21
47.04399999999998
 31
0.0
  0
LINE
  5
F4B
330
7F0
100
AcDbEntity
  8
0
  6
Continuous
 62
     1
100
AcDbLine
 10
91.06399999999998
 20
45.964
 30
0.0
 11
90.34399999999999
 21
46.9
 31
0.0
  0
LINE
  5
F4C
330
7F0
100
AcDbEntity
  8
0
  6
Continuous
 62
     1
100
AcDbLine
 10
90.60275
 20
43.13799999999999
 30
0.0
 11
91.04375
 21
45.94599999999998
 31
0.0
  0
LINE
  5
F4D
330
7F0
100
AcDbEntity
  8
0
  6
Continuous
 62
     1
100
AcDbLine
 10
89.43274999999998
 20
42.418
 30
0.0
 11
90.05374999999999
 21
46.66599999999998
 31
0.0
  0
LINE
  5
F4E
330
7F0
100
AcDbEntity
  8
0
  6
Continuous
 62
     1
100
AcDbLine
 10
91.28
 20
46.18
 30
0.0
 11
94.664
 21
46.18
 31
0.0
  0
LINE
  5
F4F
330
7F0
100
AcDbEntity
  8
0
  6
Continuous
 62
     1
100
AcDbLine
 10
94.62574999999999
 20
45.802
 30
0.0
 11
94.16674999999999
 21
42.85
 31
0.0
  0
LINE
  5
F50
330
7F0
100
AcDbEntity
  8
0
  6
Continuous
 62
     1
100
AcDbLine
 10
95.84075
 20
46.882
 30
0.0
 11
95.15674999999999
 21
42.13
 31
0.0
  0
POINT
  5
F51
330
7F0
100
AcDbEntity
  8
0
  6
Continuous
 62
     1
100
AcDbPoint
 10
89.76799999999999
 20
37.17999999999999
 30
0.0
  0
LINE
  5
F52
330
7F0
100
AcDbEntity
  8
0
  6
Continuous
 62
     1
100
AcDbLine
 10
93.512
 20
38.404
 30
0.0
 11
94.304
 21
37.61199999999996
 31
0.0
  0
LINE
  5
F53
330
7F0
100
AcDbEntity
  8
0
  6
Continuous
 62
     1
100
AcDbLine
 10
93.368
 20
38.26
 30
0.0
 11
94.16
 21
37.468
 31
0.0
  0
LINE
  5
F54
330
7F0
100
AcDbEntity
  8
0
  6
Continuous
 62
     1
100
AcDbLine
 10
89.04799999999999
 20
37.54
 30
0.0
 11
89.912
 21
38.188
 31
0.0
  0
LINE
  5
F55
330
7F0
100
AcDbEntity
  8
0
  6
Continuous
 62
     1
100
AcDbLine
 10
89.0
 20
37.468
 30
0.0
 11
89.19200000000001
 21
37.17999999999999
 31
0.0
  0
LINE
  5
F56
330
7F0
100
AcDbEntity
  8
0
  6
Continuous
 62
     1
100
AcDbLine
 10
93.368
 20
38.26
 30
0.0
 11
89.912
 21
38.26
 31
0.0
  0
LINE
  5
F57
330
7F0
100
AcDbEntity
  8
0
  6
Continuous
 62
     1
100
AcDbLine
 10
94.304
 20
37.57199999999999
 30
0.0
 11
94.44799999999998
 21
37.68399999999999
 31
0.0
  0
LINE
  5
F58
330
7F0
100
AcDbEntity
  8
0
  6
Continuous
 62
     1
100
AcDbLine
 10
93.8
 20
37.17999999999999
 30
0.0
 11
94.16
 21
37.46
 31
0.0
  0
LINE
  5
F59
330
7F0
100
AcDbEntity
  8
0
  6
Continuous
 62
     1
100
AcDbLine
 10
93.8
 20
37.17999999999999
 30
0.0
 11
89.12
 21
37.17999999999999
 31
0.0
  0
LINE
  5
F5A
330
7F0
100
AcDbEntity
  8
0
  6
Continuous
 62
     1
100
AcDbLine
 10
95.10275
 20
41.698
 30
0.0
 11
94.50875000000001
 21
37.66599999999999
 31
0.0
  0
LINE
  5
F5B
330
7F0
100
AcDbEntity
  8
0
  6
Continuous
 62
     1
100
AcDbLine
 10
93.548
 20
38.43999999999999
 30
0.0
 11
93.90799999999998
 21
41.32
 31
0.0
  0
POINT
  5
F5C
330
7F0
100
AcDbEntity
  8
0
  6
Continuous
 62
     1
100
AcDbPoint
 10
94.808
 20
47.25999999999999
 30
0.0
  0
LINE
  5
F5D
330
7F0
100
AcDbEntity
  8
0
  6
Continuous
 62
     1
100
AcDbLine
 10
90.272
 20
46.879428571
 30
0.0
 11
90.12799999999998
 21
46.756
 31
0.0
  0
LINE
  5
F5E
330
7F0
100
AcDbEntity
  8
0
  6
Continuous
 62
     1
100
AcDbLine
 10
90.632
 20
47.188
 30
0.0
 11
90.56
 21
47.12628571399999
 31
0.0
  0
LINE
  5
F5F
330
7F0
100
AcDbEntity
  8
0
  6
Continuous
 62
     1
100
AcDbLine
 10
95.67199999999999
 20
46.982285714
 30
0.0
 11
95.81599999999999
 21
46.9
 31
0.0
  0
LINE
  5
F60
330
7F0
100
AcDbEntity
  8
0
  6
Continuous
 62
     1
100
AcDbLine
 10
95.312
 20
47.188
 30
0.0
 11
95.38400000000001
 21
47.146857143
 31
0.0
  0
LINE
  5
F61
330
7F0
100
AcDbEntity
  8
0
  6
Continuous
 62
     1
100
AcDbLine
 10
90.70399999999999
 20
47.25999999999999
 30
0.0
 11
95.23999999999999
 21
47.25999999999999
 31
0.0
  0
LINE
  5
F62
330
7F0
100
AcDbEntity
  8
0
  6
LTYPE1
 62
     1
100
AcDbLine
 10
165.1999999999999
 20
135.8
 30
0.0
 11
165.1999999999999
 21
144.8
 31
0.0
  0
LINE
  5
F63
330
7F0
100
AcDbEntity
  8
0
  6
LTYPE1
 62
     1
100
AcDbLine
 10
171.1999999999999
 20
144.8
 30
0.0
 11
171.1999999999999
 21
135.8
 31
0.0
  0
POINT
  5
F64
330
7F0
100
AcDbEntity
  8
0
  6
LTYPE1
 62
     1
100
AcDbPoint
 10
171.1999999999999
 20
144.8
 30
0.0
  0
LINE
  5
F65
330
7F0
100
AcDbEntity
  8
0
  6
LTYPE1
 62
     1
100
AcDbLine
 10
171.1999999999999
 20
144.8
 30
0.0
 11
171.1999999999999
 21
148.3
 31
0.0
  0
LINE
  5
F66
330
7F0
100
AcDbEntity
  8
0
  6
LTYPE1
 62
     1
100
AcDbLine
 10
165.1999999999999
 20
148.3
 30
0.0
 11
165.1999999999999
 21
144.8
 31
0.0
  0
LINE
  5
F67
330
7F0
100
AcDbEntity
  8
0
  6
LTYPE1
 62
     1
100
AcDbLine
 10
167.6999999999999
 20
148.3
 30
0.0
 11
167.6999999999999
 21
152.3
 31
0.0
  0
LINE
  5
F68
330
7F0
100
AcDbEntity
  8
0
  6
LTYPE1
 62
     1
100
AcDbLine
 10
167.6999999999999
 20
152.3
 30
0.0
 11
168.1999999999999
 21
152.3
 31
0.0
  0
LINE
  5
F69
330
7F0
100
AcDbEntity
  8
0
  6
LTYPE1
 62
     1
100
AcDbLine
 10
168.1999999999999
 20
152.3
 30
0.0
 11
168.1999999999999
 21
148.3
 31
0.0
  0
LINE
  5
F6A
330
7F0
100
AcDbEntity
  8
0
  6
LTYPE1
 62
     1
100
AcDbLine
 10
167.6999999999999
 20
148.3
 30
0.0
 11
165.1999999999999
 21
148.3
 31
0.0
  0
LINE
  5
F6B
330
7F0
100
AcDbEntity
  8
0
  6
LTYPE1
 62
     1
100
AcDbLine
 10
171.1999999999999
 20
148.3
 30
0.0
 11
168.1999999999999
 21
148.3
 31
0.0
  0
LINE
  5
F6C
330
7F0
100
AcDbEntity
  8
0
  6
LTYPE1
 62
     1
100
AcDbLine
 10
184.6999999999999
 20
151.4
 30
0.0
 11
184.6999999999999
 21
144.8
 31
0.0
  0
LINE
  5
F6D
330
7F0
100
AcDbEntity
  8
0
  6
LTYPE1
 62
     1
100
AcDbLine
 10
185.4
 20
144.8
 30
0.0
 11
185.4
 21
151.4
 31
0.0
  0
LINE
  5
F6E
330
7F0
100
AcDbEntity
  8
0
  6
LTYPE1
 62
     1
100
AcDbLine
 10
180.4
 20
144.8
 30
0.0
 11
180.4
 21
151.4
 31
0.0
  0
LINE
  5
F6F
330
7F0
100
AcDbEntity
  8
0
  6
LTYPE1
 62
     1
100
AcDbLine
 10
180.4
 20
144.8
 30
0.0
 11
184.6999999999999
 21
144.8
 31
0.0
  0
LINE
  5
F70
330
7F0
100
AcDbEntity
  8
0
  6
LTYPE1
 62
     1
100
AcDbLine
 10
187.0
 20
134.8
 30
0.0
 11
187.0
 21
144.8
 31
0.0
  0
LINE
  5
F71
330
7F0
100
AcDbEntity
  8
0
  6
LTYPE1
 62
     1
100
AcDbLine
 10
185.4
 20
144.8
 30
0.0
 11
187.0
 21
144.8
 31
0.0
  0
LINE
  5
F72
330
7F0
100
AcDbEntity
  8
0
  6
LTYPE1
 62
     1
100
AcDbLine
 10
178.0
 20
134.8
 30
0.0
 11
178.0
 21
144.8
 31
0.0
  0
LINE
  5
F73
330
7F0
100
AcDbEntity
  8
0
  6
LTYPE1
 62
     1
100
AcDbLine
 10
179.6999999999999
 20
151.4
 30
0.0
 11
179.6999999999999
 21
144.8
 31
0.0
  0
LINE
  5
F74
330
7F0
100
AcDbEntity
  8
0
  6
LTYPE1
 62
     1
100
AcDbLine
 10
178.0
 20
144.8
 30
0.0
 11
179.6999999999999
 21
144.8
 31
0.0
  0
LINE
  5
F75
330
7F0
100
AcDbEntity
  8
0
  6
LTYPE1
 62
     1
100
AcDbLine
 10
185.4
 20
151.4
 30
0.0
 11
184.6999999999999
 21
151.4
 31
0.0
  0
LINE
  5
F76
330
7F0
100
AcDbEntity
  8
0
  6
LTYPE1
 62
     1
100
AcDbLine
 10
180.4
 20
151.4
 30
0.0
 11
179.6999999999999
 21
151.4
 31
0.0
  0
ARC
  5
F77
330
7F0
100
AcDbEntity
  8
0
  6
Continuous
 62
     1
100
AcDbCircle
 10
183.0
 20
142.3
 30
0.0
 40
0.5
100
AcDbArc
 50
0.0
 51
90.0
  0
LINE
  5
F78
330
7F0
100
AcDbEntity
  8
0
  6
Continuous
 62
     1
100
AcDbLine
 10
182.0
 20
142.8
 30
0.0
 11
183.0
 21
142.8
 31
0.0
  0
ARC
  5
F79
330
7F0
100
AcDbEntity
  8
0
  6
Continuous
 62
     1
100
AcDbCircle
 10
182.0
 20
142.3
 30
0.0
 40
0.5
100
AcDbArc
 50
90.0
 51
180.0
  0
LINE
  5
F7A
330
7F0
100
AcDbEntity
  8
0
  6
Continuous
 62
     1
100
AcDbLine
 10
181.4999999999996
 20
135.8
 30
0.0
 11
181.4999999999996
 21
142.3
 31
0.0
  0
LINE
  5
F7B
330
7F0
100
AcDbEntity
  8
0
  6
Continuous
 62
     1
100
AcDbLine
 10
183.4999999999998
 20
142.3
 30
0.0
 11
183.4999999999998
 21
135.8
 31
0.0
  0
ARC
  5
F7C
330
7F0
100
AcDbEntity
  8
0
  6
Continuous
 62
     1
100
AcDbCircle
 10
169.0
 20
142.3
 30
0.0
 40
0.5
100
AcDbArc
 50
90.0
 51
180.0
  0
LINE
  5
F7D
330
7F0
100
AcDbEntity
  8
0
  6
Continuous
 62
     1
100
AcDbLine
 10
170.0
 20
142.8
 30
0.0
 11
169.0
 21
142.8
 31
0.0
  0
ARC
  5
F7E
330
7F0
100
AcDbEntity
  8
0
  6
Continuous
 62
     1
100
AcDbCircle
 10
170.0
 20
142.3
 30
0.0
 40
0.5
100
AcDbArc
 50
0.0
 51
90.0
  0
LINE
  5
F7F
330
7F0
100
AcDbEntity
  8
0
  6
Continuous
 62
     1
100
AcDbLine
 10
170.5
 20
135.8
 30
0.0
 11
170.5
 21
142.3
 31
0.0
  0
LINE
  5
F80
330
7F0
100
AcDbEntity
  8
0
  6
Continuous
 62
     1
100
AcDbLine
 10
168.5
 20
142.3
 30
0.0
 11
168.5
 21
135.8
 31
0.0
  0
LINE
  5
F81
330
7F0
100
AcDbEntity
  8
0
  6
LTYPE1
 62
     1
100
AcDbLine
 10
165.1999999999999
 20
143.8
 30
0.0
 11
171.1999999999999
 21
143.8
 31
0.0
  0
LINE
  5
F82
330
7F0
100
AcDbEntity
  8
0
  6
Continuous
 62
     4
100
AcDbLine
 10
167.0
 20
152.4
 30
0.0
 11
152.38
 21
152.4
 31
0.0
  0
LINE
  5
F84
330
7F0
100
AcDbEntity
  8
0
  6
Continuous
 62
     1
100
AcDbLine
 10
275.0
 20
120.0
 30
0.0
 11
230.0
 21
120.0
 31
0.0
  0
LINE
  5
F85
330
7F0
100
AcDbEntity
  8
0
  6
Continuous
 62
     1
100
AcDbLine
 10
230.0
 20
120.0
 30
0.0
 11
230.0
 21
97.80000000000001
 31
0.0
  0
LINE
  5
F86
330
7F0
100
AcDbEntity
  8
0
  6
Continuous
 62
     1
100
AcDbLine
 10
275.0
 20
120.0
 30
0.0
 11
275.0
 21
97.80000000000001
 31
0.0
  0
LINE
  5
F87
330
7F0
100
AcDbEntity
  8
0
  6
Continuous
 62
     1
100
AcDbLine
 10
275.0
 20
97.80000000000001
 30
0.0
 11
230.0
 21
97.80000000000001
 31
0.0
  0
LINE
  5
F88
330
7F0
100
AcDbEntity
  8
0
  6
Continuous
 62
     4
100
AcDbLine
 10
230.0
 20
96.79999999999999
 30
0.0
 11
230.0
 21
84.79999999999998
 31
0.0
  0
LINE
  5
F89
330
7F0
100
AcDbEntity
  8
0
  6
Continuous
 62
     4
100
AcDbLine
 10
230.0
 20
86.79999999999997
 30
0.0
 11
232.414814566
 21
86.15295238700001
 31
0.0
  0
LINE
  5
F8A
330
7F0
100
AcDbEntity
  8
0
  6
Continuous
 62
     4
100
AcDbLine
 10
230.0
 20
86.79999999999997
 30
0.0
 11
232.414814566
 21
87.44704761299999
 31
0.0
  0
LINE
  5
F8B
330
7F0
100
AcDbEntity
  8
0
  6
Continuous
 62
     4
100
AcDbLine
 10
275.0
 20
86.79999999999997
 30
0.0
 11
272.585185434
 21
87.44704761299999
 31
0.0
  0
LINE
  5
F8C
330
7F0
100
AcDbEntity
  8
0
  6
Continuous
 62
     4
100
AcDbLine
 10
275.0
 20
86.79999999999997
 30
0.0
 11
272.585185434
 21
86.15295238700001
 31
0.0
  0
LINE
  5
F8D
330
7F0
100
AcDbEntity
  8
0
  6
Continuous
 62
     4
100
AcDbLine
 10
275.0
 20
96.79999999999999
 30
0.0
 11
275.0
 21
84.79999999999998
 31
0.0
  0
TEXT
  5
F8E
330
7F0
100
AcDbEntity
  8
0
  6
Continuous
 62
     4
100
AcDbText
 10
254.7
 20
91.3
 30
0.21
 40
2.1
  1
＋０.５
 41
0.9
  7
KANJI8
100
AcDbText
  0
TEXT
  5
F8F
330
7F0
100
AcDbEntity
  8
0
  6
Continuous
 62
     4
100
AcDbText
 10
254.7
 20
88.79999999999999
 30
0.21
 40
2.1
  1
－０
 41
0.9
  7
KANJI8
100
AcDbText
  0
LINE
  5
F90
330
7F0
100
AcDbEntity
  8
0
  6
Continuous
 62
     4
100
AcDbLine
 10
230.0
 20
86.79999999999997
 30
0.21
 11
275.0
 21
86.79999999999997
 31
0.21
  0
TEXT
  5
F91
330
7F0
100
AcDbEntity
  8
0
  6
Continuous
 62
     4
100
AcDbText
 10
250.55
 20
87.79999999999999
 30
0.3
 40
3.0
  1
４５
 41
0.6
  7
KANJI3
100
AcDbText
  0
LINE
  5
F92
330
7F0
100
AcDbEntity
  8
0
  6
Continuous
 62
     4
100
AcDbLine
 10
220.5
 20
97.80000000000001
 30
0.3
 11
221.1470476129999
 21
100.214814566
 31
0.3
  0
LINE
  5
F93
330
7F0
100
AcDbEntity
  8
0
  6
Continuous
 62
     4
100
AcDbLine
 10
220.5
 20
97.80000000000001
 30
0.0
 11
219.852952387
 21
100.214814566
 31
0.0
  0
TEXT
  5
F94
330
7F0
100
AcDbEntity
  8
0
  6
Continuous
 62
     4
100
AcDbText
 10
223.0
 20
106.15
 30
0.21
 40
2.1
  1
－０
 50
270.0
 41
0.9
  7
KANJI8
100
AcDbText
  0
TEXT
  5
F95
330
7F0
100
AcDbEntity
  8
0
  6
Continuous
 62
     4
100
AcDbText
 10
225.4999999999999
 20
106.15
 30
0.21
 40
2.1
  1
＋０.３
 50
270.0
 41
0.9
  7
KANJI8
100
AcDbText
  0
TEXT
  5
F96
330
7F0
100
AcDbEntity
  8
0
  6
Continuous
 62
     4
100
AcDbText
 10
221.4999999999998
 20
114.7499999999999
 30
0.3
 40
3.0
  1
２２.２
 50
270.0
 41
0.6
  7
KANJI3
100
AcDbText
  0
LINE
  5
F97
330
7F0
100
AcDbEntity
  8
0
  6
Continuous
 62
     4
100
AcDbLine
 10
229.0
 20
97.80000000000001
 30
0.3
 11
218.5
 21
97.80000000000001
 31
0.3
  0
LINE
  5
F98
330
7F0
100
AcDbEntity
  8
0
  6
Continuous
 62
     4
100
AcDbLine
 10
220.5
 20
120.0
 30
0.0
 11
219.852952387
 21
117.585185434
 31
0.0
  0
LINE
  5
F99
330
7F0
100
AcDbEntity
  8
0
  6
Continuous
 62
     4
100
AcDbLine
 10
220.5
 20
120.0
 30
0.0
 11
221.1470476129999
 21
117.585185434
 31
0.0
  0
LINE
  5
F9A
330
7F0
100
AcDbEntity
  8
0
  6
Continuous
 62
     4
100
AcDbLine
 10
229.0
 20
120.0
 30
0.0
 11
218.5
 21
120.0
 31
0.0
  0
LINE
  5
F9B
330
7F0
100
AcDbEntity
  8
0
  6
Continuous
 62
     4
100
AcDbLine
 10
220.5
 20
120.0
 30
0.0
 11
220.5
 21
97.80000000000001
 31
0.0
  0
TEXT
  5
FA0
330
7F0
100
AcDbEntity
  8
0
  6
Continuous
 62
     1
100
AcDbText
 10
235.0
 20
137.5
 30
0.4
 40
4.0
  1
ＰＡＮＥＬ　ＣＵＴ
 41
0.9
  7
KANJI9
100
AcDbText
  0
ENDSEC
  0
SECTION
  2
OBJECTS
  0
DICTIONARY
  5
7DE
330
0
100
AcDbDictionary
281
     1
  3
ACAD_GROUP
350
7DF
  3
ACAD_PLOTSTYLENAME
350
7E0
  3
ACAD_MLINESTYLE
350
7E8
  3
ACAD_PLOTSETTINGS
350
7EA
  3
ACAD_LAYOUT
350
7EB
  0
DICTIONARY
  5
7DF
102
{ACAD_REACTORS
330
7DE
102
}
330
7DE
100
AcDbDictionary
281
     1
  0
ACDBDICTIONARYWDFLT
  5
7E0
102
{ACAD_REACTORS
330
7DE
102
}
330
7DE
100
AcDbDictionary
281
     1
  3
Normal
350
7E1
100
AcDbDictionaryWithDefault
340
7E1
  0
DICTIONARY
  5
7E8
102
{ACAD_REACTORS
330
7DE
102
}
330
7DE
100
AcDbDictionary
281
     1
  3
Standard
350
7E9
  0
DICTIONARY
  5
7EA
102
{ACAD_REACTORS
330
7DE
102
}
330
7DE
100
AcDbDictionary
281
     1
  0
DICTIONARY
  5
7EB
102
{ACAD_REACTORS
330
7DE
102
}
330
7DE
100
AcDbDictionary
281
     1
  3
ﾚｲｱｳﾄ1
350
7EF
  3
Model
350
7F3
  0
ACDBPLACEHOLDER
  5
7E1
102
{ACAD_REACTORS
330
7E0
102
}
330
7E0
  0
MLINESTYLE
  5
7E9
102
{ACAD_REACTORS
330
7E8
102
}
330
7E8
100
AcDbMlineStyle
  2
STANDARD
 70
     0
  3

 62
   256
 51
90.0
 52
90.0
 71
     2
 49
0.5
 62
   256
  6
BYLAYER
 49
-0.5
 62
   256
  6
BYLAYER
  0
LAYOUT
  5
7EF
102
{ACAD_REACTORS
330
7EB
102
}
330
7EB
100
AcDbPlotSettings
  1

  2
Canon LBP-880
  4

  6

 40
0.0
 41
0.0
 42
0.0
 43
0.0
 44
0.0
 45
0.0
 46
0.0
 47
0.0
 48
0.0
 49
0.0
140
0.0
141
0.0
142
1.0
143
1.0
 70
   688
 72
     0
 73
     0
 74
     5
  7

 75
    16
147
1.0
148
0.0
149
0.0
100
AcDbLayout
  1
ﾚｲｱｳﾄ1
 70
     1
 71
     1
 10
0.0
 20
0.0
 11
12.0
 21
9.0
 12
0.0
 22
0.0
 32
0.0
 14
1.000000000000000E+20
 24
1.000000000000000E+20
 34
1.000000000000000E+20
 15
-1.000000000000000E+20
 25
-1.000000000000000E+20
 35
-1.000000000000000E+20
146
0.0
 13
0.0
 23
0.0
 33
0.0
 16
1.0
 26
0.0
 36
0.0
 17
0.0
 27
1.0
 37
0.0
 76
     0
330
7EC
  0
LAYOUT
  5
7F3
102
{ACAD_REACTORS
330
7EB
102
}
330
7EB
100
AcDbPlotSettings
  1

  2
Canon LBP-880
  4

  6

 40
0.0
 41
0.0
 42
0.0
 43
0.0
 44
0.0
 45
0.0
 46
0.0
 47
0.0
 48
0.0
 49
0.0
140
0.0
141
0.0
142
1.0
143
1.0
 70
  1712
 72
     0
 73
     0
 74
     0
  7

 75
     0
147
1.0
148
0.0
149
0.0
100
AcDbLayout
  1
Model
 70
     1
 71
     0
 10
0.0
 20
0.0
 11
12.0
 21
9.0
 12
0.0
 22
0.0
 32
0.0
 14
0.0
 24
0.0
 34
0.0
 15
0.0
 25
0.0
 35
0.0
146
0.0
 13
0.0
 23
0.0
 33
0.0
 16
1.0
 26
0.0
 36
0.0
 17
0.0
 27
1.0
 37
0.0
 76
     0
330
7F0
  0
ENDSEC
  0
EOF
