  0
SECTION
  2
HEADER
  9
$EXTMIN
 10
0.0
 20
0.0
 30
0.0
  9
$EXTMAX
 10
1075.2
 20
760.32
 30
0.0
  9
$LIMMIN
 10
0.0
 20
0.0
  9
$LIMMAX
 10
1075.2
 20
760.32
  9
$LTSCALE
 40
1.0
  9
$PDMODE
 70
     0
  0
ENDSEC
  0
SECTION
  2
TABLES
  0
TABLE
  2
LTYPE
 70
     1
  0
LTYPE
  2
CONTINUOUS
 70
    64
  3
Solid line
 72
    65
 73
     0
 40
0.0
  0
ENDTAB
  0
TABLE
  2
LAYER
 70
   128
  0
LAYER
  2
0
 70
     0
 62
     7
  6
CONTINUOUS
  0
LAYER
  2
1
 70
     0
 62
     7
  6
CONTINUOUS
  0
LAYER
  2
2
 70
     0
 62
     7
  6
CONTINUOUS
  0
LAYER
  2
3
 70
     0
 62
     7
  6
CONTINUOUS
  0
LAYER
  2
4
 70
     0
 62
     7
  6
CONTINUOUS
  0
LAYER
  2
5
 70
     0
 62
     7
  6
CONTINUOUS
  0
LAYER
  2
6
 70
     0
 62
     7
  6
CONTINUOUS
  0
LAYER
  2
7
 70
     0
 62
     7
  6
CONTINUOUS
  0
LAYER
  2
8
 70
     0
 62
     7
  6
CONTINUOUS
  0
LAYER
  2
9
 70
     0
 62
     7
  6
CONTINUOUS
  0
LAYER
  2
10
 70
     0
 62
     7
  6
CONTINUOUS
  0
LAYER
  2
11
 70
     0
 62
     7
  6
CONTINUOUS
  0
LAYER
  2
12
 70
     0
 62
     7
  6
CONTINUOUS
  0
LAYER
  2
13
 70
     0
 62
     7
  6
CONTINUOUS
  0
LAYER
  2
14
 70
     0
 62
     7
  6
CONTINUOUS
  0
LAYER
  2
15
 70
     0
 62
     7
  6
CONTINUOUS
  0
LAYER
  2
16
 70
     0
 62
     7
  6
CONTINUOUS
  0
LAYER
  2
17
 70
     0
 62
     7
  6
CONTINUOUS
  0
LAYER
  2
18
 70
     0
 62
     7
  6
CONTINUOUS
  0
LAYER
  2
19
 70
     0
 62
     7
  6
CONTINUOUS
  0
LAYER
  2
20
 70
     0
 62
     7
  6
CONTINUOUS
  0
LAYER
  2
21
 70
     0
 62
     7
  6
CONTINUOUS
  0
LAYER
  2
22
 70
     0
 62
     7
  6
CONTINUOUS
  0
LAYER
  2
23
 70
     0
 62
     7
  6
CONTINUOUS
  0
LAYER
  2
24
 70
     0
 62
     7
  6
CONTINUOUS
  0
LAYER
  2
25
 70
     0
 62
     7
  6
CONTINUOUS
  0
LAYER
  2
26
 70
     0
 62
     7
  6
CONTINUOUS
  0
LAYER
  2
27
 70
     0
 62
     7
  6
CONTINUOUS
  0
LAYER
  2
28
 70
     0
 62
     7
  6
CONTINUOUS
  0
LAYER
  2
29
 70
     0
 62
     7
  6
CONTINUOUS
  0
LAYER
  2
30
 70
     0
 62
     7
  6
CONTINUOUS
  0
LAYER
  2
31
 70
     0
 62
     7
  6
CONTINUOUS
  0
LAYER
  2
32
 70
     0
 62
     7
  6
CONTINUOUS
  0
LAYER
  2
33
 70
     0
 62
     7
  6
CONTINUOUS
  0
LAYER
  2
34
 70
     0
 62
     7
  6
CONTINUOUS
  0
LAYER
  2
35
 70
     0
 62
     7
  6
CONTINUOUS
  0
LAYER
  2
36
 70
     0
 62
     7
  6
CONTINUOUS
  0
LAYER
  2
37
 70
     0
 62
     7
  6
CONTINUOUS
  0
LAYER
  2
38
 70
     0
 62
     7
  6
CONTINUOUS
  0
LAYER
  2
39
 70
     0
 62
     7
  6
CONTINUOUS
  0
LAYER
  2
40
 70
     0
 62
     7
  6
CONTINUOUS
  0
LAYER
  2
41
 70
     0
 62
     7
  6
CONTINUOUS
  0
LAYER
  2
42
 70
     0
 62
     7
  6
CONTINUOUS
  0
LAYER
  2
43
 70
     0
 62
     7
  6
CONTINUOUS
  0
LAYER
  2
44
 70
     0
 62
     7
  6
CONTINUOUS
  0
LAYER
  2
45
 70
     0
 62
     7
  6
CONTINUOUS
  0
LAYER
  2
46
 70
     0
 62
     7
  6
CONTINUOUS
  0
LAYER
  2
47
 70
     0
 62
     7
  6
CONTINUOUS
  0
LAYER
  2
48
 70
     0
 62
     7
  6
CONTINUOUS
  0
LAYER
  2
49
 70
     0
 62
     7
  6
CONTINUOUS
  0
LAYER
  2
50
 70
     0
 62
     7
  6
CONTINUOUS
  0
LAYER
  2
51
 70
     0
 62
     7
  6
CONTINUOUS
  0
LAYER
  2
52
 70
     0
 62
     7
  6
CONTINUOUS
  0
LAYER
  2
53
 70
     0
 62
     7
  6
CONTINUOUS
  0
LAYER
  2
54
 70
     0
 62
     7
  6
CONTINUOUS
  0
LAYER
  2
55
 70
     0
 62
     7
  6
CONTINUOUS
  0
LAYER
  2
56
 70
     0
 62
     7
  6
CONTINUOUS
  0
LAYER
  2
57
 70
     0
 62
     7
  6
CONTINUOUS
  0
LAYER
  2
58
 70
     0
 62
     7
  6
CONTINUOUS
  0
LAYER
  2
59
 70
     0
 62
     7
  6
CONTINUOUS
  0
LAYER
  2
60
 70
     0
 62
     7
  6
CONTINUOUS
  0
LAYER
  2
61
 70
     0
 62
     7
  6
CONTINUOUS
  0
LAYER
  2
62
 70
     0
 62
     7
  6
CONTINUOUS
  0
LAYER
  2
63
 70
     0
 62
     7
  6
CONTINUOUS
  0
LAYER
  2
64
 70
     0
 62
     7
  6
CONTINUOUS
  0
LAYER
  2
65
 70
     0
 62
     7
  6
CONTINUOUS
  0
LAYER
  2
66
 70
     0
 62
     7
  6
CONTINUOUS
  0
LAYER
  2
67
 70
     0
 62
     7
  6
CONTINUOUS
  0
LAYER
  2
68
 70
     0
 62
     7
  6
CONTINUOUS
  0
LAYER
  2
69
 70
     0
 62
     7
  6
CONTINUOUS
  0
LAYER
  2
70
 70
     0
 62
     7
  6
CONTINUOUS
  0
LAYER
  2
71
 70
     0
 62
     7
  6
CONTINUOUS
  0
LAYER
  2
72
 70
     0
 62
     7
  6
CONTINUOUS
  0
LAYER
  2
73
 70
     0
 62
     7
  6
CONTINUOUS
  0
LAYER
  2
74
 70
     0
 62
     7
  6
CONTINUOUS
  0
LAYER
  2
75
 70
     0
 62
     7
  6
CONTINUOUS
  0
LAYER
  2
76
 70
     0
 62
     7
  6
CONTINUOUS
  0
LAYER
  2
77
 70
     0
 62
     7
  6
CONTINUOUS
  0
LAYER
  2
78
 70
     0
 62
     7
  6
CONTINUOUS
  0
LAYER
  2
79
 70
     0
 62
     7
  6
CONTINUOUS
  0
LAYER
  2
80
 70
     0
 62
     7
  6
CONTINUOUS
  0
LAYER
  2
81
 70
     0
 62
     7
  6
CONTINUOUS
  0
LAYER
  2
82
 70
     0
 62
     7
  6
CONTINUOUS
  0
LAYER
  2
83
 70
     0
 62
     7
  6
CONTINUOUS
  0
LAYER
  2
84
 70
     0
 62
     7
  6
CONTINUOUS
  0
LAYER
  2
85
 70
     0
 62
     7
  6
CONTINUOUS
  0
LAYER
  2
86
 70
     0
 62
     7
  6
CONTINUOUS
  0
LAYER
  2
87
 70
     0
 62
     7
  6
CONTINUOUS
  0
LAYER
  2
88
 70
     0
 62
     7
  6
CONTINUOUS
  0
LAYER
  2
89
 70
     0
 62
     7
  6
CONTINUOUS
  0
LAYER
  2
90
 70
     0
 62
     7
  6
CONTINUOUS
  0
LAYER
  2
91
 70
     0
 62
     7
  6
CONTINUOUS
  0
LAYER
  2
92
 70
     0
 62
     7
  6
CONTINUOUS
  0
LAYER
  2
93
 70
     0
 62
     7
  6
CONTINUOUS
  0
LAYER
  2
94
 70
     0
 62
     7
  6
CONTINUOUS
  0
LAYER
  2
95
 70
     0
 62
     7
  6
CONTINUOUS
  0
LAYER
  2
96
 70
     0
 62
     7
  6
CONTINUOUS
  0
LAYER
  2
97
 70
     0
 62
     7
  6
CONTINUOUS
  0
LAYER
  2
98
 70
     0
 62
     7
  6
CONTINUOUS
  0
LAYER
  2
99
 70
     0
 62
     7
  6
CONTINUOUS
  0
LAYER
  2
100
 70
     0
 62
     7
  6
CONTINUOUS
  0
LAYER
  2
101
 70
     0
 62
     7
  6
CONTINUOUS
  0
LAYER
  2
102
 70
     0
 62
     7
  6
CONTINUOUS
  0
LAYER
  2
103
 70
     0
 62
     7
  6
CONTINUOUS
  0
LAYER
  2
104
 70
     0
 62
     7
  6
CONTINUOUS
  0
LAYER
  2
105
 70
     0
 62
     7
  6
CONTINUOUS
  0
LAYER
  2
106
 70
     0
 62
     7
  6
CONTINUOUS
  0
LAYER
  2
107
 70
     0
 62
     7
  6
CONTINUOUS
  0
LAYER
  2
108
 70
     0
 62
     7
  6
CONTINUOUS
  0
LAYER
  2
109
 70
     0
 62
     7
  6
CONTINUOUS
  0
LAYER
  2
110
 70
     0
 62
     7
  6
CONTINUOUS
  0
LAYER
  2
111
 70
     0
 62
     7
  6
CONTINUOUS
  0
LAYER
  2
112
 70
     0
 62
     7
  6
CONTINUOUS
  0
LAYER
  2
113
 70
     0
 62
     7
  6
CONTINUOUS
  0
LAYER
  2
114
 70
     0
 62
     7
  6
CONTINUOUS
  0
LAYER
  2
115
 70
     0
 62
     7
  6
CONTINUOUS
  0
LAYER
  2
116
 70
     0
 62
     7
  6
CONTINUOUS
  0
LAYER
  2
117
 70
     0
 62
     7
  6
CONTINUOUS
  0
LAYER
  2
118
 70
     0
 62
     7
  6
CONTINUOUS
  0
LAYER
  2
119
 70
     0
 62
     7
  6
CONTINUOUS
  0
LAYER
  2
120
 70
     0
 62
     7
  6
CONTINUOUS
  0
LAYER
  2
121
 70
     0
 62
     7
  6
CONTINUOUS
  0
LAYER
  2
122
 70
     0
 62
     7
  6
CONTINUOUS
  0
LAYER
  2
123
 70
     0
 62
     7
  6
CONTINUOUS
  0
LAYER
  2
124
 70
     0
 62
     7
  6
CONTINUOUS
  0
LAYER
  2
125
 70
     0
 62
     7
  6
CONTINUOUS
  0
LAYER
  2
126
 70
     0
 62
     7
  6
CONTINUOUS
  0
LAYER
  2
127
 70
     0
 62
     7
  6
CONTINUOUS
  0
ENDTAB
  0
TABLE
  2
STYLE
 70
     6
  0
STYLE
  2
STANDARD
 70
     0
 40
0.0
 41
1.0
 50
0.0
 71
     0
 42
0.2
  3
txt
  4

  0
STYLE
  2
KANJI0
 70
     0
 40
2.1
 41
0.6
 50
0.0
 71
     0
 42
2.1
  3

  4
bigfont
  0
STYLE
  2
KANJI1
 70
     0
 40
1.4904
 41
0.739130435
 50
0.0
 71
     0
 42
1.4904
  3

  4
bigfont
  0
STYLE
  2
KANJI2
 70
     0
 40
1.656
 41
0.739130435
 50
0.0
 71
     0
 42
1.656
  3

  4
bigfont
  0
STYLE
  2
KANJI3
 70
     0
 40
1.4904
 41
0.739130435
 50
0.0
 71
     0
 42
1.4904
  3

  4
bigfont
  0
STYLE
  2
KANJI4
 70
     0
 40
3.0
 41
0.833333333
 50
0.0
 71
     0
 42
3.0
  3

  4
bigfont
  0
ENDTAB
  0
TABLE
  2
VIEW
 70
     0
  0
ENDTAB
  0
ENDSEC
  0
SECTION
  2
BLOCKS
  0
ENDSEC
  0
SECTION
  2
ENTITIES
  0
LINE
  8
0
  6
CONTINUOUS
 62
     1
 10
38.5
 20
33.25
 11
13.3
 21
33.25
  0
LINE
  8
0
  6
CONTINUOUS
 62
     1
 10
13.3
 20
33.25
 11
13.3
 21
8.05
  0
LINE
  8
0
  6
CONTINUOUS
 62
     1
 10
13.3
 20
8.05
 11
38.5
 21
8.05
  0
LINE
  8
0
  6
CONTINUOUS
 62
     1
 10
38.5
 20
10.5
 11
14.7
 21
10.5
  0
LINE
  8
0
  6
CONTINUOUS
 62
     1
 10
14.7
 20
10.5
 11
14.7
 21
30.8
  0
LINE
  8
0
  6
CONTINUOUS
 62
     1
 10
14.7
 20
30.8
 11
38.5
 21
30.8
  0
LINE
  8
0
  6
CONTINUOUS
 62
     1
 10
38.5
 20
29.75
 11
14.7
 21
29.75
  0
LINE
  8
0
  6
CONTINUOUS
 62
     1
 10
38.5
 20
11.55
 11
14.7
 21
11.55
  0
LINE
  8
0
  6
CONTINUOUS
 62
     1
 10
13.3
 20
32.9
 11
38.5
 21
32.9
  0
LINE
  8
0
  6
CONTINUOUS
 62
     1
 10
38.5
 20
8.4
 11
13.3
 21
8.4
  0
LINE
  8
0
  6
CONTINUOUS
 62
     1
 10
38.5
 20
33.25
 11
63.7
 21
33.25
  0
LINE
  8
0
  6
CONTINUOUS
 62
     1
 10
63.7
 20
33.25
 11
63.7
 21
8.05
  0
LINE
  8
0
  6
CONTINUOUS
 62
     1
 10
63.7
 20
8.05
 11
38.5
 21
8.05
  0
LINE
  8
0
  6
CONTINUOUS
 62
     1
 10
38.5
 20
10.5
 11
62.3
 21
10.5
  0
LINE
  8
0
  6
CONTINUOUS
 62
     1
 10
62.3
 20
10.5
 11
62.3
 21
30.8
  0
LINE
  8
0
  6
CONTINUOUS
 62
     1
 10
62.3
 20
30.8
 11
38.5
 21
30.8
  0
LINE
  8
0
  6
CONTINUOUS
 62
     1
 10
38.5
 20
29.75
 11
62.3
 21
29.75
  0
LINE
  8
0
  6
CONTINUOUS
 62
     1
 10
38.5
 20
11.55
 11
62.3
 21
11.55
  0
LINE
  8
0
  6
CONTINUOUS
 62
     1
 10
63.7
 20
32.9
 11
38.5
 21
32.9
  0
LINE
  8
0
  6
CONTINUOUS
 62
     1
 10
38.5
 20
8.4
 11
63.7
 21
8.4
  0
POINT
  8
0
  6
CONTINUOUS
 62
     1
 10
40.481752141
 20
25.40111598
  0
LINE
  8
0
  6
CONTINUOUS
 62
     1
 10
43.351752141
 20
16.58111598
 11
43.841752141
 21
15.74111598
  0
LINE
  8
0
  6
CONTINUOUS
 62
     1
 10
43.478114664
 20
16.73
 11
43.968114664
 21
15.89
  0
LINE
  8
0
  6
CONTINUOUS
 62
     1
 10
39.558114664
 20
16.59
 11
38.788114664
 21
15.75
  0
LINE
  8
0
  6
CONTINUOUS
 62
     1
 10
43.338114664
 20
16.59
 11
39.558114664
 21
16.59
  0
LINE
  8
0
  6
CONTINUOUS
 62
     1
 10
43.968114664
 20
15.835887872
 11
44.121752141
 21
15.95111598
  0
LINE
  8
0
  6
CONTINUOUS
 62
     1
 10
43.758114664
 20
15.75
 11
38.788114664
 21
15.75
  0
LINE
  8
0
  6
CONTINUOUS
 62
     1
 10
44.108114664
 20
21.07
 11
44.598114664
 21
20.65
  0
LINE
  8
0
  6
CONTINUOUS
 62
     1
 10
44.598114664
 20
20.65
 11
43.968114664
 21
20.23
  0
LINE
  8
0
  6
CONTINUOUS
 62
     1
 10
44.038114664
 20
20.09
 11
44.878114664
 21
20.65
  0
LINE
  8
0
  6
CONTINUOUS
 62
     1
 10
44.878114664
 20
20.65
 11
44.948114664
 21
20.58
  0
LINE
  8
0
  6
CONTINUOUS
 62
     1
 10
44.248114664
 20
21.14
 11
44.738114664
 21
20.72
  0
LINE
  8
0
  6
CONTINUOUS
 62
     1
 10
44.738114664
 20
20.72
 11
45.018114664
 21
20.93
  0
LINE
  8
0
  6
CONTINUOUS
 62
     1
 10
44.951659317
 20
20.58
 11
44.137028666
 21
15.96
  0
LINE
  8
0
  6
CONTINUOUS
 62
     1
 10
44.025259096
 20
20.09
 11
43.432800441
 21
16.73
  0
LINE
  8
0
  6
CONTINUOUS
 62
     1
 10
40.258114664
 20
20.23
 11
39.698114664
 21
20.65
  0
LINE
  8
0
  6
CONTINUOUS
 62
     1
 10
39.698114664
 20
20.65
 11
40.468114664
 21
21.07
  0
LINE
  8
0
  6
CONTINUOUS
 62
     1
 10
40.258114664
 20
21.14
 11
39.558114664
 21
20.72
  0
LINE
  8
0
  6
CONTINUOUS
 62
     1
 10
39.558114664
 20
20.72
 11
39.418114664
 21
20.86
  0
LINE
  8
0
  6
CONTINUOUS
 62
     1
 10
43.968114664
 20
20.23
 11
40.258114664
 21
20.23
  0
LINE
  8
0
  6
CONTINUOUS
 62
     1
 10
40.468114664
 20
21.07
 11
44.108114664
 21
21.07
  0
LINE
  8
0
  6
CONTINUOUS
 62
     1
 10
40.888114664
 20
24.43
 11
40.258114664
 21
25.2
  0
LINE
  8
0
  6
CONTINUOUS
 62
     1
 10
40.398114664
 20
25.34
 11
41.028114664
 21
24.57
  0
LINE
  8
0
  6
CONTINUOUS
 62
     1
 10
40.290402426
 20
21.14
 11
40.870518193
 21
24.43
  0
LINE
  8
0
  6
CONTINUOUS
 62
     1
 10
40.258114664
 20
25.233387872
 11
40.201752141
 21
25.19111598
  0
LINE
  8
0
  6
CONTINUOUS
 62
     1
 10
40.481752141
 20
25.40111598
 11
40.398114664
 21
25.338387872
  0
LINE
  8
0
  6
CONTINUOUS
 62
     1
 10
39.401030871
 20
20.86
 11
40.166289968
 21
25.2
  0
LINE
  8
0
  6
CONTINUOUS
 62
     1
 10
44.668114664
 20
24.57
 11
45.578114664
 21
25.27
  0
LINE
  8
0
  6
CONTINUOUS
 62
     1
 10
44.790518193
 20
24.43
 11
44.210402426
 21
21.14
  0
LINE
  8
0
  6
CONTINUOUS
 62
     1
 10
41.028114664
 20
24.56111598
 11
44.668114664
 21
24.56111598
  0
LINE
  8
0
  6
CONTINUOUS
 62
     1
 10
40.468114664
 20
25.40111598
 11
45.508114664
 21
25.40111598
  0
LINE
  8
0
  6
CONTINUOUS
 62
     1
 10
45.521752141
 20
25.40111598
 11
45.620089126
 21
25.27
  0
LINE
  8
0
  6
CONTINUOUS
 62
     1
 10
45.648114664
 20
25.06
 11
45.718114664
 21
24.92
  0
LINE
  8
0
  6
CONTINUOUS
 62
     1
 10
45.716918413
 20
24.92
 11
45.01337376
 21
20.93
  0
LINE
  8
0
  6
CONTINUOUS
 62
     1
 10
45.648114664
 20
25.076153846
 11
44.808114664
 21
24.43
  0
POINT
  8
0
  6
CONTINUOUS
 62
     1
 10
49.581752141
 20
25.40111598
  0
LINE
  8
0
  6
CONTINUOUS
 62
     1
 10
52.451752141
 20
16.58111598
 11
52.941752141
 21
15.74111598
  0
LINE
  8
0
  6
CONTINUOUS
 62
     1
 10
52.578114664
 20
16.73
 11
53.068114664
 21
15.89
  0
LINE
  8
0
  6
CONTINUOUS
 62
     1
 10
48.658114664
 20
16.59
 11
47.888114664
 21
15.75
  0
LINE
  8
0
  6
CONTINUOUS
 62
     1
 10
52.438114664
 20
16.59
 11
48.658114664
 21
16.59
  0
LINE
  8
0
  6
CONTINUOUS
 62
     1
 10
53.068114664
 20
15.835887872
 11
53.221752141
 21
15.95111598
  0
LINE
  8
0
  6
CONTINUOUS
 62
     1
 10
52.858114664
 20
15.75
 11
47.888114664
 21
15.75
  0
LINE
  8
0
  6
CONTINUOUS
 62
     1
 10
53.208114664
 20
21.07
 11
53.698114664
 21
20.65
  0
LINE
  8
0
  6
CONTINUOUS
 62
     1
 10
53.698114664
 20
20.65
 11
53.068114664
 21
20.23
  0
LINE
  8
0
  6
CONTINUOUS
 62
     1
 10
53.138114664
 20
20.09
 11
53.978114664
 21
20.65
  0
LINE
  8
0
  6
CONTINUOUS
 62
     1
 10
53.978114664
 20
20.65
 11
54.048114664
 21
20.58
  0
LINE
  8
0
  6
CONTINUOUS
 62
     1
 10
53.348114664
 20
21.14
 11
53.838114664
 21
20.72
  0
LINE
  8
0
  6
CONTINUOUS
 62
     1
 10
53.838114664
 20
20.72
 11
54.118114664
 21
20.93
  0
LINE
  8
0
  6
CONTINUOUS
 62
     1
 10
54.051659317
 20
20.58
 11
53.237028666
 21
15.96
  0
LINE
  8
0
  6
CONTINUOUS
 62
     1
 10
53.125259096
 20
20.09
 11
52.532800441
 21
16.73
  0
LINE
  8
0
  6
CONTINUOUS
 62
     1
 10
49.358114664
 20
20.23
 11
48.798114664
 21
20.65
  0
LINE
  8
0
  6
CONTINUOUS
 62
     1
 10
48.798114664
 20
20.65
 11
49.568114664
 21
21.07
  0
LINE
  8
0
  6
CONTINUOUS
 62
     1
 10
49.358114664
 20
21.14
 11
48.658114664
 21
20.72
  0
LINE
  8
0
  6
CONTINUOUS
 62
     1
 10
48.658114664
 20
20.72
 11
48.518114664
 21
20.86
  0
LINE
  8
0
  6
CONTINUOUS
 62
     1
 10
53.068114664
 20
20.23
 11
49.358114664
 21
20.23
  0
LINE
  8
0
  6
CONTINUOUS
 62
     1
 10
49.568114664
 20
21.07
 11
53.208114664
 21
21.07
  0
LINE
  8
0
  6
CONTINUOUS
 62
     1
 10
49.988114664
 20
24.43
 11
49.358114664
 21
25.2
  0
LINE
  8
0
  6
CONTINUOUS
 62
     1
 10
49.498114664
 20
25.34
 11
50.128114664
 21
24.57
  0
LINE
  8
0
  6
CONTINUOUS
 62
     1
 10
49.390402426
 20
21.14
 11
49.970518193
 21
24.43
  0
LINE
  8
0
  6
CONTINUOUS
 62
     1
 10
49.358114664
 20
25.233387872
 11
49.301752141
 21
25.19111598
  0
LINE
  8
0
  6
CONTINUOUS
 62
     1
 10
49.581752141
 20
25.40111598
 11
49.498114664
 21
25.338387872
  0
LINE
  8
0
  6
CONTINUOUS
 62
     1
 10
48.501030871
 20
20.86
 11
49.266289968
 21
25.2
  0
LINE
  8
0
  6
CONTINUOUS
 62
     1
 10
53.768114664
 20
24.57
 11
54.678114664
 21
25.27
  0
LINE
  8
0
  6
CONTINUOUS
 62
     1
 10
53.890518193
 20
24.43
 11
53.310402426
 21
21.14
  0
LINE
  8
0
  6
CONTINUOUS
 62
     1
 10
50.128114664
 20
24.56111598
 11
53.768114664
 21
24.56111598
  0
LINE
  8
0
  6
CONTINUOUS
 62
     1
 10
49.568114664
 20
25.40111598
 11
54.608114664
 21
25.40111598
  0
LINE
  8
0
  6
CONTINUOUS
 62
     1
 10
54.621752141
 20
25.40111598
 11
54.720089126
 21
25.27
  0
LINE
  8
0
  6
CONTINUOUS
 62
     1
 10
54.748114664
 20
25.06
 11
54.818114664
 21
24.92
  0
LINE
  8
0
  6
CONTINUOUS
 62
     1
 10
54.816918413
 20
24.92
 11
54.11337376
 21
20.93
  0
LINE
  8
0
  6
CONTINUOUS
 62
     1
 10
54.748114664
 20
25.076153846
 11
53.908114664
 21
24.43
  0
POINT
  8
0
  6
CONTINUOUS
 62
     1
 10
22.281752141
 20
25.40111598
  0
LINE
  8
0
  6
CONTINUOUS
 62
     1
 10
25.151752141
 20
16.58111598
 11
25.641752141
 21
15.74111598
  0
LINE
  8
0
  6
CONTINUOUS
 62
     1
 10
25.278114664
 20
16.73
 11
25.768114664
 21
15.89
  0
LINE
  8
0
  6
CONTINUOUS
 62
     1
 10
21.358114664
 20
16.59
 11
20.588114664
 21
15.75
  0
LINE
  8
0
  6
CONTINUOUS
 62
     1
 10
25.138114664
 20
16.59
 11
21.358114664
 21
16.59
  0
LINE
  8
0
  6
CONTINUOUS
 62
     1
 10
25.768114664
 20
15.835887872
 11
25.921752141
 21
15.95111598
  0
LINE
  8
0
  6
CONTINUOUS
 62
     1
 10
25.558114664
 20
15.75
 11
20.588114664
 21
15.75
  0
LINE
  8
0
  6
CONTINUOUS
 62
     1
 10
25.908114664
 20
21.07
 11
26.398114664
 21
20.65
  0
LINE
  8
0
  6
CONTINUOUS
 62
     1
 10
26.398114664
 20
20.65
 11
25.768114664
 21
20.23
  0
LINE
  8
0
  6
CONTINUOUS
 62
     1
 10
25.838114664
 20
20.09
 11
26.678114664
 21
20.65
  0
LINE
  8
0
  6
CONTINUOUS
 62
     1
 10
26.678114664
 20
20.65
 11
26.748114664
 21
20.58
  0
LINE
  8
0
  6
CONTINUOUS
 62
     1
 10
26.048114664
 20
21.14
 11
26.538114664
 21
20.72
  0
LINE
  8
0
  6
CONTINUOUS
 62
     1
 10
26.538114664
 20
20.72
 11
26.818114664
 21
20.93
  0
LINE
  8
0
  6
CONTINUOUS
 62
     1
 10
26.751659317
 20
20.58
 11
25.937028666
 21
15.96
  0
LINE
  8
0
  6
CONTINUOUS
 62
     1
 10
25.825259096
 20
20.09
 11
25.232800441
 21
16.73
  0
LINE
  8
0
  6
CONTINUOUS
 62
     1
 10
22.058114664
 20
20.23
 11
21.498114664
 21
20.65
  0
LINE
  8
0
  6
CONTINUOUS
 62
     1
 10
21.498114664
 20
20.65
 11
22.268114664
 21
21.07
  0
LINE
  8
0
  6
CONTINUOUS
 62
     1
 10
22.058114664
 20
21.14
 11
21.358114664
 21
20.72
  0
LINE
  8
0
  6
CONTINUOUS
 62
     1
 10
21.358114664
 20
20.72
 11
21.218114664
 21
20.86
  0
LINE
  8
0
  6
CONTINUOUS
 62
     1
 10
25.768114664
 20
20.23
 11
22.058114664
 21
20.23
  0
LINE
  8
0
  6
CONTINUOUS
 62
     1
 10
22.268114664
 20
21.07
 11
25.908114664
 21
21.07
  0
LINE
  8
0
  6
CONTINUOUS
 62
     1
 10
22.688114664
 20
24.43
 11
22.058114664
 21
25.2
  0
LINE
  8
0
  6
CONTINUOUS
 62
     1
 10
22.198114664
 20
25.34
 11
22.828114664
 21
24.57
  0
LINE
  8
0
  6
CONTINUOUS
 62
     1
 10
22.090402426
 20
21.14
 11
22.670518193
 21
24.43
  0
LINE
  8
0
  6
CONTINUOUS
 62
     1
 10
22.058114664
 20
25.233387872
 11
22.001752141
 21
25.19111598
  0
LINE
  8
0
  6
CONTINUOUS
 62
     1
 10
22.281752141
 20
25.40111598
 11
22.198114664
 21
25.338387872
  0
LINE
  8
0
  6
CONTINUOUS
 62
     1
 10
21.201030871
 20
20.86
 11
21.966289968
 21
25.2
  0
LINE
  8
0
  6
CONTINUOUS
 62
     1
 10
26.468114664
 20
24.57
 11
27.378114664
 21
25.27
  0
LINE
  8
0
  6
CONTINUOUS
 62
     1
 10
26.590518193
 20
24.43
 11
26.010402426
 21
21.14
  0
LINE
  8
0
  6
CONTINUOUS
 62
     1
 10
22.828114664
 20
24.56111598
 11
26.468114664
 21
24.56111598
  0
LINE
  8
0
  6
CONTINUOUS
 62
     1
 10
22.268114664
 20
25.40111598
 11
27.308114664
 21
25.40111598
  0
LINE
  8
0
  6
CONTINUOUS
 62
     1
 10
27.321752141
 20
25.40111598
 11
27.420089126
 21
25.27
  0
LINE
  8
0
  6
CONTINUOUS
 62
     1
 10
27.448114664
 20
25.06
 11
27.518114664
 21
24.92
  0
LINE
  8
0
  6
CONTINUOUS
 62
     1
 10
27.516918413
 20
24.92
 11
26.81337376
 21
20.93
  0
LINE
  8
0
  6
CONTINUOUS
 62
     1
 10
27.448114664
 20
25.076153846
 11
26.608114664
 21
24.43
  0
POINT
  8
0
  6
CONTINUOUS
 62
     1
 10
31.381752141
 20
25.40111598
  0
LINE
  8
0
  6
CONTINUOUS
 62
     1
 10
34.251752141
 20
16.58111598
 11
34.741752141
 21
15.74111598
  0
LINE
  8
0
  6
CONTINUOUS
 62
     1
 10
34.378114664
 20
16.73
 11
34.868114664
 21
15.89
  0
LINE
  8
0
  6
CONTINUOUS
 62
     1
 10
30.458114664
 20
16.59
 11
29.688114664
 21
15.75
  0
LINE
  8
0
  6
CONTINUOUS
 62
     1
 10
34.238114664
 20
16.59
 11
30.458114664
 21
16.59
  0
LINE
  8
0
  6
CONTINUOUS
 62
     1
 10
34.868114664
 20
15.835887872
 11
35.021752141
 21
15.95111598
  0
LINE
  8
0
  6
CONTINUOUS
 62
     1
 10
34.658114664
 20
15.75
 11
29.688114664
 21
15.75
  0
LINE
  8
0
  6
CONTINUOUS
 62
     1
 10
35.008114664
 20
21.07
 11
35.498114664
 21
20.65
  0
LINE
  8
0
  6
CONTINUOUS
 62
     1
 10
35.498114664
 20
20.65
 11
34.868114664
 21
20.23
  0
LINE
  8
0
  6
CONTINUOUS
 62
     1
 10
34.938114664
 20
20.09
 11
35.778114664
 21
20.65
  0
LINE
  8
0
  6
CONTINUOUS
 62
     1
 10
35.778114664
 20
20.65
 11
35.848114664
 21
20.58
  0
LINE
  8
0
  6
CONTINUOUS
 62
     1
 10
35.148114664
 20
21.14
 11
35.638114664
 21
20.72
  0
LINE
  8
0
  6
CONTINUOUS
 62
     1
 10
35.638114664
 20
20.72
 11
35.918114664
 21
20.93
  0
LINE
  8
0
  6
CONTINUOUS
 62
     1
 10
35.851659317
 20
20.58
 11
35.037028666
 21
15.96
  0
LINE
  8
0
  6
CONTINUOUS
 62
     1
 10
34.925259096
 20
20.09
 11
34.332800441
 21
16.73
  0
LINE
  8
0
  6
CONTINUOUS
 62
     1
 10
31.158114664
 20
20.23
 11
30.598114664
 21
20.65
  0
LINE
  8
0
  6
CONTINUOUS
 62
     1
 10
30.598114664
 20
20.65
 11
31.368114664
 21
21.07
  0
LINE
  8
0
  6
CONTINUOUS
 62
     1
 10
31.158114664
 20
21.14
 11
30.458114664
 21
20.72
  0
LINE
  8
0
  6
CONTINUOUS
 62
     1
 10
30.458114664
 20
20.72
 11
30.318114664
 21
20.86
  0
LINE
  8
0
  6
CONTINUOUS
 62
     1
 10
34.868114664
 20
20.23
 11
31.158114664
 21
20.23
  0
LINE
  8
0
  6
CONTINUOUS
 62
     1
 10
31.368114664
 20
21.07
 11
35.008114664
 21
21.07
  0
LINE
  8
0
  6
CONTINUOUS
 62
     1
 10
31.788114664
 20
24.43
 11
31.158114664
 21
25.2
  0
LINE
  8
0
  6
CONTINUOUS
 62
     1
 10
31.298114664
 20
25.34
 11
31.928114664
 21
24.57
  0
LINE
  8
0
  6
CONTINUOUS
 62
     1
 10
31.190402426
 20
21.14
 11
31.770518193
 21
24.43
  0
LINE
  8
0
  6
CONTINUOUS
 62
     1
 10
31.158114664
 20
25.233387872
 11
31.101752141
 21
25.19111598
  0
LINE
  8
0
  6
CONTINUOUS
 62
     1
 10
31.381752141
 20
25.40111598
 11
31.298114664
 21
25.338387872
  0
LINE
  8
0
  6
CONTINUOUS
 62
     1
 10
30.301030871
 20
20.86
 11
31.066289968
 21
25.2
  0
LINE
  8
0
  6
CONTINUOUS
 62
     1
 10
35.568114664
 20
24.57
 11
36.478114664
 21
25.27
  0
LINE
  8
0
  6
CONTINUOUS
 62
     1
 10
35.690518193
 20
24.43
 11
35.110402426
 21
21.14
  0
LINE
  8
0
  6
CONTINUOUS
 62
     1
 10
31.928114664
 20
24.56111598
 11
35.568114664
 21
24.56111598
  0
LINE
  8
0
  6
CONTINUOUS
 62
     1
 10
31.368114664
 20
25.40111598
 11
36.408114664
 21
25.40111598
  0
LINE
  8
0
  6
CONTINUOUS
 62
     1
 10
36.421752141
 20
25.40111598
 11
36.520089126
 21
25.27
  0
LINE
  8
0
  6
CONTINUOUS
 62
     1
 10
36.548114664
 20
25.06
 11
36.618114664
 21
24.92
  0
LINE
  8
0
  6
CONTINUOUS
 62
     1
 10
36.616918413
 20
24.92
 11
35.91337376
 21
20.93
  0
LINE
  8
0
  6
CONTINUOUS
 62
     1
 10
36.548114664
 20
25.076153846
 11
35.708114664
 21
24.43
  0
LINE
  8
0
  6
CONTINUOUS
 62
     1
 10
19.818114664
 20
21.0
 11
19.818114664
 21
20.3
  0
LINE
  8
0
  6
CONTINUOUS
 62
     1
 10
19.818114664
 20
20.3
 11
17.718114664
 21
20.3
  0
LINE
  8
0
  6
CONTINUOUS
 62
     1
 10
17.718114664
 20
20.3
 11
17.718114664
 21
21.0
  0
LINE
  8
0
  6
CONTINUOUS
 62
     1
 10
17.718114664
 20
21.0
 11
19.818114664
 21
21.0
  0
LINE
  8
0
  6
CONTINUOUS
 62
     1
 10
13.3
 20
47.25
 11
13.3
 21
51.1
  0
LINE
  8
0
  6
CONTINUOUS
 62
     1
 10
37.8
 20
51.1
 11
13.3
 21
51.1
  0
LINE
  8
0
  6
CONTINUOUS
 62
     1
 10
13.3
 20
47.25
 11
38.15
 21
47.25
  0
LINE
  8
0
  6
CONTINUOUS
 62
     1
 10
37.8
 20
51.1
 11
38.15
 21
51.1
  0
LINE
  8
0
  6
CONTINUOUS
 62
     1
 10
38.15
 20
47.6
 11
13.3
 21
47.6
  0
LINE
  8
0
  6
CONTINUOUS
 62
     1
 10
14.7
 20
51.1
 11
14.7
 21
117.25
  0
LINE
  8
0
  6
CONTINUOUS
 62
     1
 10
14.7
 20
117.25
 11
38.5
 21
117.25
  0
LINE
  8
0
  6
CONTINUOUS
 62
     1
 10
14.7
 20
117.25
 11
14.7
 21
122.85
  0
LINE
  8
0
  6
CONTINUOUS
 62
     1
 10
14.7
 20
122.85
 11
18.9
 21
122.85
  0
LINE
  8
0
  6
CONTINUOUS
 62
     1
 10
18.9
 20
122.85
 11
18.9
 21
117.25
  0
LINE
  8
0
  6
CONTINUOUS
 62
     1
 10
63.0
 20
47.25
 11
63.0
 21
51.1
  0
LINE
  8
0
  6
CONTINUOUS
 62
     1
 10
38.5
 20
51.1
 11
63.0
 21
51.1
  0
LINE
  8
0
  6
CONTINUOUS
 62
     1
 10
63.0
 20
47.25
 11
38.15
 21
47.25
  0
LINE
  8
0
  6
CONTINUOUS
 62
     1
 10
38.5
 20
51.1
 11
38.15
 21
51.1
  0
LINE
  8
0
  6
CONTINUOUS
 62
     1
 10
38.15
 20
47.6
 11
63.0
 21
47.6
  0
LINE
  8
0
  6
CONTINUOUS
 62
     1
 10
61.6
 20
51.1
 11
61.6
 21
117.25
  0
LINE
  8
0
  6
CONTINUOUS
 62
     1
 10
61.6
 20
117.25
 11
37.8
 21
117.25
  0
LINE
  8
0
  6
CONTINUOUS
 62
     1
 10
61.6
 20
117.25
 11
61.6
 21
122.85
  0
LINE
  8
0
  6
CONTINUOUS
 62
     1
 10
61.6
 20
122.85
 11
57.4
 21
122.85
  0
LINE
  8
0
  6
CONTINUOUS
 62
     1
 10
57.4
 20
122.85
 11
57.4
 21
117.25
  0
ARC
  8
0
  6
CONTINUOUS
 62
     1
 10
18.2
 20
76.65
 40
0.7
 50
180.0
 51
270.0
  0
ARC
  8
0
  6
CONTINUOUS
 62
     1
 10
58.8
 20
76.685
 40
0.7
 50
270.0
 51
0.0
  0
LINE
  8
0
  6
CONTINUOUS
 62
     1
 10
58.8
 20
75.95
 11
18.2
 21
75.95
  0
LINE
  8
0
  6
CONTINUOUS
 62
     1
 10
17.5
 20
76.65
 11
17.5
 21
113.085
  0
ARC
  8
0
  6
CONTINUOUS
 62
     1
 10
18.2
 20
113.085
 40
0.7
 50
90.0
 51
180.0
  0
LINE
  8
0
  6
CONTINUOUS
 62
     1
 10
18.2
 20
113.75
 11
58.8
 21
113.75
  0
LINE
  8
0
  6
CONTINUOUS
 62
     1
 10
59.5
 20
113.085
 11
59.5
 21
76.685
  0
ARC
  8
0
  6
CONTINUOUS
 62
     1
 10
58.8
 20
113.085
 40
0.7
 50
0.0
 51
90.0
  0
LINE
  8
0
  6
CONTINUOUS
 62
     1
 10
56.0
 20
121.1
 11
57.4
 21
121.1
  0
LINE
  8
0
  6
CONTINUOUS
 62
     1
 10
56.0
 20
121.1
 11
56.0
 21
117.25
  0
LINE
  8
0
  6
CONTINUOUS
 62
     1
 10
18.9
 20
121.1
 11
20.3
 21
121.1
  0
LINE
  8
0
  6
CONTINUOUS
 62
     1
 10
20.3
 20
121.1
 11
20.3
 21
117.25
  0
ARC
  8
0
  6
CONTINUOUS
 62
     1
 10
61.6
 20
120.75
 40
0.35
 50
0.0
 51
90.0
  0
LINE
  8
0
  6
CONTINUOUS
 62
     1
 10
61.95
 20
120.75
 11
61.95
 21
51.8
  0
LINE
  8
0
  6
CONTINUOUS
 62
     1
 10
61.95
 20
51.8
 11
62.79
 21
51.8
  0
LINE
  8
0
  6
CONTINUOUS
 62
     1
 10
62.79
 20
51.8
 11
62.79
 21
120.75
  0
ARC
  8
0
  6
CONTINUOUS
 62
     1
 10
61.6
 20
120.75
 40
1.19
 50
0.0
 51
90.0
  0
LINE
  8
0
  6
CONTINUOUS
 62
     1
 10
13.51
 20
120.75
 11
13.51
 21
51.8
  0
LINE
  8
0
  6
CONTINUOUS
 62
     1
 10
13.51
 20
51.8
 11
14.35
 21
51.8
  0
LINE
  8
0
  6
CONTINUOUS
 62
     1
 10
14.35
 20
51.8
 11
14.35
 21
120.75
  0
ARC
  8
0
  6
CONTINUOUS
 62
     1
 10
14.7
 20
120.75
 40
1.19
 50
90.0
 51
180.0
  0
ARC
  8
0
  6
CONTINUOUS
 62
     1
 10
14.7
 20
120.75
 40
0.35
 50
90.0
 51
180.0
  0
LINE
  8
0
  6
CONTINUOUS
 62
     1
 10
17.5
 20
123.34
 11
16.1
 21
123.34
  0
LINE
  8
0
  6
CONTINUOUS
 62
     1
 10
16.1
 20
123.34
 11
15.75
 21
122.99
  0
LINE
  8
0
  6
CONTINUOUS
 62
     1
 10
17.5
 20
123.34
 11
18.9
 21
123.34
  0
LINE
  8
0
  6
CONTINUOUS
 62
     1
 10
18.9
 20
123.34
 11
19.25
 21
122.99
  0
LINE
  8
0
  6
CONTINUOUS
 62
     1
 10
19.25
 20
122.99
 11
19.25
 21
121.94
  0
POINT
  8
0
  6
CONTINUOUS
 62
     1
 10
17.5
 20
123.34
  0
LINE
  8
0
  6
CONTINUOUS
 62
     1
 10
17.605
 20
122.85
 11
17.85
 21
123.34
  0
LINE
  8
0
  6
CONTINUOUS
 62
     1
 10
17.15
 20
123.34
 11
17.395
 21
122.85
  0
LINE
  8
0
  6
CONTINUOUS
 62
     1
 10
15.75
 20
122.99
 11
15.75
 21
122.85
  0
LINE
  8
0
  6
CONTINUOUS
 62
     1
 10
58.8
 20
123.34
 11
60.2
 21
123.34
  0
LINE
  8
0
  6
CONTINUOUS
 62
     1
 10
60.2
 20
123.34
 11
60.55
 21
122.99
  0
LINE
  8
0
  6
CONTINUOUS
 62
     1
 10
58.8
 20
123.34
 11
57.4
 21
123.34
  0
LINE
  8
0
  6
CONTINUOUS
 62
     1
 10
57.4
 20
123.34
 11
57.05
 21
122.99
  0
LINE
  8
0
  6
CONTINUOUS
 62
     1
 10
57.05
 20
122.99
 11
57.05
 21
121.94
  0
POINT
  8
0
  6
CONTINUOUS
 62
     1
 10
58.8
 20
123.34
  0
LINE
  8
0
  6
CONTINUOUS
 62
     1
 10
59.15
 20
123.34
 11
58.905
 21
122.85
  0
LINE
  8
0
  6
CONTINUOUS
 62
     1
 10
58.695
 20
122.85
 11
58.45
 21
123.34
  0
LINE
  8
0
  6
CONTINUOUS
 62
     1
 10
60.55
 20
122.99
 11
60.55
 21
122.85
  0
LINE
  8
0
  6
CONTINUOUS
 62
     3
 10
12.95
 20
51.1
 11
9.45
 21
51.1
  0
LINE
  8
0
  6
CONTINUOUS
 62
     3
 10
10.85
 20
51.1
 11
11.302933329
 21
52.790370196
  0
LINE
  8
0
  6
CONTINUOUS
 62
     3
 10
10.85
 20
51.1
 11
10.397066671
 21
52.790370196
  0
LINE
  8
0
  6
CONTINUOUS
 62
     3
 10
10.85
 20
58.8
 11
10.85
 21
43.75
  0
LINE
  8
0
  6
CONTINUOUS
 62
     3
 10
10.85
 20
47.25
 11
10.397066671
 21
45.559629804
  0
LINE
  8
0
  6
CONTINUOUS
 62
     3
 10
10.85
 20
47.25
 11
11.302933329
 21
45.559629804
  0
LINE
  8
0
  6
CONTINUOUS
 62
     3
 10
12.95
 20
47.25
 11
9.45
 21
47.25
  0
LINE
  8
0
  6
CONTINUOUS
 62
     3
 10
9.45
 20
47.25
 11
4.9
 21
47.25
  0
LINE
  8
0
  6
CONTINUOUS
 62
     3
 10
6.3
 20
47.25
 11
6.752933329
 21
48.940370196
  0
LINE
  8
0
  6
CONTINUOUS
 62
     3
 10
6.3
 20
47.25
 11
5.847066671
 21
48.940370196
  0
LINE
  8
0
  6
CONTINUOUS
 62
     3
 10
1.4
 20
47.25
 11
1.852933329
 21
48.940370196
  0
LINE
  8
0
  6
CONTINUOUS
 62
     3
 10
1.4
 20
47.25
 11
0.947066671
 21
48.940370196
  0
LINE
  8
0
  6
CONTINUOUS
 62
     3
 10
4.9
 20
47.25
 11
0.0
 21
47.25
  0
LINE
  8
0
  6
CONTINUOUS
 62
     3
 10
14.7
 20
50.4
 11
14.7
 21
41.195
  0
LINE
  8
0
  6
CONTINUOUS
 62
     3
 10
14.7
 20
42.595
 11
16.390370196
 21
42.142066671
  0
LINE
  8
0
  6
CONTINUOUS
 62
     3
 10
14.7
 20
42.595
 11
16.390370196
 21
43.047933329
  0
LINE
  8
0
  6
CONTINUOUS
 62
     3
 10
14.7
 20
42.595
 11
61.6
 21
42.595
  0
LINE
  8
0
  6
CONTINUOUS
 62
     3
 10
61.6
 20
42.595
 11
59.909629804
 21
43.047933329
  0
LINE
  8
0
  6
CONTINUOUS
 62
     3
 10
61.6
 20
42.595
 11
59.909629804
 21
42.142066671
  0
LINE
  8
0
  6
CONTINUOUS
 62
     3
 10
61.6
 20
50.4
 11
61.6
 21
41.195
  0
TEXT
  8
0
  6
CONTINUOUS
 62
     3
 10
36.785
 20
43.295
 30
0.21
 40
2.1
  1
６８
 50
0.0
 41
0.6
 51
0.0
  7
KANJI0
  0
LINE
  8
0
  6
CONTINUOUS
 62
     3
 10
1.4
 20
126.7
 11
1.4
 21
47.25
  0
LINE
  8
0
  6
CONTINUOUS
 62
     3
 10
4.55
 20
8.05
 11
5.002933329
 21
9.740370196
  0
LINE
  8
0
  6
CONTINUOUS
 62
     3
 10
4.55
 20
8.05
 11
4.097066671
 21
9.740370196
  0
LINE
  8
0
  6
CONTINUOUS
 62
     3
 10
12.6
 20
8.05
 11
3.15
 21
8.05
  0
LINE
  8
0
  6
CONTINUOUS
 62
     3
 10
12.6
 20
33.25
 11
3.15
 21
33.25
  0
LINE
  8
0
  6
CONTINUOUS
 62
     3
 10
4.55
 20
33.25
 11
4.097066671
 21
31.559629804
  0
LINE
  8
0
  6
CONTINUOUS
 62
     3
 10
4.55
 20
33.25
 11
5.002933329
 21
31.559629804
  0
LINE
  8
0
  6
CONTINUOUS
 62
     3
 10
4.55
 20
33.25
 11
4.55
 21
8.05
  0
LINE
  8
0
  6
CONTINUOUS
 62
     3
 10
63.7
 20
7.35
 11
63.7
 21
0.0
  0
LINE
  8
0
  6
CONTINUOUS
 62
     3
 10
63.7
 20
1.4
 11
62.009629804
 21
1.852933329
  0
LINE
  8
0
  6
CONTINUOUS
 62
     3
 10
63.7
 20
1.4
 11
62.009629804
 21
0.947066671
  0
LINE
  8
0
  6
CONTINUOUS
 62
     3
 10
63.7
 20
1.4
 11
13.3
 21
1.4
  0
LINE
  8
0
  6
CONTINUOUS
 62
     3
 10
13.3
 20
1.4
 11
14.990370196
 21
0.947066671
  0
LINE
  8
0
  6
CONTINUOUS
 62
     3
 10
13.3
 20
1.4
 11
14.990370196
 21
1.852933329
  0
LINE
  8
0
  6
CONTINUOUS
 62
     3
 10
13.3
 20
7.35
 11
13.3
 21
0.0
  0
TEXT
  8
0
  6
CONTINUOUS
 62
     3
 10
37.135
 20
2.1
 30
0.21
 40
2.1
  1
７２
 50
0.0
 41
0.6
 51
0.0
  7
KANJI0
  0
LINE
  8
0
  6
CONTINUOUS
 62
     3
 10
6.3
 20
117.25
 11
5.847066671
 21
115.559629804
  0
LINE
  8
0
  6
CONTINUOUS
 62
     3
 10
6.3
 20
117.25
 11
6.752933329
 21
115.559629804
  0
LINE
  8
0
  6
CONTINUOUS
 62
     3
 10
13.65
 20
117.25
 11
4.9
 21
117.25
  0
LINE
  8
0
  6
CONTINUOUS
 62
     3
 10
6.3
 20
47.25
 11
6.3
 21
117.25
  0
LINE
  8
0
  6
CONTINUOUS
 62
     1
 10
47.88
 20
120.4
 11
49.63
 21
123.55
  0
LINE
  8
0
  6
CONTINUOUS
 62
     1
 10
49.63
 20
126.0
 11
49.63
 21
123.55
  0
LINE
  8
0
  6
CONTINUOUS
 62
     1
 10
49.63
 20
126.0
 11
48.23
 21
126.0
  0
LINE
  8
0
  6
CONTINUOUS
 62
     1
 10
52.08
 20
130.2
 11
48.23
 21
126.0
  0
LINE
  8
0
  6
CONTINUOUS
 62
     1
 10
47.88
 20
117.25
 11
47.88
 21
120.4
  0
LINE
  8
0
  6
CONTINUOUS
 62
     1
 10
49.63
 20
123.55
 11
53.83
 21
123.55
  0
LINE
  8
0
  6
CONTINUOUS
 62
     1
 10
54.425
 20
117.25
 11
53.13
 21
130.2
  0
LINE
  8
0
  6
CONTINUOUS
 62
     1
 10
54.425
 20
117.25
 11
38.5
 21
117.25
  0
LINE
  8
0
  6
CONTINUOUS
 62
     1
 10
38.5
 20
120.4
 11
47.88
 21
120.4
  0
LINE
  8
0
  6
CONTINUOUS
 62
     1
 10
27.37
 20
126.0
 11
27.37
 21
123.55
  0
LINE
  8
0
  6
CONTINUOUS
 62
     1
 10
27.37
 20
126.0
 11
28.77
 21
126.0
  0
LINE
  8
0
  6
CONTINUOUS
 62
     1
 10
24.92
 20
130.2
 11
28.77
 21
126.0
  0
LINE
  8
0
  6
CONTINUOUS
 62
     1
 10
29.12
 20
117.25
 11
29.12
 21
120.4
  0
LINE
  8
0
  6
CONTINUOUS
 62
     1
 10
27.37
 20
123.55
 11
23.17
 21
123.55
  0
LINE
  8
0
  6
CONTINUOUS
 62
     1
 10
22.575
 20
117.25
 11
38.5
 21
117.25
  0
LINE
  8
0
  6
CONTINUOUS
 62
     1
 10
38.5
 20
120.4
 11
29.12
 21
120.4
  0
LINE
  8
0
  6
CONTINUOUS
 62
     1
 10
28.264444444
 20
121.94
 11
27.37
 21
123.55
  0
LINE
  8
0
  6
CONTINUOUS
 62
     1
 10
29.12
 20
120.4
 11
28.731111111
 21
121.1
  0
LINE
  8
0
  6
CONTINUOUS
 62
     1
 10
23.044
 20
121.94
 11
23.87
 21
130.2
  0
LINE
  8
0
  6
CONTINUOUS
 62
     1
 10
22.575
 20
117.25
 11
22.96
 21
121.1
  0
LINE
  8
0
  6
CONTINUOUS
 62
     1
 10
18.9
 20
123.34
 11
23.17
 21
123.34
  0
LINE
  8
0
  6
CONTINUOUS
 62
     1
 10
53.83
 20
123.34
 11
57.33
 21
123.34
  0
LINE
  8
0
  6
CONTINUOUS
 62
     1
 10
27.51
 20
123.34
 11
49.49
 21
123.34
  0
LINE
  8
0
  6
CONTINUOUS
 62
     1
 10
57.4
 20
121.94
 11
53.97
 21
121.94
  0
LINE
  8
0
  6
CONTINUOUS
 62
     1
 10
54.04
 20
121.1
 11
56.0
 21
121.1
  0
LINE
  8
0
  6
CONTINUOUS
 62
     1
 10
20.3
 20
121.1
 11
22.96
 21
121.1
  0
LINE
  8
0
  6
CONTINUOUS
 62
     1
 10
28.77
 20
121.1
 11
48.3
 21
121.1
  0
LINE
  8
0
  6
CONTINUOUS
 62
     1
 10
23.03
 20
121.94
 11
18.9
 21
121.94
  0
LINE
  8
0
  6
CONTINUOUS
 62
     1
 10
48.72
 20
121.94
 11
28.28
 21
121.94
  0
LINE
  8
0
  6
CONTINUOUS
 62
     1
 10
23.03
 20
121.94
 11
22.96
 21
121.1
  0
LINE
  8
0
  6
CONTINUOUS
 62
     1
 10
28.28
 20
121.94
 11
28.77
 21
121.1
  0
LINE
  8
0
  6
CONTINUOUS
 62
     1
 10
38.5
 20
132.3
 11
13.3
 21
132.3
  0
LINE
  8
0
  6
CONTINUOUS
 62
     1
 10
13.3
 20
132.3
 11
13.3
 21
144.9
  0
LINE
  8
0
  6
CONTINUOUS
 62
     1
 10
13.3
 20
144.9
 11
13.3
 21
157.5
  0
LINE
  8
0
  6
CONTINUOUS
 62
     1
 10
13.3
 20
157.5
 11
63.7
 21
157.5
  0
LINE
  8
0
  6
CONTINUOUS
 62
     1
 10
63.7
 20
157.5
 11
63.7
 21
132.3
  0
LINE
  8
0
  6
CONTINUOUS
 62
     1
 10
63.7
 20
132.3
 11
38.5
 21
132.3
  0
LINE
  8
0
  6
CONTINUOUS
 62
     1
 10
38.5
 20
133.35
 11
14.7
 21
133.35
  0
LINE
  8
0
  6
CONTINUOUS
 62
     1
 10
14.7
 20
156.45
 11
62.3
 21
156.45
  0
LINE
  8
0
  6
CONTINUOUS
 62
     1
 10
62.3
 20
133.35
 11
38.5
 21
133.35
  0
POINT
  8
0
  6
CONTINUOUS
 62
     1
 10
63.35
 20
140.56
  0
LINE
  8
0
  6
CONTINUOUS
 62
     1
 10
63.35
 20
140.56
 11
63.35
 21
145.46
  0
POINT
  8
0
  6
CONTINUOUS
 62
     1
 10
63.35
 20
145.46
  0
LINE
  8
0
  6
CONTINUOUS
 62
     1
 10
63.35
 20
145.46
 11
13.65
 21
145.46
  0
LINE
  8
0
  6
CONTINUOUS
 62
     1
 10
13.65
 20
145.46
 11
13.65
 21
140.56
  0
CIRCLE
  8
0
  6
CONTINUOUS
 62
     1
 10
17.85
 20
143.01
 40
1.89
  0
LINE
  8
0
  6
CONTINUOUS
 62
     1
 10
17.85
 20
144.41
 11
17.5
 21
143.36
  0
LINE
  8
0
  6
CONTINUOUS
 62
     1
 10
17.5
 20
143.36
 11
16.45
 21
143.01
  0
LINE
  8
0
  6
CONTINUOUS
 62
     1
 10
16.45
 20
143.01
 11
17.5
 21
142.66
  0
LINE
  8
0
  6
CONTINUOUS
 62
     1
 10
17.5
 20
142.66
 11
17.85
 21
141.61
  0
LINE
  8
0
  6
CONTINUOUS
 62
     1
 10
17.85
 20
141.61
 11
18.2
 21
142.66
  0
LINE
  8
0
  6
CONTINUOUS
 62
     1
 10
18.2
 20
142.66
 11
19.25
 21
143.01
  0
LINE
  8
0
  6
CONTINUOUS
 62
     1
 10
19.25
 20
143.01
 11
18.2
 21
143.36
  0
LINE
  8
0
  6
CONTINUOUS
 62
     1
 10
18.2
 20
143.36
 11
17.85
 21
144.41
  0
CIRCLE
  8
0
  6
CONTINUOUS
 62
     1
 10
59.15
 20
143.01
 40
1.89
  0
LINE
  8
0
  6
CONTINUOUS
 62
     1
 10
59.15
 20
144.41
 11
58.8
 21
143.36
  0
LINE
  8
0
  6
CONTINUOUS
 62
     1
 10
58.8
 20
143.36
 11
57.75
 21
143.01
  0
LINE
  8
0
  6
CONTINUOUS
 62
     1
 10
57.75
 20
143.01
 11
58.8
 21
142.66
  0
LINE
  8
0
  6
CONTINUOUS
 62
     1
 10
58.8
 20
142.66
 11
59.15
 21
141.61
  0
LINE
  8
0
  6
CONTINUOUS
 62
     1
 10
59.15
 20
141.61
 11
59.5
 21
142.66
  0
LINE
  8
0
  6
CONTINUOUS
 62
     1
 10
59.5
 20
142.66
 11
60.55
 21
143.01
  0
LINE
  8
0
  6
CONTINUOUS
 62
     1
 10
60.55
 20
143.01
 11
59.5
 21
143.36
  0
LINE
  8
0
  6
CONTINUOUS
 62
     1
 10
59.5
 20
143.36
 11
59.15
 21
144.41
  0
LINE
  8
0
  6
CONTINUOUS
 62
     1
 10
62.3
 20
140.56
 11
62.3
 21
133.35
  0
LINE
  8
0
  6
CONTINUOUS
 62
     1
 10
62.3
 20
156.45
 11
62.3
 21
145.46
  0
LINE
  8
0
  6
CONTINUOUS
 62
     1
 10
14.7
 20
145.46
 11
14.7
 21
156.45
  0
LINE
  8
0
  6
CONTINUOUS
 62
     1
 10
14.7
 20
133.35
 11
14.7
 21
140.56
  0
POINT
  8
0
  6
CONTINUOUS
 62
     1
 10
62.72
 20
146.72
  0
LINE
  8
0
  6
CONTINUOUS
 62
     1
 10
62.72
 20
146.72
 11
62.79
 21
146.72
  0
POINT
  8
0
  6
CONTINUOUS
 62
     1
 10
62.79
 20
146.72
  0
POINT
  8
0
  6
CONTINUOUS
 62
     1
 10
62.79
 20
156.1
  0
LINE
  8
0
  6
CONTINUOUS
 62
     1
 10
33.6
 20
147.49
 11
37.87
 21
147.49
  0
LINE
  8
0
  6
CONTINUOUS
 62
     1
 10
37.94
 20
147.49
 11
37.94
 21
156.1
  0
LINE
  8
0
  6
CONTINUOUS
 62
     1
 10
38.01
 20
152.67
 11
33.6
 21
152.67
  0
CIRCLE
  8
0
  6
CONTINUOUS
 62
     1
 10
35.84
 20
150.15
 40
1.89
  0
POINT
  8
0
  6
CONTINUOUS
 62
     1
 10
35.91
 20
151.48
  0
LINE
  8
0
  6
CONTINUOUS
 62
     1
 10
35.91
 20
151.48
 11
35.56
 21
150.43
  0
POINT
  8
0
  6
CONTINUOUS
 62
     1
 10
35.56
 20
150.43
  0
LINE
  8
0
  6
CONTINUOUS
 62
     1
 10
35.56
 20
150.43
 11
34.51
 21
150.08
  0
POINT
  8
0
  6
CONTINUOUS
 62
     1
 10
34.51
 20
150.08
  0
LINE
  8
0
  6
CONTINUOUS
 62
     1
 10
34.51
 20
150.08
 11
35.56
 21
149.73
  0
POINT
  8
0
  6
CONTINUOUS
 62
     1
 10
35.56
 20
149.73
  0
LINE
  8
0
  6
CONTINUOUS
 62
     1
 10
35.56
 20
149.73
 11
35.91
 21
148.68
  0
POINT
  8
0
  6
CONTINUOUS
 62
     1
 10
35.91
 20
148.68
  0
LINE
  8
0
  6
CONTINUOUS
 62
     1
 10
35.91
 20
148.68
 11
36.26
 21
149.73
  0
POINT
  8
0
  6
CONTINUOUS
 62
     1
 10
36.26
 20
149.73
  0
LINE
  8
0
  6
CONTINUOUS
 62
     1
 10
36.26
 20
149.73
 11
37.31
 21
150.08
  0
POINT
  8
0
  6
CONTINUOUS
 62
     1
 10
37.31
 20
150.08
  0
LINE
  8
0
  6
CONTINUOUS
 62
     1
 10
37.31
 20
150.08
 11
36.26
 21
150.43
  0
POINT
  8
0
  6
CONTINUOUS
 62
     1
 10
36.26
 20
150.43
  0
LINE
  8
0
  6
CONTINUOUS
 62
     1
 10
36.26
 20
150.43
 11
35.91
 21
151.48
  0
POINT
  8
0
  6
CONTINUOUS
 62
     1
 10
28.14
 20
146.65
  0
LINE
  8
0
  6
CONTINUOUS
 62
     1
 10
28.14
 20
146.65
 11
28.21
 21
146.65
  0
POINT
  8
0
  6
CONTINUOUS
 62
     1
 10
28.21
 20
146.65
  0
POINT
  8
0
  6
CONTINUOUS
 62
     1
 10
28.21
 20
156.03
  0
LINE
  8
0
  6
CONTINUOUS
 62
     1
 10
28.07
 20
147.42
 11
32.34
 21
147.42
  0
LINE
  8
0
  6
CONTINUOUS
 62
     1
 10
33.39
 20
156.03
 11
32.41
 21
156.03
  0
LINE
  8
0
  6
CONTINUOUS
 62
     1
 10
32.41
 20
147.42
 11
32.41
 21
156.03
  0
LINE
  8
0
  6
CONTINUOUS
 62
     1
 10
32.48
 20
152.6
 11
28.07
 21
152.6
  0
CIRCLE
  8
0
  6
CONTINUOUS
 62
     1
 10
30.31
 20
150.08
 40
1.89
  0
POINT
  8
0
  6
CONTINUOUS
 62
     1
 10
30.38
 20
151.41
  0
LINE
  8
0
  6
CONTINUOUS
 62
     1
 10
30.38
 20
151.41
 11
30.03
 21
150.36
  0
POINT
  8
0
  6
CONTINUOUS
 62
     1
 10
30.03
 20
150.36
  0
LINE
  8
0
  6
CONTINUOUS
 62
     1
 10
30.03
 20
150.36
 11
28.98
 21
150.01
  0
POINT
  8
0
  6
CONTINUOUS
 62
     1
 10
28.98
 20
150.01
  0
LINE
  8
0
  6
CONTINUOUS
 62
     1
 10
28.98
 20
150.01
 11
30.03
 21
149.66
  0
POINT
  8
0
  6
CONTINUOUS
 62
     1
 10
30.03
 20
149.66
  0
LINE
  8
0
  6
CONTINUOUS
 62
     1
 10
30.03
 20
149.66
 11
30.38
 21
148.61
  0
POINT
  8
0
  6
CONTINUOUS
 62
     1
 10
30.38
 20
148.61
  0
LINE
  8
0
  6
CONTINUOUS
 62
     1
 10
30.38
 20
148.61
 11
30.73
 21
149.66
  0
POINT
  8
0
  6
CONTINUOUS
 62
     1
 10
30.73
 20
149.66
  0
LINE
  8
0
  6
CONTINUOUS
 62
     1
 10
30.73
 20
149.66
 11
31.78
 21
150.01
  0
POINT
  8
0
  6
CONTINUOUS
 62
     1
 10
31.78
 20
150.01
  0
LINE
  8
0
  6
CONTINUOUS
 62
     1
 10
31.78
 20
150.01
 11
30.73
 21
150.36
  0
POINT
  8
0
  6
CONTINUOUS
 62
     1
 10
30.73
 20
150.36
  0
LINE
  8
0
  6
CONTINUOUS
 62
     1
 10
30.73
 20
150.36
 11
30.38
 21
151.41
  0
LINE
  8
0
  6
CONTINUOUS
 62
     1
 10
37.66
 20
156.03
 11
32.48
 21
156.03
  0
LINE
  8
0
  6
CONTINUOUS
 62
     1
 10
32.62
 20
146.65
 11
38.71
 21
146.65
  0
LINE
  8
0
  6
CONTINUOUS
 62
     1
 10
21.56
 20
156.03
 11
16.38
 21
156.03
  0
LINE
  8
0
  6
CONTINUOUS
 62
     1
 10
17.22
 20
147.42
 11
21.49
 21
147.42
  0
LINE
  8
0
  6
CONTINUOUS
 62
     1
 10
16.38
 20
146.65
 11
22.47
 21
146.65
  0
POINT
  8
0
  6
CONTINUOUS
 62
     1
 10
22.47
 20
146.65
  0
LINE
  8
0
  6
CONTINUOUS
 62
     1
 10
22.47
 20
146.65
 11
22.54
 21
146.65
  0
POINT
  8
0
  6
CONTINUOUS
 62
     1
 10
22.54
 20
146.65
  0
POINT
  8
0
  6
CONTINUOUS
 62
     1
 10
22.54
 20
156.03
  0
LINE
  8
0
  6
CONTINUOUS
 62
     1
 10
22.54
 20
156.03
 11
21.56
 21
156.03
  0
LINE
  8
0
  6
CONTINUOUS
 62
     1
 10
21.56
 20
147.42
 11
21.56
 21
156.03
  0
LINE
  8
0
  6
CONTINUOUS
 62
     1
 10
17.22
 20
156.03
 11
17.22
 21
147.42
  0
LINE
  8
0
  6
CONTINUOUS
 62
     1
 10
21.63
 20
152.6
 11
17.22
 21
152.6
  0
CIRCLE
  8
0
  6
CONTINUOUS
 62
     1
 10
19.46
 20
150.08
 40
1.89
  0
POINT
  8
0
  6
CONTINUOUS
 62
     1
 10
19.53
 20
151.41
  0
LINE
  8
0
  6
CONTINUOUS
 62
     1
 10
19.53
 20
151.41
 11
19.18
 21
150.36
  0
POINT
  8
0
  6
CONTINUOUS
 62
     1
 10
19.18
 20
150.36
  0
LINE
  8
0
  6
CONTINUOUS
 62
     1
 10
19.18
 20
150.36
 11
18.13
 21
150.01
  0
POINT
  8
0
  6
CONTINUOUS
 62
     1
 10
18.13
 20
150.01
  0
LINE
  8
0
  6
CONTINUOUS
 62
     1
 10
18.13
 20
150.01
 11
19.18
 21
149.66
  0
POINT
  8
0
  6
CONTINUOUS
 62
     1
 10
19.18
 20
149.66
  0
LINE
  8
0
  6
CONTINUOUS
 62
     1
 10
19.18
 20
149.66
 11
19.53
 21
148.61
  0
POINT
  8
0
  6
CONTINUOUS
 62
     1
 10
19.53
 20
148.61
  0
LINE
  8
0
  6
CONTINUOUS
 62
     1
 10
19.53
 20
148.61
 11
19.88
 21
149.66
  0
POINT
  8
0
  6
CONTINUOUS
 62
     1
 10
19.88
 20
149.66
  0
LINE
  8
0
  6
CONTINUOUS
 62
     1
 10
19.88
 20
149.66
 11
20.93
 21
150.01
  0
POINT
  8
0
  6
CONTINUOUS
 62
     1
 10
20.93
 20
150.01
  0
LINE
  8
0
  6
CONTINUOUS
 62
     1
 10
20.93
 20
150.01
 11
19.88
 21
150.36
  0
POINT
  8
0
  6
CONTINUOUS
 62
     1
 10
19.88
 20
150.36
  0
LINE
  8
0
  6
CONTINUOUS
 62
     1
 10
19.88
 20
150.36
 11
19.53
 21
151.41
  0
LINE
  8
0
  6
CONTINUOUS
 62
     1
 10
16.38
 20
146.58
 11
16.38
 21
156.03
  0
LINE
  8
0
  6
CONTINUOUS
 62
     1
 10
26.88
 20
156.03
 11
21.7
 21
156.03
  0
LINE
  8
0
  6
CONTINUOUS
 62
     1
 10
22.54
 20
147.42
 11
26.81
 21
147.42
  0
LINE
  8
0
  6
CONTINUOUS
 62
     1
 10
26.88
 20
147.42
 11
26.88
 21
156.03
  0
LINE
  8
0
  6
CONTINUOUS
 62
     1
 10
22.54
 20
156.03
 11
22.54
 21
147.42
  0
LINE
  8
0
  6
CONTINUOUS
 62
     1
 10
26.95
 20
152.6
 11
22.54
 21
152.6
  0
CIRCLE
  8
0
  6
CONTINUOUS
 62
     1
 10
24.78
 20
150.08
 40
1.89
  0
POINT
  8
0
  6
CONTINUOUS
 62
     1
 10
24.85
 20
151.41
  0
LINE
  8
0
  6
CONTINUOUS
 62
     1
 10
24.85
 20
151.41
 11
24.5
 21
150.36
  0
POINT
  8
0
  6
CONTINUOUS
 62
     1
 10
24.5
 20
150.36
  0
LINE
  8
0
  6
CONTINUOUS
 62
     1
 10
24.5
 20
150.36
 11
23.45
 21
150.01
  0
POINT
  8
0
  6
CONTINUOUS
 62
     1
 10
23.45
 20
150.01
  0
LINE
  8
0
  6
CONTINUOUS
 62
     1
 10
23.45
 20
150.01
 11
24.5
 21
149.66
  0
POINT
  8
0
  6
CONTINUOUS
 62
     1
 10
24.5
 20
149.66
  0
LINE
  8
0
  6
CONTINUOUS
 62
     1
 10
24.5
 20
149.66
 11
24.85
 21
148.61
  0
POINT
  8
0
  6
CONTINUOUS
 62
     1
 10
24.85
 20
148.61
  0
LINE
  8
0
  6
CONTINUOUS
 62
     1
 10
24.85
 20
148.61
 11
25.2
 21
149.66
  0
POINT
  8
0
  6
CONTINUOUS
 62
     1
 10
25.2
 20
149.66
  0
LINE
  8
0
  6
CONTINUOUS
 62
     1
 10
25.2
 20
149.66
 11
26.25
 21
150.01
  0
POINT
  8
0
  6
CONTINUOUS
 62
     1
 10
26.25
 20
150.01
  0
LINE
  8
0
  6
CONTINUOUS
 62
     1
 10
26.25
 20
150.01
 11
25.2
 21
150.36
  0
POINT
  8
0
  6
CONTINUOUS
 62
     1
 10
25.2
 20
150.36
  0
LINE
  8
0
  6
CONTINUOUS
 62
     1
 10
25.2
 20
150.36
 11
24.85
 21
151.41
  0
LINE
  8
0
  6
CONTINUOUS
 62
     1
 10
21.84
 20
146.65
 11
27.93
 21
146.65
  0
LINE
  8
0
  6
CONTINUOUS
 62
     1
 10
28.0
 20
156.03
 11
27.02
 21
156.03
  0
LINE
  8
0
  6
CONTINUOUS
 62
     1
 10
32.2
 20
156.03
 11
27.02
 21
156.03
  0
LINE
  8
0
  6
CONTINUOUS
 62
     1
 10
27.02
 20
146.65
 11
33.11
 21
146.65
  0
LINE
  8
0
  6
CONTINUOUS
 62
     1
 10
22.54
 20
147.35
 11
22.54
 21
156.03
  0
LINE
  8
0
  6
CONTINUOUS
 62
     1
 10
28.0
 20
147.35
 11
28.0
 21
155.96
  0
LINE
  8
0
  6
CONTINUOUS
 62
     1
 10
33.6
 20
156.03
 11
33.6
 21
147.49
  0
POINT
  8
0
  6
CONTINUOUS
 62
     1
 10
38.85
 20
146.65
  0
LINE
  8
0
  6
CONTINUOUS
 62
     1
 10
38.85
 20
146.65
 11
38.92
 21
146.65
  0
POINT
  8
0
  6
CONTINUOUS
 62
     1
 10
38.92
 20
146.65
  0
POINT
  8
0
  6
CONTINUOUS
 62
     1
 10
38.92
 20
156.03
  0
LINE
  8
0
  6
CONTINUOUS
 62
     1
 10
38.92
 20
156.03
 11
37.94
 21
156.03
  0
LINE
  8
0
  6
CONTINUOUS
 62
     1
 10
43.26
 20
156.03
 11
38.08
 21
156.03
  0
LINE
  8
0
  6
CONTINUOUS
 62
     1
 10
38.92
 20
147.42
 11
43.19
 21
147.42
  0
LINE
  8
0
  6
CONTINUOUS
 62
     1
 10
43.26
 20
147.42
 11
43.26
 21
156.03
  0
LINE
  8
0
  6
CONTINUOUS
 62
     1
 10
38.92
 20
156.03
 11
38.92
 21
147.42
  0
LINE
  8
0
  6
CONTINUOUS
 62
     1
 10
43.33
 20
152.6
 11
38.92
 21
152.6
  0
CIRCLE
  8
0
  6
CONTINUOUS
 62
     1
 10
41.16
 20
150.08
 40
1.89
  0
POINT
  8
0
  6
CONTINUOUS
 62
     1
 10
41.23
 20
151.41
  0
LINE
  8
0
  6
CONTINUOUS
 62
     1
 10
41.23
 20
151.41
 11
40.88
 21
150.36
  0
POINT
  8
0
  6
CONTINUOUS
 62
     1
 10
40.88
 20
150.36
  0
LINE
  8
0
  6
CONTINUOUS
 62
     1
 10
40.88
 20
150.36
 11
39.83
 21
150.01
  0
POINT
  8
0
  6
CONTINUOUS
 62
     1
 10
39.83
 20
150.01
  0
LINE
  8
0
  6
CONTINUOUS
 62
     1
 10
39.83
 20
150.01
 11
40.88
 21
149.66
  0
POINT
  8
0
  6
CONTINUOUS
 62
     1
 10
40.88
 20
149.66
  0
LINE
  8
0
  6
CONTINUOUS
 62
     1
 10
40.88
 20
149.66
 11
41.23
 21
148.61
  0
POINT
  8
0
  6
CONTINUOUS
 62
     1
 10
41.23
 20
148.61
  0
LINE
  8
0
  6
CONTINUOUS
 62
     1
 10
41.23
 20
148.61
 11
41.58
 21
149.66
  0
POINT
  8
0
  6
CONTINUOUS
 62
     1
 10
41.58
 20
149.66
  0
LINE
  8
0
  6
CONTINUOUS
 62
     1
 10
41.58
 20
149.66
 11
42.63
 21
150.01
  0
POINT
  8
0
  6
CONTINUOUS
 62
     1
 10
42.63
 20
150.01
  0
LINE
  8
0
  6
CONTINUOUS
 62
     1
 10
42.63
 20
150.01
 11
41.58
 21
150.36
  0
POINT
  8
0
  6
CONTINUOUS
 62
     1
 10
41.58
 20
150.36
  0
LINE
  8
0
  6
CONTINUOUS
 62
     1
 10
41.58
 20
150.36
 11
41.23
 21
151.41
  0
POINT
  8
0
  6
CONTINUOUS
 62
     1
 10
50.12
 20
146.65
  0
LINE
  8
0
  6
CONTINUOUS
 62
     1
 10
50.12
 20
146.65
 11
50.19
 21
146.65
  0
POINT
  8
0
  6
CONTINUOUS
 62
     1
 10
50.19
 20
146.65
  0
POINT
  8
0
  6
CONTINUOUS
 62
     1
 10
50.19
 20
156.03
  0
LINE
  8
0
  6
CONTINUOUS
 62
     1
 10
54.46
 20
147.42
 11
54.46
 21
156.03
  0
LINE
  8
0
  6
CONTINUOUS
 62
     1
 10
54.53
 20
152.6
 11
50.12
 21
152.6
  0
CIRCLE
  8
0
  6
CONTINUOUS
 62
     1
 10
52.36
 20
150.08
 40
1.89
  0
POINT
  8
0
  6
CONTINUOUS
 62
     1
 10
52.43
 20
151.41
  0
LINE
  8
0
  6
CONTINUOUS
 62
     1
 10
52.43
 20
151.41
 11
52.08
 21
150.36
  0
POINT
  8
0
  6
CONTINUOUS
 62
     1
 10
52.08
 20
150.36
  0
LINE
  8
0
  6
CONTINUOUS
 62
     1
 10
52.08
 20
150.36
 11
51.03
 21
150.01
  0
POINT
  8
0
  6
CONTINUOUS
 62
     1
 10
51.03
 20
150.01
  0
LINE
  8
0
  6
CONTINUOUS
 62
     1
 10
51.03
 20
150.01
 11
52.08
 21
149.66
  0
POINT
  8
0
  6
CONTINUOUS
 62
     1
 10
52.08
 20
149.66
  0
LINE
  8
0
  6
CONTINUOUS
 62
     1
 10
52.08
 20
149.66
 11
52.43
 21
148.61
  0
POINT
  8
0
  6
CONTINUOUS
 62
     1
 10
52.43
 20
148.61
  0
LINE
  8
0
  6
CONTINUOUS
 62
     1
 10
52.43
 20
148.61
 11
52.78
 21
149.66
  0
POINT
  8
0
  6
CONTINUOUS
 62
     1
 10
52.78
 20
149.66
  0
LINE
  8
0
  6
CONTINUOUS
 62
     1
 10
52.78
 20
149.66
 11
53.83
 21
150.01
  0
POINT
  8
0
  6
CONTINUOUS
 62
     1
 10
53.83
 20
150.01
  0
LINE
  8
0
  6
CONTINUOUS
 62
     1
 10
53.83
 20
150.01
 11
52.78
 21
150.36
  0
POINT
  8
0
  6
CONTINUOUS
 62
     1
 10
52.78
 20
150.36
  0
LINE
  8
0
  6
CONTINUOUS
 62
     1
 10
52.78
 20
150.36
 11
52.43
 21
151.41
  0
POINT
  8
0
  6
CONTINUOUS
 62
     1
 10
44.66
 20
146.65
  0
LINE
  8
0
  6
CONTINUOUS
 62
     1
 10
44.66
 20
146.65
 11
44.73
 21
146.65
  0
POINT
  8
0
  6
CONTINUOUS
 62
     1
 10
44.73
 20
146.65
  0
POINT
  8
0
  6
CONTINUOUS
 62
     1
 10
44.73
 20
156.03
  0
LINE
  8
0
  6
CONTINUOUS
 62
     1
 10
48.93
 20
156.03
 11
43.75
 21
156.03
  0
LINE
  8
0
  6
CONTINUOUS
 62
     1
 10
44.59
 20
147.42
 11
48.86
 21
147.42
  0
LINE
  8
0
  6
CONTINUOUS
 62
     1
 10
48.93
 20
147.42
 11
48.93
 21
156.03
  0
CIRCLE
  8
0
  6
CONTINUOUS
 62
     1
 10
46.83
 20
150.08
 40
1.89
  0
POINT
  8
0
  6
CONTINUOUS
 62
     1
 10
46.9
 20
151.41
  0
LINE
  8
0
  6
CONTINUOUS
 62
     1
 10
46.9
 20
151.41
 11
46.55
 21
150.36
  0
POINT
  8
0
  6
CONTINUOUS
 62
     1
 10
46.55
 20
150.36
  0
LINE
  8
0
  6
CONTINUOUS
 62
     1
 10
46.55
 20
150.36
 11
45.5
 21
150.01
  0
POINT
  8
0
  6
CONTINUOUS
 62
     1
 10
45.5
 20
150.01
  0
LINE
  8
0
  6
CONTINUOUS
 62
     1
 10
45.5
 20
150.01
 11
46.55
 21
149.66
  0
POINT
  8
0
  6
CONTINUOUS
 62
     1
 10
46.55
 20
149.66
  0
LINE
  8
0
  6
CONTINUOUS
 62
     1
 10
46.55
 20
149.66
 11
46.9
 21
148.61
  0
POINT
  8
0
  6
CONTINUOUS
 62
     1
 10
46.9
 20
148.61
  0
LINE
  8
0
  6
CONTINUOUS
 62
     1
 10
46.9
 20
148.61
 11
47.25
 21
149.66
  0
POINT
  8
0
  6
CONTINUOUS
 62
     1
 10
47.25
 20
149.66
  0
LINE
  8
0
  6
CONTINUOUS
 62
     1
 10
47.25
 20
149.66
 11
48.3
 21
150.01
  0
POINT
  8
0
  6
CONTINUOUS
 62
     1
 10
48.3
 20
150.01
  0
LINE
  8
0
  6
CONTINUOUS
 62
     1
 10
48.3
 20
150.01
 11
47.25
 21
150.36
  0
POINT
  8
0
  6
CONTINUOUS
 62
     1
 10
47.25
 20
150.36
  0
LINE
  8
0
  6
CONTINUOUS
 62
     1
 10
47.25
 20
150.36
 11
46.9
 21
151.41
  0
LINE
  8
0
  6
CONTINUOUS
 62
     1
 10
44.24
 20
146.65
 11
50.33
 21
146.65
  0
LINE
  8
0
  6
CONTINUOUS
 62
     1
 10
50.4
 20
156.03
 11
49.42
 21
156.03
  0
LINE
  8
0
  6
CONTINUOUS
 62
     1
 10
54.67
 20
156.03
 11
49.49
 21
156.03
  0
POINT
  8
0
  6
CONTINUOUS
 62
     1
 10
55.51
 20
146.65
  0
LINE
  8
0
  6
CONTINUOUS
 62
     1
 10
55.51
 20
146.65
 11
55.58
 21
146.65
  0
POINT
  8
0
  6
CONTINUOUS
 62
     1
 10
55.58
 20
146.65
  0
POINT
  8
0
  6
CONTINUOUS
 62
     1
 10
55.58
 20
156.03
  0
LINE
  8
0
  6
CONTINUOUS
 62
     1
 10
55.58
 20
156.03
 11
54.6
 21
156.03
  0
LINE
  8
0
  6
CONTINUOUS
 62
     1
 10
59.78
 20
156.03
 11
54.6
 21
156.03
  0
LINE
  8
0
  6
CONTINUOUS
 62
     1
 10
54.6
 20
146.65
 11
60.69
 21
146.65
  0
LINE
  8
0
  6
CONTINUOUS
 62
     1
 10
60.76
 20
156.03
 11
59.78
 21
156.03
  0
LINE
  8
0
  6
CONTINUOUS
 62
     1
 10
59.78
 20
147.42
 11
59.78
 21
156.03
  0
CIRCLE
  8
0
  6
CONTINUOUS
 62
     1
 10
57.68
 20
150.08
 40
1.89
  0
POINT
  8
0
  6
CONTINUOUS
 62
     1
 10
57.75
 20
151.41
  0
LINE
  8
0
  6
CONTINUOUS
 62
     1
 10
57.75
 20
151.41
 11
57.4
 21
150.36
  0
POINT
  8
0
  6
CONTINUOUS
 62
     1
 10
57.4
 20
150.36
  0
LINE
  8
0
  6
CONTINUOUS
 62
     1
 10
57.4
 20
150.36
 11
56.35
 21
150.01
  0
POINT
  8
0
  6
CONTINUOUS
 62
     1
 10
56.35
 20
150.01
  0
LINE
  8
0
  6
CONTINUOUS
 62
     1
 10
56.35
 20
150.01
 11
57.4
 21
149.66
  0
POINT
  8
0
  6
CONTINUOUS
 62
     1
 10
57.4
 20
149.66
  0
LINE
  8
0
  6
CONTINUOUS
 62
     1
 10
57.4
 20
149.66
 11
57.75
 21
148.61
  0
POINT
  8
0
  6
CONTINUOUS
 62
     1
 10
57.75
 20
148.61
  0
LINE
  8
0
  6
CONTINUOUS
 62
     1
 10
57.75
 20
148.61
 11
58.1
 21
149.66
  0
POINT
  8
0
  6
CONTINUOUS
 62
     1
 10
58.1
 20
149.66
  0
LINE
  8
0
  6
CONTINUOUS
 62
     1
 10
58.1
 20
149.66
 11
59.15
 21
150.01
  0
POINT
  8
0
  6
CONTINUOUS
 62
     1
 10
59.15
 20
150.01
  0
LINE
  8
0
  6
CONTINUOUS
 62
     1
 10
59.15
 20
150.01
 11
58.1
 21
150.36
  0
POINT
  8
0
  6
CONTINUOUS
 62
     1
 10
58.1
 20
150.36
  0
LINE
  8
0
  6
CONTINUOUS
 62
     1
 10
58.1
 20
150.36
 11
57.75
 21
151.41
  0
LINE
  8
0
  6
CONTINUOUS
 62
     1
 10
60.69
 20
146.65
 11
60.69
 21
156.03
  0
LINE
  8
0
  6
CONTINUOUS
 62
     1
 10
49.91
 20
146.65
 11
56.0
 21
146.65
  0
LINE
  8
0
  6
CONTINUOUS
 62
     1
 10
59.85
 20
152.6
 11
55.58
 21
152.6
  0
LINE
  8
0
  6
CONTINUOUS
 62
     1
 10
55.65
 20
147.42
 11
59.71
 21
147.42
  0
LINE
  8
0
  6
CONTINUOUS
 62
     1
 10
50.19
 20
147.42
 11
50.19
 21
156.03
  0
LINE
  8
0
  6
CONTINUOUS
 62
     1
 10
55.58
 20
147.49
 11
55.58
 21
156.03
  0
LINE
  8
0
  6
CONTINUOUS
 62
     1
 10
50.19
 20
147.42
 11
54.39
 21
147.42
  0
LINE
  8
0
  6
CONTINUOUS
 62
     1
 10
44.52
 20
147.56
 11
44.52
 21
156.03
  0
LINE
  8
0
  6
CONTINUOUS
 62
     1
 10
38.92
 20
147.56
 11
38.92
 21
156.03
  0
LINE
  8
0
  6
CONTINUOUS
 62
     1
 10
49.35
 20
156.03
 11
48.72
 21
156.03
  0
LINE
  8
0
  6
CONTINUOUS
 62
     1
 10
44.73
 20
156.03
 11
43.12
 21
156.03
  0
LINE
  8
0
  6
CONTINUOUS
 62
     1
 10
38.22
 20
146.65
 11
44.66
 21
146.65
  0
LINE
  8
0
  6
CONTINUOUS
 62
     1
 10
48.93
 20
152.6
 11
44.59
 21
152.6
  0
LINE
  8
0
  6
CONTINUOUS
 62
     1
 10
38.78
 20
146.65
 11
38.85
 21
146.65
  0
CIRCLE
  8
0
  6
CONTINUOUS
 62
     1
 10
16.8
 20
136.675
 40
0.875
  0
CIRCLE
  8
0
  6
CONTINUOUS
 62
     1
 10
16.8
 20
136.675
 40
2.1
  0
CIRCLE
  8
0
  6
CONTINUOUS
 62
     1
 10
60.2
 20
136.675
 40
0.875
  0
CIRCLE
  8
0
  6
CONTINUOUS
 62
     1
 10
60.2
 20
136.675
 40
2.1
  0
LINE
  8
0
  6
CONTINUOUS
 62
     1
 10
20.65
 20
135.975
 11
20.65
 21
137.375
  0
LINE
  8
0
  6
CONTINUOUS
 62
     1
 10
56.35
 20
137.375
 11
56.35
 21
135.975
  0
LINE
  8
0
  6
CONTINUOUS
 62
     1
 10
21.35
 20
134.575
 11
21.35
 21
135.975
  0
LINE
  8
0
  6
CONTINUOUS
 62
     1
 10
21.35
 20
134.575
 11
55.65
 21
134.575
  0
LINE
  8
0
  6
CONTINUOUS
 62
     1
 10
55.65
 20
134.575
 11
55.65
 21
135.975
  0
LINE
  8
0
  6
CONTINUOUS
 62
     1
 10
56.35
 20
135.975
 11
55.65
 21
135.975
  0
LINE
  8
0
  6
CONTINUOUS
 62
     1
 10
21.35
 20
135.975
 11
20.65
 21
135.975
  0
LINE
  8
0
  6
CONTINUOUS
 62
     1
 10
21.35
 20
137.375
 11
21.35
 21
140.595
  0
LINE
  8
0
  6
CONTINUOUS
 62
     1
 10
20.65
 20
137.375
 11
21.35
 21
137.375
  0
LINE
  8
0
  6
CONTINUOUS
 62
     1
 10
55.65
 20
137.375
 11
56.35
 21
137.375
  0
POINT
  8
0
  6
CONTINUOUS
 62
     1
 10
38.5
 20
137.375
  0
LINE
  8
0
  6
CONTINUOUS
 62
     1
 10
55.65
 20
137.375
 11
55.65
 21
140.595
  0
LINE
  8
0
  6
CONTINUOUS
 62
     1
 10
21.35
 20
140.595
 11
21.35
 21
143.465
  0
LINE
  8
0
  6
CONTINUOUS
 62
     1
 10
21.35
 20
143.465
 11
55.65
 21
143.465
  0
LINE
  8
0
  6
CONTINUOUS
 62
     1
 10
55.65
 20
143.465
 11
55.65
 21
140.525
  0
LINE
  8
0
  6
CONTINUOUS
 62
     1
 10
55.65
 20
140.56
 11
63.35
 21
140.56
  0
LINE
  8
0
  6
CONTINUOUS
 62
     1
 10
13.65
 20
140.56
 11
21.35
 21
140.56
  0
LINE
  8
0
  6
CONTINUOUS
 62
     1
 10
20.65
 20
137.235
 11
56.35
 21
137.235
  0
LINE
  8
0
  6
CONTINUOUS
 62
     1
 10
56.35
 20
136.115
 11
20.65
 21
136.115
  0
LINE
  8
0
  6
CONTINUOUS
 62
     1
 10
53.025
 20
138.29375
 11
49.525
 21
138.29375
  0
LINE
  8
0
  6
CONTINUOUS
 62
     1
 10
49.525
 20
141.79375
 11
53.025
 21
141.79375
  0
LINE
  8
0
  6
CONTINUOUS
 62
     1
 10
49.525
 20
141.09375
 11
48.125
 21
141.09375
  0
LINE
  8
0
  6
CONTINUOUS
 62
     1
 10
48.125
 20
141.09375
 11
48.125
 21
138.99375
  0
LINE
  8
0
  6
CONTINUOUS
 62
     1
 10
48.125
 20
138.99375
 11
49.525
 21
138.99375
  0
CIRCLE
  8
0
  6
CONTINUOUS
 62
     1
 10
39.375
 20
138.99375
 40
0.35
  0
CIRCLE
  8
0
  6
CONTINUOUS
 62
     1
 10
41.125
 20
138.99375
 40
0.35
  0
CIRCLE
  8
0
  6
CONTINUOUS
 62
     1
 10
42.875
 20
138.99375
 40
0.35
  0
CIRCLE
  8
0
  6
CONTINUOUS
 62
     1
 10
44.625
 20
138.99375
 40
0.35
  0
CIRCLE
  8
0
  6
CONTINUOUS
 62
     1
 10
46.375
 20
138.99375
 40
0.35
  0
CIRCLE
  8
0
  6
CONTINUOUS
 62
     1
 10
39.375
 20
141.09375
 40
0.35
  0
CIRCLE
  8
0
  6
CONTINUOUS
 62
     1
 10
41.125
 20
141.09375
 40
0.35
  0
CIRCLE
  8
0
  6
CONTINUOUS
 62
     1
 10
42.875
 20
141.09375
 40
0.35
  0
CIRCLE
  8
0
  6
CONTINUOUS
 62
     1
 10
44.625
 20
141.09375
 40
0.35
  0
CIRCLE
  8
0
  6
CONTINUOUS
 62
     1
 10
46.375
 20
141.09375
 40
0.35
  0
LINE
  8
0
  6
CONTINUOUS
 62
     1
 10
49.175
 20
138.99375
 11
49.175
 21
141.09375
  0
LINE
  8
0
  6
CONTINUOUS
 62
     1
 10
49.875
 20
141.79375
 11
49.875
 21
138.29375
  0
LINE
  8
0
  6
CONTINUOUS
 62
     1
 10
50.575
 20
138.29375
 11
50.575
 21
141.79375
  0
LINE
  8
0
  6
CONTINUOUS
 62
     1
 10
51.275
 20
141.79375
 11
51.275
 21
138.29375
  0
LINE
  8
0
  6
CONTINUOUS
 62
     1
 10
51.975
 20
138.29375
 11
51.975
 21
141.79375
  0
LINE
  8
0
  6
CONTINUOUS
 62
     1
 10
53.025
 20
141.09375
 11
54.425
 21
141.09375
  0
LINE
  8
0
  6
CONTINUOUS
 62
     1
 10
54.425
 20
138.99375
 11
53.025
 21
138.99375
  0
LINE
  8
0
  6
CONTINUOUS
 62
     1
 10
49.525
 20
137.59375
 11
38.5
 21
137.59375
  0
LINE
  8
0
  6
CONTINUOUS
 62
     1
 10
38.5
 20
142.49375
 11
49.525
 21
142.49375
  0
LINE
  8
0
  6
CONTINUOUS
 62
     1
 10
23.975
 20
138.29375
 11
27.475
 21
138.29375
  0
LINE
  8
0
  6
CONTINUOUS
 62
     1
 10
27.475
 20
141.79375
 11
23.975
 21
141.79375
  0
LINE
  8
0
  6
CONTINUOUS
 62
     1
 10
27.475
 20
141.09375
 11
28.875
 21
141.09375
  0
LINE
  8
0
  6
CONTINUOUS
 62
     1
 10
28.875
 20
141.09375
 11
28.875
 21
138.99375
  0
LINE
  8
0
  6
CONTINUOUS
 62
     1
 10
28.875
 20
138.99375
 11
27.475
 21
138.99375
  0
CIRCLE
  8
0
  6
CONTINUOUS
 62
     1
 10
37.625
 20
138.99375
 40
0.35
  0
CIRCLE
  8
0
  6
CONTINUOUS
 62
     1
 10
35.875
 20
138.99375
 40
0.35
  0
CIRCLE
  8
0
  6
CONTINUOUS
 62
     1
 10
34.125
 20
138.99375
 40
0.35
  0
CIRCLE
  8
0
  6
CONTINUOUS
 62
     1
 10
32.375
 20
138.99375
 40
0.35
  0
CIRCLE
  8
0
  6
CONTINUOUS
 62
     1
 10
30.625
 20
138.99375
 40
0.35
  0
CIRCLE
  8
0
  6
CONTINUOUS
 62
     1
 10
37.625
 20
141.09375
 40
0.35
  0
CIRCLE
  8
0
  6
CONTINUOUS
 62
     1
 10
35.875
 20
141.09375
 40
0.35
  0
CIRCLE
  8
0
  6
CONTINUOUS
 62
     1
 10
34.125
 20
141.09375
 40
0.35
  0
CIRCLE
  8
0
  6
CONTINUOUS
 62
     1
 10
32.375
 20
141.09375
 40
0.35
  0
CIRCLE
  8
0
  6
CONTINUOUS
 62
     1
 10
30.625
 20
141.09375
 40
0.35
  0
LINE
  8
0
  6
CONTINUOUS
 62
     1
 10
27.825
 20
138.99375
 11
27.825
 21
141.09375
  0
LINE
  8
0
  6
CONTINUOUS
 62
     1
 10
27.125
 20
141.79375
 11
27.125
 21
138.29375
  0
LINE
  8
0
  6
CONTINUOUS
 62
     1
 10
26.425
 20
138.29375
 11
26.425
 21
141.79375
  0
LINE
  8
0
  6
CONTINUOUS
 62
     1
 10
25.725
 20
141.79375
 11
25.725
 21
138.29375
  0
LINE
  8
0
  6
CONTINUOUS
 62
     1
 10
25.025
 20
138.29375
 11
25.025
 21
141.79375
  0
LINE
  8
0
  6
CONTINUOUS
 62
     1
 10
23.975
 20
141.09375
 11
22.575
 21
141.09375
  0
LINE
  8
0
  6
CONTINUOUS
 62
     1
 10
22.575
 20
138.99375
 11
23.975
 21
138.99375
  0
LINE
  8
0
  6
CONTINUOUS
 62
     1
 10
27.475
 20
137.59375
 11
38.5
 21
137.59375
  0
LINE
  8
0
  6
CONTINUOUS
 62
     1
 10
38.5
 20
142.49375
 11
27.475
 21
142.49375
  0
LINE
  8
0
  6
CONTINUOUS
 62
     1
 10
22.575
 20
137.235
 11
23.975
 21
137.235
  0
LINE
  8
0
  6
CONTINUOUS
 62
     1
 10
49.525
 20
137.235
 11
49.525
 21
137.24375
  0
LINE
  8
0
  6
CONTINUOUS
 62
     1
 10
54.425
 20
142.84375
 11
54.425
 21
137.24375
  0
LINE
  8
0
  6
CONTINUOUS
 62
     1
 10
53.025
 20
137.24375
 11
53.025
 21
142.84375
  0
LINE
  8
0
  6
CONTINUOUS
 62
     1
 10
49.525
 20
142.84375
 11
49.525
 21
137.24375
  0
LINE
  8
0
  6
CONTINUOUS
 62
     1
 10
45.325
 20
142.49375
 11
45.325
 21
142.84375
  0
LINE
  8
0
  6
CONTINUOUS
 62
     1
 10
42.525
 20
142.84375
 11
42.525
 21
142.49375
  0
LINE
  8
0
  6
CONTINUOUS
 62
     1
 10
34.475
 20
142.84375
 11
34.475
 21
142.49375
  0
LINE
  8
0
  6
CONTINUOUS
 62
     1
 10
31.675
 20
142.49375
 11
31.675
 21
142.84375
  0
LINE
  8
0
  6
CONTINUOUS
 62
     1
 10
27.475
 20
142.84375
 11
27.475
 21
137.24375
  0
LINE
  8
0
  6
CONTINUOUS
 62
     1
 10
23.975
 20
137.24375
 11
23.975
 21
142.84375
  0
LINE
  8
0
  6
CONTINUOUS
 62
     1
 10
22.575
 20
142.84375
 11
22.575
 21
137.24375
  0
LINE
  8
0
  6
CONTINUOUS
 62
     1
 10
22.575
 20
142.84375
 11
54.425
 21
142.84375
  0
LINE
  8
0
  6
CONTINUOUS
 62
     1
 10
54.425
 20
137.24375
 11
23.625
 21
137.24375
  0
LINE
  8
0
  6
CONTINUOUS
 62
     3
 10
1.4
 20
127.05
 11
1.4
 21
130.2
  0
LINE
  8
0
  6
CONTINUOUS
 62
     3
 10
1.4
 20
130.55
 11
1.4
 21
130.06
  0
LINE
  8
0
  6
CONTINUOUS
 62
     3
 10
1.4
 20
130.55
 11
1.75
 21
129.15
  0
LINE
  8
0
  6
CONTINUOUS
 62
     3
 10
1.05
 20
129.15
 11
1.4
 21
130.55
  0
LINE
  8
0
  6
CONTINUOUS
 62
     3
 10
0.0
 20
130.55
 11
23.1
 21
130.55
  0
LINE
  8
0
  6
CONTINUOUS
 62
     3
 10
1.4
 20
126.7
 11
1.4
 21
127.05
  0
LINE
  8
0
  6
CONTINUOUS
 62
     1
 10
24.92
 20
130.2
 11
24.57
 21
130.55
  0
LINE
  8
0
  6
CONTINUOUS
 62
     1
 10
23.87
 20
130.2
 11
23.87
 21
130.55
  0
LINE
  8
0
  6
CONTINUOUS
 62
     1
 10
23.87
 20
130.55
 11
24.57
 21
130.55
  0
LINE
  8
0
  6
CONTINUOUS
 62
     1
 10
52.08
 20
130.2
 11
52.43
 21
130.55
  0
LINE
  8
0
  6
CONTINUOUS
 62
     1
 10
52.43
 20
130.55
 11
53.13
 21
130.55
  0
LINE
  8
0
  6
CONTINUOUS
 62
     1
 10
53.13
 20
130.55
 11
53.13
 21
130.2
  0
LINE
  8
0
  6
CONTINUOUS
 62
     1
 10
20.448114664
 20
15.82
 11
20.308114664
 21
15.96
  0
LINE
  8
0
  6
CONTINUOUS
 62
     1
 10
20.291030871
 20
15.96
 11
21.056289968
 21
20.3
  0
LINE
  8
0
  6
CONTINUOUS
 62
     1
 10
20.44
 20
15.82
 11
21.28
 21
16.66
  0
LINE
  8
0
  6
CONTINUOUS
 62
     1
 10
21.279145535
 20
16.66
 11
21.760518193
 21
19.39
  0
LINE
  8
0
  6
CONTINUOUS
 62
     1
 10
21.35
 20
20.51
 11
21.91
 21
20.09
  0
LINE
  8
0
  6
CONTINUOUS
 62
     1
 10
21.91
 20
20.09
 11
21.77
 21
19.39
  0
LINE
  8
0
  6
CONTINUOUS
 62
     1
 10
21.07
 20
20.3
 11
21.35
 21
20.51
  0
LINE
  8
0
  6
CONTINUOUS
 62
     1
 10
29.391030871
 20
15.96
 11
30.156289968
 21
20.3
  0
LINE
  8
0
  6
CONTINUOUS
 62
     1
 10
29.54
 20
15.82
 11
30.38
 21
16.66
  0
LINE
  8
0
  6
CONTINUOUS
 62
     1
 10
30.379145535
 20
16.66
 11
30.860518193
 21
19.39
  0
LINE
  8
0
  6
CONTINUOUS
 62
     1
 10
30.45
 20
20.51
 11
31.01
 21
20.09
  0
LINE
  8
0
  6
CONTINUOUS
 62
     1
 10
30.17
 20
20.3
 11
30.45
 21
20.51
  0
LINE
  8
0
  6
CONTINUOUS
 62
     1
 10
38.491030871
 20
15.96
 11
39.256289968
 21
20.3
  0
LINE
  8
0
  6
CONTINUOUS
 62
     1
 10
38.64
 20
15.82
 11
39.48
 21
16.66
  0
LINE
  8
0
  6
CONTINUOUS
 62
     1
 10
39.479145535
 20
16.66
 11
39.960518193
 21
19.39
  0
LINE
  8
0
  6
CONTINUOUS
 62
     1
 10
39.55
 20
20.51
 11
40.11
 21
20.09
  0
LINE
  8
0
  6
CONTINUOUS
 62
     1
 10
39.27
 20
20.3
 11
39.55
 21
20.51
  0
LINE
  8
0
  6
CONTINUOUS
 62
     1
 10
47.591030871
 20
15.96
 11
48.356289968
 21
20.3
  0
LINE
  8
0
  6
CONTINUOUS
 62
     1
 10
47.74
 20
15.82
 11
48.58
 21
16.66
  0
LINE
  8
0
  6
CONTINUOUS
 62
     1
 10
48.579145535
 20
16.66
 11
49.060518193
 21
19.39
  0
LINE
  8
0
  6
CONTINUOUS
 62
     1
 10
48.65
 20
20.51
 11
49.21
 21
20.09
  0
LINE
  8
0
  6
CONTINUOUS
 62
     1
 10
48.37
 20
20.3
 11
48.65
 21
20.51
  0
LINE
  8
0
  6
CONTINUOUS
 62
     1
 10
31.01
 20
20.09
 11
30.87
 21
19.39
  0
LINE
  8
0
  6
CONTINUOUS
 62
     1
 10
39.97
 20
19.39
 11
40.11
 21
20.09
  0
LINE
  8
0
  6
CONTINUOUS
 62
     1
 10
49.21
 20
20.09
 11
49.07
 21
19.39
  0
LINE
  8
0
  6
CONTINUOUS
 62
     1
 10
29.4
 20
15.96
 11
29.54
 21
15.82
  0
LINE
  8
0
  6
CONTINUOUS
 62
     1
 10
38.5
 20
15.96
 11
38.64
 21
15.82
  0
LINE
  8
0
  6
CONTINUOUS
 62
     1
 10
47.6
 20
15.96
 11
47.74
 21
15.82
  0
LINE
  8
0
  6
CONTINUOUS
 62
     3
 10
63.35
 20
47.25
 11
87.4
 21
47.25
  0
POINT
  8
0
  6
CONTINUOUS
 62
     1
 10
114.1
 20
47.25
  0
POINT
  8
0
  6
CONTINUOUS
 62
     1
 10
114.1
 20
51.1
  0
LINE
  8
0
  6
CONTINUOUS
 62
     1
 10
114.1
 20
51.1
 11
88.9
 21
51.1
  0
POINT
  8
0
  6
CONTINUOUS
 62
     1
 10
88.9
 20
51.1
  0
LINE
  8
0
  6
CONTINUOUS
 62
     1
 10
89.95
 20
51.1
 11
90.3
 21
117.25
  0
POINT
  8
0
  6
CONTINUOUS
 62
     1
 10
90.3
 20
117.25
  0
POINT
  8
0
  6
CONTINUOUS
 62
     1
 10
113.4
 20
117.25
  0
LINE
  8
0
  6
CONTINUOUS
 62
     1
 10
113.4
 20
117.25
 11
113.4
 21
51.1
  0
POINT
  8
0
  6
CONTINUOUS
 62
     1
 10
107.8
 20
52.85
  0
LINE
  8
0
  6
CONTINUOUS
 62
     1
 10
107.8
 20
52.85
 11
107.8
 21
54.25
  0
POINT
  8
0
  6
CONTINUOUS
 62
     1
 10
107.8
 20
54.25
  0
POINT
  8
0
  6
CONTINUOUS
 62
     1
 10
95.2
 20
54.25
  0
LINE
  8
0
  6
CONTINUOUS
 62
     1
 10
95.2
 20
54.25
 11
95.2
 21
52.85
  0
LINE
  8
0
  6
CONTINUOUS
 62
     1
 10
102.9
 20
52.85
 11
102.9
 21
54.25
  0
LINE
  8
0
  6
CONTINUOUS
 62
     1
 10
107.8
 20
54.25
 11
102.9
 21
54.25
  0
LINE
  8
0
  6
CONTINUOUS
 62
     1
 10
102.9
 20
52.85
 11
107.8
 21
52.85
  0
POINT
  8
0
  6
CONTINUOUS
 62
     1
 10
107.8
 20
55.65
  0
LINE
  8
0
  6
CONTINUOUS
 62
     1
 10
107.8
 20
55.65
 11
107.8
 21
57.05
  0
POINT
  8
0
  6
CONTINUOUS
 62
     1
 10
107.8
 20
57.05
  0
POINT
  8
0
  6
CONTINUOUS
 62
     1
 10
95.2
 20
57.05
  0
LINE
  8
0
  6
CONTINUOUS
 62
     1
 10
95.2
 20
57.05
 11
95.2
 21
55.65
  0
LINE
  8
0
  6
CONTINUOUS
 62
     1
 10
102.9
 20
55.65
 11
102.9
 21
57.05
  0
LINE
  8
0
  6
CONTINUOUS
 62
     1
 10
107.8
 20
57.05
 11
102.9
 21
57.05
  0
LINE
  8
0
  6
CONTINUOUS
 62
     1
 10
102.9
 20
55.65
 11
107.8
 21
55.65
  0
POINT
  8
0
  6
CONTINUOUS
 62
     1
 10
95.2
 20
59.85
  0
LINE
  8
0
  6
CONTINUOUS
 62
     1
 10
95.2
 20
59.85
 11
95.2
 21
58.45
  0
POINT
  8
0
  6
CONTINUOUS
 62
     1
 10
95.2
 20
62.65
  0
LINE
  8
0
  6
CONTINUOUS
 62
     1
 10
95.2
 20
62.65
 11
95.2
 21
61.25
  0
POINT
  8
0
  6
CONTINUOUS
 62
     1
 10
107.8
 20
58.45
  0
LINE
  8
0
  6
CONTINUOUS
 62
     1
 10
107.8
 20
58.45
 11
107.8
 21
59.85
  0
POINT
  8
0
  6
CONTINUOUS
 62
     1
 10
107.8
 20
59.85
  0
LINE
  8
0
  6
CONTINUOUS
 62
     1
 10
102.9
 20
58.45
 11
102.9
 21
59.85
  0
LINE
  8
0
  6
CONTINUOUS
 62
     1
 10
107.8
 20
59.85
 11
102.9
 21
59.85
  0
LINE
  8
0
  6
CONTINUOUS
 62
     1
 10
102.9
 20
58.45
 11
107.8
 21
58.45
  0
POINT
  8
0
  6
CONTINUOUS
 62
     1
 10
107.8
 20
61.25
  0
LINE
  8
0
  6
CONTINUOUS
 62
     1
 10
107.8
 20
61.25
 11
107.8
 21
62.65
  0
POINT
  8
0
  6
CONTINUOUS
 62
     1
 10
107.8
 20
62.65
  0
LINE
  8
0
  6
CONTINUOUS
 62
     1
 10
102.9
 20
61.25
 11
102.9
 21
62.65
  0
LINE
  8
0
  6
CONTINUOUS
 62
     1
 10
107.8
 20
62.65
 11
102.9
 21
62.65
  0
LINE
  8
0
  6
CONTINUOUS
 62
     1
 10
102.9
 20
61.25
 11
107.8
 21
61.25
  0
POINT
  8
0
  6
CONTINUOUS
 62
     1
 10
95.2
 20
65.45
  0
LINE
  8
0
  6
CONTINUOUS
 62
     1
 10
95.2
 20
65.45
 11
95.2
 21
64.05
  0
POINT
  8
0
  6
CONTINUOUS
 62
     1
 10
95.2
 20
68.25
  0
LINE
  8
0
  6
CONTINUOUS
 62
     1
 10
95.2
 20
68.25
 11
95.2
 21
66.85
  0
POINT
  8
0
  6
CONTINUOUS
 62
     1
 10
107.8
 20
64.05
  0
LINE
  8
0
  6
CONTINUOUS
 62
     1
 10
107.8
 20
64.05
 11
107.8
 21
65.45
  0
POINT
  8
0
  6
CONTINUOUS
 62
     1
 10
107.8
 20
65.45
  0
LINE
  8
0
  6
CONTINUOUS
 62
     1
 10
102.9
 20
64.05
 11
102.9
 21
65.45
  0
LINE
  8
0
  6
CONTINUOUS
 62
     1
 10
107.8
 20
65.45
 11
102.9
 21
65.45
  0
LINE
  8
0
  6
CONTINUOUS
 62
     1
 10
102.9
 20
64.05
 11
107.8
 21
64.05
  0
POINT
  8
0
  6
CONTINUOUS
 62
     1
 10
107.8
 20
66.85
  0
LINE
  8
0
  6
CONTINUOUS
 62
     1
 10
107.8
 20
66.85
 11
107.8
 21
68.25
  0
POINT
  8
0
  6
CONTINUOUS
 62
     1
 10
107.8
 20
68.25
  0
LINE
  8
0
  6
CONTINUOUS
 62
     1
 10
102.9
 20
66.85
 11
102.9
 21
68.25
  0
LINE
  8
0
  6
CONTINUOUS
 62
     1
 10
107.8
 20
68.25
 11
102.9
 21
68.25
  0
LINE
  8
0
  6
CONTINUOUS
 62
     1
 10
102.9
 20
66.85
 11
107.8
 21
66.85
  0
POINT
  8
0
  6
CONTINUOUS
 62
     1
 10
95.2
 20
80.15
  0
LINE
  8
0
  6
CONTINUOUS
 62
     1
 10
95.2
 20
80.15
 11
95.2
 21
78.75
  0
POINT
  8
0
  6
CONTINUOUS
 62
     1
 10
107.8
 20
78.75
  0
LINE
  8
0
  6
CONTINUOUS
 62
     1
 10
107.8
 20
78.75
 11
107.8
 21
80.15
  0
POINT
  8
0
  6
CONTINUOUS
 62
     1
 10
107.8
 20
80.15
  0
LINE
  8
0
  6
CONTINUOUS
 62
     1
 10
102.9
 20
78.75
 11
102.9
 21
80.15
  0
LINE
  8
0
  6
CONTINUOUS
 62
     1
 10
107.8
 20
80.15
 11
102.9
 21
80.15
  0
LINE
  8
0
  6
CONTINUOUS
 62
     1
 10
102.9
 20
78.75
 11
107.8
 21
78.75
  0
POINT
  8
0
  6
CONTINUOUS
 62
     1
 10
95.2
 20
82.95
  0
LINE
  8
0
  6
CONTINUOUS
 62
     1
 10
95.2
 20
82.95
 11
95.2
 21
81.55
  0
POINT
  8
0
  6
CONTINUOUS
 62
     1
 10
95.2
 20
85.75
  0
LINE
  8
0
  6
CONTINUOUS
 62
     1
 10
95.2
 20
85.75
 11
95.2
 21
84.35
  0
POINT
  8
0
  6
CONTINUOUS
 62
     1
 10
107.8
 20
81.55
  0
LINE
  8
0
  6
CONTINUOUS
 62
     1
 10
107.8
 20
81.55
 11
107.8
 21
82.95
  0
POINT
  8
0
  6
CONTINUOUS
 62
     1
 10
107.8
 20
82.95
  0
LINE
  8
0
  6
CONTINUOUS
 62
     1
 10
102.9
 20
81.55
 11
102.9
 21
82.95
  0
LINE
  8
0
  6
CONTINUOUS
 62
     1
 10
107.8
 20
82.95
 11
102.9
 21
82.95
  0
LINE
  8
0
  6
CONTINUOUS
 62
     1
 10
102.9
 20
81.55
 11
107.8
 21
81.55
  0
POINT
  8
0
  6
CONTINUOUS
 62
     1
 10
107.8
 20
84.35
  0
LINE
  8
0
  6
CONTINUOUS
 62
     1
 10
107.8
 20
84.35
 11
107.8
 21
85.75
  0
POINT
  8
0
  6
CONTINUOUS
 62
     1
 10
107.8
 20
85.75
  0
LINE
  8
0
  6
CONTINUOUS
 62
     1
 10
102.9
 20
84.35
 11
102.9
 21
85.75
  0
LINE
  8
0
  6
CONTINUOUS
 62
     1
 10
107.8
 20
85.75
 11
102.9
 21
85.75
  0
LINE
  8
0
  6
CONTINUOUS
 62
     1
 10
102.9
 20
84.35
 11
107.8
 21
84.35
  0
POINT
  8
0
  6
CONTINUOUS
 62
     1
 10
95.2
 20
94.5
  0
LINE
  8
0
  6
CONTINUOUS
 62
     1
 10
95.2
 20
94.5
 11
95.2
 21
93.1
  0
POINT
  8
0
  6
CONTINUOUS
 62
     1
 10
107.8
 20
93.1
  0
LINE
  8
0
  6
CONTINUOUS
 62
     1
 10
107.8
 20
93.1
 11
107.8
 21
94.5
  0
POINT
  8
0
  6
CONTINUOUS
 62
     1
 10
107.8
 20
94.5
  0
LINE
  8
0
  6
CONTINUOUS
 62
     1
 10
102.9
 20
93.1
 11
102.9
 21
94.5
  0
LINE
  8
0
  6
CONTINUOUS
 62
     1
 10
107.8
 20
94.5
 11
102.9
 21
94.5
  0
LINE
  8
0
  6
CONTINUOUS
 62
     1
 10
102.9
 20
93.1
 11
107.8
 21
93.1
  0
POINT
  8
0
  6
CONTINUOUS
 62
     1
 10
95.2
 20
97.3
  0
LINE
  8
0
  6
CONTINUOUS
 62
     1
 10
95.2
 20
97.3
 11
95.2
 21
95.9
  0
POINT
  8
0
  6
CONTINUOUS
 62
     1
 10
107.8
 20
95.9
  0
LINE
  8
0
  6
CONTINUOUS
 62
     1
 10
107.8
 20
95.9
 11
107.8
 21
97.3
  0
POINT
  8
0
  6
CONTINUOUS
 62
     1
 10
107.8
 20
97.3
  0
LINE
  8
0
  6
CONTINUOUS
 62
     1
 10
102.9
 20
95.9
 11
102.9
 21
97.3
  0
LINE
  8
0
  6
CONTINUOUS
 62
     1
 10
107.8
 20
97.3
 11
102.9
 21
97.3
  0
LINE
  8
0
  6
CONTINUOUS
 62
     1
 10
102.9
 20
95.9
 11
107.8
 21
95.9
  0
POINT
  8
0
  6
CONTINUOUS
 62
     1
 10
95.2
 20
100.1
  0
LINE
  8
0
  6
CONTINUOUS
 62
     1
 10
95.2
 20
100.1
 11
95.2
 21
98.7
  0
POINT
  8
0
  6
CONTINUOUS
 62
     1
 10
107.8
 20
98.7
  0
LINE
  8
0
  6
CONTINUOUS
 62
     1
 10
107.8
 20
98.7
 11
107.8
 21
100.1
  0
POINT
  8
0
  6
CONTINUOUS
 62
     1
 10
107.8
 20
100.1
  0
LINE
  8
0
  6
CONTINUOUS
 62
     1
 10
102.9
 20
98.7
 11
102.9
 21
100.1
  0
LINE
  8
0
  6
CONTINUOUS
 62
     1
 10
107.8
 20
100.1
 11
102.9
 21
100.1
  0
LINE
  8
0
  6
CONTINUOUS
 62
     1
 10
102.9
 20
98.7
 11
107.8
 21
98.7
  0
POINT
  8
0
  6
CONTINUOUS
 62
     1
 10
95.2
 20
102.9
  0
LINE
  8
0
  6
CONTINUOUS
 62
     1
 10
95.2
 20
102.9
 11
95.2
 21
101.5
  0
POINT
  8
0
  6
CONTINUOUS
 62
     1
 10
107.8
 20
101.5
  0
LINE
  8
0
  6
CONTINUOUS
 62
     1
 10
107.8
 20
101.5
 11
107.8
 21
102.9
  0
POINT
  8
0
  6
CONTINUOUS
 62
     1
 10
107.8
 20
102.9
  0
LINE
  8
0
  6
CONTINUOUS
 62
     1
 10
102.9
 20
101.5
 11
102.9
 21
102.9
  0
LINE
  8
0
  6
CONTINUOUS
 62
     1
 10
107.8
 20
102.9
 11
102.9
 21
102.9
  0
LINE
  8
0
  6
CONTINUOUS
 62
     1
 10
102.9
 20
101.5
 11
107.8
 21
101.5
  0
POINT
  8
0
  6
CONTINUOUS
 62
     1
 10
95.2
 20
97.3
  0
LINE
  8
0
  6
CONTINUOUS
 62
     1
 10
95.2
 20
97.3
 11
95.2
 21
95.9
  0
POINT
  8
0
  6
CONTINUOUS
 62
     1
 10
107.8
 20
95.9
  0
LINE
  8
0
  6
CONTINUOUS
 62
     1
 10
107.8
 20
95.9
 11
107.8
 21
97.3
  0
POINT
  8
0
  6
CONTINUOUS
 62
     1
 10
107.8
 20
97.3
  0
LINE
  8
0
  6
CONTINUOUS
 62
     1
 10
102.9
 20
95.9
 11
102.9
 21
97.3
  0
LINE
  8
0
  6
CONTINUOUS
 62
     1
 10
107.8
 20
97.3
 11
102.9
 21
97.3
  0
LINE
  8
0
  6
CONTINUOUS
 62
     1
 10
102.9
 20
95.9
 11
107.8
 21
95.9
  0
POINT
  8
0
  6
CONTINUOUS
 62
     1
 10
95.2
 20
100.1
  0
LINE
  8
0
  6
CONTINUOUS
 62
     1
 10
95.2
 20
100.1
 11
95.2
 21
98.7
  0
POINT
  8
0
  6
CONTINUOUS
 62
     1
 10
107.8
 20
98.7
  0
LINE
  8
0
  6
CONTINUOUS
 62
     1
 10
107.8
 20
98.7
 11
107.8
 21
100.1
  0
POINT
  8
0
  6
CONTINUOUS
 62
     1
 10
107.8
 20
100.1
  0
LINE
  8
0
  6
CONTINUOUS
 62
     1
 10
102.9
 20
98.7
 11
102.9
 21
100.1
  0
LINE
  8
0
  6
CONTINUOUS
 62
     1
 10
107.8
 20
100.1
 11
102.9
 21
100.1
  0
LINE
  8
0
  6
CONTINUOUS
 62
     1
 10
102.9
 20
98.7
 11
107.8
 21
98.7
  0
POINT
  8
0
  6
CONTINUOUS
 62
     1
 10
95.2
 20
102.9
  0
LINE
  8
0
  6
CONTINUOUS
 62
     1
 10
95.2
 20
102.9
 11
95.2
 21
101.5
  0
POINT
  8
0
  6
CONTINUOUS
 62
     1
 10
107.8
 20
101.5
  0
LINE
  8
0
  6
CONTINUOUS
 62
     1
 10
107.8
 20
101.5
 11
107.8
 21
102.9
  0
POINT
  8
0
  6
CONTINUOUS
 62
     1
 10
107.8
 20
102.9
  0
LINE
  8
0
  6
CONTINUOUS
 62
     1
 10
102.9
 20
101.5
 11
102.9
 21
102.9
  0
LINE
  8
0
  6
CONTINUOUS
 62
     1
 10
107.8
 20
102.9
 11
102.9
 21
102.9
  0
LINE
  8
0
  6
CONTINUOUS
 62
     1
 10
102.9
 20
101.5
 11
107.8
 21
101.5
  0
POINT
  8
0
  6
CONTINUOUS
 62
     1
 10
95.2
 20
105.7
  0
LINE
  8
0
  6
CONTINUOUS
 62
     1
 10
95.2
 20
105.7
 11
95.2
 21
104.3
  0
POINT
  8
0
  6
CONTINUOUS
 62
     1
 10
107.8
 20
104.3
  0
LINE
  8
0
  6
CONTINUOUS
 62
     1
 10
107.8
 20
104.3
 11
107.8
 21
105.7
  0
POINT
  8
0
  6
CONTINUOUS
 62
     1
 10
107.8
 20
105.7
  0
LINE
  8
0
  6
CONTINUOUS
 62
     1
 10
102.9
 20
104.3
 11
102.9
 21
105.7
  0
LINE
  8
0
  6
CONTINUOUS
 62
     1
 10
107.8
 20
105.7
 11
102.9
 21
105.7
  0
LINE
  8
0
  6
CONTINUOUS
 62
     1
 10
102.9
 20
104.3
 11
107.8
 21
104.3
  0
POINT
  8
0
  6
CONTINUOUS
 62
     1
 10
95.2
 20
108.5
  0
LINE
  8
0
  6
CONTINUOUS
 62
     1
 10
95.2
 20
108.5
 11
95.2
 21
107.1
  0
POINT
  8
0
  6
CONTINUOUS
 62
     1
 10
107.8
 20
107.1
  0
LINE
  8
0
  6
CONTINUOUS
 62
     1
 10
107.8
 20
107.1
 11
107.8
 21
108.5
  0
POINT
  8
0
  6
CONTINUOUS
 62
     1
 10
107.8
 20
108.5
  0
LINE
  8
0
  6
CONTINUOUS
 62
     1
 10
102.9
 20
107.1
 11
102.9
 21
108.5
  0
LINE
  8
0
  6
CONTINUOUS
 62
     1
 10
107.8
 20
108.5
 11
102.9
 21
108.5
  0
LINE
  8
0
  6
CONTINUOUS
 62
     1
 10
102.9
 20
107.1
 11
107.8
 21
107.1
  0
POINT
  8
0
  6
CONTINUOUS
 62
     1
 10
95.2
 20
111.3
  0
LINE
  8
0
  6
CONTINUOUS
 62
     1
 10
95.2
 20
111.3
 11
95.2
 21
109.9
  0
POINT
  8
0
  6
CONTINUOUS
 62
     1
 10
107.8
 20
109.9
  0
LINE
  8
0
  6
CONTINUOUS
 62
     1
 10
107.8
 20
109.9
 11
107.8
 21
111.3
  0
POINT
  8
0
  6
CONTINUOUS
 62
     1
 10
107.8
 20
111.3
  0
LINE
  8
0
  6
CONTINUOUS
 62
     1
 10
102.9
 20
109.9
 11
102.9
 21
111.3
  0
LINE
  8
0
  6
CONTINUOUS
 62
     1
 10
107.8
 20
111.3
 11
102.9
 21
111.3
  0
LINE
  8
0
  6
CONTINUOUS
 62
     1
 10
102.9
 20
109.9
 11
107.8
 21
109.9
  0
POINT
  8
0
  6
CONTINUOUS
 62
     1
 10
95.2
 20
105.7
  0
LINE
  8
0
  6
CONTINUOUS
 62
     1
 10
95.2
 20
105.7
 11
95.2
 21
104.3
  0
POINT
  8
0
  6
CONTINUOUS
 62
     1
 10
107.8
 20
104.3
  0
LINE
  8
0
  6
CONTINUOUS
 62
     1
 10
107.8
 20
104.3
 11
107.8
 21
105.7
  0
POINT
  8
0
  6
CONTINUOUS
 62
     1
 10
107.8
 20
105.7
  0
LINE
  8
0
  6
CONTINUOUS
 62
     1
 10
102.9
 20
104.3
 11
102.9
 21
105.7
  0
LINE
  8
0
  6
CONTINUOUS
 62
     1
 10
107.8
 20
105.7
 11
102.9
 21
105.7
  0
LINE
  8
0
  6
CONTINUOUS
 62
     1
 10
102.9
 20
104.3
 11
107.8
 21
104.3
  0
POINT
  8
0
  6
CONTINUOUS
 62
     1
 10
95.2
 20
108.5
  0
LINE
  8
0
  6
CONTINUOUS
 62
     1
 10
95.2
 20
108.5
 11
95.2
 21
107.1
  0
POINT
  8
0
  6
CONTINUOUS
 62
     1
 10
107.8
 20
107.1
  0
LINE
  8
0
  6
CONTINUOUS
 62
     1
 10
107.8
 20
107.1
 11
107.8
 21
108.5
  0
POINT
  8
0
  6
CONTINUOUS
 62
     1
 10
107.8
 20
108.5
  0
LINE
  8
0
  6
CONTINUOUS
 62
     1
 10
102.9
 20
107.1
 11
102.9
 21
108.5
  0
LINE
  8
0
  6
CONTINUOUS
 62
     1
 10
107.8
 20
108.5
 11
102.9
 21
108.5
  0
LINE
  8
0
  6
CONTINUOUS
 62
     1
 10
102.9
 20
107.1
 11
107.8
 21
107.1
  0
POINT
  8
0
  6
CONTINUOUS
 62
     1
 10
95.2
 20
111.3
  0
LINE
  8
0
  6
CONTINUOUS
 62
     1
 10
95.2
 20
111.3
 11
95.2
 21
109.9
  0
POINT
  8
0
  6
CONTINUOUS
 62
     1
 10
107.8
 20
109.9
  0
LINE
  8
0
  6
CONTINUOUS
 62
     1
 10
107.8
 20
109.9
 11
107.8
 21
111.3
  0
POINT
  8
0
  6
CONTINUOUS
 62
     1
 10
107.8
 20
111.3
  0
LINE
  8
0
  6
CONTINUOUS
 62
     1
 10
102.9
 20
109.9
 11
102.9
 21
111.3
  0
LINE
  8
0
  6
CONTINUOUS
 62
     1
 10
107.8
 20
111.3
 11
102.9
 21
111.3
  0
LINE
  8
0
  6
CONTINUOUS
 62
     1
 10
102.9
 20
109.9
 11
107.8
 21
109.9
  0
POINT
  8
0
  6
CONTINUOUS
 62
     1
 10
101.85
 20
51.45
  0
LINE
  8
0
  6
CONTINUOUS
 62
     1
 10
101.85
 20
51.45
 11
96.95
 21
51.45
  0
POINT
  8
0
  6
CONTINUOUS
 62
     1
 10
96.95
 20
51.45
  0
LINE
  8
0
  6
CONTINUOUS
 62
     1
 10
102.9
 20
124.25
 11
110.95
 21
124.25
  0
POINT
  8
0
  6
CONTINUOUS
 62
     1
 10
110.95
 20
124.25
  0
LINE
  8
0
  6
CONTINUOUS
 62
     1
 10
110.95
 20
124.25
 11
112.0
 21
123.2
  0
POINT
  8
0
  6
CONTINUOUS
 62
     1
 10
112.0
 20
123.2
  0
LINE
  8
0
  6
CONTINUOUS
 62
     1
 10
112.0
 20
123.2
 11
112.0
 21
117.25
  0
LINE
  8
0
  6
CONTINUOUS
 62
     1
 10
102.9
 20
124.25
 11
102.55
 21
124.25
  0
LINE
  8
0
  6
CONTINUOUS
 62
     1
 10
102.55
 20
124.25
 11
102.55
 21
117.25
  0
LINE
  8
0
  6
CONTINUOUS
 62
     1
 10
91.21
 20
122.85
 11
91.21
 21
117.25
  0
LINE
  8
0
  6
CONTINUOUS
 62
     1
 10
95.41
 20
117.25
 11
95.41
 21
122.85
  0
LINE
  8
0
  6
CONTINUOUS
 62
     1
 10
96.95
 20
111.3
 11
95.2
 21
111.3
  0
LINE
  8
0
  6
CONTINUOUS
 62
     1
 10
95.2
 20
109.9
 11
96.95
 21
109.9
  0
LINE
  8
0
  6
CONTINUOUS
 62
     1
 10
96.95
 20
108.5
 11
95.2
 21
108.5
  0
LINE
  8
0
  6
CONTINUOUS
 62
     1
 10
95.2
 20
107.1
 11
96.95
 21
107.1
  0
LINE
  8
0
  6
CONTINUOUS
 62
     1
 10
96.95
 20
105.7
 11
95.2
 21
105.7
  0
LINE
  8
0
  6
CONTINUOUS
 62
     1
 10
95.2
 20
104.3
 11
96.95
 21
104.3
  0
LINE
  8
0
  6
CONTINUOUS
 62
     1
 10
96.95
 20
102.9
 11
95.2
 21
102.9
  0
LINE
  8
0
  6
CONTINUOUS
 62
     1
 10
95.2
 20
101.5
 11
96.95
 21
101.5
  0
LINE
  8
0
  6
CONTINUOUS
 62
     1
 10
96.95
 20
100.1
 11
95.2
 21
100.1
  0
LINE
  8
0
  6
CONTINUOUS
 62
     1
 10
95.2
 20
98.7
 11
96.95
 21
98.7
  0
LINE
  8
0
  6
CONTINUOUS
 62
     1
 10
96.95
 20
97.3
 11
95.2
 21
97.3
  0
LINE
  8
0
  6
CONTINUOUS
 62
     1
 10
95.2
 20
95.9
 11
96.95
 21
95.9
  0
LINE
  8
0
  6
CONTINUOUS
 62
     1
 10
96.95
 20
85.75
 11
95.2
 21
85.75
  0
LINE
  8
0
  6
CONTINUOUS
 62
     1
 10
95.2
 20
84.35
 11
96.95
 21
84.35
  0
LINE
  8
0
  6
CONTINUOUS
 62
     1
 10
96.95
 20
82.95
 11
95.2
 21
82.95
  0
LINE
  8
0
  6
CONTINUOUS
 62
     1
 10
95.2
 20
81.55
 11
96.6
 21
81.55
  0
LINE
  8
0
  6
CONTINUOUS
 62
     1
 10
96.95
 20
80.15
 11
95.2
 21
80.15
  0
LINE
  8
0
  6
CONTINUOUS
 62
     1
 10
95.2
 20
78.75
 11
96.95
 21
78.75
  0
LINE
  8
0
  6
CONTINUOUS
 62
     1
 10
96.95
 20
68.25
 11
95.2
 21
68.25
  0
LINE
  8
0
  6
CONTINUOUS
 62
     1
 10
95.2
 20
66.85
 11
96.95
 21
66.85
  0
LINE
  8
0
  6
CONTINUOUS
 62
     1
 10
96.95
 20
65.45
 11
95.2
 21
65.45
  0
LINE
  8
0
  6
CONTINUOUS
 62
     1
 10
95.2
 20
64.05
 11
96.95
 21
64.05
  0
LINE
  8
0
  6
CONTINUOUS
 62
     1
 10
96.95
 20
62.65
 11
95.2
 21
62.65
  0
LINE
  8
0
  6
CONTINUOUS
 62
     1
 10
95.2
 20
61.25
 11
96.95
 21
61.25
  0
LINE
  8
0
  6
CONTINUOUS
 62
     1
 10
96.95
 20
59.85
 11
95.2
 21
59.85
  0
LINE
  8
0
  6
CONTINUOUS
 62
     1
 10
95.2
 20
58.45
 11
96.95
 21
58.45
  0
LINE
  8
0
  6
CONTINUOUS
 62
     1
 10
96.95
 20
57.05
 11
95.2
 21
57.05
  0
LINE
  8
0
  6
CONTINUOUS
 62
     1
 10
95.2
 20
55.65
 11
96.95
 21
55.65
  0
LINE
  8
0
  6
CONTINUOUS
 62
     1
 10
96.95
 20
54.25
 11
95.2
 21
54.25
  0
LINE
  8
0
  6
CONTINUOUS
 62
     1
 10
95.2
 20
52.85
 11
96.95
 21
52.85
  0
LINE
  8
0
  6
CONTINUOUS
 62
     1
 10
95.2
 20
93.1
 11
96.95
 21
93.1
  0
LINE
  8
0
  6
CONTINUOUS
 62
     1
 10
96.95
 20
94.5
 11
95.2
 21
94.5
  0
LINE
  8
0
  6
CONTINUOUS
 62
     1
 10
95.2
 20
95.9
 11
96.95
 21
95.9
  0
LINE
  8
0
  6
CONTINUOUS
 62
     1
 10
96.95
 20
97.3
 11
95.2
 21
97.3
  0
LINE
  8
0
  6
CONTINUOUS
 62
     1
 10
95.2
 20
98.7
 11
96.95
 21
98.7
  0
LINE
  8
0
  6
CONTINUOUS
 62
     1
 10
96.95
 20
100.1
 11
95.2
 21
100.1
  0
LINE
  8
0
  6
CONTINUOUS
 62
     1
 10
95.2
 20
101.5
 11
96.95
 21
101.5
  0
LINE
  8
0
  6
CONTINUOUS
 62
     1
 10
96.95
 20
102.9
 11
95.2
 21
102.9
  0
LINE
  8
0
  6
CONTINUOUS
 62
     1
 10
95.2
 20
104.3
 11
96.95
 21
104.3
  0
LINE
  8
0
  6
CONTINUOUS
 62
     1
 10
95.2
 20
107.1
 11
96.95
 21
107.1
  0
LINE
  8
0
  6
CONTINUOUS
 62
     1
 10
96.95
 20
105.7
 11
95.2
 21
105.7
  0
LINE
  8
0
  6
CONTINUOUS
 62
     1
 10
96.95
 20
108.5
 11
95.2
 21
108.5
  0
LINE
  8
0
  6
CONTINUOUS
 62
     1
 10
95.2
 20
109.9
 11
96.95
 21
109.9
  0
LINE
  8
0
  6
CONTINUOUS
 62
     1
 10
96.95
 20
111.3
 11
95.2
 21
111.3
  0
LINE
  8
0
  6
CONTINUOUS
 62
     1
 10
88.9
 20
47.6
 11
89.25
 21
47.25
  0
LINE
  8
0
  6
CONTINUOUS
 62
     1
 10
88.9
 20
51.1
 11
88.9
 21
47.6
  0
LINE
  8
0
  6
CONTINUOUS
 62
     1
 10
89.25
 20
47.25
 11
113.75
 21
47.25
  0
LINE
  8
0
  6
CONTINUOUS
 62
     1
 10
114.1
 20
47.6
 11
114.1
 21
51.1
  0
LINE
  8
0
  6
CONTINUOUS
 62
     1
 10
113.75
 20
47.25
 11
114.1
 21
47.6
  0
LINE
  8
0
  6
CONTINUOUS
 62
     1
 10
91.21
 20
122.85
 11
95.41
 21
122.85
  0
LINE
  8
0
  6
CONTINUOUS
 62
     1
 10
96.95
 20
51.45
 11
96.95
 21
121.94
  0
LINE
  8
0
  6
CONTINUOUS
 62
     1
 10
101.85
 20
121.94
 11
101.85
 21
51.45
  0
LINE
  8
0
  6
CONTINUOUS
 62
     1
 10
96.95
 20
121.94
 11
101.85
 21
121.94
  0
LINE
  8
0
  6
CONTINUOUS
 62
     1
 10
97.65
 20
122.955
 11
98.0
 21
123.305
  0
LINE
  8
0
  6
CONTINUOUS
 62
     1
 10
98.0
 20
123.305
 11
100.45
 21
123.305
  0
LINE
  8
0
  6
CONTINUOUS
 62
     1
 10
99.05
 20
123.305
 11
99.4
 21
122.605
  0
LINE
  8
0
  6
CONTINUOUS
 62
     1
 10
99.75
 20
123.305
 11
99.4
 21
122.605
  0
LINE
  8
0
  6
CONTINUOUS
 62
     1
 10
100.45
 20
123.305
 11
100.8
 21
123.305
  0
LINE
  8
0
  6
CONTINUOUS
 62
     1
 10
100.8
 20
123.305
 11
101.15
 21
122.955
  0
LINE
  8
0
  6
CONTINUOUS
 62
     1
 10
101.15
 20
122.99
 11
101.15
 21
121.905
  0
LINE
  8
0
  6
CONTINUOUS
 62
     1
 10
97.65
 20
122.99
 11
97.65
 21
121.905
  0
LINE
  8
0
  6
CONTINUOUS
 62
     1
 10
99.82
 20
124.95
 11
93.52
 21
124.95
  0
LINE
  8
0
  6
CONTINUOUS
 62
     1
 10
95.62
 20
117.25
 11
95.62
 21
124.95
  0
LINE
  8
0
  6
CONTINUOUS
 62
     1
 10
98.07
 20
124.95
 11
98.07
 21
130.2
  0
LINE
  8
0
  6
CONTINUOUS
 62
     1
 10
95.27
 20
130.2
 11
95.27
 21
124.95
  0
LINE
  8
0
  6
CONTINUOUS
 62
     1
 10
99.82
 20
123.312
 11
99.82
 21
124.95
  0
LINE
  8
0
  6
CONTINUOUS
 62
     1
 10
97.72
 20
124.95
 11
97.72
 21
122.99
  0
LINE
  8
0
  6
CONTINUOUS
 62
     1
 10
93.52
 20
124.95
 11
93.52
 21
122.85
  0
LINE
  8
0
  6
CONTINUOUS
 62
     3
 10
113.4
 20
50.4
 11
113.4
 21
39.2
  0
LINE
  8
0
  6
CONTINUOUS
 62
     3
 10
113.4
 20
40.6
 11
111.709629804
 21
41.052933329
  0
LINE
  8
0
  6
CONTINUOUS
 62
     3
 10
113.4
 20
40.6
 11
111.709629804
 21
40.147066671
  0
LINE
  8
0
  6
CONTINUOUS
 62
     3
 10
89.95
 20
40.6
 11
91.640370196
 21
40.147066671
  0
LINE
  8
0
  6
CONTINUOUS
 62
     3
 10
89.95
 20
40.6
 11
91.640370196
 21
41.052933329
  0
LINE
  8
0
  6
CONTINUOUS
 62
     3
 10
89.95
 20
50.75
 11
89.95
 21
39.2
  0
LINE
  8
0
  6
CONTINUOUS
 62
     3
 10
113.4
 20
40.6
 11
89.95
 21
40.6
  0
TEXT
  8
0
  6
CONTINUOUS
 62
     3
 10
100.31
 20
41.3
 30
0.21
 40
2.1
  1
３３
 50
0.0
 41
0.6
 51
0.0
  7
KANJI0
  0
LINE
  8
0
  6
CONTINUOUS
 62
     3
 10
114.1
 20
47.25
 11
123.9
 21
47.25
  0
LINE
  8
0
  6
CONTINUOUS
 62
     3
 10
122.5
 20
47.25
 11
122.952933329
 21
48.940370196
  0
LINE
  8
0
  6
CONTINUOUS
 62
     3
 10
122.5
 20
47.25
 11
122.047066671
 21
48.940370196
  0
LINE
  8
0
  6
CONTINUOUS
 62
     3
 10
122.5
 20
47.25
 11
122.5
 21
124.25
  0
LINE
  8
0
  6
CONTINUOUS
 62
     3
 10
122.5
 20
124.25
 11
122.047066671
 21
122.559629804
  0
LINE
  8
0
  6
CONTINUOUS
 62
     3
 10
122.5
 20
124.25
 11
122.952933329
 21
122.559629804
  0
LINE
  8
0
  6
CONTINUOUS
 62
     3
 10
112.0
 20
124.25
 11
123.9
 21
124.25
  0
LINE
  8
0
  6
CONTINUOUS
 62
     1
 10
98.07
 20
130.2
 11
98.07
 21
130.55
  0
LINE
  8
0
  6
CONTINUOUS
 62
     1
 10
98.07
 20
130.55
 11
95.27
 21
130.55
  0
LINE
  8
0
  6
CONTINUOUS
 62
     1
 10
95.27
 20
130.55
 11
95.27
 21
129.85
  0
LINE
  8
0
  6
CONTINUOUS
 62
     1
 10
101.85
 20
117.25
 11
113.4
 21
117.25
  0
LINE
  8
0
  6
CONTINUOUS
 62
     1
 10
90.3
 20
117.25
 11
96.95
 21
117.25
  0
LINE
  8
0
  6
CONTINUOUS
 62
     1
 10
93.52
 20
117.25
 11
96.95
 21
117.25
  0
LINE
  8
0
  6
CONTINUOUS
 62
     3
 10
199.024
 20
134.55
 11
198.651300575
 21
133.15906681
  0
LINE
  8
0
  6
CONTINUOUS
 62
     3
 10
199.024
 20
134.55
 11
199.396699425
 21
133.15906681
  0
LINE
  8
0
  6
CONTINUOUS
 62
     3
 10
199.024
 20
117.99
 11
199.396699425
 21
119.38093319
  0
LINE
  8
0
  6
CONTINUOUS
 62
     3
 10
199.024
 20
117.99
 11
198.651300575
 21
119.38093319
  0
LINE
  8
0
  6
CONTINUOUS
 62
     3
 10
199.024
 20
134.55
 11
199.024
 21
117.99
  0
LINE
  8
0
  6
CONTINUOUS
 62
     3
 10
139.48
 20
139.95
 11
133.72
 21
139.95
  0
LINE
  8
0
  6
CONTINUOUS
 62
     3
 10
135.16
 20
139.95
 11
134.787300575
 21
138.55906681
  0
LINE
  8
0
  6
CONTINUOUS
 62
     3
 10
135.16
 20
139.95
 11
135.532699425
 21
138.55906681
  0
LINE
  8
0
  6
CONTINUOUS
 62
     3
 10
135.16
 20
139.95
 11
135.16
 21
129.15
  0
LINE
  8
0
  6
CONTINUOUS
 62
     3
 10
135.16
 20
129.15
 11
135.532699425
 21
130.54093319
  0
LINE
  8
0
  6
CONTINUOUS
 62
     3
 10
135.16
 20
129.15
 11
134.787300575
 21
130.54093319
  0
LINE
  8
0
  6
CONTINUOUS
 62
     3
 10
139.48
 20
129.15
 11
133.72
 21
129.15
  0
TEXT
  8
0
  6
CONTINUOUS
 62
     3
 10
151.9684
 20
125.5572
 30
0.0648
 40
1.4904
  1
－０
 50
0.0
 41
0.739130435
 51
0.0
  7
KANJI1
  0
LINE
  8
0
  6
CONTINUOUS
 62
     3
 10
140.2
 20
125.19
 11
141.59093319
 21
124.817300575
  0
LINE
  8
0
  6
CONTINUOUS
 62
     3
 10
140.2
 20
125.19
 11
141.59093319
 21
125.562699425
  0
LINE
  8
0
  6
CONTINUOUS
 62
     3
 10
140.2
 20
125.19
 11
161.8
 21
125.19
  0
LINE
  8
0
  6
CONTINUOUS
 62
     3
 10
161.8
 20
125.19
 11
160.40906681
 21
125.562699425
  0
LINE
  8
0
  6
CONTINUOUS
 62
     3
 10
161.8
 20
125.19
 11
160.40906681
 21
124.817300575
  0
LINE
  8
0
  6
CONTINUOUS
 62
     3
 10
161.8
 20
128.43
 11
161.8
 21
124.47
  0
LINE
  8
0
  6
CONTINUOUS
 62
     3
 10
140.2
 20
128.43
 11
140.2
 21
124.47
  0
LINE
  8
0
  6
CONTINUOUS
 62
     3
 10
176.596
 20
117.99
 11
183.796
 21
117.99
  0
LINE
  8
0
  6
CONTINUOUS
 62
     3
 10
179.8
 20
137.1276
 11
179.8
 21
133.0956
  0
LINE
  8
0
  6
CONTINUOUS
 62
     3
 10
179.8
 20
143.334
 11
179.8
 21
138.0636
  0
LINE
  8
0
  6
CONTINUOUS
 62
     3
 10
154.2256
 20
117.99
 11
175.156
 21
117.99
  0
LINE
  8
0
  6
CONTINUOUS
 62
     3
 10
149.1856
 20
117.99
 11
153.1456
 21
117.99
  0
LINE
  8
0
  6
CONTINUOUS
 62
     3
 10
149.5456
 20
134.55
 11
152.7856
 21
134.55
  0
LINE
  8
0
  6
CONTINUOUS
 62
     3
 10
136.744
 20
134.55
 11
148.4656
 21
134.55
  0
LINE
  8
0
  6
CONTINUOUS
 62
     3
 10
151.0
 20
143.334
 11
151.0
 21
136.9836
  0
LINE
  8
0
  6
CONTINUOUS
 62
     3
 10
151.0
 20
135.9036
 11
151.0
 21
132.6636
  0
LINE
  8
0
  6
CONTINUOUS
 62
     3
 10
151.0
 20
131.5836
 11
151.0
 21
121.5036
  0
LINE
  8
0
  6
CONTINUOUS
 62
     3
 10
179.8
 20
132.0876
 11
179.8
 21
120.7836
  0
LINE
  8
0
  6
CONTINUOUS
 62
     3
 10
153.8656
 20
134.55
 11
177.2656
 21
134.55
  0
LINE
  8
0
  6
CONTINUOUS
 62
     3
 10
178.3456
 20
134.55
 11
182.3056
 21
134.55
  0
LINE
  8
0
  6
CONTINUOUS
 62
     3
 10
183.3856
 20
134.55
 11
199.744
 21
134.55
  0
LINE
  8
0
  6
CONTINUOUS
 62
     3
 10
185.236
 20
117.99
 11
199.744
 21
117.99
  0
LINE
  8
0
  6
CONTINUOUS
 62
     3
 10
136.6576
 20
117.99
 11
148.1056
 21
117.99
  0
LINE
  8
0
  6
CONTINUOUS
 62
     3
 10
179.8
 20
106.278
 11
178.40906681
 21
106.650699425
  0
LINE
  8
0
  6
CONTINUOUS
 62
     3
 10
179.8
 20
106.278
 11
178.40906681
 21
105.905300575
  0
LINE
  8
0
  6
CONTINUOUS
 62
     3
 10
179.8
 20
106.278
 11
151.0
 21
106.278
  0
LINE
  8
0
  6
CONTINUOUS
 62
     3
 10
151.0
 20
106.278
 11
152.39093319
 21
105.905300575
  0
LINE
  8
0
  6
CONTINUOUS
 62
     3
 10
151.0
 20
106.278
 11
152.39093319
 21
106.650699425
  0
LINE
  8
0
  6
CONTINUOUS
 62
     3
 10
151.0
 20
120.4236
 11
151.0
 21
115.581
  0
LINE
  8
0
  6
CONTINUOUS
 62
     3
 10
151.0
 20
114.381
 11
151.0
 21
104.838
  0
LINE
  8
0
  6
CONTINUOUS
 62
     3
 10
179.8
 20
114.381
 11
179.8
 21
104.838
  0
LINE
  8
0
  6
CONTINUOUS
 62
     3
 10
179.8
 20
119.7036
 11
179.8
 21
115.8636
  0
LINE
  8
0
  6
CONTINUOUS
 62
     1
 10
140.2
 20
129.15
 11
140.2
 21
139.95
  0
LINE
  8
0
  6
CONTINUOUS
 62
     1
 10
140.2
 20
139.95
 11
161.8
 21
139.95
  0
LINE
  8
0
  6
CONTINUOUS
 62
     1
 10
161.8
 20
139.95
 11
161.8
 21
129.15
  0
LINE
  8
0
  6
CONTINUOUS
 62
     1
 10
169.0
 20
139.95
 11
190.6
 21
139.95
  0
LINE
  8
0
  6
CONTINUOUS
 62
     1
 10
169.0
 20
129.15
 11
169.0
 21
139.95
  0
LINE
  8
0
  6
CONTINUOUS
 62
     1
 10
190.6
 20
139.95
 11
190.6
 21
129.15
  0
LINE
  8
0
  6
CONTINUOUS
 62
     1
 10
190.6
 20
123.39
 11
190.6
 21
112.59
  0
LINE
  8
0
  6
CONTINUOUS
 62
     1
 10
190.6
 20
129.15
 11
169.0
 21
129.15
  0
LINE
  8
0
  6
CONTINUOUS
 62
     1
 10
169.0
 20
123.39
 11
190.6
 21
123.39
  0
LINE
  8
0
  6
CONTINUOUS
 62
     1
 10
161.8
 20
123.39
 11
161.8
 21
112.59
  0
LINE
  8
0
  6
CONTINUOUS
 62
     1
 10
161.8
 20
112.59
 11
140.2
 21
112.59
  0
LINE
  8
0
  6
CONTINUOUS
 62
     1
 10
190.6
 20
112.59
 11
169.0
 21
112.59
  0
LINE
  8
0
  6
CONTINUOUS
 62
     1
 10
169.0
 20
112.59
 11
169.0
 21
123.39
  0
LINE
  8
0
  6
CONTINUOUS
 62
     1
 10
140.2
 20
123.39
 11
161.8
 21
123.39
  0
LINE
  8
0
  6
CONTINUOUS
 62
     1
 10
140.2
 20
112.59
 11
140.2
 21
123.39
  0
LINE
  8
0
  6
CONTINUOUS
 62
     1
 10
161.8
 20
129.15
 11
140.2
 21
129.15
  0
TEXT
  8
0
  6
CONTINUOUS
 62
     3
 10
147.94
 20
126.126
 30
0.072
 40
1.656
  1
６８
 50
0.0
 41
0.739130435
 51
0.0
  7
KANJI2
  0
TEXT
  8
0
  6
CONTINUOUS
 62
     3
 10
151.9684
 20
127.2564
 30
0.0
 40
1.4904
  1
＋０．７
 50
0.0
 41
0.739130435
 51
0.0
  7
KANJI3
  0
TEXT
  8
0
  6
CONTINUOUS
 62
     3
 10
160.9
 20
106.854
 30
0.072
 40
1.656
  1
ＭＩＮ．９６
 50
0.0
 41
0.739130435
 51
0.0
  7
KANJI2
  0
TEXT
  8
0
  6
CONTINUOUS
 62
     1
 10
150.9
 20
98.25
 30
0.0
 40
3.0
  1
ＰＡＮＥＬ　ＣＵＴ
 50
0.0
 41
0.833333333
 51
0.0
  7
KANJI4
  0
TEXT
  8
0
  6
CONTINUOUS
 62
     3
 10
2.1
 20
89.815
 30
0.21
 40
2.1
  1
１１９
 50
270.0
 41
0.6
 51
0.0
  7
KANJI0
  0
TEXT
  8
0
  6
CONTINUOUS
 62
     3
 10
7.2
 20
84.85
 30
0.21
 40
2.1
  1
１００
 50
270.0
 41
0.6
 51
0.0
  7
KANJI0
  0
TEXT
  8
0
  6
CONTINUOUS
 62
     3
 10
11.15
 20
55.9
 30
0.21
 40
2.1
  1
７
 50
270.0
 41
0.6
 51
0.0
  7
KANJI0
  0
TEXT
  8
0
  6
CONTINUOUS
 62
     3
 10
4.95
 20
22.015
 30
0.21
 40
2.1
  1
３６
 50
270.0
 41
0.6
 51
0.0
  7
KANJI0
  0
TEXT
  8
0
  6
CONTINUOUS
 62
     3
 10
123.5
 20
88.12
 30
0.21
 40
2.1
  1
１１０±１
 50
270.0
 41
0.6
 51
0.0
  7
KANJI0
  0
TEXT
  8
0
  6
CONTINUOUS
 62
     3
 10
131.4352
 20
135.6496
 30
0.0648
 40
1.4904
  1
－０
 50
270.0
 41
0.739130435
 51
0.0
  7
KANJI1
  0
TEXT
  8
0
  6
CONTINUOUS
 62
     3
 10
133.1344
 20
135.6496
 30
0.0648
 40
1.4904
  1
＋０．６
 50
270.0
 41
0.739130435
 51
0.0
  7
KANJI1
  0
TEXT
  8
0
  6
CONTINUOUS
 62
     3
 10
132.364
 20
138.382
 30
0.072
 40
1.656
  1
３３
 50
270.0
 41
0.739130435
 51
0.0
  7
KANJI2
  0
TEXT
  8
0
  6
CONTINUOUS
 62
     3
 10
199.352
 20
129.382
 30
0.072
 40
1.656
  1
ＭＩＮ．５８
 50
270.0
 41
0.739130435
 51
0.0
  7
KANJI2
  0
ENDSEC
  0
EOF
