  0
SECTION
  2
HEADER
  9
$ACADVER
  1
AC1009
  9
$INSBASE
 10
0.0
 20
0.0
 30
0.0
  9
$EXTMIN
 10
30.643038879999992
 20
7.3636363669999998
 30
0.0
  9
$EXTMAX
 10
177.3552559312775
 20
109.15024006635851
 30
0.0
  9
$LIMMIN
 10
0.0
 20
0.0
  9
$LIMMAX
 10
12.0
 20
9.0
  9
$ORTHOMODE
 70
     0
  9
$REGENMODE
 70
     1
  9
$FILLMODE
 70
     1
  9
$QTEXTMODE
 70
     0
  9
$MIRRTEXT
 70
     1
  9
$DRAGMODE
 70
     2
  9
$LTSCALE
 40
1.0
  9
$OSMODE
 70
    37
  9
$ATTMODE
 70
     1
  9
$TEXTSIZE
 40
0.2
  9
$TRACEWID
 40
0.05
  9
$TEXTSTYLE
  7
STANDARD
  9
$CLAYER
  8
0
  9
$CELTYPE
  6
CONTINUOUS
  9
$CECOLOR
 62
   256
  9
$DIMSCALE
 40
1.0
  9
$DIMASZ
 40
0.18
  9
$DIMEXO
 40
0.0625
  9
$DIMDLI
 40
0.38
  9
$DIMRND
 40
0.0
  9
$DIMDLE
 40
0.0
  9
$DIMEXE
 40
0.18
  9
$DIMTP
 40
0.0
  9
$DIMTM
 40
0.0
  9
$DIMTXT
 40
0.18
  9
$DIMCEN
 40
0.09
  9
$DIMTSZ
 40
0.0
  9
$DIMTOL
 70
     0
  9
$DIMLIM
 70
     0
  9
$DIMTIH
 70
     1
  9
$DIMTOH
 70
     1
  9
$DIMSE1
 70
     0
  9
$DIMSE2
 70
     0
  9
$DIMTAD
 70
     0
  9
$DIMZIN
 70
     0
  9
$DIMBLK
  1

  9
$DIMASO
 70
     1
  9
$DIMSHO
 70
     1
  9
$DIMPOST
  1

  9
$DIMAPOST
  1

  9
$DIMALT
 70
     0
  9
$DIMALTD
 70
     2
  9
$DIMALTF
 40
25.399999999999999
  9
$DIMLFAC
 40
1.0
  9
$DIMTOFL
 70
     0
  9
$DIMTVP
 40
0.0
  9
$DIMTIX
 70
     0
  9
$DIMSOXD
 70
     0
  9
$DIMSAH
 70
     0
  9
$DIMBLK1
  1

  9
$DIMBLK2
  1

  9
$DIMSTYLE
  2
STANDARD
  9
$DIMCLRD
 70
     0
  9
$DIMCLRE
 70
     0
  9
$DIMCLRT
 70
     0
  9
$DIMTFAC
 40
1.0
  9
$DIMGAP
 40
0.09
  9
$LUNITS
 70
     2
  9
$LUPREC
 70
     4
  9
$SKETCHINC
 40
0.1
  9
$FILLETRAD
 40
0.0
  9
$AUNITS
 70
     0
  9
$AUPREC
 70
     0
  9
$MENU
  1
.
  9
$ELEVATION
 40
0.0
  9
$PELEVATION
 40
0.0
  9
$THICKNESS
 40
0.0
  9
$LIMCHECK
 70
     0
  9
$BLIPMODE
 70
     0
  9
$CHAMFERA
 40
0.0
  9
$CHAMFERB
 40
0.0
  9
$SKPOLY
 70
     0
  9
$TDCREATE
 40
2452044.738786574
  9
$TDUPDATE
 40
2452153.623005636
  9
$TDINDWG
 40
0.0120285995
  9
$TDUSRTIMER
 40
0.0120269792
  9
$USRTIMER
 70
     1
  9
$ANGBASE
 50
0.0
  9
$ANGDIR
 70
     0
  9
$PDMODE
 70
     0
  9
$PDSIZE
 40
0.0
  9
$PLINEWID
 40
0.0
  9
$COORDS
 70
     1
  9
$SPLFRAME
 70
     0
  9
$SPLINETYPE
 70
     6
  9
$SPLINESEGS
 70
     8
  9
$ATTDIA
 70
     0
  9
$ATTREQ
 70
     1
  9
$HANDLING
 70
 10241
  9
$HANDSEED
  5
378
  9
$SURFTAB1
 70
     6
  9
$SURFTAB2
 70
     6
  9
$SURFTYPE
 70
     6
  9
$SURFU
 70
     6
  9
$SURFV
 70
     6
  9
$UCSNAME
  2

  9
$UCSORG
 10
0.0
 20
0.0
 30
0.0
  9
$UCSXDIR
 10
1.0
 20
0.0
 30
0.0
  9
$UCSYDIR
 10
0.0
 20
1.0
 30
0.0
  9
$PUCSNAME
  2

  9
$PUCSORG
 10
0.0
 20
0.0
 30
0.0
  9
$PUCSXDIR
 10
1.0
 20
0.0
 30
0.0
  9
$PUCSYDIR
 10
0.0
 20
1.0
 30
0.0
  9
$USERI1
 70
     0
  9
$USERI2
 70
     0
  9
$USERI3
 70
     0
  9
$USERI4
 70
     0
  9
$USERI5
 70
     0
  9
$USERR1
 40
0.0
  9
$USERR2
 40
0.0
  9
$USERR3
 40
0.0
  9
$USERR4
 40
0.0
  9
$USERR5
 40
0.0
  9
$WORLDVIEW
 70
     1
  9
$SHADEDGE
 70
     3
  9
$SHADEDIF
 70
    70
  9
$TILEMODE
 70
     1
  9
$MAXACTVP
 70
    64
  9
$PLIMCHECK
 70
     0
  9
$PEXTMIN
 10
1.0000000000000000E+020
 20
1.0000000000000000E+020
 30
1.0000000000000000E+020
  9
$PEXTMAX
 10
-1.0000000000000000E+020
 20
-1.0000000000000000E+020
 30
-1.0000000000000000E+020
  9
$PLIMMIN
 10
0.0
 20
0.0
  9
$PLIMMAX
 10
12.0
 20
9.0
  9
$UNITMODE
 70
     0
  9
$VISRETAIN
 70
     1
  9
$PLINEGEN
 70
     0
  9
$PSLTSCALE
 70
     1
  0
ENDSEC
  0
SECTION
  2
TABLES
  0
TABLE
  2
VPORT
 70
     2
  0
VPORT
  2
*ACTIVE
 70
     0
 10
0.0
 20
0.0
 11
1.0
 21
1.0
 12
88.683040914061337
 22
54.578451339131739
 13
0.0
 23
0.0
 14
1.0
 24
1.0
 15
0.0
 25
0.0
 16
0.0
 26
0.0
 36
1.0
 17
0.0
 27
0.0
 37
0.0
 40
110.3039104121857
 41
1.6666666666666661
 42
50.0
 43
0.0
 44
0.0
 50
0.0
 51
0.0
 71
     0
 72
   100
 73
     1
 74
     1
 75
     0
 76
     0
 77
     0
 78
     0
  0
ENDTAB
  0
TABLE
  2
LTYPE
 70
     1
  0
LTYPE
  2
CONTINUOUS
 70
     0
  3
Solid line
 72
    65
 73
     0
 40
0.0
  0
ENDTAB
  0
TABLE
  2
LAYER
 70
   128
  0
LAYER
  2
0
 70
     0
 62
     7
  6
CONTINUOUS
  0
LAYER
  2
1
 70
     0
 62
     7
  6
CONTINUOUS
  0
LAYER
  2
2
 70
     0
 62
     7
  6
CONTINUOUS
  0
LAYER
  2
3
 70
     0
 62
     7
  6
CONTINUOUS
  0
LAYER
  2
4
 70
     0
 62
     7
  6
CONTINUOUS
  0
LAYER
  2
5
 70
     0
 62
     7
  6
CONTINUOUS
  0
LAYER
  2
6
 70
     0
 62
     7
  6
CONTINUOUS
  0
LAYER
  2
7
 70
     0
 62
     7
  6
CONTINUOUS
  0
LAYER
  2
8
 70
     0
 62
     7
  6
CONTINUOUS
  0
LAYER
  2
9
 70
     0
 62
     7
  6
CONTINUOUS
  0
LAYER
  2
10
 70
     0
 62
     7
  6
CONTINUOUS
  0
LAYER
  2
11
 70
     0
 62
     7
  6
CONTINUOUS
  0
LAYER
  2
12
 70
     0
 62
     7
  6
CONTINUOUS
  0
LAYER
  2
13
 70
     0
 62
     7
  6
CONTINUOUS
  0
LAYER
  2
14
 70
     0
 62
     7
  6
CONTINUOUS
  0
LAYER
  2
15
 70
     0
 62
     7
  6
CONTINUOUS
  0
LAYER
  2
16
 70
     0
 62
     7
  6
CONTINUOUS
  0
LAYER
  2
17
 70
     0
 62
     7
  6
CONTINUOUS
  0
LAYER
  2
18
 70
     0
 62
     7
  6
CONTINUOUS
  0
LAYER
  2
19
 70
     0
 62
     7
  6
CONTINUOUS
  0
LAYER
  2
20
 70
     0
 62
     7
  6
CONTINUOUS
  0
LAYER
  2
21
 70
     0
 62
     7
  6
CONTINUOUS
  0
LAYER
  2
22
 70
     0
 62
     7
  6
CONTINUOUS
  0
LAYER
  2
23
 70
     0
 62
     7
  6
CONTINUOUS
  0
LAYER
  2
24
 70
     0
 62
     7
  6
CONTINUOUS
  0
LAYER
  2
25
 70
     0
 62
     7
  6
CONTINUOUS
  0
LAYER
  2
26
 70
     0
 62
     7
  6
CONTINUOUS
  0
LAYER
  2
27
 70
     0
 62
     7
  6
CONTINUOUS
  0
LAYER
  2
28
 70
     0
 62
     7
  6
CONTINUOUS
  0
LAYER
  2
29
 70
     0
 62
     7
  6
CONTINUOUS
  0
LAYER
  2
30
 70
     0
 62
     7
  6
CONTINUOUS
  0
LAYER
  2
31
 70
     0
 62
     7
  6
CONTINUOUS
  0
LAYER
  2
32
 70
     0
 62
     7
  6
CONTINUOUS
  0
LAYER
  2
33
 70
     0
 62
     7
  6
CONTINUOUS
  0
LAYER
  2
34
 70
     0
 62
     7
  6
CONTINUOUS
  0
LAYER
  2
35
 70
     0
 62
     7
  6
CONTINUOUS
  0
LAYER
  2
36
 70
     0
 62
     7
  6
CONTINUOUS
  0
LAYER
  2
37
 70
     0
 62
     7
  6
CONTINUOUS
  0
LAYER
  2
38
 70
     0
 62
     7
  6
CONTINUOUS
  0
LAYER
  2
39
 70
     0
 62
     7
  6
CONTINUOUS
  0
LAYER
  2
40
 70
     0
 62
     7
  6
CONTINUOUS
  0
LAYER
  2
41
 70
     0
 62
     7
  6
CONTINUOUS
  0
LAYER
  2
42
 70
     0
 62
     7
  6
CONTINUOUS
  0
LAYER
  2
43
 70
     0
 62
     7
  6
CONTINUOUS
  0
LAYER
  2
44
 70
     0
 62
     7
  6
CONTINUOUS
  0
LAYER
  2
45
 70
     0
 62
     7
  6
CONTINUOUS
  0
LAYER
  2
46
 70
     0
 62
     7
  6
CONTINUOUS
  0
LAYER
  2
47
 70
     0
 62
     7
  6
CONTINUOUS
  0
LAYER
  2
48
 70
     0
 62
     7
  6
CONTINUOUS
  0
LAYER
  2
49
 70
     0
 62
     7
  6
CONTINUOUS
  0
LAYER
  2
50
 70
     0
 62
     7
  6
CONTINUOUS
  0
LAYER
  2
51
 70
     0
 62
     7
  6
CONTINUOUS
  0
LAYER
  2
52
 70
     0
 62
     7
  6
CONTINUOUS
  0
LAYER
  2
53
 70
     0
 62
     7
  6
CONTINUOUS
  0
LAYER
  2
54
 70
     0
 62
     7
  6
CONTINUOUS
  0
LAYER
  2
55
 70
     0
 62
     7
  6
CONTINUOUS
  0
LAYER
  2
56
 70
     0
 62
     7
  6
CONTINUOUS
  0
LAYER
  2
57
 70
     0
 62
     7
  6
CONTINUOUS
  0
LAYER
  2
58
 70
     0
 62
     7
  6
CONTINUOUS
  0
LAYER
  2
59
 70
     0
 62
     7
  6
CONTINUOUS
  0
LAYER
  2
60
 70
     0
 62
     7
  6
CONTINUOUS
  0
LAYER
  2
61
 70
     0
 62
     7
  6
CONTINUOUS
  0
LAYER
  2
62
 70
     0
 62
     7
  6
CONTINUOUS
  0
LAYER
  2
63
 70
     0
 62
     7
  6
CONTINUOUS
  0
LAYER
  2
64
 70
     0
 62
     7
  6
CONTINUOUS
  0
LAYER
  2
65
 70
     0
 62
     7
  6
CONTINUOUS
  0
LAYER
  2
66
 70
     0
 62
     7
  6
CONTINUOUS
  0
LAYER
  2
67
 70
     0
 62
     7
  6
CONTINUOUS
  0
LAYER
  2
68
 70
     0
 62
     7
  6
CONTINUOUS
  0
LAYER
  2
69
 70
     0
 62
     7
  6
CONTINUOUS
  0
LAYER
  2
70
 70
     0
 62
     7
  6
CONTINUOUS
  0
LAYER
  2
71
 70
     0
 62
     7
  6
CONTINUOUS
  0
LAYER
  2
72
 70
     0
 62
     7
  6
CONTINUOUS
  0
LAYER
  2
73
 70
     0
 62
     7
  6
CONTINUOUS
  0
LAYER
  2
74
 70
     0
 62
     7
  6
CONTINUOUS
  0
LAYER
  2
75
 70
     0
 62
     7
  6
CONTINUOUS
  0
LAYER
  2
76
 70
     0
 62
     7
  6
CONTINUOUS
  0
LAYER
  2
77
 70
     0
 62
     7
  6
CONTINUOUS
  0
LAYER
  2
78
 70
     0
 62
     7
  6
CONTINUOUS
  0
LAYER
  2
79
 70
     0
 62
     7
  6
CONTINUOUS
  0
LAYER
  2
80
 70
     0
 62
     7
  6
CONTINUOUS
  0
LAYER
  2
81
 70
     0
 62
     7
  6
CONTINUOUS
  0
LAYER
  2
82
 70
     0
 62
     7
  6
CONTINUOUS
  0
LAYER
  2
83
 70
     0
 62
     7
  6
CONTINUOUS
  0
LAYER
  2
84
 70
     0
 62
     7
  6
CONTINUOUS
  0
LAYER
  2
85
 70
     0
 62
     7
  6
CONTINUOUS
  0
LAYER
  2
86
 70
     0
 62
     7
  6
CONTINUOUS
  0
LAYER
  2
87
 70
     0
 62
     7
  6
CONTINUOUS
  0
LAYER
  2
88
 70
     0
 62
     7
  6
CONTINUOUS
  0
LAYER
  2
89
 70
     0
 62
     7
  6
CONTINUOUS
  0
LAYER
  2
90
 70
     0
 62
     7
  6
CONTINUOUS
  0
LAYER
  2
91
 70
     0
 62
     7
  6
CONTINUOUS
  0
LAYER
  2
92
 70
     0
 62
     7
  6
CONTINUOUS
  0
LAYER
  2
93
 70
     0
 62
     7
  6
CONTINUOUS
  0
LAYER
  2
94
 70
     0
 62
     7
  6
CONTINUOUS
  0
LAYER
  2
95
 70
     0
 62
     7
  6
CONTINUOUS
  0
LAYER
  2
96
 70
     0
 62
     7
  6
CONTINUOUS
  0
LAYER
  2
97
 70
     0
 62
     7
  6
CONTINUOUS
  0
LAYER
  2
98
 70
     0
 62
     7
  6
CONTINUOUS
  0
LAYER
  2
99
 70
     0
 62
     7
  6
CONTINUOUS
  0
LAYER
  2
100
 70
     0
 62
     7
  6
CONTINUOUS
  0
LAYER
  2
101
 70
     0
 62
     7
  6
CONTINUOUS
  0
LAYER
  2
102
 70
     0
 62
     7
  6
CONTINUOUS
  0
LAYER
  2
103
 70
     0
 62
     7
  6
CONTINUOUS
  0
LAYER
  2
104
 70
     0
 62
     7
  6
CONTINUOUS
  0
LAYER
  2
105
 70
     0
 62
     7
  6
CONTINUOUS
  0
LAYER
  2
106
 70
     0
 62
     7
  6
CONTINUOUS
  0
LAYER
  2
107
 70
     0
 62
     7
  6
CONTINUOUS
  0
LAYER
  2
108
 70
     0
 62
     7
  6
CONTINUOUS
  0
LAYER
  2
109
 70
     0
 62
     7
  6
CONTINUOUS
  0
LAYER
  2
110
 70
     0
 62
     7
  6
CONTINUOUS
  0
LAYER
  2
111
 70
     0
 62
     7
  6
CONTINUOUS
  0
LAYER
  2
112
 70
     0
 62
     7
  6
CONTINUOUS
  0
LAYER
  2
113
 70
     0
 62
     7
  6
CONTINUOUS
  0
LAYER
  2
114
 70
     0
 62
     7
  6
CONTINUOUS
  0
LAYER
  2
115
 70
     0
 62
     7
  6
CONTINUOUS
  0
LAYER
  2
116
 70
     0
 62
     7
  6
CONTINUOUS
  0
LAYER
  2
117
 70
     0
 62
     7
  6
CONTINUOUS
  0
LAYER
  2
118
 70
     0
 62
     7
  6
CONTINUOUS
  0
LAYER
  2
119
 70
     0
 62
     7
  6
CONTINUOUS
  0
LAYER
  2
120
 70
     0
 62
     7
  6
CONTINUOUS
  0
LAYER
  2
121
 70
     0
 62
     7
  6
CONTINUOUS
  0
LAYER
  2
122
 70
     0
 62
     7
  6
CONTINUOUS
  0
LAYER
  2
123
 70
     0
 62
     7
  6
CONTINUOUS
  0
LAYER
  2
124
 70
     0
 62
     7
  6
CONTINUOUS
  0
LAYER
  2
125
 70
     0
 62
     7
  6
CONTINUOUS
  0
LAYER
  2
126
 70
     0
 62
     7
  6
CONTINUOUS
  0
LAYER
  2
127
 70
     0
 62
     7
  6
CONTINUOUS
  0
ENDTAB
  0
TABLE
  2
STYLE
 70
     7
  0
STYLE
  2
STANDARD
 70
     0
 40
0.0
 41
1.0
 50
0.0
 71
     0
 42
0.2
  3
txt
  4

  0
STYLE
  2
KANJI0
 70
     0
 40
3.0
 41
1.0
 50
0.0
 71
     0
 42
3.0
  3
txt.shx
  4
bigfont
  0
STYLE
  2
KANJI1
 70
     0
 40
4.5230769210000004
 41
0.4666666670000001
 50
0.0
 71
     0
 42
4.5230769210000004
  3
txt.shx
  4
bigfont
  0
STYLE
  2
KANJI2
 70
     0
 40
4.5454545450000001
 41
0.4666666670000001
 50
0.0
 71
     0
 42
4.5454545450000001
  3
txt.shx
  4
bigfont
  0
STYLE
  2
KANJI3
 70
     0
 40
4.0909090910000003
 41
0.933333333
 50
0.0
 71
     0
 42
4.0909090910000003
  3
txt.shx
  4
bigfont
  0
STYLE
  2
KANJI4
 70
     0
 40
3.149999999999999
 41
0.933333333
 50
0.0
 71
     0
 42
3.149999999999999
  3
txt.shx
  4
bigfont
  0
STYLE
  2
KANJI5
 70
     0
 40
3.272727272
 41
0.933333333
 50
0.0
 71
     0
 42
3.272727272
  3
txt.shx
  4
bigfont
  0
ENDTAB
  0
TABLE
  2
VIEW
 70
     0
  0
ENDTAB
  0
TABLE
  2
UCS
 70
     0
  0
ENDTAB
  0
TABLE
  2
APPID
 70
     1
  0
APPID
  2
ACAD
 70
     0
  0
ENDTAB
  0
TABLE
  2
DIMSTYLE
 70
     1
  0
DIMSTYLE
  2
STANDARD
 70
     0
  3

  4

  5

  6

  7

 40
1.0
 41
0.18
 42
0.0625
 43
0.38
 44
0.18
 45
0.0
 46
0.0
 47
0.0
 48
0.0
140
0.18
141
0.09
142
0.0
143
25.399999999999999
144
1.0
145
0.0
146
1.0
147
0.09
 71
     0
 72
     0
 73
     1
 74
     1
 75
     0
 76
     0
 77
     0
 78
     0
170
     0
171
     2
172
     0
173
     0
174
     0
175
     0
176
     0
177
     0
178
     0
  0
ENDTAB
  0
ENDSEC
  0
SECTION
  2
BLOCKS
  0
BLOCK
  8
0
  2
$MODEL_SPACE
 70
     0
 10
0.0
 20
0.0
 30
0.0
  3
$MODEL_SPACE
  1

  0
ENDBLK
  5
20
  8
0
  0
BLOCK
 67
     1
  8
0
  2
$PAPER_SPACE
 70
     0
 10
0.0
 20
0.0
 30
0.0
  3
$PAPER_SPACE
  1

  0
ENDBLK
  5
1C
 67
     1
  8
0
  0
ENDSEC
  0
SECTION
  2
ENTITIES
  0
LINE
  5
AA
  8
0
  6
CONTINUOUS
 62
     3
 10
155.08763024427751
 20
65.180862605428004
 30
0.0
 11
155.08763024427751
 21
67.680289978427993
 31
0.0
  0
LINE
  5
AB
  8
0
  6
CONTINUOUS
 62
     3
 10
131.09312746327731
 20
67.680289978427993
 30
0.0
 11
131.09312746327731
 21
65.180862605428004
 31
0.0
  0
LINE
  5
AC
  8
0
  6
CONTINUOUS
 62
     3
 10
131.09312746327731
 20
65.180862605428004
 30
0.0
 11
155.08763024427751
 21
65.180862605428004
 31
0.0
  0
LINE
  5
AD
  8
0
  6
CONTINUOUS
 62
     3
 10
147.0894626512775
 20
72.379213439428014
 30
0.0
 11
147.0894626512775
 21
67.680289978427993
 31
0.0
  0
LINE
  5
AE
  8
0
  6
CONTINUOUS
 62
     3
 10
139.09129505727751
 20
67.680289978427993
 30
0.0
 11
139.09129505727751
 21
72.379213439428014
 31
0.0
  0
LINE
  5
AF
  8
0
  6
CONTINUOUS
 62
     3
 10
137.59163863327731
 20
71.379442490428005
 30
0.0
 11
134.59232578627751
 21
71.379442490428005
 31
0.0
  0
LINE
  5
B0
  8
0
  6
CONTINUOUS
 62
     3
 10
134.59232578627751
 20
71.379442490428005
 30
0.0
 11
134.59232578627751
 21
67.680289978427993
 31
0.0
  0
LINE
  5
B1
  8
0
  6
CONTINUOUS
 62
     3
 10
137.59163863327731
 20
67.680289978427993
 30
0.0
 11
137.59163863327731
 21
71.379442490428005
 31
0.0
  0
LINE
  5
B2
  8
0
  6
CONTINUOUS
 62
     3
 10
134.59232578627751
 20
70.87955701542802
 30
0.0
 11
137.59163863327731
 21
70.87955701542802
 31
0.0
  0
LINE
  5
B3
  8
0
  6
CONTINUOUS
 62
     3
 10
139.09129505727751
 20
70.87955701542802
 30
0.0
 11
147.0894626512775
 21
70.87955701542802
 31
0.0
  0
LINE
  5
B4
  8
0
  6
CONTINUOUS
 62
     3
 10
134.59232578627751
 20
70.37967154142801
 30
0.0
 11
137.59163863327731
 21
70.37967154142801
 31
0.0
  0
LINE
  5
B5
  8
0
  6
CONTINUOUS
 62
     3
 10
134.59232578627751
 20
69.879786066427997
 30
0.0
 11
137.59163863327731
 21
69.879786066427997
 31
0.0
  0
LINE
  5
B6
  8
0
  6
CONTINUOUS
 62
     3
 10
134.59232578627751
 20
69.379900591428026
 30
0.0
 11
137.59163863327731
 21
69.379900591428026
 31
0.0
  0
LINE
  5
B7
  8
0
  6
CONTINUOUS
 62
     3
 10
134.59232578627751
 20
68.880015117428002
 30
0.0
 11
137.59163863327731
 21
68.880015117428002
 31
0.0
  0
LINE
  5
B8
  8
0
  6
CONTINUOUS
 62
     3
 10
134.59232578627751
 20
68.380129642427988
 30
0.0
 11
137.59163863327731
 21
68.380129642427988
 31
0.0
  0
LINE
  5
B9
  8
0
  6
CONTINUOUS
 62
     3
 10
139.09129505727751
 20
70.37967154142801
 30
0.0
 11
147.0894626512775
 21
70.37967154142801
 31
0.0
  0
LINE
  5
BA
  8
0
  6
CONTINUOUS
 62
     3
 10
139.09129505727751
 20
69.879786066427997
 30
0.0
 11
147.0894626512775
 21
69.879786066427997
 31
0.0
  0
LINE
  5
BB
  8
0
  6
CONTINUOUS
 62
     3
 10
139.09129505727751
 20
69.379900591428026
 30
0.0
 11
147.0894626512775
 21
69.379900591428026
 31
0.0
  0
LINE
  5
BC
  8
0
  6
CONTINUOUS
 62
     3
 10
139.09129505727751
 20
68.880015117428002
 30
0.0
 11
147.0894626512775
 21
68.880015117428002
 31
0.0
  0
LINE
  5
BD
  8
0
  6
CONTINUOUS
 62
     3
 10
139.09129505727751
 20
68.380129642427988
 30
0.0
 11
147.0894626512775
 21
68.380129642427988
 31
0.0
  0
LINE
  5
BE
  8
0
  6
CONTINUOUS
 62
     3
 10
151.58843192227749
 20
71.379442490428005
 30
0.0
 11
148.58911907527741
 21
71.379442490428005
 31
0.0
  0
LINE
  5
BF
  8
0
  6
CONTINUOUS
 62
     3
 10
148.58911907527741
 20
71.379442490428005
 30
0.0
 11
148.58911907527741
 21
67.680289978427993
 31
0.0
  0
LINE
  5
C0
  8
0
  6
CONTINUOUS
 62
     3
 10
151.58843192227749
 20
67.680289978427993
 30
0.0
 11
151.58843192227749
 21
71.379442490428005
 31
0.0
  0
LINE
  5
C1
  8
0
  6
CONTINUOUS
 62
     3
 10
148.58911907527741
 20
70.87955701542802
 30
0.0
 11
151.58843192227749
 21
70.87955701542802
 31
0.0
  0
LINE
  5
C2
  8
0
  6
CONTINUOUS
 62
     3
 10
148.58911907527741
 20
70.37967154142801
 30
0.0
 11
151.58843192227749
 21
70.37967154142801
 31
0.0
  0
LINE
  5
C3
  8
0
  6
CONTINUOUS
 62
     3
 10
148.58911907527741
 20
69.879786066427997
 30
0.0
 11
151.58843192227749
 21
69.879786066427997
 31
0.0
  0
LINE
  5
C4
  8
0
  6
CONTINUOUS
 62
     3
 10
148.58911907527741
 20
69.379900591428026
 30
0.0
 11
151.58843192227749
 21
69.379900591428026
 31
0.0
  0
LINE
  5
C5
  8
0
  6
CONTINUOUS
 62
     3
 10
148.58911907527741
 20
68.880015117428002
 30
0.0
 11
151.58843192227749
 21
68.880015117428002
 31
0.0
  0
LINE
  5
C6
  8
0
  6
CONTINUOUS
 62
     3
 10
148.58911907527741
 20
68.380129642427988
 30
0.0
 11
151.58843192227749
 21
68.380129642427988
 31
0.0
  0
LINE
  5
C7
  8
0
  6
CONTINUOUS
 62
     3
 10
131.09312746327731
 20
72.379213439428014
 30
0.0
 11
131.09312746327731
 21
73.978846958427965
 31
0.0
  0
LINE
  5
C8
  8
0
  6
CONTINUOUS
 62
     3
 10
155.08763024427751
 20
72.379213439428014
 30
0.0
 11
155.08763024427751
 21
73.978846958427965
 31
0.0
  0
LINE
  5
C9
  8
0
  6
CONTINUOUS
 62
     3
 10
131.09312746327731
 20
78.777747514428
 30
0.0
 11
155.08763024427751
 21
78.777747514428
 31
0.0
  0
LINE
  5
CA
  8
0
  6
CONTINUOUS
 62
     3
 10
131.09312746327731
 20
80.377381033428009
 30
0.0
 11
155.08763024427751
 21
80.377381033428009
 31
0.0
  0
LINE
  5
CB
  8
0
  6
CONTINUOUS
 62
     3
 10
131.09312746327731
 20
78.777747514428
 30
0.0
 11
131.09312746327731
 21
80.377381033428009
 31
0.0
  0
LINE
  5
CC
  8
0
  6
CONTINUOUS
 62
     3
 10
155.08763024427751
 20
78.777747514428
 30
0.0
 11
155.08763024427751
 21
80.377381033428009
 31
0.0
  0
LINE
  5
CD
  8
0
  6
CONTINUOUS
 62
     3
 10
132.0928984132774
 20
67.680289978427993
 30
0.0
 11
132.0928984132774
 21
76.678228521428011
 31
0.0
  0
LINE
  5
CE
  8
0
  6
CONTINUOUS
 62
     3
 10
132.0928984132774
 20
76.678228521428011
 30
0.0
 11
133.09266936227749
 21
76.678228521428011
 31
0.0
  0
LINE
  5
CF
  8
0
  6
CONTINUOUS
 62
     3
 10
133.09266936227749
 20
76.678228521428011
 30
0.0
 11
134.39237159627751
 21
73.978846958427965
 31
0.0
  0
LINE
  5
D0
  8
0
  6
CONTINUOUS
 62
     3
 10
133.29262355227749
 20
73.978846958427965
 30
0.0
 11
133.29262355227749
 21
67.680289978427993
 31
0.0
  0
LINE
  5
D1
  8
0
  6
CONTINUOUS
 62
     3
 10
131.09312746327731
 20
73.978846958427965
 30
0.0
 11
132.0928984132774
 21
73.978846958427965
 31
0.0
  0
LINE
  5
D2
  8
0
  6
CONTINUOUS
 62
     3
 10
131.09312746327731
 20
72.379213439428014
 30
0.0
 11
132.0928984132774
 21
72.379213439428014
 31
0.0
  0
LINE
  5
D3
  8
0
  6
CONTINUOUS
 62
     3
 10
154.0878592952775
 20
67.680289978427993
 30
0.0
 11
154.0878592952775
 21
76.678228521428011
 31
0.0
  0
LINE
  5
D4
  8
0
  6
CONTINUOUS
 62
     3
 10
154.0878592952775
 20
76.678228521428011
 30
0.0
 11
153.08808834627749
 21
76.678228521428011
 31
0.0
  0
LINE
  5
D5
  8
0
  6
CONTINUOUS
 62
     3
 10
153.08808834627749
 20
76.678228521428011
 30
0.0
 11
151.68840901727751
 21
73.978846958427965
 31
0.0
  0
LINE
  5
D6
  8
0
  6
CONTINUOUS
 62
     3
 10
152.88813415627749
 20
73.978846958427965
 30
0.0
 11
152.88813415627749
 21
67.680289978427993
 31
0.0
  0
LINE
  5
D7
  8
0
  6
CONTINUOUS
 62
     3
 10
154.0878592952775
 20
73.978846958427965
 30
0.0
 11
155.08763024427751
 21
73.978846958427965
 31
0.0
  0
LINE
  5
D8
  8
0
  6
CONTINUOUS
 62
     3
 10
133.29262355227749
 20
73.978846958427965
 30
0.0
 11
152.88813415627749
 21
73.978846958427965
 31
0.0
  0
LINE
  5
D9
  8
0
  6
CONTINUOUS
 62
     3
 10
154.0878592952775
 20
72.379213439428014
 30
0.0
 11
155.08763024427751
 21
72.379213439428014
 31
0.0
  0
ARC
  5
DA
  8
0
  6
CONTINUOUS
 62
     3
 10
136.12833751727749
 20
69.221603524428005
 30
0.0
 40
2.1827939490000001
 50
226.05440450399999
 51
313.94559549600001
  0
ARC
  5
DB
  8
0
  6
CONTINUOUS
 62
     3
 10
150.1039235432774
 20
69.251899614427998
 30
0.0
 40
2.1827939490000001
 50
226.05440450399999
 51
313.94559549600001
  0
LINE
  5
DC
  8
0
  6
CONTINUOUS
 62
     3
 10
134.5014375182775
 20
67.680289978427993
 30
0.0
 11
131.09312746327731
 21
67.680289978427993
 31
0.0
  0
LINE
  5
DD
  8
0
  6
CONTINUOUS
 62
     3
 10
148.58911907527741
 20
67.680289978427993
 30
0.0
 11
137.68252690127741
 21
67.680289978427993
 31
0.0
  0
LINE
  5
DE
  8
0
  6
CONTINUOUS
 62
     3
 10
155.08763024427751
 20
67.680289978427993
 30
0.0
 11
151.61872801127751
 21
67.680289978427993
 31
0.0
  0
LINE
  5
DF
  8
0
  6
CONTINUOUS
 62
     3
 10
142.6813816472775
 20
73.890988298427999
 30
0.0
 11
142.6813816472775
 21
72.07322293642801
 31
0.0
  0
LINE
  5
E0
  8
0
  6
CONTINUOUS
 62
     3
 10
142.6813816472775
 20
72.07322293642801
 30
0.0
 11
143.1358229882774
 21
71.618781596427993
 31
0.0
  0
LINE
  5
E1
  8
0
  6
CONTINUOUS
 62
     3
 10
143.1358229882774
 20
71.618781596427993
 30
0.0
 11
143.74174477527751
 21
72.07322293642801
 31
0.0
  0
LINE
  5
E2
  8
0
  6
CONTINUOUS
 62
     3
 10
143.74174477527751
 20
72.07322293642801
 30
0.0
 11
143.74174477527751
 21
73.890988298427999
 31
0.0
  0
LINE
  5
E3
  8
0
  6
CONTINUOUS
 62
     3
 10
133.29262355227749
 20
72.379213439428014
 30
0.0
 11
142.3784207542775
 21
72.379213439428014
 31
0.0
  0
LINE
  5
E4
  8
0
  6
CONTINUOUS
 62
     3
 10
144.19618611627749
 20
72.379213439428014
 30
0.0
 11
152.88813415627749
 21
72.379213439428014
 31
0.0
  0
LINE
  5
E5
  8
0
  6
CONTINUOUS
 62
     3
 10
144.19618611627749
 20
72.376183830428005
 30
0.0
 11
144.19618611627749
 21
73.966728522428014
 31
0.0
  0
LINE
  5
E6
  8
0
  6
CONTINUOUS
 62
     3
 10
142.30268053027751
 20
73.966728522428014
 30
0.0
 11
142.30268053027751
 21
72.376183830428005
 31
0.0
  0
ARC
  5
E7
  8
0
  6
CONTINUOUS
 62
     3
 10
138.43992913627741
 20
74.148505058428015
 30
0.0
 40
1.2329615089999999
 50
47.48955292200003
 51
100.619655276
  0
ARC
  5
E8
  8
0
  6
CONTINUOUS
 62
     3
 10
140.33343472127751
 20
73.504713159428022
 30
0.0
 40
1.880204327999996
 50
55.669782805000061
 51
124.33021719599989
  0
ARC
  5
E9
  8
0
  6
CONTINUOUS
 62
     3
 10
142.30268053027751
 20
73.997024611428031
 30
0.0
 40
1.3965807139999999
 50
49.398705354999962
 51
130.60129464499991
  0
ARC
  5
EA
  8
0
  6
CONTINUOUS
 62
     3
 10
144.1204458922775
 20
73.883414276428027
 30
0.0
 40
1.4846822619999991
 50
52.253194612999991
 51
127.74680538699999
  0
ARC
  5
EB
  8
0
  6
CONTINUOUS
 62
     3
 10
146.01395147827751
 20
73.84554416442802
 30
0.0
 40
1.5614247059999991
 50
50.9061411140001
 51
129.09385888599999
  0
ARC
  5
EC
  8
0
  6
CONTINUOUS
 62
     3
 10
148.21041795727751
 20
73.126012042428016
 30
0.0
 40
2.2800826590000001
 50
78.503436981999982
 51
122.10625595499999
  0
ARC
  5
ED
  8
0
  6
CONTINUOUS
 62
     3
 10
138.5156693592775
 20
76.193491091428015
 30
0.0
 40
1.8995551399999999
 50
265.42607873999992
 51
293.4985656759996
  0
ARC
  5
EE
  8
0
  6
CONTINUOUS
 62
     3
 10
140.33343472127751
 20
76.117750867428015
 30
0.0
 40
1.9750633869999981
 50
237.52880770900001
 51
302.4711922909998
  0
ARC
  5
EF
  8
0
  6
CONTINUOUS
 62
     3
 10
142.30268053027751
 20
75.511829080428015
 30
0.0
 40
1.3965807139999999
 50
229.39870535499989
 51
310.60129464499988
  0
ARC
  5
F0
  8
0
  6
CONTINUOUS
 62
     3
 10
144.1204458922775
 20
75.663309527427984
 30
0.0
 40
1.5148044679999999
 50
233.130102354
 51
306.86989764599991
  0
ARC
  5
F1
  8
0
  6
CONTINUOUS
 62
     3
 10
146.01395147827751
 20
75.814789973428006
 30
0.0
 40
1.6817058759999981
 50
234.16234704599989
 51
305.83765295400002
  0
ARC
  5
F2
  8
0
  6
CONTINUOUS
 62
     3
 10
148.13467773427729
 20
76.344971537427995
 30
0.0
 40
2.208187995999999
 50
239.0362434679999
 51
275.90614111399992
  0
LINE
  5
F3
  8
0
  6
CONTINUOUS
 62
     3
 10
136.8493844442774
 20
74.299985505428012
 30
0.0
 11
136.8493844442774
 21
75.360348633428003
 31
0.0
  0
LINE
  5
F4
  8
0
  6
CONTINUOUS
 62
     3
 10
149.57374197927729
 20
75.360348633428003
 30
0.0
 11
149.57374197927729
 21
74.148505058428015
 31
0.0
  0
LINE
  5
F5
  8
0
  6
CONTINUOUS
 62
     3
 10
136.8493844442774
 20
74.299985505428012
 30
0.0
 11
138.36418891227751
 21
74.299985505428012
 31
0.0
  0
LINE
  5
F6
  8
0
  6
CONTINUOUS
 62
     3
 10
136.8493844442774
 20
75.360348633428003
 30
0.0
 11
138.2127084652775
 21
75.360348633428003
 31
0.0
  0
LINE
  5
F7
  8
0
  6
CONTINUOUS
 62
     3
 10
148.36189840427741
 20
74.148505058428015
 30
0.0
 11
149.57374197927729
 21
74.148505058428015
 31
0.0
  0
LINE
  5
F8
  8
0
  6
CONTINUOUS
 62
     3
 10
148.66485929827741
 20
75.360348633428003
 30
0.0
 11
149.57374197927729
 21
75.360348633428003
 31
0.0
  0
ARC
  5
F9
  8
0
  6
CONTINUOUS
 62
     3
 10
138.43992913627741
 20
77.329594442428004
 30
0.0
 40
1.2329615089999999
 50
47.48955292200003
 51
100.619655276
  0
ARC
  5
FA
  8
0
  6
CONTINUOUS
 62
     3
 10
140.33343472127751
 20
76.685802543427982
 30
0.0
 40
1.880204327999996
 50
55.669782805000061
 51
124.33021719599989
  0
ARC
  5
FB
  8
0
  6
CONTINUOUS
 62
     3
 10
142.30268053027751
 20
77.178113995428021
 30
0.0
 40
1.3965807139999999
 50
49.398705354999962
 51
130.60129464499991
  0
ARC
  5
FC
  8
0
  6
CONTINUOUS
 62
     3
 10
144.1204458922775
 20
77.064503660428016
 30
0.0
 40
1.4846822619999991
 50
52.253194612999991
 51
127.74680538699999
  0
ARC
  5
FD
  8
0
  6
CONTINUOUS
 62
     3
 10
146.01395147827751
 20
77.026633548428009
 30
0.0
 40
1.5614247059999991
 50
50.9061411140001
 51
129.09385888599999
  0
ARC
  5
FE
  8
0
  6
CONTINUOUS
 62
     3
 10
148.21041795727751
 20
76.307101426428019
 30
0.0
 40
2.2800826590000001
 50
78.503436981999982
 51
122.10625595499999
  0
ARC
  5
FF
  8
0
  6
CONTINUOUS
 62
     3
 10
138.5156693592775
 20
79.374580474428001
 30
0.0
 40
1.8995551399999999
 50
265.42607873999992
 51
293.4985656759996
  0
ARC
  5
100
  8
0
  6
CONTINUOUS
 62
     3
 10
140.33343472127751
 20
79.298840251428004
 30
0.0
 40
1.9750633869999981
 50
237.52880770900001
 51
302.4711922909998
  0
ARC
  5
101
  8
0
  6
CONTINUOUS
 62
     3
 10
142.30268053027751
 20
78.692918464427976
 30
0.0
 40
1.3965807139999999
 50
229.39870535499989
 51
310.60129464499988
  0
ARC
  5
102
  8
0
  6
CONTINUOUS
 62
     3
 10
144.1204458922775
 20
78.844398910428012
 30
0.0
 40
1.5148044679999999
 50
233.130102354
 51
306.86989764599991
  0
ARC
  5
103
  8
0
  6
CONTINUOUS
 62
     3
 10
146.01395147827751
 20
78.995879357427995
 30
0.0
 40
1.6817058759999981
 50
234.16234704599989
 51
305.83765295400002
  0
ARC
  5
104
  8
0
  6
CONTINUOUS
 62
     3
 10
148.13467773427729
 20
79.526060921428012
 30
0.0
 40
2.208187995999999
 50
239.0362434679999
 51
275.90614111399992
  0
LINE
  5
105
  8
0
  6
CONTINUOUS
 62
     3
 10
136.8493844442774
 20
77.481074889428015
 30
0.0
 11
136.8493844442774
 21
78.541438017427993
 31
0.0
  0
LINE
  5
106
  8
0
  6
CONTINUOUS
 62
     3
 10
149.57374197927729
 20
78.541438017427993
 30
0.0
 11
149.57374197927729
 21
77.329594442428004
 31
0.0
  0
LINE
  5
107
  8
0
  6
CONTINUOUS
 62
     3
 10
136.8493844442774
 20
77.481074889428015
 30
0.0
 11
138.36418891227751
 21
77.481074889428015
 31
0.0
  0
LINE
  5
108
  8
0
  6
CONTINUOUS
 62
     3
 10
136.8493844442774
 20
78.541438017427993
 30
0.0
 11
138.2127084652775
 21
78.541438017427993
 31
0.0
  0
LINE
  5
109
  8
0
  6
CONTINUOUS
 62
     3
 10
148.36189840427741
 20
77.329594442428004
 30
0.0
 11
149.57374197927729
 21
77.329594442428004
 31
0.0
  0
LINE
  5
10A
  8
0
  6
CONTINUOUS
 62
     3
 10
148.66485929827741
 20
78.541438017427993
 30
0.0
 11
149.57374197927729
 21
78.541438017427993
 31
0.0
  0
LINE
  5
10B
  8
0
  6
CONTINUOUS
 62
     3
 10
138.06122801927751
 20
75.360348633428003
 30
0.0
 11
138.06122801927751
 21
77.481074889428015
 31
0.0
  0
LINE
  5
10C
  8
0
  6
CONTINUOUS
 62
     3
 10
140.4849151682775
 20
75.360348633428003
 30
0.0
 11
140.4849151682775
 21
77.481074889428015
 31
0.0
  0
LINE
  5
10D
  8
0
  6
CONTINUOUS
 62
     3
 10
143.21156321127751
 20
75.360348633428003
 30
0.0
 11
143.21156321127751
 21
77.481074889428015
 31
0.0
  0
LINE
  5
10E
  8
0
  6
CONTINUOUS
 62
     3
 10
145.63525036127751
 20
75.360348633428003
 30
0.0
 11
145.63525036127751
 21
77.481074889428015
 31
0.0
  0
LINE
  5
10F
  8
0
  6
CONTINUOUS
 62
     3
 10
147.90745706427751
 20
75.360348633428003
 30
0.0
 11
147.90745706427751
 21
77.481074889428015
 31
0.0
  0
LINE
  5
110
  8
0
  6
CONTINUOUS
 62
     3
 10
140.9393565092775
 20
77.481074889428015
 30
0.0
 11
140.9393565092775
 21
75.208868186428006
 31
0.0
  0
LINE
  5
111
  8
0
  6
CONTINUOUS
 62
     3
 10
143.66600455227751
 20
77.329594442428004
 30
0.0
 11
143.66600455227751
 21
75.208868186428006
 31
0.0
  0
LINE
  5
112
  8
0
  6
CONTINUOUS
 62
     3
 10
146.0896917012775
 20
77.329594442428004
 30
0.0
 11
146.0896917012775
 21
75.208868186428006
 31
0.0
  0
LINE
  5
113
  8
0
  6
CONTINUOUS
 62
     3
 10
148.36189840427741
 20
77.329594442428004
 30
0.0
 11
148.36189840427741
 21
75.208868186428006
 31
0.0
  0
LINE
  5
114
  8
0
  6
CONTINUOUS
 62
     3
 10
138.5156693592775
 20
77.481074889428015
 30
0.0
 11
138.5156693592775
 21
75.208868186428006
 31
0.0
  0
LINE
  5
115
  8
0
  6
CONTINUOUS
 62
     3
 10
141.40894589427751
 20
80.377381033428009
 30
0.0
 11
141.40894589427751
 21
86.376006728427996
 31
0.0
  0
LINE
  5
116
  8
0
  6
CONTINUOUS
 62
     3
 10
147.04401851727749
 20
86.376006728427996
 30
0.0
 11
147.04401851727749
 21
80.377381033428009
 31
0.0
  0
LINE
  5
117
  8
0
  6
CONTINUOUS
 62
     3
 10
141.40894589427751
 20
86.376006728427996
 30
0.0
 11
147.04401851727749
 21
86.376006728427996
 31
0.0
  0
LINE
  5
118
  8
0
  6
CONTINUOUS
 62
     3
 10
142.04516377127749
 20
86.376006728427996
 30
0.0
 11
142.04516377127749
 21
87.43636985642803
 31
0.0
  0
LINE
  5
119
  8
0
  6
CONTINUOUS
 62
     3
 10
142.04516377127749
 20
87.43636985642803
 30
0.0
 11
143.55996823927751
 21
87.43636985642803
 31
0.0
  0
LINE
  5
11A
  8
0
  6
CONTINUOUS
 62
     3
 10
143.55996823927751
 20
87.43636985642803
 30
0.0
 11
143.55996823927751
 21
86.376006728427996
 31
0.0
  0
LINE
  5
11B
  8
0
  6
CONTINUOUS
 62
     3
 10
147.92260510827731
 20
80.377381033428009
 30
0.0
 11
147.92260510827731
 21
86.376006728427996
 31
0.0
  0
LINE
  5
11C
  8
0
  6
CONTINUOUS
 62
     3
 10
153.55767773127741
 20
86.376006728427996
 30
0.0
 11
153.55767773127741
 21
80.377381033428009
 31
0.0
  0
LINE
  5
11D
  8
0
  6
CONTINUOUS
 62
     3
 10
147.92260510827731
 20
86.376006728427996
 30
0.0
 11
153.55767773127741
 21
86.376006728427996
 31
0.0
  0
LINE
  5
11E
  8
0
  6
CONTINUOUS
 62
     3
 10
148.5588229852774
 20
86.376006728427996
 30
0.0
 11
148.5588229852774
 21
87.43636985642803
 31
0.0
  0
LINE
  5
11F
  8
0
  6
CONTINUOUS
 62
     3
 10
148.5588229852774
 20
87.43636985642803
 30
0.0
 11
150.0736274542775
 21
87.43636985642803
 31
0.0
  0
LINE
  5
120
  8
0
  6
CONTINUOUS
 62
     3
 10
150.0736274542775
 20
87.43636985642803
 30
0.0
 11
150.0736274542775
 21
86.376006728427996
 31
0.0
  0
LINE
  5
121
  8
0
  6
CONTINUOUS
 62
     3
 10
151.13399058227739
 20
86.376006728427996
 30
0.0
 11
151.13399058227739
 21
89.405615665428016
 31
0.0
  0
LINE
  5
122
  8
0
  6
CONTINUOUS
 62
     3
 10
151.13399058227739
 20
89.405615665428016
 30
0.0
 11
152.19435370927741
 21
89.405615665428016
 31
0.0
  0
LINE
  5
123
  8
0
  6
CONTINUOUS
 62
     3
 10
152.19435370927741
 20
89.405615665428016
 30
0.0
 11
152.19435370927741
 21
86.376006728427996
 31
0.0
  0
LINE
  5
124
  8
0
  6
CONTINUOUS
 62
     3
 10
151.43695147527751
 20
89.405615665428016
 30
0.0
 11
151.43695147527751
 21
92.132263708428013
 31
0.0
  0
LINE
  5
125
  8
0
  6
CONTINUOUS
 62
     3
 10
151.43695147527751
 20
92.132263708428013
 30
0.0
 11
151.89139281627749
 21
92.132263708428013
 31
0.0
  0
LINE
  5
126
  8
0
  6
CONTINUOUS
 62
     3
 10
151.89139281627749
 20
92.132263708428013
 30
0.0
 11
151.89139281627749
 21
89.405615665428016
 31
0.0
  0
LINE
  5
127
  8
0
  6
CONTINUOUS
 62
     3
 10
150.6795492412775
 20
86.376006728427996
 30
0.0
 11
150.6795492412775
 21
80.316788854428012
 31
0.0
  0
LINE
  5
128
  8
0
  6
CONTINUOUS
 62
     3
 10
152.4973146032774
 20
80.316788854428012
 30
0.0
 11
152.4973146032774
 21
86.376006728427996
 31
0.0
  0
LINE
  5
129
  8
0
  6
CONTINUOUS
 62
     3
 10
151.2854710282773
 20
86.376006728427996
 30
0.0
 11
151.2854710282773
 21
82.437515110428023
 31
0.0
  0
LINE
  5
12A
  8
0
  6
CONTINUOUS
 62
     3
 10
152.0428732632773
 20
82.437515110428023
 30
0.0
 11
152.0428732632773
 21
86.376006728427996
 31
0.0
  0
LINE
  5
12B
  8
0
  6
CONTINUOUS
 62
     4
 10
155.99651292527739
 20
67.680289978427993
 30
0.0
 11
162.2072112462775
 21
67.680289978427993
 31
0.0
  0
LINE
  5
12C
  8
0
  6
CONTINUOUS
 62
     4
 10
160.99536767127751
 20
67.680289978427993
 30
0.0
 11
160.2379654372775
 21
69.952496680428027
 31
0.0
  0
LINE
  5
12D
  8
0
  6
CONTINUOUS
 62
     4
 10
161.75276990627751
 20
69.952496680428027
 30
0.0
 11
160.99536767127751
 21
67.680289978427993
 31
0.0
  0
LINE
  5
12E
  8
0
  6
CONTINUOUS
 62
     4
 10
161.0642224202775
 20
65.387426850428
 30
0.0
 11
160.30682018627729
 21
63.115220148427987
 31
0.0
  0
LINE
  5
12F
  8
0
  6
CONTINUOUS
 62
     4
 10
161.8216246542774
 20
63.115220148427987
 30
0.0
 11
160.91274197327741
 21
65.387426850428
 31
0.0
  0
LINE
  5
130
  8
0
  6
CONTINUOUS
 62
     4
 10
168.35731738827749
 20
65.15965534242801
 30
0.0
 11
167.59991515427731
 21
67.431862045428005
 31
0.0
  0
LINE
  5
131
  8
0
  6
CONTINUOUS
 62
     4
 10
169.11471962227751
 20
67.431862045428005
 30
0.0
 11
168.35731738827749
 21
65.15965534242801
 31
0.0
  0
LINE
  5
132
  8
0
  6
CONTINUOUS
 62
     4
 10
176.0828201782773
 20
65.15965534242801
 30
0.0
 11
175.3254179432773
 21
67.431862045428005
 31
0.0
  0
LINE
  5
133
  8
0
  6
CONTINUOUS
 62
     4
 10
176.8402224122772
 20
67.431862045428005
 30
0.0
 11
176.0828201782773
 21
65.15965534242801
 31
0.0
  0
LINE
  5
134
  8
0
  6
CONTINUOUS
 62
     4
 10
176.0828201782773
 20
92.274655328427997
 30
0.0
 11
175.3254179432773
 21
90.002448625428002
 31
0.0
  0
LINE
  5
135
  8
0
  6
CONTINUOUS
 62
     4
 10
176.8402224122772
 20
90.002448625428002
 30
0.0
 11
175.93133973127749
 21
92.274655328427997
 31
0.0
  0
LINE
  5
136
  8
0
  6
CONTINUOUS
 62
     4
 10
176.0828201782773
 20
65.256051990428006
 30
0.0
 11
176.0828201782773
 21
92.274655328427997
 31
0.0
  0
LINE
  5
137
  8
0
  6
CONTINUOUS
 62
     4
 10
156.14799337227751
 20
65.180862605428004
 30
0.0
 11
177.0522950372775
 21
65.180862605428004
 31
0.0
  0
LINE
  5
138
  8
0
  6
CONTINUOUS
 62
     4
 10
152.51246264827751
 20
92.132263708428013
 30
0.0
 11
177.3552559312775
 21
92.132263708428013
 31
0.0
  0
LINE
  5
139
  8
0
  6
CONTINUOUS
 62
     4
 10
168.35731738827749
 20
87.43636985642803
 30
0.0
 11
167.59991515427731
 21
85.164163153428007
 31
0.0
  0
LINE
  5
13A
  8
0
  6
CONTINUOUS
 62
     4
 10
169.11471962227751
 20
85.164163153428007
 30
0.0
 11
168.20583694127751
 21
87.43636985642803
 31
0.0
  0
LINE
  5
13B
  8
0
  6
CONTINUOUS
 62
     4
 10
168.35731738827749
 20
65.311135789428022
 30
0.0
 11
168.35731738827749
 21
87.43636985642803
 31
0.0
  0
LINE
  5
13C
  8
0
  6
CONTINUOUS
 62
     4
 10
150.57842298527751
 20
87.43636985642803
 30
0.0
 11
168.63750398627749
 21
87.43636985642803
 31
0.0
  0
LINE
  5
13D
  8
0
  6
CONTINUOUS
 62
     3
 10
148.5588229852774
 20
87.43636985642803
 30
0.0
 11
150.0736274542775
 21
87.43636985642803
 31
0.0
  0
LINE
  5
13E
  8
0
  6
CONTINUOUS
 62
     3
 10
144.27662745427719
 20
87.43636985642803
 30
0.0
 11
147.9885774542775
 21
87.43636985642803
 31
0.0
  0
TEXT
  5
13F
  8
0
  6
CONTINUOUS
 62
     4
 10
168.1009648692775
 20
70.473263422428019
 30
0.0
 40
3.0
  1
24ü}1
 50
90.0
  7
KANJI0
  0
TEXT
  5
140
  8
0
  6
CONTINUOUS
 62
     4
 10
175.1009648692775
 20
69.473263422427991
 30
0.0
 40
3.0
  1
üi29ü}1üj
 50
90.0
  7
KANJI0
  0
TEXT
  5
141
  8
0
  6
CONTINUOUS
 62
     4
 10
160.57523963227749
 20
54.007180577428002
 30
0.0
 40
3.0
  1
2.5
 50
90.0
  7
KANJI0
  0
LINE
  5
142
  8
0
  6
CONTINUOUS
 62
     4
 10
160.99536767127751
 20
52.743356809428008
 30
0.0
 11
160.99536767127751
 21
72.830625171428011
 31
0.0
  0
LINE
  5
143
  8
0
  6
CONTINUOUS
 62
     3
 10
50.0
 20
65.0
 30
0.0
 11
97.763692286000008
 21
65.0
 31
0.0
  0
LINE
  5
144
  8
0
  6
CONTINUOUS
 62
     3
 10
97.763692286000008
 20
67.487692307000003
 30
0.0
 11
50.0
 21
67.487692307000003
 31
0.0
  0
TEXT
  5
145
  8
0
  6
CONTINUOUS
 62
     4
 10
70.037158849941221
 20
97.24086693202949
 30
0.0
 40
4.5230769210000004
  1
2.54
 50
1.079946053295306
 41
0.4666666670000001
  7
KANJI1
  0
LINE
  5
146
  8
0
  6
CONTINUOUS
 62
     4
 10
78.663145986999993
 20
96.516125528999993
 30
0.0
 11
56.540369228000003
 21
96.525230754999995
 31
0.0
  0
TEXT
  5
147
  8
0
  6
CONTINUOUS
 62
     4
 10
71.549008769117151
 20
104.62716314535849
 30
0.0
 40
4.5230769210000004
  1
49
 41
0.4666666670000001
  7
KANJI1
  0
LINE
  5
148
  8
0
  6
CONTINUOUS
 62
     4
 10
49.366769231000013
 20
103.93704613600001
 30
0.0
 11
98.366769208999997
 21
103.93704613600001
 31
0.0
  0
LINE
  5
149
  8
0
  6
CONTINUOUS
 62
     3
 10
98.517538439999996
 20
81.225169223999998
 30
0.0
 11
49.216000000999998
 21
81.225169223999998
 31
0.0
  0
LINE
  5
14A
  8
0
  6
CONTINUOUS
 62
     3
 10
49.216000000999998
 20
79.633046148000005
 30
0.0
 11
98.517538439999996
 21
79.633046148000005
 31
0.0
  0
LINE
  5
14B
  8
0
  6
CONTINUOUS
 62
     3
 10
93.285846133999996
 20
74.657661535000003
 30
0.0
 11
54.477846151999991
 21
74.657661535000003
 31
0.0
  0
LINE
  5
14C
  8
0
  6
CONTINUOUS
 62
     3
 10
54.477846151999991
 20
73.065538458000006
 30
0.0
 11
93.285846133999996
 21
73.065538458000006
 31
0.0
  0
LINE
  5
14D
  8
0
  6
CONTINUOUS
 62
     3
 10
86.917353828999964
 20
83.016307685000001
 30
0.0
 11
60.846338456999987
 21
83.016307685000001
 31
0.0
  0
LINE
  5
14E
  8
0
  6
CONTINUOUS
 62
     4
 10
99.240153845999998
 20
65.0
 30
0.0
 11
127.288447728756
 21
65.033856656899843
 31
0.0
  0
LINE
  5
14F
  8
0
  6
CONTINUOUS
 62
     4
 10
85.240153845999998
 20
89.016923066000018
 30
0.0
 11
126.93721996602279
 21
88.983883012537305
 31
0.0
  0
TEXT
  5
150
  8
0
  6
CONTINUOUS
 62
     4
 10
123.9626767551722
 20
71.461311970268156
 30
0.0
 40
4.5230769210000004
  1
24
 50
90.0
 41
0.4666666670000001
  7
KANJI1
  0
TEXT
  5
151
  8
0
  6
CONTINUOUS
 62
     4
 10
122.1285206601722
 20
77.096852785268155
 30
0.0
 40
3.0
  1
ü}1
 50
90.0
  7
KANJI0
  0
LINE
  5
152
  8
0
  6
CONTINUOUS
 62
     4
 10
124.82571657276711
 20
64.824540614918064
 30
0.0
 11
124.82571657276711
 21
88.841463680918082
 31
0.0
  0
LINE
  5
153
  8
0
  6
CONTINUOUS
 62
     4
 10
124.82571657276711
 20
64.824540614918064
 30
0.0
 11
125.5795627257674
 21
67.086079075918079
 31
0.0
  0
LINE
  5
154
  8
0
  6
CONTINUOUS
 62
     4
 10
124.0718704187674
 20
67.086079075918079
 30
0.0
 11
124.82571657276711
 21
64.824540614918064
 31
0.0
  0
LINE
  5
155
  8
0
  6
CONTINUOUS
 62
     3
 10
97.763692286000008
 20
65.0
 30
0.0
 11
97.763692286000008
 21
67.487692307000003
 31
0.0
  0
LINE
  5
156
  8
0
  6
CONTINUOUS
 62
     4
 10
87.517538439999967
 20
83.016307685000001
 30
0.0
 11
107.8391198140806
 21
83.018306835106145
 31
0.0
  0
LINE
  5
157
  8
0
  6
CONTINUOUS
 62
     3
 10
97.848123055000002
 20
74.573230765000005
 30
0.0
 11
95.737353825
 21
74.573230765000005
 31
0.0
  0
LINE
  5
158
  8
0
  6
CONTINUOUS
 62
     3
 10
95.737353825
 20
73.065538458000006
 30
0.0
 11
97.848123055000002
 21
73.065538458000006
 31
0.0
  0
LINE
  5
159
  8
0
  6
CONTINUOUS
 62
     4
 10
96.105230747999997
 20
104.69089228999989
 30
0.0
 11
98.366769208999997
 21
103.93704613600001
 31
0.0
  0
LINE
  5
15A
  8
0
  6
CONTINUOUS
 62
     4
 10
98.366769208999997
 20
103.93704613600001
 30
0.0
 11
96.105230747999997
 21
103.18319998299999
 31
0.0
  0
LINE
  5
15B
  8
0
  6
CONTINUOUS
 62
     4
 10
99.366769208999997
 20
81.225169223999998
 30
0.0
 11
110.91735382899989
 21
81.225169223999998
 31
0.0
  0
TEXT
  5
15C
  8
0
  6
CONTINUOUS
 62
     4
 10
113.87362618495089
 20
84.546652588511776
 30
0.0
 40
4.5230769210000004
  1
8
 50
91.734150871143086
 41
0.4666666670000001
  7
KANJI1
  0
LINE
  5
15D
  8
0
  6
CONTINUOUS
 62
     4
 10
115.0980005430076
 20
88.841466363127097
 30
0.0
 11
115.7450481560077
 21
86.426651798127097
 31
0.0
  0
LINE
  5
15E
  8
0
  6
CONTINUOUS
 62
     4
 10
115.0980005430076
 20
88.841466363127097
 30
0.0
 11
114.45095293100771
 21
86.426651798127097
 31
0.0
  0
LINE
  5
15F
  8
0
  6
CONTINUOUS
 62
     4
 10
115.0980005430076
 20
81.049712521127105
 30
0.0
 11
115.0980005430076
 21
88.841466363127097
 31
0.0
  0
LINE
  5
160
  8
0
  6
CONTINUOUS
 62
     4
 10
124.82571657276711
 20
88.841463680918082
 30
0.0
 11
123.82571657276721
 21
86.841463680918068
 31
0.0
  0
LINE
  5
161
  8
0
  6
CONTINUOUS
 62
     4
 10
125.82571657276711
 20
86.841463680918068
 30
0.0
 11
124.82571657276711
 21
88.841463680918082
 31
0.0
  0
LINE
  5
162
  8
0
  6
CONTINUOUS
 62
     4
 10
115.0980005430076
 20
81.049712521127105
 30
0.0
 11
114.45095293100771
 21
83.464527087127095
 31
0.0
  0
LINE
  5
163
  8
0
  6
CONTINUOUS
 62
     4
 10
115.0980005430076
 20
81.049712521127105
 30
0.0
 11
115.7450481560077
 21
83.464527087127095
 31
0.0
  0
LINE
  5
164
  8
0
  6
CONTINUOUS
 62
     4
 10
106.166232962498
 20
86.854034695331976
 30
0.0
 11
106.166232962498
 21
83.104034695331976
 31
0.0
  0
LINE
  5
165
  8
0
  6
CONTINUOUS
 62
     4
 10
98.366769208999997
 20
105.6015384429997
 30
0.0
 11
98.366769208999997
 21
82.527815376999996
 31
0.0
  0
LINE
  5
166
  8
0
  6
CONTINUOUS
 62
     4
 10
106.166232962498
 20
81.312896234331944
 30
0.0
 11
106.813280575498
 21
78.898081668331955
 31
0.0
  0
LINE
  5
167
  8
0
  6
CONTINUOUS
 62
     4
 10
106.166232962498
 20
83.104034695331976
 30
0.0
 11
106.813280575498
 21
85.518849260331933
 31
0.0
  0
TEXT
  5
168
  8
0
  6
CONTINUOUS
 62
     4
 10
105.78635370509291
 20
76.391279175223161
 30
0.0
 40
4.5230769210000004
  1
2
 50
89.955023648883497
 41
0.4666666670000001
  7
KANJI1
  0
LINE
  5
169
  8
0
  6
CONTINUOUS
 62
     4
 10
106.166232962498
 20
81.312896234331944
 30
0.0
 11
106.166232962498
 21
74.562896234331944
 31
0.0
  0
LINE
  5
16A
  8
0
  6
CONTINUOUS
 62
     4
 10
106.166232962498
 20
83.104034695331976
 30
0.0
 11
106.166232962498
 21
81.312896234331944
 31
0.0
  0
LINE
  5
16B
  8
0
  6
CONTINUOUS
 62
     4
 10
106.166232962498
 20
83.104034695331976
 30
0.0
 11
105.51918535049801
 21
85.518849260331933
 31
0.0
  0
LINE
  5
16C
  8
0
  6
CONTINUOUS
 62
     4
 10
106.166232962498
 20
81.312896234331944
 30
0.0
 11
105.51918535049801
 21
78.898081668331955
 31
0.0
  0
LINE
  5
16D
  8
0
  6
CONTINUOUS
 62
     3
 10
98.517538439999996
 20
79.633046148000005
 30
0.0
 11
98.517538439999996
 21
81.225169223999998
 31
0.0
  0
LINE
  5
16E
  8
0
  6
CONTINUOUS
 62
     3
 10
97.848123055000002
 20
73.065538458000006
 30
0.0
 11
97.848123055000002
 21
74.573230765000005
 31
0.0
  0
LINE
  5
16F
  8
0
  6
CONTINUOUS
 62
     3
 10
95.773538441000014
 20
67.587199998999992
 30
0.0
 11
95.773538441000014
 21
76.443384609999995
 31
0.0
  0
LINE
  5
170
  8
0
  6
CONTINUOUS
 62
     3
 10
93.285846133999996
 20
77.543384610000004
 30
0.0
 11
93.285846133999996
 21
70.826615381999986
 31
0.0
  0
LINE
  5
171
  8
0
  6
CONTINUOUS
 62
     3
 10
95.773538441000014
 20
77.543384610000004
 30
0.0
 11
93.285846133999996
 21
77.543384610000004
 31
0.0
  0
LINE
  5
172
  8
0
  6
CONTINUOUS
 62
     3
 10
95.773538441000014
 20
76.643384609999984
 30
0.0
 11
95.773538441000014
 21
76.343384610000001
 31
0.0
  0
LINE
  5
173
  8
0
  6
CONTINUOUS
 62
     3
 10
95.773538441000014
 20
77.543384610000004
 30
0.0
 11
95.773538441000014
 21
76.643384609999984
 31
0.0
  0
ARC
  5
174
  8
0
  6
CONTINUOUS
 62
     3
 10
92.529587672999995
 20
70.816664613
 30
0.0
 40
0.736356923
 50
180.0
 51
270.0
  0
ARC
  5
175
  8
0
  6
CONTINUOUS
 62
     3
 10
92.539538442000008
 20
70.826615381999986
 30
0.0
 40
0.7463076920000002
 50
270.0
 51
0.0
  0
LINE
  5
176
  8
0
  6
CONTINUOUS
 62
     3
 10
91.793230750000006
 20
73.065538458000006
 30
0.0
 11
91.793230750000006
 21
70.816664613
 31
0.0
  0
LINE
  5
177
  8
0
  6
CONTINUOUS
 62
     3
 10
92.539538442000008
 20
70.080307689999998
 30
0.0
 11
92.529587672999995
 21
70.080307689999998
 31
0.0
  0
LINE
  5
178
  8
0
  6
CONTINUOUS
 62
     3
 10
86.917353828999964
 20
76.24978461100001
 30
0.0
 11
86.917353828999964
 21
74.657661535000003
 31
0.0
  0
LINE
  5
179
  8
0
  6
CONTINUOUS
 62
     3
 10
89.504553827999985
 20
74.657661535000003
 30
0.0
 11
89.495298678466185
 21
76.255043497092146
 31
0.0
  0
LINE
  5
17A
  8
0
  6
CONTINUOUS
 62
     3
 10
89.504553827999985
 20
76.24978461100001
 30
0.0
 11
86.917353828999964
 21
76.24978461100001
 31
0.0
  0
LINE
  5
17B
  8
0
  6
CONTINUOUS
 62
     3
 10
86.917353828999964
 20
81.225169223999998
 30
0.0
 11
86.917353828999964
 21
83.016307685000001
 31
0.0
  0
LINE
  5
17C
  8
0
  6
CONTINUOUS
 62
     3
 10
88.509476905999989
 20
82.220246145999994
 30
0.0
 11
88.509476905999989
 21
81.225169223999998
 31
0.0
  0
LINE
  5
17D
  8
0
  6
CONTINUOUS
 62
     3
 10
87.912430752000006
 20
81.225169223999998
 30
0.0
 11
87.912430752000006
 21
82.220246145999994
 31
0.0
  0
LINE
  5
17E
  8
0
  6
CONTINUOUS
 62
     3
 10
87.912430752000006
 20
82.220246145999994
 30
0.0
 11
88.509476905999989
 21
82.220246145999994
 31
0.0
  0
LINE
  5
17F
  8
0
  6
CONTINUOUS
 62
     3
 10
88.506308642509111
 20
78.039533946337343
 30
0.0
 11
88.509476905999989
 21
76.24978461100001
 31
0.0
  0
LINE
  5
180
  8
0
  6
CONTINUOUS
 62
     3
 10
87.912430752000006
 20
76.24978461100001
 30
0.0
 11
87.915866403231675
 21
78.024785978547044
 31
0.0
  0
ARC
  5
181
  8
0
  6
CONTINUOUS
 62
     3
 10
88.210953828999976
 20
71.473415381999999
 30
0.0
 40
1.3931076919999981
 50
270.0
 51
0.0
  0
LINE
  5
182
  8
0
  6
CONTINUOUS
 62
     3
 10
89.604061521000006
 20
73.065538458000006
 30
0.0
 11
89.604061521000006
 21
71.473415381999999
 31
0.0
  0
ARC
  5
183
  8
0
  6
CONTINUOUS
 62
     3
 10
88.161199982999989
 20
71.423661535999997
 30
0.0
 40
1.3433538459999981
 50
180.0
 51
270.0
  0
LINE
  5
184
  8
0
  6
CONTINUOUS
 62
     3
 10
87.912430752000006
 20
72.07046153600001
 30
0.0
 11
87.912430752000006
 21
73.065538458000006
 31
0.0
  0
LINE
  5
185
  8
0
  6
CONTINUOUS
 62
     3
 10
88.509476905999989
 20
72.07046153600001
 30
0.0
 11
87.912430752000006
 21
72.07046153600001
 31
0.0
  0
LINE
  5
186
  8
0
  6
CONTINUOUS
 62
     3
 10
88.509476905999989
 20
73.065538458000006
 30
0.0
 11
88.509476905999989
 21
72.07046153600001
 31
0.0
  0
LINE
  5
187
  8
0
  6
CONTINUOUS
 62
     3
 10
86.817846137000004
 20
71.423661535999997
 30
0.0
 11
86.817846137000004
 21
73.065538458000006
 31
0.0
  0
LINE
  5
188
  8
0
  6
CONTINUOUS
 62
     3
 10
88.210953828999976
 20
70.080307689999998
 30
0.0
 11
88.161199982999989
 21
70.080307689999998
 31
0.0
  0
LINE
  5
189
  8
0
  6
CONTINUOUS
 62
     3
 10
84.131138446000008
 20
88.986769219999985
 30
0.0
 11
84.131138446000008
 21
83.016307685000001
 31
0.0
  0
LINE
  5
18A
  8
0
  6
CONTINUOUS
 62
     3
 10
83.534092293
 20
83.016307685000001
 30
0.0
 11
83.534092293
 21
88.986769219999985
 31
0.0
  0
LINE
  5
18B
  8
0
  6
CONTINUOUS
 62
     3
 10
81.643446139999995
 20
88.986769219999985
 30
0.0
 11
81.643446139999995
 21
83.016307685000001
 31
0.0
  0
LINE
  5
18C
  8
0
  6
CONTINUOUS
 62
     3
 10
81.046399985999969
 20
83.016307685000001
 30
0.0
 11
81.046399985999969
 21
88.986769219999985
 31
0.0
  0
LINE
  5
18D
  8
0
  6
CONTINUOUS
 62
     3
 10
79.155753833000006
 20
88.986769219999985
 30
0.0
 11
79.155753833000006
 21
83.016307685000001
 31
0.0
  0
LINE
  5
18E
  8
0
  6
CONTINUOUS
 62
     3
 10
78.55870767899998
 20
83.016307685000001
 30
0.0
 11
78.55870767899998
 21
88.986769219999985
 31
0.0
  0
LINE
  5
18F
  8
0
  6
CONTINUOUS
 62
     3
 10
76.668061526999992
 20
88.986769219999985
 30
0.0
 11
76.668061526999992
 21
83.016307685000001
 31
0.0
  0
LINE
  5
190
  8
0
  6
CONTINUOUS
 62
     3
 10
76.071015373000009
 20
83.016307685000001
 30
0.0
 11
76.071015373000009
 21
88.986769219999985
 31
0.0
  0
LINE
  5
191
  8
0
  6
CONTINUOUS
 62
     3
 10
83.534092293
 20
88.986769219999985
 30
0.0
 11
84.131138446000008
 21
88.986769219999985
 31
0.0
  0
LINE
  5
192
  8
0
  6
CONTINUOUS
 62
     3
 10
81.046399985999969
 20
88.986769219999985
 30
0.0
 11
81.643446139999995
 21
88.986769219999985
 31
0.0
  0
LINE
  5
193
  8
0
  6
CONTINUOUS
 62
     3
 10
78.55870767899998
 20
88.986769219999985
 30
0.0
 11
79.155753833000006
 21
88.986769219999985
 31
0.0
  0
LINE
  5
194
  8
0
  6
CONTINUOUS
 62
     3
 10
76.071015373000009
 20
88.986769219999985
 30
0.0
 11
76.668061526999992
 21
88.986769219999985
 31
0.0
  0
LINE
  5
195
  8
0
  6
CONTINUOUS
 62
     3
 10
50.0
 20
67.487692307000003
 30
0.0
 11
50.0
 21
65.0
 31
0.0
  0
LINE
  5
196
  8
0
  6
CONTINUOUS
 62
     3
 10
50.995076922999999
 20
87.19563076
 30
0.0
 11
54.492923075
 21
87.19563076
 31
0.0
  0
LINE
  5
197
  8
0
  6
CONTINUOUS
 62
     3
 10
50.024123076999999
 20
73.065538458000006
 30
0.0
 11
51.984123076000003
 21
73.065538458000006
 31
0.0
  0
LINE
  5
198
  8
0
  6
CONTINUOUS
 62
     3
 10
52.014276922000001
 20
74.648615380999999
 30
0.0
 11
50.024123076999999
 21
74.648615380999999
 31
0.0
  0
LINE
  5
199
  8
0
  6
CONTINUOUS
 62
     4
 10
51.628307692
 20
104.69089228999989
 30
0.0
 11
49.366769231000013
 21
103.93704613600001
 31
0.0
  0
LINE
  5
19A
  8
0
  6
CONTINUOUS
 62
     4
 10
49.366769231000013
 20
103.93704613600001
 30
0.0
 11
51.628307692
 21
103.18319998299999
 31
0.0
  0
LINE
  5
19B
  8
0
  6
CONTINUOUS
 62
     4
 10
61.66652307199999
 20
97.279076908999997
 30
0.0
 11
63.928061532000001
 21
96.525230754999995
 31
0.0
  0
LINE
  5
19C
  8
0
  6
CONTINUOUS
 62
     4
 10
63.928061532000001
 20
96.525230754999995
 30
0.0
 11
61.66652307199999
 21
95.771384602000026
 31
0.0
  0
LINE
  5
19D
  8
0
  6
CONTINUOUS
 62
     3
 10
64.229599993999983
 20
88.986769219999985
 30
0.0
 11
64.229599993999983
 21
83.016307685000001
 31
0.0
  0
LINE
  5
19E
  8
0
  6
CONTINUOUS
 62
     3
 10
63.63255384
 20
83.016307685000001
 30
0.0
 11
63.63255384
 21
88.986769219999985
 31
0.0
  0
LINE
  5
19F
  8
0
  6
CONTINUOUS
 62
     3
 10
66.717292299999997
 20
88.986769219999985
 30
0.0
 11
66.717292299999997
 21
83.016307685000001
 31
0.0
  0
LINE
  5
1A0
  8
0
  6
CONTINUOUS
 62
     3
 10
66.120246147000003
 20
83.016307685000001
 30
0.0
 11
66.120246147000003
 21
88.986769219999985
 31
0.0
  0
LINE
  5
1A1
  8
0
  6
CONTINUOUS
 62
     3
 10
69.204984607
 20
88.986769219999985
 30
0.0
 11
69.204984607
 21
83.016307685000001
 31
0.0
  0
LINE
  5
1A2
  8
0
  6
CONTINUOUS
 62
     3
 10
68.607938453000003
 20
83.016307685000001
 30
0.0
 11
68.607938453000003
 21
88.986769219999985
 31
0.0
  0
LINE
  5
1A3
  8
0
  6
CONTINUOUS
 62
     3
 10
71.692676912999985
 20
88.986769219999985
 30
0.0
 11
71.692676912999985
 21
83.016307685000001
 31
0.0
  0
LINE
  5
1A4
  8
0
  6
CONTINUOUS
 62
     3
 10
71.095630760000006
 20
83.016307685000001
 30
0.0
 11
71.095630760000006
 21
88.986769219999985
 31
0.0
  0
LINE
  5
1A5
  8
0
  6
CONTINUOUS
 62
     3
 10
74.180369220000003
 20
88.986769219999985
 30
0.0
 11
74.180369220000003
 21
83.016307685000001
 31
0.0
  0
LINE
  5
1A6
  8
0
  6
CONTINUOUS
 62
     3
 10
73.58332306600002
 20
83.016307685000001
 30
0.0
 11
73.58332306600002
 21
88.986769219999985
 31
0.0
  0
LINE
  5
1A7
  8
0
  6
CONTINUOUS
 62
     4
 10
68.677292299000001
 20
97.279076908999997
 30
0.0
 11
66.41575383899999
 21
96.525230754999995
 31
0.0
  0
LINE
  5
1A8
  8
0
  6
CONTINUOUS
 62
     4
 10
66.41575383899999
 20
96.525230754999995
 30
0.0
 11
68.677292299000001
 21
95.771384602000026
 31
0.0
  0
LINE
  5
1A9
  8
0
  6
CONTINUOUS
 62
     3
 10
71.095630760000006
 20
88.986769219999985
 30
0.0
 11
71.692676912999985
 21
88.986769219999985
 31
0.0
  0
LINE
  5
1AA
  8
0
  6
CONTINUOUS
 62
     3
 10
73.58332306600002
 20
88.986769219999985
 30
0.0
 11
74.180369220000003
 21
88.986769219999985
 31
0.0
  0
LINE
  5
1AB
  8
0
  6
CONTINUOUS
 62
     3
 10
68.607938453000003
 20
88.986769219999985
 30
0.0
 11
69.204984607
 21
88.986769219999985
 31
0.0
  0
LINE
  5
1AC
  8
0
  6
CONTINUOUS
 62
     4
 10
63.928061532000001
 20
97.882153832000014
 30
0.0
 11
63.928061532000001
 21
89.589846142999974
 31
0.0
  0
LINE
  5
1AD
  8
0
  6
CONTINUOUS
 62
     4
 10
66.41575383899999
 20
89.589846142999974
 30
0.0
 11
66.41575383899999
 21
97.882153832000014
 31
0.0
  0
LINE
  5
1AE
  8
0
  6
CONTINUOUS
 62
     3
 10
66.120246147000003
 20
88.986769219999985
 30
0.0
 11
66.717292299999997
 21
88.986769219999985
 31
0.0
  0
LINE
  5
1AF
  8
0
  6
CONTINUOUS
 62
     3
 10
63.63255384
 20
88.986769219999985
 30
0.0
 11
64.229599993999983
 21
88.986769219999985
 31
0.0
  0
LINE
  5
1B0
  8
0
  6
CONTINUOUS
 62
     3
 10
54.492923075
 20
87.19563076
 30
0.0
 11
54.492923075
 21
81.225169223999998
 31
0.0
  0
LINE
  5
1B1
  8
0
  6
CONTINUOUS
 62
     3
 10
53.135999998999999
 20
88.552553836000016
 30
0.0
 11
53.135999998999999
 21
87.19563076
 31
0.0
  0
LINE
  5
1B2
  8
0
  6
CONTINUOUS
 62
     3
 10
53.889846151999997
 20
88.552553836000016
 30
0.0
 11
53.135999998999999
 21
88.552553836000016
 31
0.0
  0
LINE
  5
1B3
  8
0
  6
CONTINUOUS
 62
     3
 10
53.889846151999997
 20
87.19563076
 30
0.0
 11
53.889846151999997
 21
88.552553836000016
 31
0.0
  0
LINE
  5
1B4
  8
0
  6
CONTINUOUS
 62
     3
 10
58.259138458000002
 20
76.24978461100001
 30
0.0
 11
58.259138458000002
 21
74.657661535000003
 31
0.0
  0
LINE
  5
1B5
  8
0
  6
CONTINUOUS
 62
     3
 10
60.846338456999987
 20
74.657661535000003
 30
0.0
 11
60.846338456999987
 21
76.24978461100001
 31
0.0
  0
LINE
  5
1B6
  8
0
  6
CONTINUOUS
 62
     3
 10
59.254215381000002
 20
82.220246145999994
 30
0.0
 11
59.851261533999988
 21
82.220246145999994
 31
0.0
  0
LINE
  5
1B7
  8
0
  6
CONTINUOUS
 62
     3
 10
60.846338456999987
 20
76.24978461100001
 30
0.0
 11
58.259138458000002
 21
76.24978461100001
 31
0.0
  0
LINE
  5
1B8
  8
0
  6
CONTINUOUS
 62
     3
 10
60.846338456999987
 20
83.016307685000001
 30
0.0
 11
60.846338456999987
 21
81.225169223999998
 31
0.0
  0
LINE
  5
1B9
  8
0
  6
CONTINUOUS
 62
     3
 10
59.851261533999988
 20
82.220246145999994
 30
0.0
 11
59.851261533999988
 21
81.225169223999998
 31
0.0
  0
LINE
  5
1BA
  8
0
  6
CONTINUOUS
 62
     3
 10
59.854961971979087
 20
78.033424703273766
 30
0.0
 11
59.851261533999988
 21
76.24978461100001
 31
0.0
  0
LINE
  5
1BB
  8
0
  6
CONTINUOUS
 62
     3
 10
59.254215381000002
 20
81.225169223999998
 30
0.0
 11
59.254215381000002
 21
82.220246145999994
 31
0.0
  0
LINE
  5
1BC
  8
0
  6
CONTINUOUS
 62
     3
 10
59.254215381000002
 20
76.24978461100001
 30
0.0
 11
59.255302203934313
 21
78.045906467765263
 31
0.0
  0
LINE
  5
1BD
  8
0
  6
CONTINUOUS
 62
     3
 10
59.851261533999988
 20
72.07046153600001
 30
0.0
 11
59.254215381000002
 21
72.07046153600001
 31
0.0
  0
ARC
  5
1BE
  8
0
  6
CONTINUOUS
 62
     3
 10
59.602492303999988
 20
71.423661535999997
 30
0.0
 40
1.3433538459999981
 50
270.0
 51
0.0
  0
LINE
  5
1BF
  8
0
  6
CONTINUOUS
 62
     3
 10
59.851261533999988
 20
73.065538458000006
 30
0.0
 11
59.851261533999988
 21
72.07046153600001
 31
0.0
  0
LINE
  5
1C0
  8
0
  6
CONTINUOUS
 62
     3
 10
60.945846148999998
 20
71.423661535999997
 30
0.0
 11
60.945846148999998
 21
73.065538458000006
 31
0.0
  0
ARC
  5
1C1
  8
0
  6
CONTINUOUS
 62
     3
 10
59.552738456999982
 20
71.473415381999999
 30
0.0
 40
1.3931076919999981
 50
180.0
 51
270.0
  0
LINE
  5
1C2
  8
0
  6
CONTINUOUS
 62
     3
 10
59.254215381000002
 20
72.07046153600001
 30
0.0
 11
59.254215381000002
 21
73.065538458000006
 31
0.0
  0
LINE
  5
1C3
  8
0
  6
CONTINUOUS
 62
     3
 10
58.159630766000006
 20
73.065538458000006
 30
0.0
 11
58.159630766000006
 21
71.473415381999999
 31
0.0
  0
LINE
  5
1C4
  8
0
  6
CONTINUOUS
 62
     3
 10
59.552738456999982
 20
70.080307689999998
 30
0.0
 11
59.602492303999988
 21
70.080307689999998
 31
0.0
  0
LINE
  5
1C5
  8
0
  6
CONTINUOUS
 62
     3
 10
51.990153845999998
 20
76.542892301999984
 30
0.0
 11
51.990153845999998
 21
67.587199998999992
 31
0.0
  0
LINE
  5
1C6
  8
0
  6
CONTINUOUS
 62
     3
 10
51.990153845999998
 20
77.642892301999993
 30
0.0
 11
51.990153845999998
 21
75.142892301999993
 31
0.0
  0
LINE
  5
1C7
  8
0
  6
CONTINUOUS
 62
     3
 10
54.477846151999991
 20
77.642892301999993
 30
0.0
 11
54.477846151999991
 21
70.826615381999986
 31
0.0
  0
LINE
  5
1C8
  8
0
  6
CONTINUOUS
 62
     3
 10
51.990153845999998
 20
77.642892301999993
 30
0.0
 11
54.477846151999991
 21
77.642892301999993
 31
0.0
  0
ARC
  5
1C9
  8
0
  6
CONTINUOUS
 62
     3
 10
55.234104613
 20
70.816664613
 30
0.0
 40
0.736356923
 50
270.0
 51
0.0
  0
ARC
  5
1CA
  8
0
  6
CONTINUOUS
 62
     3
 10
55.224153843999993
 20
70.826615381999986
 30
0.0
 40
0.7463076920000002
 50
180.0
 51
270.0
  0
LINE
  5
1CB
  8
0
  6
CONTINUOUS
 62
     3
 10
55.970461536000002
 20
73.065538458000006
 30
0.0
 11
55.970461536000002
 21
70.816664613
 31
0.0
  0
LINE
  5
1CC
  8
0
  6
CONTINUOUS
 62
     3
 10
55.224153843999993
 20
70.080307689999998
 30
0.0
 11
55.234104613
 21
70.080307689999998
 31
0.0
  0
LINE
  5
1CD
  8
0
  6
CONTINUOUS
 62
     4
 10
49.366769231000013
 20
82.527815376999996
 30
0.0
 11
49.366769231000013
 21
105.75230767399989
 31
0.0
  0
LINE
  5
1CE
  8
0
  6
CONTINUOUS
 62
     3
 10
50.995076922999999
 20
81.225169223999998
 30
0.0
 11
50.995076922999999
 21
87.19563076
 31
0.0
  0
LINE
  5
1CF
  8
0
  6
CONTINUOUS
 62
     3
 10
49.246153847000002
 20
81.225169223999998
 30
0.0
 11
49.246153847000002
 21
79.633046148000005
 31
0.0
  0
LINE
  5
1D0
  8
0
  6
CONTINUOUS
 62
     3
 10
50.024123076999999
 20
74.648615380999999
 30
0.0
 11
50.024123076999999
 21
73.065538458000006
 31
0.0
  0
LINE
  5
1D1
  8
0
  6
CONTINUOUS
 62
     3
 10
49.763692291000012
 20
21.000000002
 30
0.0
 11
97.763692286000008
 21
21.000000002
 31
0.0
  0
LINE
  5
1D2
  8
0
  6
CONTINUOUS
 62
     3
 10
97.763692286000008
 20
21.000000002
 30
0.0
 11
97.763692286000008
 21
45.0
 31
0.0
  0
LINE
  5
1D3
  8
0
  6
CONTINUOUS
 62
     3
 10
97.763692286000008
 20
45.0
 30
0.0
 11
49.763692291000012
 21
45.0
 31
0.0
  0
LINE
  5
1D4
  8
0
  6
CONTINUOUS
 62
     3
 10
49.763692291000012
 20
45.0
 30
0.0
 11
49.763692291000012
 21
21.000000002
 31
0.0
  0
LINE
  5
1D5
  8
0
  6
CONTINUOUS
 62
     3
 10
50.763692290999998
 20
22.000000001999972
 30
0.0
 11
96.763692286000023
 21
22.000000001999972
 31
0.0
  0
LINE
  5
1D6
  8
0
  6
CONTINUOUS
 62
     3
 10
96.763692286000023
 20
22.000000001999972
 30
0.0
 11
96.763692286000023
 21
44.0
 31
0.0
  0
LINE
  5
1D7
  8
0
  6
CONTINUOUS
 62
     3
 10
96.763692286000023
 20
44.0
 30
0.0
 11
50.763692290999998
 21
44.0
 31
0.0
  0
LINE
  5
1D8
  8
0
  6
CONTINUOUS
 62
     3
 10
50.763692290999998
 20
44.0
 30
0.0
 11
50.763692290999998
 21
22.000000001999972
 31
0.0
  0
LINE
  5
1D9
  8
0
  6
CONTINUOUS
 62
     4
 10
49.763692291000012
 20
9.3939393970000005
 30
0.0
 11
52.036419563000003
 21
8.6363636400000008
 31
0.0
  0
LINE
  5
1DA
  8
0
  6
CONTINUOUS
 62
     4
 10
52.036419563000003
 20
10.151515155
 30
0.0
 11
49.763692291000012
 21
9.3939393970000005
 31
0.0
  0
LINE
  5
1DB
  8
0
  6
CONTINUOUS
 62
     4
 10
49.763692291000012
 20
9.3939393970000005
 30
0.0
 11
97.793995317000011
 21
9.3939393970000005
 31
0.0
  0
LINE
  5
1DC
  8
0
  6
CONTINUOUS
 62
     4
 10
97.793995317000011
 20
9.3939393970000005
 30
0.0
 11
95.521268043999996
 21
10.151515155
 31
0.0
  0
LINE
  5
1DD
  8
0
  6
CONTINUOUS
 62
     4
 10
95.521268043999996
 20
8.6363636400000008
 30
0.0
 11
97.793995317000011
 21
9.3939393970000005
 31
0.0
  0
LINE
  5
1DE
  8
0
  6
CONTINUOUS
 62
     4
 10
97.793995317000011
 20
19.242424244999999
 30
0.0
 11
97.793995317000011
 21
7.8181818219999997
 31
0.0
  0
LINE
  5
1DF
  8
0
  6
CONTINUOUS
 62
     4
 10
49.763692291000012
 20
7.3636363669999998
 30
0.0
 11
49.763692291000012
 21
19.242424244999999
 31
0.0
  0
LINE
  5
1E0
  8
0
  6
CONTINUOUS
 62
     4
 10
35.894554030999998
 20
44.896922706999987
 30
0.0
 11
35.136978274000001
 21
42.624195434999997
 31
0.0
  0
LINE
  5
1E1
  8
0
  6
CONTINUOUS
 62
     4
 10
36.652129789
 20
42.624195434999997
 30
0.0
 11
35.894554030999998
 21
44.896922706999987
 31
0.0
  0
LINE
  5
1E2
  8
0
  6
CONTINUOUS
 62
     4
 10
35.894554030999998
 20
44.896922706999987
 30
0.0
 11
35.894554030999998
 21
20.80601361799998
 31
0.0
  0
LINE
  5
1E3
  8
0
  6
CONTINUOUS
 62
     4
 10
35.894554030999998
 20
20.80601361799998
 30
0.0
 11
35.136978274000001
 21
23.078740890999981
 31
0.0
  0
LINE
  5
1E4
  8
0
  6
CONTINUOUS
 62
     4
 10
36.652129789
 20
23.078740890999981
 30
0.0
 11
35.894554030999998
 21
20.80601361799998
 31
0.0
  0
TEXT
  5
1E5
  8
0
  6
CONTINUOUS
 62
     4
 10
35.18849342499999
 20
30.206013618
 30
0.0
 40
4.5454545450000001
  1
24
 50
90.0
 41
0.4666666670000001
  7
KANJI2
  0
LINE
  5
1E6
  8
0
  6
CONTINUOUS
 62
     3
 10
71.432398753999991
 20
32.707347196000001
 30
0.0
 11
71.182975777999985
 21
30.379399419999991
 31
0.0
  0
LINE
  5
1E7
  8
0
  6
CONTINUOUS
 62
     3
 10
68.189900066999982
 20
33.215431035999991
 30
0.0
 11
68.273041058999993
 21
33.132290044000001
 31
0.0
  0
LINE
  5
1E8
  8
0
  6
CONTINUOUS
 62
     3
 10
69.151021029999995
 20
35.940848825000003
 30
0.0
 11
71.064994447000004
 21
35.957900830999989
 31
0.0
  0
LINE
  5
1E9
  8
0
  6
CONTINUOUS
 62
     3
 10
70.764689301999994
 20
30.045575217
 30
0.0
 11
68.099121170000004
 21
30.072388890999989
 31
0.0
  0
LINE
  5
1EA
  8
0
  6
CONTINUOUS
 62
     3
 10
68.099121170000004
 20
30.072388890999989
 30
0.0
 11
68.090418643000007
 21
30.238442990999999
 31
0.0
  0
LINE
  5
1EB
  8
0
  6
CONTINUOUS
 62
     3
 10
68.090418643000007
 20
30.238442990999999
 30
0.0
 11
68.890230301999992
 21
30.863144976000001
 31
0.0
  0
POINT
  5
1EC
  8
0
  6
CONTINUOUS
 62
     3
 10
68.693042711000004
 20
35.493456621
 30
0.0
  0
LINE
  5
1ED
  8
0
  6
CONTINUOUS
 62
     3
 10
68.495536818999994
 20
35.354888301000003
 30
0.0
 11
68.189900066999982
 21
33.215431035999991
 31
0.0
  0
LINE
  5
1EE
  8
0
  6
CONTINUOUS
 62
     3
 10
70.725378070000005
 20
35.123941101
 30
0.0
 11
71.325840790000001
 21
35.770593261000002
 31
0.0
  0
LINE
  5
1EF
  8
0
  6
CONTINUOUS
 62
     3
 10
71.064994447000004
 20
35.957900830999989
 30
0.0
 11
71.279651349999995
 21
35.813821021999999
 31
0.0
  0
LINE
  5
1F0
  8
0
  6
CONTINUOUS
 62
     3
 10
70.771567509999997
 20
33.692068460999991
 30
0.0
 11
71.418219669999999
 21
33.183984621
 31
0.0
  0
LINE
  5
1F1
  8
0
  6
CONTINUOUS
 62
     3
 10
71.37203022999995
 20
33.216134556
 30
0.0
 11
71.533953857
 21
33.37805818199999
 31
0.0
  0
LINE
  5
1F2
  8
0
  6
CONTINUOUS
 62
     3
 10
71.515539746000002
 20
33.206193147999997
 30
0.0
 11
71.464409110000005
 21
33.180627829999999
 31
0.0
  0
LINE
  5
1F3
  8
0
  6
CONTINUOUS
 62
     3
 10
71.141083030000004
 20
32.814469101
 30
0.0
 11
71.432398753999991
 21
32.707347196000001
 31
0.0
  0
LINE
  5
1F4
  8
0
  6
CONTINUOUS
 62
     3
 10
71.386209313999998
 20
33.215431035999991
 30
0.0
 11
71.524777634000003
 21
33.169241595999999
 31
0.0
  0
LINE
  5
1F5
  8
0
  6
CONTINUOUS
 62
     3
 10
70.797472772999996
 20
30.120738555999999
 30
0.0
 11
70.764689301999994
 21
30.045575217
 31
0.0
  0
LINE
  5
1F6
  8
0
  6
CONTINUOUS
 62
     3
 10
70.783202899000003
 20
30.166927995999991
 30
0.0
 11
70.674750973999991
 21
30.046479931
 31
0.0
  0
LINE
  5
1F7
  8
0
  6
CONTINUOUS
 62
     3
 10
70.554799394
 20
32.245452796000002
 30
0.0
 11
71.201451554000002
 21
32.799726075999992
 31
0.0
  0
LINE
  5
1F8
  8
0
  6
CONTINUOUS
 62
     3
 10
68.462095511000001
 20
35.308698860999989
 30
0.0
 11
68.607615766999984
 21
35.425115065999989
 31
0.0
  0
LINE
  5
1F9
  8
0
  6
CONTINUOUS
 62
     3
 10
70.917087766999984
 20
34.729060185999991
 30
0.0
 11
71.609929366999992
 21
35.468091225000002
 31
0.0
  0
LINE
  5
1FA
  8
0
  6
CONTINUOUS
 62
     3
 10
71.609929366999992
 20
35.468091225000002
 30
0.0
 11
71.748497686999983
 21
35.421901785000003
 31
0.0
  0
LINE
  5
1FB
  8
0
  6
CONTINUOUS
 62
     3
 10
71.747988231999983
 20
35.37571234499999
 30
0.0
 11
71.515539746000002
 21
33.206193147999997
 31
0.0
  0
LINE
  5
1FC
  8
0
  6
CONTINUOUS
 62
     3
 10
70.773791680000002
 20
33.677325435999983
 30
0.0
 11
70.897525180000002
 21
34.729060185999991
 31
0.0
  0
LINE
  5
1FD
  8
0
  6
CONTINUOUS
 62
     3
 10
68.930941847
 20
35.791417305000003
 30
0.0
 11
69.485215127000004
 21
35.098575705000002
 31
0.0
  0
LINE
  5
1FE
  8
0
  6
CONTINUOUS
 62
     3
 10
68.977131286999992
 20
35.795609593000002
 30
0.0
 11
69.151021029999995
 21
35.940848825000003
 31
0.0
  0
LINE
  5
1FF
  8
0
  6
CONTINUOUS
 62
     3
 10
70.725378070000005
 20
35.114997267
 30
0.0
 11
69.485215127000004
 21
35.118889690000003
 31
0.0
  0
LINE
  5
200
  8
0
  6
CONTINUOUS
 62
     3
 10
68.333478271999994
 20
30.428287475999991
 30
0.0
 11
68.094385638999995
 21
30.162748206
 31
0.0
  0
LINE
  5
201
  8
0
  6
CONTINUOUS
 62
     3
 10
68.346417602000002
 20
30.069901268999999
 30
0.0
 11
69.059127670999999
 21
30.861445991
 31
0.0
  0
LINE
  5
202
  8
0
  6
CONTINUOUS
 62
     3
 10
69.391746724000001
 20
30.858100086
 30
0.0
 11
68.679036655000004
 21
30.066555363999999
 31
0.0
  0
LINE
  5
203
  8
0
  6
CONTINUOUS
 62
     3
 10
69.011655708000006
 20
30.063209457999999
 30
0.0
 11
69.724365777000003
 21
30.85475418
 31
0.0
  0
LINE
  5
204
  8
0
  6
CONTINUOUS
 62
     3
 10
70.511200613
 20
31.649830226999988
 30
0.0
 11
71.416040495000004
 21
32.554670109
 31
0.0
  0
LINE
  5
205
  8
0
  6
CONTINUOUS
 62
     3
 10
71.373712011999999
 20
32.159604270999999
 30
0.0
 11
70.46710844399999
 21
31.253000703000001
 31
0.0
  0
LINE
  5
206
  8
0
  6
CONTINUOUS
 62
     3
 10
70.554799394
 20
32.014505595999999
 30
0.0
 11
71.293830434
 21
32.707347196000001
 31
0.0
  0
LINE
  5
207
  8
0
  6
CONTINUOUS
 62
     3
 10
68.874829660000003
 20
32.688108765000003
 30
0.0
 11
69.556864743999995
 21
33.445585465000001
 31
0.0
  0
LINE
  5
208
  8
0
  6
CONTINUOUS
 62
     3
 10
69.892429031000006
 20
33.445510573
 30
0.0
 11
69.137505094999995
 21
32.607082601999991
 31
0.0
  0
LINE
  5
209
  8
0
  6
CONTINUOUS
 62
     3
 10
69.473864126999999
 20
32.607890363999999
 30
0.0
 11
70.227993316999985
 21
33.445435680000003
 31
0.0
  0
LINE
  5
20A
  8
0
  6
CONTINUOUS
 62
     3
 10
70.146582191000007
 20
32.609505886999997
 30
0.0
 11
70.705434324999999
 21
33.230174060999992
 31
0.0
  0
LINE
  5
20B
  8
0
  6
CONTINUOUS
 62
     3
 10
70.817756950000003
 20
33.645879020999999
 30
0.0
 11
71.649166870000002
 21
34.477288940999991
 31
0.0
  0
LINE
  5
20C
  8
0
  6
CONTINUOUS
 62
     3
 10
70.956325269999979
 20
33.505904305999998
 30
0.0
 11
71.618610821999994
 21
34.168189857999998
 31
0.0
  0
LINE
  5
20D
  8
0
  6
CONTINUOUS
 62
     3
 10
71.576282340000006
 20
33.77312401999999
 30
0.0
 11
71.187272469999982
 21
33.384114150999991
 31
0.0
  0
LINE
  5
20E
  8
0
  6
CONTINUOUS
 62
     3
 10
71.656118806999999
 20
34.77524962599999
 30
0.0
 11
70.778519446999994
 21
33.943839705999991
 31
0.0
  0
LINE
  5
20F
  8
0
  6
CONTINUOUS
 62
     3
 10
71.702308247000005
 20
35.144765145000001
 30
0.0
 11
70.870898326999992
 21
34.313355225999992
 31
0.0
  0
LINE
  5
210
  8
0
  6
CONTINUOUS
 62
     3
 10
68.221383868999993
 20
33.43581765199999
 30
0.0
 11
69.207236280000004
 21
34.421670063000001
 31
0.0
  0
LINE
  5
211
  8
0
  6
CONTINUOUS
 62
     3
 10
68.338962987000002
 20
34.258871481
 30
0.0
 11
69.023320726999998
 21
34.943229220999982
 31
0.0
  0
LINE
  5
212
  8
0
  6
CONTINUOUS
 62
     3
 10
69.254267927000001
 20
34.821439065999989
 30
0.0
 11
68.280173427999983
 21
33.847344567
 31
0.0
  0
LINE
  5
213
  8
0
  6
CONTINUOUS
 62
     3
 10
68.838562967000001
 20
35.111208816000001
 30
0.0
 11
68.397752546999996
 21
34.670398395999989
 31
0.0
  0
LINE
  5
214
  8
0
  6
CONTINUOUS
 62
     3
 10
68.456542106000001
 20
35.081925310999999
 30
0.0
 11
68.699994646999997
 21
35.325377851999988
 31
0.0
  0
LINE
  5
215
  8
0
  6
CONTINUOUS
 62
     3
 10
70.226457283000002
 20
35.950430120999989
 30
0.0
 11
69.477755994999995
 21
35.11891310099999
 31
0.0
  0
LINE
  5
216
  8
0
  6
CONTINUOUS
 62
     3
 10
69.812441878999991
 20
35.117862643000002
 30
0.0
 11
70.564803178000005
 21
35.953444517999998
 31
0.0
  0
LINE
  5
217
  8
0
  6
CONTINUOUS
 62
     3
 10
70.903149073999984
 20
35.956458914999999
 30
0.0
 11
70.147127761999982
 21
35.11681218599999
 31
0.0
  0
LINE
  5
218
  8
0
  6
CONTINUOUS
 62
     3
 10
70.48181364600002
 20
35.115761728000003
 30
0.0
 11
71.174124976000002
 21
35.884651355000003
 31
0.0
  0
LINE
  5
219
  8
0
  6
CONTINUOUS
 62
     3
 10
69.549765491999992
 20
35.944401325999991
 30
0.0
 11
69.162483108999993
 21
35.514280665000001
 31
0.0
  0
LINE
  5
21A
  8
0
  6
CONTINUOUS
 62
     3
 10
69.290169035999995
 20
35.283333464999998
 30
0.0
 11
69.888111386999995
 21
35.947415722999999
 31
0.0
  0
LINE
  5
21B
  8
0
  6
CONTINUOUS
 62
     3
 10
68.993208023999998
 20
35.699038424999998
 30
0.0
 11
69.211419595999985
 21
35.941386928999997
 31
0.0
  0
LINE
  5
21C
  8
0
  6
CONTINUOUS
 62
     3
 10
71.649166870000002
 20
35.308698860999989
 30
0.0
 11
70.956325269999979
 21
34.615857261000002
 31
0.0
  0
LINE
  5
21D
  8
0
  6
CONTINUOUS
 62
     3
 10
69.986347030000005
 20
30.828323180999991
 30
0.0
 11
70.771567509999997
 21
30.089292141000001
 31
0.0
  0
LINE
  5
21E
  8
0
  6
CONTINUOUS
 62
     3
 10
70.448241429999982
 20
31.013080940999998
 30
0.0
 11
71.141083030000004
 21
30.366428781
 31
0.0
  0
LINE
  5
21F
  8
0
  6
CONTINUOUS
 62
     3
 10
68.890230301999992
 20
30.863144976000001
 30
0.0
 11
69.940157589999984
 21
30.852583471999989
 31
0.0
  0
LINE
  5
220
  8
0
  6
CONTINUOUS
 62
     3
 10
69.994609760000003
 20
30.782133740999999
 30
0.0
 11
69.344274761000008
 21
30.059863553
 31
0.0
  0
LINE
  5
221
  8
0
  6
CONTINUOUS
 62
     3
 10
69.676893815
 20
30.056517647
 30
0.0
 11
70.205474003999996
 21
30.643565421000002
 31
0.0
  0
LINE
  5
222
  8
0
  6
CONTINUOUS
 62
     3
 10
70.374749089999995
 20
30.458807660999991
 30
0.0
 11
70.009512868000002
 21
30.053171741999989
 31
0.0
  0
LINE
  5
223
  8
0
  6
CONTINUOUS
 62
     3
 10
70.342131921000004
 20
30.049825836
 30
0.0
 11
70.544024176000008
 21
30.274049900999991
 31
0.0
  0
LINE
  5
224
  8
0
  6
CONTINUOUS
 62
     3
 10
70.445582852000001
 20
31.05927038099999
 30
0.0
 11
70.582513058000004
 21
32.291642236000001
 31
0.0
  0
LINE
  5
225
  8
0
  6
CONTINUOUS
 62
     3
 10
70.494430870000002
 20
30.927585774000001
 30
0.0
 11
71.331383529999982
 21
31.764538432999998
 31
0.0
  0
LINE
  5
226
  8
0
  6
CONTINUOUS
 62
     3
 10
71.289055047000005
 20
31.369472595000001
 30
0.0
 11
70.679188629999999
 21
30.759606178999999
 31
0.0
  0
LINE
  5
227
  8
0
  6
CONTINUOUS
 62
     3
 10
70.910135830000002
 20
30.637816022999999
 30
0.0
 11
71.246726563999999
 21
30.97440675699999
 31
0.0
  0
LINE
  5
228
  8
0
  6
CONTINUOUS
 62
     3
 10
71.204398081999997
 20
30.579340918999979
 30
0.0
 11
71.048704150000006
 21
30.423646988000002
 31
0.0
  0
LINE
  5
229
  8
0
  6
CONTINUOUS
 62
     3
 10
71.182975777999985
 20
30.379399419999991
 30
0.0
 11
71.094893589999998
 21
30.335358326000001
 31
0.0
  0
LINE
  5
22A
  8
0
  6
CONTINUOUS
 62
     3
 10
70.309673110000006
 20
32.609897547999999
 30
0.0
 11
68.983611531999983
 21
32.606713028999998
 31
0.0
  0
LINE
  5
22B
  8
0
  6
CONTINUOUS
 62
     3
 10
68.231148310999984
 20
33.137795181000001
 30
0.0
 11
69.15493711100001
 21
33.923015661000001
 31
0.0
  0
LINE
  5
22C
  8
0
  6
CONTINUOUS
 62
     3
 10
68.646853270999998
 20
32.906847980999999
 30
0.0
 11
69.339694871000006
 21
33.414931820999982
 31
0.0
  0
LINE
  5
22D
  8
0
  6
CONTINUOUS
 62
     3
 10
69.148571056000009
 20
33.923015661000001
 30
0.0
 11
69.246383988000005
 21
34.754425581
 31
0.0
  0
LINE
  5
22E
  8
0
  6
CONTINUOUS
 62
     3
 10
68.983611531999983
 20
32.606713028999998
 30
0.0
 11
68.600663831000006
 21
32.893252590000003
 31
0.0
  0
LINE
  5
22F
  8
0
  6
CONTINUOUS
 62
     3
 10
70.355862549999998
 20
33.414931820999982
 30
0.0
 11
70.863946389999981
 21
33.045416300999989
 31
0.0
  0
LINE
  5
230
  8
0
  6
CONTINUOUS
 62
     3
 10
70.452980921999995
 20
33.322552940999991
 30
0.0
 11
69.810223159000003
 21
32.608698124999989
 31
0.0
  0
LINE
  5
231
  8
0
  6
CONTINUOUS
 62
     3
 10
69.307684514000002
 20
33.445641078000001
 30
0.0
 11
70.309673110000006
 21
33.445417450000001
 31
0.0
  0
LINE
  5
232
  8
0
  6
CONTINUOUS
 62
     3
 10
70.309673110000006
 20
32.629711340999982
 30
0.0
 11
70.863946389999981
 21
33.065211775000002
 31
0.0
  0
LINE
  5
233
  8
0
  6
CONTINUOUS
 62
     3
 10
68.607615766999984
 20
35.468091225000002
 30
0.0
 11
69.293858874999998
 21
34.729060185999991
 31
0.0
  0
LINE
  5
234
  8
0
  6
CONTINUOUS
 62
     3
 10
68.020277328999995
 20
32.613607951999981
 30
0.0
 11
68.165797585000007
 21
32.730024156999981
 31
0.0
  0
LINE
  5
235
  8
0
  6
CONTINUOUS
 62
     3
 10
67.779565687000002
 20
30.740726743
 30
0.0
 11
68.765418097999984
 21
31.726579154
 31
0.0
  0
LINE
  5
236
  8
0
  6
CONTINUOUS
 62
     3
 10
67.897144806
 20
31.563780572999999
 30
0.0
 11
68.581502545000006
 21
32.24813831199998
 31
0.0
  0
LINE
  5
237
  8
0
  6
CONTINUOUS
 62
     3
 10
68.812449744999995
 20
32.126348156999988
 30
0.0
 11
67.838355246000006
 21
31.152253657999999
 31
0.0
  0
LINE
  5
238
  8
0
  6
CONTINUOUS
 62
     3
 10
68.396744784999996
 20
32.416117907999997
 30
0.0
 11
67.955934365000005
 21
31.975307486999998
 31
0.0
  0
LINE
  5
239
  8
0
  6
CONTINUOUS
 62
     3
 10
68.014723923999995
 20
32.386834401999991
 30
0.0
 11
68.258176465000005
 21
32.630286943000002
 31
0.0
  0
LINE
  5
23A
  8
0
  6
CONTINUOUS
 62
     3
 10
67.789330128999993
 20
30.442704271999979
 30
0.0
 11
68.71311892899999
 21
31.227924752
 31
0.0
  0
LINE
  5
23B
  8
0
  6
CONTINUOUS
 62
     3
 10
68.165797585000007
 20
32.77300031699999
 30
0.0
 11
68.852040693999996
 21
32.033969276999997
 31
0.0
  0
LINE
  5
23C
  8
0
  6
CONTINUOUS
 62
     3
 10
67.748081885000005
 20
30.520340127000001
 30
0.0
 11
67.831222877000002
 21
30.437199135
 31
0.0
  0
LINE
  5
23D
  8
0
  6
CONTINUOUS
 62
     3
 10
68.053718637000003
 20
32.70397921
 30
0.0
 11
67.748081885000005
 21
30.564521944999999
 31
0.0
  0
LINE
  5
23E
  8
0
  6
CONTINUOUS
 62
     3
 10
68.866752895000005
 20
32.073136365000003
 30
0.0
 11
68.690025622999997
 21
31.145318183000001
 31
0.0
  0
CIRCLE
  5
23F
  8
0
  6
CONTINUOUS
 62
     3
 10
72.35244810399999
 20
30.287393517000002
 30
0.0
 40
0.4618944000000001
  0
LINE
  5
240
  8
0
  6
CONTINUOUS
 62
     3
 10
72.629584743999999
 20
30.656909036999998
 30
0.0
 11
72.075311463999995
 21
30.656909036999998
 31
0.0
  0
LINE
  5
241
  8
0
  6
CONTINUOUS
 62
     3
 10
71.929114893999994
 20
30.472151276999991
 30
0.0
 11
72.775781314
 21
30.472151276999991
 31
0.0
  0
LINE
  5
242
  8
0
  6
CONTINUOUS
 62
     3
 10
72.814342503999995
 20
30.287393517000002
 30
0.0
 11
71.890553703999998
 21
30.287393517000002
 31
0.0
  0
LINE
  5
243
  8
0
  6
CONTINUOUS
 62
     3
 10
71.929114893999994
 20
30.10263575699998
 30
0.0
 11
72.775781314
 21
30.10263575699998
 31
0.0
  0
LINE
  5
244
  8
0
  6
CONTINUOUS
 62
     3
 10
72.629584743999999
 20
29.917877996999991
 30
0.0
 11
72.075311463999995
 21
29.917877996999991
 31
0.0
  0
TEXT
  5
245
  8
0
  6
CONTINUOUS
 62
     3
 10
58.597207441000002
 20
30.876000001000001
 30
0.0
 40
4.0909090910000003
  1
üÇ
 41
0.933333333
  7
KANJI3
  0
LINE
  5
246
  8
0
  6
CONTINUOUS
 62
     3
 10
64.007502987999999
 20
32.660493261999989
 30
0.0
 11
63.758080012000001
 21
30.332545486000001
 31
0.0
  0
LINE
  5
247
  8
0
  6
CONTINUOUS
 62
     3
 10
63.346671743999991
 20
33.645214525999997
 30
0.0
 11
63.993323903999993
 21
33.137130685999999
 31
0.0
  0
LINE
  5
248
  8
0
  6
CONTINUOUS
 62
     3
 10
63.947134463999987
 20
33.169280620999999
 30
0.0
 11
64.109058090000005
 21
33.331204247999999
 31
0.0
  0
LINE
  5
249
  8
0
  6
CONTINUOUS
 62
     3
 10
64.090643979999996
 20
33.159339213999999
 30
0.0
 11
64.039513344
 21
33.133773896000001
 31
0.0
  0
LINE
  5
24A
  8
0
  6
CONTINUOUS
 62
     3
 10
63.716187263999998
 20
32.767615165999999
 30
0.0
 11
64.007502987999999
 21
32.660493261999989
 31
0.0
  0
LINE
  5
24B
  8
0
  6
CONTINUOUS
 62
     3
 10
63.961313548
 20
33.168577102
 30
0.0
 11
64.099881867999997
 21
33.122387662000001
 31
0.0
  0
LINE
  5
24C
  8
0
  6
CONTINUOUS
 62
     3
 10
63.129903628000001
 20
32.198598861999997
 30
0.0
 11
63.776555788000003
 21
32.752872142000001
 31
0.0
  0
LINE
  5
24D
  8
0
  6
CONTINUOUS
 62
     3
 10
63.492192000000003
 20
34.682206250999982
 30
0.0
 11
64.185033599999997
 21
35.421237290999997
 31
0.0
  0
LINE
  5
24E
  8
0
  6
CONTINUOUS
 62
     3
 10
64.185033599999997
 20
35.421237290999997
 30
0.0
 11
64.323601920000002
 21
35.375047850999991
 31
0.0
  0
LINE
  5
24F
  8
0
  6
CONTINUOUS
 62
     3
 10
64.323092465000002
 20
35.328858410999999
 30
0.0
 11
64.090643979999996
 21
33.159339213999999
 31
0.0
  0
LINE
  5
250
  8
0
  6
CONTINUOUS
 62
     3
 10
63.348895913999989
 20
33.630471501999992
 30
0.0
 11
63.472629413999996
 21
34.682206250999982
 31
0.0
  0
LINE
  5
251
  8
0
  6
CONTINUOUS
 62
     3
 10
63.086304845999997
 20
31.602976293000001
 30
0.0
 11
63.991144728000002
 21
32.507816175000002
 31
0.0
  0
LINE
  5
252
  8
0
  6
CONTINUOUS
 62
     3
 10
63.948816246
 20
32.112750337000001
 30
0.0
 11
63.042212677000002
 21
31.206146768
 31
0.0
  0
LINE
  5
253
  8
0
  6
CONTINUOUS
 62
     3
 10
63.129903628000001
 20
31.967651662000002
 30
0.0
 11
63.868934668000001
 21
32.660493261999989
 31
0.0
  0
LINE
  5
254
  8
0
  6
CONTINUOUS
 62
     3
 10
63.392861183999997
 20
33.59902508599999
 30
0.0
 11
64.224271103999996
 21
34.430435005999989
 31
0.0
  0
LINE
  5
255
  8
0
  6
CONTINUOUS
 62
     3
 10
63.531429503999988
 20
33.459050372
 30
0.0
 11
64.193715056000002
 21
34.121335924
 31
0.0
  0
LINE
  5
256
  8
0
  6
CONTINUOUS
 62
     3
 10
64.151386572999996
 20
33.726270086
 30
0.0
 11
63.762376703999998
 21
33.337260217000001
 31
0.0
  0
LINE
  5
257
  8
0
  6
CONTINUOUS
 62
     3
 10
64.231223040000003
 20
34.728395690999989
 30
0.0
 11
63.353623679999998
 21
33.896985770999983
 31
0.0
  0
LINE
  5
258
  8
0
  6
CONTINUOUS
 62
     3
 10
64.277412479999995
 20
35.097911210999989
 30
0.0
 11
63.44600255999999
 21
34.26650129099999
 31
0.0
  0
LINE
  5
259
  8
0
  6
CONTINUOUS
 62
     3
 10
64.224271103999996
 20
35.261844926000002
 30
0.0
 11
63.531429503999988
 21
34.569003326000001
 31
0.0
  0
LINE
  5
25A
  8
0
  6
CONTINUOUS
 62
     3
 10
63.02334566399999
 20
30.96622700699999
 30
0.0
 11
63.716187263999998
 21
30.319574846999991
 31
0.0
  0
LINE
  5
25B
  8
0
  6
CONTINUOUS
 62
     3
 10
63.020687086000002
 20
31.012416446999989
 30
0.0
 11
63.157617291999998
 21
32.244788301999982
 31
0.0
  0
LINE
  5
25C
  8
0
  6
CONTINUOUS
 62
     3
 10
63.069535103999989
 20
30.880731839999999
 30
0.0
 11
63.906487763000001
 21
31.717684499000001
 31
0.0
  0
LINE
  5
25D
  8
0
  6
CONTINUOUS
 62
     3
 10
63.864159280000003
 20
31.322618661
 30
0.0
 11
63.254292863999993
 21
30.712752244000001
 31
0.0
  0
LINE
  5
25E
  8
0
  6
CONTINUOUS
 62
     3
 10
63.485240063999989
 20
30.590962089000001
 30
0.0
 11
63.821830798000001
 21
30.927552822999999
 31
0.0
  0
LINE
  5
25F
  8
0
  6
CONTINUOUS
 62
     3
 10
63.779502315000002
 20
30.532486984999998
 30
0.0
 11
63.623808384
 21
30.376793053
 31
0.0
  0
LINE
  5
260
  8
0
  6
CONTINUOUS
 62
     3
 10
63.758080012000001
 20
30.332545486000001
 30
0.0
 11
63.669997823999999
 21
30.288504391999989
 31
0.0
  0
CIRCLE
  5
261
  8
0
  6
CONTINUOUS
 62
     3
 10
65.503357195000007
 20
30.287393517000002
 30
0.0
 40
0.4618944000000001
  0
LINE
  5
262
  8
0
  6
CONTINUOUS
 62
     3
 10
65.780493835000001
 20
30.656909036999998
 30
0.0
 11
65.226220554999998
 21
30.656909036999998
 31
0.0
  0
LINE
  5
263
  8
0
  6
CONTINUOUS
 62
     3
 10
65.080023984999997
 20
30.472151276999991
 30
0.0
 11
65.926690405000002
 21
30.472151276999991
 31
0.0
  0
LINE
  5
264
  8
0
  6
CONTINUOUS
 62
     3
 10
65.965251594999998
 20
30.287393517000002
 30
0.0
 11
65.041462795000001
 21
30.287393517000002
 31
0.0
  0
LINE
  5
265
  8
0
  6
CONTINUOUS
 62
     3
 10
65.080023984999997
 20
30.10263575699998
 30
0.0
 11
65.926690405000002
 21
30.10263575699998
 31
0.0
  0
LINE
  5
266
  8
0
  6
CONTINUOUS
 62
     3
 10
65.780493835000001
 20
29.917877996999991
 30
0.0
 11
65.226220554999998
 21
29.917877996999991
 31
0.0
  0
LINE
  5
267
  8
0
  6
CONTINUOUS
 62
     3
 10
78.249671480999993
 20
32.707347196000001
 30
0.0
 11
78.000248505000002
 21
30.379399419999991
 31
0.0
  0
LINE
  5
268
  8
0
  6
CONTINUOUS
 62
     3
 10
75.007172792999981
 20
33.215431035999991
 30
0.0
 11
75.090313785000021
 21
33.132290044000001
 31
0.0
  0
LINE
  5
269
  8
0
  6
CONTINUOUS
 62
     3
 10
75.968293756000008
 20
35.940848825000003
 30
0.0
 11
77.882267173000002
 21
35.957900830999989
 31
0.0
  0
LINE
  5
26A
  8
0
  6
CONTINUOUS
 62
     3
 10
77.581962028000007
 20
30.045575217
 30
0.0
 11
74.916393896999992
 21
30.072388890999989
 31
0.0
  0
LINE
  5
26B
  8
0
  6
CONTINUOUS
 62
     3
 10
74.916393896999992
 20
30.072388890999989
 30
0.0
 11
74.907691369999995
 21
30.238442990999999
 31
0.0
  0
LINE
  5
26C
  8
0
  6
CONTINUOUS
 62
     3
 10
74.907691369999995
 20
30.238442990999999
 30
0.0
 11
75.707503028000005
 21
30.863144976000001
 31
0.0
  0
POINT
  5
26D
  8
0
  6
CONTINUOUS
 62
     3
 10
75.510315437000003
 20
35.493456621
 30
0.0
  0
LINE
  5
26E
  8
0
  6
CONTINUOUS
 62
     3
 10
75.312809544999965
 20
35.354888301000003
 30
0.0
 11
75.007172792999981
 21
33.215431035999991
 31
0.0
  0
LINE
  5
26F
  8
0
  6
CONTINUOUS
 62
     3
 10
77.542650796999993
 20
35.123941101
 30
0.0
 11
78.143113517000003
 21
35.770593261000002
 31
0.0
  0
LINE
  5
270
  8
0
  6
CONTINUOUS
 62
     3
 10
77.882267173000002
 20
35.957900830999989
 30
0.0
 11
78.096924076999997
 21
35.813821021999999
 31
0.0
  0
LINE
  5
271
  8
0
  6
CONTINUOUS
 62
     3
 10
77.588840236999999
 20
33.692068460999991
 30
0.0
 11
78.235492397000002
 21
33.183984621
 31
0.0
  0
LINE
  5
272
  8
0
  6
CONTINUOUS
 62
     3
 10
78.189302956999995
 20
33.216134556
 30
0.0
 11
78.351226584000003
 21
33.37805818199999
 31
0.0
  0
LINE
  5
273
  8
0
  6
CONTINUOUS
 62
     3
 10
78.332812473000004
 20
33.206193147999997
 30
0.0
 11
78.281681836999994
 21
33.180627829999999
 31
0.0
  0
LINE
  5
274
  8
0
  6
CONTINUOUS
 62
     3
 10
77.958355756999993
 20
32.814469101
 30
0.0
 11
78.249671480999993
 21
32.707347196000001
 31
0.0
  0
LINE
  5
275
  8
0
  6
CONTINUOUS
 62
     3
 10
78.203482041000001
 20
33.215431035999991
 30
0.0
 11
78.342050361000005
 21
33.169241595999999
 31
0.0
  0
LINE
  5
276
  8
0
  6
CONTINUOUS
 62
     3
 10
77.614745499999984
 20
30.120738555999999
 30
0.0
 11
77.581962028000007
 21
30.045575217
 31
0.0
  0
LINE
  5
277
  8
0
  6
CONTINUOUS
 62
     3
 10
77.600475626000005
 20
30.166927995999991
 30
0.0
 11
77.492023700999994
 21
30.046479931
 31
0.0
  0
LINE
  5
278
  8
0
  6
CONTINUOUS
 62
     3
 10
77.372072121000002
 20
32.245452796000002
 30
0.0
 11
78.018724281000019
 21
32.799726075999992
 31
0.0
  0
LINE
  5
279
  8
0
  6
CONTINUOUS
 62
     3
 10
75.279368237
 20
35.308698860999989
 30
0.0
 11
75.424888494000001
 21
35.425115065999989
 31
0.0
  0
LINE
  5
27A
  8
0
  6
CONTINUOUS
 62
     3
 10
77.734360492999983
 20
34.729060185999991
 30
0.0
 11
78.427202093000005
 21
35.468091225000002
 31
0.0
  0
LINE
  5
27B
  8
0
  6
CONTINUOUS
 62
     3
 10
78.427202093000005
 20
35.468091225000002
 30
0.0
 11
78.565770412999981
 21
35.421901785000003
 31
0.0
  0
LINE
  5
27C
  8
0
  6
CONTINUOUS
 62
     3
 10
78.565260957999982
 20
35.37571234499999
 30
0.0
 11
78.332812473000004
 21
33.206193147999997
 31
0.0
  0
LINE
  5
27D
  8
0
  6
CONTINUOUS
 62
     3
 10
77.591064407000005
 20
33.677325435999983
 30
0.0
 11
77.714797907000005
 21
34.729060185999991
 31
0.0
  0
LINE
  5
27E
  8
0
  6
CONTINUOUS
 62
     3
 10
75.748214574000002
 20
35.791417305000003
 30
0.0
 11
76.302487853999992
 21
35.098575705000002
 31
0.0
  0
LINE
  5
27F
  8
0
  6
CONTINUOUS
 62
     3
 10
75.79440401399998
 20
35.795609593000002
 30
0.0
 11
75.968293756000008
 21
35.940848825000003
 31
0.0
  0
LINE
  5
280
  8
0
  6
CONTINUOUS
 62
     3
 10
77.542650796999993
 20
35.114997267
 30
0.0
 11
76.302487853999992
 21
35.118889690000003
 31
0.0
  0
LINE
  5
281
  8
0
  6
CONTINUOUS
 62
     3
 10
75.150750998999982
 20
30.428287475999991
 30
0.0
 11
74.911658365999997
 21
30.162748206
 31
0.0
  0
LINE
  5
282
  8
0
  6
CONTINUOUS
 62
     3
 10
75.163690328000001
 20
30.069901268999999
 30
0.0
 11
75.876400396999998
 21
30.861445991
 31
0.0
  0
LINE
  5
283
  8
0
  6
CONTINUOUS
 62
     3
 10
76.209019451000003
 20
30.858100086
 30
0.0
 11
75.496309381999993
 21
30.066555363999999
 31
0.0
  0
LINE
  5
284
  8
0
  6
CONTINUOUS
 62
     3
 10
75.82892843499998
 20
30.063209457999999
 30
0.0
 11
76.541638503999991
 21
30.85475418
 31
0.0
  0
LINE
  5
285
  8
0
  6
CONTINUOUS
 62
     3
 10
77.328473340000002
 20
31.649830226999988
 30
0.0
 11
78.233313221999992
 21
32.554670109
 31
0.0
  0
LINE
  5
286
  8
0
  6
CONTINUOUS
 62
     3
 10
78.190984739000001
 20
32.159604270999999
 30
0.0
 11
77.284381170000003
 21
31.253000703000001
 31
0.0
  0
LINE
  5
287
  8
0
  6
CONTINUOUS
 62
     3
 10
77.372072121000002
 20
32.014505595999999
 30
0.0
 11
78.111103161000003
 21
32.707347196000001
 31
0.0
  0
LINE
  5
288
  8
0
  6
CONTINUOUS
 62
     3
 10
75.692102386000002
 20
32.688108765000003
 30
0.0
 11
76.374137470999997
 21
33.445585465000001
 31
0.0
  0
LINE
  5
289
  8
0
  6
CONTINUOUS
 62
     3
 10
76.709701757000005
 20
33.445510573
 30
0.0
 11
75.954777821999983
 21
32.607082601999991
 31
0.0
  0
LINE
  5
28A
  8
0
  6
CONTINUOUS
 62
     3
 10
76.291136854000001
 20
32.607890363999999
 30
0.0
 11
77.045266044000002
 21
33.445435680000003
 31
0.0
  0
LINE
  5
28B
  8
0
  6
CONTINUOUS
 62
     3
 10
76.963854916999992
 20
32.609505886999997
 30
0.0
 11
77.522707050999983
 21
33.230174060999992
 31
0.0
  0
LINE
  5
28C
  8
0
  6
CONTINUOUS
 62
     3
 10
77.635029676999991
 20
33.645879020999999
 30
0.0
 11
78.466439597000004
 21
34.477288940999991
 31
0.0
  0
LINE
  5
28D
  8
0
  6
CONTINUOUS
 62
     3
 10
77.773597996999996
 20
33.505904305999998
 30
0.0
 11
78.435883548999982
 21
34.168189857999998
 31
0.0
  0
LINE
  5
28E
  8
0
  6
CONTINUOUS
 62
     3
 10
78.393555066000005
 20
33.77312401999999
 30
0.0
 11
78.004545196999999
 21
33.384114150999991
 31
0.0
  0
LINE
  5
28F
  8
0
  6
CONTINUOUS
 62
     3
 10
78.473391532999997
 20
34.77524962599999
 30
0.0
 11
77.595792173000007
 21
33.943839705999991
 31
0.0
  0
LINE
  5
290
  8
0
  6
CONTINUOUS
 62
     3
 10
78.519580973000004
 20
35.144765145000001
 30
0.0
 11
77.688171053000005
 21
34.313355225999992
 31
0.0
  0
LINE
  5
291
  8
0
  6
CONTINUOUS
 62
     3
 10
75.03865659600001
 20
33.43581765199999
 30
0.0
 11
76.024509006000002
 21
34.421670063000001
 31
0.0
  0
LINE
  5
292
  8
0
  6
CONTINUOUS
 62
     3
 10
75.15623571399999
 20
34.258871481
 30
0.0
 11
75.840593454
 21
34.943229220999982
 31
0.0
  0
LINE
  5
293
  8
0
  6
CONTINUOUS
 62
     3
 10
76.071540654000003
 20
34.821439065999989
 30
0.0
 11
75.097446155
 21
33.847344567
 31
0.0
  0
LINE
  5
294
  8
0
  6
CONTINUOUS
 62
     3
 10
75.65583569399999
 20
35.111208816000001
 30
0.0
 11
75.215025272999995
 21
34.670398395999989
 31
0.0
  0
LINE
  5
295
  8
0
  6
CONTINUOUS
 62
     3
 10
75.273814831999999
 20
35.081925310999999
 30
0.0
 11
75.517267373999999
 21
35.325377851999988
 31
0.0
  0
LINE
  5
296
  8
0
  6
CONTINUOUS
 62
     3
 10
77.043730009000001
 20
35.950430120999989
 30
0.0
 11
76.295028721999984
 21
35.11891310099999
 31
0.0
  0
LINE
  5
297
  8
0
  6
CONTINUOUS
 62
     3
 10
76.629714606000007
 20
35.117862643000002
 30
0.0
 11
77.382075904999994
 21
35.953444517999998
 31
0.0
  0
LINE
  5
298
  8
0
  6
CONTINUOUS
 62
     3
 10
77.720421799999983
 20
35.956458914999999
 30
0.0
 11
76.964400488999999
 21
35.11681218599999
 31
0.0
  0
LINE
  5
299
  8
0
  6
CONTINUOUS
 62
     3
 10
77.299086373000009
 20
35.115761728000003
 30
0.0
 11
77.991397702
 21
35.884651355000003
 31
0.0
  0
LINE
  5
29A
  8
0
  6
CONTINUOUS
 62
     3
 10
76.367038218000005
 20
35.944401325999991
 30
0.0
 11
75.97975583600001
 21
35.514280665000001
 31
0.0
  0
LINE
  5
29B
  8
0
  6
CONTINUOUS
 62
     3
 10
76.107441762999983
 20
35.283333464999998
 30
0.0
 11
76.705384113999983
 21
35.947415722999999
 31
0.0
  0
LINE
  5
29C
  8
0
  6
CONTINUOUS
 62
     3
 10
75.810480749999982
 20
35.699038424999998
 30
0.0
 11
76.028692323000001
 21
35.941386928999997
 31
0.0
  0
LINE
  5
29D
  8
0
  6
CONTINUOUS
 62
     3
 10
78.466439597000004
 20
35.308698860999989
 30
0.0
 11
77.773597996999996
 21
34.615857261000002
 31
0.0
  0
LINE
  5
29E
  8
0
  6
CONTINUOUS
 62
     3
 10
76.803619756999993
 20
30.828323180999991
 30
0.0
 11
77.588840236999999
 21
30.089292141000001
 31
0.0
  0
LINE
  5
29F
  8
0
  6
CONTINUOUS
 62
     3
 10
77.265514156999998
 20
31.013080940999998
 30
0.0
 11
77.958355756999993
 21
30.366428781
 31
0.0
  0
LINE
  5
2A0
  8
0
  6
CONTINUOUS
 62
     3
 10
75.707503028000005
 20
30.863144976000001
 30
0.0
 11
76.757430317000001
 21
30.852583471999989
 31
0.0
  0
LINE
  5
2A1
  8
0
  6
CONTINUOUS
 62
     3
 10
76.811882486999991
 20
30.782133740999999
 30
0.0
 11
76.161547487999982
 21
30.059863553
 31
0.0
  0
LINE
  5
2A2
  8
0
  6
CONTINUOUS
 62
     3
 10
76.494166540999998
 20
30.056517647
 30
0.0
 11
77.022746730999984
 21
30.643565421000002
 31
0.0
  0
LINE
  5
2A3
  8
0
  6
CONTINUOUS
 62
     3
 10
77.192021816999997
 20
30.458807660999991
 30
0.0
 11
76.826785594
 21
30.053171741999989
 31
0.0
  0
LINE
  5
2A4
  8
0
  6
CONTINUOUS
 62
     3
 10
77.159404648000006
 20
30.049825836
 30
0.0
 11
77.361296901999992
 21
30.274049900999991
 31
0.0
  0
LINE
  5
2A5
  8
0
  6
CONTINUOUS
 62
     3
 10
77.262855578999975
 20
31.05927038099999
 30
0.0
 11
77.399785785000006
 21
32.291642236000001
 31
0.0
  0
LINE
  5
2A6
  8
0
  6
CONTINUOUS
 62
     3
 10
77.311703597000005
 20
30.927585774000001
 30
0.0
 11
78.14865625600001
 21
31.764538432999998
 31
0.0
  0
LINE
  5
2A7
  8
0
  6
CONTINUOUS
 62
     3
 10
78.106327773999993
 20
31.369472595000001
 30
0.0
 11
77.496461357000001
 21
30.759606178999999
 31
0.0
  0
LINE
  5
2A8
  8
0
  6
CONTINUOUS
 62
     3
 10
77.727408557000004
 20
30.637816022999999
 30
0.0
 11
78.063999291000002
 21
30.97440675699999
 31
0.0
  0
LINE
  5
2A9
  8
0
  6
CONTINUOUS
 62
     3
 10
78.021670807999996
 20
30.579340918999979
 30
0.0
 11
77.865976876999994
 21
30.423646988000002
 31
0.0
  0
LINE
  5
2AA
  8
0
  6
CONTINUOUS
 62
     3
 10
78.000248505000002
 20
30.379399419999991
 30
0.0
 11
77.912166317000001
 21
30.335358326000001
 31
0.0
  0
LINE
  5
2AB
  8
0
  6
CONTINUOUS
 62
     3
 10
77.126945836999994
 20
32.609897547999999
 30
0.0
 11
75.800884259
 21
32.606713028999998
 31
0.0
  0
LINE
  5
2AC
  8
0
  6
CONTINUOUS
 62
     3
 10
75.048421036999983
 20
33.137795181000001
 30
0.0
 11
75.972209836999994
 21
33.923015661000001
 31
0.0
  0
LINE
  5
2AD
  8
0
  6
CONTINUOUS
 62
     3
 10
75.464125996999996
 20
32.906847980999999
 30
0.0
 11
76.156967597000005
 21
33.414931820999982
 31
0.0
  0
LINE
  5
2AE
  8
0
  6
CONTINUOUS
 62
     3
 10
75.965843781999993
 20
33.923015661000001
 30
0.0
 11
76.063656713999976
 21
34.754425581
 31
0.0
  0
LINE
  5
2AF
  8
0
  6
CONTINUOUS
 62
     3
 10
75.800884259
 20
32.606713028999998
 30
0.0
 11
75.417936557000019
 21
32.893252590000003
 31
0.0
  0
LINE
  5
2B0
  8
0
  6
CONTINUOUS
 62
     3
 10
77.173135277
 20
33.414931820999982
 30
0.0
 11
77.681219116999983
 21
33.045416300999989
 31
0.0
  0
LINE
  5
2B1
  8
0
  6
CONTINUOUS
 62
     3
 10
77.270253648000008
 20
33.322552940999991
 30
0.0
 11
76.627495886000005
 21
32.608698124999989
 31
0.0
  0
LINE
  5
2B2
  8
0
  6
CONTINUOUS
 62
     3
 10
76.124957241000004
 20
33.445641078000001
 30
0.0
 11
77.126945836999994
 21
33.445417450000001
 31
0.0
  0
LINE
  5
2B3
  8
0
  6
CONTINUOUS
 62
     3
 10
77.126945836999994
 20
32.629711340999982
 30
0.0
 11
77.681219116999983
 21
33.065211775000002
 31
0.0
  0
LINE
  5
2B4
  8
0
  6
CONTINUOUS
 62
     3
 10
75.424888494000001
 20
35.468091225000002
 30
0.0
 11
76.111131602
 21
34.729060185999991
 31
0.0
  0
LINE
  5
2B5
  8
0
  6
CONTINUOUS
 62
     3
 10
74.837550055999984
 20
32.613607951999981
 30
0.0
 11
74.983070311999995
 21
32.730024156999981
 31
0.0
  0
LINE
  5
2B6
  8
0
  6
CONTINUOUS
 62
     3
 10
74.59683841399999
 20
30.740726743
 30
0.0
 11
75.582690823999982
 21
31.726579154
 31
0.0
  0
LINE
  5
2B7
  8
0
  6
CONTINUOUS
 62
     3
 10
74.714417531999999
 20
31.563780572999999
 30
0.0
 11
75.398775271999995
 21
32.24813831199998
 31
0.0
  0
LINE
  5
2B8
  8
0
  6
CONTINUOUS
 62
     3
 10
75.629722471999997
 20
32.126348156999988
 30
0.0
 11
74.655627973000009
 21
31.152253657999999
 31
0.0
  0
LINE
  5
2B9
  8
0
  6
CONTINUOUS
 62
     3
 10
75.214017511999984
 20
32.416117907999997
 30
0.0
 11
74.773207091000003
 21
31.975307486999998
 31
0.0
  0
LINE
  5
2BA
  8
0
  6
CONTINUOUS
 62
     3
 10
74.831996650999983
 20
32.386834401999991
 30
0.0
 11
75.075449191999994
 21
32.630286943000002
 31
0.0
  0
LINE
  5
2BB
  8
0
  6
CONTINUOUS
 62
     3
 10
74.606602856000009
 20
30.442704271999979
 30
0.0
 11
75.530391655000003
 21
31.227924752
 31
0.0
  0
LINE
  5
2BC
  8
0
  6
CONTINUOUS
 62
     3
 10
74.983070311999995
 20
32.77300031699999
 30
0.0
 11
75.669313419999995
 21
32.033969276999997
 31
0.0
  0
LINE
  5
2BD
  8
0
  6
CONTINUOUS
 62
     3
 10
74.565354611000004
 20
30.520340127000001
 30
0.0
 11
74.648495603000001
 21
30.437199135
 31
0.0
  0
LINE
  5
2BE
  8
0
  6
CONTINUOUS
 62
     3
 10
74.870991363999991
 20
32.70397921
 30
0.0
 11
74.565354611000004
 21
30.564521944999999
 31
0.0
  0
LINE
  5
2BF
  8
0
  6
CONTINUOUS
 62
     3
 10
75.684025621999993
 20
32.073136365000003
 30
0.0
 11
75.507298348999996
 21
31.145318183000001
 31
0.0
  0
CIRCLE
  5
2C0
  8
0
  6
CONTINUOUS
 62
     3
 10
79.028084466999985
 20
30.154848062999999
 30
0.0
 40
0.4618944000000001
  0
LINE
  5
2C1
  8
0
  6
CONTINUOUS
 62
     3
 10
79.305221106999994
 20
30.524363583
 30
0.0
 11
78.750947827000005
 21
30.524363583
 31
0.0
  0
LINE
  5
2C2
  8
0
  6
CONTINUOUS
 62
     3
 10
78.604751257000004
 20
30.339605822999999
 30
0.0
 11
79.451417676999995
 21
30.339605822999999
 31
0.0
  0
LINE
  5
2C3
  8
0
  6
CONTINUOUS
 62
     3
 10
79.489978867000005
 20
30.154848062999999
 30
0.0
 11
78.566190066999994
 21
30.154848062999999
 31
0.0
  0
LINE
  5
2C4
  8
0
  6
CONTINUOUS
 62
     3
 10
78.604751257000004
 20
29.970090302999999
 30
0.0
 11
79.451417676999995
 21
29.970090302999999
 31
0.0
  0
LINE
  5
2C5
  8
0
  6
CONTINUOUS
 62
     3
 10
79.305221106999994
 20
29.785332542999999
 30
0.0
 11
78.750947827000005
 21
29.785332542999999
 31
0.0
  0
TEXT
  5
2C6
  8
0
  6
CONTINUOUS
 62
     3
 10
86.073252894000007
 20
29.350527274000001
 30
0.0
 40
3.149999999999999
  1
üÄ
 41
0.933333333
  7
KANJI4
  0
TEXT
  5
2C7
  8
0
  6
CONTINUOUS
 62
     3
 10
89.339161984
 20
29.405072729
 30
0.0
 40
3.149999999999999
  1
ée
 41
0.933333333
  7
KANJI4
  0
CIRCLE
  5
2C8
  8
0
  6
CONTINUOUS
 62
     3
 10
89.319934712000006
 20
32.100545455999999
 30
0.0
 40
0.3744417329999999
  0
TEXT
  5
2C9
  8
0
  6
CONTINUOUS
 62
     3
 10
88.239934712000007
 20
33.042818183000001
 30
0.0
 40
3.272727272
  1
üô
 41
0.933333333
  7
KANJI5
  0
LINE
  5
2CA
  8
0
  6
CONTINUOUS
 62
     3
 10
84.855307843999981
 20
32.574801741999991
 30
0.0
 11
84.605884868000004
 21
30.246853966
 31
0.0
  0
LINE
  5
2CB
  8
0
  6
CONTINUOUS
 62
     3
 10
81.612809155999997
 20
33.082885581999989
 30
0.0
 11
81.695950147999994
 21
32.999744589999992
 31
0.0
  0
LINE
  5
2CC
  8
0
  6
CONTINUOUS
 62
     3
 10
82.573930118999968
 20
35.808303369999997
 30
0.0
 11
84.487903536000005
 21
35.825355375999997
 31
0.0
  0
LINE
  5
2CD
  8
0
  6
CONTINUOUS
 62
     3
 10
84.187598391000009
 20
29.913029762000001
 30
0.0
 11
81.522030259999994
 21
29.939843436
 31
0.0
  0
LINE
  5
2CE
  8
0
  6
CONTINUOUS
 62
     3
 10
81.522030259999994
 20
29.939843436
 30
0.0
 11
81.513327732999997
 21
30.10589753699999
 31
0.0
  0
LINE
  5
2CF
  8
0
  6
CONTINUOUS
 62
     3
 10
81.513327732999997
 20
30.10589753699999
 30
0.0
 11
82.313139391000007
 21
30.730599520999991
 31
0.0
  0
POINT
  5
2D0
  8
0
  6
CONTINUOUS
 62
     3
 10
82.115951799999976
 20
35.360911166000001
 30
0.0
  0
LINE
  5
2D1
  8
0
  6
CONTINUOUS
 62
     3
 10
81.918445907999995
 20
35.222342845999989
 30
0.0
 11
81.612809155999997
 21
33.082885581999989
 31
0.0
  0
LINE
  5
2D2
  8
0
  6
CONTINUOUS
 62
     3
 10
84.148287159999995
 20
34.991395646000001
 30
0.0
 11
84.748749880000005
 21
35.638047805999989
 31
0.0
  0
LINE
  5
2D3
  8
0
  6
CONTINUOUS
 62
     3
 10
84.487903536000005
 20
35.825355375999997
 30
0.0
 11
84.702560439999999
 21
35.681275567
 31
0.0
  0
LINE
  5
2D4
  8
0
  6
CONTINUOUS
 62
     3
 10
84.194476600000016
 20
33.559523005999999
 30
0.0
 11
84.841128760000018
 21
33.051439166000002
 31
0.0
  0
LINE
  5
2D5
  8
0
  6
CONTINUOUS
 62
     3
 10
84.794939319999997
 20
33.083589101000001
 30
0.0
 11
84.956862947000005
 21
33.245512728000001
 31
0.0
  0
LINE
  5
2D6
  8
0
  6
CONTINUOUS
 62
     3
 10
84.938448836000006
 20
33.073647694000002
 30
0.0
 11
84.887318200000024
 21
33.048082375999989
 31
0.0
  0
LINE
  5
2D7
  8
0
  6
CONTINUOUS
 62
     3
 10
84.563992119999995
 20
32.681923646000001
 30
0.0
 11
84.855307843999981
 21
32.574801741999991
 31
0.0
  0
LINE
  5
2D8
  8
0
  6
CONTINUOUS
 62
     3
 10
84.809118404000017
 20
33.082885581999989
 30
0.0
 11
84.947686723999993
 21
33.03669614199999
 31
0.0
  0
LINE
  5
2D9
  8
0
  6
CONTINUOUS
 62
     3
 10
84.220381863
 20
29.988193102
 30
0.0
 11
84.187598391000009
 21
29.913029762000001
 31
0.0
  0
LINE
  5
2DA
  8
0
  6
CONTINUOUS
 62
     3
 10
84.206111988999993
 20
30.034382541999999
 30
0.0
 11
84.097660063999982
 21
29.913934476000001
 31
0.0
  0
LINE
  5
2DB
  8
0
  6
CONTINUOUS
 62
     3
 10
83.977708483999976
 20
32.112907342
 30
0.0
 11
84.624360644000006
 21
32.667180621999982
 31
0.0
  0
LINE
  5
2DC
  8
0
  6
CONTINUOUS
 62
     3
 10
81.885004600000002
 20
35.17615340599999
 30
0.0
 11
82.030524857000003
 21
35.29256961099999
 31
0.0
  0
LINE
  5
2DD
  8
0
  6
CONTINUOUS
 62
     3
 10
84.339996855999985
 20
34.596514730999999
 30
0.0
 11
85.032838455999993
 21
35.335545771
 31
0.0
  0
LINE
  5
2DE
  8
0
  6
CONTINUOUS
 62
     3
 10
85.032838455999993
 20
35.335545771
 30
0.0
 11
85.171406775999998
 21
35.289356331
 31
0.0
  0
LINE
  5
2DF
  8
0
  6
CONTINUOUS
 62
     3
 10
85.170897320999998
 20
35.243166891000001
 30
0.0
 11
84.938448836000006
 21
33.073647694000002
 31
0.0
  0
LINE
  5
2E0
  8
0
  6
CONTINUOUS
 62
     3
 10
84.196700770000021
 20
33.544779982000001
 30
0.0
 11
84.320434270000007
 21
34.596514730999999
 31
0.0
  0
LINE
  5
2E1
  8
0
  6
CONTINUOUS
 62
     3
 10
82.353850937000004
 20
35.658871851000001
 30
0.0
 11
82.908124216999994
 21
34.966030250999999
 31
0.0
  0
LINE
  5
2E2
  8
0
  6
CONTINUOUS
 62
     3
 10
82.400040376999996
 20
35.663064138999999
 30
0.0
 11
82.573930118999968
 21
35.808303369999997
 31
0.0
  0
LINE
  5
2E3
  8
0
  6
CONTINUOUS
 62
     3
 10
84.148287159999995
 20
34.982451812999997
 30
0.0
 11
82.908124216999994
 21
34.98634423499999
 31
0.0
  0
LINE
  5
2E4
  8
0
  6
CONTINUOUS
 62
     3
 10
81.756387361999984
 20
30.295742021999999
 30
0.0
 11
81.517294728999985
 21
30.03020275099999
 31
0.0
  0
LINE
  5
2E5
  8
0
  6
CONTINUOUS
 62
     3
 10
81.769326691000018
 20
29.937355814
 30
0.0
 11
82.482036760000014
 21
30.728900536000001
 31
0.0
  0
LINE
  5
2E6
  8
0
  6
CONTINUOUS
 62
     3
 10
82.814655813999991
 20
30.725554631000001
 30
0.0
 11
82.101945744999995
 21
29.934009909
 31
0.0
  0
LINE
  5
2E7
  8
0
  6
CONTINUOUS
 62
     3
 10
82.434564797999997
 20
29.930664004
 30
0.0
 11
83.147274866999979
 21
30.722208725999991
 31
0.0
  0
LINE
  5
2E8
  8
0
  6
CONTINUOUS
 62
     3
 10
83.934109703000004
 20
31.517284773
 30
0.0
 11
84.838949584999995
 21
32.42212465499999
 31
0.0
  0
LINE
  5
2E9
  8
0
  6
CONTINUOUS
 62
     3
 10
84.796621102000003
 20
32.027058816999997
 30
0.0
 11
83.890017533000005
 21
31.120455247999999
 31
0.0
  0
LINE
  5
2EA
  8
0
  6
CONTINUOUS
 62
     3
 10
83.977708483999976
 20
31.881960141999979
 30
0.0
 11
84.716739523999991
 21
32.574801741999991
 31
0.0
  0
LINE
  5
2EB
  8
0
  6
CONTINUOUS
 62
     3
 10
82.29773874899999
 20
32.555563309999989
 30
0.0
 11
82.979773834000014
 21
33.313040010999991
 31
0.0
  0
LINE
  5
2EC
  8
0
  6
CONTINUOUS
 62
     3
 10
83.315338120000007
 20
33.312965118000001
 30
0.0
 11
82.560414184999999
 21
32.474537148000003
 31
0.0
  0
LINE
  5
2ED
  8
0
  6
CONTINUOUS
 62
     3
 10
82.896773217000018
 20
32.475344909
 30
0.0
 11
83.650902407000004
 21
33.312890224999997
 31
0.0
  0
LINE
  5
2EE
  8
0
  6
CONTINUOUS
 62
     3
 10
83.569491279999994
 20
32.476960431999991
 30
0.0
 11
84.128343413999986
 21
33.097628606000001
 31
0.0
  0
LINE
  5
2EF
  8
0
  6
CONTINUOUS
 62
     3
 10
84.240666039999994
 20
33.513333566
 30
0.0
 11
85.072075960000006
 21
34.344743485999999
 31
0.0
  0
LINE
  5
2F0
  8
0
  6
CONTINUOUS
 62
     3
 10
84.379234359999998
 20
33.373358851999988
 30
0.0
 11
85.041519911999998
 21
34.035644404000003
 31
0.0
  0
LINE
  5
2F1
  8
0
  6
CONTINUOUS
 62
     3
 10
84.999191428999993
 20
33.640578566000002
 30
0.0
 11
84.610181559999987
 21
33.251568696999982
 31
0.0
  0
LINE
  5
2F2
  8
0
  6
CONTINUOUS
 62
     3
 10
85.079027896000014
 20
34.642704170999991
 30
0.0
 11
84.201428536000009
 21
33.811294251
 31
0.0
  0
LINE
  5
2F3
  8
0
  6
CONTINUOUS
 62
     3
 10
85.125217336000006
 20
35.012219690999991
 30
0.0
 11
84.293807416000007
 21
34.180809771
 31
0.0
  0
LINE
  5
2F4
  8
0
  6
CONTINUOUS
 62
     3
 10
81.644292958999969
 20
33.303272198000002
 30
0.0
 11
82.630145369000005
 21
34.289124608000002
 31
0.0
  0
LINE
  5
2F5
  8
0
  6
CONTINUOUS
 62
     3
 10
81.761872076999992
 20
34.126326026999998
 30
0.0
 11
82.446229817000003
 21
34.81068376599999
 31
0.0
  0
LINE
  5
2F6
  8
0
  6
CONTINUOUS
 62
     3
 10
82.677177016999977
 20
34.688893610999997
 30
0.0
 11
81.703082517999988
 21
33.714799112000001
 31
0.0
  0
LINE
  5
2F7
  8
0
  6
CONTINUOUS
 62
     3
 10
82.261472057000006
 20
34.978663361999992
 30
0.0
 11
81.820661635999997
 21
34.53785294099999
 31
0.0
  0
LINE
  5
2F8
  8
0
  6
CONTINUOUS
 62
     3
 10
81.879451195000001
 20
34.949379856
 30
0.0
 11
82.122903737000001
 21
35.192832396999997
 31
0.0
  0
LINE
  5
2F9
  8
0
  6
CONTINUOUS
 62
     3
 10
83.649366372000003
 20
35.817884665999991
 30
0.0
 11
82.900665085
 21
34.986367647000002
 31
0.0
  0
LINE
  5
2FA
  8
0
  6
CONTINUOUS
 62
     3
 10
83.235350968999995
 20
34.985317189
 30
0.0
 11
83.987712267999996
 21
35.820899062999999
 31
0.0
  0
LINE
  5
2FB
  8
0
  6
CONTINUOUS
 62
     3
 10
84.326058162999999
 20
35.823913460999989
 30
0.0
 11
83.570036852000001
 21
34.984266730999991
 31
0.0
  0
LINE
  5
2FC
  8
0
  6
CONTINUOUS
 62
     3
 10
83.904722736000025
 20
34.983216272999996
 30
0.0
 11
84.597034065000003
 21
35.752105899999997
 31
0.0
  0
LINE
  5
2FD
  8
0
  6
CONTINUOUS
 62
     3
 10
82.972674581000007
 20
35.811855871999988
 30
0.0
 11
82.585392198999983
 21
35.381735210999999
 31
0.0
  0
LINE
  5
2FE
  8
0
  6
CONTINUOUS
 62
     3
 10
82.713078125999985
 20
35.150788010999989
 30
0.0
 11
83.311020476999985
 21
35.814870268999996
 31
0.0
  0
LINE
  5
2FF
  8
0
  6
CONTINUOUS
 62
     3
 10
82.416117112999999
 20
35.566492971000002
 30
0.0
 11
82.634328686000003
 21
35.808841473999991
 31
0.0
  0
LINE
  5
300
  8
0
  6
CONTINUOUS
 62
     3
 10
85.072075960000006
 20
35.17615340599999
 30
0.0
 11
84.379234359999998
 21
34.483311805999982
 31
0.0
  0
LINE
  5
301
  8
0
  6
CONTINUOUS
 62
     3
 10
83.409256119999966
 20
30.695777726999999
 30
0.0
 11
84.194476600000016
 21
29.956746686999988
 31
0.0
  0
LINE
  5
302
  8
0
  6
CONTINUOUS
 62
     3
 10
83.87115052
 20
30.880535487
 30
0.0
 11
84.563992119999995
 21
30.23388332699999
 31
0.0
  0
LINE
  5
303
  8
0
  6
CONTINUOUS
 62
     3
 10
82.313139391000007
 20
30.730599520999991
 30
0.0
 11
83.363066680000003
 21
30.72003801699999
 31
0.0
  0
LINE
  5
304
  8
0
  6
CONTINUOUS
 62
     3
 10
83.417518849999979
 20
30.649588287
 30
0.0
 11
82.767183850999999
 21
29.927318098000001
 31
0.0
  0
LINE
  5
305
  8
0
  6
CONTINUOUS
 62
     3
 10
83.099802904000001
 20
29.923972193000001
 30
0.0
 11
83.628383094
 21
30.511019966999989
 31
0.0
  0
LINE
  5
306
  8
0
  6
CONTINUOUS
 62
     3
 10
83.797658179999999
 20
30.326262206999999
 30
0.0
 11
83.432421957000003
 21
29.92062628699999
 31
0.0
  0
LINE
  5
307
  8
0
  6
CONTINUOUS
 62
     3
 10
83.765041011000008
 20
29.917280381999969
 30
0.0
 11
83.966933264999966
 21
30.141504446999999
 31
0.0
  0
LINE
  5
308
  8
0
  6
CONTINUOUS
 62
     3
 10
83.868491941999991
 20
30.926724926999999
 30
0.0
 11
84.005422148000008
 21
32.159096781999999
 31
0.0
  0
LINE
  5
309
  8
0
  6
CONTINUOUS
 62
     3
 10
83.917339960000021
 20
30.795040319999998
 30
0.0
 11
84.754292618999997
 21
31.631992979
 31
0.0
  0
LINE
  5
30A
  8
0
  6
CONTINUOUS
 62
     3
 10
84.711964136999995
 20
31.236927140999999
 30
0.0
 11
84.102097719999975
 21
30.627060724
 31
0.0
  0
LINE
  5
30B
  8
0
  6
CONTINUOUS
 62
     3
 10
84.333044920000034
 20
30.505270569
 30
0.0
 11
84.669635653999975
 21
30.841861303000002
 31
0.0
  0
LINE
  5
30C
  8
0
  6
CONTINUOUS
 62
     3
 10
84.627307170999984
 20
30.446795465000001
 30
0.0
 11
84.471613239999968
 21
30.291101532999999
 31
0.0
  0
LINE
  5
30D
  8
0
  6
CONTINUOUS
 62
     3
 10
84.605884868000004
 20
30.246853966
 30
0.0
 11
84.517802680000003
 21
30.202812871999988
 31
0.0
  0
LINE
  5
30E
  8
0
  6
CONTINUOUS
 62
     3
 10
83.732582200000024
 20
32.477352093
 30
0.0
 11
82.406520622000002
 21
32.474167573999978
 31
0.0
  0
LINE
  5
30F
  8
0
  6
CONTINUOUS
 62
     3
 10
81.654057399999999
 20
33.005249726000002
 30
0.0
 11
82.577846199999996
 21
33.790470206000002
 31
0.0
  0
LINE
  5
310
  8
0
  6
CONTINUOUS
 62
     3
 10
82.069762359999999
 20
32.774302526
 30
0.0
 11
82.762603960000035
 21
33.282386365999997
 31
0.0
  0
LINE
  5
311
  8
0
  6
CONTINUOUS
 62
     3
 10
82.571480144999995
 20
33.790470206000002
 30
0.0
 11
82.669293076999992
 21
34.621880126000001
 31
0.0
  0
LINE
  5
312
  8
0
  6
CONTINUOUS
 62
     3
 10
82.406520622000002
 20
32.474167573999978
 30
0.0
 11
82.023572920000007
 21
32.76070713499999
 31
0.0
  0
LINE
  5
313
  8
0
  6
CONTINUOUS
 62
     3
 10
83.778771640000002
 20
33.282386365999997
 30
0.0
 11
84.28685548
 21
32.91287084599999
 31
0.0
  0
LINE
  5
314
  8
0
  6
CONTINUOUS
 62
     3
 10
83.875890011999999
 20
33.190007485999999
 30
0.0
 11
83.233132248999993
 21
32.476152671000001
 31
0.0
  0
LINE
  5
315
  8
0
  6
CONTINUOUS
 62
     3
 10
82.730593603999992
 20
33.313095623999978
 30
0.0
 11
83.732582200000024
 21
33.312871995999998
 31
0.0
  0
LINE
  5
316
  8
0
  6
CONTINUOUS
 62
     3
 10
83.732582200000024
 20
32.497165885999998
 30
0.0
 11
84.28685548
 21
32.932666320999992
 31
0.0
  0
LINE
  5
317
  8
0
  6
CONTINUOUS
 62
     3
 10
82.030524857000003
 20
35.335545771
 30
0.0
 11
82.716767965000017
 21
34.596514730999999
 31
0.0
  0
LINE
  5
318
  8
0
  6
CONTINUOUS
 62
     3
 10
81.443186418999986
 20
32.481062496999989
 30
0.0
 11
81.588706674999997
 21
32.597478701999997
 31
0.0
  0
LINE
  5
319
  8
0
  6
CONTINUOUS
 62
     3
 10
81.202474776999992
 20
30.608181289000001
 30
0.0
 11
82.188327186999985
 21
31.594033699000001
 31
0.0
  0
LINE
  5
31A
  8
0
  6
CONTINUOUS
 62
     3
 10
81.320053894999987
 20
31.431235118
 30
0.0
 11
82.004411634999997
 21
32.115592857999978
 31
0.0
  0
LINE
  5
31B
  8
0
  6
CONTINUOUS
 62
     3
 10
82.235358835
 20
31.993802701999979
 30
0.0
 11
81.261264336000011
 21
31.019708203
 31
0.0
  0
LINE
  5
31C
  8
0
  6
CONTINUOUS
 62
     3
 10
81.819653875
 20
32.283572452999998
 30
0.0
 11
81.378843453999991
 21
31.842762033
 31
0.0
  0
LINE
  5
31D
  8
0
  6
CONTINUOUS
 62
     3
 10
81.437633013999985
 20
32.254288946999999
 30
0.0
 11
81.681085554999981
 21
32.497741488000003
 31
0.0
  0
LINE
  5
31E
  8
0
  6
CONTINUOUS
 62
     3
 10
81.212239218999997
 20
30.310158817000001
 30
0.0
 11
82.136028018000005
 21
31.095379297000001
 31
0.0
  0
LINE
  5
31F
  8
0
  6
CONTINUOUS
 62
     3
 10
81.588706674999997
 20
32.640454861999999
 30
0.0
 11
82.274949782999997
 21
31.901423821999991
 31
0.0
  0
LINE
  5
320
  8
0
  6
CONTINUOUS
 62
     3
 10
81.170990973999977
 20
30.387794672999998
 30
0.0
 11
81.254131966000003
 21
30.304653680999991
 31
0.0
  0
LINE
  5
321
  8
0
  6
CONTINUOUS
 62
     3
 10
81.476627726999993
 20
32.571433755000001
 30
0.0
 11
81.170990973999977
 21
30.431976491
 31
0.0
  0
LINE
  5
322
  8
0
  6
CONTINUOUS
 62
     3
 10
82.289661984999995
 20
31.940590910000001
 30
0.0
 11
82.112934711999984
 21
31.012772729000002
 31
0.0
  0
LINE
  5
323
  8
0
  6
CONTINUOUS
 62
     3
 10
56.224298351000002
 20
36.65363636499999
 30
0.0
 11
92.663692287000003
 21
36.65363636499999
 31
0.0
  0
LINE
  5
324
  8
0
  6
CONTINUOUS
 62
     3
 10
92.663692287000003
 20
36.65363636499999
 30
0.0
 11
92.663692287000003
 21
29.253636364999998
 31
0.0
  0
LINE
  5
325
  8
0
  6
CONTINUOUS
 62
     3
 10
92.663692287000003
 20
29.253636364999998
 30
0.0
 11
56.224298351000002
 21
29.253636364999998
 31
0.0
  0
LINE
  5
326
  8
0
  6
CONTINUOUS
 62
     3
 10
56.224298351000002
 20
29.253636364999998
 30
0.0
 11
56.224298351000002
 21
36.65363636499999
 31
0.0
  0
LINE
  5
327
  8
0
  6
CONTINUOUS
 62
     3
 10
92.663692287000003
 20
29.253636364999998
 30
0.0
 11
92.663692287000003
 21
36.65363636499999
 31
0.0
  0
LINE
  5
328
  8
0
  6
CONTINUOUS
 62
     3
 10
56.224298351000002
 20
36.65363636499999
 30
0.0
 11
56.224298351000002
 21
29.253636364999998
 31
0.0
  0
TEXT
  5
329
  8
0
  6
CONTINUOUS
 62
     4
 10
69.451571076999997
 20
9.8878787910000003
 30
0.0
 40
4.5454545450000001
  1
48
 41
0.4666666670000001
  7
KANJI2
  0
LINE
  5
32A
  8
0
  6
CONTINUOUS
 62
     4
 10
48.763692290999998
 20
45.0
 30
0.0
 11
34.763692290999991
 21
45.0
 31
0.0
  0
LINE
  5
32B
  8
0
  6
CONTINUOUS
 62
     4
 10
48.763692290999998
 20
21.0
 30
0.0
 11
34.763692290999991
 21
21.0
 31
0.0
  0
LINE
  5
344
  8
0
  6
CONTINUOUS
 62
     3
 10
58.255868813450711
 20
79.638029549348758
 30
0.0
 11
58.255868813450711
 21
78.045906473348751
 31
0.0
  0
LINE
  5
345
  8
0
  6
CONTINUOUS
 62
     3
 10
60.85556170442856
 20
78.058388237840248
 30
0.0
 11
60.85556170442856
 21
79.650511313840269
 31
0.0
  0
LINE
  5
34D
  8
0
  6
CONTINUOUS
 62
     3
 10
60.843068812450717
 20
78.045906451076419
 30
0.0
 11
58.255868813450711
 21
78.045906451076419
 31
0.0
  0
LINE
  5
358
  8
0
  6
CONTINUOUS
 62
     3
 10
86.897353652716617
 20
79.613147683028615
 30
0.0
 11
86.897353652716617
 21
78.021024607028622
 31
0.0
  0
LINE
  5
359
  8
0
  6
CONTINUOUS
 62
     3
 10
89.484553651716638
 20
78.021024584756304
 30
0.0
 11
86.897353652716617
 21
78.021024584756304
 31
0.0
  0
LINE
  5
35A
  8
0
  6
CONTINUOUS
 62
     3
 10
89.497046543694466
 20
78.033506371520133
 30
0.0
 11
89.497046543694466
 21
79.625629447520126
 31
0.0
  0
ENDSEC
  0
EOF
