  0
SECTION
  2
HEADER
  9
$ACADVER
  1
AC1015
  9
$ACADMAINTVER
 70
     6
  9
$DWGCODEPAGE
  3
ANSI_932
  9
$INSBASE
 10
0.0
 20
0.0
 30
0.0
  9
$EXTMIN
 10
0.0
 20
39.22
 30
0.0
  9
$EXTMAX
 10
304.6
 20
278.1416666666667
 30
0.2
  9
$LIMMIN
 10
0.0
 20
0.0
  9
$LIMMAX
 10
12.0
 20
9.0
  9
$ORTHOMODE
 70
     0
  9
$REGENMODE
 70
     1
  9
$FILLMODE
 70
     1
  9
$QTEXTMODE
 70
     0
  9
$MIRRTEXT
 70
     1
  9
$LTSCALE
 40
1.0
  9
$ATTMODE
 70
     1
  9
$TEXTSIZE
 40
0.2
  9
$TRACEWID
 40
0.05
  9
$TEXTSTYLE
  7
STANDARD
  9
$CLAYER
  8
0
  9
$CELTYPE
  6
CONTINUOUS
  9
$CECOLOR
 62
   256
  9
$CELTSCALE
 40
1.0
  9
$DISPSILH
 70
     0
  9
$DIMSCALE
 40
1.0
  9
$DIMASZ
 40
0.18
  9
$DIMEXO
 40
0.0625
  9
$DIMDLI
 40
0.38
  9
$DIMRND
 40
0.0
  9
$DIMDLE
 40
0.0
  9
$DIMEXE
 40
0.18
  9
$DIMTP
 40
0.0
  9
$DIMTM
 40
0.0
  9
$DIMTXT
 40
0.18
  9
$DIMCEN
 40
0.09
  9
$DIMTSZ
 40
0.0
  9
$DIMTOL
 70
     0
  9
$DIMLIM
 70
     0
  9
$DIMTIH
 70
     1
  9
$DIMTOH
 70
     1
  9
$DIMSE1
 70
     0
  9
$DIMSE2
 70
     0
  9
$DIMTAD
 70
     0
  9
$DIMZIN
 70
     0
  9
$DIMBLK
  1

  9
$DIMASO
 70
     1
  9
$DIMSHO
 70
     1
  9
$DIMPOST
  1

  9
$DIMAPOST
  1

  9
$DIMALT
 70
     0
  9
$DIMALTD
 70
     2
  9
$DIMALTF
 40
25.4
  9
$DIMLFAC
 40
1.0
  9
$DIMTOFL
 70
     0
  9
$DIMTVP
 40
0.0
  9
$DIMTIX
 70
     0
  9
$DIMSOXD
 70
     0
  9
$DIMSAH
 70
     0
  9
$DIMBLK1
  1

  9
$DIMBLK2
  1

  9
$DIMSTYLE
  2
STANDARD
  9
$DIMCLRD
 70
     0
  9
$DIMCLRE
 70
     0
  9
$DIMCLRT
 70
     0
  9
$DIMTFAC
 40
1.0
  9
$DIMGAP
 40
0.09
  9
$DIMJUST
 70
     0
  9
$DIMSD1
 70
     0
  9
$DIMSD2
 70
     0
  9
$DIMTOLJ
 70
     1
  9
$DIMTZIN
 70
     0
  9
$DIMALTZ
 70
     0
  9
$DIMALTTZ
 70
     0
  9
$DIMUPT
 70
     0
  9
$DIMDEC
 70
     4
  9
$DIMTDEC
 70
     4
  9
$DIMALTU
 70
     2
  9
$DIMALTTD
 70
     2
  9
$DIMTXSTY
  7
STANDARD
  9
$DIMAUNIT
 70
     0
  9
$DIMADEC
 70
     0
  9
$DIMALTRND
 40
0.0
  9
$DIMAZIN
 70
     0
  9
$DIMDSEP
 70
    46
  9
$DIMATFIT
 70
     3
  9
$DIMFRAC
 70
     0
  9
$DIMLDRBLK
  1

  9
$DIMLUNIT
 70
     2
  9
$DIMLWD
 70
    -2
  9
$DIMLWE
 70
    -2
  9
$DIMTMOVE
 70
     0
  9
$LUNITS
 70
     2
  9
$LUPREC
 70
     4
  9
$SKETCHINC
 40
0.1
  9
$FILLETRAD
 40
0.0
  9
$AUNITS
 70
     0
  9
$AUPREC
 70
     0
  9
$MENU
  1
.
  9
$ELEVATION
 40
0.0
  9
$PELEVATION
 40
0.0
  9
$THICKNESS
 40
0.0
  9
$LIMCHECK
 70
     0
  9
$CHAMFERA
 40
0.0
  9
$CHAMFERB
 40
0.0
  9
$CHAMFERC
 40
0.0
  9
$CHAMFERD
 40
0.0
  9
$SKPOLY
 70
     0
  9
$TDCREATE
 40
2452152.866759317
  9
$TDUCREATE
 40
2452152.491759317
  9
$TDUPDATE
 40
2452751.606309374
  9
$TDUUPDATE
 40
2452751.231309374
  9
$TDINDWG
 40
0.0152910417
  9
$TDUSRTIMER
 40
0.0152878009
  9
$USRTIMER
 70
     1
  9
$ANGBASE
 50
0.0
  9
$ANGDIR
 70
     0
  9
$PDMODE
 70
     0
  9
$PDSIZE
 40
0.0
  9
$PLINEWID
 40
0.0
  9
$SPLFRAME
 70
     0
  9
$SPLINETYPE
 70
     6
  9
$SPLINESEGS
 70
     8
  9
$HANDSEED
  5
1264
  9
$SURFTAB1
 70
     6
  9
$SURFTAB2
 70
     6
  9
$SURFTYPE
 70
     6
  9
$SURFU
 70
     6
  9
$SURFV
 70
     6
  9
$UCSBASE
  2

  9
$UCSNAME
  2

  9
$UCSORG
 10
0.0
 20
0.0
 30
0.0
  9
$UCSXDIR
 10
1.0
 20
0.0
 30
0.0
  9
$UCSYDIR
 10
0.0
 20
1.0
 30
0.0
  9
$UCSORTHOREF
  2

  9
$UCSORTHOVIEW
 70
     0
  9
$UCSORGTOP
 10
0.0
 20
0.0
 30
0.0
  9
$UCSORGBOTTOM
 10
0.0
 20
0.0
 30
0.0
  9
$UCSORGLEFT
 10
0.0
 20
0.0
 30
0.0
  9
$UCSORGRIGHT
 10
0.0
 20
0.0
 30
0.0
  9
$UCSORGFRONT
 10
0.0
 20
0.0
 30
0.0
  9
$UCSORGBACK
 10
0.0
 20
0.0
 30
0.0
  9
$PUCSBASE
  2

  9
$PUCSNAME
  2

  9
$PUCSORG
 10
0.0
 20
0.0
 30
0.0
  9
$PUCSXDIR
 10
1.0
 20
0.0
 30
0.0
  9
$PUCSYDIR
 10
0.0
 20
1.0
 30
0.0
  9
$PUCSORTHOREF
  2

  9
$PUCSORTHOVIEW
 70
     0
  9
$PUCSORGTOP
 10
0.0
 20
0.0
 30
0.0
  9
$PUCSORGBOTTOM
 10
0.0
 20
0.0
 30
0.0
  9
$PUCSORGLEFT
 10
0.0
 20
0.0
 30
0.0
  9
$PUCSORGRIGHT
 10
0.0
 20
0.0
 30
0.0
  9
$PUCSORGFRONT
 10
0.0
 20
0.0
 30
0.0
  9
$PUCSORGBACK
 10
0.0
 20
0.0
 30
0.0
  9
$USERI1
 70
     0
  9
$USERI2
 70
     0
  9
$USERI3
 70
     0
  9
$USERI4
 70
     0
  9
$USERI5
 70
     0
  9
$USERR1
 40
0.0
  9
$USERR2
 40
0.0
  9
$USERR3
 40
0.0
  9
$USERR4
 40
0.0
  9
$USERR5
 40
0.0
  9
$WORLDVIEW
 70
     1
  9
$SHADEDGE
 70
     3
  9
$SHADEDIF
 70
    70
  9
$TILEMODE
 70
     1
  9
$MAXACTVP
 70
    64
  9
$PINSBASE
 10
0.0
 20
0.0
 30
0.0
  9
$PLIMCHECK
 70
     0
  9
$PEXTMIN
 10
1.000000000000000E+20
 20
1.000000000000000E+20
 30
1.000000000000000E+20
  9
$PEXTMAX
 10
-1.000000000000000E+20
 20
-1.000000000000000E+20
 30
-1.000000000000000E+20
  9
$PLIMMIN
 10
0.0
 20
0.0
  9
$PLIMMAX
 10
12.0
 20
9.0
  9
$UNITMODE
 70
     0
  9
$VISRETAIN
 70
     1
  9
$PLINEGEN
 70
     0
  9
$PSLTSCALE
 70
     1
  9
$TREEDEPTH
 70
  3020
  9
$CMLSTYLE
  2
Standard
  9
$CMLJUST
 70
     0
  9
$CMLSCALE
 40
1.0
  9
$PROXYGRAPHICS
 70
     1
  9
$MEASUREMENT
 70
     0
  9
$CELWEIGHT
370
    -1
  9
$ENDCAPS
280
     0
  9
$JOINSTYLE
280
     0
  9
$LWDISPLAY
290
     0
  9
$INSUNITS
 70
     0
  9
$HYPERLINKBASE
  1

  9
$STYLESHEET
  1

  9
$XEDIT
290
     1
  9
$CEPSNTYPE
380
     0
  9
$PSTYLEMODE
290
     1
  9
$FINGERPRINTGUID
  2
{EE270DE2-4A8D-11D7-9C19-0040267F10D4}
  9
$VERSIONGUID
  2
{C527DE92-7402-11D7-9C19-0040267F10D4}
  9
$EXTNAMES
290
     1
  9
$PSVPSCALE
 40
0.0
  9
$OLESTARTUP
290
     0
  0
ENDSEC
  0
SECTION
  2
CLASSES
  0
CLASS
  1
ACDBDICTIONARYWDFLT
  2
AcDbDictionaryWithDefault
  3
AutoCAD 2000
 90
        0
280
     0
281
     0
  0
CLASS
  1
ACDBPLACEHOLDER
  2
AcDbPlaceHolder
  3
AutoCAD 2000
 90
        0
280
     0
281
     0
  0
CLASS
  1
LAYOUT
  2
AcDbLayout
  3
AutoCAD 2000
 90
        0
280
     0
281
     0
  0
ENDSEC
  0
SECTION
  2
TABLES
  0
TABLE
  2
VPORT
  5
90F
330
0
100
AcDbSymbolTable
 70
     3
  0
VPORT
  5
1263
330
90F
100
AcDbSymbolTableRecord
100
AcDbViewportTableRecord
  2
*Active
 70
     0
 10
0.0
 20
0.0
 11
1.0
 21
1.0
 12
204.4191245704883
 22
165.8213833338234
 13
0.0
 23
0.0
 14
1.0
 24
1.0
 15
0.0
 25
0.0
 16
0.0
 26
0.0
 36
1.0
 17
0.0
 27
0.0
 37
0.0
 40
37.02423440731138
 41
2.175977653631284
 42
50.0
 43
0.0
 44
0.0
 50
0.0
 51
0.0
 71
     0
 72
   100
 73
     1
 74
     1
 75
     0
 76
     0
 77
     0
 78
     0
281
     0
 65
     1
110
0.0
120
0.0
130
0.0
111
1.0
121
0.0
131
0.0
112
0.0
122
1.0
132
0.0
 79
     0
146
0.0
  0
ENDTAB
  0
TABLE
  2
LTYPE
  5
90C
330
0
100
AcDbSymbolTable
 70
     4
  0
LTYPE
  5
91A
330
90C
100
AcDbSymbolTableRecord
100
AcDbLinetypeTableRecord
  2
ByBlock
 70
     0
  3

 72
    65
 73
     0
 40
0.0
  0
LTYPE
  5
91B
330
90C
100
AcDbSymbolTableRecord
100
AcDbLinetypeTableRecord
  2
ByLayer
 70
     0
  3

 72
    65
 73
     0
 40
0.0
  0
LTYPE
  5
91C
330
90C
100
AcDbSymbolTableRecord
100
AcDbLinetypeTableRecord
  2
CONTINUOUS
 70
     0
  3
Solid line
 72
    65
 73
     0
 40
0.0
  0
LTYPE
  5
92A
330
90C
100
AcDbSymbolTableRecord
100
AcDbLinetypeTableRecord
  2
LTYPE1
 70
     0
  3
HIDDEN
 72
    65
 73
     2
 40
3.0
 49
1.8
 74
     0
 49
-1.199999999999999
 74
     0
  0
LTYPE
  5
92B
330
90C
100
AcDbSymbolTableRecord
100
AcDbLinetypeTableRecord
  2
LTYPE2
 70
     0
  3
HIDDEN
 72
    65
 73
     2
 40
1.5
 49
0.9
 74
     0
 49
-0.6
 74
     0
  0
LTYPE
  5
92C
330
90C
100
AcDbSymbolTableRecord
100
AcDbLinetypeTableRecord
  2
LTYPE3
 70
     0
  3
CENTER
 72
    65
 73
     4
 40
15.0
 49
10.5
 74
     0
 49
-1.5
 74
     0
 49
1.5
 74
     0
 49
-1.5
 74
     0
  0
ENDTAB
  0
TABLE
  2
LAYER
  5
909
330
0
100
AcDbSymbolTable
 70
   128
  0
LAYER
  5
917
330
909
100
AcDbSymbolTableRecord
100
AcDbLayerTableRecord
  2
0
 70
     0
 62
     7
  6
CONTINUOUS
370
    -3
390
916
  0
LAYER
  5
92D
330
909
100
AcDbSymbolTableRecord
100
AcDbLayerTableRecord
  2
1
 70
     0
 62
     7
  6
CONTINUOUS
370
    -3
390
916
  0
LAYER
  5
92E
330
909
100
AcDbSymbolTableRecord
100
AcDbLayerTableRecord
  2
2
 70
     0
 62
     7
  6
CONTINUOUS
370
    -3
390
916
  0
LAYER
  5
92F
330
909
100
AcDbSymbolTableRecord
100
AcDbLayerTableRecord
  2
3
 70
     0
 62
     7
  6
CONTINUOUS
370
    -3
390
916
  0
LAYER
  5
930
330
909
100
AcDbSymbolTableRecord
100
AcDbLayerTableRecord
  2
4
 70
     0
 62
     7
  6
CONTINUOUS
370
    -3
390
916
  0
LAYER
  5
931
330
909
100
AcDbSymbolTableRecord
100
AcDbLayerTableRecord
  2
5
 70
     0
 62
     7
  6
CONTINUOUS
370
    -3
390
916
  0
LAYER
  5
932
330
909
100
AcDbSymbolTableRecord
100
AcDbLayerTableRecord
  2
6
 70
     0
 62
     7
  6
CONTINUOUS
370
    -3
390
916
  0
LAYER
  5
933
330
909
100
AcDbSymbolTableRecord
100
AcDbLayerTableRecord
  2
7
 70
     0
 62
     7
  6
CONTINUOUS
370
    -3
390
916
  0
LAYER
  5
934
330
909
100
AcDbSymbolTableRecord
100
AcDbLayerTableRecord
  2
8
 70
     0
 62
     7
  6
CONTINUOUS
370
    -3
390
916
  0
LAYER
  5
935
330
909
100
AcDbSymbolTableRecord
100
AcDbLayerTableRecord
  2
9
 70
     0
 62
     7
  6
CONTINUOUS
370
    -3
390
916
  0
LAYER
  5
936
330
909
100
AcDbSymbolTableRecord
100
AcDbLayerTableRecord
  2
10
 70
     0
 62
     7
  6
CONTINUOUS
370
    -3
390
916
  0
LAYER
  5
937
330
909
100
AcDbSymbolTableRecord
100
AcDbLayerTableRecord
  2
11
 70
     0
 62
     7
  6
CONTINUOUS
370
    -3
390
916
  0
LAYER
  5
938
330
909
100
AcDbSymbolTableRecord
100
AcDbLayerTableRecord
  2
12
 70
     0
 62
     7
  6
CONTINUOUS
370
    -3
390
916
  0
LAYER
  5
939
330
909
100
AcDbSymbolTableRecord
100
AcDbLayerTableRecord
  2
13
 70
     0
 62
     7
  6
CONTINUOUS
370
    -3
390
916
  0
LAYER
  5
93A
330
909
100
AcDbSymbolTableRecord
100
AcDbLayerTableRecord
  2
14
 70
     0
 62
     7
  6
CONTINUOUS
370
    -3
390
916
  0
LAYER
  5
93B
330
909
100
AcDbSymbolTableRecord
100
AcDbLayerTableRecord
  2
15
 70
     0
 62
     7
  6
CONTINUOUS
370
    -3
390
916
  0
LAYER
  5
93C
330
909
100
AcDbSymbolTableRecord
100
AcDbLayerTableRecord
  2
16
 70
     0
 62
     7
  6
CONTINUOUS
370
    -3
390
916
  0
LAYER
  5
93D
330
909
100
AcDbSymbolTableRecord
100
AcDbLayerTableRecord
  2
17
 70
     0
 62
     7
  6
CONTINUOUS
370
    -3
390
916
  0
LAYER
  5
93E
330
909
100
AcDbSymbolTableRecord
100
AcDbLayerTableRecord
  2
18
 70
     0
 62
     7
  6
CONTINUOUS
370
    -3
390
916
  0
LAYER
  5
93F
330
909
100
AcDbSymbolTableRecord
100
AcDbLayerTableRecord
  2
19
 70
     0
 62
     7
  6
CONTINUOUS
370
    -3
390
916
  0
LAYER
  5
940
330
909
100
AcDbSymbolTableRecord
100
AcDbLayerTableRecord
  2
20
 70
     0
 62
     7
  6
CONTINUOUS
370
    -3
390
916
  0
LAYER
  5
941
330
909
100
AcDbSymbolTableRecord
100
AcDbLayerTableRecord
  2
21
 70
     0
 62
     7
  6
CONTINUOUS
370
    -3
390
916
  0
LAYER
  5
942
330
909
100
AcDbSymbolTableRecord
100
AcDbLayerTableRecord
  2
22
 70
     0
 62
     7
  6
CONTINUOUS
370
    -3
390
916
  0
LAYER
  5
943
330
909
100
AcDbSymbolTableRecord
100
AcDbLayerTableRecord
  2
23
 70
     0
 62
     7
  6
CONTINUOUS
370
    -3
390
916
  0
LAYER
  5
944
330
909
100
AcDbSymbolTableRecord
100
AcDbLayerTableRecord
  2
24
 70
     0
 62
     7
  6
CONTINUOUS
370
    -3
390
916
  0
LAYER
  5
945
330
909
100
AcDbSymbolTableRecord
100
AcDbLayerTableRecord
  2
25
 70
     0
 62
     7
  6
CONTINUOUS
370
    -3
390
916
  0
LAYER
  5
946
330
909
100
AcDbSymbolTableRecord
100
AcDbLayerTableRecord
  2
26
 70
     0
 62
     7
  6
CONTINUOUS
370
    -3
390
916
  0
LAYER
  5
947
330
909
100
AcDbSymbolTableRecord
100
AcDbLayerTableRecord
  2
27
 70
     0
 62
     7
  6
CONTINUOUS
370
    -3
390
916
  0
LAYER
  5
948
330
909
100
AcDbSymbolTableRecord
100
AcDbLayerTableRecord
  2
28
 70
     0
 62
     7
  6
CONTINUOUS
370
    -3
390
916
  0
LAYER
  5
949
330
909
100
AcDbSymbolTableRecord
100
AcDbLayerTableRecord
  2
29
 70
     0
 62
     7
  6
CONTINUOUS
370
    -3
390
916
  0
LAYER
  5
94A
330
909
100
AcDbSymbolTableRecord
100
AcDbLayerTableRecord
  2
30
 70
     0
 62
     7
  6
CONTINUOUS
370
    -3
390
916
  0
LAYER
  5
94B
330
909
100
AcDbSymbolTableRecord
100
AcDbLayerTableRecord
  2
31
 70
     0
 62
     7
  6
CONTINUOUS
370
    -3
390
916
  0
LAYER
  5
94C
330
909
100
AcDbSymbolTableRecord
100
AcDbLayerTableRecord
  2
32
 70
     0
 62
     7
  6
CONTINUOUS
370
    -3
390
916
  0
LAYER
  5
94D
330
909
100
AcDbSymbolTableRecord
100
AcDbLayerTableRecord
  2
33
 70
     0
 62
     7
  6
CONTINUOUS
370
    -3
390
916
  0
LAYER
  5
94E
330
909
100
AcDbSymbolTableRecord
100
AcDbLayerTableRecord
  2
34
 70
     0
 62
     7
  6
CONTINUOUS
370
    -3
390
916
  0
LAYER
  5
94F
330
909
100
AcDbSymbolTableRecord
100
AcDbLayerTableRecord
  2
35
 70
     0
 62
     7
  6
CONTINUOUS
370
    -3
390
916
  0
LAYER
  5
950
330
909
100
AcDbSymbolTableRecord
100
AcDbLayerTableRecord
  2
36
 70
     0
 62
     7
  6
CONTINUOUS
370
    -3
390
916
  0
LAYER
  5
951
330
909
100
AcDbSymbolTableRecord
100
AcDbLayerTableRecord
  2
37
 70
     0
 62
     7
  6
CONTINUOUS
370
    -3
390
916
  0
LAYER
  5
952
330
909
100
AcDbSymbolTableRecord
100
AcDbLayerTableRecord
  2
38
 70
     0
 62
     7
  6
CONTINUOUS
370
    -3
390
916
  0
LAYER
  5
953
330
909
100
AcDbSymbolTableRecord
100
AcDbLayerTableRecord
  2
39
 70
     0
 62
     7
  6
CONTINUOUS
370
    -3
390
916
  0
LAYER
  5
954
330
909
100
AcDbSymbolTableRecord
100
AcDbLayerTableRecord
  2
40
 70
     0
 62
     7
  6
CONTINUOUS
370
    -3
390
916
  0
LAYER
  5
955
330
909
100
AcDbSymbolTableRecord
100
AcDbLayerTableRecord
  2
41
 70
     0
 62
     7
  6
CONTINUOUS
370
    -3
390
916
  0
LAYER
  5
956
330
909
100
AcDbSymbolTableRecord
100
AcDbLayerTableRecord
  2
42
 70
     0
 62
     7
  6
CONTINUOUS
370
    -3
390
916
  0
LAYER
  5
957
330
909
100
AcDbSymbolTableRecord
100
AcDbLayerTableRecord
  2
43
 70
     0
 62
     7
  6
CONTINUOUS
370
    -3
390
916
  0
LAYER
  5
958
330
909
100
AcDbSymbolTableRecord
100
AcDbLayerTableRecord
  2
44
 70
     0
 62
     7
  6
CONTINUOUS
370
    -3
390
916
  0
LAYER
  5
959
330
909
100
AcDbSymbolTableRecord
100
AcDbLayerTableRecord
  2
45
 70
     0
 62
     7
  6
CONTINUOUS
370
    -3
390
916
  0
LAYER
  5
95A
330
909
100
AcDbSymbolTableRecord
100
AcDbLayerTableRecord
  2
46
 70
     0
 62
     7
  6
CONTINUOUS
370
    -3
390
916
  0
LAYER
  5
95B
330
909
100
AcDbSymbolTableRecord
100
AcDbLayerTableRecord
  2
47
 70
     0
 62
     7
  6
CONTINUOUS
370
    -3
390
916
  0
LAYER
  5
95C
330
909
100
AcDbSymbolTableRecord
100
AcDbLayerTableRecord
  2
48
 70
     0
 62
     7
  6
CONTINUOUS
370
    -3
390
916
  0
LAYER
  5
95D
330
909
100
AcDbSymbolTableRecord
100
AcDbLayerTableRecord
  2
49
 70
     0
 62
     7
  6
CONTINUOUS
370
    -3
390
916
  0
LAYER
  5
95E
330
909
100
AcDbSymbolTableRecord
100
AcDbLayerTableRecord
  2
50
 70
     0
 62
     7
  6
CONTINUOUS
370
    -3
390
916
  0
LAYER
  5
95F
330
909
100
AcDbSymbolTableRecord
100
AcDbLayerTableRecord
  2
51
 70
     0
 62
     7
  6
CONTINUOUS
370
    -3
390
916
  0
LAYER
  5
960
330
909
100
AcDbSymbolTableRecord
100
AcDbLayerTableRecord
  2
52
 70
     0
 62
     7
  6
CONTINUOUS
370
    -3
390
916
  0
LAYER
  5
961
330
909
100
AcDbSymbolTableRecord
100
AcDbLayerTableRecord
  2
53
 70
     0
 62
     7
  6
CONTINUOUS
370
    -3
390
916
  0
LAYER
  5
962
330
909
100
AcDbSymbolTableRecord
100
AcDbLayerTableRecord
  2
54
 70
     0
 62
     7
  6
CONTINUOUS
370
    -3
390
916
  0
LAYER
  5
963
330
909
100
AcDbSymbolTableRecord
100
AcDbLayerTableRecord
  2
55
 70
     0
 62
     7
  6
CONTINUOUS
370
    -3
390
916
  0
LAYER
  5
964
330
909
100
AcDbSymbolTableRecord
100
AcDbLayerTableRecord
  2
56
 70
     0
 62
     7
  6
CONTINUOUS
370
    -3
390
916
  0
LAYER
  5
965
330
909
100
AcDbSymbolTableRecord
100
AcDbLayerTableRecord
  2
57
 70
     0
 62
     7
  6
CONTINUOUS
370
    -3
390
916
  0
LAYER
  5
966
330
909
100
AcDbSymbolTableRecord
100
AcDbLayerTableRecord
  2
58
 70
     0
 62
     7
  6
CONTINUOUS
370
    -3
390
916
  0
LAYER
  5
967
330
909
100
AcDbSymbolTableRecord
100
AcDbLayerTableRecord
  2
59
 70
     0
 62
     7
  6
CONTINUOUS
370
    -3
390
916
  0
LAYER
  5
968
330
909
100
AcDbSymbolTableRecord
100
AcDbLayerTableRecord
  2
60
 70
     0
 62
     7
  6
CONTINUOUS
370
    -3
390
916
  0
LAYER
  5
969
330
909
100
AcDbSymbolTableRecord
100
AcDbLayerTableRecord
  2
61
 70
     0
 62
     7
  6
CONTINUOUS
370
    -3
390
916
  0
LAYER
  5
96A
330
909
100
AcDbSymbolTableRecord
100
AcDbLayerTableRecord
  2
62
 70
     0
 62
     7
  6
CONTINUOUS
370
    -3
390
916
  0
LAYER
  5
96B
330
909
100
AcDbSymbolTableRecord
100
AcDbLayerTableRecord
  2
63
 70
     0
 62
     7
  6
CONTINUOUS
370
    -3
390
916
  0
LAYER
  5
96C
330
909
100
AcDbSymbolTableRecord
100
AcDbLayerTableRecord
  2
64
 70
     0
 62
     7
  6
CONTINUOUS
370
    -3
390
916
  0
LAYER
  5
96D
330
909
100
AcDbSymbolTableRecord
100
AcDbLayerTableRecord
  2
65
 70
     0
 62
     7
  6
CONTINUOUS
370
    -3
390
916
  0
LAYER
  5
96E
330
909
100
AcDbSymbolTableRecord
100
AcDbLayerTableRecord
  2
66
 70
     0
 62
     7
  6
CONTINUOUS
370
    -3
390
916
  0
LAYER
  5
96F
330
909
100
AcDbSymbolTableRecord
100
AcDbLayerTableRecord
  2
67
 70
     0
 62
     7
  6
CONTINUOUS
370
    -3
390
916
  0
LAYER
  5
970
330
909
100
AcDbSymbolTableRecord
100
AcDbLayerTableRecord
  2
68
 70
     0
 62
     7
  6
CONTINUOUS
370
    -3
390
916
  0
LAYER
  5
971
330
909
100
AcDbSymbolTableRecord
100
AcDbLayerTableRecord
  2
69
 70
     0
 62
     7
  6
CONTINUOUS
370
    -3
390
916
  0
LAYER
  5
972
330
909
100
AcDbSymbolTableRecord
100
AcDbLayerTableRecord
  2
70
 70
     0
 62
     7
  6
CONTINUOUS
370
    -3
390
916
  0
LAYER
  5
973
330
909
100
AcDbSymbolTableRecord
100
AcDbLayerTableRecord
  2
71
 70
     0
 62
     7
  6
CONTINUOUS
370
    -3
390
916
  0
LAYER
  5
974
330
909
100
AcDbSymbolTableRecord
100
AcDbLayerTableRecord
  2
72
 70
     0
 62
     7
  6
CONTINUOUS
370
    -3
390
916
  0
LAYER
  5
975
330
909
100
AcDbSymbolTableRecord
100
AcDbLayerTableRecord
  2
73
 70
     0
 62
     7
  6
CONTINUOUS
370
    -3
390
916
  0
LAYER
  5
976
330
909
100
AcDbSymbolTableRecord
100
AcDbLayerTableRecord
  2
74
 70
     0
 62
     7
  6
CONTINUOUS
370
    -3
390
916
  0
LAYER
  5
977
330
909
100
AcDbSymbolTableRecord
100
AcDbLayerTableRecord
  2
75
 70
     0
 62
     7
  6
CONTINUOUS
370
    -3
390
916
  0
LAYER
  5
978
330
909
100
AcDbSymbolTableRecord
100
AcDbLayerTableRecord
  2
76
 70
     0
 62
     7
  6
CONTINUOUS
370
    -3
390
916
  0
LAYER
  5
979
330
909
100
AcDbSymbolTableRecord
100
AcDbLayerTableRecord
  2
77
 70
     0
 62
     7
  6
CONTINUOUS
370
    -3
390
916
  0
LAYER
  5
97A
330
909
100
AcDbSymbolTableRecord
100
AcDbLayerTableRecord
  2
78
 70
     0
 62
     7
  6
CONTINUOUS
370
    -3
390
916
  0
LAYER
  5
97B
330
909
100
AcDbSymbolTableRecord
100
AcDbLayerTableRecord
  2
79
 70
     0
 62
     7
  6
CONTINUOUS
370
    -3
390
916
  0
LAYER
  5
97C
330
909
100
AcDbSymbolTableRecord
100
AcDbLayerTableRecord
  2
80
 70
     0
 62
     7
  6
CONTINUOUS
370
    -3
390
916
  0
LAYER
  5
97D
330
909
100
AcDbSymbolTableRecord
100
AcDbLayerTableRecord
  2
81
 70
     0
 62
     7
  6
CONTINUOUS
370
    -3
390
916
  0
LAYER
  5
97E
330
909
100
AcDbSymbolTableRecord
100
AcDbLayerTableRecord
  2
82
 70
     0
 62
     7
  6
CONTINUOUS
370
    -3
390
916
  0
LAYER
  5
97F
330
909
100
AcDbSymbolTableRecord
100
AcDbLayerTableRecord
  2
83
 70
     0
 62
     7
  6
CONTINUOUS
370
    -3
390
916
  0
LAYER
  5
980
330
909
100
AcDbSymbolTableRecord
100
AcDbLayerTableRecord
  2
84
 70
     0
 62
     7
  6
CONTINUOUS
370
    -3
390
916
  0
LAYER
  5
981
330
909
100
AcDbSymbolTableRecord
100
AcDbLayerTableRecord
  2
85
 70
     0
 62
     7
  6
CONTINUOUS
370
    -3
390
916
  0
LAYER
  5
982
330
909
100
AcDbSymbolTableRecord
100
AcDbLayerTableRecord
  2
86
 70
     0
 62
     7
  6
CONTINUOUS
370
    -3
390
916
  0
LAYER
  5
983
330
909
100
AcDbSymbolTableRecord
100
AcDbLayerTableRecord
  2
87
 70
     0
 62
     7
  6
CONTINUOUS
370
    -3
390
916
  0
LAYER
  5
984
330
909
100
AcDbSymbolTableRecord
100
AcDbLayerTableRecord
  2
88
 70
     0
 62
     7
  6
CONTINUOUS
370
    -3
390
916
  0
LAYER
  5
985
330
909
100
AcDbSymbolTableRecord
100
AcDbLayerTableRecord
  2
89
 70
     0
 62
     7
  6
CONTINUOUS
370
    -3
390
916
  0
LAYER
  5
986
330
909
100
AcDbSymbolTableRecord
100
AcDbLayerTableRecord
  2
90
 70
     0
 62
     7
  6
CONTINUOUS
370
    -3
390
916
  0
LAYER
  5
987
330
909
100
AcDbSymbolTableRecord
100
AcDbLayerTableRecord
  2
91
 70
     0
 62
     7
  6
CONTINUOUS
370
    -3
390
916
  0
LAYER
  5
988
330
909
100
AcDbSymbolTableRecord
100
AcDbLayerTableRecord
  2
92
 70
     0
 62
     7
  6
CONTINUOUS
370
    -3
390
916
  0
LAYER
  5
989
330
909
100
AcDbSymbolTableRecord
100
AcDbLayerTableRecord
  2
93
 70
     0
 62
     7
  6
CONTINUOUS
370
    -3
390
916
  0
LAYER
  5
98A
330
909
100
AcDbSymbolTableRecord
100
AcDbLayerTableRecord
  2
94
 70
     0
 62
     7
  6
CONTINUOUS
370
    -3
390
916
  0
LAYER
  5
98B
330
909
100
AcDbSymbolTableRecord
100
AcDbLayerTableRecord
  2
95
 70
     0
 62
     7
  6
CONTINUOUS
370
    -3
390
916
  0
LAYER
  5
98C
330
909
100
AcDbSymbolTableRecord
100
AcDbLayerTableRecord
  2
96
 70
     0
 62
     7
  6
CONTINUOUS
370
    -3
390
916
  0
LAYER
  5
98D
330
909
100
AcDbSymbolTableRecord
100
AcDbLayerTableRecord
  2
97
 70
     0
 62
     7
  6
CONTINUOUS
370
    -3
390
916
  0
LAYER
  5
98E
330
909
100
AcDbSymbolTableRecord
100
AcDbLayerTableRecord
  2
98
 70
     0
 62
     7
  6
CONTINUOUS
370
    -3
390
916
  0
LAYER
  5
98F
330
909
100
AcDbSymbolTableRecord
100
AcDbLayerTableRecord
  2
99
 70
     0
 62
     7
  6
CONTINUOUS
370
    -3
390
916
  0
LAYER
  5
990
330
909
100
AcDbSymbolTableRecord
100
AcDbLayerTableRecord
  2
100
 70
     0
 62
     7
  6
CONTINUOUS
370
    -3
390
916
  0
LAYER
  5
991
330
909
100
AcDbSymbolTableRecord
100
AcDbLayerTableRecord
  2
101
 70
     0
 62
     7
  6
CONTINUOUS
370
    -3
390
916
  0
LAYER
  5
992
330
909
100
AcDbSymbolTableRecord
100
AcDbLayerTableRecord
  2
102
 70
     0
 62
     7
  6
CONTINUOUS
370
    -3
390
916
  0
LAYER
  5
993
330
909
100
AcDbSymbolTableRecord
100
AcDbLayerTableRecord
  2
103
 70
     0
 62
     7
  6
CONTINUOUS
370
    -3
390
916
  0
LAYER
  5
994
330
909
100
AcDbSymbolTableRecord
100
AcDbLayerTableRecord
  2
104
 70
     0
 62
     7
  6
CONTINUOUS
370
    -3
390
916
  0
LAYER
  5
995
330
909
100
AcDbSymbolTableRecord
100
AcDbLayerTableRecord
  2
105
 70
     0
 62
     7
  6
CONTINUOUS
370
    -3
390
916
  0
LAYER
  5
996
330
909
100
AcDbSymbolTableRecord
100
AcDbLayerTableRecord
  2
106
 70
     0
 62
     7
  6
CONTINUOUS
370
    -3
390
916
  0
LAYER
  5
997
330
909
100
AcDbSymbolTableRecord
100
AcDbLayerTableRecord
  2
107
 70
     0
 62
     7
  6
CONTINUOUS
370
    -3
390
916
  0
LAYER
  5
998
330
909
100
AcDbSymbolTableRecord
100
AcDbLayerTableRecord
  2
108
 70
     0
 62
     7
  6
CONTINUOUS
370
    -3
390
916
  0
LAYER
  5
999
330
909
100
AcDbSymbolTableRecord
100
AcDbLayerTableRecord
  2
109
 70
     0
 62
     7
  6
CONTINUOUS
370
    -3
390
916
  0
LAYER
  5
99A
330
909
100
AcDbSymbolTableRecord
100
AcDbLayerTableRecord
  2
110
 70
     0
 62
     7
  6
CONTINUOUS
370
    -3
390
916
  0
LAYER
  5
99B
330
909
100
AcDbSymbolTableRecord
100
AcDbLayerTableRecord
  2
111
 70
     0
 62
     7
  6
CONTINUOUS
370
    -3
390
916
  0
LAYER
  5
99C
330
909
100
AcDbSymbolTableRecord
100
AcDbLayerTableRecord
  2
112
 70
     0
 62
     7
  6
CONTINUOUS
370
    -3
390
916
  0
LAYER
  5
99D
330
909
100
AcDbSymbolTableRecord
100
AcDbLayerTableRecord
  2
113
 70
     0
 62
     7
  6
CONTINUOUS
370
    -3
390
916
  0
LAYER
  5
99E
330
909
100
AcDbSymbolTableRecord
100
AcDbLayerTableRecord
  2
114
 70
     0
 62
     7
  6
CONTINUOUS
370
    -3
390
916
  0
LAYER
  5
99F
330
909
100
AcDbSymbolTableRecord
100
AcDbLayerTableRecord
  2
115
 70
     0
 62
     7
  6
CONTINUOUS
370
    -3
390
916
  0
LAYER
  5
9A0
330
909
100
AcDbSymbolTableRecord
100
AcDbLayerTableRecord
  2
116
 70
     0
 62
     7
  6
CONTINUOUS
370
    -3
390
916
  0
LAYER
  5
9A1
330
909
100
AcDbSymbolTableRecord
100
AcDbLayerTableRecord
  2
117
 70
     0
 62
     7
  6
CONTINUOUS
370
    -3
390
916
  0
LAYER
  5
9A2
330
909
100
AcDbSymbolTableRecord
100
AcDbLayerTableRecord
  2
118
 70
     0
 62
     7
  6
CONTINUOUS
370
    -3
390
916
  0
LAYER
  5
9A3
330
909
100
AcDbSymbolTableRecord
100
AcDbLayerTableRecord
  2
119
 70
     0
 62
     7
  6
CONTINUOUS
370
    -3
390
916
  0
LAYER
  5
9A4
330
909
100
AcDbSymbolTableRecord
100
AcDbLayerTableRecord
  2
120
 70
     0
 62
     7
  6
CONTINUOUS
370
    -3
390
916
  0
LAYER
  5
9A5
330
909
100
AcDbSymbolTableRecord
100
AcDbLayerTableRecord
  2
121
 70
     0
 62
     7
  6
CONTINUOUS
370
    -3
390
916
  0
LAYER
  5
9A6
330
909
100
AcDbSymbolTableRecord
100
AcDbLayerTableRecord
  2
122
 70
     0
 62
     7
  6
CONTINUOUS
370
    -3
390
916
  0
LAYER
  5
9A7
330
909
100
AcDbSymbolTableRecord
100
AcDbLayerTableRecord
  2
123
 70
     0
 62
     7
  6
CONTINUOUS
370
    -3
390
916
  0
LAYER
  5
9A8
330
909
100
AcDbSymbolTableRecord
100
AcDbLayerTableRecord
  2
124
 70
     0
 62
     7
  6
CONTINUOUS
370
    -3
390
916
  0
LAYER
  5
9A9
330
909
100
AcDbSymbolTableRecord
100
AcDbLayerTableRecord
  2
125
 70
     0
 62
     7
  6
CONTINUOUS
370
    -3
390
916
  0
LAYER
  5
9AA
330
909
100
AcDbSymbolTableRecord
100
AcDbLayerTableRecord
  2
126
 70
     0
 62
     7
  6
CONTINUOUS
370
    -3
390
916
  0
LAYER
  5
9AB
330
909
100
AcDbSymbolTableRecord
100
AcDbLayerTableRecord
  2
127
 70
     0
 62
     7
  6
CONTINUOUS
370
    -3
390
916
  0
ENDTAB
  0
TABLE
  2
STYLE
  5
90A
330
0
100
AcDbSymbolTable
 70
    19
  0
STYLE
  5
918
330
90A
100
AcDbSymbolTableRecord
100
AcDbTextStyleTableRecord
  2
STANDARD
 70
     0
 40
0.0
 41
1.0
 50
0.0
 71
     0
 42
0.2
  3
txt
  4

  0
STYLE
  5
9AC
330
90A
100
AcDbSymbolTableRecord
100
AcDbTextStyleTableRecord
  2
KANJI0
 70
     0
 40
1.0
 41
0.7
 50
0.0
 71
     0
 42
1.0
  3
txt
  4
bigfont
  0
STYLE
  5
9AD
330
90A
100
AcDbSymbolTableRecord
100
AcDbTextStyleTableRecord
  2
KANJI1
 70
     0
 40
0.5
 41
0.7
 50
0.0
 71
     0
 42
0.5
  3
txt
  4
bigfont
  0
STYLE
  5
9AE
330
90A
100
AcDbSymbolTableRecord
100
AcDbTextStyleTableRecord
  2
KANJI2
 70
     0
 40
1.5
 41
0.75
 50
0.0
 71
     0
 42
1.5
  3
txt
  4
bigfont
  0
STYLE
  5
9AF
330
90A
100
AcDbSymbolTableRecord
100
AcDbTextStyleTableRecord
  2
KANJI3
 70
     0
 40
3.0
 41
0.88
 50
0.0
 71
     0
 42
3.0
  3
txt
  4
bigfont
  0
STYLE
  5
9B0
330
90A
100
AcDbSymbolTableRecord
100
AcDbTextStyleTableRecord
  2
KANJI4
 70
     0
 40
2.0
 41
0.9
 50
0.0
 71
     0
 42
2.0
  3
txt
  4
bigfont
  0
STYLE
  5
9B1
330
90A
100
AcDbSymbolTableRecord
100
AcDbTextStyleTableRecord
  2
KANJI5
 70
     0
 40
2.0
 41
0.9
 50
10.0
 71
     0
 42
2.0
  3
txt
  4
bigfont
  0
STYLE
  5
9B2
330
90A
100
AcDbSymbolTableRecord
100
AcDbTextStyleTableRecord
  2
KANJI6
 70
     0
 40
3.0
 41
0.9
 50
0.0
 71
     0
 42
3.0
  3
txt
  4
bigfont
  0
STYLE
  5
9B3
330
90A
100
AcDbSymbolTableRecord
100
AcDbTextStyleTableRecord
  2
KANJI7
 70
     0
 40
2.0
 41
0.85
 50
0.0
 71
     0
 42
2.0
  3
txt
  4
bigfont
  0
STYLE
  5
9B4
330
90A
100
AcDbSymbolTableRecord
100
AcDbTextStyleTableRecord
  2
KANJI8
 70
     0
 40
3.0
 41
0.913666667
 50
0.0
 71
     0
 42
3.0
  3
txt
  4
bigfont
  0
STYLE
  5
9B5
330
90A
100
AcDbSymbolTableRecord
100
AcDbTextStyleTableRecord
  2
KANJI9
 70
     0
 40
2.2
 41
0.924090909
 50
0.0
 71
     0
 42
2.2
  3
txt
  4
bigfont
  0
STYLE
  5
9B6
330
90A
100
AcDbSymbolTableRecord
100
AcDbTextStyleTableRecord
  2
KANJI10
 70
     0
 40
2.5
 41
0.9
 50
0.0
 71
     0
 42
2.5
  3
txt
  4
bigfont
  0
STYLE
  5
9B7
330
90A
100
AcDbSymbolTableRecord
100
AcDbTextStyleTableRecord
  2
KANJI11
 70
     0
 40
2.0
 41
1.0
 50
0.0
 71
     0
 42
2.0
  3
txt
  4
bigfont
  0
STYLE
  5
9B8
330
90A
100
AcDbSymbolTableRecord
100
AcDbTextStyleTableRecord
  2
KANJI12
 70
     0
 40
2.0
 41
1.0
 50
0.0
 71
     0
 42
2.0
  3
txt
  4
bigfont
  0
STYLE
  5
9B9
330
90A
100
AcDbSymbolTableRecord
100
AcDbTextStyleTableRecord
  2
KANJI13
 70
     0
 40
2.5
 41
0.9416
 50
0.0
 71
     0
 42
2.5
  3
txt
  4
bigfont
  0
STYLE
  5
9BA
330
90A
100
AcDbSymbolTableRecord
100
AcDbTextStyleTableRecord
  2
KANJI14
 70
     0
 40
3.12
 41
0.75
 50
0.0
 71
     0
 42
3.12
  3
txt
  4
bigfont
  0
STYLE
  5
9BB
330
90A
100
AcDbSymbolTableRecord
100
AcDbTextStyleTableRecord
  2
KANJI15
 70
     0
 40
1.794
 41
0.739130435
 50
0.0
 71
     0
 42
1.794
  3
txt
  4
bigfont
  0
STYLE
  5
9BC
330
90A
100
AcDbSymbolTableRecord
100
AcDbTextStyleTableRecord
  2
KANJI16
 70
     0
 40
1.6146
 41
0.739130435
 50
0.0
 71
     0
 42
1.6146
  3
txt
  4
bigfont
  0
STYLE
  5
9BD
330
90A
100
AcDbSymbolTableRecord
100
AcDbTextStyleTableRecord
  2
KANJI17
 70
     0
 40
1.6146
 41
0.739130435
 50
0.0
 71
     0
 42
1.6146
  3
txt
  4
bigfont
  0
ENDTAB
  0
TABLE
  2
VIEW
  5
90D
330
0
100
AcDbSymbolTable
 70
     0
  0
ENDTAB
  0
TABLE
  2
UCS
  5
90E
330
0
100
AcDbSymbolTable
 70
     0
  0
ENDTAB
  0
TABLE
  2
APPID
  5
910
330
0
100
AcDbSymbolTable
 70
     1
  0
APPID
  5
919
330
910
100
AcDbSymbolTableRecord
100
AcDbRegAppTableRecord
  2
ACAD
 70
     0
  0
ENDTAB
  0
TABLE
  2
DIMSTYLE
  5
911
330
0
100
AcDbSymbolTable
 70
     1
100
AcDbDimStyleTable
 71
     0
  0
DIMSTYLE
105
9BE
330
911
100
AcDbSymbolTableRecord
100
AcDbDimStyleTableRecord
  2
STANDARD
 70
     0
279
     2
340
918
  0
ENDTAB
  0
TABLE
  2
BLOCK_RECORD
  5
908
330
0
100
AcDbSymbolTable
 70
     3
  0
BLOCK_RECORD
  5
925
330
908
100
AcDbSymbolTableRecord
100
AcDbBlockTableRecord
  2
*Model_Space
340
928
  0
BLOCK_RECORD
  5
921
330
908
100
AcDbSymbolTableRecord
100
AcDbBlockTableRecord
  2
*Paper_Space
340
924
  0
BLOCK_RECORD
  5
9C1
330
908
100
AcDbSymbolTableRecord
100
AcDbBlockTableRecord
  2
$MODEL_SPACE
340
0
  0
BLOCK_RECORD
  5
9C4
330
908
100
AcDbSymbolTableRecord
100
AcDbBlockTableRecord
  2
$PAPER_SPACE
340
0
  0
ENDTAB
  0
ENDSEC
  0
SECTION
  2
BLOCKS
  0
BLOCK
  5
926
330
925
100
AcDbEntity
  8
0
100
AcDbBlockBegin
  2
*Model_Space
 70
     0
 10
0.0
 20
0.0
 30
0.0
  3
*Model_Space
  1

  0
ENDBLK
  5
927
330
925
100
AcDbEntity
  8
0
100
AcDbBlockEnd
  0
BLOCK
  5
922
330
921
100
AcDbEntity
 67
     1
  8
0
100
AcDbBlockBegin
  2
*Paper_Space
 70
     0
 10
0.0
 20
0.0
 30
0.0
  3
*Paper_Space
  1

  0
ENDBLK
  5
923
330
921
100
AcDbEntity
 67
     1
  8
0
100
AcDbBlockEnd
  0
BLOCK
  5
9C2
330
9C1
100
AcDbEntity
  8
0
100
AcDbBlockBegin
  2
$MODEL_SPACE
 70
     0
 10
0.0
 20
0.0
 30
0.0
  3
$MODEL_SPACE
  1

  0
ENDBLK
  5
9C3
330
9C1
100
AcDbEntity
  8
0
100
AcDbBlockEnd
  0
BLOCK
  5
9C5
330
9C4
100
AcDbEntity
  8
0
100
AcDbBlockBegin
  2
$PAPER_SPACE
 70
     0
 10
0.0
 20
0.0
 30
0.0
  3
$PAPER_SPACE
  1

  0
ENDBLK
  5
9C6
330
9C4
100
AcDbEntity
  8
0
100
AcDbBlockEnd
  0
ENDSEC
  0
SECTION
  2
ENTITIES
  0
LINE
  5
AEB
330
925
100
AcDbEntity
  8
0
  6
Continuous
 62
     3
100
AcDbLine
 10
0.0
 20
161.0
 30
0.0
 11
0.0
 21
161.5
 31
0.0
  0
LINE
  5
C7C
330
925
100
AcDbEntity
  8
0
  6
Continuous
 62
     3
100
AcDbLine
 10
48.67499999999999
 20
94.9
 30
0.1875
 11
48.67499999999999
 21
48.9
 31
0.1875
  0
POINT
  5
C7D
330
925
100
AcDbEntity
  8
0
  6
Continuous
 62
     3
100
AcDbPoint
 10
48.67499999999999
 20
48.9
 30
0.0
  0
LINE
  5
C7E
330
925
100
AcDbEntity
  8
0
  6
Continuous
 62
     3
100
AcDbLine
 10
48.67499999999999
 20
48.9
 30
0.0
 11
142.675
 21
48.9
 31
0.0
  0
POINT
  5
C7F
330
925
100
AcDbEntity
  8
0
  6
Continuous
 62
     3
100
AcDbPoint
 10
142.675
 20
48.9
 30
0.0
  0
LINE
  5
C80
330
925
100
AcDbEntity
  8
0
  6
Continuous
 62
     3
100
AcDbLine
 10
142.675
 20
48.9
 30
0.0
 11
142.675
 21
94.9
 31
0.0
  0
POINT
  5
C81
330
925
100
AcDbEntity
  8
0
  6
Continuous
 62
     3
100
AcDbPoint
 10
142.675
 20
94.9
 30
0.0
  0
LINE
  5
C82
330
925
100
AcDbEntity
  8
0
  6
Continuous
 62
     3
100
AcDbLine
 10
122.1749999999999
 20
94.9
 30
0.0
 11
116.175
 21
94.9
 31
0.0
  0
LINE
  5
C83
330
925
100
AcDbEntity
  8
0
  6
Continuous
 62
     3
100
AcDbLine
 10
142.675
 20
94.9
 30
0.0
 11
124.425
 21
94.9
 31
0.0
  0
LINE
  5
C84
330
925
100
AcDbEntity
  8
0
  6
Continuous
 62
     3
100
AcDbLine
 10
143.175
 20
47.9
 30
0.0
 11
95.675
 21
47.9
 31
0.0
  0
ARC
  5
C85
330
925
100
AcDbEntity
  8
0
  6
Continuous
 62
     3
100
AcDbCircle
 10
143.175
 20
48.39999999999999
 30
0.0
 40
0.5
100
AcDbArc
 50
270.0
 51
0.0
  0
LINE
  5
C86
330
925
100
AcDbEntity
  8
0
  6
Continuous
 62
     3
100
AcDbLine
 10
143.675
 20
95.4
 30
0.0
 11
143.675
 21
48.39999999999999
 31
0.0
  0
LINE
  5
C87
330
925
100
AcDbEntity
  8
0
  6
Continuous
 62
     3
100
AcDbLine
 10
123.1749999999999
 20
95.90000000000001
 30
0.0
 11
143.175
 21
95.90000000000001
 31
0.0
  0
ARC
  5
C88
330
925
100
AcDbEntity
  8
0
  6
Continuous
 62
     3
100
AcDbCircle
 10
143.175
 20
95.4
 30
0.0
 40
0.5
100
AcDbArc
 50
0.0
 51
90.0
  0
LINE
  5
C89
330
925
100
AcDbEntity
  8
0
  6
Continuous
 62
     3
100
AcDbLine
 10
95.675
 20
95.90000000000001
 30
0.0
 11
48.17499999999999
 21
95.90000000000001
 31
0.0
  0
ARC
  5
C8A
330
925
100
AcDbEntity
  8
0
  6
Continuous
 62
     3
100
AcDbCircle
 10
48.17499999999999
 20
95.4
 30
0.0
 40
0.5
100
AcDbArc
 50
90.0
 51
180.0000000009999
  0
LINE
  5
C8B
330
925
100
AcDbEntity
  8
0
  6
Continuous
 62
     3
100
AcDbLine
 10
48.17499999999999
 20
47.9
 30
0.0
 11
95.675
 21
47.9
 31
0.0
  0
LINE
  5
C8C
330
925
100
AcDbEntity
  8
0
  6
Continuous
 62
     3
100
AcDbLine
 10
47.675
 20
95.4
 30
0.0
 11
47.675
 21
48.39999999999999
 31
0.0
  0
ARC
  5
C8D
330
925
100
AcDbEntity
  8
0
  6
Continuous
 62
     3
100
AcDbCircle
 10
48.17499999999999
 20
48.39999999999999
 30
0.0
 40
0.5
100
AcDbArc
 50
180.0000000009999
 51
270.0
  0
LINE
  5
C8E
330
925
100
AcDbEntity
  8
0
  6
Continuous
 62
     3
100
AcDbLine
 10
78.17499999999999
 20
58.15
 30
0.0
 11
78.17499999999999
 21
55.65
 31
0.0
  0
LINE
  5
C8F
330
925
100
AcDbEntity
  8
0
  6
Continuous
 62
     3
100
AcDbLine
 10
78.17499999999999
 20
55.65
 30
0.0
 11
81.17499999999997
 21
56.9
 31
0.0
  0
LINE
  5
C90
330
925
100
AcDbEntity
  8
0
  6
Continuous
 62
     3
100
AcDbLine
 10
81.17499999999997
 20
56.9
 30
0.0
 11
78.17499999999999
 21
58.15
 31
0.0
  0
LINE
  5
C91
330
925
100
AcDbEntity
  8
0
  6
Continuous
 62
     3
100
AcDbLine
 10
88.42499999999999
 20
55.4
 30
0.0
 11
89.67499999999999
 21
58.39999999999999
 31
0.0
  0
LINE
  5
C92
330
925
100
AcDbEntity
  8
0
  6
Continuous
 62
     3
100
AcDbLine
 10
89.67499999999999
 20
58.39999999999999
 30
0.0
 11
90.92499999999999
 21
55.4
 31
0.0
  0
LINE
  5
C93
330
925
100
AcDbEntity
  8
0
  6
Continuous
 62
     3
100
AcDbLine
 10
90.92499999999999
 20
55.4
 30
0.0
 11
88.42499999999999
 21
55.4
 31
0.0
  0
LINE
  5
C94
330
925
100
AcDbEntity
  8
0
  6
Continuous
 62
     3
100
AcDbLine
 10
119.175
 20
59.9
 30
0.0
 11
123.1749999999999
 21
59.9
 31
0.0
  0
LINE
  5
C95
330
925
100
AcDbEntity
  8
0
  6
Continuous
 62
     3
100
AcDbLine
 10
123.1749999999999
 20
59.9
 30
0.0
 11
123.1749999999999
 21
61.9
 31
0.0
  0
LINE
  5
C96
330
925
100
AcDbEntity
  8
0
  6
Continuous
 62
     3
100
AcDbLine
 10
123.1749999999999
 20
61.9
 30
0.0
 11
119.175
 21
61.9
 31
0.0
  0
LINE
  5
C97
330
925
100
AcDbEntity
  8
0
  6
Continuous
 62
     3
100
AcDbLine
 10
119.175
 20
61.9
 30
0.0
 11
119.175
 21
59.9
 31
0.0
  0
LINE
  5
C98
330
925
100
AcDbEntity
  8
0
  6
Continuous
 62
     3
100
AcDbLine
 10
125.675
 20
59.9
 30
0.0
 11
129.675
 21
59.9
 31
0.0
  0
LINE
  5
C99
330
925
100
AcDbEntity
  8
0
  6
Continuous
 62
     3
100
AcDbLine
 10
129.675
 20
59.9
 30
0.0
 11
129.675
 21
61.9
 31
0.0
  0
LINE
  5
C9A
330
925
100
AcDbEntity
  8
0
  6
Continuous
 62
     3
100
AcDbLine
 10
129.675
 20
61.9
 30
0.0
 11
125.675
 21
61.9
 31
0.0
  0
LINE
  5
C9B
330
925
100
AcDbEntity
  8
0
  6
Continuous
 62
     3
100
AcDbLine
 10
125.675
 20
61.9
 30
0.0
 11
125.675
 21
59.9
 31
0.0
  0
LINE
  5
C9C
330
925
100
AcDbEntity
  8
0
  6
Continuous
 62
     3
100
AcDbLine
 10
125.675
 20
54.4
 30
0.0
 11
129.675
 21
54.4
 31
0.0
  0
LINE
  5
C9D
330
925
100
AcDbEntity
  8
0
  6
Continuous
 62
     3
100
AcDbLine
 10
129.675
 20
54.4
 30
0.0
 11
129.675
 21
56.4
 31
0.0
  0
LINE
  5
C9E
330
925
100
AcDbEntity
  8
0
  6
Continuous
 62
     3
100
AcDbLine
 10
129.675
 20
56.4
 30
0.0
 11
125.675
 21
56.4
 31
0.0
  0
LINE
  5
C9F
330
925
100
AcDbEntity
  8
0
  6
Continuous
 62
     3
100
AcDbLine
 10
125.675
 20
56.4
 30
0.0
 11
125.675
 21
54.4
 31
0.0
  0
LINE
  5
CA0
330
925
100
AcDbEntity
  8
0
  6
Continuous
 62
     3
100
AcDbLine
 10
119.175
 20
54.4
 30
0.0
 11
123.1749999999999
 21
54.4
 31
0.0
  0
LINE
  5
CA1
330
925
100
AcDbEntity
  8
0
  6
Continuous
 62
     3
100
AcDbLine
 10
123.1749999999999
 20
54.4
 30
0.0
 11
123.1749999999999
 21
56.4
 31
0.0
  0
LINE
  5
CA2
330
925
100
AcDbEntity
  8
0
  6
Continuous
 62
     3
100
AcDbLine
 10
123.1749999999999
 20
56.4
 30
0.0
 11
119.175
 21
56.4
 31
0.0
  0
LINE
  5
CA3
330
925
100
AcDbEntity
  8
0
  6
Continuous
 62
     3
100
AcDbLine
 10
119.175
 20
56.4
 30
0.0
 11
119.175
 21
54.4
 31
0.0
  0
LINE
  5
CA4
330
925
100
AcDbEntity
  8
0
  6
LTYPE2
 62
     1
100
AcDbLine
 10
93.67499999999997
 20
53.9
 30
0.0
 11
93.67499999999997
 21
59.9
 31
0.0
  0
LINE
  5
CA5
330
925
100
AcDbEntity
  8
0
  6
LTYPE2
 62
     1
100
AcDbLine
 10
93.42499999999999
 20
53.9
 30
0.0
 11
93.42499999999999
 21
59.9
 31
0.0
  0
LINE
  5
CA6
330
925
100
AcDbEntity
  8
0
  6
LTYPE2
 62
     1
100
AcDbLine
 10
85.67499999999999
 20
59.9
 30
0.0
 11
85.67499999999999
 21
53.9
 31
0.0
  0
LINE
  5
CA7
330
925
100
AcDbEntity
  8
0
  6
LTYPE2
 62
     1
100
AcDbLine
 10
85.92499999999999
 20
59.9
 30
0.0
 11
85.92499999999999
 21
53.9
 31
0.0
  0
ARC
  5
CA8
330
925
100
AcDbEntity
  8
0
  6
LTYPE2
 62
     1
100
AcDbCircle
 10
92.675
 20
59.9
 30
0.0
 40
1.0
100
AcDbArc
 50
0.0
 51
90.0
  0
ARC
  5
CA9
330
925
100
AcDbEntity
  8
0
  6
LTYPE2
 62
     1
100
AcDbCircle
 10
92.675
 20
59.9
 30
0.0
 40
0.75
100
AcDbArc
 50
0.0
 51
90.0
  0
ARC
  5
CAA
330
925
100
AcDbEntity
  8
0
  6
LTYPE2
 62
     1
100
AcDbCircle
 10
86.67499999999998
 20
59.9
 30
0.0
 40
1.0
100
AcDbArc
 50
90.0
 51
180.0
  0
ARC
  5
CAB
330
925
100
AcDbEntity
  8
0
  6
LTYPE2
 62
     1
100
AcDbCircle
 10
86.67499999999998
 20
59.9
 30
0.0
 40
0.75
100
AcDbArc
 50
90.0
 51
180.0
  0
LINE
  5
CAC
330
925
100
AcDbEntity
  8
0
  6
LTYPE2
 62
     1
100
AcDbLine
 10
92.675
 20
60.89999999999999
 30
0.0
 11
86.67499999999998
 21
60.89999999999999
 31
0.0
  0
LINE
  5
CAD
330
925
100
AcDbEntity
  8
0
  6
LTYPE2
 62
     1
100
AcDbLine
 10
92.675
 20
60.65
 30
0.0
 11
86.67499999999998
 21
60.65
 31
0.0
  0
ARC
  5
CAE
330
925
100
AcDbEntity
  8
0
  6
LTYPE2
 62
     1
100
AcDbCircle
 10
92.675
 20
53.9
 30
0.0
 40
1.0
100
AcDbArc
 50
270.0
 51
0.0
  0
ARC
  5
CAF
330
925
100
AcDbEntity
  8
0
  6
LTYPE2
 62
     1
100
AcDbCircle
 10
92.675
 20
53.9
 30
0.0
 40
0.75
100
AcDbArc
 50
270.0
 51
0.0
  0
ARC
  5
CB0
330
925
100
AcDbEntity
  8
0
  6
LTYPE2
 62
     1
100
AcDbCircle
 10
86.67499999999998
 20
53.9
 30
0.0
 40
1.0
100
AcDbArc
 50
180.0
 51
270.0
  0
ARC
  5
CB1
330
925
100
AcDbEntity
  8
0
  6
LTYPE2
 62
     1
100
AcDbCircle
 10
86.67499999999998
 20
53.9
 30
0.0
 40
0.75
100
AcDbArc
 50
180.0
 51
270.0
  0
LINE
  5
CB2
330
925
100
AcDbEntity
  8
0
  6
LTYPE2
 62
     1
100
AcDbLine
 10
86.67499999999998
 20
52.9
 30
0.0
 11
92.675
 21
52.9
 31
0.0
  0
LINE
  5
CB3
330
925
100
AcDbEntity
  8
0
  6
LTYPE2
 62
     1
100
AcDbLine
 10
86.67499999999998
 20
53.15
 30
0.0
 11
92.675
 21
53.15
 31
0.0
  0
LINE
  5
CB4
330
925
100
AcDbEntity
  8
0
  6
LTYPE2
 62
     1
100
AcDbLine
 10
83.67499999999997
 20
53.9
 30
0.0
 11
83.67499999999997
 21
59.9
 31
0.0
  0
ARC
  5
CB5
330
925
100
AcDbEntity
  8
0
  6
LTYPE2
 62
     1
100
AcDbCircle
 10
82.67499999999998
 20
59.9
 30
0.0
 40
1.0
100
AcDbArc
 50
0.0
 51
90.0
  0
LINE
  5
CB6
330
925
100
AcDbEntity
  8
0
  6
LTYPE2
 62
     1
100
AcDbLine
 10
83.42499999999999
 20
53.9
 30
0.0
 11
83.42499999999999
 21
59.9
 31
0.0
  0
ARC
  5
CB7
330
925
100
AcDbEntity
  8
0
  6
LTYPE2
 62
     1
100
AcDbCircle
 10
82.67499999999998
 20
59.9
 30
0.0
 40
0.75
100
AcDbArc
 50
0.0
 51
90.0
  0
ARC
  5
CB8
330
925
100
AcDbEntity
  8
0
  6
LTYPE2
 62
     1
100
AcDbCircle
 10
82.67499999999998
 20
53.9
 30
0.0
 40
1.0
100
AcDbArc
 50
270.0
 51
0.0
  0
ARC
  5
CB9
330
925
100
AcDbEntity
  8
0
  6
LTYPE2
 62
     1
100
AcDbCircle
 10
82.67499999999998
 20
53.9
 30
0.0
 40
0.75
100
AcDbArc
 50
270.0
 51
0.0
  0
ARC
  5
CBA
330
925
100
AcDbEntity
  8
0
  6
LTYPE2
 62
     1
100
AcDbCircle
 10
76.67499999999998
 20
59.9
 30
0.0
 40
1.0
100
AcDbArc
 50
90.0
 51
180.0
  0
ARC
  5
CBB
330
925
100
AcDbEntity
  8
0
  6
LTYPE2
 62
     1
100
AcDbCircle
 10
76.67499999999998
 20
59.9
 30
0.0
 40
0.75
100
AcDbArc
 50
90.0
 51
180.0
  0
LINE
  5
CBC
330
925
100
AcDbEntity
  8
0
  6
LTYPE2
 62
     1
100
AcDbLine
 10
82.67499999999998
 20
60.89999999999999
 30
0.0
 11
76.67499999999998
 21
60.89999999999999
 31
0.0
  0
LINE
  5
CBD
330
925
100
AcDbEntity
  8
0
  6
LTYPE2
 62
     1
100
AcDbLine
 10
82.67499999999998
 20
60.65
 30
0.0
 11
76.67499999999998
 21
60.65
 31
0.0
  0
ARC
  5
CBE
330
925
100
AcDbEntity
  8
0
  6
LTYPE2
 62
     1
100
AcDbCircle
 10
76.67499999999998
 20
53.9
 30
0.0
 40
1.0
100
AcDbArc
 50
180.0
 51
270.0
  0
ARC
  5
CBF
330
925
100
AcDbEntity
  8
0
  6
LTYPE2
 62
     1
100
AcDbCircle
 10
76.67499999999998
 20
53.9
 30
0.0
 40
0.75
100
AcDbArc
 50
180.0
 51
270.0
  0
LINE
  5
CC0
330
925
100
AcDbEntity
  8
0
  6
LTYPE2
 62
     1
100
AcDbLine
 10
76.67499999999998
 20
52.9
 30
0.0
 11
82.67499999999998
 21
52.9
 31
0.0
  0
LINE
  5
CC1
330
925
100
AcDbEntity
  8
0
  6
LTYPE2
 62
     1
100
AcDbLine
 10
76.67499999999998
 20
53.15
 30
0.0
 11
82.67499999999998
 21
53.15
 31
0.0
  0
ARC
  5
CC2
330
925
100
AcDbEntity
  8
0
  6
LTYPE2
 62
     1
100
AcDbCircle
 10
72.67499999999998
 20
59.9
 30
0.0
 40
1.0
100
AcDbArc
 50
0.0
 51
90.0
  0
LINE
  5
CC3
330
925
100
AcDbEntity
  8
0
  6
LTYPE2
 62
     1
100
AcDbLine
 10
73.42499999999998
 20
53.9
 30
0.0
 11
73.42499999999998
 21
59.9
 31
0.0
  0
ARC
  5
CC4
330
925
100
AcDbEntity
  8
0
  6
LTYPE2
 62
     1
100
AcDbCircle
 10
72.67499999999998
 20
59.9
 30
0.0
 40
0.75
100
AcDbArc
 50
0.0
 51
90.0
  0
ARC
  5
CC5
330
925
100
AcDbEntity
  8
0
  6
LTYPE2
 62
     1
100
AcDbCircle
 10
66.675
 20
59.9
 30
0.0
 40
0.75
100
AcDbArc
 50
90.0
 51
180.0
  0
LINE
  5
CC6
330
925
100
AcDbEntity
  8
0
  6
LTYPE2
 62
     1
100
AcDbLine
 10
72.67499999999998
 20
60.89999999999999
 30
0.0
 11
66.675
 21
60.89999999999999
 31
0.0
  0
ARC
  5
CC7
330
925
100
AcDbEntity
  8
0
  6
LTYPE2
 62
     1
100
AcDbCircle
 10
72.67499999999998
 20
53.9
 30
0.0
 40
1.0
100
AcDbArc
 50
270.0
 51
0.0
  0
ARC
  5
CC8
330
925
100
AcDbEntity
  8
0
  6
LTYPE2
 62
     1
100
AcDbCircle
 10
72.67499999999998
 20
53.9
 30
0.0
 40
0.75
100
AcDbArc
 50
270.0
 51
0.0
  0
LINE
  5
CC9
330
925
100
AcDbEntity
  8
0
  6
LTYPE2
 62
     1
100
AcDbLine
 10
65.925
 20
59.9
 30
0.0
 11
65.925
 21
53.9
 31
0.0
  0
ARC
  5
CCA
330
925
100
AcDbEntity
  8
0
  6
LTYPE2
 62
     1
100
AcDbCircle
 10
66.675
 20
53.9
 30
0.0
 40
1.0
100
AcDbArc
 50
180.0
 51
270.0
  0
ARC
  5
CCB
330
925
100
AcDbEntity
  8
0
  6
LTYPE2
 62
     1
100
AcDbCircle
 10
66.675
 20
53.9
 30
0.0
 40
0.75
100
AcDbArc
 50
180.0
 51
270.0
  0
LINE
  5
CCC
330
925
100
AcDbEntity
  8
0
  6
LTYPE2
 62
     1
100
AcDbLine
 10
66.675
 20
52.9
 30
0.0
 11
72.67499999999998
 21
52.9
 31
0.0
  0
LINE
  5
CCD
330
925
100
AcDbEntity
  8
0
  6
LTYPE2
 62
     1
100
AcDbLine
 10
66.675
 20
53.15
 30
0.0
 11
72.67499999999998
 21
53.15
 31
0.0
  0
ARC
  5
CCE
330
925
100
AcDbEntity
  8
0
  6
LTYPE2
 62
     1
100
AcDbCircle
 10
62.675
 20
53.9
 30
0.0
 40
1.0
100
AcDbArc
 50
270.0
 51
0.0
  0
ARC
  5
CCF
330
925
100
AcDbEntity
  8
0
  6
LTYPE2
 62
     1
100
AcDbCircle
 10
62.675
 20
53.9
 30
0.0
 40
0.75
100
AcDbArc
 50
270.0
 51
0.0
  0
ARC
  5
CD0
330
925
100
AcDbEntity
  8
0
  6
LTYPE2
 62
     1
100
AcDbCircle
 10
56.675
 20
53.9
 30
0.0
 40
1.0
100
AcDbArc
 50
180.0
 51
270.0
  0
ARC
  5
CD1
330
925
100
AcDbEntity
  8
0
  6
LTYPE2
 62
     1
100
AcDbCircle
 10
56.675
 20
53.9
 30
0.0
 40
0.75
100
AcDbArc
 50
180.0
 51
270.0
  0
LINE
  5
CD2
330
925
100
AcDbEntity
  8
0
  6
LTYPE2
 62
     1
100
AcDbLine
 10
56.675
 20
52.9
 30
0.0
 11
62.675
 21
52.9
 31
0.0
  0
LINE
  5
CD3
330
925
100
AcDbEntity
  8
0
  6
LTYPE2
 62
     1
100
AcDbLine
 10
56.675
 20
53.15
 30
0.0
 11
62.675
 21
53.15
 31
0.0
  0
ARC
  5
CD4
330
925
100
AcDbEntity
  8
0
  6
LTYPE2
 62
     1
100
AcDbCircle
 10
66.675
 20
59.9
 30
0.0
 40
1.0
100
AcDbArc
 50
90.0
 51
180.0
  0
LINE
  5
CD5
330
925
100
AcDbEntity
  8
0
  6
LTYPE2
 62
     1
100
AcDbLine
 10
65.67499999999999
 20
59.9
 30
0.0
 11
65.67499999999999
 21
53.9
 31
0.0
  0
LINE
  5
CD6
330
925
100
AcDbEntity
  8
0
  6
LTYPE2
 62
     1
100
AcDbLine
 10
55.67499999999999
 20
59.9
 30
0.0
 11
55.67499999999999
 21
53.9
 31
0.0
  0
ARC
  5
CD7
330
925
100
AcDbEntity
  8
0
  6
LTYPE2
 62
     1
100
AcDbCircle
 10
62.675
 20
59.9
 30
0.0
 40
1.0
100
AcDbArc
 50
0.0
 51
90.0
  0
ARC
  5
CD8
330
925
100
AcDbEntity
  8
0
  6
LTYPE2
 62
     1
100
AcDbCircle
 10
62.675
 20
59.9
 30
0.0
 40
0.75
100
AcDbArc
 50
0.0
 51
90.0
  0
ARC
  5
CD9
330
925
100
AcDbEntity
  8
0
  6
LTYPE2
 62
     1
100
AcDbCircle
 10
56.675
 20
59.9
 30
0.0
 40
1.0
100
AcDbArc
 50
90.0
 51
180.0
  0
ARC
  5
CDA
330
925
100
AcDbEntity
  8
0
  6
LTYPE2
 62
     1
100
AcDbCircle
 10
56.675
 20
59.9
 30
0.0
 40
0.75
100
AcDbArc
 50
90.0
 51
180.0
  0
LINE
  5
CDB
330
925
100
AcDbEntity
  8
0
  6
LTYPE2
 62
     1
100
AcDbLine
 10
62.675
 20
60.89999999999999
 30
0.0
 11
56.675
 21
60.89999999999999
 31
0.0
  0
LINE
  5
CDC
330
925
100
AcDbEntity
  8
0
  6
LTYPE2
 62
     1
100
AcDbLine
 10
62.675
 20
60.65
 30
0.0
 11
56.675
 21
60.65
 31
0.0
  0
LINE
  5
CDD
330
925
100
AcDbEntity
  8
0
  6
LTYPE2
 62
     1
100
AcDbLine
 10
63.67499999999999
 20
53.9
 30
0.0
 11
63.67499999999999
 21
59.9
 31
0.0
  0
LINE
  5
CDE
330
925
100
AcDbEntity
  8
0
  6
LTYPE2
 62
     1
100
AcDbLine
 10
63.425
 20
53.9
 30
0.0
 11
63.425
 21
59.9
 31
0.0
  0
LINE
  5
CDF
330
925
100
AcDbEntity
  8
0
  6
LTYPE2
 62
     1
100
AcDbLine
 10
55.925
 20
59.9
 30
0.0
 11
55.925
 21
53.9
 31
0.0
  0
LINE
  5
CE0
330
925
100
AcDbEntity
  8
0
  6
Continuous
 62
     3
100
AcDbLine
 10
89.77916666700002
 20
58.15
 30
0.0
 11
89.57083333299999
 21
58.15
 31
0.0
  0
LINE
  5
CE1
330
925
100
AcDbEntity
  8
0
  6
Continuous
 62
     3
100
AcDbLine
 10
89.46666666700002
 20
57.9
 30
0.0
 11
89.88333333299999
 21
57.9
 31
0.0
  0
LINE
  5
CE2
330
925
100
AcDbEntity
  8
0
  6
Continuous
 62
     3
100
AcDbLine
 10
89.98749999999999
 20
57.65
 30
0.0
 11
89.36249999999999
 21
57.65
 31
0.0
  0
LINE
  5
CE3
330
925
100
AcDbEntity
  8
0
  6
Continuous
 62
     3
100
AcDbLine
 10
89.25833333299999
 20
57.4
 30
0.0
 11
90.09166666700002
 21
57.4
 31
0.0
  0
LINE
  5
CE4
330
925
100
AcDbEntity
  8
0
  6
Continuous
 62
     3
100
AcDbLine
 10
90.19583333299999
 20
57.14999999999999
 30
0.0
 11
89.15416666700002
 21
57.14999999999999
 31
0.0
  0
LINE
  5
CE5
330
925
100
AcDbEntity
  8
0
  6
Continuous
 62
     3
100
AcDbLine
 10
89.04999999999999
 20
56.9
 30
0.0
 11
90.29999999999999
 21
56.9
 31
0.0
  0
LINE
  5
CE6
330
925
100
AcDbEntity
  8
0
  6
Continuous
 62
     3
100
AcDbLine
 10
90.40416666700002
 20
56.65
 30
0.0
 11
88.94583333299999
 21
56.65
 31
0.0
  0
LINE
  5
CE7
330
925
100
AcDbEntity
  8
0
  6
Continuous
 62
     3
100
AcDbLine
 10
88.84166666700002
 20
56.4
 30
0.0
 11
90.50833333299999
 21
56.4
 31
0.0
  0
LINE
  5
CE8
330
925
100
AcDbEntity
  8
0
  6
Continuous
 62
     3
100
AcDbLine
 10
90.61249999999999
 20
56.15
 30
0.0
 11
88.73749999999999
 21
56.15
 31
0.0
  0
LINE
  5
CE9
330
925
100
AcDbEntity
  8
0
  6
Continuous
 62
     3
100
AcDbLine
 10
88.63333333299999
 20
55.89999999999999
 30
0.0
 11
90.71666666700002
 21
55.89999999999999
 31
0.0
  0
LINE
  5
CEA
330
925
100
AcDbEntity
  8
0
  6
Continuous
 62
     3
100
AcDbLine
 10
90.82083333299999
 20
55.65
 30
0.0
 11
88.52916666700002
 21
55.65
 31
0.0
  0
LINE
  5
CEB
330
925
100
AcDbEntity
  8
0
  6
Continuous
 62
     3
100
AcDbLine
 10
88.42499999999999
 20
55.4
 30
0.0
 11
90.92499999999999
 21
55.4
 31
0.0
  0
LINE
  5
CEC
330
925
100
AcDbEntity
  8
0
  6
Continuous
 62
     3
100
AcDbLine
 10
88.67499999999997
 20
56.0
 30
0.0
 11
88.67499999999997
 21
55.4
 31
0.0
  0
LINE
  5
CED
330
925
100
AcDbEntity
  8
0
  6
Continuous
 62
     3
100
AcDbLine
 10
88.92499999999998
 20
55.4
 30
0.0
 11
88.92499999999998
 21
56.6
 31
0.0
  0
LINE
  5
CEE
330
925
100
AcDbEntity
  8
0
  6
Continuous
 62
     3
100
AcDbLine
 10
89.17499999999998
 20
57.2
 30
0.0
 11
89.17499999999998
 21
55.4
 31
0.0
  0
LINE
  5
CEF
330
925
100
AcDbEntity
  8
0
  6
Continuous
 62
     3
100
AcDbLine
 10
89.42499999999999
 20
55.4
 30
0.0
 11
89.42499999999999
 21
57.8
 31
0.0
  0
LINE
  5
CF0
330
925
100
AcDbEntity
  8
0
  6
Continuous
 62
     3
100
AcDbLine
 10
89.67499999999999
 20
58.39999999999999
 30
0.0
 11
89.67499999999999
 21
55.4
 31
0.0
  0
LINE
  5
CF1
330
925
100
AcDbEntity
  8
0
  6
Continuous
 62
     3
100
AcDbLine
 10
89.92499999999997
 20
55.4
 30
0.0
 11
89.92499999999997
 21
57.8
 31
0.0
  0
LINE
  5
CF2
330
925
100
AcDbEntity
  8
0
  6
Continuous
 62
     3
100
AcDbLine
 10
90.175
 20
57.2
 30
0.0
 11
90.175
 21
55.4
 31
0.0
  0
LINE
  5
CF3
330
925
100
AcDbEntity
  8
0
  6
Continuous
 62
     3
100
AcDbLine
 10
90.425
 20
55.4
 30
0.0
 11
90.425
 21
56.6
 31
0.0
  0
LINE
  5
CF4
330
925
100
AcDbEntity
  8
0
  6
Continuous
 62
     3
100
AcDbLine
 10
90.675
 20
56.0
 30
0.0
 11
90.675
 21
55.4
 31
0.0
  0
LINE
  5
CF5
330
925
100
AcDbEntity
  8
0
  6
Continuous
 62
     3
100
AcDbLine
 10
78.17499999999999
 20
57.9
 30
0.0
 11
78.77500000000002
 21
57.9
 31
0.0
  0
LINE
  5
CF6
330
925
100
AcDbEntity
  8
0
  6
Continuous
 62
     3
100
AcDbLine
 10
79.375
 20
57.65
 30
0.0
 11
78.17499999999999
 21
57.65
 31
0.0
  0
LINE
  5
CF7
330
925
100
AcDbEntity
  8
0
  6
Continuous
 62
     3
100
AcDbLine
 10
78.17499999999999
 20
57.4
 30
0.0
 11
79.97499999999998
 21
57.4
 31
0.0
  0
LINE
  5
CF8
330
925
100
AcDbEntity
  8
0
  6
Continuous
 62
     3
100
AcDbLine
 10
80.575
 20
57.14999999999999
 30
0.0
 11
78.17499999999999
 21
57.14999999999999
 31
0.0
  0
LINE
  5
CF9
330
925
100
AcDbEntity
  8
0
  6
Continuous
 62
     3
100
AcDbLine
 10
78.17499999999999
 20
56.9
 30
0.0
 11
81.17499999999997
 21
56.9
 31
0.0
  0
LINE
  5
CFA
330
925
100
AcDbEntity
  8
0
  6
Continuous
 62
     3
100
AcDbLine
 10
80.575
 20
56.65
 30
0.0
 11
78.17499999999999
 21
56.65
 31
0.0
  0
LINE
  5
CFB
330
925
100
AcDbEntity
  8
0
  6
Continuous
 62
     3
100
AcDbLine
 10
78.17499999999999
 20
56.4
 30
0.0
 11
79.97499999999998
 21
56.4
 31
0.0
  0
LINE
  5
CFC
330
925
100
AcDbEntity
  8
0
  6
Continuous
 62
     3
100
AcDbLine
 10
79.375
 20
56.15
 30
0.0
 11
78.17499999999999
 21
56.15
 31
0.0
  0
LINE
  5
CFD
330
925
100
AcDbEntity
  8
0
  6
Continuous
 62
     3
100
AcDbLine
 10
78.17499999999999
 20
55.89999999999999
 30
0.0
 11
78.77500000000002
 21
55.89999999999999
 31
0.0
  0
LINE
  5
CFE
330
925
100
AcDbEntity
  8
0
  6
Continuous
 62
     3
100
AcDbLine
 10
78.17499999999999
 20
58.15
 30
0.0
 11
78.17499999999999
 21
55.65
 31
0.0
  0
LINE
  5
CFF
330
925
100
AcDbEntity
  8
0
  6
Continuous
 62
     3
100
AcDbLine
 10
78.42499999999998
 20
55.754166667
 30
0.0
 11
78.42499999999998
 21
58.045833333
 31
0.0
  0
LINE
  5
D00
330
925
100
AcDbEntity
  8
0
  6
Continuous
 62
     3
100
AcDbLine
 10
78.67499999999998
 20
57.941666667
 30
0.0
 11
78.67499999999998
 21
55.858333333
 31
0.0
  0
LINE
  5
D01
330
925
100
AcDbEntity
  8
0
  6
Continuous
 62
     3
100
AcDbLine
 10
78.92499999999998
 20
55.9625
 30
0.0
 11
78.92499999999998
 21
57.8375
 31
0.0
  0
LINE
  5
D02
330
925
100
AcDbEntity
  8
0
  6
Continuous
 62
     3
100
AcDbLine
 10
79.17499999999998
 20
57.733333333
 30
0.0
 11
79.17499999999998
 21
56.066666667
 31
0.0
  0
LINE
  5
D03
330
925
100
AcDbEntity
  8
0
  6
Continuous
 62
     3
100
AcDbLine
 10
79.42499999999999
 20
56.170833333
 30
0.0
 11
79.42499999999999
 21
57.629166667
 31
0.0
  0
LINE
  5
D04
330
925
100
AcDbEntity
  8
0
  6
Continuous
 62
     3
100
AcDbLine
 10
79.67499999999998
 20
57.525
 30
0.0
 11
79.67499999999998
 21
56.275
 31
0.0
  0
LINE
  5
D05
330
925
100
AcDbEntity
  8
0
  6
Continuous
 62
     3
100
AcDbLine
 10
79.92499999999998
 20
56.379166667
 30
0.0
 11
79.92499999999998
 21
57.420833333
 31
0.0
  0
LINE
  5
D06
330
925
100
AcDbEntity
  8
0
  6
Continuous
 62
     3
100
AcDbLine
 10
80.17499999999998
 20
57.316666667
 30
0.0
 11
80.17499999999998
 21
56.483333333
 31
0.0
  0
LINE
  5
D07
330
925
100
AcDbEntity
  8
0
  6
Continuous
 62
     3
100
AcDbLine
 10
80.42499999999998
 20
56.5875
 30
0.0
 11
80.42499999999998
 21
57.2125
 31
0.0
  0
LINE
  5
D08
330
925
100
AcDbEntity
  8
0
  6
Continuous
 62
     3
100
AcDbLine
 10
80.67499999999999
 20
57.108333333
 30
0.0
 11
80.67499999999999
 21
56.691666667
 31
0.0
  0
LINE
  5
D09
330
925
100
AcDbEntity
  8
0
  6
Continuous
 62
     3
100
AcDbLine
 10
80.92499999999999
 20
56.795833333
 30
0.0
 11
80.92499999999999
 21
57.004166667
 31
0.0
  0
LINE
  5
D0A
330
925
100
AcDbEntity
  8
0
  6
Continuous
 62
     1
100
AcDbLine
 10
72.67499999999998
 20
60.65
 30
0.0
 11
66.675
 21
60.65
 31
0.0
  0
TEXT
  5
D0D
330
925
100
AcDbEntity
  8
0
  6
Continuous
 62
     3
100
AcDbText
 10
58.425
 20
55.4
 30
0.0
 40
3.0
  1
Ｅ
 41
0.88
  7
KANJI3
100
AcDbText
  0
TEXT
  5
D0E
330
925
100
AcDbEntity
  8
0
  6
Continuous
 62
     3
100
AcDbText
 10
68.425
 20
55.4
 30
0.0
 40
3.0
  1
Ｍ
 41
0.88
  7
KANJI3
100
AcDbText
  0
LINE
  5
D0F
330
925
100
AcDbEntity
  8
0
  6
Continuous
 62
     3
100
AcDbLine
 10
102.1749999999999
 20
86.65
 30
0.0
 11
106.1749999999999
 21
86.65
 31
0.0
  0
LINE
  5
D10
330
925
100
AcDbEntity
  8
0
  6
Continuous
 62
     3
100
AcDbLine
 10
106.1749999999999
 20
86.65
 30
0.0
 11
106.1749999999999
 21
84.65000000000001
 31
0.0
  0
LINE
  5
D11
330
925
100
AcDbEntity
  8
0
  6
Continuous
 62
     3
100
AcDbLine
 10
94.67499999999999
 20
86.65
 30
0.0
 11
98.67499999999999
 21
86.65
 31
0.0
  0
POINT
  5
D12
330
925
100
AcDbEntity
  8
0
  6
Continuous
 62
     3
100
AcDbPoint
 10
98.67499999999999
 20
86.65
 30
0.0
  0
LINE
  5
D13
330
925
100
AcDbEntity
  8
0
  6
Continuous
 62
     3
100
AcDbLine
 10
98.67499999999999
 20
86.65
 30
0.0
 11
98.67499999999999
 21
84.65000000000001
 31
0.0
  0
LINE
  5
D14
330
925
100
AcDbEntity
  8
0
  6
Continuous
 62
     3
100
AcDbLine
 10
94.67499999999999
 20
84.65000000000001
 30
0.0
 11
94.67499999999999
 21
86.65
 31
0.0
  0
LINE
  5
D15
330
925
100
AcDbEntity
  8
0
  6
Continuous
 62
     3
100
AcDbLine
 10
98.67499999999999
 20
84.65000000000001
 30
0.0
 11
94.67499999999999
 21
84.65000000000001
 31
0.0
  0
LINE
  5
D16
330
925
100
AcDbEntity
  8
0
  6
Continuous
 62
     3
100
AcDbLine
 10
79.67499999999998
 20
86.65
 30
0.0
 11
83.67499999999997
 21
86.65
 31
0.0
  0
LINE
  5
D17
330
925
100
AcDbEntity
  8
0
  6
Continuous
 62
     3
100
AcDbLine
 10
83.67499999999997
 20
86.65
 30
0.0
 11
83.67499999999997
 21
84.65000000000001
 31
0.0
  0
LINE
  5
D18
330
925
100
AcDbEntity
  8
0
  6
Continuous
 62
     3
100
AcDbLine
 10
79.67499999999998
 20
84.65000000000001
 30
0.0
 11
79.67499999999998
 21
86.65
 31
0.0
  0
LINE
  5
D19
330
925
100
AcDbEntity
  8
0
  6
Continuous
 62
     3
100
AcDbLine
 10
83.67499999999997
 20
84.65000000000001
 30
0.0
 11
79.67499999999998
 21
84.65000000000001
 31
0.0
  0
LINE
  5
D1A
330
925
100
AcDbEntity
  8
0
  6
Continuous
 62
     3
100
AcDbLine
 10
64.675
 20
86.65
 30
0.0
 11
68.67499999999998
 21
86.65
 31
0.0
  0
LINE
  5
D1B
330
925
100
AcDbEntity
  8
0
  6
Continuous
 62
     3
100
AcDbLine
 10
68.67499999999998
 20
84.65000000000001
 30
0.0
 11
64.675
 21
84.65000000000001
 31
0.0
  0
LINE
  5
D1C
330
925
100
AcDbEntity
  8
0
  6
Continuous
 62
     3
100
AcDbLine
 10
64.675
 20
84.65000000000001
 30
0.0
 11
64.675
 21
86.65
 31
0.0
  0
LINE
  5
D1D
330
925
100
AcDbEntity
  8
0
  6
Continuous
 62
     3
100
AcDbLine
 10
57.175
 20
86.65
 30
0.0
 11
61.17499999999999
 21
86.65
 31
0.0
  0
LINE
  5
D1E
330
925
100
AcDbEntity
  8
0
  6
Continuous
 62
     3
100
AcDbLine
 10
61.17499999999999
 20
86.65
 30
0.0
 11
61.17499999999999
 21
84.65000000000001
 31
0.0
  0
LINE
  5
D1F
330
925
100
AcDbEntity
  8
0
  6
Continuous
 62
     3
100
AcDbLine
 10
57.175
 20
84.65000000000001
 30
0.0
 11
57.175
 21
86.65
 31
0.0
  0
LINE
  5
D20
330
925
100
AcDbEntity
  8
0
  6
Continuous
 62
     3
100
AcDbLine
 10
123.1749999999999
 20
61.9
 30
0.0
 11
119.175
 21
61.9
 31
0.0
  0
LINE
  5
D21
330
925
100
AcDbEntity
  8
0
  6
Continuous
 62
     3
100
AcDbLine
 10
123.1749999999999
 20
59.9
 30
0.0
 11
123.1749999999999
 21
61.9
 31
0.0
  0
LINE
  5
D22
330
925
100
AcDbEntity
  8
0
  6
Continuous
 62
     3
100
AcDbLine
 10
119.175
 20
61.9
 30
0.0
 11
119.175
 21
59.9
 31
0.0
  0
LINE
  5
D23
330
925
100
AcDbEntity
  8
0
  6
Continuous
 62
     3
100
AcDbLine
 10
119.175
 20
59.9
 30
0.0
 11
123.1749999999999
 21
59.9
 31
0.0
  0
LINE
  5
D24
330
925
100
AcDbEntity
  8
0
  6
Continuous
 62
     3
100
AcDbLine
 10
125.675
 20
59.9
 30
0.0
 11
129.675
 21
59.9
 31
0.0
  0
LINE
  5
D25
330
925
100
AcDbEntity
  8
0
  6
Continuous
 62
     3
100
AcDbLine
 10
129.675
 20
59.9
 30
0.0
 11
129.675
 21
61.9
 31
0.0
  0
LINE
  5
D26
330
925
100
AcDbEntity
  8
0
  6
Continuous
 62
     3
100
AcDbLine
 10
129.675
 20
61.9
 30
0.0
 11
125.675
 21
61.9
 31
0.0
  0
LINE
  5
D27
330
925
100
AcDbEntity
  8
0
  6
Continuous
 62
     3
100
AcDbLine
 10
125.675
 20
61.9
 30
0.0
 11
125.675
 21
59.9
 31
0.0
  0
LINE
  5
D28
330
925
100
AcDbEntity
  8
0
  6
Continuous
 62
     3
100
AcDbLine
 10
132.175
 20
59.9
 30
0.0
 11
136.175
 21
59.9
 31
0.0
  0
LINE
  5
D29
330
925
100
AcDbEntity
  8
0
  6
Continuous
 62
     3
100
AcDbLine
 10
136.175
 20
59.9
 30
0.0
 11
136.175
 21
61.9
 31
0.0
  0
LINE
  5
D2A
330
925
100
AcDbEntity
  8
0
  6
Continuous
 62
     3
100
AcDbLine
 10
136.175
 20
61.9
 30
0.0
 11
132.175
 21
61.9
 31
0.0
  0
LINE
  5
D2B
330
925
100
AcDbEntity
  8
0
  6
Continuous
 62
     3
100
AcDbLine
 10
132.175
 20
61.9
 30
0.0
 11
132.175
 21
59.9
 31
0.0
  0
LINE
  5
D2C
330
925
100
AcDbEntity
  8
0
  6
Continuous
 62
     3
100
AcDbLine
 10
125.675
 20
56.4
 30
0.0
 11
125.675
 21
54.4
 31
0.0
  0
LINE
  5
D2D
330
925
100
AcDbEntity
  8
0
  6
Continuous
 62
     3
100
AcDbLine
 10
129.675
 20
54.4
 30
0.0
 11
129.675
 21
56.4
 31
0.0
  0
LINE
  5
D2E
330
925
100
AcDbEntity
  8
0
  6
Continuous
 62
     3
100
AcDbLine
 10
129.675
 20
56.4
 30
0.0
 11
125.675
 21
56.4
 31
0.0
  0
LINE
  5
D2F
330
925
100
AcDbEntity
  8
0
  6
Continuous
 62
     3
100
AcDbLine
 10
125.675
 20
54.4
 30
0.0
 11
129.675
 21
54.4
 31
0.0
  0
LINE
  5
D30
330
925
100
AcDbEntity
  8
0
  6
Continuous
 62
     3
100
AcDbLine
 10
123.1749999999999
 20
54.4
 30
0.0
 11
123.1749999999999
 21
56.4
 31
0.0
  0
LINE
  5
D31
330
925
100
AcDbEntity
  8
0
  6
Continuous
 62
     3
100
AcDbLine
 10
123.1749999999999
 20
56.4
 30
0.0
 11
119.175
 21
56.4
 31
0.0
  0
LINE
  5
D32
330
925
100
AcDbEntity
  8
0
  6
Continuous
 62
     3
100
AcDbLine
 10
119.175
 20
56.4
 30
0.0
 11
119.175
 21
54.4
 31
0.0
  0
LINE
  5
D33
330
925
100
AcDbEntity
  8
0
  6
Continuous
 62
     3
100
AcDbLine
 10
119.175
 20
54.4
 30
0.0
 11
123.1749999999999
 21
54.4
 31
0.0
  0
LINE
  5
D34
330
925
100
AcDbEntity
  8
0
  6
Continuous
 62
     3
100
AcDbLine
 10
125.675
 20
54.4
 30
0.0
 11
129.675
 21
54.4
 31
0.0
  0
LINE
  5
D35
330
925
100
AcDbEntity
  8
0
  6
Continuous
 62
     3
100
AcDbLine
 10
119.175
 20
54.4
 30
0.0
 11
123.1749999999999
 21
54.4
 31
0.0
  0
TEXT
  5
D36
330
925
100
AcDbEntity
  8
0
  6
Continuous
 62
     3
100
AcDbText
 10
115.625
 20
88.65
 30
0.0
 40
2.0
  1
ＨＨ　ＨＩ　ＳＥＴ
 41
0.9
  7
KANJI4
100
AcDbText
  0
TEXT
  5
D37
330
925
100
AcDbEntity
  8
0
  6
Continuous
 62
     3
100
AcDbText
 10
119.375
 20
63.15
 30
0.0
 40
2.0
  1
ＬＯ ＬＬ ＳＥＴ
 41
0.9
  7
KANJI4
100
AcDbText
  0
TEXT
  5
D38
330
925
100
AcDbEntity
  8
0
  6
Continuous
 62
     3
100
AcDbText
 10
107.9749999999995
 20
51.15
 30
0.0
 40
2.0
  1
Ｐ.ＮＯ
 41
0.9
  7
KANJI4
100
AcDbText
  0
TEXT
  5
D39
330
925
100
AcDbEntity
  8
0
  6
Continuous
 62
     3
100
AcDbText
 10
132.175
 20
57.14999999999999
 30
0.0
 40
2.0
  1
ＨＨ.ＬＬ
 41
0.9
 51
10.0
  7
KANJI5
100
AcDbText
  0
LINE
  5
D3A
330
925
100
AcDbEntity
  8
0
  6
Continuous
 62
     3
100
AcDbLine
 10
138.9250499999999
 20
60.75
 30
0.0
 11
138.9250499999999
 21
59.5
 31
0.0
  0
LINE
  5
D3B
330
925
100
AcDbEntity
  8
0
  6
Continuous
 62
     3
100
AcDbLine
 10
136.9250499999999
 20
60.75
 30
0.0
 11
138.9250499999999
 21
60.75
 31
0.0
  0
TEXT
  5
D3C
330
925
100
AcDbEntity
  8
0
  6
Continuous
 62
     3
100
AcDbText
 10
102.1749999999999
 20
88.65
 30
0.0
 40
2.0
  1
ＬＬ
 41
0.9
  7
KANJI4
100
AcDbText
  0
TEXT
  5
D3D
330
925
100
AcDbEntity
  8
0
  6
Continuous
 62
     3
100
AcDbText
 10
79.67499999999998
 20
88.65
 30
0.0
 40
2.0
  1
ＧＯ
 41
0.9
  7
KANJI4
100
AcDbText
  0
TEXT
  5
D3E
330
925
100
AcDbEntity
  8
0
  6
Continuous
 62
     3
100
AcDbText
 10
64.92499999999998
 20
88.65
 30
0.0
 40
2.0
  1
ＨＩ
 41
0.9
  7
KANJI4
100
AcDbText
  0
TEXT
  5
D3F
330
925
100
AcDbEntity
  8
0
  6
Continuous
 62
     3
100
AcDbText
 10
57.175
 20
88.65
 30
0.0
 40
2.0
  1
ＨＨ
 41
0.9
  7
KANJI4
100
AcDbText
  0
TEXT
  5
D40
330
925
100
AcDbEntity
  8
0
  6
Continuous
 62
     3
100
AcDbText
 10
94.92499999999997
 20
88.65
 30
0.0
 40
2.0
  1
ＬＯ
 41
0.9
  7
KANJI4
100
AcDbText
  0
LINE
  5
D41
330
925
100
AcDbEntity
  8
0
  6
Continuous
 62
     3
100
AcDbLine
 10
108.925
 20
82.54999999999999
 30
0.0
 11
106.925
 21
82.54999999999999
 31
0.0
  0
LINE
  5
D42
330
925
100
AcDbEntity
  8
0
  6
Continuous
 62
     3
100
AcDbLine
 10
106.925
 20
81.79999999999997
 30
0.0
 11
108.675
 21
81.79999999999997
 31
0.0
  0
LINE
  5
D43
330
925
100
AcDbEntity
  8
0
  6
Continuous
 62
     3
100
AcDbLine
 10
108.675
 20
81.79999999999997
 30
0.0
 11
108.925
 21
81.79999999999997
 31
0.0
  0
LINE
  5
D44
330
925
100
AcDbEntity
  8
0
  6
Continuous
 62
     3
100
AcDbLine
 10
106.925
 20
82.54999999999999
 30
0.0
 11
106.925
 21
81.79999999999997
 31
0.0
  0
LINE
  5
D45
330
925
100
AcDbEntity
  8
0
  6
Continuous
 62
     3
100
AcDbLine
 10
108.925
 20
81.79999999999997
 30
0.0
 11
108.925
 21
82.54999999999999
 31
0.0
  0
LINE
  5
D46
330
925
100
AcDbEntity
  8
0
  6
Continuous
 62
     3
100
AcDbLine
 10
106.6249999999999
 20
82.52500000000003
 30
0.0
 11
106.6249999999999
 21
82.65
 31
0.0
  0
LINE
  5
D47
330
925
100
AcDbEntity
  8
0
  6
Continuous
 62
     3
100
AcDbLine
 10
109.2249999999997
 20
77.15
 30
0.0
 11
109.2249999999997
 21
82.15000000000001
 31
0.0
  0
POINT
  5
D48
330
925
100
AcDbEntity
  8
0
  6
Continuous
 62
     3
100
AcDbPoint
 10
109.2249999999997
 20
75.65000000000002
 30
0.0
  0
LINE
  5
D49
330
925
100
AcDbEntity
  8
0
  6
Continuous
 62
     3
100
AcDbLine
 10
137.5999999999999
 20
77.15
 30
0.0
 11
109.2249999999997
 21
77.15
 31
0.0
  0
LINE
  5
D4A
330
925
100
AcDbEntity
  8
0
  6
Continuous
 62
     3
100
AcDbLine
 10
108.925
 20
71.05
 30
0.0
 11
106.925
 21
71.05
 31
0.0
  0
LINE
  5
D4B
330
925
100
AcDbEntity
  8
0
  6
Continuous
 62
     3
100
AcDbLine
 10
106.925
 20
70.3
 30
0.0
 11
108.675
 21
70.3
 31
0.0
  0
LINE
  5
D4C
330
925
100
AcDbEntity
  8
0
  6
Continuous
 62
     3
100
AcDbLine
 10
108.675
 20
70.3
 30
0.0
 11
108.925
 21
70.3
 31
0.0
  0
LINE
  5
D4D
330
925
100
AcDbEntity
  8
0
  6
Continuous
 62
     3
100
AcDbLine
 10
106.925
 20
71.05
 30
0.0
 11
106.925
 21
70.3
 31
0.0
  0
LINE
  5
D4E
330
925
100
AcDbEntity
  8
0
  6
Continuous
 62
     3
100
AcDbLine
 10
108.925
 20
70.3
 30
0.0
 11
108.925
 21
71.05
 31
0.0
  0
LINE
  5
D4F
330
925
100
AcDbEntity
  8
0
  6
Continuous
 62
     3
100
AcDbLine
 10
106.6249999999999
 20
65.65000000000001
 30
0.0
 11
106.6249999999999
 21
82.52500000000003
 31
0.0
  0
LINE
  5
D50
330
925
100
AcDbEntity
  8
0
  6
Continuous
 62
     3
100
AcDbLine
 10
109.2249999999997
 20
70.65000000000002
 30
0.0
 11
109.2249999999997
 21
75.65000000000002
 31
0.0
  0
LINE
  5
D51
330
925
100
AcDbEntity
  8
0
  6
Continuous
 62
     3
100
AcDbLine
 10
109.2249999999997
 20
64.15
 30
0.0
 11
109.2249999999997
 21
54.15
 31
0.0
  0
LINE
  5
D52
330
925
100
AcDbEntity
  8
0
  6
Continuous
 62
     3
100
AcDbLine
 10
116.225
 20
54.15
 30
0.0
 11
116.225
 21
64.15
 31
0.0
  0
LINE
  5
D53
330
925
100
AcDbEntity
  8
0
  6
Continuous
 62
     3
100
AcDbLine
 10
116.225
 20
64.15
 30
0.0
 11
112.7249999999998
 21
64.15
 31
0.0
  0
LINE
  5
D54
330
925
100
AcDbEntity
  8
0
  6
Continuous
 62
     3
100
AcDbLine
 10
112.7249999999998
 20
64.15
 30
0.0
 11
109.2249999999997
 21
64.15
 31
0.0
  0
LINE
  5
D55
330
925
100
AcDbEntity
  8
0
  6
Continuous
 62
     3
100
AcDbLine
 10
109.2249999999997
 20
54.15
 30
0.0
 11
116.225
 21
54.15
 31
0.0
  0
LINE
  5
D56
330
925
100
AcDbEntity
  8
0
  6
Continuous
 62
     3
100
AcDbLine
 10
109.2249999999997
 20
65.65000000000001
 30
0.0
 11
109.2249999999997
 21
70.65000000000002
 31
0.0
  0
LINE
  5
D57
330
925
100
AcDbEntity
  8
0
  6
Continuous
 62
     3
100
AcDbLine
 10
137.5999999999999
 20
65.65000000000001
 30
0.0
 11
109.2249999999997
 21
65.65000000000001
 31
0.0
  0
POINT
  5
D58
330
925
100
AcDbEntity
  8
0
  6
Continuous
 62
     3
100
AcDbPoint
 10
109.2249999999997
 20
87.15000000000001
 30
0.0
  0
LINE
  5
D59
330
925
100
AcDbEntity
  8
0
  6
Continuous
 62
     3
100
AcDbLine
 10
109.2249999999997
 20
87.15000000000001
 30
0.0
 11
137.5999999999999
 21
87.15000000000001
 31
0.0
  0
LINE
  5
D5A
330
925
100
AcDbEntity
  8
0
  6
Continuous
 62
     3
100
AcDbLine
 10
109.2249999999997
 20
82.15000000000001
 30
0.0
 11
109.2249999999997
 21
87.15000000000001
 31
0.0
  0
LINE
  5
D5B
330
925
100
AcDbEntity
  8
0
  6
Continuous
 62
     3
100
AcDbLine
 10
137.5999999999999
 20
65.65000000000001
 30
0.0
 11
137.5999999999999
 21
75.65000000000002
 31
0.0
  0
LINE
  5
D5C
330
925
100
AcDbEntity
  8
0
  6
Continuous
 62
     3
100
AcDbLine
 10
109.2249999999997
 20
75.65000000000002
 30
0.0
 11
137.5999999999999
 21
75.65000000000002
 31
0.0
  0
LINE
  5
D5D
330
925
100
AcDbEntity
  8
0
  6
Continuous
 62
     3
100
AcDbLine
 10
118.8749999999999
 20
63.9
 30
0.0
 11
117.425
 21
63.9
 31
0.0
  0
LINE
  5
D5E
330
925
100
AcDbEntity
  8
0
  6
Continuous
 62
     3
100
AcDbLine
 10
133.6249999999995
 20
63.9
 30
0.0
 11
137.675
 21
63.9
 31
0.0
  0
LINE
  5
D5F
330
925
100
AcDbEntity
  8
0
  6
Continuous
 62
     3
100
AcDbLine
 10
114.6249999999999
 20
89.40000000000003
 30
0.0
 11
109.2249999999997
 21
89.40000000000003
 31
0.0
  0
LINE
  5
D60
330
925
100
AcDbEntity
  8
0
  6
Continuous
 62
     3
100
AcDbLine
 10
130.875
 20
89.40000000000003
 30
0.0
 11
137.5999999999999
 21
89.40000000000003
 31
0.0
  0
TEXT
  5
D61
330
925
100
AcDbEntity
  8
0
  6
Continuous
 62
     3
100
AcDbText
 10
98.375
 20
55.44
 30
0.0
 40
3.0
  1
Ｓ
 41
0.9
  7
KANJI6
100
AcDbText
  0
TEXT
  5
D62
330
925
100
AcDbEntity
  8
0
  6
Continuous
 62
     3
100
AcDbText
 10
119.4749999999997
 20
57.14999999999999
 30
0.0
 40
2.0
  1
ＭＥ
 41
0.9
  7
KANJI4
100
AcDbText
  0
TEXT
  5
D63
330
925
100
AcDbEntity
  8
0
  6
Continuous
 62
     3
100
AcDbText
 10
125.9749999999997
 20
57.14999999999999
 30
0.0
 40
2.0
  1
ＰＨ
 41
0.9
  7
KANJI4
100
AcDbText
  0
TEXT
  5
D64
330
925
100
AcDbEntity
  8
0
  6
Continuous
 62
     3
100
AcDbText
 10
125.9749999999997
 20
51.15
 30
0.0
 40
2.0
  1
ＲＥ
 41
0.9
  7
KANJI4
100
AcDbText
  0
TEXT
  5
D65
330
925
100
AcDbEntity
  8
0
  6
Continuous
 62
     3
100
AcDbText
 10
119.4749999999997
 20
51.15
 30
0.0
 40
2.0
  1
ＤＺ
 41
0.9
  7
KANJI4
100
AcDbText
  0
ARC
  5
D66
330
925
100
AcDbEntity
  8
0
  6
LTYPE2
 62
     1
100
AcDbCircle
 10
102.675
 20
59.9
 30
0.0
 40
1.0
100
AcDbArc
 50
0.0
 51
90.0
  0
LINE
  5
D67
330
925
100
AcDbEntity
  8
0
  6
LTYPE2
 62
     1
100
AcDbLine
 10
103.4249999999999
 20
53.9
 30
0.0
 11
103.4249999999999
 21
59.9
 31
0.0
  0
ARC
  5
D68
330
925
100
AcDbEntity
  8
0
  6
LTYPE2
 62
     1
100
AcDbCircle
 10
102.675
 20
59.9
 30
0.0
 40
0.75
100
AcDbArc
 50
0.0
 51
90.0
  0
ARC
  5
D69
330
925
100
AcDbEntity
  8
0
  6
LTYPE2
 62
     1
100
AcDbCircle
 10
96.675
 20
59.9
 30
0.0
 40
0.75
100
AcDbArc
 50
90.0
 51
180.0
  0
LINE
  5
D6A
330
925
100
AcDbEntity
  8
0
  6
LTYPE2
 62
     1
100
AcDbLine
 10
102.675
 20
60.89999999999999
 30
0.0
 11
96.675
 21
60.89999999999999
 31
0.0
  0
ARC
  5
D6B
330
925
100
AcDbEntity
  8
0
  6
LTYPE2
 62
     1
100
AcDbCircle
 10
102.675
 20
53.9
 30
0.0
 40
1.0
100
AcDbArc
 50
270.0
 51
0.0
  0
ARC
  5
D6C
330
925
100
AcDbEntity
  8
0
  6
LTYPE2
 62
     1
100
AcDbCircle
 10
102.675
 20
53.9
 30
0.0
 40
0.75
100
AcDbArc
 50
270.0
 51
0.0
  0
LINE
  5
D6D
330
925
100
AcDbEntity
  8
0
  6
LTYPE2
 62
     1
100
AcDbLine
 10
95.92499999999999
 20
59.9
 30
0.0
 11
95.92499999999999
 21
53.9
 31
0.0
  0
ARC
  5
D6E
330
925
100
AcDbEntity
  8
0
  6
LTYPE2
 62
     1
100
AcDbCircle
 10
96.675
 20
53.9
 30
0.0
 40
1.0
100
AcDbArc
 50
180.0
 51
270.0
  0
ARC
  5
D6F
330
925
100
AcDbEntity
  8
0
  6
LTYPE2
 62
     1
100
AcDbCircle
 10
96.675
 20
53.9
 30
0.0
 40
0.75
100
AcDbArc
 50
180.0
 51
270.0
  0
LINE
  5
D70
330
925
100
AcDbEntity
  8
0
  6
LTYPE2
 62
     1
100
AcDbLine
 10
96.675
 20
52.9
 30
0.0
 11
102.675
 21
52.9
 31
0.0
  0
LINE
  5
D71
330
925
100
AcDbEntity
  8
0
  6
LTYPE2
 62
     1
100
AcDbLine
 10
96.675
 20
53.15
 30
0.0
 11
102.675
 21
53.15
 31
0.0
  0
ARC
  5
D72
330
925
100
AcDbEntity
  8
0
  6
LTYPE2
 62
     1
100
AcDbCircle
 10
96.675
 20
59.9
 30
0.0
 40
1.0
100
AcDbArc
 50
90.0
 51
180.0
  0
LINE
  5
D73
330
925
100
AcDbEntity
  8
0
  6
LTYPE2
 62
     1
100
AcDbLine
 10
95.675
 20
59.9
 30
0.0
 11
95.675
 21
53.9
 31
0.0
  0
LINE
  5
D74
330
925
100
AcDbEntity
  8
0
  6
LTYPE2
 62
     1
100
AcDbLine
 10
103.675
 20
53.9
 30
0.0
 11
103.675
 21
54.9
 31
0.0
  0
LINE
  5
D75
330
925
100
AcDbEntity
  8
0
  6
Continuous
 62
     1
100
AcDbLine
 10
102.675
 20
60.65
 30
0.0
 11
96.675
 21
60.65
 31
0.0
  0
LINE
  5
D77
330
925
100
AcDbEntity
  8
0
  6
LTYPE2
 62
     1
100
AcDbLine
 10
103.675
 20
54.9
 30
0.0
 11
103.675
 21
59.9
 31
0.0
  0
LINE
  5
D78
330
925
100
AcDbEntity
  8
0
  6
Continuous
 62
     3
100
AcDbLine
 10
47.675
 20
115.9
 30
0.0
 11
47.675
 21
117.4
 31
0.0
  0
LINE
  5
D79
330
925
100
AcDbEntity
  8
0
  6
Continuous
 62
     3
100
AcDbLine
 10
49.675
 20
236.4
 30
0.0
 11
49.675
 21
117.4
 31
0.0
  0
LINE
  5
D7A
330
925
100
AcDbEntity
  8
0
  6
Continuous
 62
     3
100
AcDbLine
 10
47.675
 20
117.4
 30
0.0
 11
49.675
 21
117.4
 31
0.0
  0
LINE
  5
D7B
330
925
100
AcDbEntity
  8
0
  6
Continuous
 62
     3
100
AcDbLine
 10
141.675
 20
236.4
 30
0.0
 11
141.675
 21
117.4
 31
0.0
  0
LINE
  5
D7C
330
925
100
AcDbEntity
  8
0
  6
Continuous
 62
     3
100
AcDbLine
 10
132.925
 20
237.4
 30
0.0
 11
132.925
 21
236.4
 31
0.0
  0
LINE
  5
D7D
330
925
100
AcDbEntity
  8
0
  6
Continuous
 62
     3
100
AcDbLine
 10
47.675
 20
115.9
 30
0.0
 11
47.675
 21
115.4
 31
0.0
  0
LINE
  5
D7E
330
925
100
AcDbEntity
  8
0
  6
Continuous
 62
     3
100
AcDbLine
 10
143.675
 20
115.4
 30
0.0
 11
143.675
 21
117.4
 31
0.0
  0
LINE
  5
D7F
330
925
100
AcDbEntity
  8
0
  6
Continuous
 62
     3
100
AcDbLine
 10
143.675
 20
115.9
 30
0.0
 11
95.675
 21
115.9
 31
0.0
  0
POINT
  5
D80
330
925
100
AcDbEntity
  8
0
  6
Continuous
 62
     3
100
AcDbPoint
 10
57.675
 20
115.9
 30
0.0
  0
POINT
  5
D81
330
925
100
AcDbEntity
  8
0
  6
Continuous
 62
     3
100
AcDbPoint
 10
133.675
 20
115.9
 30
0.0
  0
LINE
  5
D82
330
925
100
AcDbEntity
  8
0
  6
Continuous
 62
     3
100
AcDbLine
 10
58.17499999999999
 20
236.4
 30
0.0
 11
58.17499999999999
 21
237.4
 31
0.0
  0
LINE
  5
D83
330
925
100
AcDbEntity
  8
0
  6
Continuous
 62
     3
100
AcDbLine
 10
49.675
 20
236.4
 30
0.0
 11
58.17499999999999
 21
236.4
 31
0.0
  0
POINT
  5
D84
330
925
100
AcDbEntity
  8
0
  6
Continuous
 62
     3
100
AcDbPoint
 10
143.675
 20
115.9
 30
0.0
  0
LINE
  5
D85
330
925
100
AcDbEntity
  8
0
  6
Continuous
 62
     3
100
AcDbLine
 10
141.525
 20
236.4
 30
0.0
 11
132.925
 21
236.4
 31
0.0
  0
ARC
  5
D86
330
925
100
AcDbEntity
  8
0
  6
Continuous
 62
     3
100
AcDbCircle
 10
65.425
 20
124.3999999999999
 30
0.0
 40
0.5
100
AcDbArc
 50
180.0000000009999
 51
270.0
  0
LINE
  5
D87
330
925
100
AcDbEntity
  8
0
  6
Continuous
 62
     3
100
AcDbLine
 10
125.9249999999999
 20
123.9
 30
0.0
 11
65.425
 21
123.9
 31
0.0
  0
ARC
  5
D88
330
925
100
AcDbEntity
  8
0
  6
Continuous
 62
     3
100
AcDbCircle
 10
125.9249999999999
 20
124.3999999999999
 30
0.0
 40
0.5
100
AcDbArc
 50
270.0
 51
0.0
  0
LINE
  5
D89
330
925
100
AcDbEntity
  8
0
  6
Continuous
 62
     3
100
AcDbLine
 10
64.92499999999998
 20
124.35
 30
0.0
 11
64.92499999999998
 21
140.4
 31
0.0
  0
ARC
  5
D8A
330
925
100
AcDbEntity
  8
0
  6
Continuous
 62
     3
100
AcDbCircle
 10
65.425
 20
140.4
 30
0.0
 40
0.5
100
AcDbArc
 50
90.0
 51
180.0000000009999
  0
LINE
  5
D8B
330
925
100
AcDbEntity
  8
0
  6
Continuous
 62
     3
100
AcDbLine
 10
65.425
 20
140.8999999999998
 30
0.0
 11
125.9249999999999
 21
140.8999999999998
 31
0.0
  0
ARC
  5
D8C
330
925
100
AcDbEntity
  8
0
  6
Continuous
 62
     3
100
AcDbCircle
 10
125.9249999999999
 20
140.4
 30
0.0
 40
0.5
100
AcDbArc
 50
0.0
 51
90.0
  0
ARC
  5
D8D
330
925
100
AcDbEntity
  8
0
  6
Continuous
 62
     3
100
AcDbCircle
 10
130.675
 20
142.4
 30
0.0
 40
0.5
100
AcDbArc
 50
270.0
 51
0.0
  0
LINE
  5
D8E
330
925
100
AcDbEntity
  8
0
  6
Continuous
 62
     3
100
AcDbLine
 10
130.675
 20
141.9
 30
0.0
 11
126.425
 21
141.9
 31
0.0
  0
ARC
  5
D8F
330
925
100
AcDbEntity
  8
0
  6
Continuous
 62
     3
100
AcDbCircle
 10
130.675
 20
189.6499999999998
 30
0.0
 40
0.5
100
AcDbArc
 50
270.0
 51
0.0
  0
LINE
  5
D90
330
925
100
AcDbEntity
  8
0
  6
Continuous
 62
     3
100
AcDbLine
 10
131.175
 20
142.4
 30
0.0
 11
131.175
 21
187.65
 31
0.0
  0
ARC
  5
D91
330
925
100
AcDbEntity
  8
0
  6
Continuous
 62
     3
100
AcDbCircle
 10
130.675
 20
187.65
 30
0.0
 40
0.5
100
AcDbArc
 50
0.0
 51
90.0
  0
ARC
  5
D92
330
925
100
AcDbEntity
  8
0
  6
Continuous
 62
     3
100
AcDbCircle
 10
130.675
 20
234.9
 30
0.0
 40
0.5
100
AcDbArc
 50
0.0
 51
90.0
  0
LINE
  5
D93
330
925
100
AcDbEntity
  8
0
  6
Continuous
 62
     3
100
AcDbLine
 10
130.675
 20
235.4
 30
0.0
 11
60.67499999999999
 21
235.4
 31
0.0
  0
ARC
  5
D94
330
925
100
AcDbEntity
  8
0
  6
Continuous
 62
     3
100
AcDbCircle
 10
60.67499999999999
 20
234.9
 30
0.0
 40
0.5
100
AcDbArc
 50
90.0
 51
180.0000000009999
  0
LINE
  5
D95
330
925
100
AcDbEntity
  8
0
  6
Continuous
 62
     3
100
AcDbLine
 10
131.175
 20
189.6499999999998
 30
0.0
 11
131.175
 21
234.4
 31
0.0
  0
LINE
  5
D96
330
925
100
AcDbEntity
  8
0
  6
Continuous
 62
     3
100
AcDbLine
 10
126.425
 20
140.4
 30
0.0
 11
126.425
 21
124.3999999999999
 31
0.0
  0
LINE
  5
D97
330
925
100
AcDbEntity
  8
0
  6
Continuous
 62
     3
100
AcDbLine
 10
60.175
 20
234.9
 30
0.0
 11
60.175
 21
189.6499999999998
 31
0.0
  0
LINE
  5
D98
330
925
100
AcDbEntity
  8
0
  6
Continuous
 62
     3
100
AcDbLine
 10
130.675
 20
189.15
 30
0.0
 11
60.67499999999999
 21
189.15
 31
0.0
  0
ARC
  5
D99
330
925
100
AcDbEntity
  8
0
  6
Continuous
 62
     3
100
AcDbCircle
 10
60.67499999999999
 20
189.6499999999998
 30
0.0
 40
0.5
100
AcDbArc
 50
180.0000000009999
 51
270.0
  0
LINE
  5
D9A
330
925
100
AcDbEntity
  8
0
  6
Continuous
 62
     3
100
AcDbLine
 10
60.67499999999999
 20
188.15
 30
0.0
 11
130.675
 21
188.15
 31
0.0
  0
ARC
  5
D9B
330
925
100
AcDbEntity
  8
0
  6
Continuous
 62
     3
100
AcDbCircle
 10
60.67499999999999
 20
187.65
 30
0.0
 40
0.5
100
AcDbArc
 50
90.0
 51
180.0000000009999
  0
LINE
  5
D9C
330
925
100
AcDbEntity
  8
0
  6
Continuous
 62
     3
100
AcDbLine
 10
126.9749999999997
 20
141.9
 30
0.0
 11
60.67499999999999
 21
141.9
 31
0.0
  0
LINE
  5
D9D
330
925
100
AcDbEntity
  8
0
  6
Continuous
 62
     3
100
AcDbLine
 10
60.175
 20
187.65
 30
0.0
 11
60.175
 21
142.4
 31
0.0
  0
ARC
  5
D9E
330
925
100
AcDbEntity
  8
0
  6
Continuous
 62
     3
100
AcDbCircle
 10
60.67499999999999
 20
142.4
 30
0.0
 40
0.5
100
AcDbArc
 50
180.0000000009999
 51
270.0
  0
LINE
  5
D9F
330
925
100
AcDbEntity
  8
0
  6
Continuous
 62
     3
100
AcDbLine
 10
143.675
 20
117.4
 30
0.0
 11
49.675
 21
117.4
 31
0.0
  0
LINE
  5
DA0
330
925
100
AcDbEntity
  8
0
  6
Continuous
 62
     3
100
AcDbLine
 10
95.675
 20
115.9
 30
0.0
 11
47.675
 21
115.9
 31
0.0
  0
LINE
  5
DA1
330
925
100
AcDbEntity
  8
0
  6
Continuous
 62
     3
100
AcDbLine
 10
47.675
 20
115.9
 30
0.0
 11
47.92499999999999
 21
110.8999999999999
 31
0.0
  0
LINE
  5
DA2
330
925
100
AcDbEntity
  8
0
  6
Continuous
 62
     3
100
AcDbLine
 10
47.92499999999999
 20
110.8999999999999
 30
0.0
 11
143.425
 21
110.8999999999999
 31
0.0
  0
LINE
  5
DA3
330
925
100
AcDbEntity
  8
0
  6
Continuous
 62
     3
100
AcDbLine
 10
143.425
 20
110.8999999999999
 30
0.0
 11
143.675
 21
115.65
 31
0.0
  0
LINE
  5
DA4
330
925
100
AcDbEntity
  8
0
  6
Continuous
 62
     3
100
AcDbLine
 10
141.8
 20
117.525
 30
0.0
 11
143.4
 21
117.525
 31
0.0
  0
LINE
  5
DA5
330
925
100
AcDbEntity
  8
0
  6
Continuous
 62
     3
100
AcDbLine
 10
141.8
 20
237.525
 30
0.0
 11
141.8
 21
155.525
 31
0.0
  0
LINE
  5
DA6
330
925
100
AcDbEntity
  8
0
  6
Continuous
 62
     3
100
AcDbLine
 10
141.8
 20
140.925
 30
0.0
 11
143.4
 21
140.925
 31
0.0
  0
ARC
  5
DA7
330
925
100
AcDbEntity
  8
0
  6
Continuous
 62
     3
100
AcDbCircle
 10
141.8
 20
237.525
 30
0.0
 40
1.6
100
AcDbArc
 50
0.0
 51
90.0
  0
LINE
  5
DA8
330
925
100
AcDbEntity
  8
0
  6
Continuous
 62
     3
100
AcDbLine
 10
131.4
 20
237.525
 30
0.0
 11
141.8
 21
237.525
 31
0.0
  0
LINE
  5
DA9
330
925
100
AcDbEntity
  8
0
  6
Continuous
 62
     3
100
AcDbLine
 10
141.8
 20
155.525
 30
0.0
 11
141.8
 21
117.525
 31
0.0
  0
LINE
  5
DAA
330
925
100
AcDbEntity
  8
0
  6
Continuous
 62
     3
100
AcDbLine
 10
143.4
 20
117.525
 30
0.0
 11
143.4
 21
237.525
 31
0.0
  0
ARC
  5
DAB
330
925
100
AcDbEntity
  8
0
  6
Continuous
 62
     3
100
AcDbCircle
 10
49.55
 20
237.525
 30
0.0
 40
1.6
100
AcDbArc
 50
90.0
 51
180.0
  0
LINE
  5
DAD
330
925
100
AcDbEntity
  8
0
  6
Continuous
 62
     3
100
AcDbLine
 10
59.95
 20
237.525
 30
0.0
 11
49.55
 21
237.525
 31
0.0
  0
LINE
  5
DAE
330
925
100
AcDbEntity
  8
0
  6
Continuous
 62
     3
100
AcDbLine
 10
47.95
 20
117.525
 30
0.0
 11
47.95
 21
237.525
 31
0.0
  0
LINE
  5
DAF
330
925
100
AcDbEntity
  8
0
  6
Continuous
 62
     3
100
AcDbLine
 10
49.55
 20
237.525
 30
0.0
 11
49.55
 21
117.4
 31
0.0
  0
POINT
  5
DB0
330
925
100
AcDbEntity
  8
0
  6
Continuous
 62
     1
100
AcDbPoint
 10
52.675
 20
236.775
 30
0.0
  0
LINE
  5
DB1
330
925
100
AcDbEntity
  8
0
  6
Continuous
 62
     3
100
AcDbLine
 10
58.17499999999999
 20
237.4
 30
0.0
 11
132.925
 21
237.4
 31
0.0
  0
LINE
  5
DB2
330
925
100
AcDbEntity
  8
0
  6
Continuous
 62
     3
100
AcDbLine
 10
64.42499999999999
 20
237.525
 30
0.0
 11
126.9249999999999
 21
237.525
 31
0.0
  0
LINE
  5
DB5
330
925
100
AcDbEntity
  8
0
  6
Continuous
 62
     1
100
AcDbLine
 10
49.92499999999999
 20
236.275
 30
0.0
 11
49.92499999999999
 21
237.525
 31
0.0
  0
LINE
  5
DB6
330
925
100
AcDbEntity
  8
0
  6
Continuous
 62
     1
100
AcDbLine
 10
49.92499999999999
 20
237.525
 30
0.0
 11
57.675
 21
237.525
 31
0.0
  0
LINE
  5
DB7
330
925
100
AcDbEntity
  8
0
  6
Continuous
 62
     1
100
AcDbLine
 10
57.675
 20
237.525
 30
0.0
 11
57.675
 21
236.275
 31
0.0
  0
LINE
  5
DB8
330
925
100
AcDbEntity
  8
0
  6
Continuous
 62
     1
100
AcDbLine
 10
57.675
 20
237.525
 30
0.0
 11
59.775
 21
237.525
 31
0.0
  0
LINE
  5
DBA
330
925
100
AcDbEntity
  8
0
  6
Continuous
 62
     1
100
AcDbLine
 10
141.425
 20
237.525
 30
0.0
 11
133.675
 21
237.525
 31
0.0
  0
LINE
  5
DBB
330
925
100
AcDbEntity
  8
0
  6
Continuous
 62
     1
100
AcDbLine
 10
133.675
 20
237.525
 30
0.0
 11
133.675
 21
236.275
 31
0.0
  0
LINE
  5
DBC
330
925
100
AcDbEntity
  8
0
  6
Continuous
 62
     1
100
AcDbLine
 10
133.675
 20
237.525
 30
0.0
 11
131.5749999999999
 21
237.525
 31
0.0
  0
LINE
  5
DBD
330
925
100
AcDbEntity
  8
0
  6
Continuous
 62
     1
100
AcDbLine
 10
141.425
 20
237.525
 30
0.0
 11
141.425
 21
236.275
 31
0.0
  0
LINE
  5
DC0
330
925
100
AcDbEntity
  8
0
  6
LTYPE1
 62
     1
100
AcDbLine
 10
67.175
 20
248.025
 30
0.0
 11
95.675
 21
248.025
 31
0.0
  0
LINE
  5
DC1
330
925
100
AcDbEntity
  8
0
  6
LTYPE1
 62
     1
100
AcDbLine
 10
124.1749999999999
 20
248.025
 30
0.0
 11
95.675
 21
248.025
 31
0.0
  0
LINE
  5
DC2
330
925
100
AcDbEntity
  8
0
  6
Continuous
 62
     3
100
AcDbLine
 10
49.92499999999999
 20
237.525
 30
0.0
 11
49.92499999999999
 21
255.025
 31
0.0
  0
LINE
  5
DC3
330
925
100
AcDbEntity
  8
0
  6
Continuous
 62
     3
100
AcDbLine
 10
49.92499999999999
 20
255.025
 30
0.0
 11
95.675
 21
255.025
 31
0.0
  0
POINT
  5
DC4
330
925
100
AcDbEntity
  8
0
  6
Continuous
 62
     3
100
AcDbPoint
 10
106.1749999999999
 20
84.40000000000003
 30
0.0
  0
LINE
  5
DC5
330
925
100
AcDbEntity
  8
0
  6
Continuous
 62
     3
100
AcDbLine
 10
102.1749999999999
 20
84.65000000000001
 30
0.0
 11
106.1749999999999
 21
84.65000000000001
 31
0.0
  0
LINE
  5
DC6
330
925
100
AcDbEntity
  8
0
  6
Continuous
 62
     3
100
AcDbLine
 10
102.1749999999999
 20
86.65
 30
0.0
 11
102.1749999999999
 21
84.65000000000001
 31
0.0
  0
LINE
  5
DC7
330
925
100
AcDbEntity
  8
0
  6
Continuous
 62
     3
100
AcDbLine
 10
67.42499999999998
 20
82.65
 30
0.0
 11
64.175
 21
82.65
 31
0.0
  0
LINE
  5
DC8
330
925
100
AcDbEntity
  8
0
  6
Continuous
 62
     3
100
AcDbLine
 10
106.6249999999999
 20
82.65
 30
0.0
 11
56.675
 21
82.65
 31
0.0
  0
LINE
  5
DC9
330
925
100
AcDbEntity
  8
0
  6
Continuous
 62
     3
100
AcDbLine
 10
56.675
 20
65.65000000000001
 30
0.0
 11
67.925
 21
65.65000000000001
 31
0.0
  0
LINE
  5
DCA
330
925
100
AcDbEntity
  8
0
  6
Continuous
 62
     3
100
AcDbLine
 10
56.675
 20
82.65
 30
0.0
 11
56.675
 21
65.65000000000001
 31
0.0
  0
LINE
  5
DCB
330
925
100
AcDbEntity
  8
0
  6
Continuous
 62
     3
100
AcDbLine
 10
68.67499999999998
 20
86.65
 30
0.0
 11
68.67499999999998
 21
84.65000000000001
 31
0.0
  0
LINE
  5
DCC
330
925
100
AcDbEntity
  8
0
  6
Continuous
 62
     3
100
AcDbLine
 10
61.17499999999999
 20
84.65000000000001
 30
0.0
 11
57.175
 21
84.65000000000001
 31
0.0
  0
LINE
  5
DCD
330
925
100
AcDbEntity
  8
0
  6
Continuous
 62
     3
100
AcDbLine
 10
54.92499999999999
 20
74.65
 30
0.0
 11
55.3
 21
74.27500000000001
 31
0.0
  0
LINE
  5
DCE
330
925
100
AcDbEntity
  8
0
  6
Continuous
 62
     3
100
AcDbLine
 10
55.3
 20
74.27500000000001
 30
0.0
 11
54.9
 21
73.575
 31
0.0
  0
LINE
  5
DCF
330
925
100
AcDbEntity
  8
0
  6
Continuous
 62
     3
100
AcDbLine
 10
52.75
 20
73.54999999999998
 30
0.0
 11
54.92499999999999
 21
73.54999999999998
 31
0.0
  0
LINE
  5
DD0
330
925
100
AcDbEntity
  8
0
  6
Continuous
 62
     3
100
AcDbLine
 10
54.9
 20
74.67499999999998
 30
0.0
 11
52.8
 21
74.67499999999998
 31
0.0
  0
LINE
  5
DD1
330
925
100
AcDbEntity
  8
0
  6
Continuous
 62
     3
100
AcDbLine
 10
52.77499999999999
 20
73.575
 30
0.0
 11
52.35
 21
73.9
 31
0.0
  0
LINE
  5
DD2
330
925
100
AcDbEntity
  8
0
  6
Continuous
 62
     3
100
AcDbLine
 10
52.35
 20
73.9
 30
0.0
 11
52.75
 21
74.625
 31
0.0
  0
POINT
  5
DD3
330
925
100
AcDbEntity
  8
0
  6
Continuous
 62
     3
100
AcDbPoint
 10
77.863181818
 20
73.59999999999998
 30
0.0
  0
LINE
  5
DD4
330
925
100
AcDbEntity
  8
0
  6
Continuous
 62
     3
100
AcDbLine
 10
77.150454545
 20
68.7
 30
0.0
 11
77.83409090899998
 21
73.4
 31
0.0
  0
LINE
  5
DD5
330
925
100
AcDbEntity
  8
0
  6
Continuous
 62
     3
100
AcDbLine
 10
77.17499999999998
 20
68.65000000000001
 30
0.0
 11
77.97499999999998
 21
67.45
 31
0.0
  0
LINE
  5
DD6
330
925
100
AcDbEntity
  8
0
  6
Continuous
 62
     3
100
AcDbLine
 10
77.67499999999998
 20
67.15
 30
0.0
 11
77.825
 21
67.27
 31
0.0
  0
LINE
  5
DD7
330
925
100
AcDbEntity
  8
0
  6
Continuous
 62
     3
100
AcDbLine
 10
77.97499999999998
 20
67.39
 30
0.0
 11
78.17499999999999
 21
67.54999999999999
 31
0.0
  0
LINE
  5
DD8
330
925
100
AcDbEntity
  8
0
  6
Continuous
 62
     3
100
AcDbLine
 10
77.67499999999998
 20
67.15
 30
0.0
 11
70.67499999999999
 21
67.15
 31
0.0
  0
LINE
  5
DD9
330
925
100
AcDbEntity
  8
0
  6
Continuous
 62
     3
100
AcDbLine
 10
78.92499999999998
 20
74.0
 30
0.0
 11
79.125
 21
73.9
 31
0.0
  0
LINE
  5
DDA
330
925
100
AcDbEntity
  8
0
  6
Continuous
 62
     3
100
AcDbLine
 10
78.97499999999998
 20
74.29999999999998
 30
0.0
 11
79.27500000000001
 21
74.5
 31
0.0
  0
LINE
  5
DDB
330
925
100
AcDbEntity
  8
0
  6
Continuous
 62
     3
100
AcDbLine
 10
71.52500000000002
 20
74.25
 30
0.0
 11
71.27500000000002
 21
74.5
 31
0.0
  0
LINE
  5
DDC
330
925
100
AcDbEntity
  8
0
  6
Continuous
 62
     3
100
AcDbLine
 10
72.47499999999998
 20
74.7
 30
0.0
 11
71.52500000000002
 21
74.31296296300001
 31
0.0
  0
LINE
  5
DDD
330
925
100
AcDbEntity
  8
0
  6
Continuous
 62
     3
100
AcDbLine
 10
77.625
 20
74.65
 30
0.0
 11
78.575
 21
74.15
 31
0.0
  0
LINE
  5
DDE
330
925
100
AcDbEntity
  8
0
  6
Continuous
 62
     3
100
AcDbLine
 10
78.575
 20
74.15
 30
0.0
 11
77.375
 21
73.5
 31
0.0
  0
LINE
  5
DDF
330
925
100
AcDbEntity
  8
0
  6
Continuous
 62
     3
100
AcDbLine
 10
72.97499999999998
 20
74.7
 30
0.0
 11
71.77500000000001
 21
74.09999999999998
 31
0.0
  0
LINE
  5
DE0
330
925
100
AcDbEntity
  8
0
  6
Continuous
 62
     3
100
AcDbLine
 10
72.575
 20
73.54999999999998
 30
0.0
 11
71.825
 21
74.0
 31
0.0
  0
LINE
  5
DE1
330
925
100
AcDbEntity
  8
0
  6
Continuous
 62
     3
100
AcDbLine
 10
79.14954545499998
 20
73.84999999999998
 30
0.0
 11
78.24045454500001
 21
67.59999999999999
 31
0.0
  0
LINE
  5
DE2
330
925
100
AcDbEntity
  8
0
  6
Continuous
 62
     3
100
AcDbLine
 10
78.97499999999998
 20
74.23181818199998
 30
0.0
 11
78.02500000000001
 21
74.75
 31
0.0
  0
LINE
  5
DE3
330
925
100
AcDbEntity
  8
0
  6
Continuous
 62
     3
100
AcDbLine
 10
77.825
 20
73.45
 30
0.0
 11
78.92499999999998
 21
74.02199999999997
 31
0.0
  0
LINE
  5
DE4
330
925
100
AcDbEntity
  8
0
  6
Continuous
 62
     3
100
AcDbLine
 10
76.97499999999998
 20
68.4
 30
0.0
 11
72.02500000000002
 21
68.4
 31
0.0
  0
LINE
  5
DE5
330
925
100
AcDbEntity
  8
0
  6
Continuous
 62
     3
100
AcDbLine
 10
76.97499999999998
 20
68.45
 30
0.0
 11
77.775
 21
67.2
 31
0.0
  0
LINE
  5
DE6
330
925
100
AcDbEntity
  8
0
  6
Continuous
 62
     3
100
AcDbLine
 10
72.02500000000002
 20
68.4
 30
0.0
 11
70.67499999999999
 21
67.2
 31
0.0
  0
LINE
  5
DE7
330
925
100
AcDbEntity
  8
0
  6
Continuous
 62
     3
100
AcDbLine
 10
70.67499999999999
 20
67.15
 30
0.0
 11
70.67499999999999
 21
67.15
 31
0.0
  0
LINE
  5
DE8
330
925
100
AcDbEntity
  8
0
  6
Continuous
 62
     3
100
AcDbLine
 10
72.625
 20
73.5
 30
0.0
 11
77.375
 21
73.5
 31
0.0
  0
LINE
  5
DE9
330
925
100
AcDbEntity
  8
0
  6
Continuous
 62
     3
100
AcDbLine
 10
77.575
 20
74.75
 30
0.0
 11
73.02500000000001
 21
74.75
 31
0.0
  0
LINE
  5
DEA
330
925
100
AcDbEntity
  8
0
  6
Continuous
 62
     3
100
AcDbLine
 10
73.47499999999998
 20
79.90000000000001
 30
0.0
 11
72.625
 21
80.90000000000001
 31
0.0
  0
LINE
  5
DEB
330
925
100
AcDbEntity
  8
0
  6
Continuous
 62
     3
100
AcDbLine
 10
73.22499999999998
 20
79.84999999999998
 30
0.0
 11
72.42499999999998
 21
80.75000000000001
 31
0.0
  0
LINE
  5
DEC
330
925
100
AcDbEntity
  8
0
  6
Continuous
 62
     3
100
AcDbLine
 10
78.525
 20
79.95
 30
0.0
 11
79.72499999999998
 21
80.95
 31
0.0
  0
LINE
  5
DED
330
925
100
AcDbEntity
  8
0
  6
Continuous
 62
     3
100
AcDbLine
 10
79.875
 20
80.75000000000001
 30
0.0
 11
78.72499999999998
 21
79.75
 31
0.0
  0
LINE
  5
DEE
330
925
100
AcDbEntity
  8
0
  6
Continuous
 62
     3
100
AcDbLine
 10
80.087727273
 20
80.54999999999997
 30
0.0
 11
79.23681818199999
 21
74.45
 31
0.0
  0
LINE
  5
DEF
330
925
100
AcDbEntity
  8
0
  6
Continuous
 62
     3
100
AcDbLine
 10
79.99318181799998
 20
80.7
 30
0.0
 11
80.075
 21
80.59999999999998
 31
0.0
  0
LINE
  5
DF0
330
925
100
AcDbEntity
  8
0
  6
Continuous
 62
     3
100
AcDbLine
 10
79.625
 20
81.15
 30
0.0
 11
79.829545455
 21
80.90000000000001
 31
0.0
  0
LINE
  5
DF1
330
925
100
AcDbEntity
  8
0
  6
Continuous
 62
     3
100
AcDbLine
 10
78.01590909099998
 20
74.65
 30
0.0
 11
78.72136363600001
 21
79.75
 31
0.0
  0
LINE
  5
DF2
330
925
100
AcDbEntity
  8
0
  6
Continuous
 62
     3
100
AcDbLine
 10
73.24318181799998
 20
79.90000000000001
 30
0.0
 11
72.50863636399998
 21
74.59999999999998
 31
0.0
  0
LINE
  5
DF3
330
925
100
AcDbEntity
  8
0
  6
Continuous
 62
     3
100
AcDbLine
 10
78.47499999999998
 20
79.90000000000001
 30
0.0
 11
73.375
 21
79.90000000000001
 31
0.0
  0
LINE
  5
DF4
330
925
100
AcDbEntity
  8
0
  6
Continuous
 62
     3
100
AcDbLine
 10
71.26071428600001
 20
74.5
 30
0.0
 11
72.103571429
 21
80.65000000000003
 31
0.0
  0
LINE
  5
DF5
330
925
100
AcDbEntity
  8
0
  6
Continuous
 62
     3
100
AcDbLine
 10
72.72499999999998
 20
81.15
 30
0.0
 11
79.67499999999998
 21
81.15
 31
0.0
  0
LINE
  5
DF6
330
925
100
AcDbEntity
  8
0
  6
Continuous
 62
     3
100
AcDbLine
 10
72.72499999999998
 20
81.09999999999997
 30
0.0
 11
72.67499999999998
 21
81.06538461499999
 31
0.0
  0
LINE
  5
DF7
330
925
100
AcDbEntity
  8
0
  6
Continuous
 62
     3
100
AcDbLine
 10
72.375
 20
80.85769230799998
 30
0.0
 11
72.075
 21
80.65000000000003
 31
0.0
  0
LINE
  5
DF8
330
925
100
AcDbEntity
  8
0
  6
Continuous
 62
     3
100
AcDbLine
 10
72.625
 20
80.90000000000001
 30
0.0
 11
72.575
 21
80.95
 31
0.0
  0
LINE
  5
DF9
330
925
100
AcDbEntity
  8
0
  6
Continuous
 62
     3
100
AcDbLine
 10
72.575
 20
80.95
 30
0.0
 11
72.67499999999998
 21
81.04999999999998
 31
0.0
  0
LINE
  5
DFA
330
925
100
AcDbEntity
  8
0
  6
Continuous
 62
     3
100
AcDbLine
 10
72.42499999999998
 20
80.75000000000001
 30
0.0
 11
72.375
 21
80.84999999999999
 31
0.0
  0
POINT
  5
DFB
330
925
100
AcDbEntity
  8
0
  6
Continuous
 62
     3
100
AcDbPoint
 10
65.363181818
 20
73.59999999999998
 30
0.0
  0
LINE
  5
DFC
330
925
100
AcDbEntity
  8
0
  6
Continuous
 62
     3
100
AcDbLine
 10
64.650454545
 20
68.7
 30
0.0
 11
65.334090909
 21
73.4
 31
0.0
  0
LINE
  5
DFD
330
925
100
AcDbEntity
  8
0
  6
Continuous
 62
     3
100
AcDbLine
 10
64.675
 20
68.65000000000001
 30
0.0
 11
65.47499999999999
 21
67.45
 31
0.0
  0
LINE
  5
DFE
330
925
100
AcDbEntity
  8
0
  6
Continuous
 62
     3
100
AcDbLine
 10
65.175
 20
67.15
 30
0.0
 11
65.325
 21
67.27
 31
0.0
  0
LINE
  5
DFF
330
925
100
AcDbEntity
  8
0
  6
Continuous
 62
     3
100
AcDbLine
 10
65.47499999999999
 20
67.39
 30
0.0
 11
65.67499999999999
 21
67.54999999999999
 31
0.0
  0
LINE
  5
E00
330
925
100
AcDbEntity
  8
0
  6
Continuous
 62
     3
100
AcDbLine
 10
66.425
 20
74.0
 30
0.0
 11
66.625
 21
73.9
 31
0.0
  0
LINE
  5
E01
330
925
100
AcDbEntity
  8
0
  6
Continuous
 62
     3
100
AcDbLine
 10
66.47499999999999
 20
74.29999999999998
 30
0.0
 11
66.77500000000001
 21
74.5
 31
0.0
  0
LINE
  5
E02
330
925
100
AcDbEntity
  8
0
  6
Continuous
 62
     3
100
AcDbLine
 10
59.02499999999999
 20
74.25
 30
0.0
 11
58.775
 21
74.5
 31
0.0
  0
LINE
  5
E03
330
925
100
AcDbEntity
  8
0
  6
Continuous
 62
     3
100
AcDbLine
 10
59.975
 20
74.7
 30
0.0
 11
59.02499999999999
 21
74.31296296300001
 31
0.0
  0
LINE
  5
E04
330
925
100
AcDbEntity
  8
0
  6
Continuous
 62
     3
100
AcDbLine
 10
65.125
 20
74.65
 30
0.0
 11
66.075
 21
74.15
 31
0.0
  0
LINE
  5
E05
330
925
100
AcDbEntity
  8
0
  6
Continuous
 62
     3
100
AcDbLine
 10
66.075
 20
74.15
 30
0.0
 11
64.875
 21
73.5
 31
0.0
  0
LINE
  5
E06
330
925
100
AcDbEntity
  8
0
  6
Continuous
 62
     3
100
AcDbLine
 10
60.475
 20
74.7
 30
0.0
 11
59.275
 21
74.09999999999998
 31
0.0
  0
LINE
  5
E07
330
925
100
AcDbEntity
  8
0
  6
Continuous
 62
     3
100
AcDbLine
 10
60.075
 20
73.54999999999998
 30
0.0
 11
59.325
 21
74.0
 31
0.0
  0
LINE
  5
E08
330
925
100
AcDbEntity
  8
0
  6
Continuous
 62
     3
100
AcDbLine
 10
66.64954545499999
 20
73.84999999999998
 30
0.0
 11
65.74045454500001
 21
67.59999999999999
 31
0.0
  0
LINE
  5
E09
330
925
100
AcDbEntity
  8
0
  6
Continuous
 62
     3
100
AcDbLine
 10
66.47499999999999
 20
74.23181818199998
 30
0.0
 11
65.52500000000001
 21
74.75
 31
0.0
  0
LINE
  5
E0A
330
925
100
AcDbEntity
  8
0
  6
Continuous
 62
     3
100
AcDbLine
 10
65.325
 20
73.45
 30
0.0
 11
66.425
 21
74.02199999999997
 31
0.0
  0
LINE
  5
E0B
330
925
100
AcDbEntity
  8
0
  6
Continuous
 62
     3
100
AcDbLine
 10
64.47499999999999
 20
68.4
 30
0.0
 11
59.525
 21
68.4
 31
0.0
  0
LINE
  5
E0C
330
925
100
AcDbEntity
  8
0
  6
Continuous
 62
     3
100
AcDbLine
 10
64.47499999999999
 20
68.45
 30
0.0
 11
65.275
 21
67.2
 31
0.0
  0
LINE
  5
E0D
330
925
100
AcDbEntity
  8
0
  6
Continuous
 62
     3
100
AcDbLine
 10
60.125
 20
73.5
 30
0.0
 11
64.875
 21
73.5
 31
0.0
  0
LINE
  5
E0E
330
925
100
AcDbEntity
  8
0
  6
Continuous
 62
     3
100
AcDbLine
 10
65.075
 20
74.75
 30
0.0
 11
60.525
 21
74.75
 31
0.0
  0
LINE
  5
E0F
330
925
100
AcDbEntity
  8
0
  6
Continuous
 62
     3
100
AcDbLine
 10
66.025
 20
79.95
 30
0.0
 11
67.225
 21
80.95
 31
0.0
  0
LINE
  5
E10
330
925
100
AcDbEntity
  8
0
  6
Continuous
 62
     3
100
AcDbLine
 10
67.375
 20
80.75000000000001
 30
0.0
 11
66.22499999999999
 21
79.75
 31
0.0
  0
LINE
  5
E11
330
925
100
AcDbEntity
  8
0
  6
Continuous
 62
     3
100
AcDbLine
 10
67.587727273
 20
80.54999999999997
 30
0.0
 11
66.73681818199999
 21
74.45
 31
0.0
  0
LINE
  5
E12
330
925
100
AcDbEntity
  8
0
  6
Continuous
 62
     3
100
AcDbLine
 10
67.49318181799999
 20
80.7
 30
0.0
 11
67.575
 21
80.59999999999998
 31
0.0
  0
LINE
  5
E13
330
925
100
AcDbEntity
  8
0
  6
Continuous
 62
     3
100
AcDbLine
 10
67.125
 20
81.15
 30
0.0
 11
67.329545455
 21
80.90000000000001
 31
0.0
  0
LINE
  5
E14
330
925
100
AcDbEntity
  8
0
  6
Continuous
 62
     3
100
AcDbLine
 10
65.51590909099997
 20
74.65
 30
0.0
 11
66.22136363600001
 21
79.75
 31
0.0
  0
LINE
  5
E15
330
925
100
AcDbEntity
  8
0
  6
Continuous
 62
     3
100
AcDbLine
 10
58.760714286
 20
74.5
 30
0.0
 11
59.603571429
 21
80.65000000000003
 31
0.0
  0
LINE
  5
E16
330
925
100
AcDbEntity
  8
0
  6
Continuous
 62
     3
100
AcDbLine
 10
65.975
 20
79.90000000000001
 30
0.0
 11
60.925
 21
79.90000000000001
 31
0.0
  0
LINE
  5
E17
330
925
100
AcDbEntity
  8
0
  6
Continuous
 62
     3
100
AcDbLine
 10
60.925
 20
79.90000000000001
 30
0.0
 11
59.92499999999999
 21
80.90000000000001
 31
0.0
  0
LINE
  5
E18
330
925
100
AcDbEntity
  8
0
  6
Continuous
 62
     3
100
AcDbLine
 10
60.67499999999999
 20
79.65
 30
0.0
 11
59.675
 21
80.65000000000003
 31
0.0
  0
LINE
  5
E19
330
925
100
AcDbEntity
  8
0
  6
Continuous
 62
     3
100
AcDbLine
 10
60.708533448
 20
79.65
 30
0.0
 11
60.008636364
 21
74.59999999999998
 31
0.0
  0
LINE
  5
E1A
330
925
100
AcDbEntity
  8
0
  6
Continuous
 62
     3
100
AcDbLine
 10
60.175
 20
81.15
 30
0.0
 11
67.175
 21
81.15
 31
0.0
  0
LINE
  5
E1B
330
925
100
AcDbEntity
  8
0
  6
Continuous
 62
     3
100
AcDbLine
 10
59.92499999999999
 20
80.90000000000001
 30
0.0
 11
60.175
 21
81.15
 31
0.0
  0
LINE
  5
E1C
330
925
100
AcDbEntity
  8
0
  6
Continuous
 62
     3
100
AcDbLine
 10
59.55
 20
80.525
 30
0.0
 11
59.675
 21
80.65000000000003
 31
0.0
  0
LINE
  5
E1D
330
925
100
AcDbEntity
  8
0
  6
Continuous
 62
     3
100
AcDbLine
 10
65.175
 20
67.15
 30
0.0
 11
58.17499999999999
 21
67.15
 31
0.0
  0
LINE
  5
E1E
330
925
100
AcDbEntity
  8
0
  6
Continuous
 62
     3
100
AcDbLine
 10
59.525
 20
68.4
 30
0.0
 11
58.17499999999999
 21
67.2
 31
0.0
  0
POINT
  5
E20
330
925
100
AcDbEntity
  8
0
  6
Continuous
 62
     3
100
AcDbPoint
 10
102.8631818179998
 20
73.59999999999998
 30
0.0
  0
LINE
  5
E21
330
925
100
AcDbEntity
  8
0
  6
Continuous
 62
     3
100
AcDbLine
 10
102.150454545
 20
68.7
 30
0.0
 11
102.8340909089999
 21
73.4
 31
0.0
  0
LINE
  5
E22
330
925
100
AcDbEntity
  8
0
  6
Continuous
 62
     3
100
AcDbLine
 10
102.1749999999999
 20
68.65000000000001
 30
0.0
 11
102.9749999999997
 21
67.45
 31
0.0
  0
LINE
  5
E23
330
925
100
AcDbEntity
  8
0
  6
Continuous
 62
     3
100
AcDbLine
 10
102.675
 20
67.15
 30
0.0
 11
102.825
 21
67.27
 31
0.0
  0
LINE
  5
E24
330
925
100
AcDbEntity
  8
0
  6
Continuous
 62
     3
100
AcDbLine
 10
102.9749999999997
 20
67.39
 30
0.0
 11
103.1749999999999
 21
67.54999999999999
 31
0.0
  0
LINE
  5
E25
330
925
100
AcDbEntity
  8
0
  6
Continuous
 62
     3
100
AcDbLine
 10
102.675
 20
67.15
 30
0.0
 11
95.675
 21
67.15
 31
0.0
  0
LINE
  5
E26
330
925
100
AcDbEntity
  8
0
  6
Continuous
 62
     3
100
AcDbLine
 10
103.925
 20
74.0
 30
0.0
 11
104.125
 21
73.9
 31
0.0
  0
LINE
  5
E27
330
925
100
AcDbEntity
  8
0
  6
Continuous
 62
     3
100
AcDbLine
 10
103.9749999999997
 20
74.29999999999998
 30
0.0
 11
104.275
 21
74.5
 31
0.0
  0
LINE
  5
E28
330
925
100
AcDbEntity
  8
0
  6
Continuous
 62
     3
100
AcDbLine
 10
96.52500000000001
 20
74.25
 30
0.0
 11
96.27500000000001
 21
74.5
 31
0.0
  0
LINE
  5
E29
330
925
100
AcDbEntity
  8
0
  6
Continuous
 62
     3
100
AcDbLine
 10
97.475
 20
74.7
 30
0.0
 11
96.52500000000001
 21
74.31296296300001
 31
0.0
  0
LINE
  5
E2A
330
925
100
AcDbEntity
  8
0
  6
Continuous
 62
     3
100
AcDbLine
 10
102.625
 20
74.65
 30
0.0
 11
103.5749999999999
 21
74.15
 31
0.0
  0
LINE
  5
E2B
330
925
100
AcDbEntity
  8
0
  6
Continuous
 62
     3
100
AcDbLine
 10
103.5749999999999
 20
74.15
 30
0.0
 11
102.3749999999999
 21
73.5
 31
0.0
  0
LINE
  5
E2C
330
925
100
AcDbEntity
  8
0
  6
Continuous
 62
     3
100
AcDbLine
 10
97.97499999999999
 20
74.7
 30
0.0
 11
96.77500000000001
 21
74.09999999999998
 31
0.0
  0
LINE
  5
E2D
330
925
100
AcDbEntity
  8
0
  6
Continuous
 62
     3
100
AcDbLine
 10
97.575
 20
73.54999999999998
 30
0.0
 11
96.825
 21
74.0
 31
0.0
  0
LINE
  5
E2E
330
925
100
AcDbEntity
  8
0
  6
Continuous
 62
     3
100
AcDbLine
 10
104.1495454549999
 20
73.84999999999998
 30
0.0
 11
103.240454545
 21
67.59999999999999
 31
0.0
  0
LINE
  5
E2F
330
925
100
AcDbEntity
  8
0
  6
Continuous
 62
     3
100
AcDbLine
 10
103.9749999999997
 20
74.23181818199998
 30
0.0
 11
103.025
 21
74.75
 31
0.0
  0
LINE
  5
E30
330
925
100
AcDbEntity
  8
0
  6
Continuous
 62
     3
100
AcDbLine
 10
102.825
 20
73.45
 30
0.0
 11
103.925
 21
74.02199999999997
 31
0.0
  0
LINE
  5
E31
330
925
100
AcDbEntity
  8
0
  6
Continuous
 62
     3
100
AcDbLine
 10
101.9749999999997
 20
68.4
 30
0.0
 11
97.025
 21
68.4
 31
0.0
  0
LINE
  5
E32
330
925
100
AcDbEntity
  8
0
  6
Continuous
 62
     3
100
AcDbLine
 10
101.9749999999997
 20
68.45
 30
0.0
 11
102.775
 21
67.2
 31
0.0
  0
LINE
  5
E33
330
925
100
AcDbEntity
  8
0
  6
Continuous
 62
     3
100
AcDbLine
 10
97.025
 20
68.4
 30
0.0
 11
95.675
 21
67.2
 31
0.0
  0
LINE
  5
E34
330
925
100
AcDbEntity
  8
0
  6
Continuous
 62
     3
100
AcDbLine
 10
95.675
 20
67.15
 30
0.0
 11
95.675
 21
67.15
 31
0.0
  0
LINE
  5
E35
330
925
100
AcDbEntity
  8
0
  6
Continuous
 62
     3
100
AcDbLine
 10
97.62500000000001
 20
73.5
 30
0.0
 11
102.3749999999999
 21
73.5
 31
0.0
  0
LINE
  5
E36
330
925
100
AcDbEntity
  8
0
  6
Continuous
 62
     3
100
AcDbLine
 10
102.5749999999999
 20
74.75
 30
0.0
 11
98.02500000000001
 21
74.75
 31
0.0
  0
POINT
  5
E37
330
925
100
AcDbEntity
  8
0
  6
Continuous
 62
     3
100
AcDbPoint
 10
90.36318181799998
 20
73.59999999999998
 30
0.0
  0
LINE
  5
E38
330
925
100
AcDbEntity
  8
0
  6
Continuous
 62
     3
100
AcDbLine
 10
89.650454545
 20
68.7
 30
0.0
 11
90.33409090899999
 21
73.4
 31
0.0
  0
LINE
  5
E39
330
925
100
AcDbEntity
  8
0
  6
Continuous
 62
     3
100
AcDbLine
 10
89.67499999999999
 20
68.65000000000001
 30
0.0
 11
90.47499999999999
 21
67.45
 31
0.0
  0
LINE
  5
E3A
330
925
100
AcDbEntity
  8
0
  6
Continuous
 62
     3
100
AcDbLine
 10
90.175
 20
67.15
 30
0.0
 11
90.325
 21
67.27
 31
0.0
  0
LINE
  5
E3B
330
925
100
AcDbEntity
  8
0
  6
Continuous
 62
     3
100
AcDbLine
 10
90.47499999999999
 20
67.39
 30
0.0
 11
90.675
 21
67.54999999999999
 31
0.0
  0
LINE
  5
E3C
330
925
100
AcDbEntity
  8
0
  6
Continuous
 62
     3
100
AcDbLine
 10
90.175
 20
67.15
 30
0.0
 11
83.17499999999999
 21
67.15
 31
0.0
  0
LINE
  5
E3D
330
925
100
AcDbEntity
  8
0
  6
Continuous
 62
     3
100
AcDbLine
 10
91.425
 20
74.0
 30
0.0
 11
91.62499999999999
 21
73.9
 31
0.0
  0
LINE
  5
E3E
330
925
100
AcDbEntity
  8
0
  6
Continuous
 62
     3
100
AcDbLine
 10
91.47499999999999
 20
74.29999999999998
 30
0.0
 11
91.775
 21
74.5
 31
0.0
  0
LINE
  5
E3F
330
925
100
AcDbEntity
  8
0
  6
Continuous
 62
     3
100
AcDbLine
 10
84.02500000000001
 20
74.25
 30
0.0
 11
83.77500000000003
 21
74.5
 31
0.0
  0
LINE
  5
E40
330
925
100
AcDbEntity
  8
0
  6
Continuous
 62
     3
100
AcDbLine
 10
84.97499999999998
 20
74.7
 30
0.0
 11
84.02500000000001
 21
74.31296296300001
 31
0.0
  0
LINE
  5
E41
330
925
100
AcDbEntity
  8
0
  6
Continuous
 62
     3
100
AcDbLine
 10
90.12500000000001
 20
74.65
 30
0.0
 11
91.07499999999999
 21
74.15
 31
0.0
  0
LINE
  5
E42
330
925
100
AcDbEntity
  8
0
  6
Continuous
 62
     3
100
AcDbLine
 10
91.07499999999999
 20
74.15
 30
0.0
 11
89.875
 21
73.5
 31
0.0
  0
LINE
  5
E43
330
925
100
AcDbEntity
  8
0
  6
Continuous
 62
     3
100
AcDbLine
 10
85.47499999999997
 20
74.7
 30
0.0
 11
84.275
 21
74.09999999999998
 31
0.0
  0
LINE
  5
E44
330
925
100
AcDbEntity
  8
0
  6
Continuous
 62
     3
100
AcDbLine
 10
85.075
 20
73.54999999999998
 30
0.0
 11
84.325
 21
74.0
 31
0.0
  0
LINE
  5
E45
330
925
100
AcDbEntity
  8
0
  6
Continuous
 62
     3
100
AcDbLine
 10
91.649545455
 20
73.84999999999998
 30
0.0
 11
90.740454545
 21
67.59999999999999
 31
0.0
  0
LINE
  5
E46
330
925
100
AcDbEntity
  8
0
  6
Continuous
 62
     3
100
AcDbLine
 10
91.47499999999999
 20
74.23181818199998
 30
0.0
 11
90.525
 21
74.75
 31
0.0
  0
LINE
  5
E47
330
925
100
AcDbEntity
  8
0
  6
Continuous
 62
     3
100
AcDbLine
 10
90.325
 20
73.45
 30
0.0
 11
91.425
 21
74.02199999999997
 31
0.0
  0
LINE
  5
E48
330
925
100
AcDbEntity
  8
0
  6
Continuous
 62
     3
100
AcDbLine
 10
89.47499999999998
 20
68.4
 30
0.0
 11
84.525
 21
68.4
 31
0.0
  0
LINE
  5
E49
330
925
100
AcDbEntity
  8
0
  6
Continuous
 62
     3
100
AcDbLine
 10
89.47499999999998
 20
68.45
 30
0.0
 11
90.27500000000001
 21
67.2
 31
0.0
  0
LINE
  5
E4A
330
925
100
AcDbEntity
  8
0
  6
Continuous
 62
     3
100
AcDbLine
 10
84.525
 20
68.4
 30
0.0
 11
83.17499999999999
 21
67.2
 31
0.0
  0
LINE
  5
E4B
330
925
100
AcDbEntity
  8
0
  6
Continuous
 62
     3
100
AcDbLine
 10
83.17499999999999
 20
67.15
 30
0.0
 11
83.17499999999999
 21
67.15
 31
0.0
  0
LINE
  5
E4C
330
925
100
AcDbEntity
  8
0
  6
Continuous
 62
     3
100
AcDbLine
 10
85.12500000000001
 20
73.5
 30
0.0
 11
89.875
 21
73.5
 31
0.0
  0
LINE
  5
E4D
330
925
100
AcDbEntity
  8
0
  6
Continuous
 62
     3
100
AcDbLine
 10
90.075
 20
74.75
 30
0.0
 11
85.525
 21
74.75
 31
0.0
  0
LINE
  5
E4E
330
925
100
AcDbEntity
  8
0
  6
Continuous
 62
     3
100
AcDbLine
 10
98.475
 20
79.90000000000001
 30
0.0
 11
97.62500000000001
 21
80.90000000000001
 31
0.0
  0
LINE
  5
E4F
330
925
100
AcDbEntity
  8
0
  6
Continuous
 62
     3
100
AcDbLine
 10
98.22499999999999
 20
79.84999999999998
 30
0.0
 11
97.42499999999999
 21
80.75000000000001
 31
0.0
  0
LINE
  5
E50
330
925
100
AcDbEntity
  8
0
  6
Continuous
 62
     3
100
AcDbLine
 10
103.525
 20
79.95
 30
0.0
 11
104.725
 21
80.95
 31
0.0
  0
LINE
  5
E51
330
925
100
AcDbEntity
  8
0
  6
Continuous
 62
     3
100
AcDbLine
 10
104.875
 20
80.75000000000001
 30
0.0
 11
103.725
 21
79.75
 31
0.0
  0
LINE
  5
E52
330
925
100
AcDbEntity
  8
0
  6
Continuous
 62
     3
100
AcDbLine
 10
105.0877272729999
 20
80.54999999999997
 30
0.0
 11
104.236818182
 21
74.45
 31
0.0
  0
LINE
  5
E53
330
925
100
AcDbEntity
  8
0
  6
Continuous
 62
     3
100
AcDbLine
 10
104.9931818179999
 20
80.7
 30
0.0
 11
105.075
 21
80.59999999999998
 31
0.0
  0
LINE
  5
E54
330
925
100
AcDbEntity
  8
0
  6
Continuous
 62
     3
100
AcDbLine
 10
104.625
 20
81.15
 30
0.0
 11
104.829545455
 21
80.90000000000001
 31
0.0
  0
LINE
  5
E55
330
925
100
AcDbEntity
  8
0
  6
Continuous
 62
     3
100
AcDbLine
 10
103.015909091
 20
74.65
 30
0.0
 11
103.721363636
 21
79.75
 31
0.0
  0
LINE
  5
E56
330
925
100
AcDbEntity
  8
0
  6
Continuous
 62
     3
100
AcDbLine
 10
98.243181818
 20
79.90000000000001
 30
0.0
 11
97.508636364
 21
74.59999999999998
 31
0.0
  0
LINE
  5
E57
330
925
100
AcDbEntity
  8
0
  6
Continuous
 62
     3
100
AcDbLine
 10
103.475
 20
79.90000000000001
 30
0.0
 11
98.375
 21
79.90000000000001
 31
0.0
  0
LINE
  5
E58
330
925
100
AcDbEntity
  8
0
  6
Continuous
 62
     3
100
AcDbLine
 10
96.26071428600001
 20
74.5
 30
0.0
 11
97.10357142900001
 21
80.65000000000003
 31
0.0
  0
LINE
  5
E59
330
925
100
AcDbEntity
  8
0
  6
Continuous
 62
     3
100
AcDbLine
 10
97.725
 20
81.15
 30
0.0
 11
104.675
 21
81.15
 31
0.0
  0
LINE
  5
E5A
330
925
100
AcDbEntity
  8
0
  6
Continuous
 62
     3
100
AcDbLine
 10
97.725
 20
81.09999999999997
 30
0.0
 11
97.675
 21
81.06538461499999
 31
0.0
  0
LINE
  5
E5B
330
925
100
AcDbEntity
  8
0
  6
Continuous
 62
     3
100
AcDbLine
 10
97.375
 20
80.85769230799998
 30
0.0
 11
97.07500000000001
 21
80.65000000000003
 31
0.0
  0
LINE
  5
E5C
330
925
100
AcDbEntity
  8
0
  6
Continuous
 62
     3
100
AcDbLine
 10
97.62500000000001
 20
80.90000000000001
 30
0.0
 11
97.575
 21
80.95
 31
0.0
  0
LINE
  5
E5D
330
925
100
AcDbEntity
  8
0
  6
Continuous
 62
     3
100
AcDbLine
 10
97.575
 20
80.95
 30
0.0
 11
97.675
 21
81.04999999999998
 31
0.0
  0
LINE
  5
E5E
330
925
100
AcDbEntity
  8
0
  6
Continuous
 62
     3
100
AcDbLine
 10
97.42499999999999
 20
80.75000000000001
 30
0.0
 11
97.375
 21
80.84999999999999
 31
0.0
  0
LINE
  5
E5F
330
925
100
AcDbEntity
  8
0
  6
Continuous
 62
     3
100
AcDbLine
 10
85.97499999999998
 20
79.90000000000001
 30
0.0
 11
85.12500000000001
 21
80.90000000000001
 31
0.0
  0
LINE
  5
E60
330
925
100
AcDbEntity
  8
0
  6
Continuous
 62
     3
100
AcDbLine
 10
85.72499999999998
 20
79.84999999999998
 30
0.0
 11
84.92499999999997
 21
80.75000000000001
 31
0.0
  0
LINE
  5
E61
330
925
100
AcDbEntity
  8
0
  6
Continuous
 62
     3
100
AcDbLine
 10
91.025
 20
79.95
 30
0.0
 11
92.225
 21
80.95
 31
0.0
  0
LINE
  5
E62
330
925
100
AcDbEntity
  8
0
  6
Continuous
 62
     3
100
AcDbLine
 10
92.375
 20
80.75000000000001
 30
0.0
 11
91.225
 21
79.75
 31
0.0
  0
LINE
  5
E63
330
925
100
AcDbEntity
  8
0
  6
Continuous
 62
     3
100
AcDbLine
 10
92.58772727300002
 20
80.54999999999997
 30
0.0
 11
91.736818182
 21
74.45
 31
0.0
  0
LINE
  5
E64
330
925
100
AcDbEntity
  8
0
  6
Continuous
 62
     3
100
AcDbLine
 10
92.49318181799999
 20
80.7
 30
0.0
 11
92.575
 21
80.59999999999998
 31
0.0
  0
LINE
  5
E65
330
925
100
AcDbEntity
  8
0
  6
Continuous
 62
     3
100
AcDbLine
 10
92.125
 20
81.15
 30
0.0
 11
92.329545455
 21
80.90000000000001
 31
0.0
  0
LINE
  5
E66
330
925
100
AcDbEntity
  8
0
  6
Continuous
 62
     3
100
AcDbLine
 10
90.51590909099994
 20
74.65
 30
0.0
 11
91.22136363600001
 21
79.75
 31
0.0
  0
LINE
  5
E67
330
925
100
AcDbEntity
  8
0
  6
Continuous
 62
     3
100
AcDbLine
 10
85.74318181799998
 20
79.90000000000001
 30
0.0
 11
85.00863636399998
 21
74.59999999999998
 31
0.0
  0
LINE
  5
E68
330
925
100
AcDbEntity
  8
0
  6
Continuous
 62
     3
100
AcDbLine
 10
90.975
 20
79.90000000000001
 30
0.0
 11
85.875
 21
79.90000000000001
 31
0.0
  0
LINE
  5
E69
330
925
100
AcDbEntity
  8
0
  6
Continuous
 62
     3
100
AcDbLine
 10
83.76071428600001
 20
74.5
 30
0.0
 11
84.60357142899999
 21
80.65000000000003
 31
0.0
  0
LINE
  5
E6A
330
925
100
AcDbEntity
  8
0
  6
Continuous
 62
     3
100
AcDbLine
 10
85.22499999999999
 20
81.15
 30
0.0
 11
92.17499999999999
 21
81.15
 31
0.0
  0
LINE
  5
E6B
330
925
100
AcDbEntity
  8
0
  6
Continuous
 62
     3
100
AcDbLine
 10
85.22499999999999
 20
81.09999999999997
 30
0.0
 11
85.17499999999998
 21
81.06538461499999
 31
0.0
  0
LINE
  5
E6C
330
925
100
AcDbEntity
  8
0
  6
Continuous
 62
     3
100
AcDbLine
 10
84.875
 20
80.85769230799998
 30
0.0
 11
84.57500000000001
 21
80.65000000000003
 31
0.0
  0
LINE
  5
E6D
330
925
100
AcDbEntity
  8
0
  6
Continuous
 62
     3
100
AcDbLine
 10
85.12500000000001
 20
80.90000000000001
 30
0.0
 11
85.075
 21
80.95
 31
0.0
  0
LINE
  5
E6E
330
925
100
AcDbEntity
  8
0
  6
Continuous
 62
     3
100
AcDbLine
 10
85.075
 20
80.95
 30
0.0
 11
85.17499999999998
 21
81.04999999999998
 31
0.0
  0
LINE
  5
E6F
330
925
100
AcDbEntity
  8
0
  6
Continuous
 62
     3
100
AcDbLine
 10
84.92499999999997
 20
80.75000000000001
 30
0.0
 11
84.875
 21
80.84999999999999
 31
0.0
  0
POINT
  5
E70
330
925
100
AcDbEntity
  8
0
  6
Continuous
 62
     3
100
AcDbPoint
 10
114.7249999999995
 20
78.15000000000002
 30
0.0
  0
POINT
  5
E71
330
925
100
AcDbEntity
  8
0
  6
Continuous
 62
     3
100
AcDbPoint
 10
114.7249999999995
 20
78.15000000000002
 30
0.0
  0
POINT
  5
E72
330
925
100
AcDbEntity
  8
0
  6
Continuous
 62
     3
100
AcDbPoint
 10
110.975
 20
78.15000000000002
 30
0.0
  0
POINT
  5
E73
330
925
100
AcDbEntity
  8
0
  6
Continuous
 62
     3
100
AcDbPoint
 10
114.4749999999997
 20
86.15
 30
0.0
  0
LINE
  5
E74
330
925
100
AcDbEntity
  8
0
  6
Continuous
 62
     3
100
AcDbLine
 10
112.7249999999998
 20
82.5
 30
0.0
 11
111.575
 21
82.5
 31
0.0
  0
LINE
  5
E75
330
925
100
AcDbEntity
  8
0
  6
Continuous
 62
     3
100
AcDbLine
 10
111.525
 20
81.75
 30
0.0
 11
114.0249999999999
 21
81.75
 31
0.0
  0
LINE
  5
E76
330
925
100
AcDbEntity
  8
0
  6
Continuous
 62
     3
100
AcDbLine
 10
114.325
 20
85.4
 30
0.0
 11
114.8249999999999
 21
86.0
 31
0.0
  0
LINE
  5
E77
330
925
100
AcDbEntity
  8
0
  6
Continuous
 62
     3
100
AcDbLine
 10
115.0249999999999
 20
85.95
 30
0.0
 11
114.4249999999999
 21
85.20000000000001
 31
0.0
  0
LINE
  5
E78
330
925
100
AcDbEntity
  8
0
  6
Continuous
 62
     3
100
AcDbLine
 10
111.975
 20
85.44999999999998
 30
0.0
 11
111.525
 21
86.0
 31
0.0
  0
LINE
  5
E79
330
925
100
AcDbEntity
  8
0
  6
Continuous
 62
     3
100
AcDbLine
 10
111.875
 20
85.25
 30
0.0
 11
111.375
 21
85.90000000000001
 31
0.0
  0
LINE
  5
E7A
330
925
100
AcDbEntity
  8
0
  6
Continuous
 62
     3
100
AcDbLine
 10
114.0249999999999
 20
82.59999999999998
 30
0.0
 11
114.6749999999999
 21
82.09999999999999
 31
0.0
  0
LINE
  5
E7B
330
925
100
AcDbEntity
  8
0
  6
Continuous
 62
     3
100
AcDbLine
 10
113.975
 20
82.45
 30
0.0
 11
114.6249999999999
 21
81.95
 31
0.0
  0
LINE
  5
E7C
330
925
100
AcDbEntity
  8
0
  6
Continuous
 62
     3
100
AcDbLine
 10
114.6249999999999
 20
81.95
 30
0.0
 11
113.925
 21
81.75
 31
0.0
  0
LINE
  5
E7D
330
925
100
AcDbEntity
  8
0
  6
Continuous
 62
     3
100
AcDbLine
 10
113.925
 20
81.59999999999998
 30
0.0
 11
114.6749999999999
 21
81.79999999999997
 31
0.0
  0
LINE
  5
E7E
330
925
100
AcDbEntity
  8
0
  6
Continuous
 62
     3
100
AcDbLine
 10
111.525
 20
82.5
 30
0.0
 11
110.875
 21
82.2
 31
0.0
  0
LINE
  5
E7F
330
925
100
AcDbEntity
  8
0
  6
Continuous
 62
     3
100
AcDbLine
 10
110.875
 20
82.2
 30
0.0
 11
111.4749999999997
 21
81.75
 31
0.0
  0
LINE
  5
E80
330
925
100
AcDbEntity
  8
0
  6
Continuous
 62
     3
100
AcDbLine
 10
110.775
 20
82.29999999999998
 30
0.0
 11
111.525
 21
82.70000000000001
 31
0.0
  0
LINE
  5
E81
330
925
100
AcDbEntity
  8
0
  6
Continuous
 62
     3
100
AcDbLine
 10
113.575
 20
79.0
 30
0.0
 11
114.125
 21
78.45
 31
0.0
  0
LINE
  5
E82
330
925
100
AcDbEntity
  8
0
  6
Continuous
 62
     3
100
AcDbLine
 10
113.4749999999997
 20
78.9
 30
0.0
 11
114.0249999999999
 21
78.34999999999998
 31
0.0
  0
LINE
  5
E83
330
925
100
AcDbEntity
  8
0
  6
Continuous
 62
     3
100
AcDbLine
 10
110.441666667
 20
78.34999999999998
 30
0.0
 11
110.575
 21
78.15000000000002
 31
0.0
  0
LINE
  5
E84
330
925
100
AcDbEntity
  8
0
  6
Continuous
 62
     3
100
AcDbLine
 10
113.4749999999997
 20
78.9
 30
0.0
 11
111.075
 21
78.9
 31
0.0
  0
LINE
  5
E85
330
925
100
AcDbEntity
  8
0
  6
Continuous
 62
     3
100
AcDbLine
 10
114.125
 20
78.422222222
 30
0.0
 11
114.2249999999995
 21
78.5
 31
0.0
  0
LINE
  5
E86
330
925
100
AcDbEntity
  8
0
  6
Continuous
 62
     3
100
AcDbLine
 10
113.775
 20
78.15000000000002
 30
0.0
 11
114.0249999999999
 21
78.34444444399995
 31
0.0
  0
LINE
  5
E87
330
925
100
AcDbEntity
  8
0
  6
Continuous
 62
     3
100
AcDbLine
 10
113.775
 20
78.15000000000002
 30
0.0
 11
110.525
 21
78.15000000000002
 31
0.0
  0
LINE
  5
E88
330
925
100
AcDbEntity
  8
0
  6
Continuous
 62
     3
100
AcDbLine
 10
114.6796874999999
 20
81.78749999999999
 30
0.0
 11
114.2671875
 21
78.48749999999999
 31
0.0
  0
LINE
  5
E89
330
925
100
AcDbEntity
  8
0
  6
Continuous
 62
     3
100
AcDbLine
 10
113.8984374999999
 20
81.53749999999998
 30
0.0
 11
113.5859375
 21
79.03749999999998
 31
0.0
  0
LINE
  5
E8A
330
925
100
AcDbEntity
  8
0
  6
Continuous
 62
     3
100
AcDbLine
 10
113.925
 20
82.5
 30
0.0
 11
112.775
 21
82.5
 31
0.0
  0
LINE
  5
E8B
330
925
100
AcDbEntity
  8
0
  6
Continuous
 62
     3
100
AcDbLine
 10
111.5546874999999
 20
82.78749999999998
 30
0.0
 11
111.8609375
 21
85.23749999999997
 31
0.0
  0
LINE
  5
E8C
330
925
100
AcDbEntity
  8
0
  6
Continuous
 62
     3
100
AcDbLine
 10
111.325
 20
85.88571428600001
 30
0.0
 11
111.2249999999997
 21
85.79999999999998
 31
0.0
  0
LINE
  5
E8D
330
925
100
AcDbEntity
  8
0
  6
Continuous
 62
     3
100
AcDbLine
 10
111.575
 20
86.09999999999997
 30
0.0
 11
111.525
 21
86.05714285700001
 31
0.0
  0
LINE
  5
E8E
330
925
100
AcDbEntity
  8
0
  6
Continuous
 62
     3
100
AcDbLine
 10
110.7421875
 20
82.28749999999998
 30
0.0
 11
111.1734375
 21
85.73749999999998
 31
0.0
  0
LINE
  5
E8F
330
925
100
AcDbEntity
  8
0
  6
Continuous
 62
     3
100
AcDbLine
 10
112.025
 20
85.4
 30
0.0
 11
114.375
 21
85.4
 31
0.0
  0
LINE
  5
E90
330
925
100
AcDbEntity
  8
0
  6
Continuous
 62
     3
100
AcDbLine
 10
114.3484375
 20
85.13749999999998
 30
0.0
 11
114.0296874999995
 21
82.5875
 31
0.0
  0
LINE
  5
E91
330
925
100
AcDbEntity
  8
0
  6
Continuous
 62
     3
100
AcDbLine
 10
115.075
 20
85.95714285700001
 30
0.0
 11
115.175
 21
85.90000000000001
 31
0.0
  0
LINE
  5
E92
330
925
100
AcDbEntity
  8
0
  6
Continuous
 62
     3
100
AcDbLine
 10
114.8249999999999
 20
86.09999999999997
 30
0.0
 11
114.8749999999999
 21
86.07142857099999
 31
0.0
  0
LINE
  5
E93
330
925
100
AcDbEntity
  8
0
  6
Continuous
 62
     3
100
AcDbLine
 10
111.6249999999999
 20
86.15
 30
0.0
 11
114.775
 21
86.15
 31
0.0
  0
LINE
  5
E94
330
925
100
AcDbEntity
  8
0
  6
Continuous
 62
     3
100
AcDbLine
 10
115.2249999999995
 20
85.90000000000001
 30
0.0
 11
114.7249999999995
 21
82.15000000000001
 31
0.0
  0
POINT
  5
E95
330
925
100
AcDbEntity
  8
0
  6
Continuous
 62
     3
100
AcDbPoint
 10
121.8499999999997
 20
78.15000000000002
 30
0.0
  0
POINT
  5
E96
330
925
100
AcDbEntity
  8
0
  6
Continuous
 62
     3
100
AcDbPoint
 10
121.8499999999997
 20
78.15000000000002
 30
0.0
  0
POINT
  5
E97
330
925
100
AcDbEntity
  8
0
  6
Continuous
 62
     3
100
AcDbPoint
 10
118.1
 20
78.15000000000002
 30
0.0
  0
POINT
  5
E98
330
925
100
AcDbEntity
  8
0
  6
Continuous
 62
     3
100
AcDbPoint
 10
121.5999999999997
 20
86.15
 30
0.0
  0
LINE
  5
E99
330
925
100
AcDbEntity
  8
0
  6
Continuous
 62
     3
100
AcDbLine
 10
119.8499999999997
 20
82.5
 30
0.0
 11
118.7
 21
82.5
 31
0.0
  0
LINE
  5
E9A
330
925
100
AcDbEntity
  8
0
  6
Continuous
 62
     3
100
AcDbLine
 10
118.65
 20
81.75
 30
0.0
 11
121.15
 21
81.75
 31
0.0
  0
LINE
  5
E9B
330
925
100
AcDbEntity
  8
0
  6
Continuous
 62
     3
100
AcDbLine
 10
121.45
 20
85.4
 30
0.0
 11
121.95
 21
86.0
 31
0.0
  0
LINE
  5
E9C
330
925
100
AcDbEntity
  8
0
  6
Continuous
 62
     3
100
AcDbLine
 10
122.15
 20
85.95
 30
0.0
 11
121.55
 21
85.20000000000001
 31
0.0
  0
LINE
  5
E9D
330
925
100
AcDbEntity
  8
0
  6
Continuous
 62
     3
100
AcDbLine
 10
119.1
 20
85.44999999999998
 30
0.0
 11
118.65
 21
86.0
 31
0.0
  0
LINE
  5
E9E
330
925
100
AcDbEntity
  8
0
  6
Continuous
 62
     3
100
AcDbLine
 10
119.0
 20
85.25
 30
0.0
 11
118.5
 21
85.90000000000001
 31
0.0
  0
LINE
  5
E9F
330
925
100
AcDbEntity
  8
0
  6
Continuous
 62
     3
100
AcDbLine
 10
121.15
 20
82.59999999999998
 30
0.0
 11
121.7999999999999
 21
82.09999999999999
 31
0.0
  0
LINE
  5
EA0
330
925
100
AcDbEntity
  8
0
  6
Continuous
 62
     3
100
AcDbLine
 10
121.1
 20
82.45
 30
0.0
 11
121.75
 21
81.95
 31
0.0
  0
LINE
  5
EA1
330
925
100
AcDbEntity
  8
0
  6
Continuous
 62
     3
100
AcDbLine
 10
121.75
 20
81.95
 30
0.0
 11
121.0499999999999
 21
81.75
 31
0.0
  0
LINE
  5
EA2
330
925
100
AcDbEntity
  8
0
  6
Continuous
 62
     3
100
AcDbLine
 10
121.0499999999999
 20
81.59999999999998
 30
0.0
 11
121.7999999999999
 21
81.79999999999997
 31
0.0
  0
LINE
  5
EA3
330
925
100
AcDbEntity
  8
0
  6
Continuous
 62
     3
100
AcDbLine
 10
118.65
 20
82.5
 30
0.0
 11
118.0
 21
82.2
 31
0.0
  0
LINE
  5
EA4
330
925
100
AcDbEntity
  8
0
  6
Continuous
 62
     3
100
AcDbLine
 10
118.0
 20
82.2
 30
0.0
 11
118.5999999999997
 21
81.75
 31
0.0
  0
LINE
  5
EA5
330
925
100
AcDbEntity
  8
0
  6
Continuous
 62
     3
100
AcDbLine
 10
117.9
 20
82.29999999999998
 30
0.0
 11
118.65
 21
82.70000000000001
 31
0.0
  0
LINE
  5
EA6
330
925
100
AcDbEntity
  8
0
  6
Continuous
 62
     3
100
AcDbLine
 10
120.7
 20
79.0
 30
0.0
 11
121.25
 21
78.45
 31
0.0
  0
LINE
  5
EA7
330
925
100
AcDbEntity
  8
0
  6
Continuous
 62
     3
100
AcDbLine
 10
120.5999999999997
 20
78.9
 30
0.0
 11
121.15
 21
78.34999999999998
 31
0.0
  0
LINE
  5
EA8
330
925
100
AcDbEntity
  8
0
  6
Continuous
 62
     3
100
AcDbLine
 10
117.5999999999997
 20
78.4
 30
0.0
 11
118.2
 21
78.84999999999998
 31
0.0
  0
LINE
  5
EA9
330
925
100
AcDbEntity
  8
0
  6
Continuous
 62
     3
100
AcDbLine
 10
117.566666667
 20
78.34999999999998
 30
0.0
 11
117.7
 21
78.15000000000002
 31
0.0
  0
LINE
  5
EAA
330
925
100
AcDbEntity
  8
0
  6
Continuous
 62
     3
100
AcDbLine
 10
120.5999999999997
 20
78.9
 30
0.0
 11
118.2
 21
78.9
 31
0.0
  0
LINE
  5
EAB
330
925
100
AcDbEntity
  8
0
  6
Continuous
 62
     3
100
AcDbLine
 10
121.25
 20
78.422222222
 30
0.0
 11
121.35
 21
78.5
 31
0.0
  0
LINE
  5
EAC
330
925
100
AcDbEntity
  8
0
  6
Continuous
 62
     3
100
AcDbLine
 10
120.9
 20
78.15000000000002
 30
0.0
 11
121.15
 21
78.34444444399995
 31
0.0
  0
LINE
  5
EAD
330
925
100
AcDbEntity
  8
0
  6
Continuous
 62
     3
100
AcDbLine
 10
120.9
 20
78.15000000000002
 30
0.0
 11
117.65
 21
78.15000000000002
 31
0.0
  0
LINE
  5
EAE
330
925
100
AcDbEntity
  8
0
  6
Continuous
 62
     3
100
AcDbLine
 10
121.8046874999999
 20
81.78749999999999
 30
0.0
 11
121.3921875
 21
78.48749999999999
 31
0.0
  0
LINE
  5
EAF
330
925
100
AcDbEntity
  8
0
  6
Continuous
 62
     3
100
AcDbLine
 10
121.0234374999999
 20
81.53749999999998
 30
0.0
 11
120.7109374999999
 21
79.03749999999998
 31
0.0
  0
LINE
  5
EB0
330
925
100
AcDbEntity
  8
0
  6
Continuous
 62
     3
100
AcDbLine
 10
121.0499999999999
 20
82.5
 30
0.0
 11
119.9
 21
82.5
 31
0.0
  0
LINE
  5
EB1
330
925
100
AcDbEntity
  8
0
  6
Continuous
 62
     3
100
AcDbLine
 10
118.6796874999999
 20
82.78749999999998
 30
0.0
 11
118.9859375
 21
85.23749999999997
 31
0.0
  0
LINE
  5
EB2
330
925
100
AcDbEntity
  8
0
  6
Continuous
 62
     3
100
AcDbLine
 10
118.45
 20
85.88571428600001
 30
0.0
 11
118.3499999999995
 21
85.79999999999998
 31
0.0
  0
LINE
  5
EB3
330
925
100
AcDbEntity
  8
0
  6
Continuous
 62
     3
100
AcDbLine
 10
118.7
 20
86.09999999999997
 30
0.0
 11
118.65
 21
86.05714285700001
 31
0.0
  0
LINE
  5
EB4
330
925
100
AcDbEntity
  8
0
  6
Continuous
 62
     3
100
AcDbLine
 10
117.8671875
 20
82.28749999999998
 30
0.0
 11
118.2984374999999
 21
85.73749999999998
 31
0.0
  0
LINE
  5
EB5
330
925
100
AcDbEntity
  8
0
  6
Continuous
 62
     3
100
AcDbLine
 10
119.15
 20
85.4
 30
0.0
 11
121.5
 21
85.4
 31
0.0
  0
LINE
  5
EB6
330
925
100
AcDbEntity
  8
0
  6
Continuous
 62
     3
100
AcDbLine
 10
121.4734375
 20
85.13749999999998
 30
0.0
 11
121.1546875
 21
82.5875
 31
0.0
  0
LINE
  5
EB7
330
925
100
AcDbEntity
  8
0
  6
Continuous
 62
     3
100
AcDbLine
 10
122.1999999999999
 20
85.95714285700001
 30
0.0
 11
122.3
 21
85.90000000000001
 31
0.0
  0
LINE
  5
EB8
330
925
100
AcDbEntity
  8
0
  6
Continuous
 62
     3
100
AcDbLine
 10
121.95
 20
86.09999999999997
 30
0.0
 11
122.0
 21
86.07142857099999
 31
0.0
  0
LINE
  5
EB9
330
925
100
AcDbEntity
  8
0
  6
Continuous
 62
     3
100
AcDbLine
 10
118.75
 20
86.15
 30
0.0
 11
121.9
 21
86.15
 31
0.0
  0
LINE
  5
EBA
330
925
100
AcDbEntity
  8
0
  6
Continuous
 62
     3
100
AcDbLine
 10
122.3171875
 20
85.8875
 30
0.0
 11
121.8421874999995
 21
82.0875
 31
0.0
  0
POINT
  5
EBB
330
925
100
AcDbEntity
  8
0
  6
Continuous
 62
     3
100
AcDbPoint
 10
128.9749999999999
 20
78.15000000000002
 30
0.0
  0
POINT
  5
EBC
330
925
100
AcDbEntity
  8
0
  6
Continuous
 62
     3
100
AcDbPoint
 10
128.9749999999999
 20
78.15000000000002
 30
0.0
  0
POINT
  5
EBD
330
925
100
AcDbEntity
  8
0
  6
Continuous
 62
     3
100
AcDbPoint
 10
125.2249999999998
 20
78.15000000000002
 30
0.0
  0
POINT
  5
EBE
330
925
100
AcDbEntity
  8
0
  6
Continuous
 62
     3
100
AcDbPoint
 10
128.725
 20
86.15
 30
0.0
  0
LINE
  5
EBF
330
925
100
AcDbEntity
  8
0
  6
Continuous
 62
     3
100
AcDbLine
 10
126.9749999999997
 20
82.5
 30
0.0
 11
125.825
 21
82.5
 31
0.0
  0
LINE
  5
EC0
330
925
100
AcDbEntity
  8
0
  6
Continuous
 62
     3
100
AcDbLine
 10
125.775
 20
81.75
 30
0.0
 11
128.275
 21
81.75
 31
0.0
  0
LINE
  5
EC1
330
925
100
AcDbEntity
  8
0
  6
Continuous
 62
     3
100
AcDbLine
 10
128.5749999999999
 20
85.4
 30
0.0
 11
129.0749999999997
 21
86.0
 31
0.0
  0
LINE
  5
EC2
330
925
100
AcDbEntity
  8
0
  6
Continuous
 62
     3
100
AcDbLine
 10
129.275
 20
85.95
 30
0.0
 11
128.675
 21
85.20000000000001
 31
0.0
  0
LINE
  5
EC3
330
925
100
AcDbEntity
  8
0
  6
Continuous
 62
     3
100
AcDbLine
 10
126.2249999999996
 20
85.44999999999998
 30
0.0
 11
125.775
 21
86.0
 31
0.0
  0
LINE
  5
EC4
330
925
100
AcDbEntity
  8
0
  6
Continuous
 62
     3
100
AcDbLine
 10
126.1249999999999
 20
85.25
 30
0.0
 11
125.625
 21
85.90000000000001
 31
0.0
  0
LINE
  5
EC5
330
925
100
AcDbEntity
  8
0
  6
Continuous
 62
     3
100
AcDbLine
 10
128.275
 20
82.59999999999998
 30
0.0
 11
128.925
 21
82.09999999999999
 31
0.0
  0
LINE
  5
EC6
330
925
100
AcDbEntity
  8
0
  6
Continuous
 62
     3
100
AcDbLine
 10
128.2249999999999
 20
82.45
 30
0.0
 11
128.875
 21
81.95
 31
0.0
  0
LINE
  5
EC7
330
925
100
AcDbEntity
  8
0
  6
Continuous
 62
     3
100
AcDbLine
 10
128.875
 20
81.95
 30
0.0
 11
128.175
 21
81.75
 31
0.0
  0
LINE
  5
EC8
330
925
100
AcDbEntity
  8
0
  6
Continuous
 62
     3
100
AcDbLine
 10
128.175
 20
81.59999999999998
 30
0.0
 11
128.925
 21
81.79999999999997
 31
0.0
  0
LINE
  5
EC9
330
925
100
AcDbEntity
  8
0
  6
Continuous
 62
     3
100
AcDbLine
 10
125.775
 20
82.5
 30
0.0
 11
125.1249999999999
 21
82.2
 31
0.0
  0
LINE
  5
ECA
330
925
100
AcDbEntity
  8
0
  6
Continuous
 62
     3
100
AcDbLine
 10
125.025
 20
82.29999999999998
 30
0.0
 11
125.775
 21
82.70000000000001
 31
0.0
  0
LINE
  5
ECB
330
925
100
AcDbEntity
  8
0
  6
Continuous
 62
     3
100
AcDbLine
 10
127.825
 20
79.0
 30
0.0
 11
128.3749999999995
 21
78.45
 31
0.0
  0
LINE
  5
ECC
330
925
100
AcDbEntity
  8
0
  6
Continuous
 62
     3
100
AcDbLine
 10
127.7249999999995
 20
78.9
 30
0.0
 11
128.275
 21
78.34999999999998
 31
0.0
  0
LINE
  5
ECD
330
925
100
AcDbEntity
  8
0
  6
Continuous
 62
     3
100
AcDbLine
 10
124.7249999999997
 20
78.4
 30
0.0
 11
125.3249999999999
 21
78.84999999999998
 31
0.0
  0
LINE
  5
ECE
330
925
100
AcDbEntity
  8
0
  6
Continuous
 62
     3
100
AcDbLine
 10
124.691666667
 20
78.34999999999998
 30
0.0
 11
124.825
 21
78.15000000000002
 31
0.0
  0
LINE
  5
ECF
330
925
100
AcDbEntity
  8
0
  6
Continuous
 62
     3
100
AcDbLine
 10
127.7249999999995
 20
78.9
 30
0.0
 11
125.3249999999999
 21
78.9
 31
0.0
  0
LINE
  5
ED0
330
925
100
AcDbEntity
  8
0
  6
Continuous
 62
     3
100
AcDbLine
 10
128.3749999999995
 20
78.422222222
 30
0.0
 11
128.475
 21
78.5
 31
0.0
  0
LINE
  5
ED1
330
925
100
AcDbEntity
  8
0
  6
Continuous
 62
     3
100
AcDbLine
 10
128.025
 20
78.15000000000002
 30
0.0
 11
128.275
 21
78.34444444399995
 31
0.0
  0
LINE
  5
ED2
330
925
100
AcDbEntity
  8
0
  6
Continuous
 62
     3
100
AcDbLine
 10
128.025
 20
78.15000000000002
 30
0.0
 11
124.775
 21
78.15000000000002
 31
0.0
  0
LINE
  5
ED3
330
925
100
AcDbEntity
  8
0
  6
Continuous
 62
     3
100
AcDbLine
 10
128.9296875
 20
81.78749999999999
 30
0.0
 11
128.5171875
 21
78.48749999999999
 31
0.0
  0
LINE
  5
ED4
330
925
100
AcDbEntity
  8
0
  6
Continuous
 62
     3
100
AcDbLine
 10
128.1484375
 20
81.53749999999998
 30
0.0
 11
127.8359374999999
 21
79.03749999999998
 31
0.0
  0
LINE
  5
ED5
330
925
100
AcDbEntity
  8
0
  6
Continuous
 62
     3
100
AcDbLine
 10
128.175
 20
82.5
 30
0.0
 11
127.025
 21
82.5
 31
0.0
  0
LINE
  5
ED6
330
925
100
AcDbEntity
  8
0
  6
Continuous
 62
     3
100
AcDbLine
 10
125.8046875
 20
82.78749999999998
 30
0.0
 11
126.1109374999999
 21
85.23749999999997
 31
0.0
  0
LINE
  5
ED7
330
925
100
AcDbEntity
  8
0
  6
Continuous
 62
     3
100
AcDbLine
 10
125.575
 20
85.88571428600001
 30
0.0
 11
125.475
 21
85.79999999999998
 31
0.0
  0
LINE
  5
ED8
330
925
100
AcDbEntity
  8
0
  6
Continuous
 62
     3
100
AcDbLine
 10
125.825
 20
86.09999999999997
 30
0.0
 11
125.775
 21
86.05714285700001
 31
0.0
  0
LINE
  5
ED9
330
925
100
AcDbEntity
  8
0
  6
Continuous
 62
     3
100
AcDbLine
 10
124.9921875
 20
82.28749999999998
 30
0.0
 11
125.4234375
 21
85.73749999999998
 31
0.0
  0
LINE
  5
EDA
330
925
100
AcDbEntity
  8
0
  6
Continuous
 62
     3
100
AcDbLine
 10
126.275
 20
85.4
 30
0.0
 11
128.625
 21
85.4
 31
0.0
  0
LINE
  5
EDB
330
925
100
AcDbEntity
  8
0
  6
Continuous
 62
     3
100
AcDbLine
 10
128.5984374999999
 20
85.13749999999998
 30
0.0
 11
128.2796875
 21
82.5875
 31
0.0
  0
LINE
  5
EDC
330
925
100
AcDbEntity
  8
0
  6
Continuous
 62
     3
100
AcDbLine
 10
129.325
 20
85.95714285700001
 30
0.0
 11
129.425
 21
85.90000000000001
 31
0.0
  0
LINE
  5
EDD
330
925
100
AcDbEntity
  8
0
  6
Continuous
 62
     3
100
AcDbLine
 10
129.0749999999997
 20
86.09999999999997
 30
0.0
 11
129.125
 21
86.07142857099999
 31
0.0
  0
LINE
  5
EDE
330
925
100
AcDbEntity
  8
0
  6
Continuous
 62
     3
100
AcDbLine
 10
125.875
 20
86.15
 30
0.0
 11
129.025
 21
86.15
 31
0.0
  0
LINE
  5
EDF
330
925
100
AcDbEntity
  8
0
  6
Continuous
 62
     3
100
AcDbLine
 10
129.475
 20
85.90000000000001
 30
0.0
 11
128.9749999999999
 21
82.15000000000001
 31
0.0
  0
POINT
  5
EE0
330
925
100
AcDbEntity
  8
0
  6
Continuous
 62
     3
100
AcDbPoint
 10
136.0999999999999
 20
78.15000000000002
 30
0.0
  0
POINT
  5
EE1
330
925
100
AcDbEntity
  8
0
  6
Continuous
 62
     3
100
AcDbPoint
 10
136.0999999999999
 20
78.15000000000002
 30
0.0
  0
POINT
  5
EE2
330
925
100
AcDbEntity
  8
0
  6
Continuous
 62
     3
100
AcDbPoint
 10
132.3499999999999
 20
78.15000000000002
 30
0.0
  0
POINT
  5
EE3
330
925
100
AcDbEntity
  8
0
  6
Continuous
 62
     3
100
AcDbPoint
 10
135.85
 20
86.15
 30
0.0
  0
LINE
  5
EE4
330
925
100
AcDbEntity
  8
0
  6
Continuous
 62
     3
100
AcDbLine
 10
134.0999999999999
 20
82.5
 30
0.0
 11
132.9499999999999
 21
82.5
 31
0.0
  0
LINE
  5
EE5
330
925
100
AcDbEntity
  8
0
  6
Continuous
 62
     3
100
AcDbLine
 10
132.9
 20
81.75
 30
0.0
 11
135.4
 21
81.75
 31
0.0
  0
LINE
  5
EE6
330
925
100
AcDbEntity
  8
0
  6
Continuous
 62
     3
100
AcDbLine
 10
135.6999999999999
 20
85.4
 30
0.0
 11
136.1999999999994
 21
86.0
 31
0.0
  0
LINE
  5
EE7
330
925
100
AcDbEntity
  8
0
  6
Continuous
 62
     3
100
AcDbLine
 10
136.4
 20
85.95
 30
0.0
 11
135.8
 21
85.20000000000001
 31
0.0
  0
LINE
  5
EE8
330
925
100
AcDbEntity
  8
0
  6
Continuous
 62
     3
100
AcDbLine
 10
133.3499999999999
 20
85.44999999999998
 30
0.0
 11
132.9
 21
86.0
 31
0.0
  0
LINE
  5
EE9
330
925
100
AcDbEntity
  8
0
  6
Continuous
 62
     3
100
AcDbLine
 10
133.25
 20
85.25
 30
0.0
 11
132.75
 21
85.90000000000001
 31
0.0
  0
LINE
  5
EEA
330
925
100
AcDbEntity
  8
0
  6
Continuous
 62
     3
100
AcDbLine
 10
135.4
 20
82.59999999999998
 30
0.0
 11
136.05
 21
82.09999999999999
 31
0.0
  0
LINE
  5
EEB
330
925
100
AcDbEntity
  8
0
  6
Continuous
 62
     3
100
AcDbLine
 10
135.3499999999999
 20
82.45
 30
0.0
 11
136.0
 21
81.95
 31
0.0
  0
LINE
  5
EEC
330
925
100
AcDbEntity
  8
0
  6
Continuous
 62
     3
100
AcDbLine
 10
136.0
 20
81.95
 30
0.0
 11
135.3
 21
81.75
 31
0.0
  0
LINE
  5
EED
330
925
100
AcDbEntity
  8
0
  6
Continuous
 62
     3
100
AcDbLine
 10
135.3
 20
81.59999999999998
 30
0.0
 11
136.05
 21
81.79999999999997
 31
0.0
  0
LINE
  5
EEE
330
925
100
AcDbEntity
  8
0
  6
Continuous
 62
     3
100
AcDbLine
 10
132.9
 20
82.5
 30
0.0
 11
132.25
 21
82.2
 31
0.0
  0
LINE
  5
EEF
330
925
100
AcDbEntity
  8
0
  6
Continuous
 62
     3
100
AcDbLine
 10
132.25
 20
82.2
 30
0.0
 11
132.85
 21
81.75
 31
0.0
  0
LINE
  5
EF0
330
925
100
AcDbEntity
  8
0
  6
Continuous
 62
     3
100
AcDbLine
 10
132.15
 20
82.29999999999998
 30
0.0
 11
132.9
 21
82.70000000000001
 31
0.0
  0
LINE
  5
EF1
330
925
100
AcDbEntity
  8
0
  6
Continuous
 62
     3
100
AcDbLine
 10
134.9499999999999
 20
79.0
 30
0.0
 11
135.4999999999995
 21
78.45
 31
0.0
  0
LINE
  5
EF2
330
925
100
AcDbEntity
  8
0
  6
Continuous
 62
     3
100
AcDbLine
 10
134.85
 20
78.9
 30
0.0
 11
135.4
 21
78.34999999999998
 31
0.0
  0
LINE
  5
EF3
330
925
100
AcDbEntity
  8
0
  6
Continuous
 62
     3
100
AcDbLine
 10
131.85
 20
78.4
 30
0.0
 11
132.45
 21
78.84999999999998
 31
0.0
  0
LINE
  5
EF4
330
925
100
AcDbEntity
  8
0
  6
Continuous
 62
     3
100
AcDbLine
 10
131.816666667
 20
78.34999999999998
 30
0.0
 11
131.9499999999999
 21
78.15000000000002
 31
0.0
  0
LINE
  5
EF5
330
925
100
AcDbEntity
  8
0
  6
Continuous
 62
     3
100
AcDbLine
 10
134.85
 20
78.9
 30
0.0
 11
132.45
 21
78.9
 31
0.0
  0
LINE
  5
EF6
330
925
100
AcDbEntity
  8
0
  6
Continuous
 62
     3
100
AcDbLine
 10
135.4999999999995
 20
78.422222222
 30
0.0
 11
135.5999999999999
 21
78.5
 31
0.0
  0
LINE
  5
EF7
330
925
100
AcDbEntity
  8
0
  6
Continuous
 62
     3
100
AcDbLine
 10
135.15
 20
78.15000000000002
 30
0.0
 11
135.4
 21
78.34444444399995
 31
0.0
  0
LINE
  5
EF8
330
925
100
AcDbEntity
  8
0
  6
Continuous
 62
     3
100
AcDbLine
 10
135.15
 20
78.15000000000002
 30
0.0
 11
131.9
 21
78.15000000000002
 31
0.0
  0
LINE
  5
EF9
330
925
100
AcDbEntity
  8
0
  6
Continuous
 62
     3
100
AcDbLine
 10
136.0546875
 20
81.78749999999999
 30
0.0
 11
135.6421875
 21
78.48749999999999
 31
0.0
  0
LINE
  5
EFA
330
925
100
AcDbEntity
  8
0
  6
Continuous
 62
     3
100
AcDbLine
 10
135.2734375
 20
81.53749999999998
 30
0.0
 11
134.9609375
 21
79.03749999999998
 31
0.0
  0
LINE
  5
EFB
330
925
100
AcDbEntity
  8
0
  6
Continuous
 62
     3
100
AcDbLine
 10
135.3
 20
82.5
 30
0.0
 11
134.15
 21
82.5
 31
0.0
  0
LINE
  5
EFC
330
925
100
AcDbEntity
  8
0
  6
Continuous
 62
     3
100
AcDbLine
 10
132.9296875
 20
82.78749999999998
 30
0.0
 11
133.2359375
 21
85.23749999999997
 31
0.0
  0
LINE
  5
EFD
330
925
100
AcDbEntity
  8
0
  6
Continuous
 62
     3
100
AcDbLine
 10
132.6999999999999
 20
85.88571428600001
 30
0.0
 11
132.6
 21
85.79999999999998
 31
0.0
  0
LINE
  5
EFE
330
925
100
AcDbEntity
  8
0
  6
Continuous
 62
     3
100
AcDbLine
 10
132.9499999999999
 20
86.09999999999997
 30
0.0
 11
132.9
 21
86.05714285700001
 31
0.0
  0
LINE
  5
EFF
330
925
100
AcDbEntity
  8
0
  6
Continuous
 62
     3
100
AcDbLine
 10
132.1171875
 20
82.28749999999998
 30
0.0
 11
132.5484375
 21
85.73749999999998
 31
0.0
  0
LINE
  5
F00
330
925
100
AcDbEntity
  8
0
  6
Continuous
 62
     3
100
AcDbLine
 10
133.4
 20
85.4
 30
0.0
 11
135.7499999999996
 21
85.4
 31
0.0
  0
LINE
  5
F01
330
925
100
AcDbEntity
  8
0
  6
Continuous
 62
     3
100
AcDbLine
 10
135.7234374999999
 20
85.13749999999998
 30
0.0
 11
135.4046874999999
 21
82.5875
 31
0.0
  0
LINE
  5
F02
330
925
100
AcDbEntity
  8
0
  6
Continuous
 62
     3
100
AcDbLine
 10
136.1999999999994
 20
86.09999999999997
 30
0.0
 11
136.25
 21
86.07142857099999
 31
0.0
  0
LINE
  5
F03
330
925
100
AcDbEntity
  8
0
  6
Continuous
 62
     3
100
AcDbLine
 10
133.0
 20
86.15
 30
0.0
 11
136.15
 21
86.15
 31
0.0
  0
LINE
  5
F04
330
925
100
AcDbEntity
  8
0
  6
Continuous
 62
     3
100
AcDbLine
 10
136.5671874999994
 20
85.8875
 30
0.0
 11
136.0921875
 21
82.0875
 31
0.0
  0
POINT
  5
F05
330
925
100
AcDbEntity
  8
0
  6
Continuous
 62
     3
100
AcDbPoint
 10
114.7249999999995
 20
66.65
 30
0.0
  0
POINT
  5
F06
330
925
100
AcDbEntity
  8
0
  6
Continuous
 62
     3
100
AcDbPoint
 10
114.7249999999995
 20
66.65
 30
0.0
  0
POINT
  5
F07
330
925
100
AcDbEntity
  8
0
  6
Continuous
 62
     3
100
AcDbPoint
 10
110.975
 20
66.65
 30
0.0
  0
POINT
  5
F08
330
925
100
AcDbEntity
  8
0
  6
Continuous
 62
     3
100
AcDbPoint
 10
114.4749999999997
 20
74.65
 30
0.0
  0
LINE
  5
F09
330
925
100
AcDbEntity
  8
0
  6
Continuous
 62
     3
100
AcDbLine
 10
112.7249999999998
 20
71.0
 30
0.0
 11
111.575
 21
71.0
 31
0.0
  0
LINE
  5
F0A
330
925
100
AcDbEntity
  8
0
  6
Continuous
 62
     3
100
AcDbLine
 10
111.525
 20
70.25
 30
0.0
 11
114.0249999999999
 21
70.25
 31
0.0
  0
LINE
  5
F0B
330
925
100
AcDbEntity
  8
0
  6
Continuous
 62
     3
100
AcDbLine
 10
114.325
 20
73.9
 30
0.0
 11
114.8249999999999
 21
74.5
 31
0.0
  0
LINE
  5
F0C
330
925
100
AcDbEntity
  8
0
  6
Continuous
 62
     3
100
AcDbLine
 10
115.0249999999999
 20
74.45
 30
0.0
 11
114.4249999999999
 21
73.7
 31
0.0
  0
LINE
  5
F0D
330
925
100
AcDbEntity
  8
0
  6
Continuous
 62
     3
100
AcDbLine
 10
111.975
 20
73.95
 30
0.0
 11
111.525
 21
74.5
 31
0.0
  0
LINE
  5
F0E
330
925
100
AcDbEntity
  8
0
  6
Continuous
 62
     3
100
AcDbLine
 10
111.875
 20
73.75
 30
0.0
 11
111.375
 21
74.40000000000002
 31
0.0
  0
LINE
  5
F0F
330
925
100
AcDbEntity
  8
0
  6
Continuous
 62
     3
100
AcDbLine
 10
114.0249999999999
 20
71.09999999999998
 30
0.0
 11
114.6749999999999
 21
70.59999999999998
 31
0.0
  0
LINE
  5
F10
330
925
100
AcDbEntity
  8
0
  6
Continuous
 62
     3
100
AcDbLine
 10
113.975
 20
70.95
 30
0.0
 11
114.6249999999999
 21
70.45
 31
0.0
  0
LINE
  5
F11
330
925
100
AcDbEntity
  8
0
  6
Continuous
 62
     3
100
AcDbLine
 10
114.6249999999999
 20
70.45
 30
0.0
 11
113.925
 21
70.25
 31
0.0
  0
LINE
  5
F12
330
925
100
AcDbEntity
  8
0
  6
Continuous
 62
     3
100
AcDbLine
 10
113.925
 20
70.09999999999999
 30
0.0
 11
114.6749999999999
 21
70.3
 31
0.0
  0
LINE
  5
F13
330
925
100
AcDbEntity
  8
0
  6
Continuous
 62
     3
100
AcDbLine
 10
111.525
 20
71.0
 30
0.0
 11
110.875
 21
70.7
 31
0.0
  0
LINE
  5
F14
330
925
100
AcDbEntity
  8
0
  6
Continuous
 62
     3
100
AcDbLine
 10
110.775
 20
70.8
 30
0.0
 11
111.525
 21
71.2
 31
0.0
  0
LINE
  5
F15
330
925
100
AcDbEntity
  8
0
  6
Continuous
 62
     3
100
AcDbLine
 10
113.575
 20
67.5
 30
0.0
 11
114.125
 21
66.95
 31
0.0
  0
LINE
  5
F16
330
925
100
AcDbEntity
  8
0
  6
Continuous
 62
     3
100
AcDbLine
 10
113.4749999999997
 20
67.40000000000001
 30
0.0
 11
114.0249999999999
 21
66.84999999999999
 31
0.0
  0
LINE
  5
F17
330
925
100
AcDbEntity
  8
0
  6
Continuous
 62
     3
100
AcDbLine
 10
110.4749999999997
 20
66.90000000000001
 30
0.0
 11
111.075
 21
67.34999999999999
 31
0.0
  0
LINE
  5
F18
330
925
100
AcDbEntity
  8
0
  6
Continuous
 62
     3
100
AcDbLine
 10
110.441666667
 20
66.84999999999999
 30
0.0
 11
110.575
 21
66.65
 31
0.0
  0
LINE
  5
F19
330
925
100
AcDbEntity
  8
0
  6
Continuous
 62
     3
100
AcDbLine
 10
113.4749999999997
 20
67.40000000000001
 30
0.0
 11
111.075
 21
67.40000000000001
 31
0.0
  0
LINE
  5
F1A
330
925
100
AcDbEntity
  8
0
  6
Continuous
 62
     3
100
AcDbLine
 10
114.125
 20
66.922222222
 30
0.0
 11
114.2249999999995
 21
67.0
 31
0.0
  0
LINE
  5
F1B
330
925
100
AcDbEntity
  8
0
  6
Continuous
 62
     3
100
AcDbLine
 10
113.775
 20
66.65
 30
0.0
 11
114.0249999999999
 21
66.84444444399999
 31
0.0
  0
LINE
  5
F1C
330
925
100
AcDbEntity
  8
0
  6
Continuous
 62
     3
100
AcDbLine
 10
113.775
 20
66.65
 30
0.0
 11
110.525
 21
66.65
 31
0.0
  0
LINE
  5
F1D
330
925
100
AcDbEntity
  8
0
  6
Continuous
 62
     3
100
AcDbLine
 10
114.6796874999999
 20
70.28749999999999
 30
0.0
 11
114.2671875
 21
66.9875
 31
0.0
  0
LINE
  5
F1E
330
925
100
AcDbEntity
  8
0
  6
Continuous
 62
     3
100
AcDbLine
 10
113.8984374999999
 20
70.0375
 30
0.0
 11
113.5859375
 21
67.5375
 31
0.0
  0
LINE
  5
F1F
330
925
100
AcDbEntity
  8
0
  6
Continuous
 62
     3
100
AcDbLine
 10
113.925
 20
71.0
 30
0.0
 11
112.775
 21
71.0
 31
0.0
  0
LINE
  5
F20
330
925
100
AcDbEntity
  8
0
  6
Continuous
 62
     3
100
AcDbLine
 10
111.5546874999999
 20
71.2875
 30
0.0
 11
111.8609375
 21
73.73749999999998
 31
0.0
  0
LINE
  5
F21
330
925
100
AcDbEntity
  8
0
  6
Continuous
 62
     3
100
AcDbLine
 10
111.325
 20
74.38571428600001
 30
0.0
 11
111.2249999999997
 21
74.29999999999998
 31
0.0
  0
LINE
  5
F22
330
925
100
AcDbEntity
  8
0
  6
Continuous
 62
     3
100
AcDbLine
 10
111.575
 20
74.59999999999998
 30
0.0
 11
111.525
 21
74.557142857
 31
0.0
  0
LINE
  5
F23
330
925
100
AcDbEntity
  8
0
  6
Continuous
 62
     3
100
AcDbLine
 10
110.7421875
 20
70.78749999999998
 30
0.0
 11
111.1734375
 21
74.23749999999998
 31
0.0
  0
LINE
  5
F24
330
925
100
AcDbEntity
  8
0
  6
Continuous
 62
     3
100
AcDbLine
 10
112.025
 20
73.9
 30
0.0
 11
114.375
 21
73.9
 31
0.0
  0
LINE
  5
F25
330
925
100
AcDbEntity
  8
0
  6
Continuous
 62
     3
100
AcDbLine
 10
114.3484375
 20
73.6375
 30
0.0
 11
114.0296874999995
 21
71.08750000000002
 31
0.0
  0
LINE
  5
F26
330
925
100
AcDbEntity
  8
0
  6
Continuous
 62
     3
100
AcDbLine
 10
115.075
 20
74.45714285699999
 30
0.0
 11
115.175
 21
74.40000000000002
 31
0.0
  0
LINE
  5
F27
330
925
100
AcDbEntity
  8
0
  6
Continuous
 62
     3
100
AcDbLine
 10
114.8249999999999
 20
74.59999999999998
 30
0.0
 11
114.8749999999999
 21
74.571428571
 31
0.0
  0
LINE
  5
F28
330
925
100
AcDbEntity
  8
0
  6
Continuous
 62
     3
100
AcDbLine
 10
111.6249999999999
 20
74.65
 30
0.0
 11
114.775
 21
74.65
 31
0.0
  0
LINE
  5
F29
330
925
100
AcDbEntity
  8
0
  6
Continuous
 62
     3
100
AcDbLine
 10
115.2249999999995
 20
74.40000000000002
 30
0.0
 11
114.7249999999995
 21
70.65000000000002
 31
0.0
  0
POINT
  5
F2A
330
925
100
AcDbEntity
  8
0
  6
Continuous
 62
     3
100
AcDbPoint
 10
121.8499999999997
 20
66.65
 30
0.0
  0
POINT
  5
F2B
330
925
100
AcDbEntity
  8
0
  6
Continuous
 62
     3
100
AcDbPoint
 10
121.8499999999997
 20
66.65
 30
0.0
  0
POINT
  5
F2C
330
925
100
AcDbEntity
  8
0
  6
Continuous
 62
     3
100
AcDbPoint
 10
118.1
 20
66.65
 30
0.0
  0
POINT
  5
F2D
330
925
100
AcDbEntity
  8
0
  6
Continuous
 62
     3
100
AcDbPoint
 10
121.5999999999997
 20
74.65
 30
0.0
  0
LINE
  5
F2E
330
925
100
AcDbEntity
  8
0
  6
Continuous
 62
     3
100
AcDbLine
 10
119.8499999999997
 20
71.0
 30
0.0
 11
118.7
 21
71.0
 31
0.0
  0
LINE
  5
F2F
330
925
100
AcDbEntity
  8
0
  6
Continuous
 62
     3
100
AcDbLine
 10
118.65
 20
70.25
 30
0.0
 11
121.15
 21
70.25
 31
0.0
  0
LINE
  5
F30
330
925
100
AcDbEntity
  8
0
  6
Continuous
 62
     3
100
AcDbLine
 10
121.45
 20
73.9
 30
0.0
 11
121.95
 21
74.5
 31
0.0
  0
LINE
  5
F31
330
925
100
AcDbEntity
  8
0
  6
Continuous
 62
     3
100
AcDbLine
 10
122.15
 20
74.45
 30
0.0
 11
121.55
 21
73.7
 31
0.0
  0
LINE
  5
F32
330
925
100
AcDbEntity
  8
0
  6
Continuous
 62
     3
100
AcDbLine
 10
119.1
 20
73.95
 30
0.0
 11
118.65
 21
74.5
 31
0.0
  0
LINE
  5
F33
330
925
100
AcDbEntity
  8
0
  6
Continuous
 62
     3
100
AcDbLine
 10
119.0
 20
73.75
 30
0.0
 11
118.5
 21
74.40000000000002
 31
0.0
  0
LINE
  5
F34
330
925
100
AcDbEntity
  8
0
  6
Continuous
 62
     3
100
AcDbLine
 10
121.15
 20
71.09999999999998
 30
0.0
 11
121.7999999999999
 21
70.59999999999998
 31
0.0
  0
LINE
  5
F35
330
925
100
AcDbEntity
  8
0
  6
Continuous
 62
     3
100
AcDbLine
 10
121.1
 20
70.95
 30
0.0
 11
121.75
 21
70.45
 31
0.0
  0
LINE
  5
F36
330
925
100
AcDbEntity
  8
0
  6
Continuous
 62
     3
100
AcDbLine
 10
121.75
 20
70.45
 30
0.0
 11
121.0499999999999
 21
70.25
 31
0.0
  0
LINE
  5
F37
330
925
100
AcDbEntity
  8
0
  6
Continuous
 62
     3
100
AcDbLine
 10
121.0499999999999
 20
70.09999999999999
 30
0.0
 11
121.7999999999999
 21
70.3
 31
0.0
  0
LINE
  5
F38
330
925
100
AcDbEntity
  8
0
  6
Continuous
 62
     3
100
AcDbLine
 10
118.65
 20
71.0
 30
0.0
 11
118.0
 21
70.7
 31
0.0
  0
LINE
  5
F39
330
925
100
AcDbEntity
  8
0
  6
Continuous
 62
     3
100
AcDbLine
 10
118.0
 20
70.7
 30
0.0
 11
118.5999999999997
 21
70.25
 31
0.0
  0
LINE
  5
F3A
330
925
100
AcDbEntity
  8
0
  6
Continuous
 62
     3
100
AcDbLine
 10
117.9
 20
70.8
 30
0.0
 11
118.65
 21
71.2
 31
0.0
  0
LINE
  5
F3B
330
925
100
AcDbEntity
  8
0
  6
Continuous
 62
     3
100
AcDbLine
 10
120.7
 20
67.5
 30
0.0
 11
121.25
 21
66.95
 31
0.0
  0
LINE
  5
F3C
330
925
100
AcDbEntity
  8
0
  6
Continuous
 62
     3
100
AcDbLine
 10
120.5999999999997
 20
67.40000000000001
 30
0.0
 11
121.15
 21
66.84999999999999
 31
0.0
  0
LINE
  5
F3D
330
925
100
AcDbEntity
  8
0
  6
Continuous
 62
     3
100
AcDbLine
 10
117.5999999999997
 20
66.90000000000001
 30
0.0
 11
118.2
 21
67.34999999999999
 31
0.0
  0
LINE
  5
F3E
330
925
100
AcDbEntity
  8
0
  6
Continuous
 62
     3
100
AcDbLine
 10
117.566666667
 20
66.84999999999999
 30
0.0
 11
117.7
 21
66.65
 31
0.0
  0
LINE
  5
F3F
330
925
100
AcDbEntity
  8
0
  6
Continuous
 62
     3
100
AcDbLine
 10
120.5999999999997
 20
67.40000000000001
 30
0.0
 11
118.2
 21
67.40000000000001
 31
0.0
  0
LINE
  5
F40
330
925
100
AcDbEntity
  8
0
  6
Continuous
 62
     3
100
AcDbLine
 10
121.25
 20
66.922222222
 30
0.0
 11
121.35
 21
67.0
 31
0.0
  0
LINE
  5
F41
330
925
100
AcDbEntity
  8
0
  6
Continuous
 62
     3
100
AcDbLine
 10
120.9
 20
66.65
 30
0.0
 11
121.15
 21
66.84444444399999
 31
0.0
  0
LINE
  5
F42
330
925
100
AcDbEntity
  8
0
  6
Continuous
 62
     3
100
AcDbLine
 10
120.9
 20
66.65
 30
0.0
 11
117.65
 21
66.65
 31
0.0
  0
LINE
  5
F43
330
925
100
AcDbEntity
  8
0
  6
Continuous
 62
     3
100
AcDbLine
 10
121.8046874999999
 20
70.28749999999999
 30
0.0
 11
121.3921875
 21
66.9875
 31
0.0
  0
LINE
  5
F44
330
925
100
AcDbEntity
  8
0
  6
Continuous
 62
     3
100
AcDbLine
 10
121.0234374999999
 20
70.0375
 30
0.0
 11
120.7109374999999
 21
67.5375
 31
0.0
  0
LINE
  5
F45
330
925
100
AcDbEntity
  8
0
  6
Continuous
 62
     3
100
AcDbLine
 10
121.0499999999999
 20
71.0
 30
0.0
 11
119.9
 21
71.0
 31
0.0
  0
LINE
  5
F46
330
925
100
AcDbEntity
  8
0
  6
Continuous
 62
     3
100
AcDbLine
 10
118.6796874999999
 20
71.2875
 30
0.0
 11
118.9859375
 21
73.73749999999998
 31
0.0
  0
LINE
  5
F47
330
925
100
AcDbEntity
  8
0
  6
Continuous
 62
     3
100
AcDbLine
 10
118.45
 20
74.38571428600001
 30
0.0
 11
118.3499999999995
 21
74.29999999999998
 31
0.0
  0
LINE
  5
F48
330
925
100
AcDbEntity
  8
0
  6
Continuous
 62
     3
100
AcDbLine
 10
118.7
 20
74.59999999999998
 30
0.0
 11
118.65
 21
74.557142857
 31
0.0
  0
LINE
  5
F49
330
925
100
AcDbEntity
  8
0
  6
Continuous
 62
     3
100
AcDbLine
 10
117.8671875
 20
70.78749999999998
 30
0.0
 11
118.2984374999999
 21
74.23749999999998
 31
0.0
  0
LINE
  5
F4A
330
925
100
AcDbEntity
  8
0
  6
Continuous
 62
     3
100
AcDbLine
 10
119.15
 20
73.9
 30
0.0
 11
121.5
 21
73.9
 31
0.0
  0
LINE
  5
F4B
330
925
100
AcDbEntity
  8
0
  6
Continuous
 62
     3
100
AcDbLine
 10
121.4734375
 20
73.6375
 30
0.0
 11
121.1546875
 21
71.08750000000002
 31
0.0
  0
LINE
  5
F4C
330
925
100
AcDbEntity
  8
0
  6
Continuous
 62
     3
100
AcDbLine
 10
122.1999999999999
 20
74.45714285699999
 30
0.0
 11
122.3
 21
74.40000000000002
 31
0.0
  0
LINE
  5
F4D
330
925
100
AcDbEntity
  8
0
  6
Continuous
 62
     3
100
AcDbLine
 10
121.95
 20
74.59999999999998
 30
0.0
 11
122.0
 21
74.571428571
 31
0.0
  0
LINE
  5
F4E
330
925
100
AcDbEntity
  8
0
  6
Continuous
 62
     3
100
AcDbLine
 10
118.75
 20
74.65
 30
0.0
 11
121.9
 21
74.65
 31
0.0
  0
LINE
  5
F4F
330
925
100
AcDbEntity
  8
0
  6
Continuous
 62
     3
100
AcDbLine
 10
122.3171875
 20
74.3875
 30
0.0
 11
121.8421874999995
 21
70.58750000000002
 31
0.0
  0
POINT
  5
F50
330
925
100
AcDbEntity
  8
0
  6
Continuous
 62
     3
100
AcDbPoint
 10
128.9749999999999
 20
66.65
 30
0.0
  0
POINT
  5
F51
330
925
100
AcDbEntity
  8
0
  6
Continuous
 62
     3
100
AcDbPoint
 10
128.9749999999999
 20
66.65
 30
0.0
  0
POINT
  5
F52
330
925
100
AcDbEntity
  8
0
  6
Continuous
 62
     3
100
AcDbPoint
 10
125.2249999999998
 20
66.65
 30
0.0
  0
POINT
  5
F53
330
925
100
AcDbEntity
  8
0
  6
Continuous
 62
     3
100
AcDbPoint
 10
128.725
 20
74.65
 30
0.0
  0
LINE
  5
F54
330
925
100
AcDbEntity
  8
0
  6
Continuous
 62
     3
100
AcDbLine
 10
126.9749999999997
 20
71.0
 30
0.0
 11
125.825
 21
71.0
 31
0.0
  0
LINE
  5
F55
330
925
100
AcDbEntity
  8
0
  6
Continuous
 62
     3
100
AcDbLine
 10
125.775
 20
70.25
 30
0.0
 11
128.275
 21
70.25
 31
0.0
  0
LINE
  5
F56
330
925
100
AcDbEntity
  8
0
  6
Continuous
 62
     3
100
AcDbLine
 10
128.5749999999999
 20
73.9
 30
0.0
 11
129.0749999999997
 21
74.5
 31
0.0
  0
LINE
  5
F57
330
925
100
AcDbEntity
  8
0
  6
Continuous
 62
     3
100
AcDbLine
 10
129.275
 20
74.45
 30
0.0
 11
128.675
 21
73.7
 31
0.0
  0
LINE
  5
F58
330
925
100
AcDbEntity
  8
0
  6
Continuous
 62
     3
100
AcDbLine
 10
126.2249999999996
 20
73.95
 30
0.0
 11
125.775
 21
74.5
 31
0.0
  0
LINE
  5
F59
330
925
100
AcDbEntity
  8
0
  6
Continuous
 62
     3
100
AcDbLine
 10
126.1249999999999
 20
73.75
 30
0.0
 11
125.625
 21
74.40000000000002
 31
0.0
  0
LINE
  5
F5A
330
925
100
AcDbEntity
  8
0
  6
Continuous
 62
     3
100
AcDbLine
 10
128.275
 20
71.09999999999998
 30
0.0
 11
128.925
 21
70.59999999999998
 31
0.0
  0
LINE
  5
F5B
330
925
100
AcDbEntity
  8
0
  6
Continuous
 62
     3
100
AcDbLine
 10
128.2249999999999
 20
70.95
 30
0.0
 11
128.875
 21
70.45
 31
0.0
  0
LINE
  5
F5C
330
925
100
AcDbEntity
  8
0
  6
Continuous
 62
     3
100
AcDbLine
 10
128.875
 20
70.45
 30
0.0
 11
128.175
 21
70.25
 31
0.0
  0
LINE
  5
F5D
330
925
100
AcDbEntity
  8
0
  6
Continuous
 62
     3
100
AcDbLine
 10
128.175
 20
70.09999999999999
 30
0.0
 11
128.925
 21
70.3
 31
0.0
  0
LINE
  5
F5E
330
925
100
AcDbEntity
  8
0
  6
Continuous
 62
     3
100
AcDbLine
 10
125.775
 20
71.0
 30
0.0
 11
125.1249999999999
 21
70.7
 31
0.0
  0
LINE
  5
F5F
330
925
100
AcDbEntity
  8
0
  6
Continuous
 62
     3
100
AcDbLine
 10
125.1249999999999
 20
70.7
 30
0.0
 11
125.7249999999997
 21
70.25
 31
0.0
  0
LINE
  5
F60
330
925
100
AcDbEntity
  8
0
  6
Continuous
 62
     3
100
AcDbLine
 10
125.025
 20
70.8
 30
0.0
 11
125.775
 21
71.2
 31
0.0
  0
LINE
  5
F61
330
925
100
AcDbEntity
  8
0
  6
Continuous
 62
     3
100
AcDbLine
 10
127.825
 20
67.5
 30
0.0
 11
128.3749999999995
 21
66.95
 31
0.0
  0
LINE
  5
F62
330
925
100
AcDbEntity
  8
0
  6
Continuous
 62
     3
100
AcDbLine
 10
127.7249999999995
 20
67.40000000000001
 30
0.0
 11
128.275
 21
66.84999999999999
 31
0.0
  0
LINE
  5
F63
330
925
100
AcDbEntity
  8
0
  6
Continuous
 62
     3
100
AcDbLine
 10
124.7249999999997
 20
66.90000000000001
 30
0.0
 11
125.3249999999999
 21
67.34999999999999
 31
0.0
  0
LINE
  5
F64
330
925
100
AcDbEntity
  8
0
  6
Continuous
 62
     3
100
AcDbLine
 10
124.691666667
 20
66.84999999999999
 30
0.0
 11
124.825
 21
66.65
 31
0.0
  0
LINE
  5
F65
330
925
100
AcDbEntity
  8
0
  6
Continuous
 62
     3
100
AcDbLine
 10
127.7249999999995
 20
67.40000000000001
 30
0.0
 11
125.3249999999999
 21
67.40000000000001
 31
0.0
  0
LINE
  5
F66
330
925
100
AcDbEntity
  8
0
  6
Continuous
 62
     3
100
AcDbLine
 10
128.3749999999995
 20
66.922222222
 30
0.0
 11
128.475
 21
67.0
 31
0.0
  0
LINE
  5
F67
330
925
100
AcDbEntity
  8
0
  6
Continuous
 62
     3
100
AcDbLine
 10
128.025
 20
66.65
 30
0.0
 11
128.275
 21
66.84444444399999
 31
0.0
  0
LINE
  5
F68
330
925
100
AcDbEntity
  8
0
  6
Continuous
 62
     3
100
AcDbLine
 10
128.025
 20
66.65
 30
0.0
 11
124.775
 21
66.65
 31
0.0
  0
LINE
  5
F69
330
925
100
AcDbEntity
  8
0
  6
Continuous
 62
     3
100
AcDbLine
 10
128.9296875
 20
70.28749999999999
 30
0.0
 11
128.5171875
 21
66.9875
 31
0.0
  0
LINE
  5
F6A
330
925
100
AcDbEntity
  8
0
  6
Continuous
 62
     3
100
AcDbLine
 10
128.1484375
 20
70.0375
 30
0.0
 11
127.8359374999999
 21
67.5375
 31
0.0
  0
LINE
  5
F6B
330
925
100
AcDbEntity
  8
0
  6
Continuous
 62
     3
100
AcDbLine
 10
128.175
 20
71.0
 30
0.0
 11
127.025
 21
71.0
 31
0.0
  0
LINE
  5
F6C
330
925
100
AcDbEntity
  8
0
  6
Continuous
 62
     3
100
AcDbLine
 10
125.8046875
 20
71.2875
 30
0.0
 11
126.1109374999999
 21
73.73749999999998
 31
0.0
  0
LINE
  5
F6D
330
925
100
AcDbEntity
  8
0
  6
Continuous
 62
     3
100
AcDbLine
 10
125.575
 20
74.38571428600001
 30
0.0
 11
125.475
 21
74.29999999999998
 31
0.0
  0
LINE
  5
F6E
330
925
100
AcDbEntity
  8
0
  6
Continuous
 62
     3
100
AcDbLine
 10
125.825
 20
74.59999999999998
 30
0.0
 11
125.775
 21
74.557142857
 31
0.0
  0
LINE
  5
F6F
330
925
100
AcDbEntity
  8
0
  6
Continuous
 62
     3
100
AcDbLine
 10
124.9921875
 20
70.78749999999998
 30
0.0
 11
125.4234375
 21
74.23749999999998
 31
0.0
  0
LINE
  5
F70
330
925
100
AcDbEntity
  8
0
  6
Continuous
 62
     3
100
AcDbLine
 10
126.275
 20
73.9
 30
0.0
 11
128.625
 21
73.9
 31
0.0
  0
LINE
  5
F71
330
925
100
AcDbEntity
  8
0
  6
Continuous
 62
     3
100
AcDbLine
 10
128.5984374999999
 20
73.6375
 30
0.0
 11
128.2796875
 21
71.08750000000002
 31
0.0
  0
LINE
  5
F72
330
925
100
AcDbEntity
  8
0
  6
Continuous
 62
     3
100
AcDbLine
 10
129.325
 20
74.45714285699999
 30
0.0
 11
129.425
 21
74.40000000000002
 31
0.0
  0
LINE
  5
F73
330
925
100
AcDbEntity
  8
0
  6
Continuous
 62
     3
100
AcDbLine
 10
129.0749999999997
 20
74.59999999999998
 30
0.0
 11
129.125
 21
74.571428571
 31
0.0
  0
LINE
  5
F74
330
925
100
AcDbEntity
  8
0
  6
Continuous
 62
     3
100
AcDbLine
 10
125.875
 20
74.65
 30
0.0
 11
129.025
 21
74.65
 31
0.0
  0
LINE
  5
F75
330
925
100
AcDbEntity
  8
0
  6
Continuous
 62
     3
100
AcDbLine
 10
129.475
 20
74.40000000000002
 30
0.0
 11
128.9749999999999
 21
70.65000000000002
 31
0.0
  0
POINT
  5
F76
330
925
100
AcDbEntity
  8
0
  6
Continuous
 62
     3
100
AcDbPoint
 10
136.0999999999999
 20
66.65
 30
0.0
  0
POINT
  5
F77
330
925
100
AcDbEntity
  8
0
  6
Continuous
 62
     3
100
AcDbPoint
 10
136.0999999999999
 20
66.65
 30
0.0
  0
POINT
  5
F78
330
925
100
AcDbEntity
  8
0
  6
Continuous
 62
     3
100
AcDbPoint
 10
132.3499999999999
 20
66.65
 30
0.0
  0
POINT
  5
F79
330
925
100
AcDbEntity
  8
0
  6
Continuous
 62
     3
100
AcDbPoint
 10
135.85
 20
74.65
 30
0.0
  0
LINE
  5
F7A
330
925
100
AcDbEntity
  8
0
  6
Continuous
 62
     3
100
AcDbLine
 10
134.0999999999999
 20
71.0
 30
0.0
 11
132.9499999999999
 21
71.0
 31
0.0
  0
LINE
  5
F7B
330
925
100
AcDbEntity
  8
0
  6
Continuous
 62
     3
100
AcDbLine
 10
132.9
 20
70.25
 30
0.0
 11
135.4
 21
70.25
 31
0.0
  0
LINE
  5
F7C
330
925
100
AcDbEntity
  8
0
  6
Continuous
 62
     3
100
AcDbLine
 10
135.6999999999999
 20
73.9
 30
0.0
 11
136.1999999999994
 21
74.5
 31
0.0
  0
LINE
  5
F7D
330
925
100
AcDbEntity
  8
0
  6
Continuous
 62
     3
100
AcDbLine
 10
136.4
 20
74.45
 30
0.0
 11
135.8
 21
73.7
 31
0.0
  0
LINE
  5
F7E
330
925
100
AcDbEntity
  8
0
  6
Continuous
 62
     3
100
AcDbLine
 10
133.3499999999999
 20
73.95
 30
0.0
 11
132.9
 21
74.5
 31
0.0
  0
LINE
  5
F7F
330
925
100
AcDbEntity
  8
0
  6
Continuous
 62
     3
100
AcDbLine
 10
133.25
 20
73.75
 30
0.0
 11
132.75
 21
74.40000000000002
 31
0.0
  0
LINE
  5
F80
330
925
100
AcDbEntity
  8
0
  6
Continuous
 62
     3
100
AcDbLine
 10
135.4
 20
71.09999999999998
 30
0.0
 11
136.05
 21
70.59999999999998
 31
0.0
  0
LINE
  5
F81
330
925
100
AcDbEntity
  8
0
  6
Continuous
 62
     3
100
AcDbLine
 10
135.3499999999999
 20
70.95
 30
0.0
 11
136.0
 21
70.45
 31
0.0
  0
LINE
  5
F82
330
925
100
AcDbEntity
  8
0
  6
Continuous
 62
     3
100
AcDbLine
 10
136.0
 20
70.45
 30
0.0
 11
135.3
 21
70.25
 31
0.0
  0
LINE
  5
F83
330
925
100
AcDbEntity
  8
0
  6
Continuous
 62
     3
100
AcDbLine
 10
135.3
 20
70.09999999999999
 30
0.0
 11
136.05
 21
70.3
 31
0.0
  0
LINE
  5
F84
330
925
100
AcDbEntity
  8
0
  6
Continuous
 62
     3
100
AcDbLine
 10
132.9
 20
71.0
 30
0.0
 11
132.25
 21
70.7
 31
0.0
  0
LINE
  5
F85
330
925
100
AcDbEntity
  8
0
  6
Continuous
 62
     3
100
AcDbLine
 10
132.25
 20
70.7
 30
0.0
 11
132.85
 21
70.25
 31
0.0
  0
LINE
  5
F86
330
925
100
AcDbEntity
  8
0
  6
Continuous
 62
     3
100
AcDbLine
 10
132.15
 20
70.8
 30
0.0
 11
132.9
 21
71.2
 31
0.0
  0
LINE
  5
F87
330
925
100
AcDbEntity
  8
0
  6
Continuous
 62
     3
100
AcDbLine
 10
134.9499999999999
 20
67.5
 30
0.0
 11
135.4999999999995
 21
66.95
 31
0.0
  0
LINE
  5
F88
330
925
100
AcDbEntity
  8
0
  6
Continuous
 62
     3
100
AcDbLine
 10
134.85
 20
67.40000000000001
 30
0.0
 11
135.4
 21
66.84999999999999
 31
0.0
  0
LINE
  5
F89
330
925
100
AcDbEntity
  8
0
  6
Continuous
 62
     3
100
AcDbLine
 10
131.85
 20
66.90000000000001
 30
0.0
 11
132.45
 21
67.34999999999999
 31
0.0
  0
LINE
  5
F8A
330
925
100
AcDbEntity
  8
0
  6
Continuous
 62
     3
100
AcDbLine
 10
131.816666667
 20
66.84999999999999
 30
0.0
 11
131.9499999999999
 21
66.65
 31
0.0
  0
LINE
  5
F8B
330
925
100
AcDbEntity
  8
0
  6
Continuous
 62
     3
100
AcDbLine
 10
134.85
 20
67.40000000000001
 30
0.0
 11
132.45
 21
67.40000000000001
 31
0.0
  0
LINE
  5
F8C
330
925
100
AcDbEntity
  8
0
  6
Continuous
 62
     3
100
AcDbLine
 10
135.4999999999995
 20
66.922222222
 30
0.0
 11
135.5999999999999
 21
67.0
 31
0.0
  0
LINE
  5
F8D
330
925
100
AcDbEntity
  8
0
  6
Continuous
 62
     3
100
AcDbLine
 10
135.15
 20
66.65
 30
0.0
 11
135.4
 21
66.84444444399999
 31
0.0
  0
LINE
  5
F8E
330
925
100
AcDbEntity
  8
0
  6
Continuous
 62
     3
100
AcDbLine
 10
135.15
 20
66.65
 30
0.0
 11
131.9
 21
66.65
 31
0.0
  0
LINE
  5
F8F
330
925
100
AcDbEntity
  8
0
  6
Continuous
 62
     3
100
AcDbLine
 10
136.0546875
 20
70.28749999999999
 30
0.0
 11
135.6421875
 21
66.9875
 31
0.0
  0
LINE
  5
F90
330
925
100
AcDbEntity
  8
0
  6
Continuous
 62
     3
100
AcDbLine
 10
135.2734375
 20
70.0375
 30
0.0
 11
134.9609375
 21
67.5375
 31
0.0
  0
LINE
  5
F91
330
925
100
AcDbEntity
  8
0
  6
Continuous
 62
     3
100
AcDbLine
 10
135.3
 20
71.0
 30
0.0
 11
134.15
 21
71.0
 31
0.0
  0
LINE
  5
F92
330
925
100
AcDbEntity
  8
0
  6
Continuous
 62
     3
100
AcDbLine
 10
132.9296875
 20
71.2875
 30
0.0
 11
133.2359375
 21
73.73749999999998
 31
0.0
  0
LINE
  5
F93
330
925
100
AcDbEntity
  8
0
  6
Continuous
 62
     3
100
AcDbLine
 10
132.6999999999999
 20
74.38571428600001
 30
0.0
 11
132.6
 21
74.29999999999998
 31
0.0
  0
LINE
  5
F94
330
925
100
AcDbEntity
  8
0
  6
Continuous
 62
     3
100
AcDbLine
 10
132.9499999999999
 20
74.59999999999998
 30
0.0
 11
132.9
 21
74.557142857
 31
0.0
  0
LINE
  5
F95
330
925
100
AcDbEntity
  8
0
  6
Continuous
 62
     3
100
AcDbLine
 10
132.1171875
 20
70.78749999999998
 30
0.0
 11
132.5484375
 21
74.23749999999998
 31
0.0
  0
LINE
  5
F96
330
925
100
AcDbEntity
  8
0
  6
Continuous
 62
     3
100
AcDbLine
 10
133.4
 20
73.9
 30
0.0
 11
135.7499999999996
 21
73.9
 31
0.0
  0
LINE
  5
F97
330
925
100
AcDbEntity
  8
0
  6
Continuous
 62
     3
100
AcDbLine
 10
135.7234374999999
 20
73.6375
 30
0.0
 11
135.4046874999999
 21
71.08750000000002
 31
0.0
  0
LINE
  5
F98
330
925
100
AcDbEntity
  8
0
  6
Continuous
 62
     3
100
AcDbLine
 10
136.1999999999994
 20
74.59999999999998
 30
0.0
 11
136.25
 21
74.571428571
 31
0.0
  0
LINE
  5
F99
330
925
100
AcDbEntity
  8
0
  6
Continuous
 62
     3
100
AcDbLine
 10
133.0
 20
74.65
 30
0.0
 11
136.15
 21
74.65
 31
0.0
  0
LINE
  5
F9A
330
925
100
AcDbEntity
  8
0
  6
Continuous
 62
     3
100
AcDbLine
 10
136.5671874999994
 20
74.3875
 30
0.0
 11
136.0921875
 21
70.58750000000002
 31
0.0
  0
POINT
  5
F9B
330
925
100
AcDbEntity
  8
0
  6
Continuous
 62
     3
100
AcDbPoint
 10
111.65
 20
55.7
 30
0.0
  0
POINT
  5
F9C
330
925
100
AcDbEntity
  8
0
  6
Continuous
 62
     3
100
AcDbPoint
 10
111.2249999999997
 20
63.15
 30
0.0
  0
POINT
  5
F9D
330
925
100
AcDbEntity
  8
0
  6
Continuous
 62
     3
100
AcDbPoint
 10
110.975
 20
55.15
 30
0.0
  0
POINT
  5
F9E
330
925
100
AcDbEntity
  8
0
  6
Continuous
 62
     3
100
AcDbPoint
 10
114.4749999999997
 20
63.15
 30
0.0
  0
LINE
  5
F9F
330
925
100
AcDbEntity
  8
0
  6
Continuous
 62
     3
100
AcDbLine
 10
112.7249999999998
 20
59.5
 30
0.0
 11
111.575
 21
59.5
 31
0.0
  0
LINE
  5
FA0
330
925
100
AcDbEntity
  8
0
  6
Continuous
 62
     3
100
AcDbLine
 10
111.525
 20
58.75
 30
0.0
 11
114.0249999999999
 21
58.75
 31
0.0
  0
LINE
  5
FA1
330
925
100
AcDbEntity
  8
0
  6
Continuous
 62
     3
100
AcDbLine
 10
114.325
 20
62.4
 30
0.0
 11
114.8249999999999
 21
63.0
 31
0.0
  0
LINE
  5
FA2
330
925
100
AcDbEntity
  8
0
  6
Continuous
 62
     3
100
AcDbLine
 10
115.0249999999999
 20
62.95
 30
0.0
 11
114.4249999999999
 21
62.2
 31
0.0
  0
LINE
  5
FA3
330
925
100
AcDbEntity
  8
0
  6
Continuous
 62
     3
100
AcDbLine
 10
111.975
 20
62.45
 30
0.0
 11
111.525
 21
63.0
 31
0.0
  0
LINE
  5
FA4
330
925
100
AcDbEntity
  8
0
  6
Continuous
 62
     3
100
AcDbLine
 10
111.875
 20
62.25
 30
0.0
 11
111.375
 21
62.9
 31
0.0
  0
LINE
  5
FA5
330
925
100
AcDbEntity
  8
0
  6
Continuous
 62
     3
100
AcDbLine
 10
114.0249999999999
 20
59.6
 30
0.0
 11
114.6749999999999
 21
59.1
 31
0.0
  0
LINE
  5
FA6
330
925
100
AcDbEntity
  8
0
  6
Continuous
 62
     3
100
AcDbLine
 10
113.975
 20
59.45
 30
0.0
 11
114.6249999999999
 21
58.95
 31
0.0
  0
LINE
  5
FA7
330
925
100
AcDbEntity
  8
0
  6
Continuous
 62
     3
100
AcDbLine
 10
114.6249999999999
 20
58.95
 30
0.0
 11
113.925
 21
58.75
 31
0.0
  0
LINE
  5
FA8
330
925
100
AcDbEntity
  8
0
  6
Continuous
 62
     3
100
AcDbLine
 10
113.925
 20
58.6
 30
0.0
 11
114.6749999999999
 21
58.79999999999999
 31
0.0
  0
LINE
  5
FA9
330
925
100
AcDbEntity
  8
0
  6
Continuous
 62
     3
100
AcDbLine
 10
111.525
 20
59.5
 30
0.0
 11
110.875
 21
59.2
 31
0.0
  0
LINE
  5
FAA
330
925
100
AcDbEntity
  8
0
  6
Continuous
 62
     3
100
AcDbLine
 10
110.875
 20
59.2
 30
0.0
 11
111.4749999999997
 21
58.75
 31
0.0
  0
LINE
  5
FAB
330
925
100
AcDbEntity
  8
0
  6
Continuous
 62
     3
100
AcDbLine
 10
111.375
 20
58.65
 30
0.0
 11
110.725
 21
59.1
 31
0.0
  0
LINE
  5
FAC
330
925
100
AcDbEntity
  8
0
  6
Continuous
 62
     3
100
AcDbLine
 10
110.775
 20
59.29999999999999
 30
0.0
 11
111.525
 21
59.7
 31
0.0
  0
LINE
  5
FAD
330
925
100
AcDbEntity
  8
0
  6
Continuous
 62
     3
100
AcDbLine
 10
113.575
 20
56.0
 30
0.0
 11
114.125
 21
55.45
 31
0.0
  0
LINE
  5
FAE
330
925
100
AcDbEntity
  8
0
  6
Continuous
 62
     3
100
AcDbLine
 10
113.4749999999997
 20
55.89999999999999
 30
0.0
 11
114.0249999999999
 21
55.35
 31
0.0
  0
LINE
  5
FAF
330
925
100
AcDbEntity
  8
0
  6
Continuous
 62
     3
100
AcDbLine
 10
111.075
 20
56.0
 30
0.0
 11
110.375
 21
55.5
 31
0.0
  0
LINE
  5
FB0
330
925
100
AcDbEntity
  8
0
  6
Continuous
 62
     3
100
AcDbLine
 10
110.4749999999997
 20
55.4
 30
0.0
 11
111.075
 21
55.85
 31
0.0
  0
LINE
  5
FB1
330
925
100
AcDbEntity
  8
0
  6
Continuous
 62
     3
100
AcDbLine
 10
110.2812499999999
 20
55.6
 30
0.0
 11
110.725
 21
59.15
 31
0.0
  0
LINE
  5
FB2
330
925
100
AcDbEntity
  8
0
  6
Continuous
 62
     3
100
AcDbLine
 10
110.441666667
 20
55.35
 30
0.0
 11
110.575
 21
55.15
 31
0.0
  0
LINE
  5
FB3
330
925
100
AcDbEntity
  8
0
  6
Continuous
 62
     3
100
AcDbLine
 10
110.275
 20
55.6
 30
0.0
 11
110.375
 21
55.45
 31
0.0
  0
LINE
  5
FB4
330
925
100
AcDbEntity
  8
0
  6
Continuous
 62
     3
100
AcDbLine
 10
113.4749999999997
 20
55.89999999999999
 30
0.0
 11
111.075
 21
55.89999999999999
 31
0.0
  0
LINE
  5
FB5
330
925
100
AcDbEntity
  8
0
  6
Continuous
 62
     3
100
AcDbLine
 10
114.125
 20
55.42222222199999
 30
0.0
 11
114.2249999999995
 21
55.5
 31
0.0
  0
LINE
  5
FB6
330
925
100
AcDbEntity
  8
0
  6
Continuous
 62
     3
100
AcDbLine
 10
113.775
 20
55.15
 30
0.0
 11
114.0249999999999
 21
55.344444444
 31
0.0
  0
LINE
  5
FB7
330
925
100
AcDbEntity
  8
0
  6
Continuous
 62
     3
100
AcDbLine
 10
113.775
 20
55.15
 30
0.0
 11
110.525
 21
55.15
 31
0.0
  0
LINE
  5
FB8
330
925
100
AcDbEntity
  8
0
  6
Continuous
 62
     3
100
AcDbLine
 10
114.6796874999999
 20
58.7875
 30
0.0
 11
114.2671875
 21
55.4875
 31
0.0
  0
LINE
  5
FB9
330
925
100
AcDbEntity
  8
0
  6
Continuous
 62
     3
100
AcDbLine
 10
113.8984374999999
 20
58.5375
 30
0.0
 11
113.5859375
 21
56.0375
 31
0.0
  0
LINE
  5
FBA
330
925
100
AcDbEntity
  8
0
  6
Continuous
 62
     3
100
AcDbLine
 10
113.925
 20
59.5
 30
0.0
 11
112.775
 21
59.5
 31
0.0
  0
LINE
  5
FBB
330
925
100
AcDbEntity
  8
0
  6
Continuous
 62
     3
100
AcDbLine
 10
111.0859374999999
 20
56.0375
 30
0.0
 11
111.4046874999995
 21
58.5875
 31
0.0
  0
LINE
  5
FBC
330
925
100
AcDbEntity
  8
0
  6
Continuous
 62
     3
100
AcDbLine
 10
111.5546874999999
 20
59.7875
 30
0.0
 11
111.8609375
 21
62.23749999999999
 31
0.0
  0
LINE
  5
FBD
330
925
100
AcDbEntity
  8
0
  6
Continuous
 62
     3
100
AcDbLine
 10
111.325
 20
62.885714286
 30
0.0
 11
111.2249999999997
 21
62.8
 31
0.0
  0
LINE
  5
FBE
330
925
100
AcDbEntity
  8
0
  6
Continuous
 62
     3
100
AcDbLine
 10
111.575
 20
63.1
 30
0.0
 11
111.525
 21
63.05714285699998
 31
0.0
  0
LINE
  5
FBF
330
925
100
AcDbEntity
  8
0
  6
Continuous
 62
     3
100
AcDbLine
 10
111.2234375
 20
63.1375
 30
0.0
 11
111.2249999999997
 21
63.15
 31
0.0
  0
LINE
  5
FC0
330
925
100
AcDbEntity
  8
0
  6
Continuous
 62
     3
100
AcDbLine
 10
110.7421875
 20
59.2875
 30
0.0
 11
111.1734375
 21
62.73749999999999
 31
0.0
  0
LINE
  5
FC1
330
925
100
AcDbEntity
  8
0
  6
Continuous
 62
     3
100
AcDbLine
 10
112.025
 20
62.4
 30
0.0
 11
114.375
 21
62.4
 31
0.0
  0
LINE
  5
FC2
330
925
100
AcDbEntity
  8
0
  6
Continuous
 62
     3
100
AcDbLine
 10
114.3484375
 20
62.1375
 30
0.0
 11
114.0296874999995
 21
59.5875
 31
0.0
  0
LINE
  5
FC3
330
925
100
AcDbEntity
  8
0
  6
Continuous
 62
     3
100
AcDbLine
 10
114.8249999999999
 20
63.1
 30
0.0
 11
114.8749999999999
 21
63.071428571
 31
0.0
  0
LINE
  5
FC4
330
925
100
AcDbEntity
  8
0
  6
Continuous
 62
     3
100
AcDbLine
 10
111.6249999999999
 20
63.15
 30
0.0
 11
114.775
 21
63.15
 31
0.0
  0
LINE
  5
FC5
330
925
100
AcDbEntity
  8
0
  6
Continuous
 62
     3
100
AcDbLine
 10
115.1921874999999
 20
62.8875
 30
0.0
 11
114.7171874999997
 21
59.0875
 31
0.0
  0
LINE
  5
FC6
330
925
100
AcDbEntity
  8
0
  6
Continuous
 62
     3
100
AcDbLine
 10
124.675
 20
94.9
 30
0.0
 11
48.67499999999999
 21
94.9
 31
0.0
  0
LINE
  5
FC7
330
925
100
AcDbEntity
  8
0
  6
Continuous
 62
     3
100
AcDbLine
 10
95.675
 20
95.90000000000001
 30
0.0
 11
123.425
 21
95.90000000000001
 31
0.0
  0
LINE
  5
FCA
330
925
100
AcDbEntity
  8
0
  6
Continuous
 62
     3
100
AcDbLine
 10
141.425
 20
255.025
 30
0.0
 11
141.425
 21
237.475
 31
0.0
  0
LINE
  5
FCB
330
925
100
AcDbEntity
  8
0
  6
Continuous
 62
     3
100
AcDbLine
 10
95.675
 20
255.025
 30
0.0
 11
141.425
 21
255.025
 31
0.0
  0
LINE
  5
FCC
330
925
100
AcDbEntity
  8
0
  6
Continuous
 62
     3
100
AcDbLine
 10
209.375
 20
115.4
 30
0.0
 11
209.8749999999999
 21
115.4
 31
0.0
  0
LINE
  5
FCD
330
925
100
AcDbEntity
  8
0
  6
Continuous
 62
     3
100
AcDbLine
 10
212.875
 20
115.9
 30
0.0
 11
212.875
 21
117.4
 31
0.0
  0
LINE
  5
FCE
330
925
100
AcDbEntity
  8
0
  6
Continuous
 62
     3
100
AcDbLine
 10
212.875
 20
117.4
 30
0.0
 11
211.375
 21
117.4
 31
0.0
  0
LINE
  5
FCF
330
925
100
AcDbEntity
  8
0
  6
Continuous
 62
     3
100
AcDbLine
 10
211.375
 20
117.4
 30
0.0
 11
211.375
 21
237.4
 31
0.0
  0
LINE
  5
FD0
330
925
100
AcDbEntity
  8
0
  6
Continuous
 62
     3
100
AcDbLine
 10
211.375
 20
237.4
 30
0.0
 11
208.875
 21
237.4
 31
0.0
  0
LINE
  5
FD1
330
925
100
AcDbEntity
  8
0
  6
Continuous
 62
     3
100
AcDbLine
 10
204.875
 20
117.4
 30
0.0
 11
204.875
 21
120.4
 31
0.0
  0
LINE
  5
FD2
330
925
100
AcDbEntity
  8
0
  6
Continuous
 62
     3
100
AcDbLine
 10
204.875
 20
120.4
 30
0.0
 11
200.875
 21
120.4
 31
0.0
  0
LINE
  5
FD3
330
925
100
AcDbEntity
  8
0
  6
Continuous
 62
     3
100
AcDbLine
 10
200.875
 20
120.4
 30
0.0
 11
200.875
 21
117.4
 31
0.0
  0
LINE
  5
FD4
330
925
100
AcDbEntity
  8
0
  6
Continuous
 62
     3
100
AcDbLine
 10
168.375
 20
115.4
 30
0.0
 11
167.8749999999998
 21
115.4
 31
0.0
  0
LINE
  5
FD5
330
925
100
AcDbEntity
  8
0
  6
Continuous
 62
     3
100
AcDbLine
 10
164.8749999999996
 20
115.9
 30
0.0
 11
164.8749999999996
 21
117.4
 31
0.0
  0
LINE
  5
FD6
330
925
100
AcDbEntity
  8
0
  6
Continuous
 62
     3
100
AcDbLine
 10
166.375
 20
117.4
 30
0.0
 11
166.375
 21
237.4
 31
0.0
  0
LINE
  5
FD7
330
925
100
AcDbEntity
  8
0
  6
Continuous
 62
     3
100
AcDbLine
 10
172.8749999999998
 20
117.4
 30
0.0
 11
172.8749999999998
 21
120.4
 31
0.0
  0
LINE
  5
FD8
330
925
100
AcDbEntity
  8
0
  6
Continuous
 62
     3
100
AcDbLine
 10
172.8749999999998
 20
120.4
 30
0.0
 11
176.875
 21
120.4
 31
0.0
  0
LINE
  5
FD9
330
925
100
AcDbEntity
  8
0
  6
Continuous
 62
     3
100
AcDbLine
 10
176.875
 20
120.4
 30
0.0
 11
176.875
 21
117.4
 31
0.0
  0
LINE
  5
FDA
330
925
100
AcDbEntity
  8
0
  6
Continuous
 62
     3
100
AcDbLine
 10
183.375
 20
237.4
 30
0.0
 11
183.375
 21
236.4
 31
0.0
  0
LINE
  5
FDB
330
925
100
AcDbEntity
  8
0
  6
Continuous
 62
     3
100
AcDbLine
 10
201.3749999999999
 20
134.8999999999996
 30
0.0
 11
201.3749999999999
 21
127.9
 31
0.0
  0
LINE
  5
FDC
330
925
100
AcDbEntity
  8
0
  6
Continuous
 62
     3
100
AcDbLine
 10
209.8749999999999
 20
115.9
 30
0.0
 11
212.875
 21
115.9
 31
0.0
  0
LINE
  5
FDD
330
925
100
AcDbEntity
  8
0
  6
Continuous
 62
     3
100
AcDbLine
 10
188.8749999999998
 20
115.4
 30
0.0
 11
209.8749999999999
 21
115.4
 31
0.0
  0
LINE
  5
FDE
330
925
100
AcDbEntity
  8
0
  6
Continuous
 62
     3
100
AcDbLine
 10
167.8749999999998
 20
115.9
 30
0.0
 11
164.8749999999996
 21
115.9
 31
0.0
  0
LINE
  5
FDF
330
925
100
AcDbEntity
  8
0
  6
Continuous
 62
     3
100
AcDbLine
 10
188.8749999999998
 20
115.4
 30
0.0
 11
167.8749999999998
 21
115.4
 31
0.0
  0
LINE
  5
FE0
330
925
100
AcDbEntity
  8
0
  6
Continuous
 62
     3
100
AcDbLine
 10
164.8749999999996
 20
117.4
 30
0.0
 11
172.8749999999998
 21
117.4
 31
0.0
  0
LINE
  5
FE1
330
925
100
AcDbEntity
  8
0
  6
Continuous
 62
     3
100
AcDbLine
 10
200.625
 20
117.4
 30
0.0
 11
172.8749999999998
 21
117.4
 31
0.0
  0
LINE
  5
FE2
330
925
100
AcDbEntity
  8
0
  6
Continuous
 62
     3
100
AcDbLine
 10
200.875
 20
117.4
 30
0.0
 11
211.8749999999999
 21
117.4
 31
0.0
  0
LINE
  5
FE3
330
925
100
AcDbEntity
  8
0
  6
Continuous
 62
     3
100
AcDbLine
 10
195.125
 20
167.4
 30
0.0
 11
200.125
 21
167.4
 31
0.0
  0
LINE
  5
FE4
330
925
100
AcDbEntity
  8
0
  6
Continuous
 62
     3
100
AcDbLine
 10
200.125
 20
167.4
 30
0.0
 11
200.125
 21
139.4
 31
0.0
  0
LINE
  5
FE5
330
925
100
AcDbEntity
  8
0
  6
Continuous
 62
     3
100
AcDbLine
 10
200.125
 20
139.4
 30
0.0
 11
195.125
 21
139.4
 31
0.0
  0
LINE
  5
FE6
330
925
100
AcDbEntity
  8
0
  6
Continuous
 62
     3
100
AcDbLine
 10
195.125
 20
139.4
 30
0.0
 11
195.125
 21
167.4
 31
0.0
  0
LINE
  5
FE8
330
925
100
AcDbEntity
  8
0
  6
Continuous
 62
     3
100
AcDbLine
 10
169.375
 20
148.9
 30
0.0
 11
171.1249999999996
 21
148.9
 31
0.0
  0
LINE
  5
FE9
330
925
100
AcDbEntity
  8
0
  6
Continuous
 62
     3
100
AcDbLine
 10
172.375
 20
148.9
 30
0.0
 11
174.1249999999998
 21
148.9
 31
0.0
  0
LINE
  5
FEA
330
925
100
AcDbEntity
  8
0
  6
Continuous
 62
     3
100
AcDbLine
 10
208.375
 20
148.9
 30
0.0
 11
206.625
 21
148.9
 31
0.0
  0
LINE
  5
FEB
330
925
100
AcDbEntity
  8
0
  6
Continuous
 62
     3
100
AcDbLine
 10
205.3749999999999
 20
148.9
 30
0.0
 11
203.6249999999999
 21
148.9
 31
0.0
  0
LINE
  5
FEC
330
925
100
AcDbEntity
  8
0
  6
Continuous
 62
     3
100
AcDbLine
 10
170.375
 20
234.4
 30
0.0
 11
168.375
 21
234.4
 31
0.0
  0
LINE
  5
FED
330
925
100
AcDbEntity
  8
0
  6
Continuous
 62
     3
100
AcDbLine
 10
176.3749999999998
 20
226.9
 30
0.0
 11
178.125
 21
226.9
 31
0.0
  0
LINE
  5
FEE
330
925
100
AcDbEntity
  8
0
  6
Continuous
 62
     3
100
AcDbLine
 10
176.3749999999998
 20
209.4
 30
0.0
 11
176.3749999999998
 21
226.9
 31
0.0
  0
LINE
  5
FEF
330
925
100
AcDbEntity
  8
0
  6
Continuous
 62
     3
100
AcDbLine
 10
178.125
 20
226.9
 30
0.0
 11
178.125
 21
209.1499999999999
 31
0.0
  0
LINE
  5
FF0
330
925
100
AcDbEntity
  8
0
  6
Continuous
 62
     3
100
AcDbLine
 10
176.3749999999998
 20
191.65
 30
0.0
 11
176.3749999999998
 21
209.4
 31
0.0
  0
LINE
  5
FF1
330
925
100
AcDbEntity
  8
0
  6
Continuous
 62
     3
100
AcDbLine
 10
178.125
 20
209.4
 30
0.0
 11
178.125
 21
191.9
 31
0.0
  0
LINE
  5
FF2
330
925
100
AcDbEntity
  8
0
  6
Continuous
 62
     3
100
AcDbLine
 10
178.125
 20
211.9
 30
0.0
 11
176.3749999999998
 21
211.9
 31
0.0
  0
LINE
  5
FF3
330
925
100
AcDbEntity
  8
0
  6
Continuous
 62
     3
100
AcDbLine
 10
176.3749999999998
 20
206.8999999999999
 30
0.0
 11
178.125
 21
206.8999999999999
 31
0.0
  0
LINE
  5
FF4
330
925
100
AcDbEntity
  8
0
  6
Continuous
 62
     3
100
AcDbLine
 10
178.125
 20
191.9
 30
0.0
 11
176.3749999999998
 21
191.9
 31
0.0
  0
LINE
  5
FF5
330
925
100
AcDbEntity
  8
0
  6
Continuous
 62
     3
100
AcDbLine
 10
178.125
 20
186.8999999999993
 30
0.0
 11
176.3749999999998
 21
186.8999999999993
 31
0.0
  0
LINE
  5
FF6
330
925
100
AcDbEntity
  8
0
  6
Continuous
 62
     3
100
AcDbLine
 10
176.3749999999998
 20
171.9
 30
0.0
 11
178.125
 21
171.9
 31
0.0
  0
LINE
  5
FF7
330
925
100
AcDbEntity
  8
0
  6
Continuous
 62
     3
100
AcDbLine
 10
176.3749999999998
 20
191.9
 30
0.0
 11
176.3749999999998
 21
171.9
 31
0.0
  0
LINE
  5
FF8
330
925
100
AcDbEntity
  8
0
  6
Continuous
 62
     3
100
AcDbLine
 10
178.125
 20
171.9
 30
0.0
 11
178.125
 21
191.9
 31
0.0
  0
LINE
  5
FF9
330
925
100
AcDbEntity
  8
0
  6
Continuous
 62
     3
100
AcDbLine
 10
179.375
 20
226.9
 30
0.0
 11
181.125
 21
226.9
 31
0.0
  0
LINE
  5
FFA
330
925
100
AcDbEntity
  8
0
  6
Continuous
 62
     3
100
AcDbLine
 10
179.375
 20
209.4
 30
0.0
 11
179.375
 21
226.9
 31
0.0
  0
LINE
  5
FFB
330
925
100
AcDbEntity
  8
0
  6
Continuous
 62
     3
100
AcDbLine
 10
181.125
 20
226.9
 30
0.0
 11
181.125
 21
209.1499999999999
 31
0.0
  0
LINE
  5
FFC
330
925
100
AcDbEntity
  8
0
  6
Continuous
 62
     3
100
AcDbLine
 10
179.375
 20
191.65
 30
0.0
 11
179.375
 21
209.4
 31
0.0
  0
LINE
  5
FFD
330
925
100
AcDbEntity
  8
0
  6
Continuous
 62
     3
100
AcDbLine
 10
181.125
 20
209.4
 30
0.0
 11
181.125
 21
191.9
 31
0.0
  0
LINE
  5
FFE
330
925
100
AcDbEntity
  8
0
  6
Continuous
 62
     3
100
AcDbLine
 10
181.125
 20
211.9
 30
0.0
 11
179.375
 21
211.9
 31
0.0
  0
LINE
  5
FFF
330
925
100
AcDbEntity
  8
0
  6
Continuous
 62
     3
100
AcDbLine
 10
179.375
 20
206.8999999999999
 30
0.0
 11
181.125
 21
206.8999999999999
 31
0.0
  0
LINE
  5
1000
330
925
100
AcDbEntity
  8
0
  6
Continuous
 62
     3
100
AcDbLine
 10
181.125
 20
191.9
 30
0.0
 11
179.375
 21
191.9
 31
0.0
  0
LINE
  5
1001
330
925
100
AcDbEntity
  8
0
  6
Continuous
 62
     3
100
AcDbLine
 10
181.125
 20
186.8999999999993
 30
0.0
 11
179.375
 21
186.8999999999993
 31
0.0
  0
LINE
  5
1002
330
925
100
AcDbEntity
  8
0
  6
Continuous
 62
     3
100
AcDbLine
 10
179.375
 20
171.9
 30
0.0
 11
181.125
 21
171.9
 31
0.0
  0
LINE
  5
1003
330
925
100
AcDbEntity
  8
0
  6
Continuous
 62
     3
100
AcDbLine
 10
179.375
 20
191.9
 30
0.0
 11
179.375
 21
171.9
 31
0.0
  0
LINE
  5
1004
330
925
100
AcDbEntity
  8
0
  6
Continuous
 62
     3
100
AcDbLine
 10
181.125
 20
171.9
 30
0.0
 11
181.125
 21
191.9
 31
0.0
  0
LINE
  5
1005
330
925
100
AcDbEntity
  8
0
  6
Continuous
 62
     3
100
AcDbLine
 10
182.375
 20
209.4
 30
0.0
 11
182.375
 21
226.9
 31
0.0
  0
LINE
  5
1006
330
925
100
AcDbEntity
  8
0
  6
Continuous
 62
     3
100
AcDbLine
 10
182.375
 20
191.65
 30
0.0
 11
182.375
 21
209.4
 31
0.0
  0
LINE
  5
1007
330
925
100
AcDbEntity
  8
0
  6
Continuous
 62
     3
100
AcDbLine
 10
182.375
 20
191.9
 30
0.0
 11
182.375
 21
171.9
 31
0.0
  0
LINE
  5
1008
330
925
100
AcDbEntity
  8
0
  6
Continuous
 62
     3
100
AcDbLine
 10
168.375
 20
211.9
 30
0.0
 11
170.375
 21
211.9
 31
0.0
  0
LINE
  5
1009
330
925
100
AcDbEntity
  8
0
  6
Continuous
 62
     3
100
AcDbLine
 10
170.375
 20
210.15
 30
0.0
 11
168.375
 21
210.15
 31
0.0
  0
LINE
  5
100A
330
925
100
AcDbEntity
  8
0
  6
Continuous
 62
     3
100
AcDbLine
 10
168.375
 20
234.4
 30
0.0
 11
168.375
 21
211.9
 31
0.0
  0
LINE
  5
100B
330
925
100
AcDbEntity
  8
0
  6
Continuous
 62
     3
100
AcDbLine
 10
170.375
 20
211.9
 30
0.0
 11
170.375
 21
234.4
 31
0.0
  0
LINE
  5
100C
330
925
100
AcDbEntity
  8
0
  6
Continuous
 62
     3
100
AcDbLine
 10
168.375
 20
210.15
 30
0.0
 11
168.375
 21
207.4
 31
0.0
  0
LINE
  5
100D
330
925
100
AcDbEntity
  8
0
  6
Continuous
 62
     3
100
AcDbLine
 10
170.375
 20
207.4
 30
0.0
 11
170.375
 21
210.15
 31
0.0
  0
LINE
  5
100E
330
925
100
AcDbEntity
  8
0
  6
Continuous
 62
     3
100
AcDbLine
 10
170.375
 20
188.65
 30
0.0
 11
168.375
 21
188.65
 31
0.0
  0
LINE
  5
100F
330
925
100
AcDbEntity
  8
0
  6
Continuous
 62
     3
100
AcDbLine
 10
168.375
 20
186.8999999999993
 30
0.0
 11
170.375
 21
186.8999999999993
 31
0.0
  0
LINE
  5
1010
330
925
100
AcDbEntity
  8
0
  6
Continuous
 62
     3
100
AcDbLine
 10
168.375
 20
188.65
 30
0.0
 11
168.375
 21
207.4
 31
0.0
  0
LINE
  5
1011
330
925
100
AcDbEntity
  8
0
  6
Continuous
 62
     3
100
AcDbLine
 10
170.375
 20
207.4
 30
0.0
 11
170.375
 21
188.65
 31
0.0
  0
LINE
  5
1012
330
925
100
AcDbEntity
  8
0
  6
Continuous
 62
     3
100
AcDbLine
 10
170.375
 20
182.65
 30
0.0
 11
170.375
 21
163.4
 31
0.0
  0
LINE
  5
1013
330
925
100
AcDbEntity
  8
0
  6
Continuous
 62
     3
100
AcDbLine
 10
170.375
 20
163.4
 30
0.0
 11
168.375
 21
163.4
 31
0.0
  0
LINE
  5
1014
330
925
100
AcDbEntity
  8
0
  6
Continuous
 62
     3
100
AcDbLine
 10
168.375
 20
163.4
 30
0.0
 11
168.375
 21
182.65
 31
0.0
  0
LINE
  5
1015
330
925
100
AcDbEntity
  8
0
  6
Continuous
 62
     3
100
AcDbLine
 10
168.375
 20
182.65
 30
0.0
 11
168.375
 21
186.8999999999993
 31
0.0
  0
LINE
  5
1016
330
925
100
AcDbEntity
  8
0
  6
Continuous
 62
     3
100
AcDbLine
 10
170.375
 20
186.8999999999993
 30
0.0
 11
170.375
 21
182.15
 31
0.0
  0
LINE
  5
1017
330
925
100
AcDbEntity
  8
0
  6
Continuous
 62
     3
100
AcDbLine
 10
207.3749999999999
 20
234.4
 30
0.0
 11
209.375
 21
234.4
 31
0.0
  0
LINE
  5
1018
330
925
100
AcDbEntity
  8
0
  6
Continuous
 62
     3
100
AcDbLine
 10
201.3749999999999
 20
226.9
 30
0.0
 11
199.625
 21
226.9
 31
0.0
  0
LINE
  5
1019
330
925
100
AcDbEntity
  8
0
  6
Continuous
 62
     3
100
AcDbLine
 10
201.3749999999999
 20
209.4
 30
0.0
 11
201.3749999999999
 21
226.9
 31
0.0
  0
LINE
  5
101A
330
925
100
AcDbEntity
  8
0
  6
Continuous
 62
     3
100
AcDbLine
 10
199.625
 20
226.9
 30
0.0
 11
199.625
 21
209.1499999999999
 31
0.0
  0
LINE
  5
101B
330
925
100
AcDbEntity
  8
0
  6
Continuous
 62
     3
100
AcDbLine
 10
201.3749999999999
 20
191.65
 30
0.0
 11
201.3749999999999
 21
209.4
 31
0.0
  0
LINE
  5
101C
330
925
100
AcDbEntity
  8
0
  6
Continuous
 62
     3
100
AcDbLine
 10
199.625
 20
209.4
 30
0.0
 11
199.625
 21
191.9
 31
0.0
  0
LINE
  5
101D
330
925
100
AcDbEntity
  8
0
  6
Continuous
 62
     3
100
AcDbLine
 10
199.625
 20
211.9
 30
0.0
 11
201.3749999999999
 21
211.9
 31
0.0
  0
LINE
  5
101E
330
925
100
AcDbEntity
  8
0
  6
Continuous
 62
     3
100
AcDbLine
 10
201.3749999999999
 20
206.8999999999999
 30
0.0
 11
199.625
 21
206.8999999999999
 31
0.0
  0
LINE
  5
101F
330
925
100
AcDbEntity
  8
0
  6
Continuous
 62
     3
100
AcDbLine
 10
199.625
 20
191.9
 30
0.0
 11
201.3749999999999
 21
191.9
 31
0.0
  0
LINE
  5
1020
330
925
100
AcDbEntity
  8
0
  6
Continuous
 62
     3
100
AcDbLine
 10
199.625
 20
186.8999999999993
 30
0.0
 11
201.3749999999999
 21
186.8999999999993
 31
0.0
  0
LINE
  5
1021
330
925
100
AcDbEntity
  8
0
  6
Continuous
 62
     3
100
AcDbLine
 10
201.3749999999999
 20
171.9
 30
0.0
 11
199.625
 21
171.9
 31
0.0
  0
LINE
  5
1022
330
925
100
AcDbEntity
  8
0
  6
Continuous
 62
     3
100
AcDbLine
 10
201.3749999999999
 20
191.9
 30
0.0
 11
201.3749999999999
 21
171.9
 31
0.0
  0
LINE
  5
1023
330
925
100
AcDbEntity
  8
0
  6
Continuous
 62
     3
100
AcDbLine
 10
199.625
 20
171.9
 30
0.0
 11
199.625
 21
191.9
 31
0.0
  0
LINE
  5
1024
330
925
100
AcDbEntity
  8
0
  6
Continuous
 62
     3
100
AcDbLine
 10
198.375
 20
226.9
 30
0.0
 11
196.625
 21
226.9
 31
0.0
  0
LINE
  5
1025
330
925
100
AcDbEntity
  8
0
  6
Continuous
 62
     3
100
AcDbLine
 10
198.375
 20
209.4
 30
0.0
 11
198.375
 21
226.9
 31
0.0
  0
LINE
  5
1026
330
925
100
AcDbEntity
  8
0
  6
Continuous
 62
     3
100
AcDbLine
 10
196.625
 20
226.9
 30
0.0
 11
196.625
 21
209.1499999999999
 31
0.0
  0
LINE
  5
1027
330
925
100
AcDbEntity
  8
0
  6
Continuous
 62
     3
100
AcDbLine
 10
198.375
 20
191.65
 30
0.0
 11
198.375
 21
209.4
 31
0.0
  0
LINE
  5
1028
330
925
100
AcDbEntity
  8
0
  6
Continuous
 62
     3
100
AcDbLine
 10
196.625
 20
209.4
 30
0.0
 11
196.625
 21
191.9
 31
0.0
  0
LINE
  5
1029
330
925
100
AcDbEntity
  8
0
  6
Continuous
 62
     3
100
AcDbLine
 10
196.625
 20
211.9
 30
0.0
 11
198.375
 21
211.9
 31
0.0
  0
LINE
  5
102A
330
925
100
AcDbEntity
  8
0
  6
Continuous
 62
     3
100
AcDbLine
 10
198.375
 20
206.8999999999999
 30
0.0
 11
196.625
 21
206.8999999999999
 31
0.0
  0
LINE
  5
102B
330
925
100
AcDbEntity
  8
0
  6
Continuous
 62
     3
100
AcDbLine
 10
196.625
 20
191.9
 30
0.0
 11
198.375
 21
191.9
 31
0.0
  0
LINE
  5
102C
330
925
100
AcDbEntity
  8
0
  6
Continuous
 62
     3
100
AcDbLine
 10
196.625
 20
186.8999999999993
 30
0.0
 11
198.375
 21
186.8999999999993
 31
0.0
  0
LINE
  5
102D
330
925
100
AcDbEntity
  8
0
  6
Continuous
 62
     3
100
AcDbLine
 10
198.375
 20
171.9
 30
0.0
 11
196.625
 21
171.9
 31
0.0
  0
LINE
  5
102E
330
925
100
AcDbEntity
  8
0
  6
Continuous
 62
     3
100
AcDbLine
 10
198.375
 20
191.9
 30
0.0
 11
198.375
 21
171.9
 31
0.0
  0
LINE
  5
102F
330
925
100
AcDbEntity
  8
0
  6
Continuous
 62
     3
100
AcDbLine
 10
196.625
 20
171.9
 30
0.0
 11
196.625
 21
191.9
 31
0.0
  0
LINE
  5
1030
330
925
100
AcDbEntity
  8
0
  6
Continuous
 62
     3
100
AcDbLine
 10
195.375
 20
209.4
 30
0.0
 11
195.375
 21
226.9
 31
0.0
  0
LINE
  5
1031
330
925
100
AcDbEntity
  8
0
  6
Continuous
 62
     3
100
AcDbLine
 10
195.375
 20
191.65
 30
0.0
 11
195.375
 21
209.4
 31
0.0
  0
LINE
  5
1032
330
925
100
AcDbEntity
  8
0
  6
Continuous
 62
     3
100
AcDbLine
 10
195.375
 20
191.9
 30
0.0
 11
195.375
 21
171.9
 31
0.0
  0
LINE
  5
1033
330
925
100
AcDbEntity
  8
0
  6
Continuous
 62
     3
100
AcDbLine
 10
209.375
 20
211.9
 30
0.0
 11
207.3749999999999
 21
211.9
 31
0.0
  0
LINE
  5
1034
330
925
100
AcDbEntity
  8
0
  6
Continuous
 62
     3
100
AcDbLine
 10
207.3749999999999
 20
210.15
 30
0.0
 11
209.375
 21
210.15
 31
0.0
  0
LINE
  5
1035
330
925
100
AcDbEntity
  8
0
  6
Continuous
 62
     3
100
AcDbLine
 10
209.375
 20
234.4
 30
0.0
 11
209.375
 21
211.9
 31
0.0
  0
LINE
  5
1036
330
925
100
AcDbEntity
  8
0
  6
Continuous
 62
     3
100
AcDbLine
 10
207.3749999999999
 20
211.9
 30
0.0
 11
207.3749999999999
 21
234.4
 31
0.0
  0
LINE
  5
1037
330
925
100
AcDbEntity
  8
0
  6
Continuous
 62
     3
100
AcDbLine
 10
209.375
 20
210.15
 30
0.0
 11
209.375
 21
207.4
 31
0.0
  0
LINE
  5
1038
330
925
100
AcDbEntity
  8
0
  6
Continuous
 62
     3
100
AcDbLine
 10
207.3749999999999
 20
207.4
 30
0.0
 11
207.3749999999999
 21
210.15
 31
0.0
  0
LINE
  5
1039
330
925
100
AcDbEntity
  8
0
  6
Continuous
 62
     3
100
AcDbLine
 10
207.3749999999999
 20
188.65
 30
0.0
 11
209.375
 21
188.65
 31
0.0
  0
LINE
  5
103A
330
925
100
AcDbEntity
  8
0
  6
Continuous
 62
     3
100
AcDbLine
 10
209.375
 20
186.8999999999993
 30
0.0
 11
207.3749999999999
 21
186.8999999999993
 31
0.0
  0
LINE
  5
103B
330
925
100
AcDbEntity
  8
0
  6
Continuous
 62
     3
100
AcDbLine
 10
209.375
 20
188.65
 30
0.0
 11
209.375
 21
207.4
 31
0.0
  0
LINE
  5
103C
330
925
100
AcDbEntity
  8
0
  6
Continuous
 62
     3
100
AcDbLine
 10
207.3749999999999
 20
207.4
 30
0.0
 11
207.3749999999999
 21
188.65
 31
0.0
  0
LINE
  5
103D
330
925
100
AcDbEntity
  8
0
  6
Continuous
 62
     3
100
AcDbLine
 10
207.3749999999999
 20
182.65
 30
0.0
 11
207.3749999999999
 21
163.4
 31
0.0
  0
LINE
  5
103E
330
925
100
AcDbEntity
  8
0
  6
Continuous
 62
     3
100
AcDbLine
 10
207.3749999999999
 20
163.4
 30
0.0
 11
209.375
 21
163.4
 31
0.0
  0
LINE
  5
103F
330
925
100
AcDbEntity
  8
0
  6
Continuous
 62
     3
100
AcDbLine
 10
209.375
 20
163.4
 30
0.0
 11
209.375
 21
182.65
 31
0.0
  0
LINE
  5
1040
330
925
100
AcDbEntity
  8
0
  6
Continuous
 62
     3
100
AcDbLine
 10
209.375
 20
182.65
 30
0.0
 11
209.375
 21
186.8999999999993
 31
0.0
  0
LINE
  5
1041
330
925
100
AcDbEntity
  8
0
  6
Continuous
 62
     3
100
AcDbLine
 10
207.3749999999999
 20
186.8999999999993
 30
0.0
 11
207.3749999999999
 21
182.15
 31
0.0
  0
LINE
  5
1042
330
925
100
AcDbEntity
  8
0
  6
Continuous
 62
     3
100
AcDbLine
 10
176.3749999999998
 20
148.9
 30
0.0
 11
178.125
 21
148.9
 31
0.0
  0
LINE
  5
1043
330
925
100
AcDbEntity
  8
0
  6
Continuous
 62
     3
100
AcDbLine
 10
179.375
 20
148.9
 30
0.0
 11
181.125
 21
148.9
 31
0.0
  0
LINE
  5
1044
330
925
100
AcDbEntity
  8
0
  6
Continuous
 62
     3
100
AcDbLine
 10
171.1249999999996
 20
123.9
 30
0.0
 11
169.375
 21
123.9
 31
0.0
  0
LINE
  5
1045
330
925
100
AcDbEntity
  8
0
  6
Continuous
 62
     3
100
AcDbLine
 10
174.1249999999998
 20
123.9
 30
0.0
 11
172.375
 21
123.9
 31
0.0
  0
LINE
  5
1046
330
925
100
AcDbEntity
  8
0
  6
Continuous
 62
     3
100
AcDbLine
 10
178.125
 20
123.9
 30
0.0
 11
176.3749999999998
 21
123.9
 31
0.0
  0
LINE
  5
1047
330
925
100
AcDbEntity
  8
0
  6
Continuous
 62
     3
100
AcDbLine
 10
181.125
 20
123.9
 30
0.0
 11
179.375
 21
123.9
 31
0.0
  0
LINE
  5
1048
330
925
100
AcDbEntity
  8
0
  6
Continuous
 62
     3
100
AcDbLine
 10
174.1249999999998
 20
138.9
 30
0.0
 11
172.375
 21
138.9
 31
0.0
  0
LINE
  5
1049
330
925
100
AcDbEntity
  8
0
  6
Continuous
 62
     3
100
AcDbLine
 10
169.375
 20
138.9
 30
0.0
 11
171.1249999999996
 21
138.9
 31
0.0
  0
LINE
  5
104A
330
925
100
AcDbEntity
  8
0
  6
Continuous
 62
     3
100
AcDbLine
 10
181.125
 20
138.9
 30
0.0
 11
179.375
 21
138.9
 31
0.0
  0
LINE
  5
104B
330
925
100
AcDbEntity
  8
0
  6
Continuous
 62
     3
100
AcDbLine
 10
176.3749999999998
 20
138.9
 30
0.0
 11
178.125
 21
138.9
 31
0.0
  0
LINE
  5
104C
330
925
100
AcDbEntity
  8
0
  6
Continuous
 62
     3
100
AcDbLine
 10
172.375
 20
133.9
 30
0.0
 11
174.1249999999998
 21
133.9
 31
0.0
  0
LINE
  5
104D
330
925
100
AcDbEntity
  8
0
  6
Continuous
 62
     3
100
AcDbLine
 10
171.1249999999996
 20
133.9
 30
0.0
 11
169.375
 21
133.9
 31
0.0
  0
LINE
  5
104E
330
925
100
AcDbEntity
  8
0
  6
Continuous
 62
     3
100
AcDbLine
 10
179.375
 20
133.9
 30
0.0
 11
181.125
 21
133.9
 31
0.0
  0
LINE
  5
104F
330
925
100
AcDbEntity
  8
0
  6
Continuous
 62
     3
100
AcDbLine
 10
178.125
 20
133.9
 30
0.0
 11
176.3749999999998
 21
133.9
 31
0.0
  0
LINE
  5
1050
330
925
100
AcDbEntity
  8
0
  6
Continuous
 62
     3
100
AcDbLine
 10
203.6249999999999
 20
138.9
 30
0.0
 11
205.3749999999999
 21
138.9
 31
0.0
  0
LINE
  5
1051
330
925
100
AcDbEntity
  8
0
  6
Continuous
 62
     3
100
AcDbLine
 10
208.375
 20
138.9
 30
0.0
 11
206.625
 21
138.9
 31
0.0
  0
LINE
  5
1052
330
925
100
AcDbEntity
  8
0
  6
Continuous
 62
     3
100
AcDbLine
 10
205.3749999999999
 20
133.9
 30
0.0
 11
203.6249999999999
 21
133.9
 31
0.0
  0
LINE
  5
1053
330
925
100
AcDbEntity
  8
0
  6
Continuous
 62
     3
100
AcDbLine
 10
206.625
 20
133.9
 30
0.0
 11
208.375
 21
133.9
 31
0.0
  0
LINE
  5
1054
330
925
100
AcDbEntity
  8
0
  6
Continuous
 62
     3
100
AcDbLine
 10
206.625
 20
123.9
 30
0.0
 11
208.375
 21
123.9
 31
0.0
  0
LINE
  5
1055
330
925
100
AcDbEntity
  8
0
  6
Continuous
 62
     3
100
AcDbLine
 10
203.6249999999999
 20
123.9
 30
0.0
 11
205.3749999999999
 21
123.9
 31
0.0
  0
LINE
  5
1056
330
925
100
AcDbEntity
  8
0
  6
Continuous
 62
     3
100
AcDbLine
 10
203.6249999999999
 20
148.9
 30
0.0
 11
203.6249999999999
 21
123.9
 31
0.0
  0
LINE
  5
1057
330
925
100
AcDbEntity
  8
0
  6
Continuous
 62
     3
100
AcDbLine
 10
205.3749999999999
 20
123.9
 30
0.0
 11
205.3749999999999
 21
148.9
 31
0.0
  0
LINE
  5
1058
330
925
100
AcDbEntity
  8
0
  6
Continuous
 62
     3
100
AcDbLine
 10
206.625
 20
148.9
 30
0.0
 11
206.625
 21
123.9
 31
0.0
  0
LINE
  5
1059
330
925
100
AcDbEntity
  8
0
  6
Continuous
 62
     3
100
AcDbLine
 10
208.375
 20
123.9
 30
0.0
 11
208.375
 21
148.9
 31
0.0
  0
LINE
  5
105A
330
925
100
AcDbEntity
  8
0
  6
Continuous
 62
     3
100
AcDbLine
 10
182.375
 20
123.9
 30
0.0
 11
182.375
 21
148.9
 31
0.0
  0
LINE
  5
105B
330
925
100
AcDbEntity
  8
0
  6
Continuous
 62
     3
100
AcDbLine
 10
181.125
 20
148.9
 30
0.0
 11
181.125
 21
123.9
 31
0.0
  0
LINE
  5
105C
330
925
100
AcDbEntity
  8
0
  6
Continuous
 62
     3
100
AcDbLine
 10
179.375
 20
123.9
 30
0.0
 11
179.375
 21
148.9
 31
0.0
  0
LINE
  5
105D
330
925
100
AcDbEntity
  8
0
  6
Continuous
 62
     3
100
AcDbLine
 10
178.125
 20
148.9
 30
0.0
 11
178.125
 21
123.9
 31
0.0
  0
LINE
  5
105E
330
925
100
AcDbEntity
  8
0
  6
Continuous
 62
     3
100
AcDbLine
 10
176.3749999999998
 20
123.9
 30
0.0
 11
176.3749999999998
 21
148.9
 31
0.0
  0
LINE
  5
105F
330
925
100
AcDbEntity
  8
0
  6
Continuous
 62
     3
100
AcDbLine
 10
174.1249999999998
 20
148.9
 30
0.0
 11
174.1249999999998
 21
123.9
 31
0.0
  0
LINE
  5
1060
330
925
100
AcDbEntity
  8
0
  6
Continuous
 62
     3
100
AcDbLine
 10
172.375
 20
123.9
 30
0.0
 11
172.375
 21
148.9
 31
0.0
  0
LINE
  5
1061
330
925
100
AcDbEntity
  8
0
  6
Continuous
 62
     3
100
AcDbLine
 10
171.1249999999996
 20
148.9
 30
0.0
 11
171.1249999999996
 21
123.9
 31
0.0
  0
LINE
  5
1062
330
925
100
AcDbEntity
  8
0
  6
Continuous
 62
     3
100
AcDbLine
 10
169.375
 20
123.9
 30
0.0
 11
169.375
 21
148.9
 31
0.0
  0
LINE
  5
1063
330
925
100
AcDbEntity
  8
0
  6
Continuous
 62
     3
100
AcDbLine
 10
164.8749999999996
 20
115.9
 30
0.0
 11
165.125
 21
110.4
 31
0.0
  0
LINE
  5
1064
330
925
100
AcDbEntity
  8
0
  6
Continuous
 62
     3
100
AcDbLine
 10
165.125
 20
110.4
 30
0.0
 11
212.625
 21
110.4
 31
0.0
  0
LINE
  5
1065
330
925
100
AcDbEntity
  8
0
  6
Continuous
 62
     3
100
AcDbLine
 10
212.625
 20
110.4
 30
0.0
 11
212.875
 21
115.9
 31
0.0
  0
LINE
  5
1066
330
925
100
AcDbEntity
  8
0
  6
Continuous
 62
     3
100
AcDbLine
 10
209.8749999999999
 20
115.9
 30
0.0
 11
209.8749999999999
 21
115.4
 31
0.0
  0
LINE
  5
1067
330
925
100
AcDbEntity
  8
0
  6
Continuous
 62
     3
100
AcDbLine
 10
167.8749999999998
 20
115.4
 30
0.0
 11
167.8749999999998
 21
115.9
 31
0.0
  0
LINE
  5
1068
330
925
100
AcDbEntity
  8
0
  6
Continuous
 62
     3
100
AcDbLine
 10
195.125
 20
117.4
 30
0.0
 11
184.125
 21
117.4
 31
0.0
  0
LINE
  5
1069
330
925
100
AcDbEntity
  8
0
  6
Continuous
 62
     3
100
AcDbLine
 10
183.375
 20
239.0
 30
0.0
 11
188.8749999999998
 21
239.0
 31
0.0
  0
LINE
  5
106A
330
925
100
AcDbEntity
  8
0
  6
Continuous
 62
     3
100
AcDbLine
 10
183.375
 20
237.4
 30
0.0
 11
183.375
 21
239.0
 31
0.0
  0
LINE
  5
106B
330
925
100
AcDbEntity
  8
0
  6
Continuous
 62
     3
100
AcDbLine
 10
182.375
 20
226.9
 30
0.0
 11
183.375
 21
226.9
 31
0.0
  0
LINE
  5
106C
330
925
100
AcDbEntity
  8
0
  6
Continuous
 62
     3
100
AcDbLine
 10
183.375
 20
211.9
 30
0.0
 11
182.375
 21
211.9
 31
0.0
  0
LINE
  5
106D
330
925
100
AcDbEntity
  8
0
  6
Continuous
 62
     3
100
AcDbLine
 10
195.375
 20
226.9
 30
0.0
 11
194.375
 21
226.9
 31
0.0
  0
LINE
  5
106E
330
925
100
AcDbEntity
  8
0
  6
Continuous
 62
     3
100
AcDbLine
 10
194.375
 20
211.9
 30
0.0
 11
195.375
 21
211.9
 31
0.0
  0
LINE
  5
106F
330
925
100
AcDbEntity
  8
0
  6
Continuous
 62
     3
100
AcDbLine
 10
195.375
 20
206.8999999999999
 30
0.0
 11
194.375
 21
206.8999999999999
 31
0.0
  0
LINE
  5
1070
330
925
100
AcDbEntity
  8
0
  6
Continuous
 62
     3
100
AcDbLine
 10
182.375
 20
206.8999999999999
 30
0.0
 11
183.375
 21
206.8999999999999
 31
0.0
  0
LINE
  5
1071
330
925
100
AcDbEntity
  8
0
  6
Continuous
 62
     3
100
AcDbLine
 10
194.375
 20
191.9
 30
0.0
 11
195.375
 21
191.9
 31
0.0
  0
LINE
  5
1072
330
925
100
AcDbEntity
  8
0
  6
Continuous
 62
     3
100
AcDbLine
 10
194.375
 20
186.8999999999993
 30
0.0
 11
195.375
 21
186.8999999999993
 31
0.0
  0
LINE
  5
1073
330
925
100
AcDbEntity
  8
0
  6
Continuous
 62
     3
100
AcDbLine
 10
183.375
 20
191.9
 30
0.0
 11
182.375
 21
191.9
 31
0.0
  0
LINE
  5
1074
330
925
100
AcDbEntity
  8
0
  6
Continuous
 62
     3
100
AcDbLine
 10
183.375
 20
186.8999999999993
 30
0.0
 11
182.375
 21
186.8999999999993
 31
0.0
  0
LINE
  5
1075
330
925
100
AcDbEntity
  8
0
  6
Continuous
 62
     3
100
AcDbLine
 10
182.375
 20
171.9
 30
0.0
 11
183.375
 21
171.9
 31
0.0
  0
LINE
  5
1076
330
925
100
AcDbEntity
  8
0
  6
Continuous
 62
     3
100
AcDbLine
 10
195.375
 20
171.9
 30
0.0
 11
194.375
 21
171.9
 31
0.0
  0
LINE
  5
1077
330
925
100
AcDbEntity
  8
0
  6
Continuous
 62
     3
100
AcDbLine
 10
182.375
 20
148.9
 30
0.0
 11
183.375
 21
148.9
 31
0.0
  0
LINE
  5
1078
330
925
100
AcDbEntity
  8
0
  6
Continuous
 62
     3
100
AcDbLine
 10
183.375
 20
138.9
 30
0.0
 11
182.375
 21
138.9
 31
0.0
  0
LINE
  5
1079
330
925
100
AcDbEntity
  8
0
  6
Continuous
 62
     3
100
AcDbLine
 10
182.375
 20
133.9
 30
0.0
 11
183.375
 21
133.9
 31
0.0
  0
LINE
  5
107A
330
925
100
AcDbEntity
  8
0
  6
Continuous
 62
     3
100
AcDbLine
 10
183.375
 20
123.9
 30
0.0
 11
182.375
 21
123.9
 31
0.0
  0
LINE
  5
107B
330
925
100
AcDbEntity
  8
0
  6
Continuous
 62
     3
100
AcDbLine
 10
188.8749999999998
 20
155.4
 30
0.0
 11
186.875
 21
155.4
 31
0.0
  0
LINE
  5
107C
330
925
100
AcDbEntity
  8
0
  6
Continuous
 62
     3
100
AcDbLine
 10
190.8749999999995
 20
155.4
 30
0.0
 11
188.8749999999998
 21
155.4
 31
0.0
  0
LINE
  5
107D
330
925
100
AcDbEntity
  8
0
  6
Continuous
 62
     3
100
AcDbLine
 10
188.8749999999998
 20
153.9
 30
0.0
 11
190.8749999999995
 21
153.9
 31
0.0
  0
LINE
  5
107E
330
925
100
AcDbEntity
  8
0
  6
Continuous
 62
     3
100
AcDbLine
 10
188.8749999999998
 20
153.9
 30
0.0
 11
186.875
 21
153.9
 31
0.0
  0
LINE
  5
107F
330
925
100
AcDbEntity
  8
0
  6
Continuous
 62
     3
100
AcDbLine
 10
183.375
 20
166.4
 30
0.0
 11
183.375
 21
237.4
 31
0.0
  0
LINE
  5
1080
330
925
100
AcDbEntity
  8
0
  6
Continuous
 62
     3
100
AcDbLine
 10
194.375
 20
134.8999999999996
 30
0.0
 11
201.3749999999999
 21
134.8999999999996
 31
0.0
  0
LINE
  5
1081
330
925
100
AcDbEntity
  8
0
  6
Continuous
 62
     3
100
AcDbLine
 10
201.3749999999999
 20
127.9
 30
0.0
 11
194.375
 21
127.9
 31
0.0
  0
LINE
  5
1083
330
925
100
AcDbEntity
  8
0
  6
Continuous
 62
     3
100
AcDbLine
 10
179.375
 20
254.525
 30
0.0
 11
179.375
 21
237.525
 31
0.0
  0
ARC
  5
1084
330
925
100
AcDbEntity
  8
0
  6
Continuous
 62
     3
100
AcDbCircle
 10
178.875
 20
254.525
 30
0.0
 40
0.5
100
AcDbArc
 50
0.0
 51
89.99999999899998
  0
LINE
  5
1085
330
925
100
AcDbEntity
  8
0
  6
Continuous
 62
     3
100
AcDbLine
 10
166.875
 20
237.525
 30
0.0
 11
166.875
 21
254.525
 31
0.0
  0
ARC
  5
1086
330
925
100
AcDbEntity
  8
0
  6
Continuous
 62
     3
100
AcDbCircle
 10
167.375
 20
254.525
 30
0.0
 40
0.5
100
AcDbArc
 50
89.99999999899998
 51
180.0
  0
ARC
  5
1087
330
925
100
AcDbEntity
  8
0
  6
Continuous
 62
     3
100
AcDbCircle
 10
190.275
 20
257.3249999999998
 30
0.0
 40
0.5
100
AcDbArc
 50
89.99999999899998
 51
180.0
  0
LINE
  5
1088
330
925
100
AcDbEntity
  8
0
  6
Continuous
 62
     3
100
AcDbLine
 10
199.275
 20
257.825
 30
0.0
 11
190.275
 21
257.825
 31
0.0
  0
LINE
  5
1089
330
925
100
AcDbEntity
  8
0
  6
Continuous
 62
     3
100
AcDbLine
 10
199.775
 20
249.825
 30
0.0
 11
199.775
 21
257.3249999999998
 31
0.0
  0
ARC
  5
108A
330
925
100
AcDbEntity
  8
0
  6
Continuous
 62
     3
100
AcDbCircle
 10
199.275
 20
257.3249999999998
 30
0.0
 40
0.5
100
AcDbArc
 50
0.0
 51
89.99999999899998
  0
LINE
  5
108B
330
925
100
AcDbEntity
  8
0
  6
Continuous
 62
     3
100
AcDbLine
 10
208.2749999999998
 20
249.825
 30
0.0
 11
199.775
 21
249.825
 31
0.0
  0
ARC
  5
108C
330
925
100
AcDbEntity
  8
0
  6
Continuous
 62
     3
100
AcDbCircle
 10
208.2749999999998
 20
249.3249999999999
 30
0.0
 40
0.5
100
AcDbArc
 50
0.0
 51
89.99999999899998
  0
LINE
  5
108D
330
925
100
AcDbEntity
  8
0
  6
Continuous
 62
     3
100
AcDbLine
 10
208.775
 20
237.4499999999999
 30
0.0
 11
208.775
 21
249.2249999999999
 31
0.0
  0
LINE
  5
108E
330
925
100
AcDbEntity
  8
0
  6
Continuous
 62
     3
100
AcDbLine
 10
183.3999999999998
 20
237.525
 30
0.0
 11
166.875
 21
237.525
 31
0.0
  0
LINE
  5
108F
330
925
100
AcDbEntity
  8
0
  6
Continuous
 62
     3
100
AcDbLine
 10
189.775
 20
257.3249999999998
 30
0.0
 11
189.775
 21
238.9499999999999
 31
0.0
  0
LINE
  5
1090
330
925
100
AcDbEntity
  8
0
  6
Continuous
 62
     3
100
AcDbLine
 10
188.8749999999998
 20
239.0
 30
0.0
 11
194.375
 21
239.0
 31
0.0
  0
LINE
  5
1092
330
925
100
AcDbEntity
  8
0
  6
Continuous
 62
     3
100
AcDbLine
 10
188.775
 20
263.2749999999999
 30
0.0
 11
184.7749999999993
 21
263.2749999999999
 31
0.0
  0
LINE
  5
1093
330
925
100
AcDbEntity
  8
0
  6
Continuous
 62
     3
100
AcDbLine
 10
189.975
 20
263.2749999999999
 30
0.0
 11
184.175
 21
263.2749999999999
 31
0.0
  0
LINE
  5
1094
330
925
100
AcDbEntity
  8
0
  6
Continuous
 62
     3
100
AcDbLine
 10
190.375
 20
263.2749999999999
 30
0.0
 11
189.975
 21
263.2749999999999
 31
0.0
  0
POINT
  5
1095
330
925
100
AcDbEntity
  8
0
  6
Continuous
 62
     3
100
AcDbPoint
 10
190.375
 20
263.2749999999999
 30
0.0
  0
LINE
  5
1096
330
925
100
AcDbEntity
  8
0
  6
Continuous
 62
     3
100
AcDbLine
 10
191.0749999999999
 20
264.2749999999999
 30
0.0
 11
191.0749999999999
 21
263.2749999999999
 31
0.0
  0
LINE
  5
1097
330
925
100
AcDbEntity
  8
0
  6
Continuous
 62
     3
100
AcDbLine
 10
191.0749999999999
 20
263.2749999999999
 30
0.0
 11
190.375
 21
263.2749999999999
 31
0.0
  0
LINE
  5
1098
330
925
100
AcDbEntity
  8
0
  6
Continuous
 62
     3
100
AcDbLine
 10
188.775
 20
264.2749999999999
 30
0.0
 11
188.775
 21
269.2749999999999
 31
0.0
  0
LINE
  5
1099
330
925
100
AcDbEntity
  8
0
  6
Continuous
 62
     3
100
AcDbLine
 10
180.2749999999998
 20
259.775
 30
0.0
 11
189.275
 21
259.775
 31
0.0
  0
LINE
  5
109A
330
925
100
AcDbEntity
  8
0
  6
Continuous
 62
     3
100
AcDbLine
 10
190.275
 20
260.925
 30
0.0
 11
190.275
 21
263.2749999999999
 31
0.0
  0
ARC
  5
109B
330
925
100
AcDbEntity
  8
0
  6
Continuous
 62
     3
100
AcDbCircle
 10
189.275
 20
260.7749999999999
 30
0.0
 40
1.0
100
AcDbArc
 50
270.0000000009998
 51
8.972626611999997
  0
LINE
  5
109C
330
925
100
AcDbEntity
  8
0
  6
Continuous
 62
     3
100
AcDbLine
 10
180.775
 20
269.2749999999999
 30
0.0
 11
180.775
 21
264.2749999999999
 31
0.0
  0
LINE
  5
109D
330
925
100
AcDbEntity
  8
0
  6
Continuous
 62
     3
100
AcDbLine
 10
179.025
 20
263.2749999999999
 30
0.0
 11
184.725
 21
263.2749999999999
 31
0.0
  0
LINE
  5
109E
330
925
100
AcDbEntity
  8
0
  6
Continuous
 62
     3
100
AcDbLine
 10
178.5749999999999
 20
263.2749999999999
 30
0.0
 11
180.175
 21
263.2749999999999
 31
0.0
  0
LINE
  5
109F
330
925
100
AcDbEntity
  8
0
  6
Continuous
 62
     3
100
AcDbLine
 10
178.5749999999999
 20
264.2749999999999
 30
0.0
 11
178.5749999999999
 21
263.2749999999999
 31
0.0
  0
LINE
  5
10A0
330
925
100
AcDbEntity
  8
0
  6
Continuous
 62
     3
100
AcDbLine
 10
179.275
 20
263.2749999999999
 30
0.0
 11
179.275
 21
260.8
 31
0.0
  0
ARC
  5
10A1
330
925
100
AcDbEntity
  8
0
  6
Continuous
 62
     3
100
AcDbCircle
 10
180.2749999999998
 20
260.7749999999999
 30
0.0
 40
1.0
100
AcDbArc
 50
180.0
 51
269.999999999
  0
ARC
  5
10A2
330
925
100
AcDbEntity
  8
0
  6
Continuous
 62
     3
100
AcDbCircle
 10
187.7749999999998
 20
269.2749999999999
 30
0.0
 40
1.0
100
AcDbArc
 50
0.0
 51
90.0
  0
LINE
  5
10A3
330
925
100
AcDbEntity
  8
0
  6
Continuous
 62
     3
100
AcDbLine
 10
187.7749999999998
 20
270.2749999999999
 30
0.0
 11
181.775
 21
270.2749999999999
 31
0.0
  0
ARC
  5
10A4
330
925
100
AcDbEntity
  8
0
  6
Continuous
 62
     3
100
AcDbCircle
 10
181.775
 20
269.2749999999999
 30
0.0
 40
1.0
100
AcDbArc
 50
90.0
 51
180.0
  0
LINE
  5
10A5
330
925
100
AcDbEntity
  8
0
  6
Continuous
 62
     3
100
AcDbLine
 10
191.02
 20
264.2749999999999
 30
0.0
 11
178.5749999999999
 21
264.2749999999999
 31
0.0
  0
LINE
  5
10A6
330
925
100
AcDbEntity
  8
0
  6
Continuous
 62
     3
100
AcDbLine
 10
187.7749999999998
 20
239.0249999999999
 30
0.0
 11
187.7749999999998
 21
259.725
 31
0.0
  0
CIRCLE
  5
10A7
330
925
100
AcDbEntity
  8
0
  6
Continuous
 62
     3
100
AcDbCircle
 10
67.36
 20
67.82
 30
0.0
 40
0.7
  0
LINE
  5
10A8
330
925
100
AcDbEntity
  8
0
  6
Continuous
 62
     3
100
AcDbLine
 10
190.8749999999995
 20
144.7499999999998
 30
0.0
 11
190.8749999999995
 21
155.4
 31
0.0
  0
LINE
  5
10A9
330
925
100
AcDbEntity
  8
0
  6
Continuous
 62
     3
100
AcDbLine
 10
186.875
 20
155.4
 30
0.0
 11
186.875
 21
144.7499999999998
 31
0.0
  0
LINE
  5
10AA
330
925
100
AcDbEntity
  8
0
  6
Continuous
 62
     3
100
AcDbLine
 10
186.875
 20
144.7499999999998
 30
0.0
 11
190.625
 21
144.7499999999998
 31
0.0
  0
LINE
  5
10AB
330
925
100
AcDbEntity
  8
0
  6
Continuous
 62
     3
100
AcDbLine
 10
183.375
 20
117.7499999999999
 30
0.0
 11
183.375
 21
166.5
 31
0.0
  0
LINE
  5
10AC
330
925
100
AcDbEntity
  8
0
  6
Continuous
 62
     3
100
AcDbLine
 10
194.375
 20
239.0
 30
0.0
 11
194.375
 21
117.7499999999999
 31
0.0
  0
LINE
  5
10AD
330
925
100
AcDbEntity
  8
0
  6
Continuous
 62
     3
100
AcDbLine
 10
183.375
 20
117.7499999999999
 30
0.0
 11
194.375
 21
117.7499999999999
 31
0.0
  0
LINE
  5
10AE
330
925
100
AcDbEntity
  8
0
  6
Continuous
 62
     3
100
AcDbLine
 10
169.8749999999995
 20
244.525
 30
0.0
 11
176.3749999999998
 21
244.525
 31
0.0
  0
LINE
  5
10AF
330
925
100
AcDbEntity
  8
0
  6
Continuous
 62
     3
100
AcDbLine
 10
170.1249999999998
 20
244.525
 30
0.0
 11
170.1249999999998
 21
245.025
 31
0.0
  0
LINE
  5
10B0
330
925
100
AcDbEntity
  8
0
  6
Continuous
 62
     3
100
AcDbLine
 10
170.1249999999998
 20
245.025
 30
0.0
 11
176.1249999999995
 21
245.025
 31
0.0
  0
LINE
  5
10B1
330
925
100
AcDbEntity
  8
0
  6
Continuous
 62
     3
100
AcDbLine
 10
176.1249999999995
 20
245.025
 30
0.0
 11
176.1249999999995
 21
244.525
 31
0.0
  0
LINE
  5
10B2
330
925
100
AcDbEntity
  8
0
  6
Continuous
 62
     3
100
AcDbLine
 10
172.8749999999998
 20
245.025
 30
0.0
 11
172.375
 21
244.525
 31
0.0
  0
LINE
  5
10B3
330
925
100
AcDbEntity
  8
0
  6
Continuous
 62
     3
100
AcDbLine
 10
172.8749999999998
 20
244.525
 30
0.0
 11
173.375
 21
245.025
 31
0.0
  0
LINE
  5
10B4
330
925
100
AcDbEntity
  8
0
  6
Continuous
 62
     3
100
AcDbLine
 10
170.375
 20
246.225
 30
0.0
 11
170.375
 21
245.025
 31
0.0
  0
ARC
  5
10B5
330
925
100
AcDbEntity
  8
0
  6
Continuous
 62
     3
100
AcDbCircle
 10
171.175
 20
246.225
 30
0.0
 40
0.8
100
AcDbArc
 50
90.0
 51
180.0000000009999
  0
LINE
  5
10B6
330
925
100
AcDbEntity
  8
0
  6
Continuous
 62
     3
100
AcDbLine
 10
175.875
 20
245.025
 30
0.0
 11
175.875
 21
246.225
 31
0.0
  0
LINE
  5
10B7
330
925
100
AcDbEntity
  8
0
  6
Continuous
 62
     3
100
AcDbLine
 10
175.075
 20
247.025
 30
0.0
 11
171.175
 21
247.025
 31
0.0
  0
ARC
  5
10B8
330
925
100
AcDbEntity
  8
0
  6
Continuous
 62
     3
100
AcDbCircle
 10
175.075
 20
246.225
 30
0.0
 40
0.8
100
AcDbArc
 50
0.0
 51
90.0
  0
LINE
  5
10B9
330
925
100
AcDbEntity
  8
0
  6
Continuous
 62
     3
100
AcDbLine
 10
176.3749999999998
 20
255.025
 30
0.0
 11
178.875
 21
255.025
 31
0.0
  0
LINE
  5
10BA
330
925
100
AcDbEntity
  8
0
  6
Continuous
 62
     3
100
AcDbLine
 10
176.3749999999998
 20
244.525
 30
0.0
 11
176.3749999999998
 21
253.525
 31
0.0
  0
ARC
  5
10BB
330
925
100
AcDbEntity
  8
0
  6
Continuous
 62
     3
100
AcDbCircle
 10
174.875
 20
253.525
 30
0.0
 40
1.5
100
AcDbArc
 50
0.0
 51
90.0
  0
LINE
  5
10BC
330
925
100
AcDbEntity
  8
0
  6
Continuous
 62
     3
100
AcDbLine
 10
171.375
 20
255.025
 30
0.0
 11
174.875
 21
255.025
 31
0.0
  0
LINE
  5
10BD
330
925
100
AcDbEntity
  8
0
  6
Continuous
 62
     3
100
AcDbLine
 10
169.8749999999995
 20
253.525
 30
0.0
 11
169.8749999999995
 21
244.525
 31
0.0
  0
ARC
  5
10BE
330
925
100
AcDbEntity
  8
0
  6
Continuous
 62
     3
100
AcDbCircle
 10
171.375
 20
253.525
 30
0.0
 40
1.5
100
AcDbArc
 50
90.0
 51
180.0000000009999
  0
LINE
  5
10BF
330
925
100
AcDbEntity
  8
0
  6
Continuous
 62
     3
100
AcDbLine
 10
167.375
 20
255.025
 30
0.0
 11
176.625
 21
255.025
 31
0.0
  0
LINE
  5
10C0
330
925
100
AcDbEntity
  8
0
  6
Continuous
 62
     3
100
AcDbLine
 10
169.8749999999995
 20
249.025
 30
0.0
 11
166.875
 21
249.025
 31
0.0
  0
LINE
  5
10C1
330
925
100
AcDbEntity
  8
0
  6
Continuous
 62
     3
100
AcDbLine
 10
176.3749999999998
 20
249.025
 30
0.0
 11
179.375
 21
249.025
 31
0.0
  0
LINE
  5
10C2
330
925
100
AcDbEntity
  8
0
  6
Continuous
 62
     3
100
AcDbLine
 10
166.375
 20
236.4
 30
0.0
 11
183.375
 21
236.4
 31
0.0
  0
LINE
  5
10C3
330
925
100
AcDbEntity
  8
0
  6
Continuous
 62
     3
100
AcDbLine
 10
166.375
 20
237.4
 30
0.0
 11
166.875
 21
237.4
 31
0.0
  0
LINE
  5
10C4
330
925
100
AcDbEntity
  8
0
  6
Continuous
 62
     3
100
AcDbLine
 10
181.775
 20
259.725
 30
0.0
 11
181.775
 21
237.525
 31
0.0
  0
LINE
  5
10C5
330
925
100
AcDbEntity
  8
0
  6
Continuous
 62
     3
100
AcDbLine
 10
182.375
 20
237.525
 30
0.0
 11
182.375
 21
236.4
 31
0.0
  0
LINE
  5
10C6
330
925
100
AcDbEntity
  8
0
  6
Continuous
 62
     3
100
AcDbLine
 10
195.375
 20
237.525
 30
0.0
 11
195.375
 21
236.4
 31
0.0
  0
LINE
  5
10C7
330
925
100
AcDbEntity
  8
0
  6
Continuous
 62
     3
100
AcDbLine
 10
211.2499999999998
 20
236.4
 30
0.0
 11
194.375
 21
236.4
 31
0.0
  0
LINE
  5
10C8
330
925
100
AcDbEntity
  8
0
  6
Continuous
 62
     3
100
AcDbLine
 10
208.7499999999999
 20
237.525
 30
0.0
 11
194.4
 21
237.525
 31
0.0
  0
LINE
  5
10CC
330
925
100
AcDbEntity
  8
1
  6
Continuous
 62
     4
100
AcDbLine
 10
47.575
 20
110.8999999999999
 30
0.0
 11
32.15999999999999
 21
110.8999999999999
 31
0.0
  0
LINE
  5
10CD
330
925
100
AcDbEntity
  8
1
  6
Continuous
 62
     4
100
AcDbLine
 10
33.15999999999998
 20
110.8999999999999
 30
0.0
 11
33.67763809
 21
112.8318516529999
 31
0.0
  0
LINE
  5
10CE
330
925
100
AcDbEntity
  8
1
  6
Continuous
 62
     4
100
AcDbLine
 10
33.15999999999998
 20
110.8999999999999
 30
0.0
 11
32.64236191
 21
112.8318516529999
 31
0.0
  0
LINE
  5
10CF
330
925
100
AcDbEntity
  8
1
  6
Continuous
 62
     4
100
AcDbLine
 10
33.15999999999998
 20
110.8999999999999
 30
0.0
 11
33.15999999999998
 21
255.025
 31
0.0
  0
LINE
  5
10D0
330
925
100
AcDbEntity
  8
1
  6
Continuous
 62
     4
100
AcDbLine
 10
33.15999999999998
 20
255.025
 30
0.0
 11
32.64236191
 21
253.093148347
 31
0.0
  0
LINE
  5
10D1
330
925
100
AcDbEntity
  8
1
  6
Continuous
 62
     4
100
AcDbLine
 10
33.15999999999998
 20
255.025
 30
0.0
 11
33.67763809
 21
253.093148347
 31
0.0
  0
LINE
  5
10D2
330
925
100
AcDbEntity
  8
1
  6
Continuous
 62
     4
100
AcDbLine
 10
49.575
 20
255.025
 30
0.0
 11
32.15999999999999
 21
255.025
 31
0.0
  0
TEXT
  5
10D3
330
925
100
AcDbEntity
  8
1
  6
Continuous
 62
     4
100
AcDbText
 10
32.15999999999999
 20
180.4124999999999
 30
0.0
 40
2.0
  1
１４４
 50
90.0
 41
0.85
  7
KANJI7
100
AcDbText
  0
LINE
  5
10D4
330
925
100
AcDbEntity
  8
1
  6
Continuous
 62
     4
100
AcDbLine
 10
47.325
 20
117.4
 30
0.0
 11
39.65999999999999
 21
117.4
 31
0.0
  0
LINE
  5
10D5
330
925
100
AcDbEntity
  8
1
  6
Continuous
 62
     4
100
AcDbLine
 10
40.65999999999998
 20
117.4
 30
0.0
 11
41.17763809
 21
119.3318516529999
 31
0.0
  0
LINE
  5
10D6
330
925
100
AcDbEntity
  8
1
  6
Continuous
 62
     4
100
AcDbLine
 10
40.65999999999998
 20
117.4
 30
0.0
 11
40.14236191
 21
119.3318516529999
 31
0.0
  0
LINE
  5
10D7
330
925
100
AcDbEntity
  8
1
  6
Continuous
 62
     4
100
AcDbLine
 10
40.65999999999998
 20
122.0999999999998
 30
0.0
 11
40.65999999999998
 21
117.4
 31
0.0
  0
LINE
  5
10D8
330
925
100
AcDbEntity
  8
1
  6
Continuous
 62
     4
100
AcDbLine
 10
40.65999999999998
 20
117.4
 30
0.0
 11
40.65999999999998
 21
110.8999999999999
 31
0.0
  0
LINE
  5
10D9
330
925
100
AcDbEntity
  8
1
  6
Continuous
 62
     4
100
AcDbLine
 10
40.65999999999998
 20
110.8999999999999
 30
0.0
 11
40.65999999999998
 21
107.9
 31
0.0
  0
LINE
  5
10DA
330
925
100
AcDbEntity
  8
1
  6
Continuous
 62
     4
100
AcDbLine
 10
40.65999999999998
 20
110.8999999999999
 30
0.0
 11
40.14236191
 21
108.968148347
 31
0.0
  0
LINE
  5
10DB
330
925
100
AcDbEntity
  8
1
  6
Continuous
 62
     4
100
AcDbLine
 10
40.65999999999998
 20
110.8999999999999
 30
0.0
 11
41.17763809
 21
108.968148347
 31
0.0
  0
LINE
  5
10DC
330
925
100
AcDbEntity
  8
1
  6
Continuous
 62
     4
100
AcDbLine
 10
40.325
 20
110.8999999999999
 30
0.0
 11
39.65999999999999
 21
110.8999999999999
 31
0.0
  0
TEXT
  5
10DD
330
925
100
AcDbEntity
  8
1
  6
Continuous
 62
     4
100
AcDbText
 10
39.65999999999999
 20
120.4
 30
0.0
 40
2.0
  1
７
 50
90.0
 41
0.85
  7
KANJI7
100
AcDbText
  0
LINE
  5
10DE
330
925
100
AcDbEntity
  8
1
  6
Continuous
 62
     4
100
AcDbLine
 10
189.9250026969998
 20
257.825
 30
0.0
 11
153.6599999999999
 21
257.825
 31
0.0
  0
LINE
  5
10DF
330
925
100
AcDbEntity
  8
1
  6
Continuous
 62
     4
100
AcDbLine
 10
154.6599999999999
 20
257.825
 30
0.0
 11
154.14236191
 21
255.893148347
 31
0.0
  0
LINE
  5
10E0
330
925
100
AcDbEntity
  8
1
  6
Continuous
 62
     4
100
AcDbLine
 10
154.6599999999999
 20
257.825
 30
0.0
 11
155.1776380899999
 21
255.893148347
 31
0.0
  0
LINE
  5
10E1
330
925
100
AcDbEntity
  8
1
  6
Continuous
 62
     4
100
AcDbLine
 10
154.6599999999999
 20
257.825
 30
0.0
 11
154.6599999999999
 21
110.4
 31
0.0
  0
LINE
  5
10E2
330
925
100
AcDbEntity
  8
1
  6
Continuous
 62
     4
100
AcDbLine
 10
154.6599999999999
 20
110.4
 30
0.0
 11
155.1776380899999
 21
112.3318516529999
 31
0.0
  0
LINE
  5
10E3
330
925
100
AcDbEntity
  8
1
  6
Continuous
 62
     4
100
AcDbLine
 10
154.6599999999999
 20
110.4
 30
0.0
 11
154.14236191
 21
112.3318516529999
 31
0.0
  0
LINE
  5
10E4
330
925
100
AcDbEntity
  8
1
  6
Continuous
 62
     4
100
AcDbLine
 10
164.775
 20
110.4
 30
0.0
 11
153.6599999999999
 21
110.4
 31
0.0
  0
TEXT
  5
10E5
330
925
100
AcDbEntity
  8
1
  6
Continuous
 62
     4
100
AcDbText
 10
153.6599999999999
 20
181.5625
 30
0.0
 40
2.0
  1
１４８
 50
90.0
 41
0.85
  7
KANJI7
100
AcDbText
  0
LINE
  5
10E6
330
925
100
AcDbEntity
  8
1
  6
Continuous
 62
     4
100
AcDbLine
 10
166.375
 20
117.05
 30
0.0
 11
166.375
 21
95.90000000000001
 31
0.0
  0
LINE
  5
10E7
330
925
100
AcDbEntity
  8
1
  6
Continuous
 62
     4
100
AcDbLine
 10
166.375
 20
96.90000000000001
 30
0.0
 11
168.3068516529999
 21
96.38236191
 31
0.0
  0
LINE
  5
10E8
330
925
100
AcDbEntity
  8
1
  6
Continuous
 62
     4
100
AcDbLine
 10
166.375
 20
96.90000000000001
 30
0.0
 11
168.3068516529999
 21
97.41763809
 31
0.0
  0
LINE
  5
10E9
330
925
100
AcDbEntity
  8
1
  6
Continuous
 62
     4
100
AcDbLine
 10
166.375
 20
96.90000000000001
 30
0.0
 11
211.375
 21
96.90000000000001
 31
0.0
  0
LINE
  5
10EA
330
925
100
AcDbEntity
  8
1
  6
Continuous
 62
     4
100
AcDbLine
 10
211.375
 20
96.90000000000001
 30
0.0
 11
209.443148347
 21
97.41763809
 31
0.0
  0
LINE
  5
10EB
330
925
100
AcDbEntity
  8
1
  6
Continuous
 62
     4
100
AcDbLine
 10
211.375
 20
96.90000000000001
 30
0.0
 11
209.443148347
 21
96.38236191
 31
0.0
  0
LINE
  5
10EC
330
925
100
AcDbEntity
  8
1
  6
Continuous
 62
     4
100
AcDbLine
 10
211.375
 20
117.05
 30
0.0
 11
211.375
 21
95.90000000000001
 31
0.0
  0
TEXT
  5
10ED
330
925
100
AcDbEntity
  8
1
  6
Continuous
 62
     4
100
AcDbText
 10
187.175
 20
97.9
 30
0.0
 40
2.0
  1
４５
 41
0.85
  7
KANJI7
100
AcDbText
  0
LINE
  5
10EE
330
925
100
AcDbEntity
  8
1
  6
Continuous
 62
     4
100
AcDbLine
 10
211.7249999999999
 20
237.4
 30
0.0
 11
220.875
 21
237.4
 31
0.0
  0
LINE
  5
10EF
330
925
100
AcDbEntity
  8
1
  6
Continuous
 62
     4
100
AcDbLine
 10
219.8749999999999
 20
237.4
 30
0.0
 11
219.3573619099999
 21
235.468148347
 31
0.0
  0
LINE
  5
10F0
330
925
100
AcDbEntity
  8
1
  6
Continuous
 62
     4
100
AcDbLine
 10
219.8749999999999
 20
237.4
 30
0.0
 11
220.39263809
 21
235.468148347
 31
0.0
  0
LINE
  5
10F1
330
925
100
AcDbEntity
  8
1
  6
Continuous
 62
     4
100
AcDbLine
 10
219.8749999999999
 20
237.4
 30
0.0
 11
219.8749999999999
 21
110.4
 31
0.0
  0
LINE
  5
10F2
330
925
100
AcDbEntity
  8
1
  6
Continuous
 62
     4
100
AcDbLine
 10
219.8749999999999
 20
110.4
 30
0.0
 11
220.39263809
 21
112.3318516529999
 31
0.0
  0
LINE
  5
10F3
330
925
100
AcDbEntity
  8
1
  6
Continuous
 62
     4
100
AcDbLine
 10
219.8749999999999
 20
110.4
 30
0.0
 11
219.3573619099999
 21
112.3318516529999
 31
0.0
  0
LINE
  5
10F4
330
925
100
AcDbEntity
  8
1
  6
Continuous
 62
     4
100
AcDbLine
 10
212.975
 20
110.4
 30
0.0
 11
220.875
 21
110.4
 31
0.0
  0
TEXT
  5
10F5
330
925
100
AcDbEntity
  8
1
  6
Continuous
 62
     4
100
AcDbText
 10
218.875
 20
171.3499999999999
 30
0.0
 40
2.0
  1
１２７
 50
90.0
 41
0.85
  7
KANJI7
100
AcDbText
  0
LINE
  5
10F6
330
925
100
AcDbEntity
  8
1
  6
Continuous
 62
     4
100
AcDbLine
 10
164.525
 20
117.4
 30
0.0
 11
158.375
 21
117.4
 31
0.0
  0
LINE
  5
10F7
330
925
100
AcDbEntity
  8
1
  6
Continuous
 62
     4
100
AcDbLine
 10
159.375
 20
117.4
 30
0.0
 11
159.89263809
 21
119.3318516529999
 31
0.0
  0
LINE
  5
10F8
330
925
100
AcDbEntity
  8
1
  6
Continuous
 62
     4
100
AcDbLine
 10
159.375
 20
117.4
 30
0.0
 11
158.85736191
 21
119.3318516529999
 31
0.0
  0
LINE
  5
10F9
330
925
100
AcDbEntity
  8
1
  6
Continuous
 62
     4
100
AcDbLine
 10
159.375
 20
117.4
 30
0.0
 11
159.375
 21
110.4
 31
0.0
  0
LINE
  5
10FA
330
925
100
AcDbEntity
  8
1
  6
Continuous
 62
     4
100
AcDbLine
 10
159.375
 20
110.4
 30
0.0
 11
159.375
 21
107.4
 31
0.0
  0
LINE
  5
10FB
330
925
100
AcDbEntity
  8
1
  6
Continuous
 62
     4
100
AcDbLine
 10
159.375
 20
110.4
 30
0.0
 11
158.85736191
 21
108.468148347
 31
0.0
  0
LINE
  5
10FC
330
925
100
AcDbEntity
  8
1
  6
Continuous
 62
     4
100
AcDbLine
 10
159.375
 20
110.4
 30
0.0
 11
159.89263809
 21
108.468148347
 31
0.0
  0
LINE
  5
10FD
330
925
100
AcDbEntity
  8
1
  6
Continuous
 62
     4
100
AcDbLine
 10
159.725
 20
110.4
 30
0.0
 11
160.3749999999998
 21
110.4
 31
0.0
  0
TEXT
  5
10FE
330
925
100
AcDbEntity
  8
1
  6
Continuous
 62
     4
100
AcDbText
 10
158.375
 20
112.9
 30
0.0
 40
2.0
  1
７
 50
90.0
 41
0.85
  7
KANJI7
100
AcDbText
  0
LINE
  5
10FF
330
925
100
AcDbEntity
  8
1
  6
Continuous
 62
     4
100
AcDbLine
 10
159.375
 20
120.9
 30
0.0
 11
159.375
 21
117.4
 31
0.0
  0
LINE
  5
1100
330
925
100
AcDbEntity
  8
1
  6
Continuous
 62
     4
100
AcDbLine
 10
219.8749999999999
 20
237.4
 30
0.0
 11
220.39263809
 21
239.3318516529999
 31
0.0
  0
LINE
  5
1101
330
925
100
AcDbEntity
  8
1
  6
Continuous
 62
     4
100
AcDbLine
 10
219.8749999999999
 20
237.4
 30
0.0
 11
219.3573619099999
 21
239.3318516529999
 31
0.0
  0
LINE
  5
1102
330
925
100
AcDbEntity
  8
1
  6
Continuous
 62
     4
100
AcDbLine
 10
219.8749999999999
 20
237.4
 30
0.0
 11
219.8749999999999
 21
270.2749999999999
 31
0.0
  0
LINE
  5
1103
330
925
100
AcDbEntity
  8
1
  6
Continuous
 62
     4
100
AcDbLine
 10
219.8749999999999
 20
270.2749999999999
 30
0.0
 11
219.3573619099999
 21
268.343148348
 31
0.0
  0
LINE
  5
1104
330
925
100
AcDbEntity
  8
1
  6
Continuous
 62
     4
100
AcDbLine
 10
219.8749999999999
 20
270.2749999999999
 30
0.0
 11
220.39263809
 21
268.343148348
 31
0.0
  0
LINE
  5
1105
330
925
100
AcDbEntity
  8
1
  6
Continuous
 62
     4
100
AcDbLine
 10
188.125003815
 20
270.2749999999999
 30
0.0
 11
220.875
 21
270.2749999999999
 31
0.0
  0
TEXT
  5
1106
330
925
100
AcDbEntity
  8
1
  6
Continuous
 62
     4
100
AcDbText
 10
218.875
 20
252.1374999999999
 30
0.0
 40
2.0
  1
３３
 50
90.0
 41
0.85
  7
KANJI7
100
AcDbText
  0
LINE
  5
1107
330
925
100
AcDbEntity
  8
1
  6
Continuous
 62
     4
100
AcDbLine
 10
49.92499999999999
 20
255.3749999999999
 30
0.0
 11
49.92499999999999
 21
276.275
 31
0.0
  0
LINE
  5
1108
330
925
100
AcDbEntity
  8
1
  6
Continuous
 62
     4
100
AcDbLine
 10
49.92499999999999
 20
275.2749999999999
 30
0.0
 11
51.856851653
 21
274.7573619099998
 31
0.0
  0
LINE
  5
1109
330
925
100
AcDbEntity
  8
1
  6
Continuous
 62
     4
100
AcDbLine
 10
49.92499999999999
 20
275.2749999999999
 30
0.0
 11
51.856851653
 21
275.79263809
 31
0.0
  0
LINE
  5
110A
330
925
100
AcDbEntity
  8
1
  6
Continuous
 62
     4
100
AcDbLine
 10
49.92499999999999
 20
275.2749999999999
 30
0.0
 11
141.425
 21
275.2749999999999
 31
0.0
  0
LINE
  5
110B
330
925
100
AcDbEntity
  8
1
  6
Continuous
 62
     4
100
AcDbLine
 10
141.425
 20
275.2749999999999
 30
0.0
 11
139.493148347
 21
275.79263809
 31
0.0
  0
LINE
  5
110C
330
925
100
AcDbEntity
  8
1
  6
Continuous
 62
     4
100
AcDbLine
 10
141.425
 20
275.2749999999999
 30
0.0
 11
139.493148347
 21
274.7573619099998
 31
0.0
  0
LINE
  5
110D
330
925
100
AcDbEntity
  8
1
  6
Continuous
 62
     4
100
AcDbLine
 10
141.425
 20
255.3749999999999
 30
0.0
 11
141.425
 21
276.275
 31
0.0
  0
TEXT
  5
110E
330
925
100
AcDbEntity
  8
1
  6
Continuous
 62
     4
100
AcDbText
 10
93.97499999999999
 20
276.275
 30
0.0
 40
2.0
  1
９２
 41
0.85
  7
KANJI7
100
AcDbText
  0
LINE
  5
111B
330
925
100
AcDbEntity
  8
0
  6
LTYPE1
 62
     1
100
AcDbLine
 10
64.66413043500001
 20
237.525
 30
0.0
 11
67.175
 21
248.025
 31
0.0
  0
LINE
  5
111C
330
925
100
AcDbEntity
  8
0
  6
LTYPE1
 62
     1
100
AcDbLine
 10
126.685869565
 20
237.525
 30
0.0
 11
124.1749999999999
 21
248.025
 31
0.0
  0
LINE
  5
111D
330
925
100
AcDbEntity
  8
0
  6
LTYPE2
 62
     1
100
AcDbLine
 10
95.675
 20
179.4
 30
0.0
 11
75.67499999999999
 21
179.4
 31
0.0
  0
ARC
  5
111E
330
925
100
AcDbEntity
  8
0
  6
LTYPE2
 62
     1
100
AcDbCircle
 10
75.67499999999999
 20
178.3999999999998
 30
0.0
 40
1.0
100
AcDbArc
 50
90.0
 51
180.0
  0
ARC
  5
111F
330
925
100
AcDbEntity
  8
0
  6
LTYPE2
 62
     1
100
AcDbCircle
 10
75.67499999999999
 20
167.4
 30
0.0
 40
1.0
100
AcDbArc
 50
180.0
 51
270.0
  0
LINE
  5
1120
330
925
100
AcDbEntity
  8
0
  6
LTYPE2
 62
     1
100
AcDbLine
 10
75.67499999999999
 20
166.4
 30
0.0
 11
95.675
 21
166.4
 31
0.0
  0
LINE
  5
1121
330
925
100
AcDbEntity
  8
0
  6
LTYPE2
 62
     1
100
AcDbLine
 10
74.67499999999998
 20
178.3999999999998
 30
0.0
 11
74.67499999999998
 21
167.4
 31
0.0
  0
ARC
  5
1122
330
925
100
AcDbEntity
  8
0
  6
LTYPE2
 62
     1
100
AcDbCircle
 10
95.675
 20
167.4
 30
0.0
 40
1.0
100
AcDbArc
 50
270.0
 51
0.0
  0
LINE
  5
1123
330
925
100
AcDbEntity
  8
0
  6
LTYPE2
 62
     1
100
AcDbLine
 10
96.675
 20
167.4
 30
0.0
 11
96.675
 21
178.3999999999998
 31
0.0
  0
ARC
  5
1124
330
925
100
AcDbEntity
  8
0
  6
LTYPE2
 62
     1
100
AcDbCircle
 10
95.675
 20
178.3999999999998
 30
0.0
 40
1.0
100
AcDbArc
 50
0.0
 51
90.0
  0
LINE
  5
112B
330
925
100
AcDbEntity
  8
0
  6
Continuous
 62
     5
100
AcDbLine
 10
70.25357142899999
 20
67.7
 30
0.0
 11
71.110714286
 21
73.7
 31
0.0
  0
LINE
  5
112C
330
925
100
AcDbEntity
  8
0
  6
Continuous
 62
     5
100
AcDbLine
 10
71.575
 20
68.34999999999999
 30
0.0
 11
70.47499999999998
 21
67.376923077
 31
0.0
  0
LINE
  5
112D
330
925
100
AcDbEntity
  8
0
  6
Continuous
 62
     5
100
AcDbLine
 10
70.325
 20
67.65
 30
0.0
 11
70.5
 21
67.40000000000001
 31
0.0
  0
LINE
  5
112E
330
925
100
AcDbEntity
  8
0
  6
Continuous
 62
     5
100
AcDbLine
 10
72.33409090899998
 20
73.4
 30
0.0
 11
71.59954545499998
 21
68.34999999999999
 31
0.0
  0
LINE
  5
112F
330
925
100
AcDbEntity
  8
0
  6
Continuous
 62
     5
100
AcDbLine
 10
71.425
 20
73.92499999999998
 30
0.0
 11
72.325
 21
73.4
 31
0.0
  0
LINE
  5
1130
330
925
100
AcDbEntity
  8
0
  6
Continuous
 62
     5
100
AcDbLine
 10
71.425
 20
73.95
 30
0.0
 11
71.125
 21
73.7
 31
0.0
  0
LINE
  5
1131
330
925
100
AcDbEntity
  8
0
  6
Continuous
 62
     5
100
AcDbLine
 10
82.75357142899999
 20
67.7
 30
0.0
 11
83.610714286
 21
73.7
 31
0.0
  0
LINE
  5
1132
330
925
100
AcDbEntity
  8
0
  6
Continuous
 62
     5
100
AcDbLine
 10
84.075
 20
68.34999999999999
 30
0.0
 11
82.97499999999997
 21
67.376923077
 31
0.0
  0
LINE
  5
1133
330
925
100
AcDbEntity
  8
0
  6
Continuous
 62
     5
100
AcDbLine
 10
82.825
 20
67.65
 30
0.0
 11
83.0
 21
67.40000000000001
 31
0.0
  0
LINE
  5
1134
330
925
100
AcDbEntity
  8
0
  6
Continuous
 62
     5
100
AcDbLine
 10
84.83409090899998
 20
73.4
 30
0.0
 11
84.09954545499997
 21
68.34999999999999
 31
0.0
  0
LINE
  5
1135
330
925
100
AcDbEntity
  8
0
  6
Continuous
 62
     5
100
AcDbLine
 10
83.92499999999998
 20
73.92499999999998
 30
0.0
 11
84.82499999999998
 21
73.4
 31
0.0
  0
LINE
  5
1136
330
925
100
AcDbEntity
  8
0
  6
Continuous
 62
     5
100
AcDbLine
 10
83.92499999999998
 20
73.95
 30
0.0
 11
83.625
 21
73.7
 31
0.0
  0
LINE
  5
1137
330
925
100
AcDbEntity
  8
0
  6
Continuous
 62
     5
100
AcDbLine
 10
95.25357142899999
 20
67.7
 30
0.0
 11
96.110714286
 21
73.7
 31
0.0
  0
LINE
  5
1138
330
925
100
AcDbEntity
  8
0
  6
Continuous
 62
     5
100
AcDbLine
 10
96.575
 20
68.34999999999999
 30
0.0
 11
95.47499999999999
 21
67.376923077
 31
0.0
  0
LINE
  5
113A
330
925
100
AcDbEntity
  8
0
  6
Continuous
 62
     5
100
AcDbLine
 10
95.325
 20
67.65
 30
0.0
 11
95.5
 21
67.40000000000001
 31
0.0
  0
LINE
  5
113B
330
925
100
AcDbEntity
  8
0
  6
Continuous
 62
     5
100
AcDbLine
 10
97.334090909
 20
73.4
 30
0.0
 11
96.59954545499999
 21
68.34999999999999
 31
0.0
  0
LINE
  5
113C
330
925
100
AcDbEntity
  8
0
  6
Continuous
 62
     5
100
AcDbLine
 10
96.425
 20
73.95
 30
0.0
 11
96.125
 21
73.7
 31
0.0
  0
LINE
  5
113D
330
925
100
AcDbEntity
  8
0
  6
Continuous
 62
     5
100
AcDbLine
 10
96.425
 20
73.92499999999998
 30
0.0
 11
97.32500000000001
 21
73.4
 31
0.0
  0
LINE
  5
113E
330
925
100
AcDbEntity
  8
0
  6
Continuous
 62
     5
100
AcDbLine
 10
111.0859374999999
 20
79.03749999999998
 30
0.0
 11
111.4046874999995
 21
81.58750000000003
 31
0.0
  0
LINE
  5
113F
330
925
100
AcDbEntity
  8
0
  6
Continuous
 62
     5
100
AcDbLine
 10
111.375
 20
81.65
 30
0.0
 11
110.725
 21
82.09999999999999
 31
0.0
  0
LINE
  5
1140
330
925
100
AcDbEntity
  8
0
  6
Continuous
 62
     5
100
AcDbLine
 10
110.2812499999999
 20
78.59999999999998
 30
0.0
 11
110.725
 21
82.15000000000001
 31
0.0
  0
LINE
  5
1141
330
925
100
AcDbEntity
  8
0
  6
Continuous
 62
     5
100
AcDbLine
 10
111.075
 20
79.0
 30
0.0
 11
110.375
 21
78.5
 31
0.0
  0
LINE
  5
1142
330
925
100
AcDbEntity
  8
0
  6
Continuous
 62
     5
100
AcDbLine
 10
110.275
 20
78.59999999999998
 30
0.0
 11
110.375
 21
78.45
 31
0.0
  0
LINE
  5
1143
330
925
100
AcDbEntity
  8
0
  6
Continuous
 62
     3
100
AcDbLine
 10
110.4749999999997
 20
78.4
 30
0.0
 11
111.075
 21
78.84999999999998
 31
0.0
  0
LINE
  5
1144
330
925
100
AcDbEntity
  8
0
  6
Continuous
 62
     5
100
AcDbLine
 10
117.40625
 20
78.59999999999998
 30
0.0
 11
117.8499999999995
 21
82.15000000000001
 31
0.0
  0
LINE
  5
1145
330
925
100
AcDbEntity
  8
0
  6
Continuous
 62
     5
100
AcDbLine
 10
118.2
 20
79.0
 30
0.0
 11
117.5
 21
78.5
 31
0.0
  0
LINE
  5
1146
330
925
100
AcDbEntity
  8
0
  6
Continuous
 62
     5
100
AcDbLine
 10
117.4
 20
78.59999999999998
 30
0.0
 11
117.5
 21
78.45
 31
0.0
  0
LINE
  5
1147
330
925
100
AcDbEntity
  8
0
  6
Continuous
 62
     5
100
AcDbLine
 10
118.2109375
 20
79.03749999999998
 30
0.0
 11
118.5296874999997
 21
81.58750000000003
 31
0.0
  0
LINE
  5
1148
330
925
100
AcDbEntity
  8
0
  6
Continuous
 62
     5
100
AcDbLine
 10
118.5
 20
81.65
 30
0.0
 11
117.8499999999995
 21
82.09999999999999
 31
0.0
  0
LINE
  5
1149
330
925
100
AcDbEntity
  8
0
  6
Continuous
 62
     5
100
AcDbLine
 10
124.53125
 20
78.59999999999998
 30
0.0
 11
124.9749999999997
 21
82.15000000000001
 31
0.0
  0
LINE
  5
114A
330
925
100
AcDbEntity
  8
0
  6
Continuous
 62
     5
100
AcDbLine
 10
125.3249999999999
 20
79.0
 30
0.0
 11
124.625
 21
78.5
 31
0.0
  0
LINE
  5
114B
330
925
100
AcDbEntity
  8
0
  6
Continuous
 62
     5
100
AcDbLine
 10
124.525
 20
78.59999999999998
 30
0.0
 11
124.625
 21
78.45
 31
0.0
  0
LINE
  5
114C
330
925
100
AcDbEntity
  8
0
  6
Continuous
 62
     5
100
AcDbLine
 10
125.3359375
 20
79.03749999999998
 30
0.0
 11
125.6546874999997
 21
81.58750000000003
 31
0.0
  0
LINE
  5
114D
330
925
100
AcDbEntity
  8
0
  6
Continuous
 62
     5
100
AcDbLine
 10
125.625
 20
81.65
 30
0.0
 11
124.9749999999997
 21
82.09999999999999
 31
0.0
  0
LINE
  5
114E
330
925
100
AcDbEntity
  8
0
  6
Continuous
 62
     3
100
AcDbLine
 10
125.1249999999999
 20
82.2
 30
0.0
 11
125.7249999999997
 21
81.75
 31
0.0
  0
LINE
  5
114F
330
925
100
AcDbEntity
  8
0
  6
Continuous
 62
     5
100
AcDbLine
 10
131.65625
 20
78.59999999999998
 30
0.0
 11
132.0999999999999
 21
82.15000000000001
 31
0.0
  0
LINE
  5
1150
330
925
100
AcDbEntity
  8
0
  6
Continuous
 62
     5
100
AcDbLine
 10
132.45
 20
79.0
 30
0.0
 11
131.75
 21
78.5
 31
0.0
  0
LINE
  5
1151
330
925
100
AcDbEntity
  8
0
  6
Continuous
 62
     5
100
AcDbLine
 10
131.65
 20
78.59999999999998
 30
0.0
 11
131.75
 21
78.45
 31
0.0
  0
LINE
  5
1152
330
925
100
AcDbEntity
  8
0
  6
Continuous
 62
     5
100
AcDbLine
 10
132.4609375
 20
79.03749999999998
 30
0.0
 11
132.7796874999999
 21
81.58750000000003
 31
0.0
  0
LINE
  5
1153
330
925
100
AcDbEntity
  8
0
  6
Continuous
 62
     5
100
AcDbLine
 10
132.75
 20
81.65
 30
0.0
 11
132.0999999999999
 21
82.09999999999999
 31
0.0
  0
LINE
  5
1154
330
925
100
AcDbEntity
  8
0
  6
Continuous
 62
     5
100
AcDbLine
 10
131.65625
 20
67.09999999999999
 30
0.0
 11
132.0999999999999
 21
70.65000000000002
 31
0.0
  0
LINE
  5
1155
330
925
100
AcDbEntity
  8
0
  6
Continuous
 62
     5
100
AcDbLine
 10
132.75
 20
70.15
 30
0.0
 11
132.0999999999999
 21
70.59999999999998
 31
0.0
  0
LINE
  5
1156
330
925
100
AcDbEntity
  8
0
  6
Continuous
 62
     5
100
AcDbLine
 10
132.4609375
 20
67.5375
 30
0.0
 11
132.7796874999999
 21
70.0875
 31
0.0
  0
LINE
  5
1157
330
925
100
AcDbEntity
  8
0
  6
Continuous
 62
     5
100
AcDbLine
 10
132.45
 20
67.5
 30
0.0
 11
131.75
 21
67.0
 31
0.0
  0
LINE
  5
1158
330
925
100
AcDbEntity
  8
0
  6
Continuous
 62
     5
100
AcDbLine
 10
131.65
 20
67.09999999999999
 30
0.0
 11
131.75
 21
66.95
 31
0.0
  0
LINE
  5
1159
330
925
100
AcDbEntity
  8
0
  6
Continuous
 62
     5
100
AcDbLine
 10
124.53125
 20
67.09999999999999
 30
0.0
 11
124.9749999999997
 21
70.65000000000002
 31
0.0
  0
LINE
  5
115A
330
925
100
AcDbEntity
  8
0
  6
Continuous
 62
     5
100
AcDbLine
 10
125.3249999999999
 20
67.5
 30
0.0
 11
124.625
 21
67.0
 31
0.0
  0
LINE
  5
115B
330
925
100
AcDbEntity
  8
0
  6
Continuous
 62
     5
100
AcDbLine
 10
124.525
 20
67.09999999999999
 30
0.0
 11
124.625
 21
66.95
 31
0.0
  0
LINE
  5
115C
330
925
100
AcDbEntity
  8
0
  6
Continuous
 62
     5
100
AcDbLine
 10
125.3359375
 20
67.5375
 30
0.0
 11
125.6546874999997
 21
70.0875
 31
0.0
  0
LINE
  5
115D
330
925
100
AcDbEntity
  8
0
  6
Continuous
 62
     5
100
AcDbLine
 10
125.625
 20
70.15
 30
0.0
 11
124.9749999999997
 21
70.59999999999998
 31
0.0
  0
LINE
  5
115E
330
925
100
AcDbEntity
  8
0
  6
Continuous
 62
     5
100
AcDbLine
 10
118.2109375
 20
67.5375
 30
0.0
 11
118.5296874999997
 21
70.0875
 31
0.0
  0
LINE
  5
115F
330
925
100
AcDbEntity
  8
0
  6
Continuous
 62
     5
100
AcDbLine
 10
118.5
 20
70.15
 30
0.0
 11
117.8499999999995
 21
70.59999999999998
 31
0.0
  0
LINE
  5
1160
330
925
100
AcDbEntity
  8
0
  6
Continuous
 62
     5
100
AcDbLine
 10
117.40625
 20
67.09999999999999
 30
0.0
 11
117.8499999999995
 21
70.65000000000002
 31
0.0
  0
LINE
  5
1161
330
925
100
AcDbEntity
  8
0
  6
Continuous
 62
     5
100
AcDbLine
 10
118.2
 20
67.5
 30
0.0
 11
117.5
 21
67.0
 31
0.0
  0
LINE
  5
1162
330
925
100
AcDbEntity
  8
0
  6
Continuous
 62
     5
100
AcDbLine
 10
117.4
 20
67.09999999999999
 30
0.0
 11
117.5
 21
66.95
 31
0.0
  0
LINE
  5
1163
330
925
100
AcDbEntity
  8
0
  6
Continuous
 62
     5
100
AcDbLine
 10
111.0859374999999
 20
67.5375
 30
0.0
 11
111.4046874999995
 21
70.0875
 31
0.0
  0
LINE
  5
1164
330
925
100
AcDbEntity
  8
0
  6
Continuous
 62
     5
100
AcDbLine
 10
111.375
 20
70.15
 30
0.0
 11
110.725
 21
70.59999999999998
 31
0.0
  0
LINE
  5
1165
330
925
100
AcDbEntity
  8
0
  6
Continuous
 62
     5
100
AcDbLine
 10
110.2812499999999
 20
67.09999999999999
 30
0.0
 11
110.725
 21
70.65000000000002
 31
0.0
  0
LINE
  5
1166
330
925
100
AcDbEntity
  8
0
  6
Continuous
 62
     5
100
AcDbLine
 10
111.075
 20
67.5
 30
0.0
 11
110.375
 21
67.0
 31
0.0
  0
LINE
  5
1167
330
925
100
AcDbEntity
  8
0
  6
Continuous
 62
     5
100
AcDbLine
 10
110.275
 20
67.09999999999999
 30
0.0
 11
110.375
 21
66.95
 31
0.0
  0
LINE
  5
1168
330
925
100
AcDbEntity
  8
0
  6
Continuous
 62
     3
100
AcDbLine
 10
110.875
 20
70.7
 30
0.0
 11
111.4749999999997
 21
70.25
 31
0.0
  0
TEXT
  5
1169
330
925
100
AcDbEntity
  8
0
  6
Continuous
 62
     4
100
AcDbText
 10
32.15999999999999
 20
70.01999999999999
 30
0.0
 40
2.0
  1
４８
 50
90.0
 41
0.9
  7
KANJI4
100
AcDbText
  0
LINE
  5
116A
330
925
100
AcDbEntity
  8
0
  6
Continuous
 62
     4
100
AcDbLine
 10
33.15999999999998
 20
95.81999999999998
 30
0.0
 11
33.15999999999998
 21
47.82
 31
0.0
  0
LINE
  5
116B
330
925
100
AcDbEntity
  8
0
  6
Continuous
 62
     4
100
AcDbLine
 10
47.46
 20
95.81999999999998
 30
0.0
 11
32.15999999999999
 21
95.81999999999998
 31
0.0
  0
LINE
  5
116C
330
925
100
AcDbEntity
  8
0
  6
Continuous
 62
     4
100
AcDbLine
 10
33.15999999999998
 20
95.81999999999998
 30
0.0
 11
32.64236191
 21
93.88814834700001
 31
0.0
  0
LINE
  5
116D
330
925
100
AcDbEntity
  8
0
  6
Continuous
 62
     4
100
AcDbLine
 10
33.15999999999998
 20
95.81999999999998
 30
0.0
 11
33.67763809
 21
93.88814834700001
 31
0.0
  0
LINE
  5
1176
330
925
100
AcDbEntity
  8
0
  6
Continuous
 62
     4
100
AcDbLine
 10
132.783805854
 20
102.0
 30
0.0
 11
40.783805854
 21
102.0
 31
0.0
  0
LINE
  5
1177
330
925
100
AcDbEntity
  8
0
  6
Continuous
 62
     4
100
AcDbLine
 10
40.783805854
 20
102.0
 30
0.0
 11
42.71565750699999
 21
101.4823619099999
 31
0.0
  0
LINE
  5
1178
330
925
100
AcDbEntity
  8
0
  6
Continuous
 62
     4
100
AcDbLine
 10
40.783805854
 20
102.0
 30
0.0
 11
42.71565750699999
 21
102.51763809
 31
0.0
  0
LINE
  5
1179
330
925
100
AcDbEntity
  8
0
  6
Continuous
 62
     4
100
AcDbLine
 10
49.42499999999999
 20
116.9669872979999
 30
0.0
 11
40.28380585399999
 21
101.1339745959999
 31
0.0
  0
LINE
  5
117A
330
925
100
AcDbEntity
  8
0
  6
Continuous
 62
     4
100
AcDbLine
 10
47.66
 20
47.82
 30
0.0
 11
32.15999999999999
 21
47.82
 31
0.0
  0
LINE
  5
117B
330
925
100
AcDbEntity
  8
0
  6
Continuous
 62
     4
100
AcDbLine
 10
33.15999999999998
 20
47.82
 30
0.0
 11
33.67763809
 21
49.751851653
 31
0.0
  0
LINE
  5
117C
330
925
100
AcDbEntity
  8
0
  6
Continuous
 62
     4
100
AcDbLine
 10
33.15999999999998
 20
47.82
 30
0.0
 11
32.64236191
 21
49.751851653
 31
0.0
  0
LINE
  5
117D
330
925
100
AcDbEntity
  8
0
  6
Continuous
 62
     4
100
AcDbLine
 10
47.66
 20
47.92
 30
0.0
 11
47.66
 21
39.22
 31
0.0
  0
LINE
  5
117E
330
925
100
AcDbEntity
  8
0
  6
Continuous
 62
     4
100
AcDbLine
 10
47.66
 20
40.22
 30
0.0
 11
49.591851653
 21
39.70236191
 31
0.0
  0
LINE
  5
117F
330
925
100
AcDbEntity
  8
0
  6
Continuous
 62
     4
100
AcDbLine
 10
47.66
 20
40.22
 30
0.0
 11
49.591851653
 21
40.73763808999999
 31
0.0
  0
LINE
  5
1180
330
925
100
AcDbEntity
  8
0
  6
Continuous
 62
     4
100
AcDbLine
 10
47.66
 20
40.22
 30
0.0
 11
143.66
 21
40.22
 31
0.0
  0
TEXT
  5
1181
330
925
100
AcDbEntity
  8
0
  6
Continuous
 62
     4
100
AcDbText
 10
93.86000000000001
 20
41.21999999999998
 30
0.0
 40
2.0
  1
９６
 41
0.9
  7
KANJI4
100
AcDbText
  0
LINE
  5
1182
330
925
100
AcDbEntity
  8
0
  6
Continuous
 62
     4
100
AcDbLine
 10
143.66
 20
40.22
 30
0.0
 11
141.728148347
 21
40.73763808999999
 31
0.0
  0
LINE
  5
1183
330
925
100
AcDbEntity
  8
0
  6
Continuous
 62
     4
100
AcDbLine
 10
143.66
 20
40.22
 30
0.0
 11
141.728148347
 21
39.70236191
 31
0.0
  0
LINE
  5
1184
330
925
100
AcDbEntity
  8
0
  6
Continuous
 62
     4
100
AcDbLine
 10
143.66
 20
48.32
 30
0.0
 11
143.66
 21
39.22
 31
0.0
  0
LINE
  5
118D
330
925
100
AcDbEntity
  8
0
  6
Continuous
 62
     4
100
AcDbLine
 10
141.425
 20
116.9669872979999
 30
0.0
 11
132.283805854
 21
101.1339745959999
 31
0.0
  0
LINE
  5
118E
330
925
100
AcDbEntity
  8
0
  6
Continuous
 62
     4
100
AcDbLine
 10
132.783805854
 20
102.0
 30
0.0
 11
130.8519542019993
 21
102.51763809
 31
0.0
  0
LINE
  5
118F
330
925
100
AcDbEntity
  8
0
  6
Continuous
 62
     4
100
AcDbLine
 10
132.783805854
 20
102.0
 30
0.0
 11
130.8519542019993
 21
101.4823619099999
 31
0.0
  0
TEXT
  5
1190
330
925
100
AcDbEntity
  8
0
  6
Continuous
 62
     4
100
AcDbText
 10
84.98380585399997
 20
103.0
 30
0.0
 40
2.0
  1
９２
 41
0.9
  7
KANJI4
100
AcDbText
  0
TEXT
  5
1191
330
925
100
AcDbEntity
  8
0
  6
Continuous
 62
     4
100
AcDbText
 10
216.3749999999998
 20
246.275
 30
0.0
 40
2.2
  1
（ＲＳ　出力時）
 50
90.0
 41
0.924090909
  7
KANJI9
100
AcDbText
  0
TEXT
  5
1192
330
925
100
AcDbEntity
  8
0
  6
Continuous
 62
     4
100
AcDbText
 10
77.47499999999998
 20
174.15
 30
0.0
 40
2.5
  1
角孔
 41
0.9
  7
KANJI10
100
AcDbText
  0
LINE
  5
1198
330
925
100
AcDbEntity
  8
0
  6
Continuous
 62
     4
100
AcDbLine
 10
136.6999999999999
 20
81.15
 30
0.0
 11
138.270579206
 21
79.91174277399995
 31
0.0
  0
LINE
  5
1199
330
925
100
AcDbEntity
  8
0
  6
Continuous
 62
     4
100
AcDbLine
 10
136.6999999999999
 20
81.15
 30
0.0
 11
137.441032879
 21
79.292348183
 31
0.0
  0
LINE
  5
119A
330
925
100
AcDbEntity
  8
0
  6
Continuous
 62
     3
100
AcDbLine
 10
137.5999999999999
 20
77.15
 30
0.0
 11
137.5999999999999
 21
87.025
 31
0.0
  0
LINE
  5
119C
330
925
100
AcDbEntity
  8
0
  6
Continuous
 62
     3
100
AcDbLine
 10
67.675
 20
65.65000000000001
 30
0.0
 11
106.6249999999999
 21
65.65000000000001
 31
0.0
  0
LINE
  5
11A2
330
925
100
AcDbEntity
  8
0
  6
LTYPE2
 62
     1
100
AcDbLine
 10
75.92499999999998
 20
59.9
 30
0.2
 11
75.92499999999998
 21
53.9
 31
0.2
  0
LINE
  5
11A3
330
925
100
AcDbEntity
  8
0
  6
LTYPE2
 62
     1
100
AcDbLine
 10
75.67499999999999
 20
59.9
 30
0.0
 11
75.67499999999999
 21
53.9
 31
0.0
  0
LINE
  5
11A4
330
925
100
AcDbEntity
  8
0
  6
LTYPE2
 62
     1
100
AcDbLine
 10
73.67499999999998
 20
53.9
 30
0.0
 11
73.67499999999998
 21
59.9
 31
0.0
  0
LINE
  5
11C8
330
925
100
AcDbEntity
  8
2
  6
Continuous
 62
     3
100
AcDbLine
 10
273.3999999999999
 20
150.0
 30
0.0
 11
250.0
 21
150.0
 31
0.0
  0
LINE
  5
11C9
330
925
100
AcDbEntity
  8
2
  6
Continuous
 62
     3
100
AcDbLine
 10
250.0
 20
150.0
 30
0.0
 11
250.0
 21
161.6999999999999
 31
0.0
  0
LINE
  5
11CA
330
925
100
AcDbEntity
  8
2
  6
Continuous
 62
     3
100
AcDbLine
 10
250.0
 20
179.64
 30
0.0
 11
273.3999999999999
 21
179.64
 31
0.0
  0
LINE
  5
11CB
330
925
100
AcDbEntity
  8
2
  6
Continuous
 62
     3
100
AcDbLine
 10
273.3999999999999
 20
179.64
 30
0.0
 11
273.3999999999999
 21
167.94
 31
0.0
  0
LINE
  5
11CC
330
925
100
AcDbEntity
  8
2
  6
Continuous
 62
     3
100
AcDbLine
 10
281.1999999999999
 20
179.64
 30
0.0
 11
304.6
 21
179.64
 31
0.0
  0
LINE
  5
11CD
330
925
100
AcDbEntity
  8
2
  6
Continuous
 62
     3
100
AcDbLine
 10
281.1999999999999
 20
167.94
 30
0.0
 11
281.1999999999999
 21
179.64
 31
0.0
  0
LINE
  5
11CE
330
925
100
AcDbEntity
  8
2
  6
Continuous
 62
     3
100
AcDbLine
 10
250.0
 20
167.94
 30
0.0
 11
250.0
 21
179.64
 31
0.0
  0
LINE
  5
11CF
330
925
100
AcDbEntity
  8
2
  6
Continuous
 62
     3
100
AcDbLine
 10
273.3999999999999
 20
167.94
 30
0.0
 11
250.0
 21
167.94
 31
0.0
  0
LINE
  5
11D0
330
925
100
AcDbEntity
  8
2
  6
Continuous
 62
     3
100
AcDbLine
 10
273.3999999999999
 20
161.6999999999999
 30
0.0
 11
273.3999999999999
 21
150.0
 31
0.0
  0
LINE
  5
11D1
330
925
100
AcDbEntity
  8
2
  6
Continuous
 62
     3
100
AcDbLine
 10
250.0
 20
161.6999999999999
 30
0.0
 11
273.3999999999999
 21
161.6999999999999
 31
0.0
  0
LINE
  5
11D2
330
925
100
AcDbEntity
  8
2
  6
Continuous
 62
     3
100
AcDbLine
 10
281.1999999999999
 20
161.6999999999999
 30
0.0
 11
304.6
 21
161.6999999999999
 31
0.0
  0
LINE
  5
11D3
330
925
100
AcDbEntity
  8
2
  6
Continuous
 62
     3
100
AcDbLine
 10
281.1999999999999
 20
150.0
 30
0.0
 11
281.1999999999999
 21
161.6999999999999
 31
0.0
  0
LINE
  5
11D4
330
925
100
AcDbEntity
  8
2
  6
Continuous
 62
     3
100
AcDbLine
 10
304.6
 20
161.6999999999999
 30
0.0
 11
304.6
 21
150.0
 31
0.0
  0
LINE
  5
11D5
330
925
100
AcDbEntity
  8
2
  6
Continuous
 62
     3
100
AcDbLine
 10
304.6
 20
150.0
 30
0.0
 11
281.1999999999999
 21
150.0
 31
0.0
  0
LINE
  5
11D6
330
925
100
AcDbEntity
  8
2
  6
Continuous
 62
     3
100
AcDbLine
 10
304.6
 20
179.64
 30
0.0
 11
304.6
 21
167.94
 31
0.0
  0
LINE
  5
11D7
330
925
100
AcDbEntity
  8
2
  6
Continuous
 62
     3
100
AcDbLine
 10
304.6
 20
167.94
 30
0.0
 11
281.1999999999999
 21
167.94
 31
0.0
  0
TEXT
  5
11D8
330
925
100
AcDbEntity
  8
0
  6
Continuous
 62
     3
100
AcDbText
 10
266.341
 20
183.1832
 30
0.10374
 40
3.12
  1
ＰＡＮＥＬ　ＣＵＴ
 41
0.75
  7
KANJI14
100
AcDbText
  0
LINE
  5
11D9
330
925
100
AcDbEntity
  8
2
  6
Continuous
 62
     4
100
AcDbLine
 10
249.2199999999999
 20
167.94
 30
0.10374
 11
242.9799999999999
 21
167.94
 31
0.10374
  0
LINE
  5
11DA
330
925
100
AcDbEntity
  8
2
  6
Continuous
 62
     4
100
AcDbLine
 10
244.5399999999999
 20
167.94
 30
0.0
 11
244.9437577099998
 21
169.4468442889998
 31
0.0
  0
LINE
  5
11DB
330
925
100
AcDbEntity
  8
2
  6
Continuous
 62
     4
100
AcDbLine
 10
244.5399999999999
 20
167.94
 30
0.0
 11
244.13624229
 21
169.4468442889998
 31
0.0
  0
LINE
  5
11DC
330
925
100
AcDbEntity
  8
2
  6
Continuous
 62
     4
100
AcDbLine
 10
244.5399999999999
 20
179.64
 30
0.0
 11
244.5399999999999
 21
167.94
 31
0.0
  0
TEXT
  5
11DD
330
925
100
AcDbEntity
  8
2
  6
Continuous
 62
     4
100
AcDbText
 10
243.214
 20
170.3969999999999
 30
0.078
 40
1.794
  1
４５
 50
90.0
 41
0.739130435
  7
KANJI15
100
AcDbText
  0
TEXT
  5
11DE
330
925
100
AcDbEntity
  8
2
  6
Continuous
 62
     4
100
AcDbText
 10
244.2201999999999
 20
173.3570999999993
 30
0.0702
 40
1.6146
  1
－０
 50
90.0
 41
0.739130435
  7
KANJI16
100
AcDbText
  0
TEXT
  5
11DF
330
925
100
AcDbEntity
  8
2
  6
Continuous
 62
     4
100
AcDbText
 10
242.3794
 20
173.3570999999993
 30
0.0702
 40
1.6146
  1
＋０.６
 50
90.0
 41
0.739130435
  7
KANJI16
100
AcDbText
  0
LINE
  5
11E0
330
925
100
AcDbEntity
  8
2
  6
Continuous
 62
     4
100
AcDbLine
 10
249.2199999999999
 20
179.64
 30
0.0702
 11
242.9799999999999
 21
179.64
 31
0.0702
  0
LINE
  5
11E1
330
925
100
AcDbEntity
  8
2
  6
Continuous
 62
     4
100
AcDbLine
 10
244.5399999999999
 20
179.64
 30
0.0
 11
244.13624229
 21
178.1331557109998
 31
0.0
  0
LINE
  5
11E2
330
925
100
AcDbEntity
  8
2
  6
Continuous
 62
     4
100
AcDbLine
 10
244.5399999999999
 20
179.64
 30
0.0
 11
244.9437577099998
 21
178.1331557109998
 31
0.0
  0
LINE
  5
11E3
330
925
100
AcDbEntity
  8
2
  6
Continuous
 62
     4
100
AcDbLine
 10
246.2559999999998
 20
173.7899999999999
 30
0.0
 11
258.9544
 21
173.7899999999999
 31
0.0
  0
LINE
  5
11E4
330
925
100
AcDbEntity
  8
2
  6
Continuous
 62
     4
100
AcDbLine
 10
261.6999999999998
 20
175.2564
 30
0.0
 11
261.6999999999998
 21
171.7463999999999
 31
0.0
  0
LINE
  5
11E5
330
925
100
AcDbEntity
  8
2
  6
Continuous
 62
     4
100
AcDbLine
 10
260.1243999999999
 20
173.7899999999999
 30
0.0
 11
263.6344
 21
173.7899999999999
 31
0.0
  0
LINE
  5
11E6
330
925
100
AcDbEntity
  8
2
  6
Continuous
 62
     4
100
AcDbLine
 10
264.8044
 20
173.7899999999999
 30
0.0
 11
290.1544
 21
173.7899999999999
 31
0.0
  0
LINE
  5
11E7
330
925
100
AcDbEntity
  8
2
  6
Continuous
 62
     4
100
AcDbLine
 10
261.6999999999998
 20
170.5764
 30
0.0
 11
261.6999999999998
 21
159.6563999999998
 31
0.0
  0
TEXT
  5
11E8
330
925
100
AcDbEntity
  8
2
  6
Continuous
 62
     4
100
AcDbText
 10
258.3849999999998
 20
164.6639999999998
 30
0.078
 40
1.794
  1
９２
 41
0.739130435
  7
KANJI15
100
AcDbText
  0
TEXT
  5
11E9
330
925
100
AcDbEntity
  8
2
  6
Continuous
 62
     4
100
AcDbText
 10
262.7491
 20
164.0477999999999
 30
0.0702
 40
1.6146
  1
－０
 41
0.739130435
  7
KANJI16
100
AcDbText
  0
TEXT
  5
11EA
330
925
100
AcDbEntity
  8
2
  6
Continuous
 62
     4
100
AcDbText
 10
262.7491
 20
165.8886
 30
0.0
 40
1.6146
  1
＋０.８
 41
0.739130435
  7
KANJI17
100
AcDbText
  0
LINE
  5
11EB
330
925
100
AcDbEntity
  8
2
  6
Continuous
 62
     4
100
AcDbLine
 10
250.0
 20
163.65
 30
0.0
 11
251.506844289
 21
163.2462422899999
 31
0.0
  0
LINE
  5
11EC
330
925
100
AcDbEntity
  8
2
  6
Continuous
 62
     4
100
AcDbLine
 10
250.0
 20
163.65
 30
0.0
 11
273.3999999999999
 21
163.65
 31
0.0
  0
LINE
  5
11ED
330
925
100
AcDbEntity
  8
2
  6
Continuous
 62
     4
100
AcDbLine
 10
250.0
 20
163.65
 30
0.0
 11
251.506844289
 21
164.05375771
 31
0.0
  0
LINE
  5
11EE
330
925
100
AcDbEntity
  8
2
  6
Continuous
 62
     4
100
AcDbLine
 10
250.0
 20
167.1599999999999
 30
0.0
 11
250.0
 21
162.87
 31
0.0
  0
LINE
  5
11EF
330
925
100
AcDbEntity
  8
2
  6
Continuous
 62
     4
100
AcDbLine
 10
273.3999999999999
 20
163.65
 30
0.0
 11
271.8931557109999
 21
164.05375771
 31
0.0
  0
LINE
  5
11F0
330
925
100
AcDbEntity
  8
2
  6
Continuous
 62
     4
100
AcDbLine
 10
273.3999999999999
 20
163.65
 30
0.0
 11
271.8931557109999
 21
163.2462422899999
 31
0.0
  0
LINE
  5
11F1
330
925
100
AcDbEntity
  8
2
  6
Continuous
 62
     4
100
AcDbLine
 10
273.3999999999999
 20
167.1599999999999
 30
0.0
 11
273.3999999999999
 21
162.87
 31
0.0
  0
LINE
  5
11F2
330
925
100
AcDbEntity
  8
2
  6
Continuous
 62
     4
100
AcDbLine
 10
265.1943999999999
 20
155.8499999999999
 30
0.0
 11
287.869
 21
155.8499999999999
 31
0.0
  0
LINE
  5
11F3
330
925
100
AcDbEntity
  8
2
  6
Continuous
 62
     4
100
AcDbLine
 10
259.7344
 20
155.8499999999999
 30
0.0
 11
264.0244
 21
155.8499999999999
 31
0.0
  0
LINE
  5
11F4
330
925
100
AcDbEntity
  8
2
  6
Continuous
 62
     4
100
AcDbLine
 10
261.6999999999998
 20
158.4864
 30
0.0
 11
261.6999999999998
 21
153.8064
 31
0.0
  0
LINE
  5
11F5
330
925
100
AcDbEntity
  8
2
  6
Continuous
 62
     4
100
AcDbLine
 10
246.1624
 20
155.8499999999999
 30
0.0
 11
258.5643999999999
 21
155.8499999999999
 31
0.0
  0
LINE
  5
11F6
330
925
100
AcDbEntity
  8
2
  6
Continuous
 62
     4
100
AcDbLine
 10
261.6999999999998
 20
152.6364
 30
0.0
 11
261.6999999999998
 21
139.782
 31
0.0
  0
TEXT
  5
11F7
330
925
100
AcDbEntity
  8
2
  6
Continuous
 62
     4
100
AcDbText
 10
272.425
 20
141.966
 30
0.078
 40
1.794
  1
ＭＩＮ.１２０
 41
0.739130435
  7
KANJI15
100
AcDbText
  0
LINE
  5
11F8
330
925
100
AcDbEntity
  8
2
  6
Continuous
 62
     4
100
AcDbLine
 10
261.6999999999998
 20
141.342
 30
0.078
 11
263.206844289
 21
140.93824229
 31
0.078
  0
LINE
  5
11F9
330
925
100
AcDbEntity
  8
2
  6
Continuous
 62
     4
100
AcDbLine
 10
261.6999999999998
 20
141.342
 30
0.0
 11
263.206844289
 21
141.7457577099999
 31
0.0
  0
LINE
  5
11FA
330
925
100
AcDbEntity
  8
2
  6
Continuous
 62
     4
100
AcDbLine
 10
292.8999999999998
 20
141.342
 30
0.0
 11
291.3931557109996
 21
140.93824229
 31
0.0
  0
LINE
  5
11FB
330
925
100
AcDbEntity
  8
2
  6
Continuous
 62
     4
100
AcDbLine
 10
292.8999999999998
 20
141.342
 30
0.0
 11
291.3931557109996
 21
141.7457577099999
 31
0.0
  0
LINE
  5
11FC
330
925
100
AcDbEntity
  8
2
  6
Continuous
 62
     4
100
AcDbLine
 10
292.8999999999998
 20
153.0264
 30
0.0
 11
292.8999999999998
 21
139.782
 31
0.0
  0
LINE
  5
11FD
330
925
100
AcDbEntity
  8
2
  6
Continuous
 62
     4
100
AcDbLine
 10
292.8999999999998
 20
141.342
 30
0.0
 11
261.6999999999998
 21
141.342
 31
0.0
  0
LINE
  5
11FE
330
925
100
AcDbEntity
  8
2
  6
Continuous
 62
     4
100
AcDbLine
 10
289.4289999999998
 20
155.8499999999999
 30
0.0
 11
297.229
 21
155.8499999999999
 31
0.0
  0
LINE
  5
11FF
330
925
100
AcDbEntity
  8
2
  6
Continuous
 62
     4
100
AcDbLine
 10
292.8999999999998
 20
157.7064
 30
0.0
 11
292.8999999999998
 21
154.1964
 31
0.0
  0
LINE
  5
1200
330
925
100
AcDbEntity
  8
2
  6
Continuous
 62
     4
100
AcDbLine
 10
292.8999999999998
 20
171.1224
 30
0.0
 11
292.8999999999998
 21
158.8763999999999
 31
0.0
  0
LINE
  5
1201
330
925
100
AcDbEntity
  8
2
  6
Continuous
 62
     4
100
AcDbLine
 10
292.8999999999998
 20
176.5824
 30
0.0
 11
292.8999999999998
 21
172.2144
 31
0.0
  0
LINE
  5
1202
330
925
100
AcDbEntity
  8
2
  6
Continuous
 62
     4
100
AcDbLine
 10
291.3244
 20
173.7899999999999
 30
0.0
 11
295.6144
 21
173.7899999999999
 31
0.0
  0
CIRCLE
  5
123B
330
925
100
AcDbEntity
  8
0
  6
Continuous
 62
     3
100
AcDbCircle
 10
178.1749749999999
 20
155.8499999999999
 30
0.0
 40
3.2
  0
CIRCLE
  5
123C
330
925
100
AcDbEntity
  8
0
  6
Continuous
 62
     3
100
AcDbCircle
 10
178.1749749999999
 20
155.8499999999999
 30
0.0
 40
3.0
  0
ARC
  5
123D
330
925
100
AcDbEntity
  8
0
  6
Continuous
 62
     3
100
AcDbCircle
 10
178.1749749999999
 20
155.8499999999999
 30
0.0
 40
6.0
100
AcDbArc
 50
29.92595633399909
 51
330.0740436660008
  0
CIRCLE
  5
1261
330
925
100
AcDbEntity
  8
0
  6
Continuous
 62
     3
100
AcDbCircle
 10
178.1749749999999
 20
155.8499999999999
 30
0.0
 40
1.44705781687692
  0
ENDSEC
  0
SECTION
  2
OBJECTS
  0
DICTIONARY
  5
913
330
0
100
AcDbDictionary
281
     1
  3
ACAD_GROUP
350
914
  3
ACAD_PLOTSTYLENAME
350
915
  3
ACAD_MLINESTYLE
350
91D
  3
ACAD_PLOTSETTINGS
350
91F
  3
ACAD_LAYOUT
350
920
  0
DICTIONARY
  5
914
102
{ACAD_REACTORS
330
913
102
}
330
913
100
AcDbDictionary
281
     1
  0
ACDBDICTIONARYWDFLT
  5
915
102
{ACAD_REACTORS
330
913
102
}
330
913
100
AcDbDictionary
281
     1
  3
Normal
350
916
100
AcDbDictionaryWithDefault
340
916
  0
DICTIONARY
  5
91D
102
{ACAD_REACTORS
330
913
102
}
330
913
100
AcDbDictionary
281
     1
  3
Standard
350
91E
  0
DICTIONARY
  5
91F
102
{ACAD_REACTORS
330
913
102
}
330
913
100
AcDbDictionary
281
     1
  0
DICTIONARY
  5
920
102
{ACAD_REACTORS
330
913
102
}
330
913
100
AcDbDictionary
281
     1
  3
ﾚｲｱｳﾄ1
350
924
  3
Model
350
928
  0
ACDBPLACEHOLDER
  5
916
102
{ACAD_REACTORS
330
915
102
}
330
915
  0
MLINESTYLE
  5
91E
102
{ACAD_REACTORS
330
91D
102
}
330
91D
100
AcDbMlineStyle
  2
STANDARD
 70
     0
  3

 62
   256
 51
90.0
 52
90.0
 71
     2
 49
0.5
 62
   256
  6
BYLAYER
 49
-0.5
 62
   256
  6
BYLAYER
  0
LAYOUT
  5
924
102
{ACAD_REACTORS
330
920
102
}
330
920
100
AcDbPlotSettings
  1

  2
Canon LBP-880
  4

  6

 40
0.0
 41
0.0
 42
0.0
 43
0.0
 44
0.0
 45
0.0
 46
0.0
 47
0.0
 48
0.0
 49
0.0
140
0.0
141
0.0
142
1.0
143
1.0
 70
   688
 72
     0
 73
     0
 74
     5
  7

 75
    16
147
1.0
148
0.0
149
0.0
100
AcDbLayout
  1
ﾚｲｱｳﾄ1
 70
     1
 71
     1
 10
0.0
 20
0.0
 11
12.0
 21
9.0
 12
0.0
 22
0.0
 32
0.0
 14
1.000000000000000E+20
 24
1.000000000000000E+20
 34
1.000000000000000E+20
 15
-1.000000000000000E+20
 25
-1.000000000000000E+20
 35
-1.000000000000000E+20
146
0.0
 13
0.0
 23
0.0
 33
0.0
 16
1.0
 26
0.0
 36
0.0
 17
0.0
 27
1.0
 37
0.0
 76
     0
330
921
  0
LAYOUT
  5
928
102
{ACAD_REACTORS
330
920
102
}
330
920
100
AcDbPlotSettings
  1

  2
Canon LBP-880
  4

  6

 40
0.0
 41
0.0
 42
0.0
 43
0.0
 44
0.0
 45
0.0
 46
0.0
 47
0.0
 48
0.0
 49
0.0
140
0.0
141
0.0
142
1.0
143
1.0
 70
  1712
 72
     0
 73
     0
 74
     0
  7

 75
     0
147
1.0
148
0.0
149
0.0
100
AcDbLayout
  1
Model
 70
     1
 71
     0
 10
0.0
 20
0.0
 11
12.0
 21
9.0
 12
0.0
 22
0.0
 32
0.0
 14
0.0
 24
0.0
 34
0.0
 15
0.0
 25
0.0
 35
0.0
146
0.0
 13
0.0
 23
0.0
 33
0.0
 16
1.0
 26
0.0
 36
0.0
 17
0.0
 27
1.0
 37
0.0
 76
     0
330
925
  0
ENDSEC
  0
EOF
