  0
SECTION
  2
HEADER
  9
$EXTMIN
 10
0.0
 20
0.0
 30
0.0
  9
$EXTMAX
 10
328.638497653
 20
232.394366197
 30
0.0
  9
$LIMMIN
 10
0.0
 20
0.0
  9
$LIMMAX
 10
328.638497653
 20
232.394366197
  9
$LTSCALE
 40
1.0
  9
$PDMODE
 70
     0
  0
ENDSEC
  0
SECTION
  2
TABLES
  0
TABLE
  2
LTYPE
 70
     3
  0
LTYPE
  2
CONTINUOUS
 70
    64
  3
Solid line
 72
    65
 73
     0
 40
0.0
  0
LTYPE
  2
LTYPE1
 70
    64
  3
HIDDEN
 72
    65
 73
     2
 40
2.0
 49
1.2
 49
-0.8
  0
LTYPE
  2
LTYPE2
 70
    64
  3
HIDDEN
 72
    65
 73
     2
 40
1.5
 49
0.9
 49
-0.6
  0
ENDTAB
  0
TABLE
  2
LAYER
 70
   128
  0
LAYER
  2
0
 70
     0
 62
     7
  6
CONTINUOUS
  0
LAYER
  2
1
 70
     0
 62
     7
  6
CONTINUOUS
  0
LAYER
  2
2
 70
     0
 62
     7
  6
CONTINUOUS
  0
LAYER
  2
3
 70
     0
 62
     7
  6
CONTINUOUS
  0
LAYER
  2
4
 70
     0
 62
     7
  6
CONTINUOUS
  0
LAYER
  2
5
 70
     0
 62
     7
  6
CONTINUOUS
  0
LAYER
  2
6
 70
     0
 62
     7
  6
CONTINUOUS
  0
LAYER
  2
7
 70
     0
 62
     7
  6
CONTINUOUS
  0
LAYER
  2
8
 70
     0
 62
     7
  6
CONTINUOUS
  0
LAYER
  2
9
 70
     0
 62
     7
  6
CONTINUOUS
  0
LAYER
  2
10
 70
     0
 62
     7
  6
CONTINUOUS
  0
LAYER
  2
11
 70
     0
 62
     7
  6
CONTINUOUS
  0
LAYER
  2
12
 70
     0
 62
     7
  6
CONTINUOUS
  0
LAYER
  2
13
 70
     0
 62
     7
  6
CONTINUOUS
  0
LAYER
  2
14
 70
     0
 62
     7
  6
CONTINUOUS
  0
LAYER
  2
15
 70
     0
 62
     7
  6
CONTINUOUS
  0
LAYER
  2
16
 70
     0
 62
     7
  6
CONTINUOUS
  0
LAYER
  2
17
 70
     0
 62
     7
  6
CONTINUOUS
  0
LAYER
  2
18
 70
     0
 62
     7
  6
CONTINUOUS
  0
LAYER
  2
19
 70
     0
 62
     7
  6
CONTINUOUS
  0
LAYER
  2
20
 70
     0
 62
     7
  6
CONTINUOUS
  0
LAYER
  2
21
 70
     0
 62
     7
  6
CONTINUOUS
  0
LAYER
  2
22
 70
     0
 62
     7
  6
CONTINUOUS
  0
LAYER
  2
23
 70
     0
 62
     7
  6
CONTINUOUS
  0
LAYER
  2
24
 70
     0
 62
     7
  6
CONTINUOUS
  0
LAYER
  2
25
 70
     0
 62
     7
  6
CONTINUOUS
  0
LAYER
  2
26
 70
     0
 62
     7
  6
CONTINUOUS
  0
LAYER
  2
27
 70
     0
 62
     7
  6
CONTINUOUS
  0
LAYER
  2
28
 70
     0
 62
     7
  6
CONTINUOUS
  0
LAYER
  2
29
 70
     0
 62
     7
  6
CONTINUOUS
  0
LAYER
  2
30
 70
     0
 62
     7
  6
CONTINUOUS
  0
LAYER
  2
31
 70
     0
 62
     7
  6
CONTINUOUS
  0
LAYER
  2
32
 70
     0
 62
     7
  6
CONTINUOUS
  0
LAYER
  2
33
 70
     0
 62
     7
  6
CONTINUOUS
  0
LAYER
  2
34
 70
     0
 62
     7
  6
CONTINUOUS
  0
LAYER
  2
35
 70
     0
 62
     7
  6
CONTINUOUS
  0
LAYER
  2
36
 70
     0
 62
     7
  6
CONTINUOUS
  0
LAYER
  2
37
 70
     0
 62
     7
  6
CONTINUOUS
  0
LAYER
  2
38
 70
     0
 62
     7
  6
CONTINUOUS
  0
LAYER
  2
39
 70
     0
 62
     7
  6
CONTINUOUS
  0
LAYER
  2
40
 70
     0
 62
     7
  6
CONTINUOUS
  0
LAYER
  2
41
 70
     0
 62
     7
  6
CONTINUOUS
  0
LAYER
  2
42
 70
     0
 62
     7
  6
CONTINUOUS
  0
LAYER
  2
43
 70
     0
 62
     7
  6
CONTINUOUS
  0
LAYER
  2
44
 70
     0
 62
     7
  6
CONTINUOUS
  0
LAYER
  2
45
 70
     0
 62
     7
  6
CONTINUOUS
  0
LAYER
  2
46
 70
     0
 62
     7
  6
CONTINUOUS
  0
LAYER
  2
47
 70
     0
 62
     7
  6
CONTINUOUS
  0
LAYER
  2
48
 70
     0
 62
     7
  6
CONTINUOUS
  0
LAYER
  2
49
 70
     0
 62
     7
  6
CONTINUOUS
  0
LAYER
  2
50
 70
     0
 62
     7
  6
CONTINUOUS
  0
LAYER
  2
51
 70
     0
 62
     7
  6
CONTINUOUS
  0
LAYER
  2
52
 70
     0
 62
     7
  6
CONTINUOUS
  0
LAYER
  2
53
 70
     0
 62
     7
  6
CONTINUOUS
  0
LAYER
  2
54
 70
     0
 62
     7
  6
CONTINUOUS
  0
LAYER
  2
55
 70
     0
 62
     7
  6
CONTINUOUS
  0
LAYER
  2
56
 70
     0
 62
     7
  6
CONTINUOUS
  0
LAYER
  2
57
 70
     0
 62
     7
  6
CONTINUOUS
  0
LAYER
  2
58
 70
     0
 62
     7
  6
CONTINUOUS
  0
LAYER
  2
59
 70
     0
 62
     7
  6
CONTINUOUS
  0
LAYER
  2
60
 70
     0
 62
     7
  6
CONTINUOUS
  0
LAYER
  2
61
 70
     0
 62
     7
  6
CONTINUOUS
  0
LAYER
  2
62
 70
     0
 62
     7
  6
CONTINUOUS
  0
LAYER
  2
63
 70
     0
 62
     7
  6
CONTINUOUS
  0
LAYER
  2
64
 70
     0
 62
     7
  6
CONTINUOUS
  0
LAYER
  2
65
 70
     0
 62
     7
  6
CONTINUOUS
  0
LAYER
  2
66
 70
     0
 62
     7
  6
CONTINUOUS
  0
LAYER
  2
67
 70
     0
 62
     7
  6
CONTINUOUS
  0
LAYER
  2
68
 70
     0
 62
     7
  6
CONTINUOUS
  0
LAYER
  2
69
 70
     0
 62
     7
  6
CONTINUOUS
  0
LAYER
  2
70
 70
     0
 62
     7
  6
CONTINUOUS
  0
LAYER
  2
71
 70
     0
 62
     7
  6
CONTINUOUS
  0
LAYER
  2
72
 70
     0
 62
     7
  6
CONTINUOUS
  0
LAYER
  2
73
 70
     0
 62
     7
  6
CONTINUOUS
  0
LAYER
  2
74
 70
     0
 62
     7
  6
CONTINUOUS
  0
LAYER
  2
75
 70
     0
 62
     7
  6
CONTINUOUS
  0
LAYER
  2
76
 70
     0
 62
     7
  6
CONTINUOUS
  0
LAYER
  2
77
 70
     0
 62
     7
  6
CONTINUOUS
  0
LAYER
  2
78
 70
     0
 62
     7
  6
CONTINUOUS
  0
LAYER
  2
79
 70
     0
 62
     7
  6
CONTINUOUS
  0
LAYER
  2
80
 70
     0
 62
     7
  6
CONTINUOUS
  0
LAYER
  2
81
 70
     0
 62
     7
  6
CONTINUOUS
  0
LAYER
  2
82
 70
     0
 62
     7
  6
CONTINUOUS
  0
LAYER
  2
83
 70
     0
 62
     7
  6
CONTINUOUS
  0
LAYER
  2
84
 70
     0
 62
     7
  6
CONTINUOUS
  0
LAYER
  2
85
 70
     0
 62
     7
  6
CONTINUOUS
  0
LAYER
  2
86
 70
     0
 62
     7
  6
CONTINUOUS
  0
LAYER
  2
87
 70
     0
 62
     7
  6
CONTINUOUS
  0
LAYER
  2
88
 70
     0
 62
     7
  6
CONTINUOUS
  0
LAYER
  2
89
 70
     0
 62
     7
  6
CONTINUOUS
  0
LAYER
  2
90
 70
     0
 62
     7
  6
CONTINUOUS
  0
LAYER
  2
91
 70
     0
 62
     7
  6
CONTINUOUS
  0
LAYER
  2
92
 70
     0
 62
     7
  6
CONTINUOUS
  0
LAYER
  2
93
 70
     0
 62
     7
  6
CONTINUOUS
  0
LAYER
  2
94
 70
     0
 62
     7
  6
CONTINUOUS
  0
LAYER
  2
95
 70
     0
 62
     7
  6
CONTINUOUS
  0
LAYER
  2
96
 70
     0
 62
     7
  6
CONTINUOUS
  0
LAYER
  2
97
 70
     0
 62
     7
  6
CONTINUOUS
  0
LAYER
  2
98
 70
     0
 62
     7
  6
CONTINUOUS
  0
LAYER
  2
99
 70
     0
 62
     7
  6
CONTINUOUS
  0
LAYER
  2
100
 70
     0
 62
     7
  6
CONTINUOUS
  0
LAYER
  2
101
 70
     0
 62
     7
  6
CONTINUOUS
  0
LAYER
  2
102
 70
     0
 62
     7
  6
CONTINUOUS
  0
LAYER
  2
103
 70
     0
 62
     7
  6
CONTINUOUS
  0
LAYER
  2
104
 70
     0
 62
     7
  6
CONTINUOUS
  0
LAYER
  2
105
 70
     0
 62
     7
  6
CONTINUOUS
  0
LAYER
  2
106
 70
     0
 62
     7
  6
CONTINUOUS
  0
LAYER
  2
107
 70
     0
 62
     7
  6
CONTINUOUS
  0
LAYER
  2
108
 70
     0
 62
     7
  6
CONTINUOUS
  0
LAYER
  2
109
 70
     0
 62
     7
  6
CONTINUOUS
  0
LAYER
  2
110
 70
     0
 62
     7
  6
CONTINUOUS
  0
LAYER
  2
111
 70
     0
 62
     7
  6
CONTINUOUS
  0
LAYER
  2
112
 70
     0
 62
     7
  6
CONTINUOUS
  0
LAYER
  2
113
 70
     0
 62
     7
  6
CONTINUOUS
  0
LAYER
  2
114
 70
     0
 62
     7
  6
CONTINUOUS
  0
LAYER
  2
115
 70
     0
 62
     7
  6
CONTINUOUS
  0
LAYER
  2
116
 70
     0
 62
     7
  6
CONTINUOUS
  0
LAYER
  2
117
 70
     0
 62
     7
  6
CONTINUOUS
  0
LAYER
  2
118
 70
     0
 62
     7
  6
CONTINUOUS
  0
LAYER
  2
119
 70
     0
 62
     7
  6
CONTINUOUS
  0
LAYER
  2
120
 70
     0
 62
     7
  6
CONTINUOUS
  0
LAYER
  2
121
 70
     0
 62
     7
  6
CONTINUOUS
  0
LAYER
  2
122
 70
     0
 62
     7
  6
CONTINUOUS
  0
LAYER
  2
123
 70
     0
 62
     7
  6
CONTINUOUS
  0
LAYER
  2
124
 70
     0
 62
     7
  6
CONTINUOUS
  0
LAYER
  2
125
 70
     0
 62
     7
  6
CONTINUOUS
  0
LAYER
  2
126
 70
     0
 62
     7
  6
CONTINUOUS
  0
LAYER
  2
127
 70
     0
 62
     7
  6
CONTINUOUS
  0
ENDTAB
  0
TABLE
  2
STYLE
 70
     7
  0
STYLE
  2
STANDARD
 70
     0
 40
0.0
 41
1.0
 50
0.0
 71
     0
 42
0.2
  3
txt
  4

  0
STYLE
  2
KANJI0
 70
     0
 40
2.0
 41
0.9
 50
0.0
 71
     0
 42
2.0
  3

  4
bigfont
  0
STYLE
  2
KANJI1
 70
     0
 40
2.5
 41
0.45
 50
0.0
 71
     0
 42
2.5
  3

  4
bigfont
  0
STYLE
  2
KANJI2
 70
     0
 40
1.62
 41
0.666666667
 50
0.0
 71
     0
 42
1.62
  3

  4
bigfont
  0
STYLE
  2
KANJI3
 70
     0
 40
2.7
 41
0.666666667
 50
0.0
 71
     0
 42
2.7
  3

  4
bigfont
  0
STYLE
  2
KANJI4
 70
     0
 40
1.8
 41
0.9
 50
0.0
 71
     0
 42
1.8
  3

  4
bigfont
  0
STYLE
  2
KANJI5
 70
     0
 40
4.0
 41
0.9
 50
0.0
 71
     0
 42
4.0
  3

  4
bigfont
  0
ENDTAB
  0
TABLE
  2
VIEW
 70
     0
  0
ENDTAB
  0
ENDSEC
  0
SECTION
  2
BLOCKS
  0
ENDSEC
  0
SECTION
  2
ENTITIES
  0
POINT
  8
0
  6
CONTINUOUS
 62
     3
 10
181.55
 20
130.65
  0
LINE
  8
0
  6
CONTINUOUS
 62
     3
 10
181.55
 20
142.8
 11
181.55
 21
143.65
  0
LINE
  8
0
  6
CONTINUOUS
 62
     3
 10
181.55
 20
130.65
 11
181.55
 21
131.2
  0
LINE
  8
0
  6
CONTINUOUS
 62
     3
 10
180.05
 20
131.8
 11
180.05
 21
130.65
  0
LINE
  8
0
  6
CONTINUOUS
 62
     3
 10
180.05
 20
143.65
 11
180.05
 21
142.7
  0
LINE
  8
0
  6
CONTINUOUS
 62
     3
 10
178.55
 20
142.5
 11
178.55
 21
143.65
  0
LINE
  8
0
  6
CONTINUOUS
 62
     3
 10
178.55
 20
130.65
 11
178.55
 21
131.5
  0
LINE
  8
0
  6
CONTINUOUS
 62
     3
 10
177.05
 20
131.7
 11
177.05
 21
130.65
  0
LINE
  8
0
  6
CONTINUOUS
 62
     3
 10
177.05
 20
143.65
 11
177.05
 21
142.6
  0
LINE
  8
0
  6
CONTINUOUS
 62
     3
 10
175.55
 20
131.7
 11
175.55
 21
130.65
  0
LINE
  8
0
  6
CONTINUOUS
 62
     3
 10
175.55
 20
143.65
 11
175.55
 21
142.7
  0
LINE
  8
0
  6
CONTINUOUS
 62
     3
 10
174.05
 20
142.7
 11
174.05
 21
143.65
  0
LINE
  8
0
  6
CONTINUOUS
 62
     3
 10
174.05
 20
130.65
 11
174.05
 21
131.7
  0
TEXT
  8
0
  6
CONTINUOUS
 62
     3
 10
275.75
 20
60.9
 30
0.0
 40
2.0
  1
ＬＯ　ＳＥＴ
 50
90.0
 41
0.9
 51
0.0
  7
KANJI0
  0
TEXT
  8
0
  6
CONTINUOUS
 62
     3
 10
275.85
 20
29.75
 30
0.0
 40
2.0
  1
ＨＩ　ＳＥＴ
 50
90.0
 41
0.9
 51
0.0
  7
KANJI0
  0
LINE
  8
0
  6
CONTINUOUS
 62
     3
 10
274.75
 20
29.15
 11
274.75
 21
21.65
  0
LINE
  8
0
  6
CONTINUOUS
 62
     3
 10
274.75
 20
41.15
 11
274.75
 21
48.4
  0
LINE
  8
0
  6
CONTINUOUS
 62
     3
 10
274.75
 20
51.9
 11
274.75
 21
60.15
  0
LINE
  8
0
  6
CONTINUOUS
 62
     3
 10
274.750000001
 20
72.15
 11
274.750000001
 21
79.15
  0
LINE
  8
0
  6
CONTINUOUS
 62
     3
 10
47.35
 20
82.3625
 11
47.35
 21
81.8625
  0
LINE
  8
0
  6
CONTINUOUS
 62
     3
 10
51.85
 20
81.8625
 11
52.85
 21
81.8625
  0
LINE
  8
0
  6
CONTINUOUS
 62
     3
 10
52.85
 20
81.8625
 11
53.85
 21
81.8625
  0
LINE
  8
0
  6
CONTINUOUS
 62
     3
 10
47.35
 20
81.8625
 11
51.85
 21
81.8625
  0
LINE
  8
0
  6
CONTINUOUS
 62
     3
 10
47.35
 20
18.3625
 11
47.35
 21
18.8625
  0
LINE
  8
0
  6
CONTINUOUS
 62
     3
 10
51.85
 20
18.8625
 11
52.85
 21
18.8625
  0
LINE
  8
0
  6
CONTINUOUS
 62
     3
 10
52.85
 20
18.8625
 11
53.85
 21
18.8625
  0
LINE
  8
0
  6
CONTINUOUS
 62
     3
 10
47.35
 20
18.8625
 11
51.85
 21
18.8625
  0
LINE
  8
0
  6
CONTINUOUS
 62
     3
 10
53.85
 20
81.1
 11
55.85
 21
81.1
  0
LINE
  8
0
  6
CONTINUOUS
 62
     3
 10
53.85
 20
18.8625
 11
53.85
 21
19.6
  0
LINE
  8
0
  6
CONTINUOUS
 62
     3
 10
53.85
 20
81.85
 11
53.85
 21
19.52
  0
LINE
  8
0
  6
CONTINUOUS
 62
     3
 10
36.35
 20
46.5625
 11
36.35
 21
49.8625
  0
LINE
  8
0
  6
CONTINUOUS
 62
     3
 10
36.35
 20
49.8625
 11
24.85
 21
49.8625
  0
LINE
  8
0
  6
CONTINUOUS
 62
     3
 10
24.85
 20
49.8625
 11
24.85
 21
50.8625
  0
LINE
  8
0
  6
CONTINUOUS
 62
     3
 10
24.85
 20
50.8625
 11
36.35
 21
50.8625
  0
LINE
  8
0
  6
CONTINUOUS
 62
     3
 10
36.35
 20
46.5625
 11
36.35
 21
43.2625
  0
LINE
  8
0
  6
CONTINUOUS
 62
     3
 10
28.85
 20
43.2625
 11
28.85
 21
49.7625
  0
LINE
  8
0
  6
CONTINUOUS
 62
     3
 10
36.35
 20
54.1625
 11
36.35
 21
57.4625
  0
LINE
  8
0
  6
CONTINUOUS
 62
     3
 10
36.35
 20
57.4625
 11
24.85
 21
57.4625
  0
LINE
  8
0
  6
CONTINUOUS
 62
     3
 10
24.85
 20
57.4625
 11
24.85
 21
58.4625
  0
LINE
  8
0
  6
CONTINUOUS
 62
     3
 10
24.85
 20
58.4625
 11
36.35
 21
58.4625
  0
LINE
  8
0
  6
CONTINUOUS
 62
     3
 10
36.35
 20
54.1625
 11
36.35
 21
50.8625
  0
LINE
  8
0
  6
CONTINUOUS
 62
     3
 10
28.85
 20
50.8625
 11
28.85
 21
57.3625
  0
LINE
  8
0
  6
CONTINUOUS
 62
     3
 10
36.35
 20
61.7625
 11
36.35
 21
65.0625
  0
LINE
  8
0
  6
CONTINUOUS
 62
     3
 10
36.35
 20
65.0625
 11
24.85
 21
65.0625
  0
LINE
  8
0
  6
CONTINUOUS
 62
     3
 10
24.85
 20
66.0625
 11
36.35
 21
66.0625
  0
LINE
  8
0
  6
CONTINUOUS
 62
     3
 10
36.35
 20
61.7625
 11
36.35
 21
58.4625
  0
LINE
  8
0
  6
CONTINUOUS
 62
     3
 10
28.85
 20
58.4625
 11
28.85
 21
64.9625
  0
LINE
  8
0
  6
CONTINUOUS
 62
     3
 10
36.35
 20
69.3625
 11
36.35
 21
72.6625
  0
LINE
  8
0
  6
CONTINUOUS
 62
     3
 10
36.35
 20
72.6625
 11
24.85
 21
72.6625
  0
LINE
  8
0
  6
CONTINUOUS
 62
     3
 10
24.85
 20
73.6625
 11
36.35
 21
73.6625
  0
LINE
  8
0
  6
CONTINUOUS
 62
     3
 10
36.35
 20
69.3625
 11
36.35
 21
66.0625
  0
LINE
  8
0
  6
CONTINUOUS
 62
     3
 10
28.85
 20
66.0625
 11
28.85
 21
72.5625
  0
LINE
  8
0
  6
CONTINUOUS
 62
     3
 10
36.35
 20
76.9625
 11
36.35
 21
80.2625
  0
LINE
  8
0
  6
CONTINUOUS
 62
     3
 10
36.35
 20
80.2625
 11
24.85
 21
80.2625
  0
LINE
  8
0
  6
CONTINUOUS
 62
     3
 10
36.35
 20
76.9625
 11
36.35
 21
73.6625
  0
LINE
  8
0
  6
CONTINUOUS
 62
     3
 10
28.85
 20
73.6625
 11
28.85
 21
80.1625
  0
LINE
  8
0
  6
CONTINUOUS
 62
     3
 10
36.35
 20
43.3625
 11
24.85
 21
43.3625
  0
LINE
  8
0
  6
CONTINUOUS
 62
     3
 10
36.35
 20
31.4625
 11
36.35
 21
34.7625
  0
LINE
  8
0
  6
CONTINUOUS
 62
     3
 10
36.35
 20
34.7625
 11
24.85
 21
34.7625
  0
LINE
  8
0
  6
CONTINUOUS
 62
     3
 10
24.85
 20
35.7625
 11
36.35
 21
35.7625
  0
LINE
  8
0
  6
CONTINUOUS
 62
     3
 10
36.35
 20
31.4625
 11
36.35
 21
28.1625
  0
LINE
  8
0
  6
CONTINUOUS
 62
     3
 10
28.85
 20
28.1625
 11
28.85
 21
34.6625
  0
LINE
  8
0
  6
CONTINUOUS
 62
     3
 10
36.35
 20
39.0625
 11
36.35
 21
42.3625
  0
LINE
  8
0
  6
CONTINUOUS
 62
     3
 10
36.35
 20
39.0625
 11
36.35
 21
35.7625
  0
LINE
  8
0
  6
CONTINUOUS
 62
     3
 10
28.85
 20
35.7625
 11
28.85
 21
42.2625
  0
LINE
  8
0
  6
CONTINUOUS
 62
     3
 10
24.85
 20
42.3625
 11
36.25
 21
42.3625
  0
LINE
  8
0
  6
CONTINUOUS
 62
     3
 10
36.35
 20
23.5625
 11
36.35
 21
26.8625
  0
LINE
  8
0
  6
CONTINUOUS
 62
     3
 10
36.35
 20
26.8625
 11
24.85
 21
26.8625
  0
LINE
  8
0
  6
CONTINUOUS
 62
     3
 10
24.85
 20
27.8625
 11
36.35
 21
27.8625
  0
LINE
  8
0
  6
CONTINUOUS
 62
     3
 10
36.35
 20
23.5625
 11
36.35
 21
20.2625
  0
LINE
  8
0
  6
CONTINUOUS
 62
     3
 10
28.85
 20
20.2625
 11
28.85
 21
26.7625
  0
LINE
  8
0
  6
CONTINUOUS
 62
     3
 10
24.85
 20
20.0625
 11
36.25
 21
20.1625
  0
LINE
  8
0
  6
CONTINUOUS
 62
     3
 10
108.55
 20
153.65
 11
108.2
 21
153.65
  0
LINE
  8
0
  6
CONTINUOUS
 62
     3
 10
172.55
 20
131.8
 11
172.55
 21
130.65
  0
LINE
  8
0
  6
CONTINUOUS
 62
     3
 10
172.55
 20
143.65
 11
172.55
 21
142.7
  0
LINE
  8
0
  6
CONTINUOUS
 62
     3
 10
171.05
 20
142.5
 11
171.05
 21
143.65
  0
LINE
  8
0
  6
CONTINUOUS
 62
     3
 10
171.05
 20
130.65
 11
171.05
 21
131.5
  0
LINE
  8
0
  6
CONTINUOUS
 62
     3
 10
169.55
 20
131.7
 11
169.55
 21
130.65
  0
LINE
  8
0
  6
CONTINUOUS
 62
     3
 10
169.55
 20
143.65
 11
169.55
 21
142.7
  0
LINE
  8
0
  6
CONTINUOUS
 62
     3
 10
168.05
 20
142.6
 11
168.05
 21
143.65
  0
LINE
  8
0
  6
CONTINUOUS
 62
     3
 10
166.55
 20
131.7
 11
166.55
 21
130.65
  0
LINE
  8
0
  6
CONTINUOUS
 62
     3
 10
166.55
 20
143.65
 11
166.55
 21
142.8
  0
LINE
  8
0
  6
CONTINUOUS
 62
     3
 10
168.05
 20
130.65
 11
168.05
 21
131.6
  0
POINT
  8
0
  6
CONTINUOUS
 62
     3
 10
168.249048675
 20
15.971788936
  0
LINE
  8
0
  6
CONTINUOUS
 62
     3
 10
99.55
 20
69.65
 11
99.55
 21
65.9
  0
LINE
  8
0
  6
CONTINUOUS
 62
     3
 10
104.55
 20
80.15
 11
104.55
 21
78.15
  0
POINT
  8
0
  6
CONTINUOUS
 62
     3
 10
104.55
 20
78.15
  0
LINE
  8
0
  6
CONTINUOUS
 62
     3
 10
104.55
 20
78.15
 11
105.05
 21
78.15
  0
POINT
  8
0
  6
CONTINUOUS
 62
     3
 10
105.05
 20
78.15
  0
LINE
  8
0
  6
CONTINUOUS
 62
     3
 10
105.05
 20
78.15
 11
105.55
 21
78.15
  0
POINT
  8
0
  6
CONTINUOUS
 62
     3
 10
105.55
 20
78.15
  0
LINE
  8
0
  6
CONTINUOUS
 62
     3
 10
105.55
 20
78.15
 11
105.55
 21
78.65
  0
POINT
  8
0
  6
CONTINUOUS
 62
     3
 10
105.55
 20
78.65
  0
LINE
  8
0
  6
CONTINUOUS
 62
     3
 10
105.55
 20
78.65
 11
106.05
 21
78.65
  0
LINE
  8
0
  6
CONTINUOUS
 62
     3
 10
105.55
 20
77.15
 11
104.55
 21
77.15
  0
POINT
  8
0
  6
CONTINUOUS
 62
     3
 10
104.55
 20
77.15
  0
LINE
  8
0
  6
CONTINUOUS
 62
     3
 10
104.55
 20
77.15
 11
104.55
 21
75.65
  0
LINE
  8
0
  6
CONTINUOUS
 62
     3
 10
104.55
 20
75.15
 11
104.55
 21
73.65
  0
POINT
  8
0
  6
CONTINUOUS
 62
     3
 10
104.55
 20
73.65
  0
LINE
  8
0
  6
CONTINUOUS
 62
     3
 10
104.55
 20
73.65
 11
105.55
 21
73.65
  0
POINT
  8
0
  6
CONTINUOUS
 62
     3
 10
105.55
 20
73.65
  0
LINE
  8
0
  6
CONTINUOUS
 62
     3
 10
105.55
 20
73.65
 11
105.55
 21
74.15
  0
POINT
  8
0
  6
CONTINUOUS
 62
     3
 10
105.55
 20
74.15
  0
LINE
  8
0
  6
CONTINUOUS
 62
     3
 10
105.55
 20
74.15
 11
106.05
 21
74.15
  0
LINE
  8
0
  6
CONTINUOUS
 62
     3
 10
105.55
 20
77.15
 11
105.55
 21
76.65
  0
LINE
  8
0
  6
CONTINUOUS
 62
     3
 10
105.55
 20
76.65
 11
106.05
 21
76.65
  0
LINE
  8
0
  6
CONTINUOUS
 62
     3
 10
99.55
 20
79.65
 11
104.55
 21
79.65
  0
LINE
  8
0
  6
CONTINUOUS
 62
     3
 10
100.05
 20
76.15
 11
104.55
 21
76.15
  0
LINE
  8
0
  6
CONTINUOUS
 62
     3
 10
99.55
 20
74.65
 11
104.55
 21
74.65
  0
LINE
  8
0
  6
CONTINUOUS
 62
     3
 10
104.55
 20
71.15
 11
104.55
 21
72.15
  0
POINT
  8
0
  6
CONTINUOUS
 62
     3
 10
104.55
 20
72.15
  0
LINE
  8
0
  6
CONTINUOUS
 62
     3
 10
104.55
 20
72.15
 11
105.55
 21
72.15
  0
POINT
  8
0
  6
CONTINUOUS
 62
     3
 10
105.55
 20
72.15
  0
LINE
  8
0
  6
CONTINUOUS
 62
     3
 10
105.55
 20
72.15
 11
105.55
 21
71.65
  0
POINT
  8
0
  6
CONTINUOUS
 62
     3
 10
105.55
 20
71.65
  0
LINE
  8
0
  6
CONTINUOUS
 62
     3
 10
105.55
 20
71.65
 11
106.05
 21
71.65
  0
POINT
  8
0
  6
CONTINUOUS
 62
     3
 10
104.55
 20
71.15
  0
LINE
  8
0
  6
CONTINUOUS
 62
     3
 10
104.55
 20
71.15
 11
104.55
 21
70.65
  0
LINE
  8
0
  6
CONTINUOUS
 62
     3
 10
100.05
 20
71.15
 11
104.55
 21
71.15
  0
LINE
  8
0
  6
CONTINUOUS
 62
     3
 10
104.55
 20
70.15
 11
104.55
 21
68.65
  0
POINT
  8
0
  6
CONTINUOUS
 62
     3
 10
104.55
 20
68.65
  0
LINE
  8
0
  6
CONTINUOUS
 62
     3
 10
104.55
 20
68.65
 11
105.55
 21
68.65
  0
POINT
  8
0
  6
CONTINUOUS
 62
     3
 10
105.55
 20
68.65
  0
LINE
  8
0
  6
CONTINUOUS
 62
     3
 10
105.55
 20
68.65
 11
105.55
 21
69.15
  0
POINT
  8
0
  6
CONTINUOUS
 62
     3
 10
105.55
 20
69.15
  0
LINE
  8
0
  6
CONTINUOUS
 62
     3
 10
105.55
 20
69.15
 11
106.05
 21
69.15
  0
LINE
  8
0
  6
CONTINUOUS
 62
     3
 10
104.55
 20
66.15
 11
104.55
 21
67.15
  0
POINT
  8
0
  6
CONTINUOUS
 62
     3
 10
104.55
 20
67.15
  0
LINE
  8
0
  6
CONTINUOUS
 62
     3
 10
104.55
 20
67.15
 11
105.55
 21
67.15
  0
POINT
  8
0
  6
CONTINUOUS
 62
     3
 10
105.55
 20
67.15
  0
LINE
  8
0
  6
CONTINUOUS
 62
     3
 10
105.55
 20
67.15
 11
105.55
 21
66.65
  0
POINT
  8
0
  6
CONTINUOUS
 62
     3
 10
105.55
 20
66.65
  0
LINE
  8
0
  6
CONTINUOUS
 62
     3
 10
105.55
 20
66.65
 11
106.05
 21
66.65
  0
POINT
  8
0
  6
CONTINUOUS
 62
     3
 10
104.55
 20
66.15
  0
LINE
  8
0
  6
CONTINUOUS
 62
     3
 10
104.55
 20
66.15
 11
104.55
 21
65.65
  0
LINE
  8
0
  6
CONTINUOUS
 62
     3
 10
104.55
 20
65.15
 11
104.55
 21
63.65
  0
POINT
  8
0
  6
CONTINUOUS
 62
     3
 10
104.55
 20
63.65
  0
LINE
  8
0
  6
CONTINUOUS
 62
     3
 10
104.55
 20
63.65
 11
105.55
 21
63.65
  0
POINT
  8
0
  6
CONTINUOUS
 62
     3
 10
105.55
 20
63.65
  0
LINE
  8
0
  6
CONTINUOUS
 62
     3
 10
105.55
 20
63.65
 11
105.55
 21
64.15
  0
POINT
  8
0
  6
CONTINUOUS
 62
     3
 10
105.55
 20
64.15
  0
LINE
  8
0
  6
CONTINUOUS
 62
     3
 10
105.55
 20
64.15
 11
106.05
 21
64.15
  0
LINE
  8
0
  6
CONTINUOUS
 62
     3
 10
104.55
 20
61.15
 11
104.55
 21
62.15
  0
POINT
  8
0
  6
CONTINUOUS
 62
     3
 10
104.55
 20
62.15
  0
LINE
  8
0
  6
CONTINUOUS
 62
     3
 10
104.55
 20
62.15
 11
105.55
 21
62.15
  0
POINT
  8
0
  6
CONTINUOUS
 62
     3
 10
105.55
 20
62.15
  0
LINE
  8
0
  6
CONTINUOUS
 62
     3
 10
105.55
 20
62.15
 11
105.55
 21
61.65
  0
POINT
  8
0
  6
CONTINUOUS
 62
     3
 10
105.55
 20
61.65
  0
LINE
  8
0
  6
CONTINUOUS
 62
     3
 10
105.55
 20
61.65
 11
106.05
 21
61.65
  0
POINT
  8
0
  6
CONTINUOUS
 62
     3
 10
104.55
 20
61.15
  0
LINE
  8
0
  6
CONTINUOUS
 62
     3
 10
104.55
 20
61.15
 11
104.55
 21
60.65
  0
LINE
  8
0
  6
CONTINUOUS
 62
     3
 10
104.55
 20
60.15
 11
104.55
 21
58.65
  0
POINT
  8
0
  6
CONTINUOUS
 62
     3
 10
104.55
 20
58.65
  0
LINE
  8
0
  6
CONTINUOUS
 62
     3
 10
104.55
 20
58.65
 11
105.55
 21
58.65
  0
POINT
  8
0
  6
CONTINUOUS
 62
     3
 10
105.55
 20
58.65
  0
LINE
  8
0
  6
CONTINUOUS
 62
     3
 10
105.55
 20
58.65
 11
105.55
 21
59.15
  0
POINT
  8
0
  6
CONTINUOUS
 62
     3
 10
105.55
 20
59.15
  0
LINE
  8
0
  6
CONTINUOUS
 62
     3
 10
105.55
 20
59.15
 11
106.05
 21
59.15
  0
LINE
  8
0
  6
CONTINUOUS
 62
     3
 10
104.55
 20
56.15
 11
104.55
 21
57.15
  0
POINT
  8
0
  6
CONTINUOUS
 62
     3
 10
104.55
 20
57.15
  0
LINE
  8
0
  6
CONTINUOUS
 62
     3
 10
104.55
 20
57.15
 11
105.55
 21
57.15
  0
POINT
  8
0
  6
CONTINUOUS
 62
     3
 10
105.55
 20
57.15
  0
LINE
  8
0
  6
CONTINUOUS
 62
     3
 10
105.55
 20
57.15
 11
105.55
 21
56.65
  0
POINT
  8
0
  6
CONTINUOUS
 62
     3
 10
105.55
 20
56.65
  0
LINE
  8
0
  6
CONTINUOUS
 62
     3
 10
105.55
 20
56.65
 11
106.05
 21
56.65
  0
POINT
  8
0
  6
CONTINUOUS
 62
     3
 10
104.55
 20
56.15
  0
LINE
  8
0
  6
CONTINUOUS
 62
     3
 10
104.55
 20
56.15
 11
104.55
 21
55.65
  0
LINE
  8
0
  6
CONTINUOUS
 62
     3
 10
104.55
 20
55.15
 11
104.55
 21
53.65
  0
POINT
  8
0
  6
CONTINUOUS
 62
     3
 10
104.55
 20
53.65
  0
LINE
  8
0
  6
CONTINUOUS
 62
     3
 10
104.55
 20
53.65
 11
105.55
 21
53.65
  0
POINT
  8
0
  6
CONTINUOUS
 62
     3
 10
105.55
 20
53.65
  0
LINE
  8
0
  6
CONTINUOUS
 62
     3
 10
105.55
 20
53.65
 11
105.55
 21
54.15
  0
POINT
  8
0
  6
CONTINUOUS
 62
     3
 10
105.55
 20
54.15
  0
LINE
  8
0
  6
CONTINUOUS
 62
     3
 10
105.55
 20
54.15
 11
106.05
 21
54.15
  0
LINE
  8
0
  6
CONTINUOUS
 62
     3
 10
104.55
 20
51.15
 11
104.55
 21
52.15
  0
POINT
  8
0
  6
CONTINUOUS
 62
     3
 10
104.55
 20
52.15
  0
LINE
  8
0
  6
CONTINUOUS
 62
     3
 10
104.55
 20
52.15
 11
105.55
 21
52.15
  0
POINT
  8
0
  6
CONTINUOUS
 62
     3
 10
105.55
 20
52.15
  0
LINE
  8
0
  6
CONTINUOUS
 62
     3
 10
105.55
 20
52.15
 11
105.55
 21
51.65
  0
POINT
  8
0
  6
CONTINUOUS
 62
     3
 10
105.55
 20
51.65
  0
LINE
  8
0
  6
CONTINUOUS
 62
     3
 10
105.55
 20
51.65
 11
106.05
 21
51.65
  0
POINT
  8
0
  6
CONTINUOUS
 62
     3
 10
104.55
 20
51.15
  0
LINE
  8
0
  6
CONTINUOUS
 62
     3
 10
104.55
 20
51.15
 11
104.55
 21
50.65
  0
LINE
  8
0
  6
CONTINUOUS
 62
     3
 10
104.55
 20
50.15
 11
104.55
 21
48.65
  0
POINT
  8
0
  6
CONTINUOUS
 62
     3
 10
104.55
 20
48.65
  0
LINE
  8
0
  6
CONTINUOUS
 62
     3
 10
104.55
 20
48.65
 11
105.55
 21
48.65
  0
POINT
  8
0
  6
CONTINUOUS
 62
     3
 10
105.55
 20
48.65
  0
LINE
  8
0
  6
CONTINUOUS
 62
     3
 10
105.55
 20
48.65
 11
105.55
 21
49.15
  0
POINT
  8
0
  6
CONTINUOUS
 62
     3
 10
105.55
 20
49.15
  0
LINE
  8
0
  6
CONTINUOUS
 62
     3
 10
105.55
 20
49.15
 11
106.05
 21
49.15
  0
LINE
  8
0
  6
CONTINUOUS
 62
     3
 10
104.55
 20
46.15
 11
104.55
 21
47.15
  0
POINT
  8
0
  6
CONTINUOUS
 62
     3
 10
104.55
 20
47.15
  0
LINE
  8
0
  6
CONTINUOUS
 62
     3
 10
104.55
 20
47.15
 11
105.55
 21
47.15
  0
POINT
  8
0
  6
CONTINUOUS
 62
     3
 10
105.55
 20
47.15
  0
LINE
  8
0
  6
CONTINUOUS
 62
     3
 10
105.55
 20
47.15
 11
105.55
 21
46.65
  0
POINT
  8
0
  6
CONTINUOUS
 62
     3
 10
105.55
 20
46.65
  0
LINE
  8
0
  6
CONTINUOUS
 62
     3
 10
105.55
 20
46.65
 11
106.05
 21
46.65
  0
POINT
  8
0
  6
CONTINUOUS
 62
     3
 10
104.55
 20
46.15
  0
LINE
  8
0
  6
CONTINUOUS
 62
     3
 10
104.55
 20
46.15
 11
104.55
 21
45.65
  0
LINE
  8
0
  6
CONTINUOUS
 62
     3
 10
104.55
 20
45.15
 11
104.55
 21
43.65
  0
POINT
  8
0
  6
CONTINUOUS
 62
     3
 10
104.55
 20
43.65
  0
LINE
  8
0
  6
CONTINUOUS
 62
     3
 10
104.55
 20
43.65
 11
105.55
 21
43.65
  0
POINT
  8
0
  6
CONTINUOUS
 62
     3
 10
105.55
 20
43.65
  0
LINE
  8
0
  6
CONTINUOUS
 62
     3
 10
105.55
 20
43.65
 11
105.55
 21
44.15
  0
POINT
  8
0
  6
CONTINUOUS
 62
     3
 10
105.55
 20
44.15
  0
LINE
  8
0
  6
CONTINUOUS
 62
     3
 10
105.55
 20
44.15
 11
106.05
 21
44.15
  0
LINE
  8
0
  6
CONTINUOUS
 62
     3
 10
101.8
 20
79.4
 11
101.8
 21
76.4
  0
LINE
  8
0
  6
CONTINUOUS
 62
     3
 10
99.55
 20
76.15
 11
100.05
 21
76.15
  0
LINE
  8
0
  6
CONTINUOUS
 62
     3
 10
99.55
 20
79.65
 11
99.55
 21
76.15
  0
LINE
  8
0
  6
CONTINUOUS
 62
     3
 10
99.55
 20
74.65
 11
99.55
 21
71.15
  0
LINE
  8
0
  6
CONTINUOUS
 62
     3
 10
99.55
 20
71.15
 11
100.05
 21
71.15
  0
LINE
  8
0
  6
CONTINUOUS
 62
     3
 10
101.8
 20
71.4
 11
101.8
 21
74.4
  0
LINE
  8
0
  6
CONTINUOUS
 62
     3
 10
99.55
 20
69.65
 11
104.55
 21
69.65
  0
LINE
  8
0
  6
CONTINUOUS
 62
     3
 10
99.55
 20
64.65
 11
104.55
 21
64.65
  0
LINE
  8
0
  6
CONTINUOUS
 62
     3
 10
104.55
 20
61.15
 11
99.55
 21
61.15
  0
LINE
  8
0
  6
CONTINUOUS
 62
     3
 10
99.55
 20
64.65
 11
99.55
 21
61.15
  0
LINE
  8
0
  6
CONTINUOUS
 62
     3
 10
101.8
 20
61.4
 11
101.8
 21
64.4
  0
LINE
  8
0
  6
CONTINUOUS
 62
     3
 10
99.55
 20
59.65
 11
104.55
 21
59.65
  0
LINE
  8
0
  6
CONTINUOUS
 62
     3
 10
101.8
 20
59.4
 11
101.8
 21
56.4
  0
LINE
  8
0
  6
CONTINUOUS
 62
     3
 10
99.55
 20
56.15
 11
104.55
 21
56.15
  0
LINE
  8
0
  6
CONTINUOUS
 62
     3
 10
99.55
 20
59.65
 11
99.55
 21
56.15
  0
LINE
  8
0
  6
CONTINUOUS
 62
     3
 10
99.55
 20
54.65
 11
104.55
 21
54.65
  0
LINE
  8
0
  6
CONTINUOUS
 62
     3
 10
99.55
 20
51.15
 11
104.55
 21
51.15
  0
LINE
  8
0
  6
CONTINUOUS
 62
     3
 10
99.55
 20
54.65
 11
99.55
 21
51.15
  0
LINE
  8
0
  6
CONTINUOUS
 62
     3
 10
101.8
 20
54.4
 11
101.8
 21
51.4
  0
LINE
  8
0
  6
CONTINUOUS
 62
     3
 10
99.55
 20
49.65
 11
104.55
 21
49.65
  0
LINE
  8
0
  6
CONTINUOUS
 62
     3
 10
101.8
 20
49.4
 11
101.8
 21
46.4
  0
LINE
  8
0
  6
CONTINUOUS
 62
     3
 10
99.55
 20
46.15
 11
104.55
 21
46.15
  0
LINE
  8
0
  6
CONTINUOUS
 62
     3
 10
99.55
 20
49.65
 11
99.55
 21
46.15
  0
LINE
  8
0
  6
CONTINUOUS
 62
     3
 10
99.55
 20
39.65
 11
99.55
 21
36.15
  0
LINE
  8
0
  6
CONTINUOUS
 62
     3
 10
99.55
 20
44.65
 11
99.55
 21
41.15
  0
LINE
  8
0
  6
CONTINUOUS
 62
     3
 10
99.55
 20
35.15
 11
99.55
 21
31.65
  0
TEXT
  8
0
  6
CONTINUOUS
 62
     3
 10
25.5
 20
78.75
 30
0.0
 40
2.5
  1
（１）
 50
270.0
 41
0.45
 51
0.0
  7
KANJI1
  0
TEXT
  8
0
  6
CONTINUOUS
 62
     3
 10
25.25
 20
71.25
 30
0.0
 40
2.5
  1
（２）
 50
270.0
 41
0.45
 51
0.0
  7
KANJI1
  0
TEXT
  8
0
  6
CONTINUOUS
 62
     3
 10
25.5
 20
26.0
 30
0.0
 40
2.5
  1
（８）
 50
270.0
 41
0.45
 51
0.0
  7
KANJI1
  0
TEXT
  8
0
  6
CONTINUOUS
 62
     3
 10
25.5
 20
33.2
 30
0.0
 40
2.5
  1
（７）
 50
270.0
 41
0.45
 51
0.0
  7
KANJI1
  0
TEXT
  8
0
  6
CONTINUOUS
 62
     3
 10
51.07
 20
196.92
 30
0.18
 40
1.62
  1
＋０．７
 50
0.0
 41
0.666666667
 51
0.0
  7
KANJI2
  0
LINE
  8
0
  6
CONTINUOUS
 62
     3
 10
34.05
 20
188.8
 11
29.55
 21
188.8
  0
LINE
  8
0
  6
CONTINUOUS
 62
     3
 10
30.55
 20
188.8
 11
30.03236191
 21
186.868148347
  0
LINE
  8
0
  6
CONTINUOUS
 62
     3
 10
30.55
 20
188.8
 11
31.06763809
 21
186.868148347
  0
LINE
  8
0
  6
CONTINUOUS
 62
     3
 10
30.55
 20
188.8
 11
30.55
 21
171.8
  0
LINE
  8
0
  6
CONTINUOUS
 62
     3
 10
30.55
 20
171.8
 11
31.06763809
 21
173.731851653
  0
LINE
  8
0
  6
CONTINUOUS
 62
     3
 10
30.55
 20
171.8
 11
30.03236191
 21
173.731851653
  0
LINE
  8
0
  6
CONTINUOUS
 62
     3
 10
34.05
 20
171.8
 11
29.55
 21
171.8
  0
TEXT
  8
0
  6
CONTINUOUS
 62
     3
 10
29.55
 20
175.92
 30
0.3
 40
2.7
  1
３３
 50
90.0
 41
0.666666667
 51
0.0
  7
KANJI3
  0
TEXT
  8
0
  6
CONTINUOUS
 62
     3
 10
29.55
 20
179.82
 30
0.18
 40
1.62
  1
－０
 50
90.0
 41
0.666666667
 51
0.0
  7
KANJI2
  0
TEXT
  8
0
  6
CONTINUOUS
 62
     3
 10
27.93
 20
179.82
 30
0.18
 40
1.62
  1
＋０．６
 50
90.0
 41
0.666666667
 51
0.0
  7
KANJI2
  0
LINE
  8
0
  6
CONTINUOUS
 62
     3
 10
34.55
 20
193.3
 11
36.481851653
 21
192.78236191
  0
LINE
  8
0
  6
CONTINUOUS
 62
     3
 10
34.55
 20
193.3
 11
36.481851653
 21
193.81763809
  0
LINE
  8
0
  6
CONTINUOUS
 62
     3
 10
34.55
 20
193.3
 11
68.55
 21
193.3
  0
LINE
  8
0
  6
CONTINUOUS
 62
     3
 10
68.55
 20
193.3
 11
66.618148347
 21
193.81763809
  0
LINE
  8
0
  6
CONTINUOUS
 62
     3
 10
68.55
 20
193.3
 11
66.618148347
 21
192.78236191
  0
TEXT
  8
0
  6
CONTINUOUS
 62
     3
 10
47.17
 20
194.3
 30
0.3
 40
2.7
  1
６８
 50
0.0
 41
0.666666667
 51
0.0
  7
KANJI3
  0
TEXT
  8
0
  6
CONTINUOUS
 62
     3
 10
51.07
 20
194.3
 30
0.18
 40
1.62
  1
－０
 50
0.0
 41
0.666666667
 51
0.0
  7
KANJI2
  0
LINE
  8
0
  6
CONTINUOUS
 62
     3
 10
34.55
 20
189.8
 11
34.55
 21
194.3
  0
LINE
  8
0
  6
CONTINUOUS
 62
     3
 10
68.55
 20
189.8
 11
68.55
 21
194.3
  0
LINE
  8
0
  6
CONTINUOUS
 62
     3
 10
51.55
 20
220.8
 11
53.481851653
 21
220.28236191
  0
LINE
  8
0
  6
CONTINUOUS
 62
     3
 10
51.55
 20
220.8
 11
53.481851653
 21
221.31763809
  0
LINE
  8
0
  6
CONTINUOUS
 62
     3
 10
51.55
 20
220.8
 11
99.55
 21
220.8
  0
LINE
  8
0
  6
CONTINUOUS
 62
     3
 10
99.55
 20
220.8
 11
97.618148347
 21
221.31763809
  0
LINE
  8
0
  6
CONTINUOUS
 62
     3
 10
99.55
 20
220.8
 11
97.618148347
 21
220.28236191
  0
LINE
  8
0
  6
CONTINUOUS
 62
     3
 10
99.55
 20
175.8
 11
99.55
 21
221.8
  0
TEXT
  8
0
  6
CONTINUOUS
 62
     3
 10
69.4
 20
221.8
 30
0.3
 40
2.7
  1
ＭＩＮ．９６
 50
0.0
 41
0.666666667
 51
0.0
  7
KANJI3
  0
LINE
  8
0
  6
CONTINUOUS
 62
     3
 10
103.55
 20
207.8
 11
19.05
 21
207.8
  0
LINE
  8
0
  6
CONTINUOUS
 62
     3
 10
20.05
 20
207.8
 11
19.53236191
 21
205.868148347
  0
LINE
  8
0
  6
CONTINUOUS
 62
     3
 10
20.05
 20
207.8
 11
20.56763809
 21
205.868148347
  0
LINE
  8
0
  6
CONTINUOUS
 62
     3
 10
20.05
 20
207.8
 11
20.05
 21
180.3
  0
LINE
  8
0
  6
CONTINUOUS
 62
     3
 10
20.05
 20
180.3
 11
20.56763809
 21
182.231851653
  0
LINE
  8
0
  6
CONTINUOUS
 62
     3
 10
20.05
 20
180.3
 11
19.53236191
 21
182.231851653
  0
TEXT
  8
0
  6
CONTINUOUS
 62
     3
 10
19.05
 20
187.9
 30
0.3
 40
2.7
  1
ＭＩＮ．５８
 50
90.0
 41
0.666666667
 51
0.0
  7
KANJI3
  0
LINE
  8
0
  6
CONTINUOUS
 62
     3
 10
26.05
 20
180.3
 11
19.05
 21
180.3
  0
LINE
  8
0
  6
CONTINUOUS
 62
     3
 10
104.05
 20
180.3
 11
29.55
 21
180.3
  0
LINE
  8
0
  6
CONTINUOUS
 62
     3
 10
51.55
 20
199.8
 11
51.55
 21
221.8
  0
LINE
  8
0
  6
CONTINUOUS
 62
     3
 10
51.55
 20
175.3
 11
51.55
 21
191.8
  0
LINE
  8
0
  6
CONTINUOUS
 62
     3
 10
88.55
 20
104.9
 11
90.481851653
 21
104.38236191
  0
LINE
  8
0
  6
CONTINUOUS
 62
     3
 10
88.55
 20
104.9
 11
90.481851653
 21
105.41763809
  0
LINE
  8
0
  6
CONTINUOUS
 62
     3
 10
88.55
 20
120.15
 11
88.55
 21
103.9
  0
LINE
  8
0
  6
CONTINUOUS
 62
     3
 10
87.8
 20
153.65
 11
75.3
 21
153.65
  0
LINE
  8
0
  6
CONTINUOUS
 62
     3
 10
76.3
 20
153.65
 11
75.78236191
 21
151.718148347
  0
LINE
  8
0
  6
CONTINUOUS
 62
     3
 10
76.3
 20
153.65
 11
76.81763809
 21
151.718148347
  0
LINE
  8
0
  6
CONTINUOUS
 62
     3
 10
76.3
 20
153.65
 11
76.3
 21
120.65
  0
LINE
  8
0
  6
CONTINUOUS
 62
     3
 10
76.3
 20
120.65
 11
76.81763809
 21
122.581851653
  0
LINE
  8
0
  6
CONTINUOUS
 62
     3
 10
76.3
 20
120.65
 11
75.78236191
 21
122.581851653
  0
LINE
  8
0
  6
CONTINUOUS
 62
     3
 10
88.05
 20
120.65
 11
75.3
 21
120.65
  0
TEXT
  8
0
  6
CONTINUOUS
 62
     3
 10
75.3
 20
135.2
 30
0.3
 40
2.7
  1
３３
 50
90.0
 41
0.666666667
 51
0.0
  7
KANJI3
  0
LINE
  8
0
  6
CONTINUOUS
 62
     3
 10
76.05
 20
84.4
 11
75.53236191
 21
82.468148347
  0
LINE
  8
0
  6
CONTINUOUS
 62
     3
 10
76.05
 20
84.4
 11
76.56763809
 21
82.468148347
  0
LINE
  8
0
  6
CONTINUOUS
 62
     3
 10
76.05
 20
84.4
 11
76.05
 21
16.55
  0
LINE
  8
0
  6
CONTINUOUS
 62
     3
 10
76.05
 20
16.55
 11
76.56763809
 21
18.481851653
  0
LINE
  8
0
  6
CONTINUOUS
 62
     3
 10
76.05
 20
16.55
 11
75.53236191
 21
18.481851653
  0
TEXT
  8
0
  6
CONTINUOUS
 62
     3
 10
75.05
 20
48.525
 30
0.3
 40
2.7
  1
６８
 50
90.0
 41
0.666666667
 51
0.0
  7
KANJI3
  0
LINE
  8
0
  6
CONTINUOUS
 62
     3
 10
140.473101192
 20
91.311980611
 11
131.28
 21
91.311980611
  0
LINE
  8
0
  6
CONTINUOUS
 62
     3
 10
132.28
 20
91.311980611
 11
131.76236191
 21
89.380128959
  0
LINE
  8
0
  6
CONTINUOUS
 62
     3
 10
132.28
 20
91.311980611
 11
132.79763809
 21
89.380128959
  0
LINE
  8
0
  6
CONTINUOUS
 62
     3
 10
132.28
 20
91.311980611
 11
132.28
 21
9.311980611
  0
LINE
  8
0
  6
CONTINUOUS
 62
     3
 10
132.28
 20
9.311980611
 11
132.79763809
 21
11.243832264
  0
LINE
  8
0
  6
CONTINUOUS
 62
     3
 10
132.28
 20
9.311980611
 11
131.76236191
 21
11.243832264
  0
LINE
  8
0
  6
CONTINUOUS
 62
     3
 10
140.323101192
 20
9.311980611
 11
131.28
 21
9.311980611
  0
LINE
  8
0
  6
CONTINUOUS
 62
     3
 10
88.3
 20
84.4
 11
55.35
 21
84.4
  0
TEXT
  8
0
  6
CONTINUOUS
 62
     3
 10
144.05
 20
105.9
 30
0.3
 40
2.7
  1
１１８
 50
0.0
 41
0.666666667
 51
0.0
  7
KANJI3
  0
LINE
  8
0
  6
CONTINUOUS
 62
     3
 10
88.3
 20
16.55
 11
56.55
 21
16.55
  0
ARC
  8
0
  6
CONTINUOUS
 62
     3
 10
95.85
 20
150.35
 40
1.3
 50
90.0
 51
180.0
  0
LINE
  8
0
  6
CONTINUOUS
 62
     3
 10
98.05
 20
131.65
 11
97.35
 21
131.65
  0
TEXT
  8
0
  6
CONTINUOUS
 62
     3
 10
131.28
 20
48.361980611
 30
0.3
 40
2.7
  1
８０
 50
90.0
 41
0.666666667
 51
0.0
  7
KANJI3
  0
LINE
  8
0
  6
CONTINUOUS
 62
     3
 10
99.55
 20
65.9
 11
104.5
 21
65.9
  0
LINE
  8
0
  6
CONTINUOUS
 62
     3
 10
101.8
 20
66.2
 11
101.8
 21
69.4
  0
POINT
  8
0
  6
CONTINUOUS
 62
     3
 10
198.55
 20
50.4
  0
POINT
  8
0
  6
CONTINUOUS
 62
     3
 10
198.55
 20
86.4
  0
POINT
  8
0
  6
CONTINUOUS
 62
     3
 10
198.55
 20
50.4
  0
POINT
  8
0
  6
CONTINUOUS
 62
     3
 10
198.55
 20
14.4
  0
LINE
  8
0
  6
CONTINUOUS
 62
     3
 10
198.55
 20
50.4
 11
198.55
 21
35.1
  0
TEXT
  8
0
  6
CONTINUOUS
 62
     3
 10
246.550000001
 20
72.31
 30
0.0
 40
1.8
  1
ＬＯ
 50
90.0
 41
0.9
 51
0.0
  7
KANJI4
  0
TEXT
  8
0
  6
CONTINUOUS
 62
     3
 10
246.550000001
 20
68.21
 30
0.0
 40
1.8
  1
ＧＯ
 50
90.0
 41
0.9
 51
0.0
  7
KANJI4
  0
TEXT
  8
0
  6
CONTINUOUS
 62
     3
 10
248.35
 20
80.425
 30
0.0
 40
1.8
  1
ＭＥ
 50
90.0
 41
0.9
 51
0.0
  7
KANJI4
  0
TEXT
  8
0
  6
CONTINUOUS
 62
     3
 10
246.675000001
 20
64.435
 30
0.0
 40
1.8
  1
ＨＩ
 50
90.0
 41
0.9
 51
0.0
  7
KANJI4
  0
LINE
  8
0
  6
CONTINUOUS
 62
     3
 10
198.55
 20
118.4
 11
198.55
 21
112.15
  0
LINE
  8
0
  6
CONTINUOUS
 62
     3
 10
198.55
 20
113.15
 11
196.618148347
 21
113.66763809
  0
LINE
  8
0
  6
CONTINUOUS
 62
     3
 10
198.55
 20
113.15
 11
196.618148347
 21
112.63236191
  0
LINE
  8
0
  6
CONTINUOUS
 62
     3
 10
194.55
 20
113.15
 11
215.55
 21
113.15
  0
LINE
  8
0
  6
CONTINUOUS
 62
     3
 10
205.55
 20
113.15
 11
207.481851653
 21
112.63236191
  0
LINE
  8
0
  6
CONTINUOUS
 62
     3
 10
205.55
 20
113.15
 11
207.481851653
 21
113.66763809
  0
LINE
  8
0
  6
CONTINUOUS
 62
     3
 10
205.55
 20
119.15
 11
205.55
 21
112.15
  0
LINE
  8
0
  6
CONTINUOUS
 62
     3
 10
205.55
 20
112.15
 11
205.55
 21
103.9
  0
LINE
  8
0
  6
CONTINUOUS
 62
     3
 10
205.55
 20
104.9
 11
203.618148347
 21
105.41763809
  0
LINE
  8
0
  6
CONTINUOUS
 62
     3
 10
205.55
 20
104.9
 11
203.618148347
 21
104.38236191
  0
LINE
  8
0
  6
CONTINUOUS
 62
     3
 10
196.95
 20
16.4
 11
188.65
 21
16.4
  0
LINE
  8
0
  6
CONTINUOUS
 62
     3
 10
198.55
 20
16.4
 11
196.95
 21
16.4
  0
LINE
  8
0
  6
CONTINUOUS
 62
     3
 10
199.0
 20
93.2
 11
222.35
 21
93.2
  0
LINE
  8
0
  6
CONTINUOUS
 62
     3
 10
221.35
 20
93.2
 11
220.83236191
 21
91.268148347
  0
LINE
  8
0
  6
CONTINUOUS
 62
     3
 10
221.35
 20
93.2
 11
221.86763809
 21
91.268148347
  0
LINE
  8
0
  6
CONTINUOUS
 62
     3
 10
221.35
 20
93.2
 11
221.35
 21
7.95
  0
LINE
  8
0
  6
CONTINUOUS
 62
     3
 10
221.35
 20
7.95
 11
221.86763809
 21
9.881851653
  0
LINE
  8
0
  6
CONTINUOUS
 62
     3
 10
221.35
 20
7.95
 11
220.83236191
 21
9.881851653
  0
LINE
  8
0
  6
CONTINUOUS
 62
     3
 10
198.5
 20
7.95
 11
222.35
 21
7.95
  0
TEXT
  8
0
  6
CONTINUOUS
 62
     3
 10
220.35
 20
48.625
 30
0.3
 40
2.7
  1
８７
 50
90.0
 41
0.666666667
 51
0.0
  7
KANJI3
  0
LINE
  8
0
  6
CONTINUOUS
 62
     3
 10
241.05
 20
86.75
 11
241.05
 21
99.9
  0
LINE
  8
0
  6
CONTINUOUS
 62
     3
 10
241.05
 20
98.9
 11
242.981851653
 21
98.38236191
  0
LINE
  8
0
  6
CONTINUOUS
 62
     3
 10
241.05
 20
98.9
 11
242.981851653
 21
99.41763809
  0
TEXT
  8
0
  6
CONTINUOUS
 62
     3
 10
209.55
 20
114.15
 30
0.3
 40
2.7
  1
７
 50
0.0
 41
0.666666667
 51
0.0
  7
KANJI3
  0
ARC
  8
0
  6
CONTINUOUS
 62
     3
 10
247.475
 20
65.9
 40
2.25
 50
119.926434866
 51
60.073565134
  0
ARC
  8
0
  6
CONTINUOUS
 62
     3
 10
247.475
 20
69.8
 40
2.25
 50
299.926434866
 51
60.073565134
  0
ARC
  8
0
  6
CONTINUOUS
 62
     3
 10
247.475
 20
77.8
 40
2.25
 50
294.340646728
 51
245.659353272
  0
ARC
  8
0
  6
CONTINUOUS
 62
     3
 10
247.475
 20
73.7
 40
2.25
 50
299.926434866
 51
65.659353272
  0
ARC
  8
0
  6
CONTINUOUS
 62
     3
 10
247.475
 20
69.8
 40
2.25
 50
119.926434866
 51
240.073565134
  0
ARC
  8
0
  6
CONTINUOUS
 62
     3
 10
247.475
 20
73.7
 40
2.25
 50
111.864945137
 51
240.073565134
  0
LINE
  8
0
  6
CONTINUOUS
 62
     3
 10
248.550000001
 20
83.9
 11
248.550000001
 21
83.15
  0
LINE
  8
0
  6
CONTINUOUS
 62
     3
 10
205.55
 20
104.9
 11
88.55
 21
104.9
  0
LINE
  8
0
  6
CONTINUOUS
 62
     3
 10
171.55
 20
84.4
 11
198.0
 21
84.4
  0
LINE
  8
0
  6
CONTINUOUS
 62
     3
 10
188.55
 20
16.4
 11
171.45
 21
16.4
  0
LINE
  8
0
  6
CONTINUOUS
 62
     3
 10
277.55
 20
86.4
 11
289.3
 21
86.4
  0
LINE
  8
0
  6
CONTINUOUS
 62
     3
 10
288.3
 20
86.4
 11
287.78236191
 21
84.468148347
  0
LINE
  8
0
  6
CONTINUOUS
 62
     3
 10
288.3
 20
86.4
 11
288.81763809
 21
84.468148347
  0
LINE
  8
0
  6
CONTINUOUS
 62
     3
 10
277.05
 20
98.9
 11
275.118148347
 21
99.41763809
  0
LINE
  8
0
  6
CONTINUOUS
 62
     3
 10
277.05
 20
98.9
 11
275.118148347
 21
98.38236191
  0
LINE
  8
0
  6
CONTINUOUS
 62
     3
 10
277.05
 20
86.75
 11
277.05
 21
99.9
  0
TEXT
  8
0
  6
CONTINUOUS
 62
     3
 10
257.225
 20
99.9
 30
0.3
 40
2.7
  1
３６
 50
0.0
 41
0.666666667
 51
0.0
  7
KANJI3
  0
LINE
  8
0
  6
CONTINUOUS
 62
     3
 10
241.3
 20
98.9
 11
277.05
 21
98.9
  0
LINE
  8
0
  6
CONTINUOUS
 62
     3
 10
288.3
 20
14.4
 11
288.81763809
 21
16.331851653
  0
LINE
  8
0
  6
CONTINUOUS
 62
     3
 10
288.3
 20
14.4
 11
287.78236191
 21
16.331851653
  0
LINE
  8
0
  6
CONTINUOUS
 62
     3
 10
277.8
 20
14.4
 11
289.3
 21
14.4
  0
LINE
  8
0
  6
CONTINUOUS
 62
     3
 10
263.925
 20
75.9
 11
263.925
 21
73.9
  0
LINE
  8
0
  6
CONTINUOUS
 62
     3
 10
263.925
 20
73.9
 11
267.675
 21
73.9
  0
LINE
  8
0
  6
CONTINUOUS
 62
     3
 10
267.675
 20
73.9
 11
267.675
 21
75.9
  0
LINE
  8
0
  6
CONTINUOUS
 62
     3
 10
267.675
 20
75.9
 11
269.925
 21
75.9
  0
LINE
  8
0
  6
CONTINUOUS
 62
     3
 10
269.925
 20
76.65
 11
260.8
 21
76.65
  0
LINE
  8
0
  6
CONTINUOUS
 62
     3
 10
260.8
 20
76.65
 11
260.8
 21
75.9
  0
LINE
  8
0
  6
CONTINUOUS
 62
     3
 10
260.8
 20
75.9
 11
263.925
 21
75.9
  0
LINE
  8
0
  6
CONTINUOUS
 62
     3
 10
270.8
 20
75.9
 11
270.8
 21
76.65
  0
LINE
  8
0
  6
CONTINUOUS
 62
     3
 10
270.8
 20
76.65
 11
269.8
 21
76.65
  0
LINE
  8
0
  6
CONTINUOUS
 62
     3
 10
269.8
 20
75.9
 11
270.8
 21
75.9
  0
LINE
  8
0
  6
CONTINUOUS
 62
     3
 10
263.925
 20
70.9
 11
263.925
 21
68.9
  0
LINE
  8
0
  6
CONTINUOUS
 62
     3
 10
263.925
 20
68.9
 11
267.675
 21
68.9
  0
LINE
  8
0
  6
CONTINUOUS
 62
     3
 10
267.675
 20
68.9
 11
267.675
 21
70.9
  0
LINE
  8
0
  6
CONTINUOUS
 62
     3
 10
267.675
 20
70.9
 11
269.925
 21
70.9
  0
LINE
  8
0
  6
CONTINUOUS
 62
     3
 10
269.925
 20
71.65
 11
260.8
 21
71.65
  0
LINE
  8
0
  6
CONTINUOUS
 62
     3
 10
260.8
 20
71.65
 11
260.8
 21
70.9
  0
LINE
  8
0
  6
CONTINUOUS
 62
     3
 10
260.8
 20
70.9
 11
263.925
 21
70.9
  0
LINE
  8
0
  6
CONTINUOUS
 62
     3
 10
270.8
 20
70.9
 11
270.8
 21
71.65
  0
LINE
  8
0
  6
CONTINUOUS
 62
     3
 10
270.8
 20
71.65
 11
269.8
 21
71.65
  0
LINE
  8
0
  6
CONTINUOUS
 62
     3
 10
269.8
 20
70.9
 11
270.8
 21
70.9
  0
LINE
  8
0
  6
CONTINUOUS
 62
     3
 10
263.925
 20
65.9
 11
263.925
 21
63.9
  0
LINE
  8
0
  6
CONTINUOUS
 62
     3
 10
263.925
 20
63.9
 11
267.675
 21
63.9
  0
LINE
  8
0
  6
CONTINUOUS
 62
     3
 10
267.675
 20
63.9
 11
267.675
 21
65.9
  0
LINE
  8
0
  6
CONTINUOUS
 62
     3
 10
267.675
 20
65.9
 11
269.925
 21
65.9
  0
LINE
  8
0
  6
CONTINUOUS
 62
     3
 10
269.925
 20
66.65
 11
260.8
 21
66.65
  0
LINE
  8
0
  6
CONTINUOUS
 62
     3
 10
260.8
 20
66.65
 11
260.8
 21
65.9
  0
LINE
  8
0
  6
CONTINUOUS
 62
     3
 10
260.8
 20
65.9
 11
263.925
 21
65.9
  0
LINE
  8
0
  6
CONTINUOUS
 62
     3
 10
270.8
 20
65.9
 11
270.8
 21
66.65
  0
LINE
  8
0
  6
CONTINUOUS
 62
     3
 10
270.8
 20
66.65
 11
269.8
 21
66.65
  0
LINE
  8
0
  6
CONTINUOUS
 62
     3
 10
269.8
 20
65.9
 11
270.8
 21
65.9
  0
LINE
  8
0
  6
CONTINUOUS
 62
     3
 10
269.925
 20
61.65
 11
260.8
 21
61.65
  0
LINE
  8
0
  6
CONTINUOUS
 62
     3
 10
270.8
 20
61.65
 11
269.8
 21
61.65
  0
LINE
  8
0
  6
CONTINUOUS
 62
     3
 10
272.3
 20
22.15
 11
272.300000001
 21
78.65
  0
LINE
  8
0
  6
CONTINUOUS
 62
     3
 10
272.300000001
 20
78.65
 11
259.300000001
 21
78.65
  0
LINE
  8
0
  6
CONTINUOUS
 62
     3
 10
259.300000001
 20
78.65
 11
259.3
 21
22.15
  0
POINT
  8
0
  6
CONTINUOUS
 62
     3
 10
257.8
 20
70.15
  0
LINE
  8
0
  6
CONTINUOUS
 62
     3
 10
263.925
 20
58.9
 11
267.675
 21
58.9
  0
LINE
  8
0
  6
CONTINUOUS
 62
     3
 10
263.925
 20
55.9
 11
263.925
 21
53.9
  0
LINE
  8
0
  6
CONTINUOUS
 62
     3
 10
263.925
 20
53.9
 11
267.675
 21
53.9
  0
LINE
  8
0
  6
CONTINUOUS
 62
     3
 10
267.675
 20
53.9
 11
267.675
 21
55.9
  0
LINE
  8
0
  6
CONTINUOUS
 62
     3
 10
267.675
 20
55.9
 11
269.925
 21
55.9
  0
LINE
  8
0
  6
CONTINUOUS
 62
     3
 10
269.925
 20
56.65
 11
260.8
 21
56.65
  0
LINE
  8
0
  6
CONTINUOUS
 62
     3
 10
260.8
 20
56.65
 11
260.8
 21
55.9
  0
LINE
  8
0
  6
CONTINUOUS
 62
     3
 10
260.8
 20
55.9
 11
263.925
 21
55.9
  0
LINE
  8
0
  6
CONTINUOUS
 62
     3
 10
270.8
 20
55.9
 11
270.8
 21
56.65
  0
LINE
  8
0
  6
CONTINUOUS
 62
     3
 10
270.8
 20
56.65
 11
269.8
 21
56.65
  0
LINE
  8
0
  6
CONTINUOUS
 62
     3
 10
269.8
 20
55.9
 11
270.8
 21
55.9
  0
LINE
  8
0
  6
CONTINUOUS
 62
     3
 10
263.925
 20
46.15
 11
263.925
 21
44.15
  0
LINE
  8
0
  6
CONTINUOUS
 62
     3
 10
263.925
 20
44.15
 11
267.675
 21
44.15
  0
LINE
  8
0
  6
CONTINUOUS
 62
     3
 10
267.675
 20
44.15
 11
267.675
 21
46.15
  0
LINE
  8
0
  6
CONTINUOUS
 62
     3
 10
267.675
 20
46.15
 11
269.925
 21
46.15
  0
LINE
  8
0
  6
CONTINUOUS
 62
     3
 10
269.925
 20
46.9
 11
260.8
 21
46.9
  0
LINE
  8
0
  6
CONTINUOUS
 62
     3
 10
260.8
 20
46.9
 11
260.8
 21
46.15
  0
LINE
  8
0
  6
CONTINUOUS
 62
     3
 10
260.8
 20
46.15
 11
263.925
 21
46.15
  0
LINE
  8
0
  6
CONTINUOUS
 62
     3
 10
270.8
 20
46.15
 11
270.8
 21
46.9
  0
LINE
  8
0
  6
CONTINUOUS
 62
     3
 10
270.8
 20
46.9
 11
269.8
 21
46.9
  0
LINE
  8
0
  6
CONTINUOUS
 62
     3
 10
269.8
 20
46.15
 11
270.8
 21
46.15
  0
LINE
  8
0
  6
CONTINUOUS
 62
     3
 10
263.925
 20
41.15
 11
263.925
 21
39.15
  0
LINE
  8
0
  6
CONTINUOUS
 62
     3
 10
263.925
 20
39.15
 11
267.675
 21
39.15
  0
LINE
  8
0
  6
CONTINUOUS
 62
     3
 10
267.675
 20
39.15
 11
267.675
 21
41.15
  0
LINE
  8
0
  6
CONTINUOUS
 62
     3
 10
267.675
 20
41.15
 11
269.925
 21
41.15
  0
LINE
  8
0
  6
CONTINUOUS
 62
     3
 10
269.925
 20
41.9
 11
260.8
 21
41.9
  0
LINE
  8
0
  6
CONTINUOUS
 62
     3
 10
260.8
 20
41.9
 11
260.8
 21
41.15
  0
LINE
  8
0
  6
CONTINUOUS
 62
     3
 10
260.8
 20
41.15
 11
263.925
 21
41.15
  0
LINE
  8
0
  6
CONTINUOUS
 62
     3
 10
270.8
 20
41.15
 11
270.8
 21
41.9
  0
LINE
  8
0
  6
CONTINUOUS
 62
     3
 10
270.8
 20
41.9
 11
269.8
 21
41.9
  0
LINE
  8
0
  6
CONTINUOUS
 62
     3
 10
269.8
 20
41.15
 11
270.8
 21
41.15
  0
LINE
  8
0
  6
CONTINUOUS
 62
     3
 10
263.925
 20
41.15
 11
263.925
 21
39.15
  0
LINE
  8
0
  6
CONTINUOUS
 62
     3
 10
263.925
 20
39.15
 11
267.675
 21
39.15
  0
LINE
  8
0
  6
CONTINUOUS
 62
     3
 10
267.675
 20
39.15
 11
267.675
 21
41.15
  0
LINE
  8
0
  6
CONTINUOUS
 62
     3
 10
267.675
 20
41.15
 11
269.925
 21
41.15
  0
LINE
  8
0
  6
CONTINUOUS
 62
     3
 10
269.925
 20
41.9
 11
260.8
 21
41.9
  0
LINE
  8
0
  6
CONTINUOUS
 62
     3
 10
260.8
 20
41.9
 11
260.8
 21
41.15
  0
LINE
  8
0
  6
CONTINUOUS
 62
     3
 10
260.8
 20
41.15
 11
263.925
 21
41.15
  0
LINE
  8
0
  6
CONTINUOUS
 62
     3
 10
270.8
 20
41.15
 11
270.8
 21
41.9
  0
LINE
  8
0
  6
CONTINUOUS
 62
     3
 10
270.8
 20
41.9
 11
269.8
 21
41.9
  0
LINE
  8
0
  6
CONTINUOUS
 62
     3
 10
269.8
 20
41.15
 11
270.8
 21
41.15
  0
LINE
  8
0
  6
CONTINUOUS
 62
     3
 10
267.675
 20
36.15
 11
269.925
 21
36.15
  0
LINE
  8
0
  6
CONTINUOUS
 62
     3
 10
269.925
 20
36.9
 11
260.8
 21
36.9
  0
LINE
  8
0
  6
CONTINUOUS
 62
     3
 10
260.8
 20
36.9
 11
260.8
 21
36.15
  0
LINE
  8
0
  6
CONTINUOUS
 62
     3
 10
260.8
 20
36.15
 11
263.925
 21
36.15
  0
LINE
  8
0
  6
CONTINUOUS
 62
     3
 10
270.8
 20
36.15
 11
270.8
 21
36.9
  0
LINE
  8
0
  6
CONTINUOUS
 62
     3
 10
270.8
 20
36.9
 11
269.8
 21
36.9
  0
LINE
  8
0
  6
CONTINUOUS
 62
     3
 10
269.8
 20
36.15
 11
270.8
 21
36.15
  0
LINE
  8
0
  6
CONTINUOUS
 62
     3
 10
263.925
 20
60.9
 11
263.925
 21
58.9
  0
LINE
  8
0
  6
CONTINUOUS
 62
     3
 10
267.675
 20
58.9
 11
267.675
 21
60.9
  0
LINE
  8
0
  6
CONTINUOUS
 62
     3
 10
267.675
 20
60.9
 11
269.925
 21
60.9
  0
LINE
  8
0
  6
CONTINUOUS
 62
     3
 10
260.8
 20
61.65
 11
260.8
 21
60.9
  0
LINE
  8
0
  6
CONTINUOUS
 62
     3
 10
260.8
 20
60.9
 11
263.925
 21
60.9
  0
LINE
  8
0
  6
CONTINUOUS
 62
     3
 10
270.8
 20
60.9
 11
270.8
 21
61.65
  0
LINE
  8
0
  6
CONTINUOUS
 62
     3
 10
269.8
 20
60.9
 11
270.8
 21
60.9
  0
LINE
  8
0
  6
CONTINUOUS
 62
     3
 10
263.925
 20
34.15
 11
267.675
 21
34.15
  0
LINE
  8
0
  6
CONTINUOUS
 62
     3
 10
263.925
 20
31.15
 11
263.925
 21
29.15
  0
LINE
  8
0
  6
CONTINUOUS
 62
     3
 10
263.925
 20
29.15
 11
267.675
 21
29.15
  0
LINE
  8
0
  6
CONTINUOUS
 62
     3
 10
267.675
 20
29.15
 11
267.675
 21
31.15
  0
LINE
  8
0
  6
CONTINUOUS
 62
     3
 10
267.675
 20
31.15
 11
269.925
 21
31.15
  0
LINE
  8
0
  6
CONTINUOUS
 62
     3
 10
269.925
 20
31.9
 11
260.8
 21
31.9
  0
LINE
  8
0
  6
CONTINUOUS
 62
     3
 10
260.8
 20
31.9
 11
260.8
 21
31.15
  0
LINE
  8
0
  6
CONTINUOUS
 62
     3
 10
260.8
 20
31.15
 11
263.925
 21
31.15
  0
LINE
  8
0
  6
CONTINUOUS
 62
     3
 10
270.8
 20
31.15
 11
270.8
 21
31.9
  0
LINE
  8
0
  6
CONTINUOUS
 62
     3
 10
270.8
 20
31.9
 11
269.8
 21
31.9
  0
LINE
  8
0
  6
CONTINUOUS
 62
     3
 10
269.8
 20
31.15
 11
270.8
 21
31.15
  0
LINE
  8
0
  6
CONTINUOUS
 62
     3
 10
263.925
 20
31.15
 11
263.925
 21
29.15
  0
LINE
  8
0
  6
CONTINUOUS
 62
     3
 10
263.925
 20
29.15
 11
267.675
 21
29.15
  0
LINE
  8
0
  6
CONTINUOUS
 62
     3
 10
267.675
 20
29.15
 11
267.675
 21
31.15
  0
LINE
  8
0
  6
CONTINUOUS
 62
     3
 10
267.675
 20
31.15
 11
269.925
 21
31.15
  0
LINE
  8
0
  6
CONTINUOUS
 62
     3
 10
269.925
 20
31.9
 11
260.8
 21
31.9
  0
LINE
  8
0
  6
CONTINUOUS
 62
     3
 10
260.8
 20
31.9
 11
260.8
 21
31.15
  0
LINE
  8
0
  6
CONTINUOUS
 62
     3
 10
260.8
 20
31.15
 11
263.925
 21
31.15
  0
LINE
  8
0
  6
CONTINUOUS
 62
     3
 10
270.8
 20
31.15
 11
270.8
 21
31.9
  0
LINE
  8
0
  6
CONTINUOUS
 62
     3
 10
270.8
 20
31.9
 11
269.8
 21
31.9
  0
LINE
  8
0
  6
CONTINUOUS
 62
     3
 10
269.8
 20
31.15
 11
270.8
 21
31.15
  0
LINE
  8
0
  6
CONTINUOUS
 62
     3
 10
263.925
 20
26.15
 11
263.925
 21
24.15
  0
LINE
  8
0
  6
CONTINUOUS
 62
     3
 10
263.925
 20
24.15
 11
267.675
 21
24.15
  0
LINE
  8
0
  6
CONTINUOUS
 62
     3
 10
267.675
 20
24.15
 11
267.675
 21
26.15
  0
LINE
  8
0
  6
CONTINUOUS
 62
     3
 10
267.675
 20
26.15
 11
269.925
 21
26.15
  0
LINE
  8
0
  6
CONTINUOUS
 62
     3
 10
269.925
 20
26.9
 11
260.8
 21
26.9
  0
LINE
  8
0
  6
CONTINUOUS
 62
     3
 10
260.8
 20
26.9
 11
260.8
 21
26.15
  0
LINE
  8
0
  6
CONTINUOUS
 62
     3
 10
260.8
 20
26.15
 11
263.925
 21
26.15
  0
LINE
  8
0
  6
CONTINUOUS
 62
     3
 10
270.8
 20
26.15
 11
270.8
 21
26.9
  0
LINE
  8
0
  6
CONTINUOUS
 62
     3
 10
270.8
 20
26.9
 11
269.8
 21
26.9
  0
LINE
  8
0
  6
CONTINUOUS
 62
     3
 10
269.8
 20
26.15
 11
270.8
 21
26.15
  0
LINE
  8
0
  6
CONTINUOUS
 62
     3
 10
259.3
 20
22.15
 11
272.3
 21
22.15
  0
LINE
  8
0
  6
CONTINUOUS
 62
     3
 10
263.925
 20
36.15
 11
263.925
 21
34.15
  0
LINE
  8
0
  6
CONTINUOUS
 62
     3
 10
267.675
 20
34.15
 11
267.675
 21
36.15
  0
LINE
  8
0
  6
LTYPE1
 62
     3
 10
94.55
 20
139.15
 11
94.55
 21
150.35
  0
LINE
  8
0
  6
LTYPE1
 62
     3
 10
105.05
 20
139.15
 11
94.55
 21
139.15
  0
LINE
  8
0
  6
LTYPE1
 62
     3
 10
104.55
 20
151.65
 11
99.55
 21
148.15
  0
LINE
  8
0
  6
LTYPE1
 62
     3
 10
99.55
 20
148.15
 11
99.55
 21
140.15
  0
LINE
  8
0
  6
LTYPE1
 62
     3
 10
94.55
 20
140.15
 11
104.05
 21
140.15
  0
LINE
  8
0
  6
LTYPE1
 62
     3
 10
99.55
 20
147.65
 11
98.55
 21
147.65
  0
LINE
  8
0
  6
LTYPE1
 62
     3
 10
98.55
 20
147.65
 11
98.55
 21
140.15
  0
LINE
  8
0
  6
LTYPE1
 62
     3
 10
98.55
 20
145.65
 11
102.05
 21
145.65
  0
LINE
  8
0
  6
LTYPE1
 62
     3
 10
102.05
 20
142.65
 11
98.55
 21
142.65
  0
LINE
  8
0
  6
LTYPE1
 62
     3
 10
98.55
 20
143.15
 11
102.05
 21
143.15
  0
LINE
  8
0
  6
LTYPE1
 62
     3
 10
102.05
 20
145.15
 11
98.55
 21
145.15
  0
LINE
  8
0
  6
LTYPE1
 62
     3
 10
98.55
 20
146.65
 11
97.35
 21
146.65
  0
ARC
  8
0
  6
LTYPE1
 62
     3
 10
97.35
 20
145.85
 40
0.8
 50
90.0
 51
180.0
  0
LINE
  8
0
  6
LTYPE1
 62
     3
 10
97.35
 20
141.65
 11
98.55
 21
141.65
  0
LINE
  8
0
  6
LTYPE1
 62
     3
 10
96.55
 20
145.85
 11
96.55
 21
142.45
  0
ARC
  8
0
  6
LTYPE1
 62
     3
 10
97.35
 20
142.45
 40
0.8
 50
180.0
 51
270.0
  0
LINE
  8
0
  6
LTYPE1
 62
     3
 10
95.85
 20
151.65
 11
105.05
 21
151.65
  0
LINE
  8
0
  6
LTYPE1
 62
     3
 10
105.05
 20
139.15
 11
105.05
 21
145.15
  0
LINE
  8
0
  6
LTYPE1
 62
     3
 10
104.05
 20
140.15
 11
104.05
 21
145.65
  0
LINE
  8
0
  6
LTYPE1
 62
     3
 10
107.05
 20
133.65
 11
100.75
 21
133.65
  0
LINE
  8
0
  6
LTYPE1
 62
     3
 10
106.05
 20
127.65
 11
106.05
 21
133.65
  0
LINE
  8
0
  6
LTYPE1
 62
     3
 10
104.05
 20
127.65
 11
99.6
 21
127.65
  0
LINE
  8
0
  6
LTYPE1
 62
     3
 10
106.05
 20
127.65
 11
106.05
 21
123.0125
  0
LINE
  8
0
  6
LTYPE1
 62
     3
 10
107.05
 20
123.0125
 11
107.05
 21
133.65
  0
LINE
  8
0
  6
LTYPE1
 62
     3
 10
92.55
 20
125.4
 11
99.05
 21
122.9
  0
LINE
  8
0
  6
LTYPE1
 62
     3
 10
99.55
 20
122.9
 11
99.55
 21
127.65
  0
LINE
  8
0
  6
LTYPE1
 62
     3
 10
99.05
 20
122.9
 11
107.05
 21
122.9
  0
LINE
  8
0
  6
LTYPE1
 62
     3
 10
92.55
 20
127.85
 11
92.55
 21
126.15
  0
LINE
  8
0
  6
LTYPE1
 62
     3
 10
92.55
 20
126.4
 11
92.55
 21
125.4
  0
LINE
  8
0
  6
LTYPE1
 62
     3
 10
92.55
 20
132.15
 11
98.05
 21
132.15
  0
LINE
  8
0
  6
LTYPE1
 62
     3
 10
98.05
 20
132.15
 11
98.05
 21
127.15
  0
ARC
  8
0
  6
LTYPE1
 62
     3
 10
97.35
 20
130.85
 40
0.8
 50
90.0
 51
180.0
  0
LINE
  8
0
  6
LTYPE1
 62
     3
 10
96.55
 20
130.85
 11
96.55
 21
128.45
  0
ARC
  8
0
  6
LTYPE1
 62
     3
 10
97.35
 20
128.45
 40
0.8
 50
180.0
 51
270.0
  0
LINE
  8
0
  6
LTYPE1
 62
     3
 10
98.05
 20
130.65
 11
102.05
 21
130.65
  0
LINE
  8
0
  6
LTYPE1
 62
     3
 10
102.05
 20
128.65
 11
98.05
 21
128.65
  0
LINE
  8
0
  6
LTYPE1
 62
     3
 10
102.05
 20
130.15
 11
98.05
 21
130.15
  0
LINE
  8
0
  6
LTYPE1
 62
     3
 10
102.05
 20
130.65
 11
102.05
 21
128.65
  0
LINE
  8
0
  6
LTYPE1
 62
     3
 10
98.05
 20
129.15
 11
102.05
 21
129.15
  0
LINE
  8
0
  6
LTYPE1
 62
     3
 10
97.35
 20
127.65
 11
98.05
 21
127.65
  0
LINE
  8
0
  6
LTYPE1
 62
     3
 10
98.05
 20
127.15
 11
92.55
 21
127.15
  0
LINE
  8
0
  6
CONTINUOUS
 62
     3
 10
244.050000001
 20
83.9
 11
244.050000001
 21
67.65
  0
LINE
  8
0
  6
CONTINUOUS
 62
     3
 10
258.800000001
 20
79.15
 11
258.8
 21
21.65
  0
LINE
  8
0
  6
CONTINUOUS
 62
     3
 10
258.800000001
 20
79.15
 11
272.800000001
 21
79.15
  0
LINE
  8
0
  6
CONTINUOUS
 62
     3
 10
272.8
 20
21.65
 11
272.800000001
 21
74.150000004
  0
LINE
  8
0
  6
CONTINUOUS
 62
     3
 10
272.800000001
 20
79.15
 11
272.800000001
 21
73.9
  0
LINE
  8
0
  6
CONTINUOUS
 62
     3
 10
258.8
 20
21.65
 11
272.8
 21
21.65
  0
LINE
  8
0
  6
CONTINUOUS
 62
     3
 10
251.800000001
 20
17.650000001
 11
251.800000001
 21
16.900000001
  0
LINE
  8
0
  6
CONTINUOUS
 62
     3
 10
248.550000001
 20
17.650000001
 11
251.800000001
 21
17.650000001
  0
LINE
  8
0
  6
CONTINUOUS
 62
     3
 10
248.550000001
 20
16.900000001
 11
248.550000001
 21
17.650000001
  0
TEXT
  8
0
  6
CONTINUOUS
 62
     3
 10
287.3
 20
48.45
 30
0.3
 40
2.7
  1
７２
 50
90.0
 41
0.666666667
 51
0.0
  7
KANJI3
  0
LINE
  8
0
  6
CONTINUOUS
 62
     3
 10
288.3
 20
86.4
 11
288.3
 21
14.4
  0
LINE
  8
0
  6
CONTINUOUS
 62
     3
 10
244.05
 20
16.9
 11
243.675
 21
16.525
  0
LINE
  8
0
  6
CONTINUOUS
 62
     3
 10
243.675000001
 20
84.275
 11
243.675
 21
16.525
  0
LINE
  8
0
  6
CONTINUOUS
 62
     3
 10
243.675
 20
16.525
 11
257.425
 21
16.525
  0
LINE
  8
0
  6
CONTINUOUS
 62
     3
 10
244.05
 20
16.9
 11
244.050000001
 21
67.4
  0
LINE
  8
0
  6
CONTINUOUS
 62
     3
 10
257.05
 20
16.9
 11
244.050000001
 21
16.9
  0
LINE
  8
0
  6
CONTINUOUS
 62
     3
 10
257.425
 20
16.525
 11
257.425000001
 21
84.275
  0
LINE
  8
0
  6
CONTINUOUS
 62
     3
 10
257.05
 20
16.9
 11
257.050000001
 21
83.9
  0
LINE
  8
0
  6
CONTINUOUS
 62
     3
 10
251.800000001
 20
83.15
 11
251.800000001
 21
83.9
  0
LINE
  8
0
  6
CONTINUOUS
 62
     3
 10
257.425000001
 20
84.275
 11
243.675000001
 21
84.275
  0
LINE
  8
0
  6
CONTINUOUS
 62
     3
 10
248.550000001
 20
83.15
 11
251.800000001
 21
83.15
  0
LINE
  8
0
  6
CONTINUOUS
 62
     3
 10
257.050000001
 20
83.9
 11
244.050000001
 21
83.9
  0
ARC
  8
0
  6
CONTINUOUS
 62
     1
 10
276.300000001
 20
85.65
 40
0.75
 50
0.0
 51
90.0
  0
ARC
  8
0
  6
CONTINUOUS
 62
     1
 10
276.300000001
 20
85.65
 40
0.75
 50
0.0
 51
90.0
  0
ARC
  8
0
  6
CONTINUOUS
 62
     1
 10
241.800000001
 20
85.65
 40
0.75
 50
90.0
 51
180.0
  0
ARC
  8
0
  6
CONTINUOUS
 62
     1
 10
241.800000001
 20
85.65
 40
0.75
 50
90.0
 51
180.0
  0
LINE
  8
0
  6
CONTINUOUS
 62
     1
 10
241.800000001
 20
86.4
 11
276.300000001
 21
86.4
  0
LINE
  8
0
  6
CONTINUOUS
 62
     1
 10
241.800000001
 20
86.4
 11
276.300000001
 21
86.4
  0
ARC
  8
0
  6
CONTINUOUS
 62
     1
 10
241.799999999
 20
15.15
 40
0.75
 50
180.0
 51
270.0
  0
ARC
  8
0
  6
CONTINUOUS
 62
     1
 10
241.799999999
 20
15.15
 40
0.75
 50
180.0
 51
270.0
  0
LINE
  8
0
  6
CONTINUOUS
 62
     1
 10
241.049999999
 20
15.15
 11
241.050000001
 21
85.65
  0
LINE
  8
0
  6
CONTINUOUS
 62
     1
 10
241.049999999
 20
15.15
 11
241.050000001
 21
85.65
  0
ARC
  8
0
  6
CONTINUOUS
 62
     1
 10
276.299999999
 20
15.15
 40
0.75
 50
270.0
 51
0.0
  0
ARC
  8
0
  6
CONTINUOUS
 62
     1
 10
276.299999999
 20
15.15
 40
0.75
 50
270.0
 51
0.0
  0
LINE
  8
0
  6
CONTINUOUS
 62
     1
 10
277.050000001
 20
85.65
 11
277.049999999
 21
15.15
  0
LINE
  8
0
  6
CONTINUOUS
 62
     1
 10
277.050000001
 20
85.65
 11
277.049999999
 21
15.15
  0
LINE
  8
0
  6
CONTINUOUS
 62
     1
 10
276.299999999
 20
14.4
 11
241.799999999
 21
14.4
  0
LINE
  8
0
  6
CONTINUOUS
 62
     1
 10
276.299999999
 20
14.4
 11
241.799999999
 21
14.4
  0
LINE
  8
0
  6
CONTINUOUS
 62
     1
 10
89.55
 20
153.65
 11
108.65
 21
153.65
  0
ARC
  8
0
  6
CONTINUOUS
 62
     1
 10
89.55
 20
152.65
 40
1.0
 50
90.0
 51
180.0
  0
LINE
  8
0
  6
CONTINUOUS
 62
     1
 10
88.55
 20
152.65
 11
88.55
 21
137.15
  0
ARC
  8
0
  6
CONTINUOUS
 62
     1
 10
89.6
 20
135.45
 40
1.0
 50
180.0
 51
270.0
  0
LINE
  8
0
  6
CONTINUOUS
 62
     1
 10
88.55
 20
135.3
 11
88.55
 21
137.15
  0
LINE
  8
0
  6
CONTINUOUS
 62
     1
 10
100.05
 20
134.4
 11
89.7
 21
134.4
  0
LINE
  8
0
  6
CONTINUOUS
 62
     1
 10
89.4
 20
127.9
 11
91.05
 21
127.9
  0
ARC
  8
0
  6
CONTINUOUS
 62
     1
 10
89.5
 20
126.85
 40
1.0
 50
90.0
 51
180.0
  0
LINE
  8
0
  6
CONTINUOUS
 62
     1
 10
100.05
 20
127.9
 11
101.05
 21
128.9
  0
LINE
  8
0
  6
CONTINUOUS
 62
     1
 10
101.05
 20
128.9
 11
101.05
 21
133.4
  0
LINE
  8
0
  6
CONTINUOUS
 62
     1
 10
91.05
 20
127.9
 11
100.05
 21
127.9
  0
LINE
  8
0
  6
CONTINUOUS
 62
     1
 10
101.05
 20
133.4
 11
100.05
 21
134.4
  0
ARC
  8
0
  6
CONTINUOUS
 62
     1
 10
89.45
 20
121.55
 40
1.0
 50
180.0
 51
270.0
  0
LINE
  8
0
  6
CONTINUOUS
 62
     1
 10
88.55
 20
121.65
 11
88.55
 21
126.95
  0
LINE
  8
0
  6
CONTINUOUS
 62
     1
 10
108.55
 20
120.65
 11
108.15
 21
120.65
  0
LINE
  8
0
  6
CONTINUOUS
 62
     1
 10
171.55
 20
120.65
 11
108.55
 21
120.65
  0
LINE
  8
0
  6
CONTINUOUS
 62
     1
 10
89.55
 20
120.65
 11
109.05
 21
120.65
  0
LINE
  8
0
  6
CONTINUOUS
 62
     1
 10
171.55
 20
119.15
 11
184.05
 21
119.15
  0
LINE
  8
0
  6
CONTINUOUS
 62
     1
 10
171.55
 20
120.65
 11
171.55
 21
119.1
  0
LINE
  8
0
  6
CONTINUOUS
 62
     1
 10
205.55
 20
119.65
 11
205.55
 21
154.65
  0
LINE
  8
0
  6
CONTINUOUS
 62
     1
 10
171.55
 20
153.65
 11
137.6
 21
153.65
  0
LINE
  8
0
  6
CONTINUOUS
 62
     1
 10
171.55
 20
155.1
 11
171.55
 21
153.65
  0
LINE
  8
0
  6
CONTINUOUS
 62
     1
 10
184.05
 20
155.15
 11
171.55
 21
155.15
  0
LINE
  8
0
  6
CONTINUOUS
 62
     1
 10
138.3
 20
153.65
 11
108.55
 21
153.65
  0
LINE
  8
0
  6
CONTINUOUS
 62
     1
 10
198.55
 20
86.4
 11
200.55
 21
86.4
  0
LINE
  8
0
  6
CONTINUOUS
 62
     1
 10
205.55
 20
14.4
 11
205.55
 21
86.4
  0
LINE
  8
0
  6
CONTINUOUS
 62
     1
 10
205.55
 20
86.4
 11
200.55
 21
86.4
  0
LINE
  8
0
  6
CONTINUOUS
 62
     1
 10
198.55
 20
14.4
 11
200.55
 21
14.4
  0
POINT
  8
0
  6
CONTINUOUS
 62
     1
 10
200.55
 20
14.4
  0
LINE
  8
0
  6
CONTINUOUS
 62
     1
 10
200.55
 20
86.4
 11
200.55
 21
14.4
  0
LINE
  8
0
  6
CONTINUOUS
 62
     1
 10
200.55
 20
14.4
 11
205.55
 21
14.4
  0
POINT
  8
0
  6
CONTINUOUS
 62
     1
 10
88.55
 20
16.4
  0
LINE
  8
0
  6
CONTINUOUS
 62
     1
 10
88.55
 20
16.4
 11
88.55
 21
18.4
  0
POINT
  8
0
  6
CONTINUOUS
 62
     1
 10
88.55
 20
18.4
  0
LINE
  8
0
  6
CONTINUOUS
 62
     1
 10
88.55
 20
84.4
 11
88.55
 21
82.4
  0
LINE
  8
0
  6
CONTINUOUS
 62
     1
 10
88.55
 20
82.4
 11
101.55
 21
82.4
  0
ARC
  8
0
  6
CONTINUOUS
 62
     1
 10
111.156258612
 20
79.903534409
 40
1.0
 50
90.8
 51
180.8
  0
LINE
  8
0
  6
CONTINUOUS
 62
     1
 10
110.15
 20
79.85
 11
110.15
 21
45.4
  0
ARC
  8
0
  6
CONTINUOUS
 62
     1
 10
164.15
 20
79.9
 40
1.0
 50
0.0
 51
90.0
  0
ARC
  8
0
  6
CONTINUOUS
 62
     1
 10
168.15
 20
79.9
 40
1.0
 50
90.0
 51
180.0
  0
LINE
  8
0
  6
CONTINUOUS
 62
     1
 10
167.15
 20
80.0
 11
167.15
 21
78.4
  0
LINE
  8
0
  6
CONTINUOUS
 62
     1
 10
172.05
 20
80.9
 11
168.15
 21
80.9
  0
LINE
  8
0
  6
CONTINUOUS
 62
     1
 10
164.25
 20
80.9
 11
111.15
 21
80.9
  0
ARC
  8
0
  6
CONTINUOUS
 62
     1
 10
164.15
 20
20.9
 40
1.0
 50
270.0
 51
0.0
  0
ARC
  8
0
  6
CONTINUOUS
 62
     1
 10
168.15
 20
20.9
 40
1.0
 50
180.0
 51
270.0
  0
LINE
  8
0
  6
CONTINUOUS
 62
     1
 10
167.15
 20
20.8
 11
167.15
 21
22.4
  0
LINE
  8
0
  6
CONTINUOUS
 62
     1
 10
165.15
 20
20.9
 11
165.15
 21
67.8
  0
LINE
  8
0
  6
CONTINUOUS
 62
     1
 10
167.15
 20
68.3
 11
167.15
 21
20.9
  0
LINE
  8
0
  6
CONTINUOUS
 62
     1
 10
168.25
 20
19.85
 11
171.85
 21
19.85
  0
LINE
  8
0
  6
CONTINUOUS
 62
     1
 10
165.15
 20
79.9
 11
165.15
 21
33.0
  0
LINE
  8
0
  6
CONTINUOUS
 62
     1
 10
167.15
 20
32.5
 11
167.15
 21
79.9
  0
ARC
  8
0
  6
CONTINUOUS
 62
     1
 10
111.156258612
 20
20.896465591
 40
1.0
 50
179.2
 51
269.2
  0
LINE
  8
0
  6
CONTINUOUS
 62
     1
 10
110.15
 20
20.95
 11
110.15
 21
45.85
  0
LINE
  8
0
  6
CONTINUOUS
 62
     1
 10
164.25
 20
19.9
 11
111.15
 21
19.9
  0
ARC
  8
0
  6
CONTINUOUS
 62
     1
 10
22.1
 20
85.6
 40
0.75
 50
90.0
 51
180.0
  0
ARC
  8
0
  6
CONTINUOUS
 62
     1
 10
56.6
 20
85.6
 40
0.75
 50
0.0
 51
90.0
  0
LINE
  8
0
  6
CONTINUOUS
 62
     1
 10
57.35
 20
85.6
 11
57.35
 21
49.85
  0
LINE
  8
0
  6
CONTINUOUS
 62
     1
 10
22.1
 20
86.35
 11
56.6
 21
86.35
  0
LINE
  8
0
  6
CONTINUOUS
 62
     1
 10
21.35
 20
49.85
 11
21.35
 21
85.6
  0
ARC
  8
0
  6
CONTINUOUS
 62
     1
 10
23.6
 20
83.6125
 40
0.75
 50
90.0
 51
180.0
  0
ARC
  8
0
  6
CONTINUOUS
 62
     1
 10
23.6
 20
83.1125
 40
0.75
 50
180.0
 51
270.0
  0
LINE
  8
0
  6
CONTINUOUS
 62
     1
 10
22.85
 20
83.5875
 11
22.85
 21
50.35
  0
LINE
  8
0
  6
CONTINUOUS
 62
     1
 10
39.35
 20
84.35
 11
23.6
 21
84.35
  0
ARC
  8
0
  6
CONTINUOUS
 62
     1
 10
55.1
 20
83.6125
 40
0.75
 50
0.0
 51
90.0
  0
LINE
  8
0
  6
CONTINUOUS
 62
     1
 10
55.85
 20
50.35
 11
55.85
 21
83.5875
  0
LINE
  8
0
  6
CONTINUOUS
 62
     1
 10
39.35
 20
84.3625
 11
55.1
 21
84.3625
  0
LINE
  8
0
  6
CONTINUOUS
 62
     1
 10
55.1
 20
82.3625
 11
23.6
 21
82.3625
  0
ARC
  8
0
  6
CONTINUOUS
 62
     1
 10
55.1
 20
83.1125
 40
0.75
 50
270.0
 51
0.0
  0
ARC
  8
0
  6
CONTINUOUS
 62
     1
 10
56.6
 20
15.1
 40
0.75
 50
270.0
 51
0.0
  0
ARC
  8
0
  6
CONTINUOUS
 62
     1
 10
55.1
 20
17.0875
 40
0.75
 50
270.0
 51
0.0
  0
LINE
  8
0
  6
CONTINUOUS
 62
     1
 10
39.35
 20
16.3375
 11
55.1
 21
16.3375
  0
ARC
  8
0
  6
CONTINUOUS
 62
     1
 10
55.1
 20
17.5875
 40
0.75
 50
0.0
 51
90.0
  0
LINE
  8
0
  6
CONTINUOUS
 62
     1
 10
57.35
 20
15.1
 11
57.35
 21
50.85
  0
LINE
  8
0
  6
CONTINUOUS
 62
     1
 10
55.85
 20
50.35
 11
55.85
 21
17.0875
  0
ARC
  8
0
  6
CONTINUOUS
 62
     1
 10
22.1
 20
15.1
 40
0.75
 50
180.0
 51
270.0
  0
ARC
  8
0
  6
CONTINUOUS
 62
     1
 10
23.6
 20
17.0875
 40
0.75
 50
180.0
 51
270.0
  0
LINE
  8
0
  6
CONTINUOUS
 62
     1
 10
39.35
 20
16.35
 11
23.6
 21
16.35
  0
ARC
  8
0
  6
CONTINUOUS
 62
     1
 10
23.6
 20
17.5875
 40
0.75
 50
90.0
 51
180.0
  0
LINE
  8
0
  6
CONTINUOUS
 62
     1
 10
21.35
 20
50.85
 11
21.35
 21
15.1
  0
LINE
  8
0
  6
CONTINUOUS
 62
     1
 10
22.85
 20
17.1
 11
22.85
 21
50.35
  0
LINE
  8
0
  6
CONTINUOUS
 62
     1
 10
22.1
 20
14.35
 11
56.6
 21
14.35
  0
LINE
  8
0
  6
CONTINUOUS
 62
     1
 10
55.1
 20
18.3375
 11
23.6
 21
18.3375
  0
LINE
  8
0
  6
CONTINUOUS
 62
     1
 10
40.35
 20
18.3625
 11
40.35
 21
50.35
  0
LINE
  8
0
  6
CONTINUOUS
 62
     1
 10
38.35
 20
50.35
 11
38.35
 21
18.6125
  0
LINE
  8
0
  6
CONTINUOUS
 62
     1
 10
40.35
 20
82.3625
 11
40.35
 21
50.35
  0
LINE
  8
0
  6
CONTINUOUS
 62
     1
 10
38.35
 20
50.35
 11
38.35
 21
82.3625
  0
LINE
  8
0
  6
CONTINUOUS
 62
     1
 10
171.75
 20
84.2
 11
171.75
 21
13.95
  0
ARC
  8
0
  6
CONTINUOUS
 62
     1
 10
164.388475656
 20
44.140543052
 40
35.0
 50
249.532822997
 51
291.383889919
  0
ARC
  8
0
  6
CONTINUOUS
 62
     1
 10
165.05
 20
12.85
 40
1.0
 50
180.0
 51
275.710593137
  0
LINE
  8
0
  6
CONTINUOUS
 62
     1
 10
164.05
 20
12.95
 11
164.05
 21
13.25
  0
LINE
  8
0
  6
CONTINUOUS
 62
     1
 10
140.85
 20
9.3
 11
163.85
 21
13.216666667
  0
LINE
  8
0
  6
CONTINUOUS
 62
     1
 10
140.862777616
 20
9.370686307
 11
140.462777616
 21
11.370686307
  0
LINE
  8
0
  6
CONTINUOUS
 62
     1
 10
140.4
 20
11.5
 11
168.15
 21
16.0
  0
POINT
  8
0
  6
CONTINUOUS
 62
     1
 10
189.25
 20
12.95
  0
LINE
  8
0
  6
CONTINUOUS
 62
     1
 10
191.75
 20
12.95
 11
191.75
 21
13.95
  0
LINE
  8
0
  6
CONTINUOUS
 62
     1
 10
189.75
 20
12.95
 11
191.75
 21
12.95
  0
LINE
  8
0
  6
CONTINUOUS
 62
     1
 10
189.75
 20
9.2
 11
189.75
 21
12.95
  0
LINE
  8
0
  6
CONTINUOUS
 62
     1
 10
189.75
 20
9.2
 11
191.75
 21
9.2
  0
LINE
  8
0
  6
CONTINUOUS
 62
     1
 10
191.75
 20
8.95
 11
191.75
 21
7.95
  0
LINE
  8
0
  6
CONTINUOUS
 62
     1
 10
198.25
 20
7.95
 11
191.75
 21
7.95
  0
LINE
  8
0
  6
CONTINUOUS
 62
     1
 10
186.25
 20
13.95
 11
186.25
 21
12.95
  0
ARC
  8
0
  6
CONTINUOUS
 62
     1
 10
185.25
 20
12.95
 40
1.0
 50
270.0
 51
0.0
  0
LINE
  8
0
  6
CONTINUOUS
 62
     1
 10
185.05
 20
11.85
 11
165.15
 21
11.85
  0
LINE
  8
0
  6
CONTINUOUS
 62
     1
 10
202.25
 20
12.95
 11
202.25
 21
9.25
  0
LINE
  8
0
  6
CONTINUOUS
 62
     1
 10
198.25
 20
16.9
 11
198.25
 21
13.95
  0
LINE
  8
0
  6
CONTINUOUS
 62
     1
 10
198.25
 20
13.95
 11
198.25
 21
12.95
  0
LINE
  8
0
  6
CONTINUOUS
 62
     1
 10
190.35
 20
12.95
 11
202.25
 21
12.95
  0
LINE
  8
0
  6
CONTINUOUS
 62
     1
 10
198.45
 20
13.95
 11
171.75
 21
13.95
  0
LINE
  8
0
  6
CONTINUOUS
 62
     1
 10
198.25
 20
7.95
 11
198.25
 21
9.25
  0
LINE
  8
0
  6
CONTINUOUS
 62
     1
 10
202.25
 20
9.2
 11
191.25
 21
9.2
  0
LINE
  8
0
  6
CONTINUOUS
 62
     1
 10
171.55
 20
16.4
 11
88.55
 21
16.4
  0
LINE
  8
0
  6
CONTINUOUS
 62
     1
 10
168.25
 20
15.971872166
 11
171.05
 21
16.216840424
  0
LINE
  8
0
  6
CONTINUOUS
 62
     1
 10
171.55
 20
84.4
 11
88.55
 21
84.4
  0
ARC
  8
0
  6
CONTINUOUS
 62
     1
 10
165.05
 20
87.95
 40
1.0
 50
84.289406863
 51
180.0
  0
LINE
  8
0
  6
CONTINUOUS
 62
     1
 10
169.75
 20
86.85
 11
169.75
 21
84.65
  0
LINE
  8
0
  6
CONTINUOUS
 62
     1
 10
164.05
 20
87.701086957
 11
140.95
 21
91.3
  0
LINE
  8
0
  6
CONTINUOUS
 62
     1
 10
167.5
 20
84.9375
 11
167.597437725
 21
84.9375
  0
LINE
  8
0
  6
CONTINUOUS
 62
     1
 10
140.362777616
 20
89.270686307
 11
140.862777616
 21
91.270686307
  0
LINE
  8
0
  6
CONTINUOUS
 62
     1
 10
140.467517854
 20
89.339647262
 11
169.967517854
 21
84.589647262
  0
POINT
  8
0
  6
CONTINUOUS
 62
     1
 10
189.25
 20
88.05
  0
LINE
  8
0
  6
CONTINUOUS
 62
     1
 10
186.25
 20
86.95
 11
186.25
 21
87.95
  0
LINE
  8
0
  6
CONTINUOUS
 62
     1
 10
185.25
 20
88.95
 11
176.75
 21
88.95
  0
ARC
  8
0
  6
CONTINUOUS
 62
     1
 10
185.25
 20
87.95
 40
1.0
 50
0.0
 51
95.71059314
  0
LINE
  8
0
  6
CONTINUOUS
 62
     1
 10
191.75
 20
91.7
 11
191.75
 21
93.2
  0
LINE
  8
0
  6
CONTINUOUS
 62
     1
 10
189.25
 20
91.7
 11
189.25
 21
87.95
  0
LINE
  8
0
  6
CONTINUOUS
 62
     1
 10
191.75
 20
88.05
 11
191.75
 21
87.05
  0
LINE
  8
0
  6
CONTINUOUS
 62
     1
 10
177.179085418
 20
88.95
 11
165.15
 21
88.95
  0
ARC
  8
0
  6
CONTINUOUS
 62
     1
 10
164.388475656
 20
56.659456948
 40
35.0
 50
68.616110081
 51
110.467177003
  0
LINE
  8
0
  6
CONTINUOUS
 62
     1
 10
198.25
 20
86.95
 11
169.75
 21
86.95
  0
LINE
  8
0
  6
CONTINUOUS
 62
     1
 10
191.75
 20
93.2
 11
198.25
 21
93.2
  0
LINE
  8
0
  6
CONTINUOUS
 62
     1
 10
198.25
 20
93.2
 11
198.25
 21
91.95
  0
LINE
  8
0
  6
CONTINUOUS
 62
     1
 10
202.25
 20
91.7
 11
189.25
 21
91.7
  0
LINE
  8
0
  6
CONTINUOUS
 62
     1
 10
202.25
 20
87.95
 11
202.25
 21
91.7
  0
LINE
  8
0
  6
CONTINUOUS
 62
     1
 10
198.25
 20
86.95
 11
198.25
 21
87.95
  0
LINE
  8
0
  6
CONTINUOUS
 62
     1
 10
198.25
 20
87.2
 11
198.25
 21
16.9
  0
LINE
  8
0
  6
CONTINUOUS
 62
     1
 10
189.25
 20
87.95
 11
202.25
 21
87.95
  0
LINE
  8
0
  6
CONTINUOUS
 62
     1
 10
141.0
 20
148.15
 11
141.0
 21
137.15
  0
ARC
  8
0
  6
CONTINUOUS
 62
     1
 10
141.7
 20
148.2
 40
0.75
 50
90.0
 51
180.0
  0
LINE
  8
0
  6
CONTINUOUS
 62
     1
 10
141.0
 20
126.4
 11
141.0
 21
137.15
  0
ARC
  8
0
  6
CONTINUOUS
 62
     1
 10
142.0
 20
126.4
 40
0.75
 50
180.0
 51
180.27
  0
ARC
  8
0
  6
CONTINUOUS
 62
     1
 10
142.0
 20
126.4
 40
0.75
 50
180.0
 51
180.27
  0
ARC
  8
0
  6
CONTINUOUS
 62
     1
 10
142.0
 20
126.4
 40
1.0
 50
180.0
 51
270.0
  0
LINE
  8
0
  6
CONTINUOUS
 62
     1
 10
169.55
 20
125.15
 11
171.55
 21
120.65
  0
ARC
  8
0
  6
CONTINUOUS
 62
     1
 10
186.45
 20
125.95
 40
0.63
 50
270.0
 51
80.537677792
  0
LINE
  8
0
  6
CONTINUOUS
 62
     1
 10
186.5
 20
125.4
 11
170.1
 21
125.4
  0
ARC
  8
0
  6
CONTINUOUS
 62
     1
 10
161.7
 20
126.05
 40
0.6
 50
90.0
 51
180.0
  0
ARC
  8
0
  6
CONTINUOUS
 62
     1
 10
161.7
 20
126.05
 40
0.6
 50
180.0
 51
270.0
  0
LINE
  8
0
  6
CONTINUOUS
 62
     1
 10
170.0
 20
125.4
 11
142.0
 21
125.4
  0
LINE
  8
0
  6
CONTINUOUS
 62
     1
 10
161.75
 20
126.65
 11
186.4
 21
126.65
  0
LINE
  8
0
  6
CONTINUOUS
 62
     1
 10
186.5
 20
148.9
 11
170.1
 21
148.9
  0
ARC
  8
0
  6
CONTINUOUS
 62
     1
 10
186.45
 20
148.3
 40
0.7
 50
270.0
 51
71.565051178
  0
LINE
  8
0
  6
CONTINUOUS
 62
     1
 10
171.55
 20
153.65
 11
169.55
 21
149.15
  0
LINE
  8
0
  6
CONTINUOUS
 62
     1
 10
161.5
 20
147.65
 11
161.7
 21
147.65
  0
ARC
  8
0
  6
CONTINUOUS
 62
     1
 10
161.6
 20
148.3
 40
0.75
 50
90.0
 51
270.0
  0
LINE
  8
0
  6
CONTINUOUS
 62
     1
 10
161.5
 20
147.65
 11
186.4
 21
147.65
  0
LINE
  8
0
  6
CONTINUOUS
 62
     1
 10
170.25
 20
148.9
 11
141.75
 21
148.9
  0
LINE
  8
0
  6
CONTINUOUS
 62
     1
 10
152.0
 20
141.4
 11
152.0
 21
142.4
  0
LINE
  8
0
  6
CONTINUOUS
 62
     1
 10
152.0
 20
142.65
 11
170.0
 21
142.65
  0
LINE
  8
0
  6
CONTINUOUS
 62
     1
 10
182.75
 20
141.4
 11
152.25
 21
141.4
  0
POINT
  8
0
  6
CONTINUOUS
 62
     1
 10
154.55
 20
132.15
  0
LINE
  8
0
  6
CONTINUOUS
 62
     1
 10
183.0
 20
132.9
 11
152.5
 21
132.9
  0
LINE
  8
0
  6
CONTINUOUS
 62
     1
 10
152.0
 20
131.65
 11
152.0
 21
132.9
  0
LINE
  8
0
  6
CONTINUOUS
 62
     1
 10
152.0
 20
132.9
 11
152.5
 21
132.9
  0
LINE
  8
0
  6
CONTINUOUS
 62
     1
 10
171.2
 20
131.65
 11
152.0
 21
131.65
  0
POINT
  8
0
  6
CONTINUOUS
 62
     1
 10
198.5
 20
155.15
  0
LINE
  8
0
  6
CONTINUOUS
 62
     1
 10
205.55
 20
154.65
 11
200.55
 21
155.15
  0
LINE
  8
0
  6
CONTINUOUS
 62
     1
 10
198.5
 20
155.15
 11
184.0
 21
155.15
  0
LINE
  8
0
  6
CONTINUOUS
 62
     1
 10
198.5
 20
152.15
 11
192.3
 21
144.85
  0
LINE
  8
0
  6
CONTINUOUS
 62
     1
 10
198.5
 20
152.15
 11
201.5
 21
152.15
  0
ARC
  8
0
  6
CONTINUOUS
 62
     1
 10
201.55
 20
153.65
 40
1.5
 50
270.0
 51
90.0
  0
LINE
  8
0
  6
CONTINUOUS
 62
     1
 10
200.55
 20
155.15
 11
198.55
 21
155.15
  0
LINE
  8
0
  6
CONTINUOUS
 62
     1
 10
201.5
 20
155.15
 11
199.5
 21
155.15
  0
LINE
  8
0
  6
CONTINUOUS
 62
     1
 10
198.55
 20
155.15
 11
198.55
 21
154.3
  0
LINE
  8
0
  6
CONTINUOUS
 62
     1
 10
198.5
 20
142.35
 11
198.5
 21
137.15
  0
LINE
  8
0
  6
CONTINUOUS
 62
     1
 10
197.7
 20
143.15
 11
193.0
 21
143.15
  0
POINT
  8
0
  6
CONTINUOUS
 62
     1
 10
189.0
 20
143.15
  0
LINE
  8
0
  6
CONTINUOUS
 62
     1
 10
191.0
 20
140.9
 11
191.0
 21
137.15
  0
ARC
  8
0
  6
CONTINUOUS
 62
     1
 10
193.05
 20
144.15
 40
1.0
 50
127.568592029
 51
270.0
  0
ARC
  8
0
  6
CONTINUOUS
 62
     1
 10
190.0
 20
141.9
 40
1.0
 50
180.0
 51
270.0
  0
LINE
  8
0
  6
CONTINUOUS
 62
     1
 10
190.0
 20
140.9
 11
191.0
 21
140.9
  0
LINE
  8
0
  6
CONTINUOUS
 62
     1
 10
189.0
 20
143.15
 11
189.0
 21
141.9
  0
LINE
  8
0
  6
CONTINUOUS
 62
     1
 10
198.5
 20
139.9
 11
191.0
 21
139.9
  0
ARC
  8
0
  6
CONTINUOUS
 62
     1
 10
197.75
 20
142.4
 40
0.8
 50
0.0
 51
90.0
  0
LINE
  8
0
  6
CONTINUOUS
 62
     1
 10
199.5
 20
155.15
 11
189.0
 21
143.15
  0
LINE
  8
0
  6
CONTINUOUS
 62
     1
 10
200.55
 20
137.15
 11
200.55
 21
152.15
  0
LINE
  8
0
  6
CONTINUOUS
 62
     1
 10
198.55
 20
152.05
 11
198.55
 21
137.15
  0
LINE
  8
0
  6
CONTINUOUS
 62
     1
 10
198.5
 20
131.95
 11
198.5
 21
137.15
  0
LINE
  8
0
  6
CONTINUOUS
 62
     1
 10
197.7
 20
131.15
 11
194.45
 21
131.15
  0
POINT
  8
0
  6
CONTINUOUS
 62
     1
 10
190.5
 20
133.65
  0
LINE
  8
0
  6
CONTINUOUS
 62
     1
 10
193.0
 20
131.15
 11
194.95
 21
131.15
  0
LINE
  8
0
  6
CONTINUOUS
 62
     1
 10
191.0
 20
133.4
 11
191.0
 21
137.15
  0
ARC
  8
0
  6
CONTINUOUS
 62
     1
 10
190.05
 20
132.4
 40
1.0
 50
90.0
 51
180.0
  0
LINE
  8
0
  6
CONTINUOUS
 62
     1
 10
189.85
 20
133.4
 11
191.0
 21
133.4
  0
LINE
  8
0
  6
CONTINUOUS
 62
     1
 10
189.0
 20
131.15
 11
189.0
 21
132.4
  0
ARC
  8
0
  6
CONTINUOUS
 62
     1
 10
192.95
 20
130.2
 40
1.0
 50
90.0
 51
233.130102354
  0
LINE
  8
0
  6
CONTINUOUS
 62
     1
 10
191.0
 20
134.4
 11
198.5
 21
134.4
  0
ARC
  8
0
  6
CONTINUOUS
 62
     1
 10
197.65
 20
132.0
 40
0.8
 50
270.0
 51
0.0
  0
LINE
  8
0
  6
CONTINUOUS
 62
     1
 10
198.5
 20
119.15
 11
184.0
 21
119.15
  0
LINE
  8
0
  6
CONTINUOUS
 62
     1
 10
198.55
 20
119.15
 11
205.55
 21
119.65
  0
LINE
  8
0
  6
CONTINUOUS
 62
     1
 10
198.5
 20
122.15
 11
201.5
 21
122.15
  0
ARC
  8
0
  6
CONTINUOUS
 62
     1
 10
201.55
 20
120.65
 40
1.5
 50
270.0
 51
90.0
  0
LINE
  8
0
  6
CONTINUOUS
 62
     1
 10
200.55
 20
119.15
 11
198.55
 21
119.15
  0
LINE
  8
0
  6
CONTINUOUS
 62
     1
 10
201.5
 20
119.15
 11
199.5
 21
119.15
  0
LINE
  8
0
  6
CONTINUOUS
 62
     1
 10
198.55
 20
119.15
 11
198.55
 21
119.95
  0
LINE
  8
0
  6
CONTINUOUS
 62
     1
 10
200.55
 20
137.15
 11
200.55
 21
122.45
  0
LINE
  8
0
  6
CONTINUOUS
 62
     1
 10
192.2
 20
129.55
 11
198.6
 21
122.15
  0
LINE
  8
0
  6
CONTINUOUS
 62
     1
 10
189.0
 20
131.15
 11
199.5
 21
119.15
  0
LINE
  8
0
  6
CONTINUOUS
 62
     1
 10
198.55
 20
122.45
 11
198.55
 21
137.15
  0
POINT
  8
0
  6
CONTINUOUS
 62
     1
 10
131.05
 20
146.15
  0
LINE
  8
0
  6
CONTINUOUS
 62
     1
 10
131.05
 20
146.15
 11
131.05
 21
151.15
  0
POINT
  8
0
  6
CONTINUOUS
 62
     1
 10
131.05
 20
151.15
  0
LINE
  8
0
  6
CONTINUOUS
 62
     1
 10
131.05
 20
151.15
 11
104.05
 21
151.15
  0
LINE
  8
0
  6
CONTINUOUS
 62
     1
 10
104.05
 20
146.15
 11
131.05
 21
146.15
  0
LINE
  8
0
  6
CONTINUOUS
 62
     1
 10
104.05
 20
151.15
 11
104.05
 21
146.15
  0
POINT
  8
0
  6
CONTINUOUS
 62
     1
 10
113.55
 20
138.15
  0
POINT
  8
0
  6
CONTINUOUS
 62
     1
 10
113.55
 20
139.4
  0
LINE
  8
0
  6
CONTINUOUS
 62
     1
 10
113.55
 20
139.4
 11
113.55
 21
141.15
  0
POINT
  8
0
  6
CONTINUOUS
 62
     1
 10
113.55
 20
141.15
  0
POINT
  8
0
  6
CONTINUOUS
 62
     1
 10
113.55
 20
142.4
  0
LINE
  8
0
  6
CONTINUOUS
 62
     1
 10
113.55
 20
142.4
 11
113.55
 21
144.15
  0
LINE
  8
0
  6
CONTINUOUS
 62
     1
 10
113.55
 20
144.15
 11
141.05
 21
144.15
  0
LINE
  8
0
  6
CONTINUOUS
 62
     1
 10
141.05
 20
142.4
 11
113.55
 21
142.4
  0
LINE
  8
0
  6
CONTINUOUS
 62
     1
 10
113.55
 20
141.15
 11
141.05
 21
141.15
  0
LINE
  8
0
  6
CONTINUOUS
 62
     1
 10
141.0
 20
139.4
 11
113.55
 21
139.4
  0
LINE
  8
0
  6
CONTINUOUS
 62
     1
 10
113.55
 20
138.15
 11
141.0
 21
138.15
  0
POINT
  8
0
  6
CONTINUOUS
 62
     1
 10
113.55
 20
136.4
  0
POINT
  8
0
  6
CONTINUOUS
 62
     1
 10
113.55
 20
135.15
  0
LINE
  8
0
  6
CONTINUOUS
 62
     1
 10
113.55
 20
135.15
 11
113.55
 21
133.4
  0
POINT
  8
0
  6
CONTINUOUS
 62
     1
 10
113.55
 20
133.4
  0
LINE
  8
0
  6
CONTINUOUS
 62
     1
 10
113.55
 20
132.15
 11
113.55
 21
130.4
  0
LINE
  8
0
  6
CONTINUOUS
 62
     1
 10
140.9
 20
136.4
 11
113.55
 21
136.4
  0
LINE
  8
0
  6
CONTINUOUS
 62
     1
 10
140.9
 20
135.15
 11
113.55
 21
135.15
  0
LINE
  8
0
  6
CONTINUOUS
 62
     1
 10
113.55
 20
133.4
 11
140.9
 21
133.4
  0
LINE
  8
0
  6
CONTINUOUS
 62
     1
 10
141.0
 20
132.15
 11
113.55
 21
132.15
  0
LINE
  8
0
  6
CONTINUOUS
 62
     1
 10
113.55
 20
130.4
 11
141.1
 21
130.4
  0
LINE
  8
0
  6
CONTINUOUS
 62
     1
 10
113.55
 20
136.4
 11
113.55
 21
138.15
  0
LINE
  8
0
  6
CONTINUOUS
 62
     1
 10
101.55
 20
81.4
 11
104.05
 21
81.4
  0
LINE
  8
0
  6
CONTINUOUS
 62
     1
 10
101.55
 20
82.4
 11
101.55
 21
81.4
  0
LINE
  8
0
  6
CONTINUOUS
 62
     1
 10
104.05
 20
81.4
 11
106.05
 21
81.4
  0
LINE
  8
0
  6
CONTINUOUS
 62
     1
 10
106.05
 20
81.4
 11
106.05
 21
57.925
  0
LINE
  8
0
  6
CONTINUOUS
 62
     1
 10
106.05
 20
35.55
 11
106.05
 21
57.95
  0
LINE
  8
0
  6
CONTINUOUS
 62
     1
 10
88.55
 20
18.4
 11
101.55
 21
18.4
  0
LINE
  8
0
  6
CONTINUOUS
 62
     1
 10
101.55
 20
18.8
 11
101.55
 21
18.3
  0
LINE
  8
0
  6
CONTINUOUS
 62
     1
 10
106.05
 20
18.8
 11
101.55
 21
18.8
  0
LINE
  8
0
  6
CONTINUOUS
 62
     6
 10
131.05
 20
130.4
 11
131.05
 21
132.15
  0
LINE
  8
0
  6
CONTINUOUS
 62
     6
 10
131.05
 20
133.4
 11
131.05
 21
135.15
  0
LINE
  8
0
  6
CONTINUOUS
 62
     6
 10
131.05
 20
136.4
 11
131.05
 21
138.15
  0
LINE
  8
0
  6
CONTINUOUS
 62
     6
 10
131.05
 20
139.4
 11
131.05
 21
141.15
  0
LINE
  8
0
  6
CONTINUOUS
 62
     6
 10
131.05
 20
142.4
 11
131.05
 21
144.15
  0
LINE
  8
0
  6
CONTINUOUS
 62
     6
 10
126.05
 20
141.15
 11
126.05
 21
139.4
  0
LINE
  8
0
  6
CONTINUOUS
 62
     6
 10
126.05
 20
132.15
 11
126.05
 21
130.4
  0
LINE
  8
0
  6
CONTINUOUS
 62
     6
 10
126.05
 20
135.15
 11
126.05
 21
133.4
  0
LINE
  8
0
  6
CONTINUOUS
 62
     6
 10
126.05
 20
138.15
 11
126.05
 21
136.4
  0
LINE
  8
0
  6
CONTINUOUS
 62
     6
 10
126.05
 20
142.4
 11
126.05
 21
144.15
  0
LINE
  8
0
  6
CONTINUOUS
 62
     6
 10
143.0
 20
137.15
 11
143.0
 21
145.9
  0
LINE
  8
0
  6
CONTINUOUS
 62
     6
 10
143.0
 20
137.15
 11
143.0
 21
128.4
  0
ARC
  8
0
  6
CONTINUOUS
 62
     6
 10
141.55
 20
137.3
 40
9.0
 50
281.309932474
 51
80.272421449
  0
POINT
  8
0
  6
CONTINUOUS
 62
     6
 10
104.05
 20
146.15
  0
LINE
  8
0
  6
CONTINUOUS
 62
     6
 10
90.05
 20
140.15
 11
90.05
 21
148.15
  0
LINE
  8
0
  6
CONTINUOUS
 62
     6
 10
90.05
 20
148.15
 11
91.3
 21
148.15
  0
LINE
  8
0
  6
CONTINUOUS
 62
     6
 10
91.3
 20
148.15
 11
91.3
 21
140.15
  0
LINE
  8
0
  6
CONTINUOUS
 62
     6
 10
91.3
 20
140.15
 11
90.05
 21
140.15
  0
LINE
  8
0
  6
CONTINUOUS
 62
     6
 10
90.05
 20
127.8
 11
90.05
 21
134.3
  0
LINE
  8
0
  6
CONTINUOUS
 62
     6
 10
91.3
 20
127.8
 11
91.3
 21
134.3
  0
LINE
  8
0
  6
CONTINUOUS
 62
     6
 10
92.55
 20
132.65
 11
92.55
 21
127.85
  0
LINE
  8
0
  6
CONTINUOUS
 62
     6
 10
92.55
 20
133.15
 11
97.05
 21
133.65
  0
POINT
  8
0
  6
CONTINUOUS
 62
     6
 10
92.3
 20
132.8
  0
LINE
  8
0
  6
CONTINUOUS
 62
     6
 10
92.55
 20
132.65
 11
92.55
 21
133.15
  0
LINE
  8
0
  6
CONTINUOUS
 62
     6
 10
100.75
 20
133.65
 11
97.05
 21
133.65
  0
LINE
  8
0
  6
CONTINUOUS
 62
     6
 10
90.05
 20
122.65
 11
90.05
 21
125.65
  0
LINE
  8
0
  6
CONTINUOUS
 62
     6
 10
90.05
 20
125.65
 11
91.3
 21
125.65
  0
LINE
  8
0
  6
CONTINUOUS
 62
     6
 10
91.3
 20
125.65
 11
91.3
 21
122.65
  0
LINE
  8
0
  6
CONTINUOUS
 62
     6
 10
91.3
 20
122.65
 11
90.05
 21
122.65
  0
LINE
  8
0
  6
CONTINUOUS
 62
     6
 10
166.0
 20
131.65
 11
164.75
 21
131.65
  0
LINE
  8
0
  6
CONTINUOUS
 62
     6
 10
184.0
 20
143.15
 11
184.0
 21
137.15
  0
POINT
  8
0
  6
CONTINUOUS
 62
     6
 10
164.4
 20
125.55
  0
ARC
  8
0
  6
CONTINUOUS
 62
     6
 10
182.9
 20
143.15
 40
1.0
 50
0.0
 51
90.0
  0
LINE
  8
0
  6
CONTINUOUS
 62
     6
 10
166.7
 20
144.15
 11
184.95
 21
144.15
  0
LINE
  8
0
  6
CONTINUOUS
 62
     6
 10
181.55
 20
143.65
 11
180.05
 21
143.65
  0
LINE
  8
0
  6
CONTINUOUS
 62
     6
 10
182.55
 20
143.15
 11
182.55
 21
142.7
  0
LINE
  8
0
  6
CONTINUOUS
 62
     6
 10
183.05
 20
142.65
 11
169.75
 21
142.65
  0
LINE
  8
0
  6
CONTINUOUS
 62
     6
 10
183.95
 20
143.15
 11
182.55
 21
143.15
  0
LINE
  8
0
  6
CONTINUOUS
 62
     6
 10
183.0
 20
142.65
 11
183.0
 21
137.15
  0
LINE
  8
0
  6
CONTINUOUS
 62
     6
 10
178.55
 20
143.65
 11
180.05
 21
143.65
  0
LINE
  8
0
  6
CONTINUOUS
 62
     6
 10
178.55
 20
143.65
 11
177.05
 21
143.65
  0
LINE
  8
0
  6
CONTINUOUS
 62
     6
 10
166.55
 20
143.65
 11
177.05
 21
143.65
  0
ARC
  8
0
  6
CONTINUOUS
 62
     6
 10
166.65
 20
143.4
 40
0.75
 50
90.0
 51
270.0
  0
ARC
  8
0
  6
CONTINUOUS
 62
     6
 10
183.0
 20
131.25
 40
1.0
 50
270.0
 51
0.0
  0
LINE
  8
0
  6
CONTINUOUS
 62
     6
 10
182.55
 20
131.15
 11
183.95
 21
131.15
  0
LINE
  8
0
  6
CONTINUOUS
 62
     6
 10
182.55
 20
131.7
 11
182.55
 21
131.15
  0
LINE
  8
0
  6
CONTINUOUS
 62
     6
 10
183.0
 20
131.65
 11
183.0
 21
137.15
  0
LINE
  8
0
  6
CONTINUOUS
 62
     6
 10
184.0
 20
131.15
 11
184.0
 21
137.15
  0
LINE
  8
0
  6
CONTINUOUS
 62
     6
 10
183.0
 20
131.65
 11
171.0
 21
131.65
  0
LINE
  8
0
  6
CONTINUOUS
 62
     6
 10
181.55
 20
130.65
 11
180.05
 21
130.65
  0
LINE
  8
0
  6
CONTINUOUS
 62
     6
 10
180.05
 20
130.65
 11
178.55
 21
130.65
  0
LINE
  8
0
  6
CONTINUOUS
 62
     6
 10
178.55
 20
130.65
 11
177.05
 21
130.65
  0
LINE
  8
0
  6
CONTINUOUS
 62
     6
 10
166.7
 20
130.15
 11
185.0
 21
130.15
  0
LINE
  8
0
  6
CONTINUOUS
 62
     6
 10
177.05
 20
130.65
 11
166.55
 21
130.65
  0
ARC
  8
0
  6
CONTINUOUS
 62
     6
 10
166.75
 20
130.9
 40
0.75
 50
90.0
 51
270.0
  0
POINT
  8
0
  6
CONTINUOUS
 62
     6
 10
94.05
 20
80.9
  0
POINT
  8
0
  6
CONTINUOUS
 62
     6
 10
94.05
 20
19.9
  0
LINE
  8
0
  6
CONTINUOUS
 62
     6
 10
106.05
 20
80.9
 11
93.55
 21
80.9
  0
LINE
  8
0
  6
CONTINUOUS
 62
     6
 10
99.05
 20
31.15
 11
99.05
 21
35.65
  0
LINE
  8
0
  6
CONTINUOUS
 62
     6
 10
99.05
 20
36.15
 11
99.05
 21
40.15
  0
LINE
  8
0
  6
CONTINUOUS
 62
     6
 10
99.05
 20
40.65
 11
99.05
 21
45.15
  0
LINE
  8
0
  6
CONTINUOUS
 62
     6
 10
99.05
 20
50.65
 11
104.55
 21
50.65
  0
LINE
  8
0
  6
CONTINUOUS
 62
     6
 10
104.55
 20
50.15
 11
99.05
 21
50.15
  0
LINE
  8
0
  6
CONTINUOUS
 62
     6
 10
99.05
 20
45.65
 11
99.05
 21
50.15
  0
LINE
  8
0
  6
CONTINUOUS
 62
     6
 10
99.05
 20
55.65
 11
104.55
 21
55.65
  0
LINE
  8
0
  6
CONTINUOUS
 62
     6
 10
104.55
 20
55.15
 11
99.05
 21
55.15
  0
LINE
  8
0
  6
CONTINUOUS
 62
     6
 10
99.05
 20
50.65
 11
99.05
 21
55.15
  0
LINE
  8
0
  6
CONTINUOUS
 62
     6
 10
99.05
 20
60.15
 11
104.55
 21
60.15
  0
LINE
  8
0
  6
CONTINUOUS
 62
     6
 10
104.55
 20
60.65
 11
99.05
 21
60.65
  0
LINE
  8
0
  6
CONTINUOUS
 62
     6
 10
99.05
 20
55.65
 11
99.05
 21
60.15
  0
LINE
  8
0
  6
CONTINUOUS
 62
     6
 10
99.05
 20
65.15
 11
104.55
 21
65.15
  0
LINE
  8
0
  6
CONTINUOUS
 62
     6
 10
104.55
 20
65.65
 11
99.05
 21
65.65
  0
LINE
  8
0
  6
CONTINUOUS
 62
     6
 10
99.05
 20
60.65
 11
99.05
 21
65.15
  0
LINE
  8
0
  6
CONTINUOUS
 62
     6
 10
104.55
 20
70.65
 11
99.05
 21
70.65
  0
LINE
  8
0
  6
CONTINUOUS
 62
     6
 10
99.05
 20
70.15
 11
104.55
 21
70.15
  0
LINE
  8
0
  6
CONTINUOUS
 62
     6
 10
99.05
 20
65.65
 11
99.05
 21
70.15
  0
LINE
  8
0
  6
CONTINUOUS
 62
     6
 10
99.05
 20
75.65
 11
99.05
 21
80.15
  0
LINE
  8
0
  6
CONTINUOUS
 62
     6
 10
104.55
 20
75.65
 11
99.05
 21
75.65
  0
LINE
  8
0
  6
CONTINUOUS
 62
     6
 10
99.05
 20
75.15
 11
104.55
 21
75.15
  0
LINE
  8
0
  6
CONTINUOUS
 62
     6
 10
99.05
 20
70.65
 11
99.05
 21
75.15
  0
LINE
  8
0
  6
CONTINUOUS
 62
     6
 10
99.05
 20
80.15
 11
106.05
 21
80.15
  0
LINE
  8
0
  6
CONTINUOUS
 62
     6
 10
99.55
 20
79.4
 11
101.8
 21
79.4
  0
LINE
  8
0
  6
CONTINUOUS
 62
     6
 10
101.8
 20
76.4
 11
99.55
 21
76.4
  0
LINE
  8
0
  6
CONTINUOUS
 62
     6
 10
101.8
 20
74.4
 11
99.55
 21
74.4
  0
LINE
  8
0
  6
CONTINUOUS
 62
     6
 10
99.55
 20
71.4
 11
101.8
 21
71.4
  0
LINE
  8
0
  6
CONTINUOUS
 62
     6
 10
101.8
 20
69.4
 11
99.55
 21
69.4
  0
LINE
  8
0
  6
CONTINUOUS
 62
     6
 10
101.8
 20
64.4
 11
99.55
 21
64.4
  0
LINE
  8
0
  6
CONTINUOUS
 62
     6
 10
99.55
 20
61.4
 11
101.8
 21
61.4
  0
LINE
  8
0
  6
CONTINUOUS
 62
     6
 10
101.8
 20
66.2
 11
99.6
 21
66.2
  0
LINE
  8
0
  6
CONTINUOUS
 62
     6
 10
101.8
 20
59.4
 11
99.55
 21
59.4
  0
LINE
  8
0
  6
CONTINUOUS
 62
     6
 10
101.8
 20
56.4
 11
99.55
 21
56.4
  0
LINE
  8
0
  6
CONTINUOUS
 62
     6
 10
101.8
 20
54.4
 11
99.55
 21
54.4
  0
LINE
  8
0
  6
CONTINUOUS
 62
     6
 10
101.8
 20
51.4
 11
99.55
 21
51.4
  0
LINE
  8
0
  6
CONTINUOUS
 62
     6
 10
101.8
 20
49.4
 11
99.55
 21
49.4
  0
LINE
  8
0
  6
CONTINUOUS
 62
     6
 10
101.8
 20
46.4
 11
99.55
 21
46.4
  0
LINE
  8
0
  6
CONTINUOUS
 62
     6
 10
171.75
 20
86.95
 11
171.75
 21
84.2
  0
LINE
  8
0
  6
CONTINUOUS
 62
     6
 10
198.55
 20
50.4
 11
198.55
 21
86.4
  0
LINE
  8
0
  6
CONTINUOUS
 62
     6
 10
198.55
 20
84.4
 11
198.15
 21
84.4
  0
LINE
  8
0
  6
CONTINUOUS
 62
     6
 10
198.55
 20
16.3
 11
198.55
 21
14.4
  0
LINE
  8
0
  6
CONTINUOUS
 62
     6
 10
198.55
 20
50.4
 11
198.55
 21
14.4
  0
LINE
  8
0
  6
CONTINUOUS
 62
     6
 10
37.25
 20
57.0625
 11
37.25
 21
81.3625
  0
LINE
  8
0
  6
CONTINUOUS
 62
     6
 10
47.6
 20
82.3625
 11
47.6
 21
84.3375
  0
LINE
  8
0
  6
CONTINUOUS
 62
     6
 10
43.1
 20
84.3375
 11
43.1
 21
82.3625
  0
LINE
  8
0
  6
CONTINUOUS
 62
     6
 10
42.1
 20
84.3375
 11
42.1
 21
82.3625
  0
LINE
  8
0
  6
CONTINUOUS
 62
     6
 10
48.6
 20
82.3625
 11
48.6
 21
84.3375
  0
LINE
  8
0
  6
CONTINUOUS
 62
     6
 10
26.85
 20
81.8625
 11
24.85
 21
81.8625
  0
LINE
  8
0
  6
CONTINUOUS
 62
     6
 10
31.35
 20
81.8625
 11
31.35
 21
82.3625
  0
LINE
  8
0
  6
CONTINUOUS
 62
     6
 10
28.85
 20
81.8625
 11
31.35
 21
81.8625
  0
LINE
  8
0
  6
CONTINUOUS
 62
     6
 10
28.85
 20
81.8625
 11
26.6
 21
81.8625
  0
LINE
  8
0
  6
CONTINUOUS
 62
     6
 10
22.85
 20
81.1
 11
24.75
 21
81.1
  0
LINE
  8
0
  6
CONTINUOUS
 62
     6
 10
24.85
 20
81.8625
 11
24.85
 21
48.0625
  0
LINE
  8
0
  6
CONTINUOUS
 62
     6
 10
37.25
 20
81.3625
 11
24.85
 21
81.3625
  0
LINE
  8
0
  6
CONTINUOUS
 62
     6
 10
37.25
 20
19.1625
 11
37.25
 21
57.0625
  0
LINE
  8
0
  6
CONTINUOUS
 62
     6
 10
26.85
 20
18.8625
 11
24.85
 21
18.8625
  0
LINE
  8
0
  6
CONTINUOUS
 62
     6
 10
28.85
 20
18.8625
 11
26.6
 21
18.8625
  0
LINE
  8
0
  6
CONTINUOUS
 62
     6
 10
24.85
 20
19.2625
 11
37.25
 21
19.1625
  0
LINE
  8
0
  6
CONTINUOUS
 62
     6
 10
24.85
 20
18.8625
 11
24.85
 21
48.35
  0
LINE
  8
0
  6
CONTINUOUS
 62
     6
 10
24.75
 20
19.6
 11
22.75
 21
19.6
  0
LINE
  8
0
  6
CONTINUOUS
 62
     6
 10
31.35
 20
18.8625
 11
31.35
 21
18.3625
  0
LINE
  8
0
  6
CONTINUOUS
 62
     6
 10
28.85
 20
18.8625
 11
31.35
 21
18.8625
  0
LINE
  8
0
  6
CONTINUOUS
 62
     6
 10
34.55
 20
216.8
 11
34.55
 21
199.8
  0
LINE
  8
0
  6
CONTINUOUS
 62
     6
 10
34.55
 20
199.8
 11
68.55
 21
199.8
  0
LINE
  8
0
  6
CONTINUOUS
 62
     6
 10
68.55
 20
199.8
 11
68.55
 21
216.8
  0
LINE
  8
0
  6
CONTINUOUS
 62
     6
 10
68.55
 20
216.8
 11
34.55
 21
216.8
  0
LINE
  8
0
  6
CONTINUOUS
 62
     6
 10
34.55
 20
188.8
 11
34.55
 21
171.8
  0
LINE
  8
0
  6
CONTINUOUS
 62
     6
 10
34.55
 20
171.8
 11
68.55
 21
171.8
  0
LINE
  8
0
  6
CONTINUOUS
 62
     6
 10
68.55
 20
171.8
 11
68.55
 21
188.8
  0
LINE
  8
0
  6
CONTINUOUS
 62
     6
 10
68.55
 20
188.8
 11
34.55
 21
188.8
  0
LINE
  8
0
  6
CONTINUOUS
 62
     6
 10
82.55
 20
216.8
 11
82.55
 21
199.8
  0
LINE
  8
0
  6
CONTINUOUS
 62
     6
 10
82.55
 20
199.8
 11
116.55
 21
199.8
  0
LINE
  8
0
  6
CONTINUOUS
 62
     6
 10
116.55
 20
199.8
 11
116.55
 21
216.8
  0
LINE
  8
0
  6
CONTINUOUS
 62
     6
 10
116.55
 20
216.8
 11
82.55
 21
216.8
  0
LINE
  8
0
  6
CONTINUOUS
 62
     6
 10
82.55
 20
188.8
 11
82.55
 21
171.8
  0
LINE
  8
0
  6
CONTINUOUS
 62
     6
 10
82.55
 20
171.8
 11
116.55
 21
171.8
  0
LINE
  8
0
  6
CONTINUOUS
 62
     6
 10
116.55
 20
171.8
 11
116.55
 21
188.8
  0
LINE
  8
0
  6
CONTINUOUS
 62
     6
 10
116.55
 20
188.8
 11
82.55
 21
188.8
  0
LINE
  8
0
  6
CONTINUOUS
 62
     6
 10
258.800000001
 20
79.15
 11
258.425000001
 21
79.525
  0
LINE
  8
0
  6
CONTINUOUS
 62
     6
 10
257.425000001
 20
84.275
 11
257.050000001
 21
83.9
  0
LINE
  8
0
  6
CONTINUOUS
 62
     6
 10
273.175000001
 20
79.525
 11
272.800000001
 21
79.15
  0
LINE
  8
0
  6
CONTINUOUS
 62
     6
 10
273.175000001
 20
79.525
 11
258.425000001
 21
79.525
  0
LINE
  8
0
  6
CONTINUOUS
 62
     6
 10
258.8
 20
21.65
 11
258.425
 21
21.275
  0
LINE
  8
0
  6
CONTINUOUS
 62
     6
 10
272.8
 20
21.65
 11
273.175
 21
21.275
  0
LINE
  8
0
  6
CONTINUOUS
 62
     6
 10
258.425
 20
21.275
 11
273.175
 21
21.275
  0
LINE
  8
0
  6
CONTINUOUS
 62
     6
 10
257.05
 20
16.9
 11
257.425
 21
16.525
  0
LINE
  8
0
  6
CONTINUOUS
 62
     6
 10
258.425000001
 20
79.525
 11
258.425
 21
21.275
  0
LINE
  8
0
  6
CONTINUOUS
 62
     6
 10
273.175
 20
21.275
 11
273.175000001
 21
79.525
  0
POINT
  8
0
  6
CONTINUOUS
 62
     6
 10
256.05
 20
56.212499996
  0
POINT
  8
0
  6
CONTINUOUS
 62
     6
 10
246.05
 20
60.587499996
  0
LINE
  8
0
  6
CONTINUOUS
 62
     6
 10
250.6125
 20
58.399999996
 11
250.6125
 21
56.962499996
  0
LINE
  8
0
  6
CONTINUOUS
 62
     6
 10
251.55
 20
56.899999996
 11
251.55
 21
60.024999996
  0
LINE
  8
0
  6
CONTINUOUS
 62
     6
 10
246.9875
 20
60.399999996
 11
246.2375
 21
61.024999996
  0
LINE
  8
0
  6
CONTINUOUS
 62
     6
 10
246.3
 20
61.274999996
 11
247.2375
 21
60.524999996
  0
LINE
  8
0
  6
CONTINUOUS
 62
     6
 10
246.925
 20
57.462499996
 11
246.2375
 21
56.899999996
  0
LINE
  8
0
  6
CONTINUOUS
 62
     6
 10
247.175
 20
57.337499996
 11
246.3625
 21
56.712499996
  0
LINE
  8
0
  6
CONTINUOUS
 62
     6
 10
250.4875
 20
60.024999996
 11
251.1125
 21
60.837499996
  0
LINE
  8
0
  6
CONTINUOUS
 62
     6
 10
250.675
 20
59.962499996
 11
251.3
 21
60.774999996
  0
LINE
  8
0
  6
CONTINUOUS
 62
     6
 10
251.3
 20
60.774999996
 11
251.55
 21
59.899999996
  0
LINE
  8
0
  6
CONTINUOUS
 62
     6
 10
251.7375
 20
59.899999996
 11
251.4875
 21
60.837499996
  0
LINE
  8
0
  6
CONTINUOUS
 62
     6
 10
250.6125
 20
56.899999996
 11
250.9875
 21
56.087499996
  0
LINE
  8
0
  6
CONTINUOUS
 62
     6
 10
250.9875
 20
56.087499996
 11
251.55
 21
56.837499996
  0
LINE
  8
0
  6
CONTINUOUS
 62
     6
 10
251.675
 20
56.712499996
 11
251.1125
 21
55.899999996
  0
LINE
  8
0
  6
CONTINUOUS
 62
     6
 10
250.8625
 20
55.962499996
 11
250.3625
 21
56.899999996
  0
LINE
  8
0
  6
CONTINUOUS
 62
     6
 10
254.9875
 20
59.462499996
 11
255.675
 21
60.149999996
  0
LINE
  8
0
  6
CONTINUOUS
 62
     6
 10
255.1125
 20
59.337499996
 11
255.8
 21
60.024999996
  0
LINE
  8
0
  6
CONTINUOUS
 62
     6
 10
254.9875
 20
56.337499996
 11
255.6125
 21
55.462499996
  0
LINE
  8
0
  6
CONTINUOUS
 62
     6
 10
255.7375
 20
55.587499996
 11
255.175
 21
56.337499996
  0
LINE
  8
0
  6
CONTINUOUS
 62
     6
 10
255.4875
 20
55.345312496
 11
251.05
 21
55.899999996
  0
LINE
  8
0
  6
CONTINUOUS
 62
     6
 10
255.8
 20
55.54583333
 11
256.05
 21
55.712499996
  0
LINE
  8
0
  6
CONTINUOUS
 62
     6
 10
255.4875
 20
55.337499996
 11
255.675
 21
55.462499996
  0
LINE
  8
0
  6
CONTINUOUS
 62
     6
 10
255.1125
 20
59.337499996
 11
255.1125
 21
56.337499996
  0
LINE
  8
0
  6
CONTINUOUS
 62
     6
 10
255.709722222
 20
60.149999996
 11
255.6125
 21
60.274999996
  0
LINE
  8
0
  6
CONTINUOUS
 62
     6
 10
256.05
 20
59.712499996
 11
255.806944444
 21
60.024999996
  0
LINE
  8
0
  6
CONTINUOUS
 62
     6
 10
256.05
 20
59.712499996
 11
256.05
 21
55.649999996
  0
LINE
  8
0
  6
CONTINUOUS
 62
     6
 10
251.503125
 20
60.843359371
 11
255.628125
 21
60.327734371
  0
LINE
  8
0
  6
CONTINUOUS
 62
     6
 10
251.815625
 20
59.866796871
 11
254.940625
 21
59.476171871
  0
LINE
  8
0
  6
CONTINUOUS
 62
     6
 10
250.6125
 20
59.899999996
 11
250.6125
 21
58.462499996
  0
LINE
  8
0
  6
CONTINUOUS
 62
     6
 10
254.940625
 20
56.351171871
 11
251.753125
 21
56.749609371
  0
LINE
  8
0
  6
CONTINUOUS
 62
     6
 10
250.253125
 20
56.937109371
 11
247.190625
 21
57.319921871
  0
LINE
  8
0
  6
CONTINUOUS
 62
     6
 10
246.380357143
 20
56.649999996
 11
246.4875
 21
56.524999996
  0
LINE
  8
0
  6
CONTINUOUS
 62
     6
 10
246.1125
 20
56.962499996
 11
246.166071428
 21
56.899999996
  0
LINE
  8
0
  6
CONTINUOUS
 62
     6
 10
250.878125
 20
55.921484371
 11
246.565625
 21
56.460546871
  0
LINE
  8
0
  6
CONTINUOUS
 62
     6
 10
246.9875
 20
57.524999996
 11
246.9875
 21
60.462499996
  0
LINE
  8
0
  6
CONTINUOUS
 62
     6
 10
247.315625
 20
60.429296871
 11
250.503125
 21
60.030859371
  0
LINE
  8
0
  6
CONTINUOUS
 62
     6
 10
246.291071428
 20
61.337499996
 11
246.3625
 21
61.462499996
  0
LINE
  8
0
  6
CONTINUOUS
 62
     6
 10
246.1125
 20
61.024999996
 11
246.148214286
 21
61.087499996
  0
LINE
  8
0
  6
CONTINUOUS
 62
     6
 10
246.05
 20
57.024999996
 11
246.05
 21
60.962499996
  0
LINE
  8
0
  6
CONTINUOUS
 62
     6
 10
246.3625
 20
61.524999996
 11
251.05
 21
60.899999996
  0
POINT
  8
0
  6
CONTINUOUS
 62
     6
 10
256.05
 20
46.212499996
  0
POINT
  8
0
  6
CONTINUOUS
 62
     6
 10
246.05
 20
50.587499996
  0
LINE
  8
0
  6
CONTINUOUS
 62
     6
 10
250.6125
 20
48.399999996
 11
250.6125
 21
46.962499996
  0
LINE
  8
0
  6
CONTINUOUS
 62
     6
 10
251.55
 20
46.899999996
 11
251.55
 21
50.024999996
  0
LINE
  8
0
  6
CONTINUOUS
 62
     6
 10
246.9875
 20
50.399999996
 11
246.2375
 21
51.024999996
  0
LINE
  8
0
  6
CONTINUOUS
 62
     6
 10
246.3
 20
51.274999996
 11
247.2375
 21
50.524999996
  0
LINE
  8
0
  6
CONTINUOUS
 62
     6
 10
246.925
 20
47.462499996
 11
246.2375
 21
46.899999996
  0
LINE
  8
0
  6
CONTINUOUS
 62
     6
 10
247.175
 20
47.337499996
 11
246.3625
 21
46.712499996
  0
LINE
  8
0
  6
CONTINUOUS
 62
     6
 10
250.4875
 20
50.024999996
 11
251.1125
 21
50.837499996
  0
LINE
  8
0
  6
CONTINUOUS
 62
     6
 10
250.675
 20
49.962499996
 11
251.3
 21
50.774999996
  0
LINE
  8
0
  6
CONTINUOUS
 62
     6
 10
251.3
 20
50.774999996
 11
251.55
 21
49.899999996
  0
LINE
  8
0
  6
CONTINUOUS
 62
     6
 10
251.7375
 20
49.899999996
 11
251.4875
 21
50.837499996
  0
LINE
  8
0
  6
CONTINUOUS
 62
     6
 10
250.6125
 20
46.899999996
 11
250.9875
 21
46.087499996
  0
LINE
  8
0
  6
CONTINUOUS
 62
     6
 10
250.9875
 20
46.087499996
 11
251.55
 21
46.837499996
  0
LINE
  8
0
  6
CONTINUOUS
 62
     6
 10
251.675
 20
46.712499996
 11
251.1125
 21
45.899999996
  0
LINE
  8
0
  6
CONTINUOUS
 62
     6
 10
250.8625
 20
45.962499996
 11
250.3625
 21
46.899999996
  0
LINE
  8
0
  6
CONTINUOUS
 62
     6
 10
254.9875
 20
49.462499996
 11
255.675
 21
50.149999996
  0
LINE
  8
0
  6
CONTINUOUS
 62
     6
 10
255.1125
 20
49.337499996
 11
255.8
 21
50.024999996
  0
LINE
  8
0
  6
CONTINUOUS
 62
     6
 10
254.9875
 20
46.337499996
 11
255.6125
 21
45.462499996
  0
LINE
  8
0
  6
CONTINUOUS
 62
     6
 10
255.7375
 20
45.587499996
 11
255.175
 21
46.337499996
  0
LINE
  8
0
  6
CONTINUOUS
 62
     6
 10
255.4875
 20
45.345312496
 11
251.05
 21
45.899999996
  0
LINE
  8
0
  6
CONTINUOUS
 62
     6
 10
255.8
 20
45.54583333
 11
256.05
 21
45.712499996
  0
LINE
  8
0
  6
CONTINUOUS
 62
     6
 10
255.4875
 20
45.337499996
 11
255.675
 21
45.462499996
  0
LINE
  8
0
  6
CONTINUOUS
 62
     6
 10
255.1125
 20
49.337499996
 11
255.1125
 21
46.337499996
  0
LINE
  8
0
  6
CONTINUOUS
 62
     6
 10
255.709722222
 20
50.149999996
 11
255.6125
 21
50.274999996
  0
LINE
  8
0
  6
CONTINUOUS
 62
     6
 10
256.05
 20
49.712499996
 11
255.806944444
 21
50.024999996
  0
LINE
  8
0
  6
CONTINUOUS
 62
     6
 10
256.05
 20
49.712499996
 11
256.05
 21
45.649999996
  0
LINE
  8
0
  6
CONTINUOUS
 62
     6
 10
251.503125
 20
50.843359371
 11
255.628125
 21
50.327734371
  0
LINE
  8
0
  6
CONTINUOUS
 62
     6
 10
251.815625
 20
49.866796871
 11
254.940625
 21
49.476171871
  0
LINE
  8
0
  6
CONTINUOUS
 62
     6
 10
250.6125
 20
49.899999996
 11
250.6125
 21
48.462499996
  0
LINE
  8
0
  6
CONTINUOUS
 62
     6
 10
254.940625
 20
46.351171871
 11
251.753125
 21
46.749609371
  0
LINE
  8
0
  6
CONTINUOUS
 62
     6
 10
250.253125
 20
46.937109371
 11
247.190625
 21
47.319921871
  0
LINE
  8
0
  6
CONTINUOUS
 62
     6
 10
246.380357143
 20
46.649999996
 11
246.4875
 21
46.524999996
  0
LINE
  8
0
  6
CONTINUOUS
 62
     6
 10
246.1125
 20
46.962499996
 11
246.166071428
 21
46.899999996
  0
LINE
  8
0
  6
CONTINUOUS
 62
     6
 10
250.878125
 20
45.921484371
 11
246.565625
 21
46.460546871
  0
LINE
  8
0
  6
CONTINUOUS
 62
     6
 10
246.9875
 20
47.524999996
 11
246.9875
 21
50.462499996
  0
LINE
  8
0
  6
CONTINUOUS
 62
     6
 10
247.315625
 20
50.429296871
 11
250.503125
 21
50.030859371
  0
LINE
  8
0
  6
CONTINUOUS
 62
     6
 10
246.291071428
 20
51.337499996
 11
246.3625
 21
51.462499996
  0
LINE
  8
0
  6
CONTINUOUS
 62
     6
 10
246.1125
 20
51.024999996
 11
246.148214286
 21
51.087499996
  0
LINE
  8
0
  6
CONTINUOUS
 62
     6
 10
246.05
 20
47.024999996
 11
246.05
 21
50.962499996
  0
LINE
  8
0
  6
CONTINUOUS
 62
     6
 10
246.3625
 20
51.524999996
 11
251.05
 21
50.899999996
  0
POINT
  8
0
  6
CONTINUOUS
 62
     6
 10
256.05
 20
36.212499996
  0
POINT
  8
0
  6
CONTINUOUS
 62
     6
 10
246.05
 20
40.587499996
  0
LINE
  8
0
  6
CONTINUOUS
 62
     6
 10
250.6125
 20
38.399999996
 11
250.6125
 21
36.962499996
  0
LINE
  8
0
  6
CONTINUOUS
 62
     6
 10
251.55
 20
36.899999996
 11
251.55
 21
40.024999996
  0
LINE
  8
0
  6
CONTINUOUS
 62
     6
 10
246.9875
 20
40.399999996
 11
246.2375
 21
41.024999996
  0
LINE
  8
0
  6
CONTINUOUS
 62
     6
 10
246.3
 20
41.274999996
 11
247.2375
 21
40.524999996
  0
LINE
  8
0
  6
CONTINUOUS
 62
     6
 10
246.925
 20
37.462499996
 11
246.2375
 21
36.899999996
  0
LINE
  8
0
  6
CONTINUOUS
 62
     6
 10
247.175
 20
37.337499996
 11
246.3625
 21
36.712499996
  0
LINE
  8
0
  6
CONTINUOUS
 62
     6
 10
250.4875
 20
40.024999996
 11
251.1125
 21
40.837499996
  0
LINE
  8
0
  6
CONTINUOUS
 62
     6
 10
250.675
 20
39.962499996
 11
251.3
 21
40.774999996
  0
LINE
  8
0
  6
CONTINUOUS
 62
     6
 10
251.3
 20
40.774999996
 11
251.55
 21
39.899999996
  0
LINE
  8
0
  6
CONTINUOUS
 62
     6
 10
251.7375
 20
39.899999996
 11
251.4875
 21
40.837499996
  0
LINE
  8
0
  6
CONTINUOUS
 62
     6
 10
250.6125
 20
36.899999996
 11
250.9875
 21
36.087499996
  0
LINE
  8
0
  6
CONTINUOUS
 62
     6
 10
250.9875
 20
36.087499996
 11
251.55
 21
36.837499996
  0
LINE
  8
0
  6
CONTINUOUS
 62
     6
 10
251.675
 20
36.712499996
 11
251.1125
 21
35.899999996
  0
LINE
  8
0
  6
CONTINUOUS
 62
     6
 10
250.8625
 20
35.962499996
 11
250.3625
 21
36.899999996
  0
LINE
  8
0
  6
CONTINUOUS
 62
     6
 10
254.9875
 20
39.462499996
 11
255.675
 21
40.149999996
  0
LINE
  8
0
  6
CONTINUOUS
 62
     6
 10
255.1125
 20
39.337499996
 11
255.8
 21
40.024999996
  0
LINE
  8
0
  6
CONTINUOUS
 62
     6
 10
254.9875
 20
36.337499996
 11
255.6125
 21
35.462499996
  0
LINE
  8
0
  6
CONTINUOUS
 62
     6
 10
255.7375
 20
35.587499996
 11
255.175
 21
36.337499996
  0
LINE
  8
0
  6
CONTINUOUS
 62
     6
 10
255.4875
 20
35.345312496
 11
251.05
 21
35.899999996
  0
LINE
  8
0
  6
CONTINUOUS
 62
     6
 10
255.8
 20
35.54583333
 11
256.05
 21
35.712499996
  0
LINE
  8
0
  6
CONTINUOUS
 62
     6
 10
255.4875
 20
35.337499996
 11
255.675
 21
35.462499996
  0
LINE
  8
0
  6
CONTINUOUS
 62
     6
 10
255.1125
 20
39.337499996
 11
255.1125
 21
36.337499996
  0
LINE
  8
0
  6
CONTINUOUS
 62
     6
 10
255.709722222
 20
40.149999996
 11
255.6125
 21
40.274999996
  0
LINE
  8
0
  6
CONTINUOUS
 62
     6
 10
256.05
 20
39.712499996
 11
255.806944444
 21
40.024999996
  0
LINE
  8
0
  6
CONTINUOUS
 62
     6
 10
256.05
 20
39.712499996
 11
256.05
 21
35.649999996
  0
LINE
  8
0
  6
CONTINUOUS
 62
     6
 10
251.503125
 20
40.843359371
 11
255.628125
 21
40.327734371
  0
LINE
  8
0
  6
CONTINUOUS
 62
     6
 10
251.815625
 20
39.866796871
 11
254.940625
 21
39.476171871
  0
LINE
  8
0
  6
CONTINUOUS
 62
     6
 10
250.6125
 20
39.899999996
 11
250.6125
 21
38.462499996
  0
LINE
  8
0
  6
CONTINUOUS
 62
     6
 10
254.940625
 20
36.351171871
 11
251.753125
 21
36.749609371
  0
LINE
  8
0
  6
CONTINUOUS
 62
     6
 10
250.253125
 20
36.937109371
 11
247.190625
 21
37.319921871
  0
LINE
  8
0
  6
CONTINUOUS
 62
     6
 10
246.380357143
 20
36.649999996
 11
246.4875
 21
36.524999996
  0
LINE
  8
0
  6
CONTINUOUS
 62
     6
 10
246.1125
 20
36.962499996
 11
246.166071428
 21
36.899999996
  0
LINE
  8
0
  6
CONTINUOUS
 62
     6
 10
250.878125
 20
35.921484371
 11
246.565625
 21
36.460546871
  0
LINE
  8
0
  6
CONTINUOUS
 62
     6
 10
246.9875
 20
37.524999996
 11
246.9875
 21
40.462499996
  0
LINE
  8
0
  6
CONTINUOUS
 62
     6
 10
247.315625
 20
40.429296871
 11
250.503125
 21
40.030859371
  0
LINE
  8
0
  6
CONTINUOUS
 62
     6
 10
246.291071428
 20
41.337499996
 11
246.3625
 21
41.462499996
  0
LINE
  8
0
  6
CONTINUOUS
 62
     6
 10
246.1125
 20
41.024999996
 11
246.148214286
 21
41.087499996
  0
LINE
  8
0
  6
CONTINUOUS
 62
     6
 10
246.05
 20
37.024999996
 11
246.05
 21
40.962499996
  0
LINE
  8
0
  6
CONTINUOUS
 62
     6
 10
246.3625
 20
41.524999996
 11
251.05
 21
40.899999996
  0
POINT
  8
0
  6
CONTINUOUS
 62
     6
 10
256.05
 20
26.212499996
  0
POINT
  8
0
  6
CONTINUOUS
 62
     6
 10
246.05
 20
30.587499996
  0
LINE
  8
0
  6
CONTINUOUS
 62
     6
 10
250.6125
 20
28.399999996
 11
250.6125
 21
26.962499996
  0
LINE
  8
0
  6
CONTINUOUS
 62
     6
 10
251.55
 20
26.899999996
 11
251.55
 21
30.024999996
  0
LINE
  8
0
  6
CONTINUOUS
 62
     6
 10
246.9875
 20
30.399999996
 11
246.2375
 21
31.024999996
  0
LINE
  8
0
  6
CONTINUOUS
 62
     6
 10
246.3
 20
31.274999996
 11
247.2375
 21
30.524999996
  0
LINE
  8
0
  6
CONTINUOUS
 62
     6
 10
246.925
 20
27.462499996
 11
246.2375
 21
26.899999996
  0
LINE
  8
0
  6
CONTINUOUS
 62
     6
 10
247.175
 20
27.337499996
 11
246.3625
 21
26.712499996
  0
LINE
  8
0
  6
CONTINUOUS
 62
     6
 10
250.4875
 20
30.024999996
 11
251.1125
 21
30.837499996
  0
LINE
  8
0
  6
CONTINUOUS
 62
     6
 10
250.675
 20
29.962499996
 11
251.3
 21
30.774999996
  0
LINE
  8
0
  6
CONTINUOUS
 62
     6
 10
251.3
 20
30.774999996
 11
251.55
 21
29.899999996
  0
LINE
  8
0
  6
CONTINUOUS
 62
     6
 10
251.7375
 20
29.899999996
 11
251.4875
 21
30.837499996
  0
LINE
  8
0
  6
CONTINUOUS
 62
     6
 10
250.6125
 20
26.899999996
 11
250.9875
 21
26.087499996
  0
LINE
  8
0
  6
CONTINUOUS
 62
     6
 10
250.9875
 20
26.087499996
 11
251.55
 21
26.837499996
  0
LINE
  8
0
  6
CONTINUOUS
 62
     6
 10
251.675
 20
26.712499996
 11
251.1125
 21
25.899999996
  0
LINE
  8
0
  6
CONTINUOUS
 62
     6
 10
250.8625
 20
25.962499996
 11
250.3625
 21
26.899999996
  0
LINE
  8
0
  6
CONTINUOUS
 62
     6
 10
254.9875
 20
29.462499996
 11
255.675
 21
30.149999996
  0
LINE
  8
0
  6
CONTINUOUS
 62
     6
 10
255.1125
 20
29.337499996
 11
255.8
 21
30.024999996
  0
LINE
  8
0
  6
CONTINUOUS
 62
     6
 10
254.9875
 20
26.337499996
 11
255.6125
 21
25.462499996
  0
LINE
  8
0
  6
CONTINUOUS
 62
     6
 10
255.7375
 20
25.587499996
 11
255.175
 21
26.337499996
  0
LINE
  8
0
  6
CONTINUOUS
 62
     6
 10
255.4875
 20
25.345312496
 11
251.05
 21
25.899999996
  0
LINE
  8
0
  6
CONTINUOUS
 62
     6
 10
255.8
 20
25.54583333
 11
256.05
 21
25.712499996
  0
LINE
  8
0
  6
CONTINUOUS
 62
     6
 10
255.4875
 20
25.337499996
 11
255.675
 21
25.462499996
  0
LINE
  8
0
  6
CONTINUOUS
 62
     6
 10
255.1125
 20
29.337499996
 11
255.1125
 21
26.337499996
  0
LINE
  8
0
  6
CONTINUOUS
 62
     6
 10
255.709722222
 20
30.149999996
 11
255.6125
 21
30.274999996
  0
LINE
  8
0
  6
CONTINUOUS
 62
     6
 10
256.05
 20
29.712499996
 11
255.806944444
 21
30.024999996
  0
LINE
  8
0
  6
CONTINUOUS
 62
     6
 10
256.05
 20
29.712499996
 11
256.05
 21
25.649999996
  0
LINE
  8
0
  6
CONTINUOUS
 62
     6
 10
251.503125
 20
30.843359371
 11
255.628125
 21
30.327734371
  0
LINE
  8
0
  6
CONTINUOUS
 62
     6
 10
251.815625
 20
29.866796871
 11
254.940625
 21
29.476171871
  0
LINE
  8
0
  6
CONTINUOUS
 62
     6
 10
250.6125
 20
29.899999996
 11
250.6125
 21
28.462499996
  0
LINE
  8
0
  6
CONTINUOUS
 62
     6
 10
254.940625
 20
26.351171871
 11
251.753125
 21
26.749609371
  0
LINE
  8
0
  6
CONTINUOUS
 62
     6
 10
250.253125
 20
26.937109371
 11
247.190625
 21
27.319921871
  0
LINE
  8
0
  6
CONTINUOUS
 62
     6
 10
246.380357143
 20
26.649999996
 11
246.4875
 21
26.524999996
  0
LINE
  8
0
  6
CONTINUOUS
 62
     6
 10
246.1125
 20
26.962499996
 11
246.166071428
 21
26.899999996
  0
LINE
  8
0
  6
CONTINUOUS
 62
     6
 10
250.878125
 20
25.921484371
 11
246.565625
 21
26.460546871
  0
LINE
  8
0
  6
CONTINUOUS
 62
     6
 10
246.9875
 20
27.524999996
 11
246.9875
 21
30.462499996
  0
LINE
  8
0
  6
CONTINUOUS
 62
     6
 10
247.315625
 20
30.429296871
 11
250.503125
 21
30.030859371
  0
LINE
  8
0
  6
CONTINUOUS
 62
     6
 10
246.291071428
 20
31.337499996
 11
246.3625
 21
31.462499996
  0
LINE
  8
0
  6
CONTINUOUS
 62
     6
 10
246.1125
 20
31.024999996
 11
246.148214285
 21
31.087499996
  0
LINE
  8
0
  6
CONTINUOUS
 62
     6
 10
246.05
 20
27.024999996
 11
246.05
 21
30.962499996
  0
LINE
  8
0
  6
CONTINUOUS
 62
     6
 10
246.3625
 20
31.524999996
 11
251.05
 21
30.899999996
  0
LINE
  8
0
  6
CONTINUOUS
 62
     6
 10
250.675
 20
21.024999996
 11
250.675
 21
23.274999996
  0
LINE
  8
0
  6
CONTINUOUS
 62
     6
 10
250.675
 20
23.274999996
 11
251.55
 21
23.274999996
  0
LINE
  8
0
  6
CONTINUOUS
 62
     6
 10
251.55
 20
21.024999996
 11
251.55
 21
23.274999996
  0
LINE
  8
0
  6
CONTINUOUS
 62
     6
 10
251.55
 20
21.024999996
 11
250.675
 21
21.024999996
  0
CIRCLE
  8
0
  6
CONTINUOUS
 62
     6
 10
32.35
 20
76.9625
 40
2.5
  0
LINE
  8
0
  6
CONTINUOUS
 62
     6
 10
30.75
 20
78.6625
 11
33.85
 21
75.1625
  0
LINE
  8
0
  6
CONTINUOUS
 62
     6
 10
33.95
 20
78.6625
 11
30.55
 21
75.2625
  0
CIRCLE
  8
0
  6
CONTINUOUS
 62
     6
 10
32.35
 20
69.3625
 40
2.5
  0
LINE
  8
0
  6
CONTINUOUS
 62
     6
 10
30.75
 20
71.0625
 11
33.85
 21
67.5625
  0
LINE
  8
0
  6
CONTINUOUS
 62
     6
 10
33.95
 20
71.0625
 11
30.55
 21
67.6625
  0
CIRCLE
  8
0
  6
CONTINUOUS
 62
     6
 10
32.35
 20
61.7625
 40
2.5
  0
LINE
  8
0
  6
CONTINUOUS
 62
     6
 10
30.75
 20
63.4625
 11
33.85
 21
59.9625
  0
LINE
  8
0
  6
CONTINUOUS
 62
     6
 10
33.95
 20
63.4625
 11
30.55
 21
60.0625
  0
CIRCLE
  8
0
  6
CONTINUOUS
 62
     6
 10
32.35
 20
54.1625
 40
2.5
  0
LINE
  8
0
  6
CONTINUOUS
 62
     6
 10
30.75
 20
55.8625
 11
33.85
 21
52.3625
  0
LINE
  8
0
  6
CONTINUOUS
 62
     6
 10
33.95
 20
55.8625
 11
30.55
 21
52.4625
  0
CIRCLE
  8
0
  6
CONTINUOUS
 62
     6
 10
32.35
 20
46.5625
 40
2.5
  0
LINE
  8
0
  6
CONTINUOUS
 62
     6
 10
30.75
 20
48.2625
 11
33.85
 21
44.7625
  0
LINE
  8
0
  6
CONTINUOUS
 62
     6
 10
33.95
 20
48.2625
 11
30.55
 21
44.8625
  0
CIRCLE
  8
0
  6
CONTINUOUS
 62
     6
 10
32.35
 20
39.0625
 40
2.5
  0
LINE
  8
0
  6
CONTINUOUS
 62
     6
 10
30.75
 20
40.7625
 11
33.85
 21
37.2625
  0
LINE
  8
0
  6
CONTINUOUS
 62
     6
 10
33.95
 20
40.7625
 11
30.55
 21
37.3625
  0
CIRCLE
  8
0
  6
CONTINUOUS
 62
     6
 10
32.35
 20
31.4625
 40
2.5
  0
LINE
  8
0
  6
CONTINUOUS
 62
     6
 10
30.75
 20
33.1625
 11
33.85
 21
29.6625
  0
LINE
  8
0
  6
CONTINUOUS
 62
     6
 10
33.95
 20
33.1625
 11
30.55
 21
29.7625
  0
CIRCLE
  8
0
  6
CONTINUOUS
 62
     6
 10
32.35
 20
23.5625
 40
2.5
  0
LINE
  8
0
  6
CONTINUOUS
 62
     6
 10
30.75
 20
25.2625
 11
33.85
 21
21.7625
  0
LINE
  8
0
  6
CONTINUOUS
 62
     6
 10
33.95
 20
25.2625
 11
30.55
 21
21.8625
  0
LINE
  8
0
  6
CONTINUOUS
 62
     6
 10
48.6
 20
18.3625
 11
48.6
 21
16.35
  0
LINE
  8
0
  6
CONTINUOUS
 62
     6
 10
47.6
 20
18.3625
 11
47.6
 21
16.35
  0
LINE
  8
0
  6
CONTINUOUS
 62
     6
 10
43.1
 20
16.35
 11
43.1
 21
18.3625
  0
LINE
  8
0
  6
CONTINUOUS
 62
     6
 10
42.1
 20
16.35
 11
42.1
 21
18.3625
  0
LINE
  8
0
  6
CONTINUOUS
 62
     6
 10
244.050000001
 20
83.9
 11
243.675000001
 21
84.275
  0
TEXT
  8
0
  6
CONTINUOUS
 62
     6
 10
266.8
 20
44.525
 30
0.0
 40
2.0
  1
８
 50
90.0
 41
0.9
 51
0.0
  7
KANJI0
  0
TEXT
  8
0
  6
CONTINUOUS
 62
     6
 10
266.8
 20
39.4
 30
0.0
 40
2.0
  1
８
 50
90.0
 41
0.9
 51
0.0
  7
KANJI0
  0
TEXT
  8
0
  6
CONTINUOUS
 62
     6
 10
266.8
 20
34.4
 30
0.0
 40
2.0
  1
８
 50
90.0
 41
0.9
 51
0.0
  7
KANJI0
  0
TEXT
  8
0
  6
CONTINUOUS
 62
     6
 10
266.8
 20
29.4
 30
0.0
 40
2.0
  1
８
 50
90.0
 41
0.9
 51
0.0
  7
KANJI0
  0
TEXT
  8
0
  6
CONTINUOUS
 62
     6
 10
266.8
 20
24.525
 30
0.0
 40
2.0
  1
＋
 50
90.0
 41
0.9
 51
0.0
  7
KANJI0
  0
TEXT
  8
0
  6
CONTINUOUS
 62
     6
 10
266.8
 20
54.275
 30
0.0
 40
2.0
  1
－
 50
90.0
 41
0.9
 51
0.0
  7
KANJI0
  0
TEXT
  8
0
  6
CONTINUOUS
 62
     6
 10
266.8
 20
59.275
 30
0.0
 40
2.0
  1
８
 50
90.0
 41
0.9
 51
0.0
  7
KANJI0
  0
TEXT
  8
0
  6
CONTINUOUS
 62
     6
 10
266.800000001
 20
64.275
 30
0.0
 40
2.0
  1
８
 50
90.0
 41
0.9
 51
0.0
  7
KANJI0
  0
TEXT
  8
0
  6
CONTINUOUS
 62
     6
 10
266.800000001
 20
74.15
 30
0.0
 40
2.0
  1
８
 50
90.0
 41
0.9
 51
0.0
  7
KANJI0
  0
TEXT
  8
0
  6
CONTINUOUS
 62
     6
 10
266.800000001
 20
69.275
 30
0.0
 40
2.0
  1
８
 50
90.0
 41
0.9
 51
0.0
  7
KANJI0
  0
CIRCLE
  8
0
  6
CONTINUOUS
 62
     3
 10
45.31
 20
45.32
 40
0.5
  0
CIRCLE
  8
0
  6
CONTINUOUS
 62
     3
 10
47.85
 20
45.32
 40
0.5
  0
CIRCLE
  8
0
  6
CONTINUOUS
 62
     3
 10
45.31
 20
42.78
 40
0.5
  0
CIRCLE
  8
0
  6
CONTINUOUS
 62
     3
 10
47.85
 20
42.78
 40
0.5
  0
CIRCLE
  8
0
  6
CONTINUOUS
 62
     3
 10
45.31
 20
40.24
 40
0.5
  0
CIRCLE
  8
0
  6
CONTINUOUS
 62
     3
 10
47.85
 20
40.24
 40
0.5
  0
CIRCLE
  8
0
  6
CONTINUOUS
 62
     3
 10
45.31
 20
37.7
 40
0.5
  0
CIRCLE
  8
0
  6
CONTINUOUS
 62
     3
 10
47.85
 20
37.7
 40
0.5
  0
CIRCLE
  8
0
  6
CONTINUOUS
 62
     3
 10
45.31
 20
35.16
 40
0.5
  0
CIRCLE
  8
0
  6
CONTINUOUS
 62
     3
 10
47.85
 20
35.16
 40
0.5
  0
CIRCLE
  8
0
  6
CONTINUOUS
 62
     3
 10
45.31
 20
32.62
 40
0.5
  0
CIRCLE
  8
0
  6
CONTINUOUS
 62
     3
 10
47.85
 20
32.62
 40
0.5
  0
CIRCLE
  8
0
  6
CONTINUOUS
 62
     3
 10
45.31
 20
30.08
 40
0.5
  0
CIRCLE
  8
0
  6
CONTINUOUS
 62
     3
 10
47.85
 20
30.08
 40
0.5
  0
POINT
  8
0
  6
CONTINUOUS
 62
     3
 10
50.75
 20
26.3
  0
LINE
  8
0
  6
CONTINUOUS
 62
     3
 10
43.35
 20
48.3
 11
42.45
 21
48.3
  0
LINE
  8
0
  6
CONTINUOUS
 62
     3
 10
43.35
 20
30.4
 11
42.45
 21
30.4
  0
LINE
  8
0
  6
CONTINUOUS
 62
     3
 10
42.45
 20
32.4
 11
43.35
 21
32.4
  0
LINE
  8
0
  6
CONTINUOUS
 62
     3
 10
50.75
 20
26.3
 11
48.48
 21
26.3
  0
LINE
  8
0
  6
CONTINUOUS
 62
     3
 10
48.48
 20
23.3
 11
50.75
 21
23.3
  0
LINE
  8
0
  6
CONTINUOUS
 62
     3
 10
44.68
 20
23.3
 11
42.45
 21
23.3
  0
LINE
  8
0
  6
CONTINUOUS
 62
     3
 10
42.45
 20
26.3
 11
44.68
 21
26.3
  0
LINE
  8
0
  6
CONTINUOUS
 62
     3
 10
49.85
 20
46.911111111
 11
49.85
 21
26.3
  0
LINE
  8
0
  6
CONTINUOUS
 62
     3
 10
43.35
 20
26.3
 11
43.35
 21
48.4
  0
LINE
  8
0
  6
CONTINUOUS
 62
     1
 10
53.35
 20
45.5
 11
52.55
 21
45.7
  0
LINE
  8
0
  6
CONTINUOUS
 62
     1
 10
52.55
 20
45.7
 11
51.85
 21
46.0
  0
LINE
  8
0
  6
CONTINUOUS
 62
     1
 10
51.85
 20
46.0
 11
51.05
 21
46.3
  0
LINE
  8
0
  6
CONTINUOUS
 62
     1
 10
51.05
 20
46.3
 11
50.55
 21
46.6
  0
LINE
  8
0
  6
CONTINUOUS
 62
     1
 10
50.55
 20
46.6
 11
49.65
 21
47.0
  0
LINE
  8
0
  6
CONTINUOUS
 62
     1
 10
49.65
 20
47.0
 11
48.95
 21
47.3
  0
LINE
  8
0
  6
CONTINUOUS
 62
     1
 10
48.95
 20
47.3
 11
48.25
 21
47.5
  0
LINE
  8
0
  6
CONTINUOUS
 62
     1
 10
48.25
 20
47.5
 11
47.25
 21
47.6
  0
LINE
  8
0
  6
CONTINUOUS
 62
     1
 10
47.25
 20
47.6
 11
46.35
 21
47.6
  0
LINE
  8
0
  6
CONTINUOUS
 62
     1
 10
46.35
 20
47.6
 11
45.45
 21
47.5
  0
LINE
  8
0
  6
CONTINUOUS
 62
     1
 10
45.45
 20
47.5
 11
44.65
 21
47.7
  0
LINE
  8
0
  6
CONTINUOUS
 62
     1
 10
44.65
 20
47.7
 11
44.05
 21
47.9
  0
LINE
  8
0
  6
CONTINUOUS
 62
     1
 10
44.05
 20
47.9
 11
43.45
 21
48.3
  0
LINE
  8
0
  6
CONTINUOUS
 62
     1
 10
43.45
 20
48.3
 11
42.95
 21
48.7
  0
LINE
  8
0
  6
CONTINUOUS
 62
     6
 10
47.35
 20
82.3625
 11
47.35
 21
81.8625
  0
LINE
  8
0
  6
CONTINUOUS
 62
     6
 10
51.85
 20
81.8625
 11
52.85
 21
81.8625
  0
LINE
  8
0
  6
CONTINUOUS
 62
     6
 10
52.85
 20
81.8625
 11
53.85
 21
81.8625
  0
LINE
  8
0
  6
CONTINUOUS
 62
     6
 10
47.35
 20
81.8625
 11
51.85
 21
81.8625
  0
LINE
  8
0
  6
CONTINUOUS
 62
     6
 10
47.35
 20
18.3625
 11
47.35
 21
18.8625
  0
LINE
  8
0
  6
CONTINUOUS
 62
     6
 10
51.85
 20
18.8625
 11
52.85
 21
18.8625
  0
LINE
  8
0
  6
CONTINUOUS
 62
     6
 10
52.85
 20
18.8625
 11
53.85
 21
18.8625
  0
LINE
  8
0
  6
CONTINUOUS
 62
     6
 10
47.35
 20
18.8625
 11
51.85
 21
18.8625
  0
LINE
  8
0
  6
CONTINUOUS
 62
     6
 10
53.85
 20
81.1
 11
55.85
 21
81.1
  0
LINE
  8
0
  6
CONTINUOUS
 62
     6
 10
53.85
 20
19.6
 11
55.85
 21
19.6
  0
LINE
  8
0
  6
CONTINUOUS
 62
     6
 10
53.85
 20
18.8625
 11
53.85
 21
19.6
  0
LINE
  8
0
  6
CONTINUOUS
 62
     6
 10
53.85
 20
81.85
 11
53.85
 21
19.52
  0
CIRCLE
  8
0
  6
CONTINUOUS
 62
     6
 10
46.6
 20
52.8625
 40
2.0
  0
LINE
  8
0
  6
CONTINUOUS
 62
     6
 10
46.8
 20
54.65
 11
46.8
 21
50.9
  0
LINE
  8
0
  6
CONTINUOUS
 62
     6
 10
46.3
 20
50.9
 11
46.3
 21
54.65
  0
CIRCLE
  8
0
  6
CONTINUOUS
 62
     6
 10
46.6
 20
57.8625
 40
2.0
  0
LINE
  8
0
  6
CONTINUOUS
 62
     6
 10
46.8
 20
59.65
 11
46.8
 21
55.9
  0
LINE
  8
0
  6
CONTINUOUS
 62
     6
 10
46.3
 20
55.9
 11
46.3
 21
59.65
  0
CIRCLE
  8
0
  6
CONTINUOUS
 62
     6
 10
46.6
 20
62.8625
 40
2.0
  0
LINE
  8
0
  6
CONTINUOUS
 62
     6
 10
46.8
 20
64.65
 11
46.8
 21
60.9
  0
LINE
  8
0
  6
CONTINUOUS
 62
     6
 10
46.3
 20
60.9
 11
46.3
 21
64.65
  0
CIRCLE
  8
0
  6
CONTINUOUS
 62
     6
 10
46.6
 20
67.8625
 40
2.0
  0
LINE
  8
0
  6
CONTINUOUS
 62
     6
 10
46.8
 20
69.65
 11
46.8
 21
65.9
  0
LINE
  8
0
  6
CONTINUOUS
 62
     6
 10
46.3
 20
65.9
 11
46.3
 21
69.65
  0
CIRCLE
  8
0
  6
CONTINUOUS
 62
     6
 10
46.6
 20
72.8625
 40
2.0
  0
LINE
  8
0
  6
CONTINUOUS
 62
     6
 10
46.8
 20
74.65
 11
46.8
 21
70.9
  0
LINE
  8
0
  6
CONTINUOUS
 62
     6
 10
46.3
 20
70.9
 11
46.3
 21
74.65
  0
CIRCLE
  8
0
  6
CONTINUOUS
 62
     6
 10
46.6
 20
77.8625
 40
2.0
  0
LINE
  8
0
  6
CONTINUOUS
 62
     6
 10
46.8
 20
79.65
 11
46.8
 21
75.9
  0
LINE
  8
0
  6
CONTINUOUS
 62
     6
 10
46.3
 20
75.9
 11
46.3
 21
79.65
  0
LINE
  8
0
  6
CONTINUOUS
 62
     6
 10
53.3
 20
80.8625
 11
42.85
 21
80.8625
  0
ARC
  8
0
  6
CONTINUOUS
 62
     6
 10
46.6
 20
47.8625
 40
2.0
 50
347.056483615
 51
184.763641691
  0
LINE
  8
0
  6
CONTINUOUS
 62
     6
 10
46.3
 20
47.6
 11
46.3
 21
49.65
  0
LINE
  8
0
  6
CONTINUOUS
 62
     6
 10
46.8
 20
49.65
 11
46.8
 21
47.645
  0
LINE
  8
0
  6
CONTINUOUS
 62
     6
 10
49.85
 20
47.0
 11
49.85
 21
80.8625
  0
LINE
  8
0
  6
CONTINUOUS
 62
     6
 10
53.35
 20
45.5
 11
53.35
 21
80.65
  0
LINE
  8
0
  6
CONTINUOUS
 62
     6
 10
43.35
 20
80.8625
 11
43.35
 21
48.366666667
  0
LINE
  8
0
  6
CONTINUOUS
 62
     6
 10
42.85
 20
80.8625
 11
42.85
 21
48.7
  0
LINE
  8
0
  6
CONTINUOUS
 62
     6
 10
52.85
 20
18.8625
 11
53.85
 21
18.8625
  0
LINE
  8
0
  6
CONTINUOUS
 62
     6
 10
53.85
 20
18.8625
 11
53.85
 21
19.6
  0
LINE
  8
0
  6
CONTINUOUS
 62
     6
 10
53.85
 20
81.85
 11
53.85
 21
19.52
  0
LINE
  8
0
  6
CONTINUOUS
 62
     6
 10
48.48
 20
22.7
 11
44.68
 21
22.7
  0
LINE
  8
0
  6
CONTINUOUS
 62
     6
 10
48.48
 20
23.1
 11
44.68
 21
23.1
  0
LINE
  8
0
  6
CONTINUOUS
 62
     6
 10
48.48
 20
23.5
 11
44.68
 21
23.5
  0
LINE
  8
0
  6
CONTINUOUS
 62
     6
 10
48.48
 20
23.9
 11
44.68
 21
23.9
  0
LINE
  8
0
  6
CONTINUOUS
 62
     6
 10
48.48
 20
24.3
 11
44.68
 21
24.3
  0
LINE
  8
0
  6
CONTINUOUS
 62
     6
 10
48.48
 20
25.1
 11
44.68
 21
25.1
  0
LINE
  8
0
  6
CONTINUOUS
 62
     6
 10
48.48
 20
25.5
 11
44.68
 21
25.5
  0
LINE
  8
0
  6
CONTINUOUS
 62
     6
 10
48.48
 20
25.9
 11
44.68
 21
25.9
  0
LINE
  8
0
  6
CONTINUOUS
 62
     6
 10
48.48
 20
26.3
 11
44.68
 21
26.3
  0
LINE
  8
0
  6
CONTINUOUS
 62
     6
 10
42.45
 20
32.4
 11
42.45
 21
48.3
  0
LINE
  8
0
  6
CONTINUOUS
 62
     6
 10
42.45
 20
23.3
 11
42.45
 21
30.4
  0
LINE
  8
0
  6
CONTINUOUS
 62
     6
 10
42.85
 20
30.4
 11
42.85
 21
32.4
  0
LINE
  8
0
  6
CONTINUOUS
 62
     6
 10
51.85
 20
18.8625
 11
52.85
 21
18.8625
  0
LINE
  8
0
  6
CONTINUOUS
 62
     6
 10
50.75
 20
19.4
 11
47.85
 21
19.4
  0
LINE
  8
0
  6
CONTINUOUS
 62
     6
 10
50.75
 20
23.3
 11
50.75
 21
19.4
  0
LINE
  8
0
  6
CONTINUOUS
 62
     6
 10
42.45
 20
19.4
 11
42.45
 21
23.3
  0
LINE
  8
0
  6
CONTINUOUS
 62
     6
 10
48.18
 20
19.4
 11
42.45
 21
19.4
  0
LINE
  8
0
  6
CONTINUOUS
 62
     6
 10
50.78
 20
24.7
 11
42.38
 21
24.7
  0
LINE
  8
0
  6
CONTINUOUS
 62
     6
 10
48.48
 20
28.0
 11
44.68
 21
28.0
  0
LINE
  8
0
  6
CONTINUOUS
 62
     6
 10
44.68
 20
21.9
 11
48.48
 21
21.9
  0
LINE
  8
0
  6
CONTINUOUS
 62
     6
 10
44.98
 20
21.9
 11
44.98
 21
19.4
  0
LINE
  8
0
  6
CONTINUOUS
 62
     6
 10
48.18
 20
21.9
 11
48.18
 21
19.4
  0
LINE
  8
0
  6
CONTINUOUS
 62
     6
 10
48.48
 20
21.9
 11
48.48
 21
28.0
  0
LINE
  8
0
  6
CONTINUOUS
 62
     6
 10
44.68
 20
28.0
 11
44.68
 21
21.9
  0
LINE
  8
0
  6
CONTINUOUS
 62
     6
 10
52.35
 20
45.8
 11
52.35
 21
18.8625
  0
LINE
  8
0
  6
CONTINUOUS
 62
     6
 10
50.95
 20
18.8625
 11
50.95
 21
46.3
  0
LINE
  8
0
  6
CONTINUOUS
 62
     6
 10
50.75
 20
46.5
 11
50.75
 21
23.3
  0
LINE
  8
0
  6
CONTINUOUS
 62
     5
 10
95.05
 20
23.279742173
 11
94.05
 21
23.279742173
  0
POINT
  8
0
  6
LTYPE2
 62
     5
 10
94.05
 20
19.779742173
  0
LINE
  8
0
  6
LTYPE2
 62
     5
 10
95.745276079
 20
18.672513941
 11
95.720624713
 21
18.390747531
  0
LINE
  8
0
  6
LTYPE2
 62
     5
 10
93.876817361
 20
18.410098209
 11
93.901468727
 21
18.691864619
  0
POINT
  8
0
  6
LTYPE2
 62
     5
 10
91.23701351
 20
19.066935808
  0
LINE
  8
0
  6
CONTINUOUS
 62
     3
 10
102.65
 20
44.65
 11
104.55
 21
44.65
  0
LINE
  8
0
  6
CONTINUOUS
 62
     6
 10
102.083333333
 20
45.15
 11
104.55
 21
45.15
  0
LINE
  8
0
  6
CONTINUOUS
 62
     6
 10
104.55
 20
45.65
 11
100.55
 21
45.65
  0
LINE
  8
0
  6
CONTINUOUS
 62
     6
 10
98.05
 20
46.764285714
 11
98.05
 21
80.9
  0
LINE
  8
0
  6
CONTINUOUS
 62
     6
 10
93.55
 20
80.9
 11
93.55
 21
49.35
  0
LINE
  8
0
  6
CONTINUOUS
 62
     6
 10
99.55
 20
30.15
 11
99.55
 21
26.65
  0
LINE
  8
0
  6
CONTINUOUS
 62
     6
 10
106.05
 20
35.420257827
 11
106.05
 21
18.920257827
  0
POINT
  8
0
  6
CONTINUOUS
 62
     6
 10
99.55
 20
26.15
  0
LINE
  8
0
  6
CONTINUOUS
 62
     6
 10
106.05
 20
35.3
 11
106.05
 21
18.8
  0
ARC
  8
0
  6
CONTINUOUS
 62
     6
 10
98.55
 20
27.779742173
 40
0.5
 50
270.0
 51
0.0
  0
LINE
  8
0
  6
CONTINUOUS
 62
     6
 10
95.05
 20
27.279742173
 11
98.55
 21
27.279742173
  0
LINE
  8
0
  6
CONTINUOUS
 62
     6
 10
95.05
 20
23.279742173
 11
105.05
 21
23.279742173
  0
LINE
  8
0
  6
CONTINUOUS
 62
     6
 10
105.05
 20
25.279742173
 11
95.05
 21
25.279742173
  0
LINE
  8
0
  6
CONTINUOUS
 62
     6
 10
99.05
 20
27.779743127
 11
99.05
 21
48.279742173
  0
LINE
  8
0
  6
CONTINUOUS
 62
     6
 10
99.55
 20
25.350000954
 11
99.55
 21
45.85
  0
LINE
  8
0
  6
CONTINUOUS
 62
     6
 10
105.05
 20
18.679742173
 11
95.05
 21
23.279742173
  0
LINE
  8
0
  6
CONTINUOUS
 62
     6
 10
91.05
 20
23.279742173
 11
84.55
 21
21.779742173
  0
LINE
  8
0
  6
CONTINUOUS
 62
     6
 10
83.865959713
 20
23.659127415
 11
84.55
 21
21.779742173
  0
LINE
  8
0
  6
CONTINUOUS
 62
     6
 10
90.55
 20
27.679742173
 11
90.65
 21
27.679742173
  0
LINE
  8
0
  6
CONTINUOUS
 62
     6
 10
90.65
 20
27.679742173
 11
90.65
 21
27.879742173
  0
POINT
  8
0
  6
CONTINUOUS
 62
     6
 10
90.65
 20
27.879742173
  0
LINE
  8
0
  6
CONTINUOUS
 62
     6
 10
90.65
 20
27.879742173
 11
89.95
 21
27.879742173
  0
LINE
  8
0
  6
CONTINUOUS
 62
     6
 10
90.55
 20
26.279742173
 11
90.55
 21
27.679742173
  0
LINE
  8
0
  6
CONTINUOUS
 62
     6
 10
83.865959713
 20
23.659127415
 11
89.95
 21
27.879742173
  0
LINE
  8
0
  6
CONTINUOUS
 62
     6
 10
90.55
 20
23.279742173
 11
95.05
 21
23.279742173
  0
LINE
  8
0
  6
CONTINUOUS
 62
     6
 10
95.05
 20
23.279742173
 11
95.05
 21
27.279742173
  0
LINE
  8
0
  6
CONTINUOUS
 62
     6
 10
95.05
 20
26.279742173
 11
90.55
 21
26.279742173
  0
LINE
  8
0
  6
LTYPE2
 62
     6
 10
94.05
 20
24.579742173
 11
95.05
 21
24.579742173
  0
LINE
  8
0
  6
LTYPE2
 62
     6
 10
93.95
 20
24.479742173
 11
94.05
 21
24.579742173
  0
LINE
  8
0
  6
LTYPE2
 62
     6
 10
93.95
 20
24.479742173
 11
92.45
 21
24.479742173
  0
LINE
  8
0
  6
LTYPE2
 62
     6
 10
92.45
 20
24.479742173
 11
92.25
 21
24.679742173
  0
LINE
  8
0
  6
LTYPE2
 62
     6
 10
92.25
 20
24.679742173
 11
92.25
 21
25.679742173
  0
LINE
  8
0
  6
LTYPE2
 62
     6
 10
92.25
 20
25.679742173
 11
92.45
 21
25.879742173
  0
LINE
  8
0
  6
LTYPE2
 62
     6
 10
92.45
 20
25.879742173
 11
93.65
 21
25.879742173
  0
LINE
  8
0
  6
LTYPE2
 62
     6
 10
93.65
 20
25.879742173
 11
93.85
 21
25.679742173
  0
LINE
  8
0
  6
LTYPE2
 62
     6
 10
93.85
 20
25.679742173
 11
93.85
 21
24.679742173
  0
LINE
  8
0
  6
LTYPE2
 62
     6
 10
93.85
 20
24.679742173
 11
93.65
 21
24.479742173
  0
LINE
  8
0
  6
LTYPE2
 62
     6
 10
93.95
 20
23.479742173
 11
93.95
 21
24.479742173
  0
LINE
  8
0
  6
CONTINUOUS
 62
     6
 10
92.05
 20
23.279742173
 11
92.05
 21
18.65
  0
LINE
  8
0
  6
CONTINUOUS
 62
     6
 10
92.05
 20
82.4
 11
92.05
 21
26.279742173
  0
LINE
  8
0
  6
CONTINUOUS
 62
     6
 10
91.05
 20
23.279742173
 11
91.05
 21
18.65
  0
LINE
  8
0
  6
CONTINUOUS
 62
     6
 10
91.05
 20
82.4
 11
91.05
 21
26.279742173
  0
LINE
  8
0
  6
LTYPE2
 62
     6
 10
97.25
 20
22.023778891
 11
92.188869242
 21
17.776985938
  0
LINE
  8
0
  6
LTYPE2
 62
     6
 10
93.901468727
 20
18.691864619
 11
94.820722059
 21
19.463209751
  0
LINE
  8
0
  6
LTYPE2
 62
     6
 10
94.820722059
 20
19.463209751
 11
95.10248847
 21
19.438558384
  0
LINE
  8
0
  6
LTYPE2
 62
     6
 10
95.10248847
 20
19.438558384
 11
95.745276079
 21
18.672513941
  0
LINE
  8
0
  6
LTYPE2
 62
     6
 10
97.455202271
 20
18.279742173
 11
101.255202271
 21
20.379742173
  0
LINE
  8
0
  6
LTYPE2
 62
     6
 10
94.801371381
 20
17.619402399
 11
94.51960497
 21
17.644053766
  0
LINE
  8
0
  6
LTYPE2
 62
     6
 10
95.710913002
 20
18.382598438
 11
94.801371381
 21
17.619402399
  0
LINE
  8
0
  6
LTYPE2
 62
     6
 10
97.564432065
 20
18.371396853
 11
96.798387622
 21
17.728609243
  0
LINE
  8
0
  6
LTYPE2
 62
     6
 10
94.117232071
 20
15.478852609
 11
97.564432065
 21
18.371396853
  0
LINE
  8
0
  6
LTYPE2
 62
     6
 10
94.51960497
 20
17.644053766
 11
93.876817361
 21
18.410098209
  0
LINE
  8
0
  6
LTYPE2
 62
     6
 10
88.753096019
 20
11.473060286
 11
90.485146827
 21
10.473060286
  0
LINE
  8
0
  6
LTYPE2
 62
     6
 10
94.500254292
 20
15.800246414
 11
90.485146827
 21
10.473060286
  0
LINE
  8
0
  6
LTYPE2
 62
     6
 10
92.188869242
 20
17.776985938
 11
91.288966588
 21
18.849448159
  0
LINE
  8
0
  6
LTYPE2
 62
     6
 10
91.288966588
 20
18.849448159
 11
91.365571032
 21
18.91372692
  0
LINE
  8
0
  6
LTYPE2
 62
     6
 10
91.365571032
 20
18.91372692
 11
91.23701351
 21
19.066935808
  0
LINE
  8
0
  6
LTYPE2
 62
     6
 10
91.23701351
 20
19.066935808
 11
90.7007824
 21
18.616984481
  0
LINE
  8
0
  6
LTYPE2
 62
     6
 10
88.753096019
 20
11.473060286
 11
90.7007824
 21
18.616984481
  0
LINE
  8
0
  6
CONTINUOUS
 62
     1
 10
95.25
 20
47.75
 11
94.65
 21
48.25
  0
LINE
  8
0
  6
CONTINUOUS
 62
     1
 10
94.65
 20
48.25
 11
93.95
 21
48.95
  0
LINE
  8
0
  6
CONTINUOUS
 62
     1
 10
95.85
 20
47.35
 11
95.25
 21
47.75
  0
LINE
  8
0
  6
CONTINUOUS
 62
     1
 10
98.15
 20
46.75
 11
97.55
 21
46.65
  0
LINE
  8
0
  6
CONTINUOUS
 62
     1
 10
97.55
 20
46.65
 11
96.95
 21
46.85
  0
LINE
  8
0
  6
CONTINUOUS
 62
     1
 10
96.95
 20
46.85
 11
96.45
 21
47.05
  0
LINE
  8
0
  6
CONTINUOUS
 62
     1
 10
96.45
 20
47.05
 11
95.85
 21
47.35
  0
LINE
  8
0
  6
CONTINUOUS
 62
     1
 10
99.55
 20
46.15
 11
99.95
 21
45.85
  0
LINE
  8
0
  6
CONTINUOUS
 62
     1
 10
99.95
 20
45.85
 11
100.55
 21
45.65
  0
LINE
  8
0
  6
CONTINUOUS
 62
     1
 10
100.55
 20
45.65
 11
101.25
 21
45.55
  0
LINE
  8
0
  6
CONTINUOUS
 62
     1
 10
101.25
 20
45.55
 11
101.75
 21
45.35
  0
LINE
  8
0
  6
CONTINUOUS
 62
     1
 10
101.75
 20
45.35
 11
102.25
 21
45.05
  0
LINE
  8
0
  6
CONTINUOUS
 62
     1
 10
102.25
 20
45.05
 11
102.75
 21
44.55
  0
LINE
  8
0
  6
CONTINUOUS
 62
     1
 10
102.75
 20
44.55
 11
103.25
 21
44.05
  0
LINE
  8
0
  6
CONTINUOUS
 62
     1
 10
99.55
 20
46.15
 11
99.15
 21
46.35
  0
LINE
  8
0
  6
CONTINUOUS
 62
     1
 10
103.25
 20
44.05
 11
103.85
 21
43.75
  0
LINE
  8
0
  6
CONTINUOUS
 62
     1
 10
103.85
 20
43.75
 11
104.35
 21
43.45
  0
LINE
  8
0
  6
CONTINUOUS
 62
     1
 10
104.35
 20
43.45
 11
104.95
 21
43.35
  0
LINE
  8
0
  6
CONTINUOUS
 62
     1
 10
104.95
 20
43.35
 11
105.55
 21
43.35
  0
LINE
  8
0
  6
CONTINUOUS
 62
     1
 10
105.55
 20
43.35
 11
106.05
 21
43.35
  0
LINE
  8
0
  6
CONTINUOUS
 62
     1
 10
99.15
 20
46.35
 11
98.85
 21
46.65
  0
LINE
  8
0
  6
CONTINUOUS
 62
     1
 10
98.85
 20
46.65
 11
98.15
 21
46.75
  0
TEXT
  8
0
  6
CONTINUOUS
 62
     6
 10
59.55
 20
228.6
 30
0.4
 40
4.0
  1
ＰＡＮＥＬ　ＣＵＴ
 50
0.0
 41
0.9
 51
0.0
  7
KANJI5
  0
ENDSEC
  0
EOF
