  0
SECTION
  2
HEADER
  9
$ACADVER
  1
AC1015
  9
$ACADMAINTVER
 70
     6
  9
$DWGCODEPAGE
  3
ANSI_932
  9
$INSBASE
 10
0.0
 20
0.0
 30
0.0
  9
$EXTMIN
 10
42.29333333333332
 20
43.22
 30
0.0
  9
$EXTMAX
 10
304.6
 20
272.1416666666667
 30
0.2
  9
$LIMMIN
 10
0.0
 20
0.0
  9
$LIMMAX
 10
12.0
 20
9.0
  9
$ORTHOMODE
 70
     0
  9
$REGENMODE
 70
     1
  9
$FILLMODE
 70
     1
  9
$QTEXTMODE
 70
     0
  9
$MIRRTEXT
 70
     1
  9
$LTSCALE
 40
1.0
  9
$ATTMODE
 70
     1
  9
$TEXTSIZE
 40
0.2
  9
$TRACEWID
 40
0.05
  9
$TEXTSTYLE
  7
STANDARD
  9
$CLAYER
  8
0
  9
$CELTYPE
  6
CONTINUOUS
  9
$CECOLOR
 62
   256
  9
$CELTSCALE
 40
1.0
  9
$DISPSILH
 70
     0
  9
$DIMSCALE
 40
1.0
  9
$DIMASZ
 40
0.18
  9
$DIMEXO
 40
0.0625
  9
$DIMDLI
 40
0.38
  9
$DIMRND
 40
0.0
  9
$DIMDLE
 40
0.0
  9
$DIMEXE
 40
0.18
  9
$DIMTP
 40
0.0
  9
$DIMTM
 40
0.0
  9
$DIMTXT
 40
0.18
  9
$DIMCEN
 40
0.09
  9
$DIMTSZ
 40
0.0
  9
$DIMTOL
 70
     0
  9
$DIMLIM
 70
     0
  9
$DIMTIH
 70
     1
  9
$DIMTOH
 70
     1
  9
$DIMSE1
 70
     0
  9
$DIMSE2
 70
     0
  9
$DIMTAD
 70
     0
  9
$DIMZIN
 70
     0
  9
$DIMBLK
  1

  9
$DIMASO
 70
     1
  9
$DIMSHO
 70
     1
  9
$DIMPOST
  1

  9
$DIMAPOST
  1

  9
$DIMALT
 70
     0
  9
$DIMALTD
 70
     2
  9
$DIMALTF
 40
25.4
  9
$DIMLFAC
 40
1.0
  9
$DIMTOFL
 70
     0
  9
$DIMTVP
 40
0.0
  9
$DIMTIX
 70
     0
  9
$DIMSOXD
 70
     0
  9
$DIMSAH
 70
     0
  9
$DIMBLK1
  1

  9
$DIMBLK2
  1

  9
$DIMSTYLE
  2
STANDARD
  9
$DIMCLRD
 70
     0
  9
$DIMCLRE
 70
     0
  9
$DIMCLRT
 70
     0
  9
$DIMTFAC
 40
1.0
  9
$DIMGAP
 40
0.09
  9
$DIMJUST
 70
     0
  9
$DIMSD1
 70
     0
  9
$DIMSD2
 70
     0
  9
$DIMTOLJ
 70
     1
  9
$DIMTZIN
 70
     0
  9
$DIMALTZ
 70
     0
  9
$DIMALTTZ
 70
     0
  9
$DIMUPT
 70
     0
  9
$DIMDEC
 70
     4
  9
$DIMTDEC
 70
     4
  9
$DIMALTU
 70
     2
  9
$DIMALTTD
 70
     2
  9
$DIMTXSTY
  7
STANDARD
  9
$DIMAUNIT
 70
     0
  9
$DIMADEC
 70
     0
  9
$DIMALTRND
 40
0.0
  9
$DIMAZIN
 70
     0
  9
$DIMDSEP
 70
    46
  9
$DIMATFIT
 70
     3
  9
$DIMFRAC
 70
     0
  9
$DIMLDRBLK
  1

  9
$DIMLUNIT
 70
     2
  9
$DIMLWD
 70
    -2
  9
$DIMLWE
 70
    -2
  9
$DIMTMOVE
 70
     0
  9
$LUNITS
 70
     2
  9
$LUPREC
 70
     4
  9
$SKETCHINC
 40
0.1
  9
$FILLETRAD
 40
0.0
  9
$AUNITS
 70
     0
  9
$AUPREC
 70
     0
  9
$MENU
  1
.
  9
$ELEVATION
 40
0.0
  9
$PELEVATION
 40
0.0
  9
$THICKNESS
 40
0.0
  9
$LIMCHECK
 70
     0
  9
$CHAMFERA
 40
0.0
  9
$CHAMFERB
 40
0.0
  9
$CHAMFERC
 40
0.0
  9
$CHAMFERD
 40
0.0
  9
$SKPOLY
 70
     0
  9
$TDCREATE
 40
2452152.873002789
  9
$TDUCREATE
 40
2452152.498002789
  9
$TDUPDATE
 40
2452751.648488889
  9
$TDUUPDATE
 40
2452751.273488888
  9
$TDINDWG
 40
0.0187357060
  9
$TDUSRTIMER
 40
0.0187315394
  9
$USRTIMER
 70
     1
  9
$ANGBASE
 50
0.0
  9
$ANGDIR
 70
     0
  9
$PDMODE
 70
     0
  9
$PDSIZE
 40
0.0
  9
$PLINEWID
 40
0.0
  9
$SPLFRAME
 70
     0
  9
$SPLINETYPE
 70
     6
  9
$SPLINESEGS
 70
     8
  9
$HANDSEED
  5
D3A
  9
$SURFTAB1
 70
     6
  9
$SURFTAB2
 70
     6
  9
$SURFTYPE
 70
     6
  9
$SURFU
 70
     6
  9
$SURFV
 70
     6
  9
$UCSBASE
  2

  9
$UCSNAME
  2

  9
$UCSORG
 10
0.0
 20
0.0
 30
0.0
  9
$UCSXDIR
 10
1.0
 20
0.0
 30
0.0
  9
$UCSYDIR
 10
0.0
 20
1.0
 30
0.0
  9
$UCSORTHOREF
  2

  9
$UCSORTHOVIEW
 70
     0
  9
$UCSORGTOP
 10
0.0
 20
0.0
 30
0.0
  9
$UCSORGBOTTOM
 10
0.0
 20
0.0
 30
0.0
  9
$UCSORGLEFT
 10
0.0
 20
0.0
 30
0.0
  9
$UCSORGRIGHT
 10
0.0
 20
0.0
 30
0.0
  9
$UCSORGFRONT
 10
0.0
 20
0.0
 30
0.0
  9
$UCSORGBACK
 10
0.0
 20
0.0
 30
0.0
  9
$PUCSBASE
  2

  9
$PUCSNAME
  2

  9
$PUCSORG
 10
0.0
 20
0.0
 30
0.0
  9
$PUCSXDIR
 10
1.0
 20
0.0
 30
0.0
  9
$PUCSYDIR
 10
0.0
 20
1.0
 30
0.0
  9
$PUCSORTHOREF
  2

  9
$PUCSORTHOVIEW
 70
     0
  9
$PUCSORGTOP
 10
0.0
 20
0.0
 30
0.0
  9
$PUCSORGBOTTOM
 10
0.0
 20
0.0
 30
0.0
  9
$PUCSORGLEFT
 10
0.0
 20
0.0
 30
0.0
  9
$PUCSORGRIGHT
 10
0.0
 20
0.0
 30
0.0
  9
$PUCSORGFRONT
 10
0.0
 20
0.0
 30
0.0
  9
$PUCSORGBACK
 10
0.0
 20
0.0
 30
0.0
  9
$USERI1
 70
     0
  9
$USERI2
 70
     0
  9
$USERI3
 70
     0
  9
$USERI4
 70
     0
  9
$USERI5
 70
     0
  9
$USERR1
 40
0.0
  9
$USERR2
 40
0.0
  9
$USERR3
 40
0.0
  9
$USERR4
 40
0.0
  9
$USERR5
 40
0.0
  9
$WORLDVIEW
 70
     1
  9
$SHADEDGE
 70
     3
  9
$SHADEDIF
 70
    70
  9
$TILEMODE
 70
     1
  9
$MAXACTVP
 70
    64
  9
$PINSBASE
 10
0.0
 20
0.0
 30
0.0
  9
$PLIMCHECK
 70
     0
  9
$PEXTMIN
 10
1.000000000000000E+20
 20
1.000000000000000E+20
 30
1.000000000000000E+20
  9
$PEXTMAX
 10
-1.000000000000000E+20
 20
-1.000000000000000E+20
 30
-1.000000000000000E+20
  9
$PLIMMIN
 10
0.0
 20
0.0
  9
$PLIMMAX
 10
12.0
 20
9.0
  9
$UNITMODE
 70
     0
  9
$VISRETAIN
 70
     1
  9
$PLINEGEN
 70
     0
  9
$PSLTSCALE
 70
     1
  9
$TREEDEPTH
 70
  3020
  9
$CMLSTYLE
  2
Standard
  9
$CMLJUST
 70
     0
  9
$CMLSCALE
 40
1.0
  9
$PROXYGRAPHICS
 70
     1
  9
$MEASUREMENT
 70
     0
  9
$CELWEIGHT
370
    -1
  9
$ENDCAPS
280
     0
  9
$JOINSTYLE
280
     0
  9
$LWDISPLAY
290
     0
  9
$INSUNITS
 70
     0
  9
$HYPERLINKBASE
  1

  9
$STYLESHEET
  1

  9
$XEDIT
290
     1
  9
$CEPSNTYPE
380
     0
  9
$PSTYLEMODE
290
     1
  9
$FINGERPRINTGUID
  2
{8EC7E5A4-4AFF-11D7-9C19-0040267F10D4}
  9
$VERSIONGUID
  2
{B85516E7-740D-11D7-9C19-0040267F10D4}
  9
$EXTNAMES
290
     1
  9
$PSVPSCALE
 40
0.0
  9
$OLESTARTUP
290
     0
  0
ENDSEC
  0
SECTION
  2
CLASSES
  0
CLASS
  1
ACDBDICTIONARYWDFLT
  2
AcDbDictionaryWithDefault
  3
AutoCAD 2000
 90
        0
280
     0
281
     0
  0
CLASS
  1
ACDBPLACEHOLDER
  2
AcDbPlaceHolder
  3
AutoCAD 2000
 90
        0
280
     0
281
     0
  0
CLASS
  1
LAYOUT
  2
AcDbLayout
  3
AutoCAD 2000
 90
        0
280
     0
281
     0
  0
ENDSEC
  0
SECTION
  2
TABLES
  0
TABLE
  2
VPORT
  5
675
330
0
100
AcDbSymbolTable
 70
     4
  0
VPORT
  5
D39
330
675
100
AcDbSymbolTableRecord
100
AcDbViewportTableRecord
  2
*Active
 70
     0
 10
0.0
 20
0.0
 11
1.0
 21
1.0
 12
223.9517354965202
 22
162.2989513836673
 13
0.0
 23
0.0
 14
1.0
 24
1.0
 15
0.0
 25
0.0
 16
0.0
 26
0.0
 36
1.0
 17
0.0
 27
0.0
 37
0.0
 40
317.0221305353343
 41
2.175977653631284
 42
50.0
 43
0.0
 44
0.0
 50
0.0
 51
0.0
 71
     0
 72
   100
 73
     1
 74
     1
 75
     0
 76
     0
 77
     0
 78
     0
281
     0
 65
     1
110
0.0
120
0.0
130
0.0
111
1.0
121
0.0
131
0.0
112
0.0
122
1.0
132
0.0
 79
     0
146
0.0
  0
ENDTAB
  0
TABLE
  2
LTYPE
  5
672
330
0
100
AcDbSymbolTable
 70
     3
  0
LTYPE
  5
680
330
672
100
AcDbSymbolTableRecord
100
AcDbLinetypeTableRecord
  2
ByBlock
 70
     0
  3

 72
    65
 73
     0
 40
0.0
  0
LTYPE
  5
681
330
672
100
AcDbSymbolTableRecord
100
AcDbLinetypeTableRecord
  2
ByLayer
 70
     0
  3

 72
    65
 73
     0
 40
0.0
  0
LTYPE
  5
682
330
672
100
AcDbSymbolTableRecord
100
AcDbLinetypeTableRecord
  2
CONTINUOUS
 70
     0
  3
Solid line
 72
    65
 73
     0
 40
0.0
  0
LTYPE
  5
690
330
672
100
AcDbSymbolTableRecord
100
AcDbLinetypeTableRecord
  2
LTYPE1
 70
     0
  3
CENTER
 72
    65
 73
     4
 40
15.0
 49
10.5
 74
     0
 49
-1.5
 74
     0
 49
1.5
 74
     0
 49
-1.5
 74
     0
  0
LTYPE
  5
691
330
672
100
AcDbSymbolTableRecord
100
AcDbLinetypeTableRecord
  2
LTYPE2
 70
     0
  3
HIDDEN
 72
    65
 73
     2
 40
1.5
 49
0.9
 74
     0
 49
-0.6
 74
     0
  0
ENDTAB
  0
TABLE
  2
LAYER
  5
66F
330
0
100
AcDbSymbolTable
 70
   128
  0
LAYER
  5
67D
330
66F
100
AcDbSymbolTableRecord
100
AcDbLayerTableRecord
  2
0
 70
     0
 62
     7
  6
CONTINUOUS
370
    -3
390
67C
  0
LAYER
  5
692
330
66F
100
AcDbSymbolTableRecord
100
AcDbLayerTableRecord
  2
1
 70
     0
 62
     7
  6
CONTINUOUS
370
    -3
390
67C
  0
LAYER
  5
693
330
66F
100
AcDbSymbolTableRecord
100
AcDbLayerTableRecord
  2
2
 70
     0
 62
     7
  6
CONTINUOUS
370
    -3
390
67C
  0
LAYER
  5
694
330
66F
100
AcDbSymbolTableRecord
100
AcDbLayerTableRecord
  2
3
 70
     0
 62
     7
  6
CONTINUOUS
370
    -3
390
67C
  0
LAYER
  5
695
330
66F
100
AcDbSymbolTableRecord
100
AcDbLayerTableRecord
  2
4
 70
     0
 62
     7
  6
CONTINUOUS
370
    -3
390
67C
  0
LAYER
  5
696
330
66F
100
AcDbSymbolTableRecord
100
AcDbLayerTableRecord
  2
5
 70
     0
 62
     7
  6
CONTINUOUS
370
    -3
390
67C
  0
LAYER
  5
697
330
66F
100
AcDbSymbolTableRecord
100
AcDbLayerTableRecord
  2
6
 70
     0
 62
     7
  6
CONTINUOUS
370
    -3
390
67C
  0
LAYER
  5
698
330
66F
100
AcDbSymbolTableRecord
100
AcDbLayerTableRecord
  2
7
 70
     0
 62
     7
  6
CONTINUOUS
370
    -3
390
67C
  0
LAYER
  5
699
330
66F
100
AcDbSymbolTableRecord
100
AcDbLayerTableRecord
  2
8
 70
     0
 62
     7
  6
CONTINUOUS
370
    -3
390
67C
  0
LAYER
  5
69A
330
66F
100
AcDbSymbolTableRecord
100
AcDbLayerTableRecord
  2
9
 70
     0
 62
     7
  6
CONTINUOUS
370
    -3
390
67C
  0
LAYER
  5
69B
330
66F
100
AcDbSymbolTableRecord
100
AcDbLayerTableRecord
  2
10
 70
     0
 62
     7
  6
CONTINUOUS
370
    -3
390
67C
  0
LAYER
  5
69C
330
66F
100
AcDbSymbolTableRecord
100
AcDbLayerTableRecord
  2
11
 70
     0
 62
     7
  6
CONTINUOUS
370
    -3
390
67C
  0
LAYER
  5
69D
330
66F
100
AcDbSymbolTableRecord
100
AcDbLayerTableRecord
  2
12
 70
     0
 62
     7
  6
CONTINUOUS
370
    -3
390
67C
  0
LAYER
  5
69E
330
66F
100
AcDbSymbolTableRecord
100
AcDbLayerTableRecord
  2
13
 70
     0
 62
     7
  6
CONTINUOUS
370
    -3
390
67C
  0
LAYER
  5
69F
330
66F
100
AcDbSymbolTableRecord
100
AcDbLayerTableRecord
  2
14
 70
     0
 62
     7
  6
CONTINUOUS
370
    -3
390
67C
  0
LAYER
  5
6A0
330
66F
100
AcDbSymbolTableRecord
100
AcDbLayerTableRecord
  2
15
 70
     0
 62
     7
  6
CONTINUOUS
370
    -3
390
67C
  0
LAYER
  5
6A1
330
66F
100
AcDbSymbolTableRecord
100
AcDbLayerTableRecord
  2
16
 70
     0
 62
     7
  6
CONTINUOUS
370
    -3
390
67C
  0
LAYER
  5
6A2
330
66F
100
AcDbSymbolTableRecord
100
AcDbLayerTableRecord
  2
17
 70
     0
 62
     7
  6
CONTINUOUS
370
    -3
390
67C
  0
LAYER
  5
6A3
330
66F
100
AcDbSymbolTableRecord
100
AcDbLayerTableRecord
  2
18
 70
     0
 62
     7
  6
CONTINUOUS
370
    -3
390
67C
  0
LAYER
  5
6A4
330
66F
100
AcDbSymbolTableRecord
100
AcDbLayerTableRecord
  2
19
 70
     0
 62
     7
  6
CONTINUOUS
370
    -3
390
67C
  0
LAYER
  5
6A5
330
66F
100
AcDbSymbolTableRecord
100
AcDbLayerTableRecord
  2
20
 70
     0
 62
     7
  6
CONTINUOUS
370
    -3
390
67C
  0
LAYER
  5
6A6
330
66F
100
AcDbSymbolTableRecord
100
AcDbLayerTableRecord
  2
21
 70
     0
 62
     7
  6
CONTINUOUS
370
    -3
390
67C
  0
LAYER
  5
6A7
330
66F
100
AcDbSymbolTableRecord
100
AcDbLayerTableRecord
  2
22
 70
     0
 62
     7
  6
CONTINUOUS
370
    -3
390
67C
  0
LAYER
  5
6A8
330
66F
100
AcDbSymbolTableRecord
100
AcDbLayerTableRecord
  2
23
 70
     0
 62
     7
  6
CONTINUOUS
370
    -3
390
67C
  0
LAYER
  5
6A9
330
66F
100
AcDbSymbolTableRecord
100
AcDbLayerTableRecord
  2
24
 70
     0
 62
     7
  6
CONTINUOUS
370
    -3
390
67C
  0
LAYER
  5
6AA
330
66F
100
AcDbSymbolTableRecord
100
AcDbLayerTableRecord
  2
25
 70
     0
 62
     7
  6
CONTINUOUS
370
    -3
390
67C
  0
LAYER
  5
6AB
330
66F
100
AcDbSymbolTableRecord
100
AcDbLayerTableRecord
  2
26
 70
     0
 62
     7
  6
CONTINUOUS
370
    -3
390
67C
  0
LAYER
  5
6AC
330
66F
100
AcDbSymbolTableRecord
100
AcDbLayerTableRecord
  2
27
 70
     0
 62
     7
  6
CONTINUOUS
370
    -3
390
67C
  0
LAYER
  5
6AD
330
66F
100
AcDbSymbolTableRecord
100
AcDbLayerTableRecord
  2
28
 70
     0
 62
     7
  6
CONTINUOUS
370
    -3
390
67C
  0
LAYER
  5
6AE
330
66F
100
AcDbSymbolTableRecord
100
AcDbLayerTableRecord
  2
29
 70
     0
 62
     7
  6
CONTINUOUS
370
    -3
390
67C
  0
LAYER
  5
6AF
330
66F
100
AcDbSymbolTableRecord
100
AcDbLayerTableRecord
  2
30
 70
     0
 62
     7
  6
CONTINUOUS
370
    -3
390
67C
  0
LAYER
  5
6B0
330
66F
100
AcDbSymbolTableRecord
100
AcDbLayerTableRecord
  2
31
 70
     0
 62
     7
  6
CONTINUOUS
370
    -3
390
67C
  0
LAYER
  5
6B1
330
66F
100
AcDbSymbolTableRecord
100
AcDbLayerTableRecord
  2
32
 70
     0
 62
     7
  6
CONTINUOUS
370
    -3
390
67C
  0
LAYER
  5
6B2
330
66F
100
AcDbSymbolTableRecord
100
AcDbLayerTableRecord
  2
33
 70
     0
 62
     7
  6
CONTINUOUS
370
    -3
390
67C
  0
LAYER
  5
6B3
330
66F
100
AcDbSymbolTableRecord
100
AcDbLayerTableRecord
  2
34
 70
     0
 62
     7
  6
CONTINUOUS
370
    -3
390
67C
  0
LAYER
  5
6B4
330
66F
100
AcDbSymbolTableRecord
100
AcDbLayerTableRecord
  2
35
 70
     0
 62
     7
  6
CONTINUOUS
370
    -3
390
67C
  0
LAYER
  5
6B5
330
66F
100
AcDbSymbolTableRecord
100
AcDbLayerTableRecord
  2
36
 70
     0
 62
     7
  6
CONTINUOUS
370
    -3
390
67C
  0
LAYER
  5
6B6
330
66F
100
AcDbSymbolTableRecord
100
AcDbLayerTableRecord
  2
37
 70
     0
 62
     7
  6
CONTINUOUS
370
    -3
390
67C
  0
LAYER
  5
6B7
330
66F
100
AcDbSymbolTableRecord
100
AcDbLayerTableRecord
  2
38
 70
     0
 62
     7
  6
CONTINUOUS
370
    -3
390
67C
  0
LAYER
  5
6B8
330
66F
100
AcDbSymbolTableRecord
100
AcDbLayerTableRecord
  2
39
 70
     0
 62
     7
  6
CONTINUOUS
370
    -3
390
67C
  0
LAYER
  5
6B9
330
66F
100
AcDbSymbolTableRecord
100
AcDbLayerTableRecord
  2
40
 70
     0
 62
     7
  6
CONTINUOUS
370
    -3
390
67C
  0
LAYER
  5
6BA
330
66F
100
AcDbSymbolTableRecord
100
AcDbLayerTableRecord
  2
41
 70
     0
 62
     7
  6
CONTINUOUS
370
    -3
390
67C
  0
LAYER
  5
6BB
330
66F
100
AcDbSymbolTableRecord
100
AcDbLayerTableRecord
  2
42
 70
     0
 62
     7
  6
CONTINUOUS
370
    -3
390
67C
  0
LAYER
  5
6BC
330
66F
100
AcDbSymbolTableRecord
100
AcDbLayerTableRecord
  2
43
 70
     0
 62
     7
  6
CONTINUOUS
370
    -3
390
67C
  0
LAYER
  5
6BD
330
66F
100
AcDbSymbolTableRecord
100
AcDbLayerTableRecord
  2
44
 70
     0
 62
     7
  6
CONTINUOUS
370
    -3
390
67C
  0
LAYER
  5
6BE
330
66F
100
AcDbSymbolTableRecord
100
AcDbLayerTableRecord
  2
45
 70
     0
 62
     7
  6
CONTINUOUS
370
    -3
390
67C
  0
LAYER
  5
6BF
330
66F
100
AcDbSymbolTableRecord
100
AcDbLayerTableRecord
  2
46
 70
     0
 62
     7
  6
CONTINUOUS
370
    -3
390
67C
  0
LAYER
  5
6C0
330
66F
100
AcDbSymbolTableRecord
100
AcDbLayerTableRecord
  2
47
 70
     0
 62
     7
  6
CONTINUOUS
370
    -3
390
67C
  0
LAYER
  5
6C1
330
66F
100
AcDbSymbolTableRecord
100
AcDbLayerTableRecord
  2
48
 70
     0
 62
     7
  6
CONTINUOUS
370
    -3
390
67C
  0
LAYER
  5
6C2
330
66F
100
AcDbSymbolTableRecord
100
AcDbLayerTableRecord
  2
49
 70
     0
 62
     7
  6
CONTINUOUS
370
    -3
390
67C
  0
LAYER
  5
6C3
330
66F
100
AcDbSymbolTableRecord
100
AcDbLayerTableRecord
  2
50
 70
     0
 62
     7
  6
CONTINUOUS
370
    -3
390
67C
  0
LAYER
  5
6C4
330
66F
100
AcDbSymbolTableRecord
100
AcDbLayerTableRecord
  2
51
 70
     0
 62
     7
  6
CONTINUOUS
370
    -3
390
67C
  0
LAYER
  5
6C5
330
66F
100
AcDbSymbolTableRecord
100
AcDbLayerTableRecord
  2
52
 70
     0
 62
     7
  6
CONTINUOUS
370
    -3
390
67C
  0
LAYER
  5
6C6
330
66F
100
AcDbSymbolTableRecord
100
AcDbLayerTableRecord
  2
53
 70
     0
 62
     7
  6
CONTINUOUS
370
    -3
390
67C
  0
LAYER
  5
6C7
330
66F
100
AcDbSymbolTableRecord
100
AcDbLayerTableRecord
  2
54
 70
     0
 62
     7
  6
CONTINUOUS
370
    -3
390
67C
  0
LAYER
  5
6C8
330
66F
100
AcDbSymbolTableRecord
100
AcDbLayerTableRecord
  2
55
 70
     0
 62
     7
  6
CONTINUOUS
370
    -3
390
67C
  0
LAYER
  5
6C9
330
66F
100
AcDbSymbolTableRecord
100
AcDbLayerTableRecord
  2
56
 70
     0
 62
     7
  6
CONTINUOUS
370
    -3
390
67C
  0
LAYER
  5
6CA
330
66F
100
AcDbSymbolTableRecord
100
AcDbLayerTableRecord
  2
57
 70
     0
 62
     7
  6
CONTINUOUS
370
    -3
390
67C
  0
LAYER
  5
6CB
330
66F
100
AcDbSymbolTableRecord
100
AcDbLayerTableRecord
  2
58
 70
     0
 62
     7
  6
CONTINUOUS
370
    -3
390
67C
  0
LAYER
  5
6CC
330
66F
100
AcDbSymbolTableRecord
100
AcDbLayerTableRecord
  2
59
 70
     0
 62
     7
  6
CONTINUOUS
370
    -3
390
67C
  0
LAYER
  5
6CD
330
66F
100
AcDbSymbolTableRecord
100
AcDbLayerTableRecord
  2
60
 70
     0
 62
     7
  6
CONTINUOUS
370
    -3
390
67C
  0
LAYER
  5
6CE
330
66F
100
AcDbSymbolTableRecord
100
AcDbLayerTableRecord
  2
61
 70
     0
 62
     7
  6
CONTINUOUS
370
    -3
390
67C
  0
LAYER
  5
6CF
330
66F
100
AcDbSymbolTableRecord
100
AcDbLayerTableRecord
  2
62
 70
     0
 62
     7
  6
CONTINUOUS
370
    -3
390
67C
  0
LAYER
  5
6D0
330
66F
100
AcDbSymbolTableRecord
100
AcDbLayerTableRecord
  2
63
 70
     0
 62
     7
  6
CONTINUOUS
370
    -3
390
67C
  0
LAYER
  5
6D1
330
66F
100
AcDbSymbolTableRecord
100
AcDbLayerTableRecord
  2
64
 70
     0
 62
     7
  6
CONTINUOUS
370
    -3
390
67C
  0
LAYER
  5
6D2
330
66F
100
AcDbSymbolTableRecord
100
AcDbLayerTableRecord
  2
65
 70
     0
 62
     7
  6
CONTINUOUS
370
    -3
390
67C
  0
LAYER
  5
6D3
330
66F
100
AcDbSymbolTableRecord
100
AcDbLayerTableRecord
  2
66
 70
     0
 62
     7
  6
CONTINUOUS
370
    -3
390
67C
  0
LAYER
  5
6D4
330
66F
100
AcDbSymbolTableRecord
100
AcDbLayerTableRecord
  2
67
 70
     0
 62
     7
  6
CONTINUOUS
370
    -3
390
67C
  0
LAYER
  5
6D5
330
66F
100
AcDbSymbolTableRecord
100
AcDbLayerTableRecord
  2
68
 70
     0
 62
     7
  6
CONTINUOUS
370
    -3
390
67C
  0
LAYER
  5
6D6
330
66F
100
AcDbSymbolTableRecord
100
AcDbLayerTableRecord
  2
69
 70
     0
 62
     7
  6
CONTINUOUS
370
    -3
390
67C
  0
LAYER
  5
6D7
330
66F
100
AcDbSymbolTableRecord
100
AcDbLayerTableRecord
  2
70
 70
     0
 62
     7
  6
CONTINUOUS
370
    -3
390
67C
  0
LAYER
  5
6D8
330
66F
100
AcDbSymbolTableRecord
100
AcDbLayerTableRecord
  2
71
 70
     0
 62
     7
  6
CONTINUOUS
370
    -3
390
67C
  0
LAYER
  5
6D9
330
66F
100
AcDbSymbolTableRecord
100
AcDbLayerTableRecord
  2
72
 70
     0
 62
     7
  6
CONTINUOUS
370
    -3
390
67C
  0
LAYER
  5
6DA
330
66F
100
AcDbSymbolTableRecord
100
AcDbLayerTableRecord
  2
73
 70
     0
 62
     7
  6
CONTINUOUS
370
    -3
390
67C
  0
LAYER
  5
6DB
330
66F
100
AcDbSymbolTableRecord
100
AcDbLayerTableRecord
  2
74
 70
     0
 62
     7
  6
CONTINUOUS
370
    -3
390
67C
  0
LAYER
  5
6DC
330
66F
100
AcDbSymbolTableRecord
100
AcDbLayerTableRecord
  2
75
 70
     0
 62
     7
  6
CONTINUOUS
370
    -3
390
67C
  0
LAYER
  5
6DD
330
66F
100
AcDbSymbolTableRecord
100
AcDbLayerTableRecord
  2
76
 70
     0
 62
     7
  6
CONTINUOUS
370
    -3
390
67C
  0
LAYER
  5
6DE
330
66F
100
AcDbSymbolTableRecord
100
AcDbLayerTableRecord
  2
77
 70
     0
 62
     7
  6
CONTINUOUS
370
    -3
390
67C
  0
LAYER
  5
6DF
330
66F
100
AcDbSymbolTableRecord
100
AcDbLayerTableRecord
  2
78
 70
     0
 62
     7
  6
CONTINUOUS
370
    -3
390
67C
  0
LAYER
  5
6E0
330
66F
100
AcDbSymbolTableRecord
100
AcDbLayerTableRecord
  2
79
 70
     0
 62
     7
  6
CONTINUOUS
370
    -3
390
67C
  0
LAYER
  5
6E1
330
66F
100
AcDbSymbolTableRecord
100
AcDbLayerTableRecord
  2
80
 70
     0
 62
     7
  6
CONTINUOUS
370
    -3
390
67C
  0
LAYER
  5
6E2
330
66F
100
AcDbSymbolTableRecord
100
AcDbLayerTableRecord
  2
81
 70
     0
 62
     7
  6
CONTINUOUS
370
    -3
390
67C
  0
LAYER
  5
6E3
330
66F
100
AcDbSymbolTableRecord
100
AcDbLayerTableRecord
  2
82
 70
     0
 62
     7
  6
CONTINUOUS
370
    -3
390
67C
  0
LAYER
  5
6E4
330
66F
100
AcDbSymbolTableRecord
100
AcDbLayerTableRecord
  2
83
 70
     0
 62
     7
  6
CONTINUOUS
370
    -3
390
67C
  0
LAYER
  5
6E5
330
66F
100
AcDbSymbolTableRecord
100
AcDbLayerTableRecord
  2
84
 70
     0
 62
     7
  6
CONTINUOUS
370
    -3
390
67C
  0
LAYER
  5
6E6
330
66F
100
AcDbSymbolTableRecord
100
AcDbLayerTableRecord
  2
85
 70
     0
 62
     7
  6
CONTINUOUS
370
    -3
390
67C
  0
LAYER
  5
6E7
330
66F
100
AcDbSymbolTableRecord
100
AcDbLayerTableRecord
  2
86
 70
     0
 62
     7
  6
CONTINUOUS
370
    -3
390
67C
  0
LAYER
  5
6E8
330
66F
100
AcDbSymbolTableRecord
100
AcDbLayerTableRecord
  2
87
 70
     0
 62
     7
  6
CONTINUOUS
370
    -3
390
67C
  0
LAYER
  5
6E9
330
66F
100
AcDbSymbolTableRecord
100
AcDbLayerTableRecord
  2
88
 70
     0
 62
     7
  6
CONTINUOUS
370
    -3
390
67C
  0
LAYER
  5
6EA
330
66F
100
AcDbSymbolTableRecord
100
AcDbLayerTableRecord
  2
89
 70
     0
 62
     7
  6
CONTINUOUS
370
    -3
390
67C
  0
LAYER
  5
6EB
330
66F
100
AcDbSymbolTableRecord
100
AcDbLayerTableRecord
  2
90
 70
     0
 62
     7
  6
CONTINUOUS
370
    -3
390
67C
  0
LAYER
  5
6EC
330
66F
100
AcDbSymbolTableRecord
100
AcDbLayerTableRecord
  2
91
 70
     0
 62
     7
  6
CONTINUOUS
370
    -3
390
67C
  0
LAYER
  5
6ED
330
66F
100
AcDbSymbolTableRecord
100
AcDbLayerTableRecord
  2
92
 70
     0
 62
     7
  6
CONTINUOUS
370
    -3
390
67C
  0
LAYER
  5
6EE
330
66F
100
AcDbSymbolTableRecord
100
AcDbLayerTableRecord
  2
93
 70
     0
 62
     7
  6
CONTINUOUS
370
    -3
390
67C
  0
LAYER
  5
6EF
330
66F
100
AcDbSymbolTableRecord
100
AcDbLayerTableRecord
  2
94
 70
     0
 62
     7
  6
CONTINUOUS
370
    -3
390
67C
  0
LAYER
  5
6F0
330
66F
100
AcDbSymbolTableRecord
100
AcDbLayerTableRecord
  2
95
 70
     0
 62
     7
  6
CONTINUOUS
370
    -3
390
67C
  0
LAYER
  5
6F1
330
66F
100
AcDbSymbolTableRecord
100
AcDbLayerTableRecord
  2
96
 70
     0
 62
     7
  6
CONTINUOUS
370
    -3
390
67C
  0
LAYER
  5
6F2
330
66F
100
AcDbSymbolTableRecord
100
AcDbLayerTableRecord
  2
97
 70
     0
 62
     7
  6
CONTINUOUS
370
    -3
390
67C
  0
LAYER
  5
6F3
330
66F
100
AcDbSymbolTableRecord
100
AcDbLayerTableRecord
  2
98
 70
     0
 62
     7
  6
CONTINUOUS
370
    -3
390
67C
  0
LAYER
  5
6F4
330
66F
100
AcDbSymbolTableRecord
100
AcDbLayerTableRecord
  2
99
 70
     0
 62
     7
  6
CONTINUOUS
370
    -3
390
67C
  0
LAYER
  5
6F5
330
66F
100
AcDbSymbolTableRecord
100
AcDbLayerTableRecord
  2
100
 70
     0
 62
     7
  6
CONTINUOUS
370
    -3
390
67C
  0
LAYER
  5
6F6
330
66F
100
AcDbSymbolTableRecord
100
AcDbLayerTableRecord
  2
101
 70
     0
 62
     7
  6
CONTINUOUS
370
    -3
390
67C
  0
LAYER
  5
6F7
330
66F
100
AcDbSymbolTableRecord
100
AcDbLayerTableRecord
  2
102
 70
     0
 62
     7
  6
CONTINUOUS
370
    -3
390
67C
  0
LAYER
  5
6F8
330
66F
100
AcDbSymbolTableRecord
100
AcDbLayerTableRecord
  2
103
 70
     0
 62
     7
  6
CONTINUOUS
370
    -3
390
67C
  0
LAYER
  5
6F9
330
66F
100
AcDbSymbolTableRecord
100
AcDbLayerTableRecord
  2
104
 70
     0
 62
     7
  6
CONTINUOUS
370
    -3
390
67C
  0
LAYER
  5
6FA
330
66F
100
AcDbSymbolTableRecord
100
AcDbLayerTableRecord
  2
105
 70
     0
 62
     7
  6
CONTINUOUS
370
    -3
390
67C
  0
LAYER
  5
6FB
330
66F
100
AcDbSymbolTableRecord
100
AcDbLayerTableRecord
  2
106
 70
     0
 62
     7
  6
CONTINUOUS
370
    -3
390
67C
  0
LAYER
  5
6FC
330
66F
100
AcDbSymbolTableRecord
100
AcDbLayerTableRecord
  2
107
 70
     0
 62
     7
  6
CONTINUOUS
370
    -3
390
67C
  0
LAYER
  5
6FD
330
66F
100
AcDbSymbolTableRecord
100
AcDbLayerTableRecord
  2
108
 70
     0
 62
     7
  6
CONTINUOUS
370
    -3
390
67C
  0
LAYER
  5
6FE
330
66F
100
AcDbSymbolTableRecord
100
AcDbLayerTableRecord
  2
109
 70
     0
 62
     7
  6
CONTINUOUS
370
    -3
390
67C
  0
LAYER
  5
6FF
330
66F
100
AcDbSymbolTableRecord
100
AcDbLayerTableRecord
  2
110
 70
     0
 62
     7
  6
CONTINUOUS
370
    -3
390
67C
  0
LAYER
  5
700
330
66F
100
AcDbSymbolTableRecord
100
AcDbLayerTableRecord
  2
111
 70
     0
 62
     7
  6
CONTINUOUS
370
    -3
390
67C
  0
LAYER
  5
701
330
66F
100
AcDbSymbolTableRecord
100
AcDbLayerTableRecord
  2
112
 70
     0
 62
     7
  6
CONTINUOUS
370
    -3
390
67C
  0
LAYER
  5
702
330
66F
100
AcDbSymbolTableRecord
100
AcDbLayerTableRecord
  2
113
 70
     0
 62
     7
  6
CONTINUOUS
370
    -3
390
67C
  0
LAYER
  5
703
330
66F
100
AcDbSymbolTableRecord
100
AcDbLayerTableRecord
  2
114
 70
     0
 62
     7
  6
CONTINUOUS
370
    -3
390
67C
  0
LAYER
  5
704
330
66F
100
AcDbSymbolTableRecord
100
AcDbLayerTableRecord
  2
115
 70
     0
 62
     7
  6
CONTINUOUS
370
    -3
390
67C
  0
LAYER
  5
705
330
66F
100
AcDbSymbolTableRecord
100
AcDbLayerTableRecord
  2
116
 70
     0
 62
     7
  6
CONTINUOUS
370
    -3
390
67C
  0
LAYER
  5
706
330
66F
100
AcDbSymbolTableRecord
100
AcDbLayerTableRecord
  2
117
 70
     0
 62
     7
  6
CONTINUOUS
370
    -3
390
67C
  0
LAYER
  5
707
330
66F
100
AcDbSymbolTableRecord
100
AcDbLayerTableRecord
  2
118
 70
     0
 62
     7
  6
CONTINUOUS
370
    -3
390
67C
  0
LAYER
  5
708
330
66F
100
AcDbSymbolTableRecord
100
AcDbLayerTableRecord
  2
119
 70
     0
 62
     7
  6
CONTINUOUS
370
    -3
390
67C
  0
LAYER
  5
709
330
66F
100
AcDbSymbolTableRecord
100
AcDbLayerTableRecord
  2
120
 70
     0
 62
     7
  6
CONTINUOUS
370
    -3
390
67C
  0
LAYER
  5
70A
330
66F
100
AcDbSymbolTableRecord
100
AcDbLayerTableRecord
  2
121
 70
     0
 62
     7
  6
CONTINUOUS
370
    -3
390
67C
  0
LAYER
  5
70B
330
66F
100
AcDbSymbolTableRecord
100
AcDbLayerTableRecord
  2
122
 70
     0
 62
     7
  6
CONTINUOUS
370
    -3
390
67C
  0
LAYER
  5
70C
330
66F
100
AcDbSymbolTableRecord
100
AcDbLayerTableRecord
  2
123
 70
     0
 62
     7
  6
CONTINUOUS
370
    -3
390
67C
  0
LAYER
  5
70D
330
66F
100
AcDbSymbolTableRecord
100
AcDbLayerTableRecord
  2
124
 70
     0
 62
     7
  6
CONTINUOUS
370
    -3
390
67C
  0
LAYER
  5
70E
330
66F
100
AcDbSymbolTableRecord
100
AcDbLayerTableRecord
  2
125
 70
     0
 62
     7
  6
CONTINUOUS
370
    -3
390
67C
  0
LAYER
  5
70F
330
66F
100
AcDbSymbolTableRecord
100
AcDbLayerTableRecord
  2
126
 70
     0
 62
     7
  6
CONTINUOUS
370
    -3
390
67C
  0
LAYER
  5
710
330
66F
100
AcDbSymbolTableRecord
100
AcDbLayerTableRecord
  2
127
 70
     0
 62
     7
  6
CONTINUOUS
370
    -3
390
67C
  0
ENDTAB
  0
TABLE
  2
STYLE
  5
670
330
0
100
AcDbSymbolTable
 70
    15
  0
STYLE
  5
67E
330
670
100
AcDbSymbolTableRecord
100
AcDbTextStyleTableRecord
  2
STANDARD
 70
     0
 40
0.0
 41
1.0
 50
0.0
 71
     0
 42
0.2
  3
txt
  4

  0
STYLE
  5
711
330
670
100
AcDbSymbolTableRecord
100
AcDbTextStyleTableRecord
  2
KANJI0
 70
     0
 40
2.0
 41
0.9
 50
0.0
 71
     0
 42
2.0
  3
txt
  4
bigfont
  0
STYLE
  5
712
330
670
100
AcDbSymbolTableRecord
100
AcDbTextStyleTableRecord
  2
KANJI1
 70
     0
 40
1.199999999999999
 41
0.9
 50
0.0
 71
     0
 42
1.199999999999999
  3
txt
  4
bigfont
  0
STYLE
  5
713
330
670
100
AcDbSymbolTableRecord
100
AcDbTextStyleTableRecord
  2
KANJI2
 70
     0
 40
2.0
 41
0.9
 50
10.0
 71
     0
 42
2.0
  3
txt
  4
bigfont
  0
STYLE
  5
714
330
670
100
AcDbSymbolTableRecord
100
AcDbTextStyleTableRecord
  2
KANJI3
 70
     0
 40
2.0
 41
0.85
 50
0.0
 71
     0
 42
2.0
  3
txt
  4
bigfont
  0
STYLE
  5
715
330
670
100
AcDbSymbolTableRecord
100
AcDbTextStyleTableRecord
  2
KANJI4
 70
     0
 40
2.5
 41
0.9
 50
0.0
 71
     0
 42
2.5
  3
txt
  4
bigfont
  0
STYLE
  5
716
330
670
100
AcDbSymbolTableRecord
100
AcDbTextStyleTableRecord
  2
KANJI5
 70
     0
 40
2.0
 41
1.0
 50
0.0
 71
     0
 42
2.0
  3
txt
  4
bigfont
  0
STYLE
  5
717
330
670
100
AcDbSymbolTableRecord
100
AcDbTextStyleTableRecord
  2
KANJI6
 70
     0
 40
2.0
 41
1.0
 50
0.0
 71
     0
 42
2.0
  3
txt
  4
bigfont
  0
STYLE
  5
718
330
670
100
AcDbSymbolTableRecord
100
AcDbTextStyleTableRecord
  2
KANJI7
 70
     0
 40
2.5
 41
0.9416
 50
0.0
 71
     0
 42
2.5
  3
txt
  4
bigfont
  0
STYLE
  5
719
330
670
100
AcDbSymbolTableRecord
100
AcDbTextStyleTableRecord
  2
KANJI8
 70
     0
 40
3.9
 41
0.88
 50
0.0
 71
     0
 42
3.9
  3
txt
  4
bigfont
  0
STYLE
  5
71A
330
670
100
AcDbSymbolTableRecord
100
AcDbTextStyleTableRecord
  2
KANJI9
 70
     0
 40
3.9
 41
0.9
 50
0.0
 71
     0
 42
3.9
  3
txt
  4
bigfont
  0
STYLE
  5
71B
330
670
100
AcDbSymbolTableRecord
100
AcDbTextStyleTableRecord
  2
KANJI10
 70
     0
 40
3.12
 41
0.75
 50
0.0
 71
     0
 42
3.12
  3
txt
  4
bigfont
  0
STYLE
  5
71C
330
670
100
AcDbSymbolTableRecord
100
AcDbTextStyleTableRecord
  2
KANJI11
 70
     0
 40
1.794
 41
0.739130435
 50
0.0
 71
     0
 42
1.794
  3
txt
  4
bigfont
  0
STYLE
  5
71D
330
670
100
AcDbSymbolTableRecord
100
AcDbTextStyleTableRecord
  2
KANJI12
 70
     0
 40
1.6146
 41
0.739130435
 50
0.0
 71
     0
 42
1.6146
  3
txt
  4
bigfont
  0
STYLE
  5
71E
330
670
100
AcDbSymbolTableRecord
100
AcDbTextStyleTableRecord
  2
KANJI13
 70
     0
 40
1.6146
 41
0.739130435
 50
0.0
 71
     0
 42
1.6146
  3
txt
  4
bigfont
  0
ENDTAB
  0
TABLE
  2
VIEW
  5
673
330
0
100
AcDbSymbolTable
 70
     0
  0
ENDTAB
  0
TABLE
  2
UCS
  5
674
330
0
100
AcDbSymbolTable
 70
     0
  0
ENDTAB
  0
TABLE
  2
APPID
  5
676
330
0
100
AcDbSymbolTable
 70
     1
  0
APPID
  5
67F
330
676
100
AcDbSymbolTableRecord
100
AcDbRegAppTableRecord
  2
ACAD
 70
     0
  0
ENDTAB
  0
TABLE
  2
DIMSTYLE
  5
677
330
0
100
AcDbSymbolTable
 70
     1
100
AcDbDimStyleTable
 71
     0
  0
DIMSTYLE
105
71F
330
677
100
AcDbSymbolTableRecord
100
AcDbDimStyleTableRecord
  2
STANDARD
 70
     0
279
     2
340
67E
  0
ENDTAB
  0
TABLE
  2
BLOCK_RECORD
  5
66E
330
0
100
AcDbSymbolTable
 70
     5
  0
BLOCK_RECORD
  5
68B
330
66E
100
AcDbSymbolTableRecord
100
AcDbBlockTableRecord
  2
*Model_Space
340
68E
  0
BLOCK_RECORD
  5
687
330
66E
100
AcDbSymbolTableRecord
100
AcDbBlockTableRecord
  2
*Paper_Space
340
68A
  0
BLOCK_RECORD
  5
722
330
66E
100
AcDbSymbolTableRecord
100
AcDbBlockTableRecord
  2
$MODEL_SPACE
340
0
  0
BLOCK_RECORD
  5
725
330
66E
100
AcDbSymbolTableRecord
100
AcDbBlockTableRecord
  2
$PAPER_SPACE
340
0
  0
BLOCK_RECORD
  5
CDE
330
66E
100
AcDbSymbolTableRecord
100
AcDbBlockTableRecord
  2
A$C775E0460
340
0
  0
BLOCK_RECORD
  5
CF0
330
66E
100
AcDbSymbolTableRecord
100
AcDbBlockTableRecord
  2
A$C7156124F
340
0
  0
ENDTAB
  0
ENDSEC
  0
SECTION
  2
BLOCKS
  0
BLOCK
  5
68C
330
68B
100
AcDbEntity
  8
0
100
AcDbBlockBegin
  2
*Model_Space
 70
     0
 10
0.0
 20
0.0
 30
0.0
  3
*Model_Space
  1

  0
ENDBLK
  5
68D
330
68B
100
AcDbEntity
  8
0
100
AcDbBlockEnd
  0
BLOCK
  5
688
330
687
100
AcDbEntity
 67
     1
  8
0
100
AcDbBlockBegin
  2
*Paper_Space
 70
     0
 10
0.0
 20
0.0
 30
0.0
  3
*Paper_Space
  1

  0
ENDBLK
  5
689
330
687
100
AcDbEntity
 67
     1
  8
0
100
AcDbBlockEnd
  0
BLOCK
  5
723
330
722
100
AcDbEntity
  8
0
100
AcDbBlockBegin
  2
$MODEL_SPACE
 70
     0
 10
0.0
 20
0.0
 30
0.0
  3
$MODEL_SPACE
  1

  0
ENDBLK
  5
724
330
722
100
AcDbEntity
  8
0
100
AcDbBlockEnd
  0
BLOCK
  5
726
330
725
100
AcDbEntity
  8
0
100
AcDbBlockBegin
  2
$PAPER_SPACE
 70
     0
 10
0.0
 20
0.0
 30
0.0
  3
$PAPER_SPACE
  1

  0
ENDBLK
  5
727
330
725
100
AcDbEntity
  8
0
100
AcDbBlockEnd
  0
BLOCK
  5
CEE
330
CDE
100
AcDbEntity
  8
0
100
AcDbBlockBegin
  2
A$C775E0460
 70
     0
 10
0.0
 20
0.0
 30
0.0
  3
A$C775E0460
  1

  0
ARC
  5
CDF
330
CDE
100
AcDbEntity
  8
0
  6
Continuous
 62
     3
100
AcDbCircle
 10
6.000000635351026
 20
5.999998036120102
 30
0.0
 40
6.0
100
AcDbArc
 50
29.92595633399909
 51
330.0740436660008
  0
LINE
  5
CE0
330
CDE
100
AcDbEntity
  8
0
  6
Continuous
 62
     3
100
AcDbLine
 10
4.000000635351028
 20
5.499998036120103
 30
0.0
 11
5.500000635351028
 21
5.499998036120103
 31
0.0
  0
LINE
  5
CE1
330
CDE
100
AcDbEntity
  8
0
  6
Continuous
 62
     3
100
AcDbLine
 10
5.500000635351028
 20
6.499998036120102
 30
0.0
 11
4.000000635351028
 21
6.499998036120102
 31
0.0
  0
CIRCLE
  5
CE2
330
CDE
100
AcDbEntity
  8
0
  6
Continuous
 62
     3
100
AcDbCircle
 10
6.000000635351026
 20
5.999998036120102
 30
0.0
 40
3.0
  0
CIRCLE
  5
CE3
330
CDE
100
AcDbEntity
  8
0
  6
Continuous
 62
     3
100
AcDbCircle
 10
6.000000635351026
 20
5.999998036120102
 30
0.0
 40
3.2
  0
LINE
  5
CE4
330
CDE
100
AcDbEntity
  8
0
  6
Continuous
 62
     3
100
AcDbLine
 10
4.000000635351028
 20
6.499998036120102
 30
0.0
 11
4.000000635351028
 21
5.499998036120103
 31
0.0
  0
LINE
  5
CE5
330
CDE
100
AcDbEntity
  8
0
  6
Continuous
 62
     3
100
AcDbLine
 10
6.500000635351026
 20
7.999998036120102
 30
0.0
 11
5.500000635351028
 21
7.999998036120102
 31
0.0
  0
LINE
  5
CE6
330
CDE
100
AcDbEntity
  8
0
  6
Continuous
 62
     3
100
AcDbLine
 10
6.500000635351026
 20
6.499998036120102
 30
0.0
 11
6.500000635351026
 21
7.999998036120102
 31
0.0
  0
LINE
  5
CE7
330
CDE
100
AcDbEntity
  8
0
  6
Continuous
 62
     3
100
AcDbLine
 10
8.000000635351026
 20
6.499998036120102
 30
0.0
 11
6.500000635351026
 21
6.499998036120102
 31
0.0
  0
LINE
  5
CE8
330
CDE
100
AcDbEntity
  8
0
  6
Continuous
 62
     3
100
AcDbLine
 10
8.000000635351026
 20
5.499998036120103
 30
0.0
 11
8.000000635351026
 21
6.499998036120102
 31
0.0
  0
LINE
  5
CE9
330
CDE
100
AcDbEntity
  8
0
  6
Continuous
 62
     3
100
AcDbLine
 10
6.500000635351026
 20
5.499998036120103
 30
0.0
 11
8.000000635351026
 21
5.499998036120103
 31
0.0
  0
LINE
  5
CEA
330
CDE
100
AcDbEntity
  8
0
  6
Continuous
 62
     3
100
AcDbLine
 10
6.500000635351026
 20
3.999998036120103
 30
0.0
 11
6.500000635351026
 21
5.499998036120103
 31
0.0
  0
LINE
  5
CEB
330
CDE
100
AcDbEntity
  8
0
  6
Continuous
 62
     3
100
AcDbLine
 10
5.500000635351028
 20
3.999998036120103
 30
0.0
 11
6.500000635351026
 21
3.999998036120103
 31
0.0
  0
LINE
  5
CEC
330
CDE
100
AcDbEntity
  8
0
  6
Continuous
 62
     3
100
AcDbLine
 10
5.500000635351028
 20
5.499998036120103
 30
0.0
 11
5.500000635351028
 21
3.999998036120103
 31
0.0
  0
LINE
  5
CED
330
CDE
100
AcDbEntity
  8
0
  6
Continuous
 62
     3
100
AcDbLine
 10
5.500000635351028
 20
7.999998036120102
 30
0.0
 11
5.500000635351028
 21
6.499998036120102
 31
0.0
  0
ENDBLK
  5
CEF
330
CDE
100
AcDbEntity
  8
0
100
AcDbBlockEnd
  0
BLOCK
  5
D00
330
CF0
100
AcDbEntity
  8
0
100
AcDbBlockBegin
  2
A$C7156124F
 70
     0
 10
0.0
 20
0.0
 30
0.0
  3
A$C7156124F
  1

  0
ARC
  5
CF1
330
CF0
100
AcDbEntity
  8
0
  6
Continuous
 62
     3
100
AcDbCircle
 10
6.000000635351026
 20
5.999998036120102
 30
0.0
 40
6.0
100
AcDbArc
 50
29.92595633399909
 51
330.0740436660008
  0
LINE
  5
CF2
330
CF0
100
AcDbEntity
  8
0
  6
Continuous
 62
     3
100
AcDbLine
 10
4.000000635351028
 20
5.499998036120103
 30
0.0
 11
5.500000635351028
 21
5.499998036120103
 31
0.0
  0
LINE
  5
CF3
330
CF0
100
AcDbEntity
  8
0
  6
Continuous
 62
     3
100
AcDbLine
 10
5.500000635351028
 20
6.499998036120102
 30
0.0
 11
4.000000635351028
 21
6.499998036120102
 31
0.0
  0
CIRCLE
  5
CF4
330
CF0
100
AcDbEntity
  8
0
  6
Continuous
 62
     3
100
AcDbCircle
 10
6.000000635351026
 20
5.999998036120102
 30
0.0
 40
3.0
  0
CIRCLE
  5
CF5
330
CF0
100
AcDbEntity
  8
0
  6
Continuous
 62
     3
100
AcDbCircle
 10
6.000000635351026
 20
5.999998036120102
 30
0.0
 40
3.2
  0
LINE
  5
CF6
330
CF0
100
AcDbEntity
  8
0
  6
Continuous
 62
     3
100
AcDbLine
 10
4.000000635351028
 20
6.499998036120102
 30
0.0
 11
4.000000635351028
 21
5.499998036120103
 31
0.0
  0
LINE
  5
CF7
330
CF0
100
AcDbEntity
  8
0
  6
Continuous
 62
     3
100
AcDbLine
 10
6.500000635351026
 20
7.999998036120102
 30
0.0
 11
5.500000635351028
 21
7.999998036120102
 31
0.0
  0
LINE
  5
CF8
330
CF0
100
AcDbEntity
  8
0
  6
Continuous
 62
     3
100
AcDbLine
 10
6.500000635351026
 20
6.499998036120102
 30
0.0
 11
6.500000635351026
 21
7.999998036120102
 31
0.0
  0
LINE
  5
CF9
330
CF0
100
AcDbEntity
  8
0
  6
Continuous
 62
     3
100
AcDbLine
 10
8.000000635351026
 20
6.499998036120102
 30
0.0
 11
6.500000635351026
 21
6.499998036120102
 31
0.0
  0
LINE
  5
CFA
330
CF0
100
AcDbEntity
  8
0
  6
Continuous
 62
     3
100
AcDbLine
 10
8.000000635351026
 20
5.499998036120103
 30
0.0
 11
8.000000635351026
 21
6.499998036120102
 31
0.0
  0
LINE
  5
CFB
330
CF0
100
AcDbEntity
  8
0
  6
Continuous
 62
     3
100
AcDbLine
 10
6.500000635351026
 20
5.499998036120103
 30
0.0
 11
8.000000635351026
 21
5.499998036120103
 31
0.0
  0
LINE
  5
CFC
330
CF0
100
AcDbEntity
  8
0
  6
Continuous
 62
     3
100
AcDbLine
 10
6.500000635351026
 20
3.999998036120103
 30
0.0
 11
6.500000635351026
 21
5.499998036120103
 31
0.0
  0
LINE
  5
CFD
330
CF0
100
AcDbEntity
  8
0
  6
Continuous
 62
     3
100
AcDbLine
 10
5.500000635351028
 20
3.999998036120103
 30
0.0
 11
6.500000635351026
 21
3.999998036120103
 31
0.0
  0
LINE
  5
CFE
330
CF0
100
AcDbEntity
  8
0
  6
Continuous
 62
     3
100
AcDbLine
 10
5.500000635351028
 20
5.499998036120103
 30
0.0
 11
5.500000635351028
 21
3.999998036120103
 31
0.0
  0
LINE
  5
CFF
330
CF0
100
AcDbEntity
  8
0
  6
Continuous
 62
     3
100
AcDbLine
 10
5.500000635351028
 20
7.999998036120102
 30
0.0
 11
5.500000635351028
 21
6.499998036120102
 31
0.0
  0
ENDBLK
  5
D01
330
CF0
100
AcDbEntity
  8
0
100
AcDbBlockEnd
  0
ENDSEC
  0
SECTION
  2
ENTITIES
  0
LINE
  5
7CD
330
68B
100
AcDbEntity
  8
0
  6
Continuous
 62
     3
100
AcDbLine
 10
60.67499999999999
 20
98.9
 30
0.0
 11
60.67499999999999
 21
52.9
 31
0.0
  0
POINT
  5
7CE
330
68B
100
AcDbEntity
  8
0
  6
Continuous
 62
     3
100
AcDbPoint
 10
60.67499999999999
 20
52.9
 30
0.0
  0
LINE
  5
7CF
330
68B
100
AcDbEntity
  8
0
  6
Continuous
 62
     3
100
AcDbLine
 10
60.67499999999999
 20
52.9
 30
0.0
 11
154.675
 21
52.9
 31
0.0
  0
POINT
  5
7D0
330
68B
100
AcDbEntity
  8
0
  6
Continuous
 62
     3
100
AcDbPoint
 10
154.675
 20
52.9
 30
0.0
  0
LINE
  5
7D1
330
68B
100
AcDbEntity
  8
0
  6
Continuous
 62
     3
100
AcDbLine
 10
154.675
 20
52.9
 30
0.0
 11
154.675
 21
98.9
 31
0.0
  0
POINT
  5
7D2
330
68B
100
AcDbEntity
  8
0
  6
Continuous
 62
     3
100
AcDbPoint
 10
154.675
 20
98.9
 30
0.0
  0
LINE
  5
7D3
330
68B
100
AcDbEntity
  8
0
  6
Continuous
 62
     3
100
AcDbLine
 10
134.175
 20
98.9
 30
0.0
 11
128.175
 21
98.9
 31
0.0
  0
LINE
  5
7D4
330
68B
100
AcDbEntity
  8
0
  6
Continuous
 62
     3
100
AcDbLine
 10
154.675
 20
98.9
 30
0.0
 11
136.425
 21
98.9
 31
0.0
  0
LINE
  5
7D5
330
68B
100
AcDbEntity
  8
0
  6
Continuous
 62
     3
100
AcDbLine
 10
155.175
 20
51.9
 30
0.0
 11
107.675
 21
51.9
 31
0.0
  0
ARC
  5
7D6
330
68B
100
AcDbEntity
  8
0
  6
Continuous
 62
     3
100
AcDbCircle
 10
155.175
 20
52.4
 30
0.0
 40
0.5
100
AcDbArc
 50
270.0
 51
0.0
  0
LINE
  5
7D7
330
68B
100
AcDbEntity
  8
0
  6
Continuous
 62
     3
100
AcDbLine
 10
155.675
 20
99.40000000000001
 30
0.0
 11
155.675
 21
52.4
 31
0.0
  0
LINE
  5
7D8
330
68B
100
AcDbEntity
  8
0
  6
Continuous
 62
     3
100
AcDbLine
 10
135.175
 20
99.90000000000001
 30
0.0
 11
155.175
 21
99.90000000000001
 31
0.0
  0
ARC
  5
7D9
330
68B
100
AcDbEntity
  8
0
  6
Continuous
 62
     3
100
AcDbCircle
 10
155.175
 20
99.40000000000001
 30
0.0
 40
0.5
100
AcDbArc
 50
0.0
 51
90.0
  0
LINE
  5
7DA
330
68B
100
AcDbEntity
  8
0
  6
Continuous
 62
     3
100
AcDbLine
 10
107.675
 20
99.90000000000001
 30
0.0
 11
60.175
 21
99.90000000000001
 31
0.0
  0
ARC
  5
7DB
330
68B
100
AcDbEntity
  8
0
  6
Continuous
 62
     3
100
AcDbCircle
 10
60.175
 20
99.40000000000001
 30
0.0
 40
0.5
100
AcDbArc
 50
90.0
 51
180.0000000009999
  0
LINE
  5
7DC
330
68B
100
AcDbEntity
  8
0
  6
Continuous
 62
     3
100
AcDbLine
 10
60.175
 20
51.9
 30
0.0
 11
107.675
 21
51.9
 31
0.0
  0
LINE
  5
7DD
330
68B
100
AcDbEntity
  8
0
  6
Continuous
 62
     3
100
AcDbLine
 10
59.675
 20
99.40000000000001
 30
0.0
 11
59.675
 21
52.4
 31
0.0
  0
ARC
  5
7DE
330
68B
100
AcDbEntity
  8
0
  6
Continuous
 62
     3
100
AcDbCircle
 10
60.175
 20
52.4
 30
0.0
 40
0.5
100
AcDbArc
 50
180.0000000009999
 51
270.0
  0
LINE
  5
7DF
330
68B
100
AcDbEntity
  8
0
  6
Continuous
 62
     3
100
AcDbLine
 10
131.175
 20
63.9
 30
0.0
 11
135.175
 21
63.9
 31
0.0
  0
LINE
  5
7E0
330
68B
100
AcDbEntity
  8
0
  6
Continuous
 62
     3
100
AcDbLine
 10
135.175
 20
63.9
 30
0.0
 11
135.175
 21
65.9
 31
0.0
  0
LINE
  5
7E1
330
68B
100
AcDbEntity
  8
0
  6
Continuous
 62
     3
100
AcDbLine
 10
135.175
 20
65.9
 30
0.0
 11
131.175
 21
65.9
 31
0.0
  0
LINE
  5
7E2
330
68B
100
AcDbEntity
  8
0
  6
Continuous
 62
     3
100
AcDbLine
 10
131.175
 20
65.9
 30
0.0
 11
131.175
 21
63.9
 31
0.0
  0
LINE
  5
7E3
330
68B
100
AcDbEntity
  8
0
  6
Continuous
 62
     3
100
AcDbLine
 10
137.675
 20
63.9
 30
0.0
 11
141.675
 21
63.9
 31
0.0
  0
LINE
  5
7E4
330
68B
100
AcDbEntity
  8
0
  6
Continuous
 62
     3
100
AcDbLine
 10
141.675
 20
63.9
 30
0.0
 11
141.675
 21
65.9
 31
0.0
  0
LINE
  5
7E5
330
68B
100
AcDbEntity
  8
0
  6
Continuous
 62
     3
100
AcDbLine
 10
141.675
 20
65.9
 30
0.0
 11
137.675
 21
65.9
 31
0.0
  0
LINE
  5
7E6
330
68B
100
AcDbEntity
  8
0
  6
Continuous
 62
     3
100
AcDbLine
 10
137.675
 20
65.9
 30
0.0
 11
137.675
 21
63.9
 31
0.0
  0
LINE
  5
7E7
330
68B
100
AcDbEntity
  8
0
  6
Continuous
 62
     3
100
AcDbLine
 10
137.675
 20
58.39999999999999
 30
0.0
 11
141.675
 21
58.39999999999999
 31
0.0
  0
LINE
  5
7E8
330
68B
100
AcDbEntity
  8
0
  6
Continuous
 62
     3
100
AcDbLine
 10
141.675
 20
58.39999999999999
 30
0.0
 11
141.675
 21
60.4
 31
0.0
  0
LINE
  5
7E9
330
68B
100
AcDbEntity
  8
0
  6
Continuous
 62
     3
100
AcDbLine
 10
141.675
 20
60.4
 30
0.0
 11
137.675
 21
60.4
 31
0.0
  0
LINE
  5
7EA
330
68B
100
AcDbEntity
  8
0
  6
Continuous
 62
     3
100
AcDbLine
 10
137.675
 20
60.4
 30
0.0
 11
137.675
 21
58.39999999999999
 31
0.0
  0
LINE
  5
7EB
330
68B
100
AcDbEntity
  8
0
  6
Continuous
 62
     3
100
AcDbLine
 10
131.175
 20
58.39999999999999
 30
0.0
 11
135.175
 21
58.39999999999999
 31
0.0
  0
LINE
  5
7EC
330
68B
100
AcDbEntity
  8
0
  6
Continuous
 62
     3
100
AcDbLine
 10
135.175
 20
58.39999999999999
 30
0.0
 11
135.175
 21
60.4
 31
0.0
  0
LINE
  5
7ED
330
68B
100
AcDbEntity
  8
0
  6
Continuous
 62
     3
100
AcDbLine
 10
135.175
 20
60.4
 30
0.0
 11
131.175
 21
60.4
 31
0.0
  0
LINE
  5
7EE
330
68B
100
AcDbEntity
  8
0
  6
Continuous
 62
     3
100
AcDbLine
 10
131.175
 20
60.4
 30
0.0
 11
131.175
 21
58.39999999999999
 31
0.0
  0
LINE
  5
7EF
330
68B
100
AcDbEntity
  8
0
  6
LTYPE2
 62
     1
100
AcDbLine
 10
105.675
 20
57.9
 30
0.0
 11
105.675
 21
63.9
 31
0.0
  0
LINE
  5
7F0
330
68B
100
AcDbEntity
  8
0
  6
LTYPE2
 62
     1
100
AcDbLine
 10
105.4249999999999
 20
57.9
 30
0.0
 11
105.4249999999999
 21
63.9
 31
0.0
  0
LINE
  5
7F1
330
68B
100
AcDbEntity
  8
0
  6
LTYPE2
 62
     1
100
AcDbLine
 10
97.675
 20
63.9
 30
0.0
 11
97.675
 21
57.9
 31
0.0
  0
LINE
  5
7F2
330
68B
100
AcDbEntity
  8
0
  6
LTYPE2
 62
     1
100
AcDbLine
 10
97.925
 20
63.9
 30
0.0
 11
97.925
 21
57.9
 31
0.0
  0
ARC
  5
7F3
330
68B
100
AcDbEntity
  8
0
  6
LTYPE2
 62
     1
100
AcDbCircle
 10
104.675
 20
63.9
 30
0.0
 40
1.0
100
AcDbArc
 50
0.0
 51
90.0
  0
ARC
  5
7F4
330
68B
100
AcDbEntity
  8
0
  6
LTYPE2
 62
     1
100
AcDbCircle
 10
104.675
 20
63.9
 30
0.0
 40
0.75
100
AcDbArc
 50
0.0
 51
90.0
  0
ARC
  5
7F5
330
68B
100
AcDbEntity
  8
0
  6
LTYPE2
 62
     1
100
AcDbCircle
 10
98.67499999999999
 20
63.9
 30
0.0
 40
1.0
100
AcDbArc
 50
90.0
 51
180.0
  0
ARC
  5
7F6
330
68B
100
AcDbEntity
  8
0
  6
LTYPE2
 62
     1
100
AcDbCircle
 10
98.67499999999999
 20
63.9
 30
0.0
 40
0.75
100
AcDbArc
 50
90.0
 51
180.0
  0
LINE
  5
7F7
330
68B
100
AcDbEntity
  8
0
  6
LTYPE2
 62
     1
100
AcDbLine
 10
104.675
 20
64.90000000000001
 30
0.0
 11
98.67499999999999
 21
64.90000000000001
 31
0.0
  0
LINE
  5
7F8
330
68B
100
AcDbEntity
  8
0
  6
LTYPE2
 62
     1
100
AcDbLine
 10
104.675
 20
64.65
 30
0.0
 11
98.67499999999999
 21
64.65
 31
0.0
  0
ARC
  5
7F9
330
68B
100
AcDbEntity
  8
0
  6
LTYPE2
 62
     1
100
AcDbCircle
 10
104.675
 20
57.9
 30
0.0
 40
1.0
100
AcDbArc
 50
270.0
 51
0.0
  0
ARC
  5
7FA
330
68B
100
AcDbEntity
  8
0
  6
LTYPE2
 62
     1
100
AcDbCircle
 10
104.675
 20
57.9
 30
0.0
 40
0.75
100
AcDbArc
 50
270.0
 51
0.0
  0
ARC
  5
7FB
330
68B
100
AcDbEntity
  8
0
  6
LTYPE2
 62
     1
100
AcDbCircle
 10
98.67499999999999
 20
57.9
 30
0.0
 40
1.0
100
AcDbArc
 50
180.0
 51
270.0
  0
ARC
  5
7FC
330
68B
100
AcDbEntity
  8
0
  6
LTYPE2
 62
     1
100
AcDbCircle
 10
98.67499999999999
 20
57.9
 30
0.0
 40
0.75
100
AcDbArc
 50
180.0
 51
270.0
  0
LINE
  5
7FD
330
68B
100
AcDbEntity
  8
0
  6
LTYPE2
 62
     1
100
AcDbLine
 10
98.67499999999999
 20
56.9
 30
0.0
 11
104.675
 21
56.9
 31
0.0
  0
LINE
  5
7FE
330
68B
100
AcDbEntity
  8
0
  6
LTYPE2
 62
     1
100
AcDbLine
 10
98.67499999999999
 20
57.14999999999999
 30
0.0
 11
104.675
 21
57.14999999999999
 31
0.0
  0
LINE
  5
7FF
330
68B
100
AcDbEntity
  8
0
  6
LTYPE2
 62
     1
100
AcDbLine
 10
95.675
 20
57.9
 30
0.0
 11
95.675
 21
63.9
 31
0.0
  0
ARC
  5
800
330
68B
100
AcDbEntity
  8
0
  6
LTYPE2
 62
     1
100
AcDbCircle
 10
94.67499999999999
 20
63.9
 30
0.0
 40
1.0
100
AcDbArc
 50
0.0
 51
90.0
  0
LINE
  5
801
330
68B
100
AcDbEntity
  8
0
  6
LTYPE2
 62
     1
100
AcDbLine
 10
95.425
 20
57.9
 30
0.0
 11
95.425
 21
63.9
 31
0.0
  0
ARC
  5
802
330
68B
100
AcDbEntity
  8
0
  6
LTYPE2
 62
     1
100
AcDbCircle
 10
94.67499999999999
 20
63.9
 30
0.0
 40
0.75
100
AcDbArc
 50
0.0
 51
90.0
  0
ARC
  5
803
330
68B
100
AcDbEntity
  8
0
  6
LTYPE2
 62
     1
100
AcDbCircle
 10
94.67499999999999
 20
57.9
 30
0.0
 40
1.0
100
AcDbArc
 50
270.0
 51
0.0
  0
ARC
  5
804
330
68B
100
AcDbEntity
  8
0
  6
LTYPE2
 62
     1
100
AcDbCircle
 10
94.67499999999999
 20
57.9
 30
0.0
 40
0.75
100
AcDbArc
 50
270.0
 51
0.0
  0
ARC
  5
805
330
68B
100
AcDbEntity
  8
0
  6
LTYPE2
 62
     1
100
AcDbCircle
 10
88.67499999999997
 20
63.9
 30
0.0
 40
1.0
100
AcDbArc
 50
90.0
 51
180.0
  0
ARC
  5
806
330
68B
100
AcDbEntity
  8
0
  6
LTYPE2
 62
     1
100
AcDbCircle
 10
88.67499999999997
 20
63.9
 30
0.0
 40
0.75
100
AcDbArc
 50
90.0
 51
180.0
  0
LINE
  5
807
330
68B
100
AcDbEntity
  8
0
  6
LTYPE2
 62
     1
100
AcDbLine
 10
94.67499999999999
 20
64.90000000000001
 30
0.0
 11
88.67499999999997
 21
64.90000000000001
 31
0.0
  0
LINE
  5
808
330
68B
100
AcDbEntity
  8
0
  6
LTYPE2
 62
     1
100
AcDbLine
 10
94.67499999999999
 20
64.65
 30
0.0
 11
88.67499999999997
 21
64.65
 31
0.0
  0
ARC
  5
809
330
68B
100
AcDbEntity
  8
0
  6
LTYPE2
 62
     1
100
AcDbCircle
 10
88.67499999999997
 20
57.9
 30
0.0
 40
1.0
100
AcDbArc
 50
180.0
 51
270.0
  0
ARC
  5
80A
330
68B
100
AcDbEntity
  8
0
  6
LTYPE2
 62
     1
100
AcDbCircle
 10
88.67499999999997
 20
57.9
 30
0.0
 40
0.75
100
AcDbArc
 50
180.0
 51
270.0
  0
LINE
  5
80B
330
68B
100
AcDbEntity
  8
0
  6
LTYPE2
 62
     1
100
AcDbLine
 10
88.67499999999997
 20
56.9
 30
0.0
 11
94.67499999999999
 21
56.9
 31
0.0
  0
LINE
  5
80C
330
68B
100
AcDbEntity
  8
0
  6
LTYPE2
 62
     1
100
AcDbLine
 10
88.67499999999997
 20
57.14999999999999
 30
0.0
 11
94.67499999999999
 21
57.14999999999999
 31
0.0
  0
ARC
  5
80D
330
68B
100
AcDbEntity
  8
0
  6
LTYPE2
 62
     1
100
AcDbCircle
 10
84.67499999999999
 20
63.9
 30
0.0
 40
1.0
100
AcDbArc
 50
0.0
 51
90.0
  0
LINE
  5
80E
330
68B
100
AcDbEntity
  8
0
  6
LTYPE2
 62
     1
100
AcDbLine
 10
85.42499999999998
 20
57.9
 30
0.0
 11
85.42499999999998
 21
63.9
 31
0.0
  0
ARC
  5
80F
330
68B
100
AcDbEntity
  8
0
  6
LTYPE2
 62
     1
100
AcDbCircle
 10
84.67499999999999
 20
63.9
 30
0.0
 40
0.75
100
AcDbArc
 50
0.0
 51
90.0
  0
ARC
  5
810
330
68B
100
AcDbEntity
  8
0
  6
LTYPE2
 62
     1
100
AcDbCircle
 10
78.67499999999998
 20
63.9
 30
0.0
 40
0.75
100
AcDbArc
 50
90.0
 51
180.0
  0
LINE
  5
811
330
68B
100
AcDbEntity
  8
0
  6
LTYPE2
 62
     1
100
AcDbLine
 10
84.67499999999999
 20
64.90000000000001
 30
0.0
 11
78.67499999999998
 21
64.90000000000001
 31
0.0
  0
ARC
  5
812
330
68B
100
AcDbEntity
  8
0
  6
LTYPE2
 62
     1
100
AcDbCircle
 10
84.67499999999999
 20
57.9
 30
0.0
 40
1.0
100
AcDbArc
 50
270.0
 51
0.0
  0
ARC
  5
813
330
68B
100
AcDbEntity
  8
0
  6
LTYPE2
 62
     1
100
AcDbCircle
 10
84.67499999999999
 20
57.9
 30
0.0
 40
0.75
100
AcDbArc
 50
270.0
 51
0.0
  0
LINE
  5
814
330
68B
100
AcDbEntity
  8
0
  6
LTYPE2
 62
     1
100
AcDbLine
 10
77.92499999999998
 20
63.9
 30
0.0
 11
77.92499999999998
 21
57.9
 31
0.0
  0
ARC
  5
815
330
68B
100
AcDbEntity
  8
0
  6
LTYPE2
 62
     1
100
AcDbCircle
 10
78.67499999999998
 20
57.9
 30
0.0
 40
1.0
100
AcDbArc
 50
180.0
 51
270.0
  0
ARC
  5
816
330
68B
100
AcDbEntity
  8
0
  6
LTYPE2
 62
     1
100
AcDbCircle
 10
78.67499999999998
 20
57.9
 30
0.0
 40
0.75
100
AcDbArc
 50
180.0
 51
270.0
  0
LINE
  5
817
330
68B
100
AcDbEntity
  8
0
  6
LTYPE2
 62
     1
100
AcDbLine
 10
78.67499999999998
 20
56.9
 30
0.0
 11
84.67499999999999
 21
56.9
 31
0.0
  0
LINE
  5
818
330
68B
100
AcDbEntity
  8
0
  6
LTYPE2
 62
     1
100
AcDbLine
 10
78.67499999999998
 20
57.14999999999999
 30
0.0
 11
84.67499999999999
 21
57.14999999999999
 31
0.0
  0
ARC
  5
819
330
68B
100
AcDbEntity
  8
0
  6
LTYPE2
 62
     1
100
AcDbCircle
 10
74.67499999999998
 20
57.9
 30
0.0
 40
1.0
100
AcDbArc
 50
270.0
 51
0.0
  0
ARC
  5
81A
330
68B
100
AcDbEntity
  8
0
  6
LTYPE2
 62
     1
100
AcDbCircle
 10
74.67499999999998
 20
57.9
 30
0.0
 40
0.75
100
AcDbArc
 50
270.0
 51
0.0
  0
ARC
  5
81B
330
68B
100
AcDbEntity
  8
0
  6
LTYPE2
 62
     1
100
AcDbCircle
 10
68.67499999999998
 20
57.9
 30
0.0
 40
1.0
100
AcDbArc
 50
180.0
 51
270.0
  0
ARC
  5
81C
330
68B
100
AcDbEntity
  8
0
  6
LTYPE2
 62
     1
100
AcDbCircle
 10
68.67499999999998
 20
57.9
 30
0.0
 40
0.75
100
AcDbArc
 50
180.0
 51
270.0
  0
LINE
  5
81D
330
68B
100
AcDbEntity
  8
0
  6
LTYPE2
 62
     1
100
AcDbLine
 10
68.67499999999998
 20
56.9
 30
0.0
 11
74.67499999999998
 21
56.9
 31
0.0
  0
LINE
  5
81E
330
68B
100
AcDbEntity
  8
0
  6
LTYPE2
 62
     1
100
AcDbLine
 10
68.67499999999998
 20
57.14999999999999
 30
0.0
 11
74.67499999999998
 21
57.14999999999999
 31
0.0
  0
ARC
  5
81F
330
68B
100
AcDbEntity
  8
0
  6
LTYPE2
 62
     1
100
AcDbCircle
 10
78.67499999999998
 20
63.9
 30
0.0
 40
1.0
100
AcDbArc
 50
90.0
 51
180.0
  0
LINE
  5
820
330
68B
100
AcDbEntity
  8
0
  6
LTYPE2
 62
     1
100
AcDbLine
 10
77.67499999999998
 20
63.9
 30
0.0
 11
77.67499999999998
 21
57.9
 31
0.0
  0
LINE
  5
821
330
68B
100
AcDbEntity
  8
0
  6
LTYPE2
 62
     1
100
AcDbLine
 10
67.675
 20
63.9
 30
0.0
 11
67.675
 21
57.9
 31
0.0
  0
ARC
  5
822
330
68B
100
AcDbEntity
  8
0
  6
LTYPE2
 62
     1
100
AcDbCircle
 10
74.67499999999998
 20
63.9
 30
0.0
 40
1.0
100
AcDbArc
 50
0.0
 51
90.0
  0
ARC
  5
823
330
68B
100
AcDbEntity
  8
0
  6
LTYPE2
 62
     1
100
AcDbCircle
 10
74.67499999999998
 20
63.9
 30
0.0
 40
0.75
100
AcDbArc
 50
0.0
 51
90.0
  0
ARC
  5
824
330
68B
100
AcDbEntity
  8
0
  6
LTYPE2
 62
     1
100
AcDbCircle
 10
68.67499999999998
 20
63.9
 30
0.0
 40
1.0
100
AcDbArc
 50
90.0
 51
180.0
  0
ARC
  5
825
330
68B
100
AcDbEntity
  8
0
  6
LTYPE2
 62
     1
100
AcDbCircle
 10
68.67499999999998
 20
63.9
 30
0.0
 40
0.75
100
AcDbArc
 50
90.0
 51
180.0
  0
LINE
  5
826
330
68B
100
AcDbEntity
  8
0
  6
LTYPE2
 62
     1
100
AcDbLine
 10
74.67499999999998
 20
64.90000000000001
 30
0.0
 11
68.67499999999998
 21
64.90000000000001
 31
0.0
  0
LINE
  5
827
330
68B
100
AcDbEntity
  8
0
  6
LTYPE2
 62
     1
100
AcDbLine
 10
74.67499999999998
 20
64.65
 30
0.0
 11
68.67499999999998
 21
64.65
 31
0.0
  0
LINE
  5
828
330
68B
100
AcDbEntity
  8
0
  6
LTYPE2
 62
     1
100
AcDbLine
 10
75.67499999999999
 20
57.9
 30
0.0
 11
75.67499999999999
 21
63.9
 31
0.0
  0
LINE
  5
829
330
68B
100
AcDbEntity
  8
0
  6
LTYPE2
 62
     1
100
AcDbLine
 10
75.42499999999998
 20
57.9
 30
0.0
 11
75.42499999999998
 21
63.9
 31
0.0
  0
LINE
  5
82A
330
68B
100
AcDbEntity
  8
0
  6
LTYPE2
 62
     1
100
AcDbLine
 10
67.925
 20
63.9
 30
0.0
 11
67.925
 21
57.9
 31
0.0
  0
LINE
  5
82B
330
68B
100
AcDbEntity
  8
0
  6
Continuous
 62
     1
100
AcDbLine
 10
84.67499999999999
 20
64.65
 30
0.0
 11
78.67499999999998
 21
64.65
 31
0.0
  0
LINE
  5
82C
330
68B
100
AcDbEntity
  8
0
  6
Continuous
 62
     3
100
AcDbLine
 10
114.175
 20
90.65000000000001
 30
0.0
 11
118.175
 21
90.65000000000001
 31
0.0
  0
LINE
  5
82D
330
68B
100
AcDbEntity
  8
0
  6
Continuous
 62
     3
100
AcDbLine
 10
118.175
 20
90.65000000000001
 30
0.0
 11
118.175
 21
88.65
 31
0.0
  0
LINE
  5
82E
330
68B
100
AcDbEntity
  8
0
  6
Continuous
 62
     3
100
AcDbLine
 10
106.675
 20
90.65000000000001
 30
0.0
 11
110.6749999999999
 21
90.65000000000001
 31
0.0
  0
POINT
  5
82F
330
68B
100
AcDbEntity
  8
0
  6
Continuous
 62
     3
100
AcDbPoint
 10
110.6749999999999
 20
90.65000000000001
 30
0.0
  0
LINE
  5
830
330
68B
100
AcDbEntity
  8
0
  6
Continuous
 62
     3
100
AcDbLine
 10
110.6749999999999
 20
90.65000000000001
 30
0.0
 11
110.6749999999999
 21
88.65
 31
0.0
  0
LINE
  5
831
330
68B
100
AcDbEntity
  8
0
  6
Continuous
 62
     3
100
AcDbLine
 10
106.675
 20
88.65
 30
0.0
 11
106.675
 21
90.65000000000001
 31
0.0
  0
LINE
  5
832
330
68B
100
AcDbEntity
  8
0
  6
Continuous
 62
     3
100
AcDbLine
 10
110.6749999999999
 20
88.65
 30
0.0
 11
106.675
 21
88.65
 31
0.0
  0
LINE
  5
833
330
68B
100
AcDbEntity
  8
0
  6
Continuous
 62
     3
100
AcDbLine
 10
91.675
 20
90.65000000000001
 30
0.0
 11
95.675
 21
90.65000000000001
 31
0.0
  0
LINE
  5
834
330
68B
100
AcDbEntity
  8
0
  6
Continuous
 62
     3
100
AcDbLine
 10
95.675
 20
90.65000000000001
 30
0.0
 11
95.675
 21
88.65
 31
0.0
  0
LINE
  5
835
330
68B
100
AcDbEntity
  8
0
  6
Continuous
 62
     3
100
AcDbLine
 10
91.675
 20
88.65
 30
0.0
 11
91.675
 21
90.65000000000001
 31
0.0
  0
LINE
  5
836
330
68B
100
AcDbEntity
  8
0
  6
Continuous
 62
     3
100
AcDbLine
 10
95.675
 20
88.65
 30
0.0
 11
91.675
 21
88.65
 31
0.0
  0
LINE
  5
837
330
68B
100
AcDbEntity
  8
0
  6
Continuous
 62
     3
100
AcDbLine
 10
76.67499999999998
 20
90.65000000000001
 30
0.0
 11
80.67499999999999
 21
90.65000000000001
 31
0.0
  0
LINE
  5
838
330
68B
100
AcDbEntity
  8
0
  6
Continuous
 62
     3
100
AcDbLine
 10
80.67499999999999
 20
88.65
 30
0.0
 11
76.67499999999998
 21
88.65
 31
0.0
  0
LINE
  5
839
330
68B
100
AcDbEntity
  8
0
  6
Continuous
 62
     3
100
AcDbLine
 10
76.67499999999998
 20
88.65
 30
0.0
 11
76.67499999999998
 21
90.65000000000001
 31
0.0
  0
LINE
  5
83A
330
68B
100
AcDbEntity
  8
0
  6
Continuous
 62
     3
100
AcDbLine
 10
69.175
 20
90.65000000000001
 30
0.0
 11
73.17499999999999
 21
90.65000000000001
 31
0.0
  0
LINE
  5
83B
330
68B
100
AcDbEntity
  8
0
  6
Continuous
 62
     3
100
AcDbLine
 10
73.17499999999999
 20
90.65000000000001
 30
0.0
 11
73.17499999999999
 21
88.65
 31
0.0
  0
LINE
  5
83C
330
68B
100
AcDbEntity
  8
0
  6
Continuous
 62
     3
100
AcDbLine
 10
69.175
 20
88.65
 30
0.0
 11
69.175
 21
90.65000000000001
 31
0.0
  0
LINE
  5
83D
330
68B
100
AcDbEntity
  8
0
  6
Continuous
 62
     3
100
AcDbLine
 10
135.175
 20
65.9
 30
0.0
 11
131.175
 21
65.9
 31
0.0
  0
LINE
  5
83E
330
68B
100
AcDbEntity
  8
0
  6
Continuous
 62
     3
100
AcDbLine
 10
135.175
 20
63.9
 30
0.0
 11
135.175
 21
65.9
 31
0.0
  0
LINE
  5
83F
330
68B
100
AcDbEntity
  8
0
  6
Continuous
 62
     3
100
AcDbLine
 10
131.175
 20
65.9
 30
0.0
 11
131.175
 21
63.9
 31
0.0
  0
LINE
  5
840
330
68B
100
AcDbEntity
  8
0
  6
Continuous
 62
     3
100
AcDbLine
 10
131.175
 20
63.9
 30
0.0
 11
135.175
 21
63.9
 31
0.0
  0
LINE
  5
841
330
68B
100
AcDbEntity
  8
0
  6
Continuous
 62
     3
100
AcDbLine
 10
137.675
 20
63.9
 30
0.0
 11
141.675
 21
63.9
 31
0.0
  0
LINE
  5
842
330
68B
100
AcDbEntity
  8
0
  6
Continuous
 62
     3
100
AcDbLine
 10
141.675
 20
63.9
 30
0.0
 11
141.675
 21
65.9
 31
0.0
  0
LINE
  5
843
330
68B
100
AcDbEntity
  8
0
  6
Continuous
 62
     3
100
AcDbLine
 10
141.675
 20
65.9
 30
0.0
 11
137.675
 21
65.9
 31
0.0
  0
LINE
  5
844
330
68B
100
AcDbEntity
  8
0
  6
Continuous
 62
     3
100
AcDbLine
 10
137.675
 20
65.9
 30
0.0
 11
137.675
 21
63.9
 31
0.0
  0
LINE
  5
845
330
68B
100
AcDbEntity
  8
0
  6
Continuous
 62
     3
100
AcDbLine
 10
144.175
 20
63.9
 30
0.0
 11
148.175
 21
63.9
 31
0.0
  0
LINE
  5
846
330
68B
100
AcDbEntity
  8
0
  6
Continuous
 62
     3
100
AcDbLine
 10
148.175
 20
63.9
 30
0.0
 11
148.175
 21
65.9
 31
0.0
  0
LINE
  5
847
330
68B
100
AcDbEntity
  8
0
  6
Continuous
 62
     3
100
AcDbLine
 10
148.175
 20
65.9
 30
0.0
 11
144.175
 21
65.9
 31
0.0
  0
LINE
  5
848
330
68B
100
AcDbEntity
  8
0
  6
Continuous
 62
     3
100
AcDbLine
 10
144.175
 20
65.9
 30
0.0
 11
144.175
 21
63.9
 31
0.0
  0
LINE
  5
849
330
68B
100
AcDbEntity
  8
0
  6
Continuous
 62
     3
100
AcDbLine
 10
137.675
 20
60.4
 30
0.0
 11
137.675
 21
58.39999999999999
 31
0.0
  0
LINE
  5
84A
330
68B
100
AcDbEntity
  8
0
  6
Continuous
 62
     3
100
AcDbLine
 10
141.675
 20
58.39999999999999
 30
0.0
 11
141.675
 21
60.4
 31
0.0
  0
LINE
  5
84B
330
68B
100
AcDbEntity
  8
0
  6
Continuous
 62
     3
100
AcDbLine
 10
141.675
 20
60.4
 30
0.0
 11
137.675
 21
60.4
 31
0.0
  0
LINE
  5
84C
330
68B
100
AcDbEntity
  8
0
  6
Continuous
 62
     3
100
AcDbLine
 10
137.675
 20
58.39999999999999
 30
0.0
 11
141.675
 21
58.39999999999999
 31
0.0
  0
LINE
  5
84D
330
68B
100
AcDbEntity
  8
0
  6
Continuous
 62
     3
100
AcDbLine
 10
135.175
 20
58.39999999999999
 30
0.0
 11
135.175
 21
60.4
 31
0.0
  0
LINE
  5
84E
330
68B
100
AcDbEntity
  8
0
  6
Continuous
 62
     3
100
AcDbLine
 10
135.175
 20
60.4
 30
0.0
 11
131.175
 21
60.4
 31
0.0
  0
LINE
  5
84F
330
68B
100
AcDbEntity
  8
0
  6
Continuous
 62
     3
100
AcDbLine
 10
131.175
 20
60.4
 30
0.0
 11
131.175
 21
58.39999999999999
 31
0.0
  0
LINE
  5
850
330
68B
100
AcDbEntity
  8
0
  6
Continuous
 62
     3
100
AcDbLine
 10
131.175
 20
58.39999999999999
 30
0.0
 11
135.175
 21
58.39999999999999
 31
0.0
  0
LINE
  5
851
330
68B
100
AcDbEntity
  8
0
  6
Continuous
 62
     3
100
AcDbLine
 10
137.675
 20
58.39999999999999
 30
0.0
 11
141.675
 21
58.39999999999999
 31
0.0
  0
LINE
  5
852
330
68B
100
AcDbEntity
  8
0
  6
Continuous
 62
     3
100
AcDbLine
 10
131.175
 20
58.39999999999999
 30
0.0
 11
135.175
 21
58.39999999999999
 31
0.0
  0
TEXT
  5
853
330
68B
100
AcDbEntity
  8
0
  6
Continuous
 62
     3
100
AcDbText
 10
127.625
 20
92.65
 30
0.0
 40
2.0
  1
ＨＨＨＩＳＥＴ
 41
0.9
  7
KANJI0
100
AcDbText
  0
TEXT
  5
854
330
68B
100
AcDbEntity
  8
0
  6
Continuous
 62
     3
100
AcDbText
 10
131.3749999999995
 20
67.15
 30
0.0
 40
2.0
  1
LO LL SET
 41
0.9
  7
KANJI0
100
AcDbText
  0
TEXT
  5
855
330
68B
100
AcDbEntity
  8
0
  6
Continuous
 62
     3
100
AcDbText
 10
119.9749999999996
 20
55.15
 30
0.0
 40
2.0
  1
Ｐ.ＮＯ
 41
0.9
  7
KANJI0
100
AcDbText
  0
TEXT
  5
856
330
68B
100
AcDbEntity
  8
0
  6
Continuous
 62
     3
100
AcDbText
 10
144.175
 20
61.15
 30
0.0
 40
2.0
  1
ＨＨ.ＬＬ
 41
0.9
 51
10.0
  7
KANJI2
100
AcDbText
  0
LINE
  5
857
330
68B
100
AcDbEntity
  8
0
  6
Continuous
 62
     3
100
AcDbLine
 10
150.92505
 20
64.75
 30
0.0
 11
150.92505
 21
63.5
 31
0.0
  0
LINE
  5
858
330
68B
100
AcDbEntity
  8
0
  6
Continuous
 62
     3
100
AcDbLine
 10
148.9250499999999
 20
64.75
 30
0.0
 11
150.92505
 21
64.75
 31
0.0
  0
TEXT
  5
859
330
68B
100
AcDbEntity
  8
0
  6
Continuous
 62
     3
100
AcDbText
 10
114.175
 20
92.65
 30
0.0
 40
2.0
  1
ＬＬ
 41
0.9
  7
KANJI0
100
AcDbText
  0
TEXT
  5
85A
330
68B
100
AcDbEntity
  8
0
  6
Continuous
 62
     3
100
AcDbText
 10
91.675
 20
92.65
 30
0.0
 40
2.0
  1
ＧＯ
 41
0.9
  7
KANJI0
100
AcDbText
  0
TEXT
  5
85B
330
68B
100
AcDbEntity
  8
0
  6
Continuous
 62
     3
100
AcDbText
 10
76.92499999999999
 20
92.65
 30
0.0
 40
2.0
  1
ＨＩ
 41
0.9
  7
KANJI0
100
AcDbText
  0
TEXT
  5
85C
330
68B
100
AcDbEntity
  8
0
  6
Continuous
 62
     3
100
AcDbText
 10
69.175
 20
92.65
 30
0.0
 40
2.0
  1
ＨＨ
 41
0.9
  7
KANJI0
100
AcDbText
  0
TEXT
  5
85D
330
68B
100
AcDbEntity
  8
0
  6
Continuous
 62
     3
100
AcDbText
 10
106.925
 20
92.65
 30
0.0
 40
2.0
  1
ＬＯ
 41
0.9
  7
KANJI0
100
AcDbText
  0
LINE
  5
85E
330
68B
100
AcDbEntity
  8
0
  6
Continuous
 62
     3
100
AcDbLine
 10
120.9249999999999
 20
86.54999999999999
 30
0.0
 11
118.9249999999999
 21
86.54999999999999
 31
0.0
  0
LINE
  5
85F
330
68B
100
AcDbEntity
  8
0
  6
Continuous
 62
     3
100
AcDbLine
 10
118.9249999999999
 20
85.79999999999998
 30
0.0
 11
120.6749999999999
 21
85.79999999999998
 31
0.0
  0
LINE
  5
860
330
68B
100
AcDbEntity
  8
0
  6
Continuous
 62
     3
100
AcDbLine
 10
120.6749999999999
 20
85.79999999999998
 30
0.0
 11
120.9249999999999
 21
85.79999999999998
 31
0.0
  0
LINE
  5
861
330
68B
100
AcDbEntity
  8
0
  6
Continuous
 62
     3
100
AcDbLine
 10
118.9249999999999
 20
86.54999999999999
 30
0.0
 11
118.9249999999999
 21
85.79999999999998
 31
0.0
  0
LINE
  5
862
330
68B
100
AcDbEntity
  8
0
  6
Continuous
 62
     3
100
AcDbLine
 10
120.9249999999999
 20
85.79999999999998
 30
0.0
 11
120.9249999999999
 21
86.54999999999999
 31
0.0
  0
LINE
  5
863
330
68B
100
AcDbEntity
  8
0
  6
Continuous
 62
     3
100
AcDbLine
 10
118.625
 20
86.52500000000001
 30
0.0
 11
118.625
 21
86.65
 31
0.0
  0
LINE
  5
864
330
68B
100
AcDbEntity
  8
0
  6
Continuous
 62
     3
100
AcDbLine
 10
121.225
 20
81.15
 30
0.0
 11
121.225
 21
86.15
 31
0.0
  0
POINT
  5
865
330
68B
100
AcDbEntity
  8
0
  6
Continuous
 62
     3
100
AcDbPoint
 10
121.225
 20
79.65
 30
0.0
  0
LINE
  5
866
330
68B
100
AcDbEntity
  8
0
  6
Continuous
 62
     3
100
AcDbLine
 10
149.5999999999999
 20
81.15
 30
0.0
 11
121.225
 21
81.15
 31
0.0
  0
LINE
  5
867
330
68B
100
AcDbEntity
  8
0
  6
Continuous
 62
     3
100
AcDbLine
 10
120.9249999999999
 20
75.04999999999999
 30
0.0
 11
118.9249999999999
 21
75.04999999999999
 31
0.0
  0
LINE
  5
868
330
68B
100
AcDbEntity
  8
0
  6
Continuous
 62
     3
100
AcDbLine
 10
118.9249999999999
 20
74.29999999999998
 30
0.0
 11
120.6749999999999
 21
74.29999999999998
 31
0.0
  0
LINE
  5
869
330
68B
100
AcDbEntity
  8
0
  6
Continuous
 62
     3
100
AcDbLine
 10
120.6749999999999
 20
74.29999999999998
 30
0.0
 11
120.9249999999999
 21
74.29999999999998
 31
0.0
  0
LINE
  5
86A
330
68B
100
AcDbEntity
  8
0
  6
Continuous
 62
     3
100
AcDbLine
 10
118.9249999999999
 20
75.04999999999999
 30
0.0
 11
118.9249999999999
 21
74.29999999999998
 31
0.0
  0
LINE
  5
86B
330
68B
100
AcDbEntity
  8
0
  6
Continuous
 62
     3
100
AcDbLine
 10
120.9249999999999
 20
74.29999999999998
 30
0.0
 11
120.9249999999999
 21
75.04999999999999
 31
0.0
  0
LINE
  5
86C
330
68B
100
AcDbEntity
  8
0
  6
Continuous
 62
     3
100
AcDbLine
 10
118.625
 20
69.65
 30
0.0
 11
118.625
 21
86.52500000000001
 31
0.0
  0
LINE
  5
86D
330
68B
100
AcDbEntity
  8
0
  6
Continuous
 62
     3
100
AcDbLine
 10
121.225
 20
74.65
 30
0.0
 11
121.225
 21
79.65
 31
0.0
  0
LINE
  5
86E
330
68B
100
AcDbEntity
  8
0
  6
Continuous
 62
     3
100
AcDbLine
 10
121.225
 20
68.15000000000001
 30
0.0
 11
121.225
 21
58.15
 31
0.0
  0
LINE
  5
86F
330
68B
100
AcDbEntity
  8
0
  6
Continuous
 62
     3
100
AcDbLine
 10
128.2249999999999
 20
58.15
 30
0.0
 11
128.2249999999999
 21
68.15000000000001
 31
0.0
  0
LINE
  5
870
330
68B
100
AcDbEntity
  8
0
  6
Continuous
 62
     3
100
AcDbLine
 10
128.2249999999999
 20
68.15000000000001
 30
0.0
 11
124.7249999999997
 21
68.15000000000001
 31
0.0
  0
LINE
  5
871
330
68B
100
AcDbEntity
  8
0
  6
Continuous
 62
     3
100
AcDbLine
 10
124.7249999999997
 20
68.15000000000001
 30
0.0
 11
121.225
 21
68.15000000000001
 31
0.0
  0
LINE
  5
872
330
68B
100
AcDbEntity
  8
0
  6
Continuous
 62
     3
100
AcDbLine
 10
121.225
 20
58.15
 30
0.0
 11
128.2249999999999
 21
58.15
 31
0.0
  0
LINE
  5
873
330
68B
100
AcDbEntity
  8
0
  6
Continuous
 62
     3
100
AcDbLine
 10
121.225
 20
69.65
 30
0.0
 11
121.225
 21
74.65
 31
0.0
  0
LINE
  5
874
330
68B
100
AcDbEntity
  8
0
  6
Continuous
 62
     3
100
AcDbLine
 10
149.5999999999999
 20
69.65
 30
0.0
 11
121.225
 21
69.65
 31
0.0
  0
POINT
  5
875
330
68B
100
AcDbEntity
  8
0
  6
Continuous
 62
     3
100
AcDbPoint
 10
121.225
 20
91.15
 30
0.0
  0
LINE
  5
876
330
68B
100
AcDbEntity
  8
0
  6
Continuous
 62
     3
100
AcDbLine
 10
121.225
 20
91.15
 30
0.0
 11
149.5999999999999
 21
91.15
 31
0.0
  0
LINE
  5
877
330
68B
100
AcDbEntity
  8
0
  6
Continuous
 62
     3
100
AcDbLine
 10
121.225
 20
86.15
 30
0.0
 11
121.225
 21
91.15
 31
0.0
  0
LINE
  5
878
330
68B
100
AcDbEntity
  8
0
  6
Continuous
 62
     3
100
AcDbLine
 10
149.5999999999999
 20
69.65
 30
0.0
 11
149.5999999999999
 21
79.65
 31
0.0
  0
LINE
  5
879
330
68B
100
AcDbEntity
  8
0
  6
Continuous
 62
     3
100
AcDbLine
 10
121.225
 20
79.65
 30
0.0
 11
149.5999999999999
 21
79.65
 31
0.0
  0
LINE
  5
87A
330
68B
100
AcDbEntity
  8
0
  6
Continuous
 62
     3
100
AcDbLine
 10
130.875
 20
67.9
 30
0.0
 11
129.425
 21
67.9
 31
0.0
  0
LINE
  5
87B
330
68B
100
AcDbEntity
  8
0
  6
Continuous
 62
     3
100
AcDbLine
 10
145.625
 20
67.9
 30
0.0
 11
149.675
 21
67.9
 31
0.0
  0
LINE
  5
87C
330
68B
100
AcDbEntity
  8
0
  6
Continuous
 62
     3
100
AcDbLine
 10
126.625
 20
93.40000000000001
 30
0.0
 11
121.225
 21
93.40000000000001
 31
0.0
  0
LINE
  5
87D
330
68B
100
AcDbEntity
  8
0
  6
Continuous
 62
     3
100
AcDbLine
 10
142.8749999999998
 20
93.40000000000001
 30
0.0
 11
149.5999999999999
 21
93.40000000000001
 31
0.0
  0
TEXT
  5
87E
330
68B
100
AcDbEntity
  8
0
  6
Continuous
 62
     3
100
AcDbText
 10
131.4749999999999
 20
61.15
 30
0.0
 40
2.0
  1
ＭＥ
 41
0.9
  7
KANJI0
100
AcDbText
  0
TEXT
  5
87F
330
68B
100
AcDbEntity
  8
0
  6
Continuous
 62
     3
100
AcDbText
 10
137.975
 20
61.15
 30
0.0
 40
2.0
  1
ＰＨ
 41
0.9
  7
KANJI0
100
AcDbText
  0
TEXT
  5
880
330
68B
100
AcDbEntity
  8
0
  6
Continuous
 62
     3
100
AcDbText
 10
137.975
 20
55.15
 30
0.0
 40
2.0
  1
ＲＥ
 41
0.9
  7
KANJI0
100
AcDbText
  0
TEXT
  5
881
330
68B
100
AcDbEntity
  8
0
  6
Continuous
 62
     3
100
AcDbText
 10
131.4749999999999
 20
55.15
 30
0.0
 40
2.0
  1
ＤＺ
 41
0.9
  7
KANJI0
100
AcDbText
  0
ARC
  5
882
330
68B
100
AcDbEntity
  8
0
  6
LTYPE2
 62
     1
100
AcDbCircle
 10
114.6749999999999
 20
63.9
 30
0.0
 40
1.0
100
AcDbArc
 50
0.0
 51
90.0
  0
LINE
  5
883
330
68B
100
AcDbEntity
  8
0
  6
LTYPE2
 62
     1
100
AcDbLine
 10
115.4249999999999
 20
57.9
 30
0.0
 11
115.4249999999999
 21
63.9
 31
0.0
  0
ARC
  5
884
330
68B
100
AcDbEntity
  8
0
  6
LTYPE2
 62
     1
100
AcDbCircle
 10
114.6749999999999
 20
63.9
 30
0.0
 40
0.75
100
AcDbArc
 50
0.0
 51
90.0
  0
ARC
  5
885
330
68B
100
AcDbEntity
  8
0
  6
LTYPE2
 62
     1
100
AcDbCircle
 10
108.675
 20
63.9
 30
0.0
 40
0.75
100
AcDbArc
 50
90.0
 51
180.0
  0
LINE
  5
886
330
68B
100
AcDbEntity
  8
0
  6
LTYPE2
 62
     1
100
AcDbLine
 10
114.6749999999999
 20
64.90000000000001
 30
0.0
 11
108.675
 21
64.90000000000001
 31
0.0
  0
ARC
  5
887
330
68B
100
AcDbEntity
  8
0
  6
LTYPE2
 62
     1
100
AcDbCircle
 10
114.6749999999999
 20
57.9
 30
0.0
 40
1.0
100
AcDbArc
 50
270.0
 51
0.0
  0
ARC
  5
888
330
68B
100
AcDbEntity
  8
0
  6
LTYPE2
 62
     1
100
AcDbCircle
 10
114.6749999999999
 20
57.9
 30
0.0
 40
0.75
100
AcDbArc
 50
270.0
 51
0.0
  0
LINE
  5
889
330
68B
100
AcDbEntity
  8
0
  6
LTYPE2
 62
     1
100
AcDbLine
 10
107.925
 20
63.9
 30
0.0
 11
107.925
 21
57.9
 31
0.0
  0
ARC
  5
88A
330
68B
100
AcDbEntity
  8
0
  6
LTYPE2
 62
     1
100
AcDbCircle
 10
108.675
 20
57.9
 30
0.0
 40
1.0
100
AcDbArc
 50
180.0
 51
270.0
  0
ARC
  5
88B
330
68B
100
AcDbEntity
  8
0
  6
LTYPE2
 62
     1
100
AcDbCircle
 10
108.675
 20
57.9
 30
0.0
 40
0.75
100
AcDbArc
 50
180.0
 51
270.0
  0
LINE
  5
88C
330
68B
100
AcDbEntity
  8
0
  6
LTYPE2
 62
     1
100
AcDbLine
 10
108.675
 20
56.9
 30
0.0
 11
114.6749999999999
 21
56.9
 31
0.0
  0
LINE
  5
88D
330
68B
100
AcDbEntity
  8
0
  6
LTYPE2
 62
     1
100
AcDbLine
 10
108.675
 20
57.14999999999999
 30
0.0
 11
114.6749999999999
 21
57.14999999999999
 31
0.0
  0
ARC
  5
88E
330
68B
100
AcDbEntity
  8
0
  6
LTYPE2
 62
     1
100
AcDbCircle
 10
108.675
 20
63.9
 30
0.0
 40
1.0
100
AcDbArc
 50
90.0
 51
180.0
  0
LINE
  5
88F
330
68B
100
AcDbEntity
  8
0
  6
LTYPE2
 62
     1
100
AcDbLine
 10
107.675
 20
63.9
 30
0.0
 11
107.675
 21
57.9
 31
0.0
  0
LINE
  5
890
330
68B
100
AcDbEntity
  8
0
  6
LTYPE2
 62
     1
100
AcDbLine
 10
115.6749999999999
 20
57.9
 30
0.0
 11
115.6749999999999
 21
58.9
 31
0.0
  0
LINE
  5
891
330
68B
100
AcDbEntity
  8
0
  6
Continuous
 62
     1
100
AcDbLine
 10
114.6749999999999
 20
64.65
 30
0.0
 11
108.675
 21
64.65
 31
0.0
  0
LINE
  5
892
330
68B
100
AcDbEntity
  8
0
  6
LTYPE2
 62
     1
100
AcDbLine
 10
115.6749999999999
 20
58.9
 30
0.0
 11
115.6749999999999
 21
63.9
 31
0.0
  0
LINE
  5
893
330
68B
100
AcDbEntity
  8
0
  6
Continuous
 62
     3
100
AcDbLine
 10
59.675
 20
119.9
 30
0.0
 11
59.675
 21
121.4
 31
0.0
  0
LINE
  5
894
330
68B
100
AcDbEntity
  8
0
  6
Continuous
 62
     3
100
AcDbLine
 10
61.675
 20
240.3999999999999
 30
0.0
 11
61.675
 21
121.4
 31
0.0
  0
LINE
  5
895
330
68B
100
AcDbEntity
  8
0
  6
Continuous
 62
     3
100
AcDbLine
 10
59.675
 20
121.4
 30
0.0
 11
61.675
 21
121.4
 31
0.0
  0
LINE
  5
896
330
68B
100
AcDbEntity
  8
0
  6
Continuous
 62
     3
100
AcDbLine
 10
153.675
 20
240.3999999999999
 30
0.0
 11
153.675
 21
121.4
 31
0.0
  0
LINE
  5
897
330
68B
100
AcDbEntity
  8
0
  6
Continuous
 62
     3
100
AcDbLine
 10
144.925
 20
241.4
 30
0.0
 11
144.925
 21
240.3999999999999
 31
0.0
  0
LINE
  5
898
330
68B
100
AcDbEntity
  8
0
  6
Continuous
 62
     3
100
AcDbLine
 10
59.675
 20
119.9
 30
0.0
 11
59.675
 21
119.4
 31
0.0
  0
LINE
  5
899
330
68B
100
AcDbEntity
  8
0
  6
Continuous
 62
     3
100
AcDbLine
 10
155.675
 20
119.4
 30
0.0
 11
155.675
 21
121.4
 31
0.0
  0
LINE
  5
89A
330
68B
100
AcDbEntity
  8
0
  6
Continuous
 62
     3
100
AcDbLine
 10
155.675
 20
119.9
 30
0.0
 11
107.675
 21
119.9
 31
0.0
  0
POINT
  5
89B
330
68B
100
AcDbEntity
  8
0
  6
Continuous
 62
     3
100
AcDbPoint
 10
69.675
 20
119.9
 30
0.0
  0
POINT
  5
89C
330
68B
100
AcDbEntity
  8
0
  6
Continuous
 62
     3
100
AcDbPoint
 10
145.675
 20
119.9
 30
0.0
  0
LINE
  5
89D
330
68B
100
AcDbEntity
  8
0
  6
Continuous
 62
     3
100
AcDbLine
 10
70.175
 20
240.3999999999999
 30
0.0
 11
70.175
 21
241.4
 31
0.0
  0
LINE
  5
89E
330
68B
100
AcDbEntity
  8
0
  6
Continuous
 62
     3
100
AcDbLine
 10
61.675
 20
240.3999999999999
 30
0.0
 11
70.175
 21
240.3999999999999
 31
0.0
  0
POINT
  5
89F
330
68B
100
AcDbEntity
  8
0
  6
Continuous
 62
     3
100
AcDbPoint
 10
155.675
 20
119.9
 30
0.0
  0
ARC
  5
8A0
330
68B
100
AcDbEntity
  8
0
  6
Continuous
 62
     3
100
AcDbCircle
 10
77.42499999999998
 20
128.4
 30
0.0
 40
0.5
100
AcDbArc
 50
180.0000000009999
 51
270.0
  0
LINE
  5
8A1
330
68B
100
AcDbEntity
  8
0
  6
Continuous
 62
     3
100
AcDbLine
 10
137.925
 20
127.9
 30
0.0
 11
77.42499999999998
 21
127.9
 31
0.0
  0
ARC
  5
8A2
330
68B
100
AcDbEntity
  8
0
  6
Continuous
 62
     3
100
AcDbCircle
 10
137.925
 20
128.4
 30
0.0
 40
0.5
100
AcDbArc
 50
270.0
 51
0.0
  0
LINE
  5
8A3
330
68B
100
AcDbEntity
  8
0
  6
Continuous
 62
     3
100
AcDbLine
 10
76.92499999999999
 20
128.3499999999999
 30
0.0
 11
76.92499999999999
 21
144.4
 31
0.0
  0
ARC
  5
8A4
330
68B
100
AcDbEntity
  8
0
  6
Continuous
 62
     3
100
AcDbCircle
 10
77.42499999999998
 20
144.4
 30
0.0
 40
0.5
100
AcDbArc
 50
90.0
 51
180.0000000009999
  0
LINE
  5
8A5
330
68B
100
AcDbEntity
  8
0
  6
Continuous
 62
     3
100
AcDbLine
 10
77.42499999999998
 20
144.9
 30
0.0
 11
137.925
 21
144.9
 31
0.0
  0
ARC
  5
8A6
330
68B
100
AcDbEntity
  8
0
  6
Continuous
 62
     3
100
AcDbCircle
 10
137.925
 20
144.4
 30
0.0
 40
0.5
100
AcDbArc
 50
0.0
 51
90.0
  0
ARC
  5
8A7
330
68B
100
AcDbEntity
  8
0
  6
Continuous
 62
     3
100
AcDbCircle
 10
142.675
 20
146.4
 30
0.0
 40
0.5
100
AcDbArc
 50
270.0
 51
0.0
  0
LINE
  5
8A8
330
68B
100
AcDbEntity
  8
0
  6
Continuous
 62
     3
100
AcDbLine
 10
142.675
 20
145.9
 30
0.0
 11
138.425
 21
145.9
 31
0.0
  0
ARC
  5
8A9
330
68B
100
AcDbEntity
  8
0
  6
Continuous
 62
     3
100
AcDbCircle
 10
142.675
 20
193.65
 30
0.0
 40
0.5
100
AcDbArc
 50
270.0
 51
0.0
  0
LINE
  5
8AA
330
68B
100
AcDbEntity
  8
0
  6
Continuous
 62
     3
100
AcDbLine
 10
143.175
 20
146.4
 30
0.0
 11
143.175
 21
191.65
 31
0.0
  0
ARC
  5
8AB
330
68B
100
AcDbEntity
  8
0
  6
Continuous
 62
     3
100
AcDbCircle
 10
142.675
 20
191.65
 30
0.0
 40
0.5
100
AcDbArc
 50
0.0
 51
90.0
  0
ARC
  5
8AC
330
68B
100
AcDbEntity
  8
0
  6
Continuous
 62
     3
100
AcDbCircle
 10
142.675
 20
238.9
 30
0.0
 40
0.5
100
AcDbArc
 50
0.0
 51
90.0
  0
LINE
  5
8AD
330
68B
100
AcDbEntity
  8
0
  6
Continuous
 62
     3
100
AcDbLine
 10
142.675
 20
239.4
 30
0.0
 11
72.67499999999998
 21
239.4
 31
0.0
  0
ARC
  5
8AE
330
68B
100
AcDbEntity
  8
0
  6
Continuous
 62
     3
100
AcDbCircle
 10
72.67499999999998
 20
238.9
 30
0.0
 40
0.5
100
AcDbArc
 50
90.0
 51
180.0000000009999
  0
LINE
  5
8AF
330
68B
100
AcDbEntity
  8
0
  6
Continuous
 62
     3
100
AcDbLine
 10
138.425
 20
144.4
 30
0.0
 11
138.425
 21
128.4
 31
0.0
  0
LINE
  5
8B0
330
68B
100
AcDbEntity
  8
0
  6
Continuous
 62
     3
100
AcDbLine
 10
72.17499999999998
 20
238.9
 30
0.0
 11
72.17499999999998
 21
193.65
 31
0.0
  0
LINE
  5
8B1
330
68B
100
AcDbEntity
  8
0
  6
Continuous
 62
     3
100
AcDbLine
 10
142.675
 20
193.1499999999998
 30
0.0
 11
72.67499999999998
 21
193.1499999999998
 31
0.0
  0
ARC
  5
8B2
330
68B
100
AcDbEntity
  8
0
  6
Continuous
 62
     3
100
AcDbCircle
 10
72.67499999999998
 20
193.65
 30
0.0
 40
0.5
100
AcDbArc
 50
180.0000000009999
 51
270.0
  0
LINE
  5
8B3
330
68B
100
AcDbEntity
  8
0
  6
Continuous
 62
     3
100
AcDbLine
 10
72.67499999999998
 20
192.15
 30
0.0
 11
142.675
 21
192.15
 31
0.0
  0
ARC
  5
8B4
330
68B
100
AcDbEntity
  8
0
  6
Continuous
 62
     3
100
AcDbCircle
 10
72.67499999999998
 20
191.65
 30
0.0
 40
0.5
100
AcDbArc
 50
90.0
 51
180.0000000009999
  0
LINE
  5
8B5
330
68B
100
AcDbEntity
  8
0
  6
Continuous
 62
     3
100
AcDbLine
 10
138.975
 20
145.9
 30
0.0
 11
72.67499999999998
 21
145.9
 31
0.0
  0
LINE
  5
8B6
330
68B
100
AcDbEntity
  8
0
  6
Continuous
 62
     3
100
AcDbLine
 10
72.17499999999998
 20
191.65
 30
0.0
 11
72.17499999999998
 21
146.4
 31
0.0
  0
ARC
  5
8B7
330
68B
100
AcDbEntity
  8
0
  6
Continuous
 62
     3
100
AcDbCircle
 10
72.67499999999998
 20
146.4
 30
0.0
 40
0.5
100
AcDbArc
 50
180.0000000009999
 51
270.0
  0
LINE
  5
8B8
330
68B
100
AcDbEntity
  8
0
  6
Continuous
 62
     3
100
AcDbLine
 10
155.675
 20
121.4
 30
0.0
 11
61.675
 21
121.4
 31
0.0
  0
LINE
  5
8B9
330
68B
100
AcDbEntity
  8
0
  6
Continuous
 62
     3
100
AcDbLine
 10
107.675
 20
119.9
 30
0.0
 11
59.675
 21
119.9
 31
0.0
  0
LINE
  5
8BA
330
68B
100
AcDbEntity
  8
0
  6
Continuous
 62
     3
100
AcDbLine
 10
59.675
 20
119.9
 30
0.0
 11
59.92499999999999
 21
114.9
 31
0.0
  0
LINE
  5
8BB
330
68B
100
AcDbEntity
  8
0
  6
Continuous
 62
     3
100
AcDbLine
 10
59.92499999999999
 20
114.9
 30
0.0
 11
155.425
 21
114.9
 31
0.0
  0
LINE
  5
8BC
330
68B
100
AcDbEntity
  8
0
  6
Continuous
 62
     3
100
AcDbLine
 10
155.425
 20
114.9
 30
0.0
 11
155.675
 21
119.65
 31
0.0
  0
LINE
  5
8BD
330
68B
100
AcDbEntity
  8
0
  6
Continuous
 62
     3
100
AcDbLine
 10
153.8
 20
121.525
 30
0.0
 11
155.4
 21
121.525
 31
0.0
  0
LINE
  5
8BE
330
68B
100
AcDbEntity
  8
0
  6
Continuous
 62
     3
100
AcDbLine
 10
153.8
 20
241.5249999999999
 30
0.0
 11
153.8
 21
159.525
 31
0.0
  0
LINE
  5
8BF
330
68B
100
AcDbEntity
  8
0
  6
Continuous
 62
     3
100
AcDbLine
 10
153.8
 20
144.925
 30
0.0
 11
155.4
 21
144.925
 31
0.0
  0
ARC
  5
8C0
330
68B
100
AcDbEntity
  8
0
  6
Continuous
 62
     3
100
AcDbCircle
 10
153.8
 20
241.5249999999999
 30
0.0
 40
1.6
100
AcDbArc
 50
0.0
 51
90.0
  0
LINE
  5
8C1
330
68B
100
AcDbEntity
  8
0
  6
Continuous
 62
     3
100
AcDbLine
 10
153.8
 20
159.525
 30
0.0
 11
153.8
 21
121.525
 31
0.0
  0
LINE
  5
8C2
330
68B
100
AcDbEntity
  8
0
  6
Continuous
 62
     3
100
AcDbLine
 10
155.4
 20
121.525
 30
0.0
 11
155.4
 21
241.5249999999999
 31
0.0
  0
ARC
  5
8C3
330
68B
100
AcDbEntity
  8
0
  6
Continuous
 62
     3
100
AcDbCircle
 10
61.55
 20
241.5249999999999
 30
0.0
 40
1.6
100
AcDbArc
 50
90.0
 51
180.0
  0
LINE
  5
8C4
330
68B
100
AcDbEntity
  8
0
  6
Continuous
 62
     3
100
AcDbLine
 10
59.95
 20
121.525
 30
0.0
 11
59.95
 21
241.5249999999999
 31
0.0
  0
LINE
  5
8C5
330
68B
100
AcDbEntity
  8
0
  6
Continuous
 62
     3
100
AcDbLine
 10
61.55
 20
241.5249999999999
 30
0.0
 11
61.55
 21
121.4
 31
0.0
  0
LINE
  5
8C6
330
68B
100
AcDbEntity
  8
0
  6
Continuous
 62
     3
100
AcDbLine
 10
70.175
 20
241.4
 30
0.0
 11
144.925
 21
241.4
 31
0.0
  0
LINE
  5
8C7
330
68B
100
AcDbEntity
  8
0
  6
Continuous
 62
     3
100
AcDbLine
 10
61.92499999999999
 20
241.5249999999999
 30
0.0
 11
61.92499999999999
 21
259.0249999999999
 31
0.0
  0
POINT
  5
8C8
330
68B
100
AcDbEntity
  8
0
  6
Continuous
 62
     3
100
AcDbPoint
 10
118.175
 20
88.40000000000001
 30
0.0
  0
LINE
  5
8C9
330
68B
100
AcDbEntity
  8
0
  6
Continuous
 62
     3
100
AcDbLine
 10
114.175
 20
88.65
 30
0.0
 11
118.175
 21
88.65
 31
0.0
  0
LINE
  5
8CA
330
68B
100
AcDbEntity
  8
0
  6
Continuous
 62
     3
100
AcDbLine
 10
114.175
 20
90.65000000000001
 30
0.0
 11
114.175
 21
88.65
 31
0.0
  0
LINE
  5
8CB
330
68B
100
AcDbEntity
  8
0
  6
Continuous
 62
     3
100
AcDbLine
 10
79.42499999999999
 20
86.65
 30
0.0
 11
76.17499999999998
 21
86.65
 31
0.0
  0
LINE
  5
8CC
330
68B
100
AcDbEntity
  8
0
  6
Continuous
 62
     3
100
AcDbLine
 10
118.625
 20
86.65
 30
0.0
 11
68.67499999999998
 21
86.65
 31
0.0
  0
LINE
  5
8CD
330
68B
100
AcDbEntity
  8
0
  6
Continuous
 62
     3
100
AcDbLine
 10
68.67499999999998
 20
69.65
 30
0.0
 11
79.92499999999998
 21
69.65
 31
0.0
  0
LINE
  5
8CE
330
68B
100
AcDbEntity
  8
0
  6
Continuous
 62
     3
100
AcDbLine
 10
68.67499999999998
 20
86.65
 30
0.0
 11
68.67499999999998
 21
69.65
 31
0.0
  0
LINE
  5
8CF
330
68B
100
AcDbEntity
  8
0
  6
Continuous
 62
     3
100
AcDbLine
 10
80.67499999999999
 20
90.65000000000001
 30
0.0
 11
80.67499999999999
 21
88.65
 31
0.0
  0
LINE
  5
8D0
330
68B
100
AcDbEntity
  8
0
  6
Continuous
 62
     3
100
AcDbLine
 10
73.17499999999999
 20
88.65
 30
0.0
 11
69.175
 21
88.65
 31
0.0
  0
LINE
  5
8D1
330
68B
100
AcDbEntity
  8
0
  6
Continuous
 62
     3
100
AcDbLine
 10
66.92499999999999
 20
78.65000000000001
 30
0.0
 11
67.3
 21
78.275
 31
0.0
  0
LINE
  5
8D2
330
68B
100
AcDbEntity
  8
0
  6
Continuous
 62
     3
100
AcDbLine
 10
67.3
 20
78.275
 30
0.0
 11
66.90000000000001
 21
77.575
 31
0.0
  0
LINE
  5
8D3
330
68B
100
AcDbEntity
  8
0
  6
Continuous
 62
     3
100
AcDbLine
 10
64.75
 20
77.54999999999999
 30
0.0
 11
66.92499999999999
 21
77.54999999999999
 31
0.0
  0
LINE
  5
8D4
330
68B
100
AcDbEntity
  8
0
  6
Continuous
 62
     3
100
AcDbLine
 10
66.90000000000001
 20
78.67499999999998
 30
0.0
 11
64.8
 21
78.67499999999998
 31
0.0
  0
LINE
  5
8D5
330
68B
100
AcDbEntity
  8
0
  6
Continuous
 62
     3
100
AcDbLine
 10
64.775
 20
77.575
 30
0.0
 11
64.34999999999999
 21
77.9
 31
0.0
  0
LINE
  5
8D6
330
68B
100
AcDbEntity
  8
0
  6
Continuous
 62
     3
100
AcDbLine
 10
64.34999999999999
 20
77.9
 30
0.0
 11
64.75
 21
78.625
 31
0.0
  0
POINT
  5
8D7
330
68B
100
AcDbEntity
  8
0
  6
Continuous
 62
     3
100
AcDbPoint
 10
89.86318181799999
 20
77.59999999999998
 30
0.0
  0
LINE
  5
8D8
330
68B
100
AcDbEntity
  8
0
  6
Continuous
 62
     3
100
AcDbLine
 10
89.15045454500001
 20
72.7
 30
0.0
 11
89.83409090899998
 21
77.40000000000001
 31
0.0
  0
LINE
  5
8D9
330
68B
100
AcDbEntity
  8
0
  6
Continuous
 62
     3
100
AcDbLine
 10
89.17499999999998
 20
72.65
 30
0.0
 11
89.97499999999998
 21
71.45
 31
0.0
  0
LINE
  5
8DA
330
68B
100
AcDbEntity
  8
0
  6
Continuous
 62
     3
100
AcDbLine
 10
89.67499999999999
 20
71.15000000000001
 30
0.0
 11
89.82499999999996
 21
71.26999999999998
 31
0.0
  0
LINE
  5
8DB
330
68B
100
AcDbEntity
  8
0
  6
Continuous
 62
     3
100
AcDbLine
 10
89.97499999999998
 20
71.39
 30
0.0
 11
90.175
 21
71.55
 31
0.0
  0
LINE
  5
8DC
330
68B
100
AcDbEntity
  8
0
  6
Continuous
 62
     3
100
AcDbLine
 10
89.67499999999999
 20
71.15000000000001
 30
0.0
 11
82.67499999999998
 21
71.15000000000001
 31
0.0
  0
LINE
  5
8DD
330
68B
100
AcDbEntity
  8
0
  6
Continuous
 62
     3
100
AcDbLine
 10
90.92499999999999
 20
78.0
 30
0.0
 11
91.125
 21
77.9
 31
0.0
  0
LINE
  5
8DE
330
68B
100
AcDbEntity
  8
0
  6
Continuous
 62
     3
100
AcDbLine
 10
90.975
 20
78.29999999999998
 30
0.0
 11
91.27500000000001
 21
78.5
 31
0.0
  0
LINE
  5
8DF
330
68B
100
AcDbEntity
  8
0
  6
Continuous
 62
     3
100
AcDbLine
 10
83.525
 20
78.25
 30
0.0
 11
83.275
 21
78.5
 31
0.0
  0
LINE
  5
8E0
330
68B
100
AcDbEntity
  8
0
  6
Continuous
 62
     3
100
AcDbLine
 10
84.47499999999998
 20
78.7
 30
0.0
 11
83.525
 21
78.312962963
 31
0.0
  0
LINE
  5
8E1
330
68B
100
AcDbEntity
  8
0
  6
Continuous
 62
     3
100
AcDbLine
 10
89.625
 20
78.65000000000001
 30
0.0
 11
90.575
 21
78.15000000000002
 31
0.0
  0
LINE
  5
8E2
330
68B
100
AcDbEntity
  8
0
  6
Continuous
 62
     3
100
AcDbLine
 10
90.575
 20
78.15000000000002
 30
0.0
 11
89.375
 21
77.5
 31
0.0
  0
LINE
  5
8E3
330
68B
100
AcDbEntity
  8
0
  6
Continuous
 62
     3
100
AcDbLine
 10
84.97499999999998
 20
78.7
 30
0.0
 11
83.77500000000003
 21
78.09999999999998
 31
0.0
  0
LINE
  5
8E4
330
68B
100
AcDbEntity
  8
0
  6
Continuous
 62
     3
100
AcDbLine
 10
84.57500000000001
 20
77.54999999999999
 30
0.0
 11
83.825
 21
78.0
 31
0.0
  0
LINE
  5
8E5
330
68B
100
AcDbEntity
  8
0
  6
Continuous
 62
     3
100
AcDbLine
 10
91.14954545499999
 20
77.84999999999998
 30
0.0
 11
90.24045454500001
 21
71.6
 31
0.0
  0
LINE
  5
8E6
330
68B
100
AcDbEntity
  8
0
  6
Continuous
 62
     3
100
AcDbLine
 10
90.975
 20
78.231818182
 30
0.0
 11
90.02500000000003
 21
78.75
 31
0.0
  0
LINE
  5
8E7
330
68B
100
AcDbEntity
  8
0
  6
Continuous
 62
     3
100
AcDbLine
 10
89.82499999999996
 20
77.45
 30
0.0
 11
90.92499999999999
 21
78.02199999999998
 31
0.0
  0
LINE
  5
8E8
330
68B
100
AcDbEntity
  8
0
  6
Continuous
 62
     3
100
AcDbLine
 10
88.97499999999999
 20
72.40000000000001
 30
0.0
 11
84.02500000000001
 21
72.40000000000001
 31
0.0
  0
LINE
  5
8E9
330
68B
100
AcDbEntity
  8
0
  6
Continuous
 62
     3
100
AcDbLine
 10
88.97499999999999
 20
72.45
 30
0.0
 11
89.775
 21
71.2
 31
0.0
  0
LINE
  5
8EA
330
68B
100
AcDbEntity
  8
0
  6
Continuous
 62
     3
100
AcDbLine
 10
84.02500000000001
 20
72.40000000000001
 30
0.0
 11
82.67499999999998
 21
71.2
 31
0.0
  0
LINE
  5
8EB
330
68B
100
AcDbEntity
  8
0
  6
Continuous
 62
     3
100
AcDbLine
 10
82.67499999999998
 20
71.15000000000001
 30
0.0
 11
82.67499999999998
 21
71.15000000000001
 31
0.0
  0
LINE
  5
8EC
330
68B
100
AcDbEntity
  8
0
  6
Continuous
 62
     3
100
AcDbLine
 10
84.625
 20
77.5
 30
0.0
 11
89.375
 21
77.5
 31
0.0
  0
LINE
  5
8ED
330
68B
100
AcDbEntity
  8
0
  6
Continuous
 62
     3
100
AcDbLine
 10
89.57500000000001
 20
78.75
 30
0.0
 11
85.02500000000003
 21
78.75
 31
0.0
  0
LINE
  5
8EE
330
68B
100
AcDbEntity
  8
0
  6
Continuous
 62
     3
100
AcDbLine
 10
85.47499999999997
 20
83.9
 30
0.0
 11
84.625
 21
84.9
 31
0.0
  0
LINE
  5
8EF
330
68B
100
AcDbEntity
  8
0
  6
Continuous
 62
     3
100
AcDbLine
 10
85.22499999999999
 20
83.84999999999998
 30
0.0
 11
84.42499999999999
 21
84.74999999999999
 31
0.0
  0
LINE
  5
8F0
330
68B
100
AcDbEntity
  8
0
  6
Continuous
 62
     3
100
AcDbLine
 10
90.525
 20
83.95000000000001
 30
0.0
 11
91.72499999999999
 21
84.95
 31
0.0
  0
LINE
  5
8F1
330
68B
100
AcDbEntity
  8
0
  6
Continuous
 62
     3
100
AcDbLine
 10
91.875
 20
84.74999999999999
 30
0.0
 11
90.72499999999999
 21
83.75
 31
0.0
  0
LINE
  5
8F2
330
68B
100
AcDbEntity
  8
0
  6
Continuous
 62
     3
100
AcDbLine
 10
92.08772727299999
 20
84.54999999999998
 30
0.0
 11
91.23681818200001
 21
78.45
 31
0.0
  0
LINE
  5
8F3
330
68B
100
AcDbEntity
  8
0
  6
Continuous
 62
     3
100
AcDbLine
 10
91.993181818
 20
84.7
 30
0.0
 11
92.07500000000001
 21
84.59999999999999
 31
0.0
  0
LINE
  5
8F4
330
68B
100
AcDbEntity
  8
0
  6
Continuous
 62
     3
100
AcDbLine
 10
91.62499999999999
 20
85.15
 30
0.0
 11
91.82954545500001
 21
84.9
 31
0.0
  0
LINE
  5
8F5
330
68B
100
AcDbEntity
  8
0
  6
Continuous
 62
     3
100
AcDbLine
 10
90.01590909099999
 20
78.65000000000001
 30
0.0
 11
90.721363636
 21
83.75
 31
0.0
  0
LINE
  5
8F6
330
68B
100
AcDbEntity
  8
0
  6
Continuous
 62
     3
100
AcDbLine
 10
85.24318181799998
 20
83.9
 30
0.0
 11
84.50863636399999
 21
78.59999999999998
 31
0.0
  0
LINE
  5
8F7
330
68B
100
AcDbEntity
  8
0
  6
Continuous
 62
     3
100
AcDbLine
 10
90.47499999999999
 20
83.9
 30
0.0
 11
85.37499999999999
 21
83.9
 31
0.0
  0
LINE
  5
8F8
330
68B
100
AcDbEntity
  8
0
  6
Continuous
 62
     3
100
AcDbLine
 10
83.26071428599998
 20
78.5
 30
0.0
 11
84.103571429
 21
84.65000000000001
 31
0.0
  0
LINE
  5
8F9
330
68B
100
AcDbEntity
  8
0
  6
Continuous
 62
     3
100
AcDbLine
 10
84.72499999999998
 20
85.15
 30
0.0
 11
91.675
 21
85.15
 31
0.0
  0
LINE
  5
8FA
330
68B
100
AcDbEntity
  8
0
  6
Continuous
 62
     3
100
AcDbLine
 10
84.72499999999998
 20
85.09999999999998
 30
0.0
 11
84.67499999999999
 21
85.06538461499998
 31
0.0
  0
LINE
  5
8FB
330
68B
100
AcDbEntity
  8
0
  6
Continuous
 62
     3
100
AcDbLine
 10
84.375
 20
84.85769230799999
 30
0.0
 11
84.075
 21
84.65000000000001
 31
0.0
  0
LINE
  5
8FC
330
68B
100
AcDbEntity
  8
0
  6
Continuous
 62
     3
100
AcDbLine
 10
84.625
 20
84.9
 30
0.0
 11
84.57500000000001
 21
84.95
 31
0.0
  0
LINE
  5
8FD
330
68B
100
AcDbEntity
  8
0
  6
Continuous
 62
     3
100
AcDbLine
 10
84.57500000000001
 20
84.95
 30
0.0
 11
84.67499999999999
 21
85.04999999999999
 31
0.0
  0
LINE
  5
8FE
330
68B
100
AcDbEntity
  8
0
  6
Continuous
 62
     3
100
AcDbLine
 10
84.42499999999999
 20
84.74999999999999
 30
0.0
 11
84.375
 21
84.84999999999997
 31
0.0
  0
POINT
  5
8FF
330
68B
100
AcDbEntity
  8
0
  6
Continuous
 62
     3
100
AcDbPoint
 10
77.363181818
 20
77.59999999999998
 30
0.0
  0
LINE
  5
900
330
68B
100
AcDbEntity
  8
0
  6
Continuous
 62
     3
100
AcDbLine
 10
76.650454545
 20
72.7
 30
0.0
 11
77.33409090899998
 21
77.40000000000001
 31
0.0
  0
LINE
  5
901
330
68B
100
AcDbEntity
  8
0
  6
Continuous
 62
     3
100
AcDbLine
 10
76.67499999999998
 20
72.65
 30
0.0
 11
77.47499999999998
 21
71.45
 31
0.0
  0
LINE
  5
902
330
68B
100
AcDbEntity
  8
0
  6
Continuous
 62
     3
100
AcDbLine
 10
77.17499999999998
 20
71.15000000000001
 30
0.0
 11
77.325
 21
71.26999999999998
 31
0.0
  0
LINE
  5
903
330
68B
100
AcDbEntity
  8
0
  6
Continuous
 62
     3
100
AcDbLine
 10
77.47499999999998
 20
71.39
 30
0.0
 11
77.67499999999998
 21
71.55
 31
0.0
  0
LINE
  5
904
330
68B
100
AcDbEntity
  8
0
  6
Continuous
 62
     3
100
AcDbLine
 10
78.42499999999998
 20
78.0
 30
0.0
 11
78.625
 21
77.9
 31
0.0
  0
LINE
  5
905
330
68B
100
AcDbEntity
  8
0
  6
Continuous
 62
     3
100
AcDbLine
 10
78.47499999999998
 20
78.29999999999998
 30
0.0
 11
78.77500000000002
 21
78.5
 31
0.0
  0
LINE
  5
906
330
68B
100
AcDbEntity
  8
0
  6
Continuous
 62
     3
100
AcDbLine
 10
71.02500000000002
 20
78.25
 30
0.0
 11
70.77500000000002
 21
78.5
 31
0.0
  0
LINE
  5
907
330
68B
100
AcDbEntity
  8
0
  6
Continuous
 62
     3
100
AcDbLine
 10
71.97499999999998
 20
78.7
 30
0.0
 11
71.02500000000002
 21
78.312962963
 31
0.0
  0
LINE
  5
908
330
68B
100
AcDbEntity
  8
0
  6
Continuous
 62
     3
100
AcDbLine
 10
77.125
 20
78.65000000000001
 30
0.0
 11
78.075
 21
78.15000000000002
 31
0.0
  0
LINE
  5
909
330
68B
100
AcDbEntity
  8
0
  6
Continuous
 62
     3
100
AcDbLine
 10
78.075
 20
78.15000000000002
 30
0.0
 11
76.875
 21
77.5
 31
0.0
  0
LINE
  5
90A
330
68B
100
AcDbEntity
  8
0
  6
Continuous
 62
     3
100
AcDbLine
 10
72.47499999999998
 20
78.7
 30
0.0
 11
71.27500000000002
 21
78.09999999999998
 31
0.0
  0
LINE
  5
90B
330
68B
100
AcDbEntity
  8
0
  6
Continuous
 62
     3
100
AcDbLine
 10
72.075
 20
77.54999999999999
 30
0.0
 11
71.325
 21
78.0
 31
0.0
  0
LINE
  5
90C
330
68B
100
AcDbEntity
  8
0
  6
Continuous
 62
     3
100
AcDbLine
 10
78.64954545499998
 20
77.84999999999998
 30
0.0
 11
77.74045454500002
 21
71.6
 31
0.0
  0
LINE
  5
90D
330
68B
100
AcDbEntity
  8
0
  6
Continuous
 62
     3
100
AcDbLine
 10
78.47499999999998
 20
78.231818182
 30
0.0
 11
77.52500000000002
 21
78.75
 31
0.0
  0
LINE
  5
90E
330
68B
100
AcDbEntity
  8
0
  6
Continuous
 62
     3
100
AcDbLine
 10
77.325
 20
77.45
 30
0.0
 11
78.42499999999998
 21
78.02199999999998
 31
0.0
  0
LINE
  5
90F
330
68B
100
AcDbEntity
  8
0
  6
Continuous
 62
     3
100
AcDbLine
 10
76.47499999999998
 20
72.40000000000001
 30
0.0
 11
71.52500000000002
 21
72.40000000000001
 31
0.0
  0
LINE
  5
910
330
68B
100
AcDbEntity
  8
0
  6
Continuous
 62
     3
100
AcDbLine
 10
76.47499999999998
 20
72.45
 30
0.0
 11
77.275
 21
71.2
 31
0.0
  0
LINE
  5
911
330
68B
100
AcDbEntity
  8
0
  6
Continuous
 62
     3
100
AcDbLine
 10
72.125
 20
77.5
 30
0.0
 11
76.875
 21
77.5
 31
0.0
  0
LINE
  5
912
330
68B
100
AcDbEntity
  8
0
  6
Continuous
 62
     3
100
AcDbLine
 10
77.075
 20
78.75
 30
0.0
 11
72.52500000000002
 21
78.75
 31
0.0
  0
LINE
  5
913
330
68B
100
AcDbEntity
  8
0
  6
Continuous
 62
     3
100
AcDbLine
 10
78.02500000000001
 20
83.95000000000001
 30
0.0
 11
79.22499999999998
 21
84.95
 31
0.0
  0
LINE
  5
914
330
68B
100
AcDbEntity
  8
0
  6
Continuous
 62
     3
100
AcDbLine
 10
79.375
 20
84.74999999999999
 30
0.0
 11
78.22499999999998
 21
83.75
 31
0.0
  0
LINE
  5
915
330
68B
100
AcDbEntity
  8
0
  6
Continuous
 62
     3
100
AcDbLine
 10
79.587727273
 20
84.54999999999998
 30
0.0
 11
78.73681818199999
 21
78.45
 31
0.0
  0
LINE
  5
916
330
68B
100
AcDbEntity
  8
0
  6
Continuous
 62
     3
100
AcDbLine
 10
79.49318181799998
 20
84.7
 30
0.0
 11
79.575
 21
84.59999999999999
 31
0.0
  0
LINE
  5
917
330
68B
100
AcDbEntity
  8
0
  6
Continuous
 62
     3
100
AcDbLine
 10
79.125
 20
85.15
 30
0.0
 11
79.329545455
 21
84.9
 31
0.0
  0
LINE
  5
918
330
68B
100
AcDbEntity
  8
0
  6
Continuous
 62
     3
100
AcDbLine
 10
77.51590909099999
 20
78.65000000000001
 30
0.0
 11
78.22136363600001
 21
83.75
 31
0.0
  0
LINE
  5
919
330
68B
100
AcDbEntity
  8
0
  6
Continuous
 62
     3
100
AcDbLine
 10
70.76071428600001
 20
78.5
 30
0.0
 11
71.603571429
 21
84.65000000000001
 31
0.0
  0
LINE
  5
91A
330
68B
100
AcDbEntity
  8
0
  6
Continuous
 62
     3
100
AcDbLine
 10
77.97499999999998
 20
83.9
 30
0.0
 11
72.92499999999998
 21
83.9
 31
0.0
  0
LINE
  5
91B
330
68B
100
AcDbEntity
  8
0
  6
Continuous
 62
     3
100
AcDbLine
 10
72.92499999999998
 20
83.9
 30
0.0
 11
71.92499999999999
 21
84.9
 31
0.0
  0
LINE
  5
91C
330
68B
100
AcDbEntity
  8
0
  6
Continuous
 62
     3
100
AcDbLine
 10
72.67499999999998
 20
83.65
 30
0.0
 11
71.675
 21
84.65000000000001
 31
0.0
  0
LINE
  5
91D
330
68B
100
AcDbEntity
  8
0
  6
Continuous
 62
     3
100
AcDbLine
 10
72.70853344799999
 20
83.65
 30
0.0
 11
72.008636364
 21
78.59999999999998
 31
0.0
  0
LINE
  5
91E
330
68B
100
AcDbEntity
  8
0
  6
Continuous
 62
     3
100
AcDbLine
 10
72.17499999999998
 20
85.15
 30
0.0
 11
79.17499999999998
 21
85.15
 31
0.0
  0
LINE
  5
91F
330
68B
100
AcDbEntity
  8
0
  6
Continuous
 62
     3
100
AcDbLine
 10
71.92499999999999
 20
84.9
 30
0.0
 11
72.17499999999998
 21
85.15
 31
0.0
  0
LINE
  5
920
330
68B
100
AcDbEntity
  8
0
  6
Continuous
 62
     3
100
AcDbLine
 10
71.55
 20
84.525
 30
0.0
 11
71.675
 21
84.65000000000001
 31
0.0
  0
LINE
  5
921
330
68B
100
AcDbEntity
  8
0
  6
Continuous
 62
     3
100
AcDbLine
 10
77.17499999999998
 20
71.15000000000001
 30
0.0
 11
70.175
 21
71.15000000000001
 31
0.0
  0
LINE
  5
922
330
68B
100
AcDbEntity
  8
0
  6
Continuous
 62
     3
100
AcDbLine
 10
71.52500000000002
 20
72.40000000000001
 30
0.0
 11
70.175
 21
71.2
 31
0.0
  0
POINT
  5
923
330
68B
100
AcDbEntity
  8
0
  6
Continuous
 62
     3
100
AcDbPoint
 10
114.8631818179999
 20
77.59999999999998
 30
0.0
  0
LINE
  5
924
330
68B
100
AcDbEntity
  8
0
  6
Continuous
 62
     3
100
AcDbLine
 10
114.150454545
 20
72.7
 30
0.0
 11
114.834090909
 21
77.40000000000001
 31
0.0
  0
LINE
  5
925
330
68B
100
AcDbEntity
  8
0
  6
Continuous
 62
     3
100
AcDbLine
 10
114.175
 20
72.65
 30
0.0
 11
114.975
 21
71.45
 31
0.0
  0
LINE
  5
926
330
68B
100
AcDbEntity
  8
0
  6
Continuous
 62
     3
100
AcDbLine
 10
114.6749999999999
 20
71.15000000000001
 30
0.0
 11
114.8249999999999
 21
71.26999999999998
 31
0.0
  0
LINE
  5
927
330
68B
100
AcDbEntity
  8
0
  6
Continuous
 62
     3
100
AcDbLine
 10
114.975
 20
71.39
 30
0.0
 11
115.175
 21
71.55
 31
0.0
  0
LINE
  5
928
330
68B
100
AcDbEntity
  8
0
  6
Continuous
 62
     3
100
AcDbLine
 10
114.6749999999999
 20
71.15000000000001
 30
0.0
 11
107.675
 21
71.15000000000001
 31
0.0
  0
LINE
  5
929
330
68B
100
AcDbEntity
  8
0
  6
Continuous
 62
     3
100
AcDbLine
 10
115.9249999999999
 20
78.0
 30
0.0
 11
116.125
 21
77.9
 31
0.0
  0
LINE
  5
92A
330
68B
100
AcDbEntity
  8
0
  6
Continuous
 62
     3
100
AcDbLine
 10
115.975
 20
78.29999999999998
 30
0.0
 11
116.275
 21
78.5
 31
0.0
  0
LINE
  5
92B
330
68B
100
AcDbEntity
  8
0
  6
Continuous
 62
     3
100
AcDbLine
 10
108.525
 20
78.25
 30
0.0
 11
108.275
 21
78.5
 31
0.0
  0
LINE
  5
92C
330
68B
100
AcDbEntity
  8
0
  6
Continuous
 62
     3
100
AcDbLine
 10
109.4749999999995
 20
78.7
 30
0.0
 11
108.525
 21
78.312962963
 31
0.0
  0
LINE
  5
92D
330
68B
100
AcDbEntity
  8
0
  6
Continuous
 62
     3
100
AcDbLine
 10
114.6249999999999
 20
78.65000000000001
 30
0.0
 11
115.575
 21
78.15000000000002
 31
0.0
  0
LINE
  5
92E
330
68B
100
AcDbEntity
  8
0
  6
Continuous
 62
     3
100
AcDbLine
 10
115.575
 20
78.15000000000002
 30
0.0
 11
114.375
 21
77.5
 31
0.0
  0
LINE
  5
92F
330
68B
100
AcDbEntity
  8
0
  6
Continuous
 62
     3
100
AcDbLine
 10
109.975
 20
78.7
 30
0.0
 11
108.7749999999999
 21
78.09999999999998
 31
0.0
  0
LINE
  5
930
330
68B
100
AcDbEntity
  8
0
  6
Continuous
 62
     3
100
AcDbLine
 10
109.5749999999999
 20
77.54999999999999
 30
0.0
 11
108.825
 21
78.0
 31
0.0
  0
LINE
  5
931
330
68B
100
AcDbEntity
  8
0
  6
Continuous
 62
     3
100
AcDbLine
 10
116.149545455
 20
77.84999999999998
 30
0.0
 11
115.240454545
 21
71.6
 31
0.0
  0
LINE
  5
932
330
68B
100
AcDbEntity
  8
0
  6
Continuous
 62
     3
100
AcDbLine
 10
115.975
 20
78.231818182
 30
0.0
 11
115.0249999999999
 21
78.75
 31
0.0
  0
LINE
  5
933
330
68B
100
AcDbEntity
  8
0
  6
Continuous
 62
     3
100
AcDbLine
 10
114.8249999999999
 20
77.45
 30
0.0
 11
115.9249999999999
 21
78.02199999999998
 31
0.0
  0
LINE
  5
934
330
68B
100
AcDbEntity
  8
0
  6
Continuous
 62
     3
100
AcDbLine
 10
113.975
 20
72.40000000000001
 30
0.0
 11
109.025
 21
72.40000000000001
 31
0.0
  0
LINE
  5
935
330
68B
100
AcDbEntity
  8
0
  6
Continuous
 62
     3
100
AcDbLine
 10
113.975
 20
72.45
 30
0.0
 11
114.775
 21
71.2
 31
0.0
  0
LINE
  5
936
330
68B
100
AcDbEntity
  8
0
  6
Continuous
 62
     3
100
AcDbLine
 10
109.025
 20
72.40000000000001
 30
0.0
 11
107.675
 21
71.2
 31
0.0
  0
LINE
  5
937
330
68B
100
AcDbEntity
  8
0
  6
Continuous
 62
     3
100
AcDbLine
 10
107.675
 20
71.15000000000001
 30
0.0
 11
107.675
 21
71.15000000000001
 31
0.0
  0
LINE
  5
938
330
68B
100
AcDbEntity
  8
0
  6
Continuous
 62
     3
100
AcDbLine
 10
109.6249999999999
 20
77.5
 30
0.0
 11
114.375
 21
77.5
 31
0.0
  0
LINE
  5
939
330
68B
100
AcDbEntity
  8
0
  6
Continuous
 62
     3
100
AcDbLine
 10
114.575
 20
78.75
 30
0.0
 11
110.025
 21
78.75
 31
0.0
  0
POINT
  5
93A
330
68B
100
AcDbEntity
  8
0
  6
Continuous
 62
     3
100
AcDbPoint
 10
102.3631818179999
 20
77.59999999999998
 30
0.0
  0
LINE
  5
93B
330
68B
100
AcDbEntity
  8
0
  6
Continuous
 62
     3
100
AcDbLine
 10
101.650454545
 20
72.7
 30
0.0
 11
102.334090909
 21
77.40000000000001
 31
0.0
  0
LINE
  5
93C
330
68B
100
AcDbEntity
  8
0
  6
Continuous
 62
     3
100
AcDbLine
 10
101.675
 20
72.65
 30
0.0
 11
102.475
 21
71.45
 31
0.0
  0
LINE
  5
93D
330
68B
100
AcDbEntity
  8
0
  6
Continuous
 62
     3
100
AcDbLine
 10
102.1749999999999
 20
71.15000000000001
 30
0.0
 11
102.3249999999999
 21
71.26999999999998
 31
0.0
  0
LINE
  5
93E
330
68B
100
AcDbEntity
  8
0
  6
Continuous
 62
     3
100
AcDbLine
 10
102.475
 20
71.39
 30
0.0
 11
102.675
 21
71.55
 31
0.0
  0
LINE
  5
93F
330
68B
100
AcDbEntity
  8
0
  6
Continuous
 62
     3
100
AcDbLine
 10
102.1749999999999
 20
71.15000000000001
 30
0.0
 11
95.175
 21
71.15000000000001
 31
0.0
  0
LINE
  5
940
330
68B
100
AcDbEntity
  8
0
  6
Continuous
 62
     3
100
AcDbLine
 10
103.4249999999999
 20
78.0
 30
0.0
 11
103.625
 21
77.9
 31
0.0
  0
LINE
  5
941
330
68B
100
AcDbEntity
  8
0
  6
Continuous
 62
     3
100
AcDbLine
 10
103.475
 20
78.29999999999998
 30
0.0
 11
103.775
 21
78.5
 31
0.0
  0
LINE
  5
942
330
68B
100
AcDbEntity
  8
0
  6
Continuous
 62
     3
100
AcDbLine
 10
96.025
 20
78.25
 30
0.0
 11
95.775
 21
78.5
 31
0.0
  0
LINE
  5
943
330
68B
100
AcDbEntity
  8
0
  6
Continuous
 62
     3
100
AcDbLine
 10
96.97499999999999
 20
78.7
 30
0.0
 11
96.025
 21
78.312962963
 31
0.0
  0
LINE
  5
944
330
68B
100
AcDbEntity
  8
0
  6
Continuous
 62
     3
100
AcDbLine
 10
102.1249999999999
 20
78.65000000000001
 30
0.0
 11
103.075
 21
78.15000000000002
 31
0.0
  0
LINE
  5
945
330
68B
100
AcDbEntity
  8
0
  6
Continuous
 62
     3
100
AcDbLine
 10
103.075
 20
78.15000000000002
 30
0.0
 11
101.875
 21
77.5
 31
0.0
  0
LINE
  5
946
330
68B
100
AcDbEntity
  8
0
  6
Continuous
 62
     3
100
AcDbLine
 10
97.475
 20
78.7
 30
0.0
 11
96.27500000000001
 21
78.09999999999998
 31
0.0
  0
LINE
  5
947
330
68B
100
AcDbEntity
  8
0
  6
Continuous
 62
     3
100
AcDbLine
 10
97.07500000000001
 20
77.54999999999999
 30
0.0
 11
96.325
 21
78.0
 31
0.0
  0
LINE
  5
948
330
68B
100
AcDbEntity
  8
0
  6
Continuous
 62
     3
100
AcDbLine
 10
103.649545455
 20
77.84999999999998
 30
0.0
 11
102.740454545
 21
71.6
 31
0.0
  0
LINE
  5
949
330
68B
100
AcDbEntity
  8
0
  6
Continuous
 62
     3
100
AcDbLine
 10
103.475
 20
78.231818182
 30
0.0
 11
102.5249999999999
 21
78.75
 31
0.0
  0
LINE
  5
94A
330
68B
100
AcDbEntity
  8
0
  6
Continuous
 62
     3
100
AcDbLine
 10
102.3249999999999
 20
77.45
 30
0.0
 11
103.4249999999999
 21
78.02199999999998
 31
0.0
  0
LINE
  5
94B
330
68B
100
AcDbEntity
  8
0
  6
Continuous
 62
     3
100
AcDbLine
 10
101.475
 20
72.40000000000001
 30
0.0
 11
96.52500000000001
 21
72.40000000000001
 31
0.0
  0
LINE
  5
94C
330
68B
100
AcDbEntity
  8
0
  6
Continuous
 62
     3
100
AcDbLine
 10
101.475
 20
72.45
 30
0.0
 11
102.275
 21
71.2
 31
0.0
  0
LINE
  5
94D
330
68B
100
AcDbEntity
  8
0
  6
Continuous
 62
     3
100
AcDbLine
 10
96.52500000000001
 20
72.40000000000001
 30
0.0
 11
95.175
 21
71.2
 31
0.0
  0
LINE
  5
94E
330
68B
100
AcDbEntity
  8
0
  6
Continuous
 62
     3
100
AcDbLine
 10
95.175
 20
71.15000000000001
 30
0.0
 11
95.175
 21
71.15000000000001
 31
0.0
  0
LINE
  5
94F
330
68B
100
AcDbEntity
  8
0
  6
Continuous
 62
     3
100
AcDbLine
 10
97.125
 20
77.5
 30
0.0
 11
101.875
 21
77.5
 31
0.0
  0
LINE
  5
950
330
68B
100
AcDbEntity
  8
0
  6
Continuous
 62
     3
100
AcDbLine
 10
102.075
 20
78.75
 30
0.0
 11
97.52500000000001
 21
78.75
 31
0.0
  0
LINE
  5
951
330
68B
100
AcDbEntity
  8
0
  6
Continuous
 62
     3
100
AcDbLine
 10
110.4749999999997
 20
83.9
 30
0.0
 11
109.6249999999999
 21
84.9
 31
0.0
  0
LINE
  5
952
330
68B
100
AcDbEntity
  8
0
  6
Continuous
 62
     3
100
AcDbLine
 10
110.2249999999997
 20
83.84999999999998
 30
0.0
 11
109.4249999999999
 21
84.74999999999999
 31
0.0
  0
LINE
  5
953
330
68B
100
AcDbEntity
  8
0
  6
Continuous
 62
     3
100
AcDbLine
 10
115.525
 20
83.95000000000001
 30
0.0
 11
116.7249999999997
 21
84.95
 31
0.0
  0
LINE
  5
954
330
68B
100
AcDbEntity
  8
0
  6
Continuous
 62
     3
100
AcDbLine
 10
116.8749999999999
 20
84.74999999999999
 30
0.0
 11
115.7249999999997
 21
83.75
 31
0.0
  0
LINE
  5
955
330
68B
100
AcDbEntity
  8
0
  6
Continuous
 62
     3
100
AcDbLine
 10
117.087727273
 20
84.54999999999998
 30
0.0
 11
116.236818182
 21
78.45
 31
0.0
  0
LINE
  5
956
330
68B
100
AcDbEntity
  8
0
  6
Continuous
 62
     3
100
AcDbLine
 10
116.993181818
 20
84.7
 30
0.0
 11
117.0749999999999
 21
84.59999999999999
 31
0.0
  0
LINE
  5
957
330
68B
100
AcDbEntity
  8
0
  6
Continuous
 62
     3
100
AcDbLine
 10
116.625
 20
85.15
 30
0.0
 11
116.8295454549999
 21
84.9
 31
0.0
  0
LINE
  5
958
330
68B
100
AcDbEntity
  8
0
  6
Continuous
 62
     3
100
AcDbLine
 10
115.0159090909999
 20
78.65000000000001
 30
0.0
 11
115.721363636
 21
83.75
 31
0.0
  0
LINE
  5
959
330
68B
100
AcDbEntity
  8
0
  6
Continuous
 62
     3
100
AcDbLine
 10
110.2431818179999
 20
83.9
 30
0.0
 11
109.5086363639999
 21
78.59999999999998
 31
0.0
  0
LINE
  5
95A
330
68B
100
AcDbEntity
  8
0
  6
Continuous
 62
     3
100
AcDbLine
 10
115.4749999999997
 20
83.9
 30
0.0
 11
110.375
 21
83.9
 31
0.0
  0
LINE
  5
95B
330
68B
100
AcDbEntity
  8
0
  6
Continuous
 62
     3
100
AcDbLine
 10
108.260714286
 20
78.5
 30
0.0
 11
109.103571429
 21
84.65000000000001
 31
0.0
  0
LINE
  5
95C
330
68B
100
AcDbEntity
  8
0
  6
Continuous
 62
     3
100
AcDbLine
 10
109.725
 20
85.15
 30
0.0
 11
116.6749999999999
 21
85.15
 31
0.0
  0
LINE
  5
95D
330
68B
100
AcDbEntity
  8
0
  6
Continuous
 62
     3
100
AcDbLine
 10
109.725
 20
85.09999999999998
 30
0.0
 11
109.6749999999999
 21
85.06538461499998
 31
0.0
  0
LINE
  5
95E
330
68B
100
AcDbEntity
  8
0
  6
Continuous
 62
     3
100
AcDbLine
 10
109.375
 20
84.85769230799999
 30
0.0
 11
109.075
 21
84.65000000000001
 31
0.0
  0
LINE
  5
95F
330
68B
100
AcDbEntity
  8
0
  6
Continuous
 62
     3
100
AcDbLine
 10
109.6249999999999
 20
84.9
 30
0.0
 11
109.5749999999999
 21
84.95
 31
0.0
  0
LINE
  5
960
330
68B
100
AcDbEntity
  8
0
  6
Continuous
 62
     3
100
AcDbLine
 10
109.5749999999999
 20
84.95
 30
0.0
 11
109.6749999999999
 21
85.04999999999999
 31
0.0
  0
LINE
  5
961
330
68B
100
AcDbEntity
  8
0
  6
Continuous
 62
     3
100
AcDbLine
 10
109.4249999999999
 20
84.74999999999999
 30
0.0
 11
109.375
 21
84.84999999999997
 31
0.0
  0
LINE
  5
962
330
68B
100
AcDbEntity
  8
0
  6
Continuous
 62
     3
100
AcDbLine
 10
97.97499999999999
 20
83.9
 30
0.0
 11
97.125
 21
84.9
 31
0.0
  0
LINE
  5
963
330
68B
100
AcDbEntity
  8
0
  6
Continuous
 62
     3
100
AcDbLine
 10
97.725
 20
83.84999999999998
 30
0.0
 11
96.925
 21
84.74999999999999
 31
0.0
  0
LINE
  5
964
330
68B
100
AcDbEntity
  8
0
  6
Continuous
 62
     3
100
AcDbLine
 10
103.025
 20
83.95000000000001
 30
0.0
 11
104.2249999999997
 21
84.95
 31
0.0
  0
LINE
  5
965
330
68B
100
AcDbEntity
  8
0
  6
Continuous
 62
     3
100
AcDbLine
 10
104.3749999999999
 20
84.74999999999999
 30
0.0
 11
103.2249999999997
 21
83.75
 31
0.0
  0
LINE
  5
966
330
68B
100
AcDbEntity
  8
0
  6
Continuous
 62
     3
100
AcDbLine
 10
104.587727273
 20
84.54999999999998
 30
0.0
 11
103.736818182
 21
78.45
 31
0.0
  0
LINE
  5
967
330
68B
100
AcDbEntity
  8
0
  6
Continuous
 62
     3
100
AcDbLine
 10
104.493181818
 20
84.7
 30
0.0
 11
104.5749999999999
 21
84.59999999999999
 31
0.0
  0
LINE
  5
968
330
68B
100
AcDbEntity
  8
0
  6
Continuous
 62
     3
100
AcDbLine
 10
104.125
 20
85.15
 30
0.0
 11
104.3295454549999
 21
84.9
 31
0.0
  0
LINE
  5
969
330
68B
100
AcDbEntity
  8
0
  6
Continuous
 62
     3
100
AcDbLine
 10
102.5159090909999
 20
78.65000000000001
 30
0.0
 11
103.221363636
 21
83.75
 31
0.0
  0
LINE
  5
96A
330
68B
100
AcDbEntity
  8
0
  6
Continuous
 62
     3
100
AcDbLine
 10
97.743181818
 20
83.9
 30
0.0
 11
97.00863636400001
 21
78.59999999999998
 31
0.0
  0
LINE
  5
96B
330
68B
100
AcDbEntity
  8
0
  6
Continuous
 62
     3
100
AcDbLine
 10
102.9749999999997
 20
83.9
 30
0.0
 11
97.87500000000001
 21
83.9
 31
0.0
  0
LINE
  5
96C
330
68B
100
AcDbEntity
  8
0
  6
Continuous
 62
     3
100
AcDbLine
 10
95.760714286
 20
78.5
 30
0.0
 11
96.60357142900002
 21
84.65000000000001
 31
0.0
  0
LINE
  5
96D
330
68B
100
AcDbEntity
  8
0
  6
Continuous
 62
     3
100
AcDbLine
 10
97.225
 20
85.15
 30
0.0
 11
104.1749999999999
 21
85.15
 31
0.0
  0
LINE
  5
96E
330
68B
100
AcDbEntity
  8
0
  6
Continuous
 62
     3
100
AcDbLine
 10
97.225
 20
85.09999999999998
 30
0.0
 11
97.17500000000001
 21
85.06538461499998
 31
0.0
  0
LINE
  5
96F
330
68B
100
AcDbEntity
  8
0
  6
Continuous
 62
     3
100
AcDbLine
 10
96.875
 20
84.85769230799999
 30
0.0
 11
96.575
 21
84.65000000000001
 31
0.0
  0
LINE
  5
970
330
68B
100
AcDbEntity
  8
0
  6
Continuous
 62
     3
100
AcDbLine
 10
97.125
 20
84.9
 30
0.0
 11
97.07500000000001
 21
84.95
 31
0.0
  0
LINE
  5
971
330
68B
100
AcDbEntity
  8
0
  6
Continuous
 62
     3
100
AcDbLine
 10
97.07500000000001
 20
84.95
 30
0.0
 11
97.17500000000001
 21
85.04999999999999
 31
0.0
  0
LINE
  5
972
330
68B
100
AcDbEntity
  8
0
  6
Continuous
 62
     3
100
AcDbLine
 10
96.925
 20
84.74999999999999
 30
0.0
 11
96.875
 21
84.84999999999997
 31
0.0
  0
POINT
  5
973
330
68B
100
AcDbEntity
  8
0
  6
Continuous
 62
     3
100
AcDbPoint
 10
126.7249999999995
 20
82.15000000000001
 30
0.0
  0
POINT
  5
974
330
68B
100
AcDbEntity
  8
0
  6
Continuous
 62
     3
100
AcDbPoint
 10
126.7249999999995
 20
82.15000000000001
 30
0.0
  0
POINT
  5
975
330
68B
100
AcDbEntity
  8
0
  6
Continuous
 62
     3
100
AcDbPoint
 10
122.9749999999997
 20
82.15000000000001
 30
0.0
  0
POINT
  5
976
330
68B
100
AcDbEntity
  8
0
  6
Continuous
 62
     3
100
AcDbPoint
 10
126.475
 20
90.15
 30
0.0
  0
LINE
  5
977
330
68B
100
AcDbEntity
  8
0
  6
Continuous
 62
     3
100
AcDbLine
 10
124.7249999999997
 20
86.5
 30
0.0
 11
123.575
 21
86.5
 31
0.0
  0
LINE
  5
978
330
68B
100
AcDbEntity
  8
0
  6
Continuous
 62
     3
100
AcDbLine
 10
123.525
 20
85.75000000000001
 30
0.0
 11
126.025
 21
85.75000000000001
 31
0.0
  0
LINE
  5
979
330
68B
100
AcDbEntity
  8
0
  6
Continuous
 62
     3
100
AcDbLine
 10
126.3249999999999
 20
89.40000000000003
 30
0.0
 11
126.825
 21
90.0
 31
0.0
  0
LINE
  5
97A
330
68B
100
AcDbEntity
  8
0
  6
Continuous
 62
     3
100
AcDbLine
 10
127.025
 20
89.95
 30
0.0
 11
126.425
 21
89.19999999999996
 31
0.0
  0
LINE
  5
97B
330
68B
100
AcDbEntity
  8
0
  6
Continuous
 62
     3
100
AcDbLine
 10
123.9749999999997
 20
89.45
 30
0.0
 11
123.525
 21
90.0
 31
0.0
  0
LINE
  5
97C
330
68B
100
AcDbEntity
  8
0
  6
Continuous
 62
     3
100
AcDbLine
 10
123.875
 20
89.25
 30
0.0
 11
123.375
 21
89.9
 31
0.0
  0
LINE
  5
97D
330
68B
100
AcDbEntity
  8
0
  6
Continuous
 62
     3
100
AcDbLine
 10
126.025
 20
86.59999999999998
 30
0.0
 11
126.675
 21
86.09999999999997
 31
0.0
  0
LINE
  5
97E
330
68B
100
AcDbEntity
  8
0
  6
Continuous
 62
     3
100
AcDbLine
 10
125.9749999999997
 20
86.45000000000001
 30
0.0
 11
126.625
 21
85.95
 31
0.0
  0
LINE
  5
97F
330
68B
100
AcDbEntity
  8
0
  6
Continuous
 62
     3
100
AcDbLine
 10
126.625
 20
85.95
 30
0.0
 11
125.9249999999999
 21
85.75000000000001
 31
0.0
  0
LINE
  5
980
330
68B
100
AcDbEntity
  8
0
  6
Continuous
 62
     3
100
AcDbLine
 10
125.9249999999999
 20
85.59999999999998
 30
0.0
 11
126.675
 21
85.79999999999998
 31
0.0
  0
LINE
  5
981
330
68B
100
AcDbEntity
  8
0
  6
Continuous
 62
     3
100
AcDbLine
 10
123.525
 20
86.5
 30
0.0
 11
122.875
 21
86.2
 31
0.0
  0
LINE
  5
982
330
68B
100
AcDbEntity
  8
0
  6
Continuous
 62
     3
100
AcDbLine
 10
122.875
 20
86.2
 30
0.0
 11
123.475
 21
85.75000000000001
 31
0.0
  0
LINE
  5
983
330
68B
100
AcDbEntity
  8
0
  6
Continuous
 62
     3
100
AcDbLine
 10
122.775
 20
86.29999999999999
 30
0.0
 11
123.525
 21
86.69999999999996
 31
0.0
  0
LINE
  5
984
330
68B
100
AcDbEntity
  8
0
  6
Continuous
 62
     3
100
AcDbLine
 10
125.575
 20
83.0
 30
0.0
 11
126.1249999999999
 21
82.45
 31
0.0
  0
LINE
  5
985
330
68B
100
AcDbEntity
  8
0
  6
Continuous
 62
     3
100
AcDbLine
 10
125.475
 20
82.9
 30
0.0
 11
126.025
 21
82.34999999999997
 31
0.0
  0
LINE
  5
986
330
68B
100
AcDbEntity
  8
0
  6
Continuous
 62
     3
100
AcDbLine
 10
122.441666667
 20
82.34999999999997
 30
0.0
 11
122.575
 21
82.15000000000001
 31
0.0
  0
LINE
  5
987
330
68B
100
AcDbEntity
  8
0
  6
Continuous
 62
     3
100
AcDbLine
 10
125.475
 20
82.9
 30
0.0
 11
123.075
 21
82.9
 31
0.0
  0
LINE
  5
988
330
68B
100
AcDbEntity
  8
0
  6
Continuous
 62
     3
100
AcDbLine
 10
126.1249999999999
 20
82.422222222
 30
0.0
 11
126.2249999999996
 21
82.5
 31
0.0
  0
LINE
  5
989
330
68B
100
AcDbEntity
  8
0
  6
Continuous
 62
     3
100
AcDbLine
 10
125.775
 20
82.15000000000001
 30
0.0
 11
126.025
 21
82.34444444399999
 31
0.0
  0
LINE
  5
98A
330
68B
100
AcDbEntity
  8
0
  6
Continuous
 62
     3
100
AcDbLine
 10
125.775
 20
82.15000000000001
 30
0.0
 11
122.525
 21
82.15000000000001
 31
0.0
  0
LINE
  5
98B
330
68B
100
AcDbEntity
  8
0
  6
Continuous
 62
     3
100
AcDbLine
 10
126.6796875
 20
85.78749999999997
 30
0.0
 11
126.2671875
 21
82.48749999999999
 31
0.0
  0
LINE
  5
98C
330
68B
100
AcDbEntity
  8
0
  6
Continuous
 62
     3
100
AcDbLine
 10
125.8984375
 20
85.53749999999999
 30
0.0
 11
125.5859375
 21
83.03749999999999
 31
0.0
  0
LINE
  5
98D
330
68B
100
AcDbEntity
  8
0
  6
Continuous
 62
     3
100
AcDbLine
 10
125.9249999999999
 20
86.5
 30
0.0
 11
124.775
 21
86.5
 31
0.0
  0
LINE
  5
98E
330
68B
100
AcDbEntity
  8
0
  6
Continuous
 62
     3
100
AcDbLine
 10
123.5546875
 20
86.78749999999999
 30
0.0
 11
123.8609375
 21
89.23749999999998
 31
0.0
  0
LINE
  5
98F
330
68B
100
AcDbEntity
  8
0
  6
Continuous
 62
     3
100
AcDbLine
 10
123.3249999999999
 20
89.88571428600002
 30
0.0
 11
123.225
 21
89.79999999999998
 31
0.0
  0
LINE
  5
990
330
68B
100
AcDbEntity
  8
0
  6
Continuous
 62
     3
100
AcDbLine
 10
123.575
 20
90.09999999999999
 30
0.0
 11
123.525
 21
90.05714285699999
 31
0.0
  0
LINE
  5
991
330
68B
100
AcDbEntity
  8
0
  6
Continuous
 62
     3
100
AcDbLine
 10
122.7421875
 20
86.28749999999998
 30
0.0
 11
123.1734375
 21
89.73749999999999
 31
0.0
  0
LINE
  5
992
330
68B
100
AcDbEntity
  8
0
  6
Continuous
 62
     3
100
AcDbLine
 10
124.025
 20
89.40000000000003
 30
0.0
 11
126.3749999999999
 21
89.40000000000003
 31
0.0
  0
LINE
  5
993
330
68B
100
AcDbEntity
  8
0
  6
Continuous
 62
     3
100
AcDbLine
 10
126.3484374999999
 20
89.1375
 30
0.0
 11
126.0296874999996
 21
86.58750000000003
 31
0.0
  0
LINE
  5
994
330
68B
100
AcDbEntity
  8
0
  6
Continuous
 62
     3
100
AcDbLine
 10
127.075
 20
89.95714285700001
 30
0.0
 11
127.1749999999999
 21
89.9
 31
0.0
  0
LINE
  5
995
330
68B
100
AcDbEntity
  8
0
  6
Continuous
 62
     3
100
AcDbLine
 10
126.825
 20
90.09999999999999
 30
0.0
 11
126.875
 21
90.07142857099998
 31
0.0
  0
LINE
  5
996
330
68B
100
AcDbEntity
  8
0
  6
Continuous
 62
     3
100
AcDbLine
 10
123.625
 20
90.15
 30
0.0
 11
126.775
 21
90.15
 31
0.0
  0
LINE
  5
997
330
68B
100
AcDbEntity
  8
0
  6
Continuous
 62
     3
100
AcDbLine
 10
127.2249999999995
 20
89.9
 30
0.0
 11
126.7249999999995
 21
86.15
 31
0.0
  0
POINT
  5
998
330
68B
100
AcDbEntity
  8
0
  6
Continuous
 62
     3
100
AcDbPoint
 10
133.85
 20
82.15000000000001
 30
0.0
  0
POINT
  5
999
330
68B
100
AcDbEntity
  8
0
  6
Continuous
 62
     3
100
AcDbPoint
 10
133.85
 20
82.15000000000001
 30
0.0
  0
POINT
  5
99A
330
68B
100
AcDbEntity
  8
0
  6
Continuous
 62
     3
100
AcDbPoint
 10
130.0999999999999
 20
82.15000000000001
 30
0.0
  0
POINT
  5
99B
330
68B
100
AcDbEntity
  8
0
  6
Continuous
 62
     3
100
AcDbPoint
 10
133.6
 20
90.15
 30
0.0
  0
LINE
  5
99C
330
68B
100
AcDbEntity
  8
0
  6
Continuous
 62
     3
100
AcDbLine
 10
131.85
 20
86.5
 30
0.0
 11
130.6999999999999
 21
86.5
 31
0.0
  0
LINE
  5
99D
330
68B
100
AcDbEntity
  8
0
  6
Continuous
 62
     3
100
AcDbLine
 10
130.6499999999994
 20
85.75000000000001
 30
0.0
 11
133.15
 21
85.75000000000001
 31
0.0
  0
LINE
  5
99E
330
68B
100
AcDbEntity
  8
0
  6
Continuous
 62
     3
100
AcDbLine
 10
133.45
 20
89.40000000000003
 30
0.0
 11
133.9499999999999
 21
90.0
 31
0.0
  0
LINE
  5
99F
330
68B
100
AcDbEntity
  8
0
  6
Continuous
 62
     3
100
AcDbLine
 10
134.15
 20
89.95
 30
0.0
 11
133.55
 21
89.19999999999996
 31
0.0
  0
LINE
  5
9A0
330
68B
100
AcDbEntity
  8
0
  6
Continuous
 62
     3
100
AcDbLine
 10
131.0999999999999
 20
89.45
 30
0.0
 11
130.6499999999994
 21
90.0
 31
0.0
  0
LINE
  5
9A1
330
68B
100
AcDbEntity
  8
0
  6
Continuous
 62
     3
100
AcDbLine
 10
131.0
 20
89.25
 30
0.0
 11
130.4999999999995
 21
89.9
 31
0.0
  0
LINE
  5
9A2
330
68B
100
AcDbEntity
  8
0
  6
Continuous
 62
     3
100
AcDbLine
 10
133.15
 20
86.59999999999998
 30
0.0
 11
133.8
 21
86.09999999999997
 31
0.0
  0
LINE
  5
9A3
330
68B
100
AcDbEntity
  8
0
  6
Continuous
 62
     3
100
AcDbLine
 10
133.0999999999999
 20
86.45000000000001
 30
0.0
 11
133.75
 21
85.95
 31
0.0
  0
LINE
  5
9A4
330
68B
100
AcDbEntity
  8
0
  6
Continuous
 62
     3
100
AcDbLine
 10
133.75
 20
85.95
 30
0.0
 11
133.05
 21
85.75000000000001
 31
0.0
  0
LINE
  5
9A5
330
68B
100
AcDbEntity
  8
0
  6
Continuous
 62
     3
100
AcDbLine
 10
133.05
 20
85.59999999999998
 30
0.0
 11
133.8
 21
85.79999999999998
 31
0.0
  0
LINE
  5
9A6
330
68B
100
AcDbEntity
  8
0
  6
Continuous
 62
     3
100
AcDbLine
 10
130.6499999999994
 20
86.5
 30
0.0
 11
130.0
 21
86.2
 31
0.0
  0
LINE
  5
9A7
330
68B
100
AcDbEntity
  8
0
  6
Continuous
 62
     3
100
AcDbLine
 10
130.0
 20
86.2
 30
0.0
 11
130.6
 21
85.75000000000001
 31
0.0
  0
LINE
  5
9A8
330
68B
100
AcDbEntity
  8
0
  6
Continuous
 62
     3
100
AcDbLine
 10
129.9
 20
86.29999999999999
 30
0.0
 11
130.6499999999994
 21
86.69999999999996
 31
0.0
  0
LINE
  5
9A9
330
68B
100
AcDbEntity
  8
0
  6
Continuous
 62
     3
100
AcDbLine
 10
132.6999999999999
 20
83.0
 30
0.0
 11
133.25
 21
82.45
 31
0.0
  0
LINE
  5
9AA
330
68B
100
AcDbEntity
  8
0
  6
Continuous
 62
     3
100
AcDbLine
 10
132.6
 20
82.9
 30
0.0
 11
133.15
 21
82.34999999999997
 31
0.0
  0
LINE
  5
9AB
330
68B
100
AcDbEntity
  8
0
  6
Continuous
 62
     3
100
AcDbLine
 10
129.6
 20
82.4
 30
0.0
 11
130.1999999999999
 21
82.84999999999998
 31
0.0
  0
LINE
  5
9AC
330
68B
100
AcDbEntity
  8
0
  6
Continuous
 62
     3
100
AcDbLine
 10
129.566666667
 20
82.34999999999997
 30
0.0
 11
129.6999999999999
 21
82.15000000000001
 31
0.0
  0
LINE
  5
9AD
330
68B
100
AcDbEntity
  8
0
  6
Continuous
 62
     3
100
AcDbLine
 10
132.6
 20
82.9
 30
0.0
 11
130.1999999999999
 21
82.9
 31
0.0
  0
LINE
  5
9AE
330
68B
100
AcDbEntity
  8
0
  6
Continuous
 62
     3
100
AcDbLine
 10
133.25
 20
82.422222222
 30
0.0
 11
133.3499999999999
 21
82.5
 31
0.0
  0
LINE
  5
9AF
330
68B
100
AcDbEntity
  8
0
  6
Continuous
 62
     3
100
AcDbLine
 10
132.9
 20
82.15000000000001
 30
0.0
 11
133.15
 21
82.34444444399999
 31
0.0
  0
LINE
  5
9B0
330
68B
100
AcDbEntity
  8
0
  6
Continuous
 62
     3
100
AcDbLine
 10
132.9
 20
82.15000000000001
 30
0.0
 11
129.6499999999996
 21
82.15000000000001
 31
0.0
  0
LINE
  5
9B1
330
68B
100
AcDbEntity
  8
0
  6
Continuous
 62
     3
100
AcDbLine
 10
133.8046875
 20
85.78749999999997
 30
0.0
 11
133.3921875
 21
82.48749999999999
 31
0.0
  0
LINE
  5
9B2
330
68B
100
AcDbEntity
  8
0
  6
Continuous
 62
     3
100
AcDbLine
 10
133.0234375
 20
85.53749999999999
 30
0.0
 11
132.7109375
 21
83.03749999999999
 31
0.0
  0
LINE
  5
9B3
330
68B
100
AcDbEntity
  8
0
  6
Continuous
 62
     3
100
AcDbLine
 10
133.05
 20
86.5
 30
0.0
 11
131.9
 21
86.5
 31
0.0
  0
LINE
  5
9B4
330
68B
100
AcDbEntity
  8
0
  6
Continuous
 62
     3
100
AcDbLine
 10
130.6796875
 20
86.78749999999999
 30
0.0
 11
130.9859375
 21
89.23749999999998
 31
0.0
  0
LINE
  5
9B5
330
68B
100
AcDbEntity
  8
0
  6
Continuous
 62
     3
100
AcDbLine
 10
130.4499999999999
 20
89.88571428600002
 30
0.0
 11
130.3499999999999
 21
89.79999999999998
 31
0.0
  0
LINE
  5
9B6
330
68B
100
AcDbEntity
  8
0
  6
Continuous
 62
     3
100
AcDbLine
 10
130.6999999999999
 20
90.09999999999999
 30
0.0
 11
130.6499999999994
 21
90.05714285699999
 31
0.0
  0
LINE
  5
9B7
330
68B
100
AcDbEntity
  8
0
  6
Continuous
 62
     3
100
AcDbLine
 10
129.8671874999998
 20
86.28749999999998
 30
0.0
 11
130.2984375
 21
89.73749999999999
 31
0.0
  0
LINE
  5
9B8
330
68B
100
AcDbEntity
  8
0
  6
Continuous
 62
     3
100
AcDbLine
 10
131.15
 20
89.40000000000003
 30
0.0
 11
133.4999999999995
 21
89.40000000000003
 31
0.0
  0
LINE
  5
9B9
330
68B
100
AcDbEntity
  8
0
  6
Continuous
 62
     3
100
AcDbLine
 10
133.4734374999999
 20
89.1375
 30
0.0
 11
133.1546874999999
 21
86.58750000000003
 31
0.0
  0
LINE
  5
9BA
330
68B
100
AcDbEntity
  8
0
  6
Continuous
 62
     3
100
AcDbLine
 10
134.1999999999994
 20
89.95714285700001
 30
0.0
 11
134.3
 21
89.9
 31
0.0
  0
LINE
  5
9BB
330
68B
100
AcDbEntity
  8
0
  6
Continuous
 62
     3
100
AcDbLine
 10
133.9499999999999
 20
90.09999999999999
 30
0.0
 11
134.0
 21
90.07142857099998
 31
0.0
  0
LINE
  5
9BC
330
68B
100
AcDbEntity
  8
0
  6
Continuous
 62
     3
100
AcDbLine
 10
130.75
 20
90.15
 30
0.0
 11
133.9
 21
90.15
 31
0.0
  0
LINE
  5
9BD
330
68B
100
AcDbEntity
  8
0
  6
Continuous
 62
     3
100
AcDbLine
 10
134.3171874999999
 20
89.88750000000001
 30
0.0
 11
133.8421874999999
 21
86.0875
 31
0.0
  0
POINT
  5
9BE
330
68B
100
AcDbEntity
  8
0
  6
Continuous
 62
     3
100
AcDbPoint
 10
140.975
 20
82.15000000000001
 30
0.0
  0
POINT
  5
9BF
330
68B
100
AcDbEntity
  8
0
  6
Continuous
 62
     3
100
AcDbPoint
 10
140.975
 20
82.15000000000001
 30
0.0
  0
POINT
  5
9C0
330
68B
100
AcDbEntity
  8
0
  6
Continuous
 62
     3
100
AcDbPoint
 10
137.2249999999999
 20
82.15000000000001
 30
0.0
  0
POINT
  5
9C1
330
68B
100
AcDbEntity
  8
0
  6
Continuous
 62
     3
100
AcDbPoint
 10
140.7249999999999
 20
90.15
 30
0.0
  0
LINE
  5
9C2
330
68B
100
AcDbEntity
  8
0
  6
Continuous
 62
     3
100
AcDbLine
 10
138.975
 20
86.5
 30
0.0
 11
137.8249999999999
 21
86.5
 31
0.0
  0
LINE
  5
9C3
330
68B
100
AcDbEntity
  8
0
  6
Continuous
 62
     3
100
AcDbLine
 10
137.775
 20
85.75000000000001
 30
0.0
 11
140.275
 21
85.75000000000001
 31
0.0
  0
LINE
  5
9C4
330
68B
100
AcDbEntity
  8
0
  6
Continuous
 62
     3
100
AcDbLine
 10
140.5749999999999
 20
89.40000000000003
 30
0.0
 11
141.0749999999999
 21
90.0
 31
0.0
  0
LINE
  5
9C5
330
68B
100
AcDbEntity
  8
0
  6
Continuous
 62
     3
100
AcDbLine
 10
141.275
 20
89.95
 30
0.0
 11
140.675
 21
89.19999999999996
 31
0.0
  0
LINE
  5
9C6
330
68B
100
AcDbEntity
  8
0
  6
Continuous
 62
     3
100
AcDbLine
 10
138.2249999999999
 20
89.45
 30
0.0
 11
137.775
 21
90.0
 31
0.0
  0
LINE
  5
9C7
330
68B
100
AcDbEntity
  8
0
  6
Continuous
 62
     3
100
AcDbLine
 10
138.125
 20
89.25
 30
0.0
 11
137.6249999999995
 21
89.9
 31
0.0
  0
LINE
  5
9C8
330
68B
100
AcDbEntity
  8
0
  6
Continuous
 62
     3
100
AcDbLine
 10
140.275
 20
86.59999999999998
 30
0.0
 11
140.925
 21
86.09999999999997
 31
0.0
  0
LINE
  5
9C9
330
68B
100
AcDbEntity
  8
0
  6
Continuous
 62
     3
100
AcDbLine
 10
140.2249999999999
 20
86.45000000000001
 30
0.0
 11
140.8749999999995
 21
85.95
 31
0.0
  0
LINE
  5
9CA
330
68B
100
AcDbEntity
  8
0
  6
Continuous
 62
     3
100
AcDbLine
 10
140.8749999999995
 20
85.95
 30
0.0
 11
140.175
 21
85.75000000000001
 31
0.0
  0
LINE
  5
9CB
330
68B
100
AcDbEntity
  8
0
  6
Continuous
 62
     3
100
AcDbLine
 10
140.175
 20
85.59999999999998
 30
0.0
 11
140.925
 21
85.79999999999998
 31
0.0
  0
LINE
  5
9CC
330
68B
100
AcDbEntity
  8
0
  6
Continuous
 62
     3
100
AcDbLine
 10
137.775
 20
86.5
 30
0.0
 11
137.125
 21
86.2
 31
0.0
  0
LINE
  5
9CD
330
68B
100
AcDbEntity
  8
0
  6
Continuous
 62
     3
100
AcDbLine
 10
137.025
 20
86.29999999999999
 30
0.0
 11
137.775
 21
86.69999999999996
 31
0.0
  0
LINE
  5
9CE
330
68B
100
AcDbEntity
  8
0
  6
Continuous
 62
     3
100
AcDbLine
 10
139.8249999999999
 20
83.0
 30
0.0
 11
140.375
 21
82.45
 31
0.0
  0
LINE
  5
9CF
330
68B
100
AcDbEntity
  8
0
  6
Continuous
 62
     3
100
AcDbLine
 10
139.7249999999999
 20
82.9
 30
0.0
 11
140.275
 21
82.34999999999997
 31
0.0
  0
LINE
  5
9D0
330
68B
100
AcDbEntity
  8
0
  6
Continuous
 62
     3
100
AcDbLine
 10
136.725
 20
82.4
 30
0.0
 11
137.3249999999994
 21
82.84999999999998
 31
0.0
  0
LINE
  5
9D1
330
68B
100
AcDbEntity
  8
0
  6
Continuous
 62
     3
100
AcDbLine
 10
136.691666667
 20
82.34999999999997
 30
0.0
 11
136.8249999999999
 21
82.15000000000001
 31
0.0
  0
LINE
  5
9D2
330
68B
100
AcDbEntity
  8
0
  6
Continuous
 62
     3
100
AcDbLine
 10
139.7249999999999
 20
82.9
 30
0.0
 11
137.3249999999994
 21
82.9
 31
0.0
  0
LINE
  5
9D3
330
68B
100
AcDbEntity
  8
0
  6
Continuous
 62
     3
100
AcDbLine
 10
140.375
 20
82.422222222
 30
0.0
 11
140.4749999999999
 21
82.5
 31
0.0
  0
LINE
  5
9D4
330
68B
100
AcDbEntity
  8
0
  6
Continuous
 62
     3
100
AcDbLine
 10
140.0249999999996
 20
82.15000000000001
 30
0.0
 11
140.275
 21
82.34444444399999
 31
0.0
  0
LINE
  5
9D5
330
68B
100
AcDbEntity
  8
0
  6
Continuous
 62
     3
100
AcDbLine
 10
140.0249999999996
 20
82.15000000000001
 30
0.0
 11
136.775
 21
82.15000000000001
 31
0.0
  0
LINE
  5
9D6
330
68B
100
AcDbEntity
  8
0
  6
Continuous
 62
     3
100
AcDbLine
 10
140.9296875
 20
85.78749999999997
 30
0.0
 11
140.5171875
 21
82.48749999999999
 31
0.0
  0
LINE
  5
9D7
330
68B
100
AcDbEntity
  8
0
  6
Continuous
 62
     3
100
AcDbLine
 10
140.1484375
 20
85.53749999999999
 30
0.0
 11
139.8359375
 21
83.03749999999999
 31
0.0
  0
LINE
  5
9D8
330
68B
100
AcDbEntity
  8
0
  6
Continuous
 62
     3
100
AcDbLine
 10
140.175
 20
86.5
 30
0.0
 11
139.0249999999996
 21
86.5
 31
0.0
  0
LINE
  5
9D9
330
68B
100
AcDbEntity
  8
0
  6
Continuous
 62
     3
100
AcDbLine
 10
137.8046875
 20
86.78749999999999
 30
0.0
 11
138.1109375
 21
89.23749999999998
 31
0.0
  0
LINE
  5
9DA
330
68B
100
AcDbEntity
  8
0
  6
Continuous
 62
     3
100
AcDbLine
 10
137.5749999999999
 20
89.88571428600002
 30
0.0
 11
137.4749999999999
 21
89.79999999999998
 31
0.0
  0
LINE
  5
9DB
330
68B
100
AcDbEntity
  8
0
  6
Continuous
 62
     3
100
AcDbLine
 10
137.8249999999999
 20
90.09999999999999
 30
0.0
 11
137.775
 21
90.05714285699999
 31
0.0
  0
LINE
  5
9DC
330
68B
100
AcDbEntity
  8
0
  6
Continuous
 62
     3
100
AcDbLine
 10
136.9921874999995
 20
86.28749999999998
 30
0.0
 11
137.4234375
 21
89.73749999999999
 31
0.0
  0
LINE
  5
9DD
330
68B
100
AcDbEntity
  8
0
  6
Continuous
 62
     3
100
AcDbLine
 10
138.275
 20
89.40000000000003
 30
0.0
 11
140.625
 21
89.40000000000003
 31
0.0
  0
LINE
  5
9DE
330
68B
100
AcDbEntity
  8
0
  6
Continuous
 62
     3
100
AcDbLine
 10
140.5984374999997
 20
89.1375
 30
0.0
 11
140.2796874999999
 21
86.58750000000003
 31
0.0
  0
LINE
  5
9DF
330
68B
100
AcDbEntity
  8
0
  6
Continuous
 62
     3
100
AcDbLine
 10
141.3249999999998
 20
89.95714285700001
 30
0.0
 11
141.425
 21
89.9
 31
0.0
  0
LINE
  5
9E0
330
68B
100
AcDbEntity
  8
0
  6
Continuous
 62
     3
100
AcDbLine
 10
141.0749999999999
 20
90.09999999999999
 30
0.0
 11
141.125
 21
90.07142857099998
 31
0.0
  0
LINE
  5
9E1
330
68B
100
AcDbEntity
  8
0
  6
Continuous
 62
     3
100
AcDbLine
 10
137.8749999999998
 20
90.15
 30
0.0
 11
141.025
 21
90.15
 31
0.0
  0
LINE
  5
9E2
330
68B
100
AcDbEntity
  8
0
  6
Continuous
 62
     3
100
AcDbLine
 10
141.4749999999999
 20
89.9
 30
0.0
 11
140.975
 21
86.15
 31
0.0
  0
POINT
  5
9E3
330
68B
100
AcDbEntity
  8
0
  6
Continuous
 62
     3
100
AcDbPoint
 10
148.0999999999999
 20
82.15000000000001
 30
0.0
  0
POINT
  5
9E4
330
68B
100
AcDbEntity
  8
0
  6
Continuous
 62
     3
100
AcDbPoint
 10
148.0999999999999
 20
82.15000000000001
 30
0.0
  0
POINT
  5
9E5
330
68B
100
AcDbEntity
  8
0
  6
Continuous
 62
     3
100
AcDbPoint
 10
144.35
 20
82.15000000000001
 30
0.0
  0
POINT
  5
9E6
330
68B
100
AcDbEntity
  8
0
  6
Continuous
 62
     3
100
AcDbPoint
 10
147.8499999999999
 20
90.15
 30
0.0
  0
LINE
  5
9E7
330
68B
100
AcDbEntity
  8
0
  6
Continuous
 62
     3
100
AcDbLine
 10
146.1
 20
86.5
 30
0.0
 11
144.95
 21
86.5
 31
0.0
  0
LINE
  5
9E8
330
68B
100
AcDbEntity
  8
0
  6
Continuous
 62
     3
100
AcDbLine
 10
144.9
 20
85.75000000000001
 30
0.0
 11
147.4
 21
85.75000000000001
 31
0.0
  0
LINE
  5
9E9
330
68B
100
AcDbEntity
  8
0
  6
Continuous
 62
     3
100
AcDbLine
 10
147.6999999999998
 20
89.40000000000003
 30
0.0
 11
148.2
 21
90.0
 31
0.0
  0
LINE
  5
9EA
330
68B
100
AcDbEntity
  8
0
  6
Continuous
 62
     3
100
AcDbLine
 10
148.3999999999998
 20
89.95
 30
0.0
 11
147.8
 21
89.19999999999996
 31
0.0
  0
LINE
  5
9EB
330
68B
100
AcDbEntity
  8
0
  6
Continuous
 62
     3
100
AcDbLine
 10
145.35
 20
89.45
 30
0.0
 11
144.9
 21
90.0
 31
0.0
  0
LINE
  5
9EC
330
68B
100
AcDbEntity
  8
0
  6
Continuous
 62
     3
100
AcDbLine
 10
145.25
 20
89.25
 30
0.0
 11
144.7499999999998
 21
89.9
 31
0.0
  0
LINE
  5
9ED
330
68B
100
AcDbEntity
  8
0
  6
Continuous
 62
     3
100
AcDbLine
 10
147.4
 20
86.59999999999998
 30
0.0
 11
148.05
 21
86.09999999999997
 31
0.0
  0
LINE
  5
9EE
330
68B
100
AcDbEntity
  8
0
  6
Continuous
 62
     3
100
AcDbLine
 10
147.35
 20
86.45000000000001
 30
0.0
 11
148.0
 21
85.95
 31
0.0
  0
LINE
  5
9EF
330
68B
100
AcDbEntity
  8
0
  6
Continuous
 62
     3
100
AcDbLine
 10
148.0
 20
85.95
 30
0.0
 11
147.3
 21
85.75000000000001
 31
0.0
  0
LINE
  5
9F0
330
68B
100
AcDbEntity
  8
0
  6
Continuous
 62
     3
100
AcDbLine
 10
147.3
 20
85.59999999999998
 30
0.0
 11
148.05
 21
85.79999999999998
 31
0.0
  0
LINE
  5
9F1
330
68B
100
AcDbEntity
  8
0
  6
Continuous
 62
     3
100
AcDbLine
 10
144.9
 20
86.5
 30
0.0
 11
144.25
 21
86.2
 31
0.0
  0
LINE
  5
9F2
330
68B
100
AcDbEntity
  8
0
  6
Continuous
 62
     3
100
AcDbLine
 10
144.25
 20
86.2
 30
0.0
 11
144.8499999999999
 21
85.75000000000001
 31
0.0
  0
LINE
  5
9F3
330
68B
100
AcDbEntity
  8
0
  6
Continuous
 62
     3
100
AcDbLine
 10
144.15
 20
86.29999999999999
 30
0.0
 11
144.9
 21
86.69999999999996
 31
0.0
  0
LINE
  5
9F4
330
68B
100
AcDbEntity
  8
0
  6
Continuous
 62
     3
100
AcDbLine
 10
146.9499999999999
 20
83.0
 30
0.0
 11
147.5
 21
82.45
 31
0.0
  0
LINE
  5
9F5
330
68B
100
AcDbEntity
  8
0
  6
Continuous
 62
     3
100
AcDbLine
 10
146.8499999999995
 20
82.9
 30
0.0
 11
147.4
 21
82.34999999999997
 31
0.0
  0
LINE
  5
9F6
330
68B
100
AcDbEntity
  8
0
  6
Continuous
 62
     3
100
AcDbLine
 10
143.8499999999999
 20
82.4
 30
0.0
 11
144.4499999999998
 21
82.84999999999998
 31
0.0
  0
LINE
  5
9F7
330
68B
100
AcDbEntity
  8
0
  6
Continuous
 62
     3
100
AcDbLine
 10
143.816666667
 20
82.34999999999997
 30
0.0
 11
143.9499999999999
 21
82.15000000000001
 31
0.0
  0
LINE
  5
9F8
330
68B
100
AcDbEntity
  8
0
  6
Continuous
 62
     3
100
AcDbLine
 10
146.8499999999995
 20
82.9
 30
0.0
 11
144.4499999999998
 21
82.9
 31
0.0
  0
LINE
  5
9F9
330
68B
100
AcDbEntity
  8
0
  6
Continuous
 62
     3
100
AcDbLine
 10
147.5
 20
82.422222222
 30
0.0
 11
147.5999999999999
 21
82.5
 31
0.0
  0
LINE
  5
9FA
330
68B
100
AcDbEntity
  8
0
  6
Continuous
 62
     3
100
AcDbLine
 10
147.1499999999998
 20
82.15000000000001
 30
0.0
 11
147.4
 21
82.34444444399999
 31
0.0
  0
LINE
  5
9FB
330
68B
100
AcDbEntity
  8
0
  6
Continuous
 62
     3
100
AcDbLine
 10
147.1499999999998
 20
82.15000000000001
 30
0.0
 11
143.9
 21
82.15000000000001
 31
0.0
  0
LINE
  5
9FC
330
68B
100
AcDbEntity
  8
0
  6
Continuous
 62
     3
100
AcDbLine
 10
148.0546874999996
 20
85.78749999999997
 30
0.0
 11
147.6421874999996
 21
82.48749999999999
 31
0.0
  0
LINE
  5
9FD
330
68B
100
AcDbEntity
  8
0
  6
Continuous
 62
     3
100
AcDbLine
 10
147.2734374999996
 20
85.53749999999999
 30
0.0
 11
146.9609375
 21
83.03749999999999
 31
0.0
  0
LINE
  5
9FE
330
68B
100
AcDbEntity
  8
0
  6
Continuous
 62
     3
100
AcDbLine
 10
147.3
 20
86.5
 30
0.0
 11
146.15
 21
86.5
 31
0.0
  0
LINE
  5
9FF
330
68B
100
AcDbEntity
  8
0
  6
Continuous
 62
     3
100
AcDbLine
 10
144.9296874999996
 20
86.78749999999999
 30
0.0
 11
145.2359375
 21
89.23749999999998
 31
0.0
  0
LINE
  5
A00
330
68B
100
AcDbEntity
  8
0
  6
Continuous
 62
     3
100
AcDbLine
 10
144.6999999999998
 20
89.88571428600002
 30
0.0
 11
144.5999999999999
 21
89.79999999999998
 31
0.0
  0
LINE
  5
A01
330
68B
100
AcDbEntity
  8
0
  6
Continuous
 62
     3
100
AcDbLine
 10
144.95
 20
90.09999999999999
 30
0.0
 11
144.9
 21
90.05714285699999
 31
0.0
  0
LINE
  5
A02
330
68B
100
AcDbEntity
  8
0
  6
Continuous
 62
     3
100
AcDbLine
 10
144.1171875
 20
86.28749999999998
 30
0.0
 11
144.5484375
 21
89.73749999999999
 31
0.0
  0
LINE
  5
A03
330
68B
100
AcDbEntity
  8
0
  6
Continuous
 62
     3
100
AcDbLine
 10
145.4
 20
89.40000000000003
 30
0.0
 11
147.75
 21
89.40000000000003
 31
0.0
  0
LINE
  5
A04
330
68B
100
AcDbEntity
  8
0
  6
Continuous
 62
     3
100
AcDbLine
 10
147.7234374999999
 20
89.1375
 30
0.0
 11
147.4046874999999
 21
86.58750000000003
 31
0.0
  0
LINE
  5
A05
330
68B
100
AcDbEntity
  8
0
  6
Continuous
 62
     3
100
AcDbLine
 10
148.2
 20
90.09999999999999
 30
0.0
 11
148.2499999999996
 21
90.07142857099998
 31
0.0
  0
LINE
  5
A06
330
68B
100
AcDbEntity
  8
0
  6
Continuous
 62
     3
100
AcDbLine
 10
145.0
 20
90.15
 30
0.0
 11
148.15
 21
90.15
 31
0.0
  0
LINE
  5
A07
330
68B
100
AcDbEntity
  8
0
  6
Continuous
 62
     3
100
AcDbLine
 10
148.5671874999999
 20
89.88750000000001
 30
0.0
 11
148.0921874999999
 21
86.0875
 31
0.0
  0
POINT
  5
A08
330
68B
100
AcDbEntity
  8
0
  6
Continuous
 62
     3
100
AcDbPoint
 10
126.7249999999995
 20
70.65000000000002
 30
0.0
  0
POINT
  5
A09
330
68B
100
AcDbEntity
  8
0
  6
Continuous
 62
     3
100
AcDbPoint
 10
126.7249999999995
 20
70.65000000000002
 30
0.0
  0
POINT
  5
A0A
330
68B
100
AcDbEntity
  8
0
  6
Continuous
 62
     3
100
AcDbPoint
 10
122.9749999999997
 20
70.65000000000002
 30
0.0
  0
POINT
  5
A0B
330
68B
100
AcDbEntity
  8
0
  6
Continuous
 62
     3
100
AcDbPoint
 10
126.475
 20
78.65000000000001
 30
0.0
  0
LINE
  5
A0C
330
68B
100
AcDbEntity
  8
0
  6
Continuous
 62
     3
100
AcDbLine
 10
124.7249999999997
 20
75.0
 30
0.0
 11
123.575
 21
75.0
 31
0.0
  0
LINE
  5
A0D
330
68B
100
AcDbEntity
  8
0
  6
Continuous
 62
     3
100
AcDbLine
 10
123.525
 20
74.25
 30
0.0
 11
126.025
 21
74.25
 31
0.0
  0
LINE
  5
A0E
330
68B
100
AcDbEntity
  8
0
  6
Continuous
 62
     3
100
AcDbLine
 10
126.3249999999999
 20
77.9
 30
0.0
 11
126.825
 21
78.5
 31
0.0
  0
LINE
  5
A0F
330
68B
100
AcDbEntity
  8
0
  6
Continuous
 62
     3
100
AcDbLine
 10
127.025
 20
78.45
 30
0.0
 11
126.425
 21
77.7
 31
0.0
  0
LINE
  5
A10
330
68B
100
AcDbEntity
  8
0
  6
Continuous
 62
     3
100
AcDbLine
 10
123.9749999999997
 20
77.95
 30
0.0
 11
123.525
 21
78.5
 31
0.0
  0
LINE
  5
A11
330
68B
100
AcDbEntity
  8
0
  6
Continuous
 62
     3
100
AcDbLine
 10
123.875
 20
77.75
 30
0.0
 11
123.375
 21
78.4
 31
0.0
  0
LINE
  5
A12
330
68B
100
AcDbEntity
  8
0
  6
Continuous
 62
     3
100
AcDbLine
 10
126.025
 20
75.09999999999998
 30
0.0
 11
126.675
 21
74.59999999999998
 31
0.0
  0
LINE
  5
A13
330
68B
100
AcDbEntity
  8
0
  6
Continuous
 62
     3
100
AcDbLine
 10
125.9749999999997
 20
74.95
 30
0.0
 11
126.625
 21
74.45
 31
0.0
  0
LINE
  5
A14
330
68B
100
AcDbEntity
  8
0
  6
Continuous
 62
     3
100
AcDbLine
 10
126.625
 20
74.45
 30
0.0
 11
125.9249999999999
 21
74.25
 31
0.0
  0
LINE
  5
A15
330
68B
100
AcDbEntity
  8
0
  6
Continuous
 62
     3
100
AcDbLine
 10
125.9249999999999
 20
74.09999999999998
 30
0.0
 11
126.675
 21
74.29999999999998
 31
0.0
  0
LINE
  5
A16
330
68B
100
AcDbEntity
  8
0
  6
Continuous
 62
     3
100
AcDbLine
 10
123.525
 20
75.0
 30
0.0
 11
122.875
 21
74.7
 31
0.0
  0
LINE
  5
A17
330
68B
100
AcDbEntity
  8
0
  6
Continuous
 62
     3
100
AcDbLine
 10
122.775
 20
74.79999999999998
 30
0.0
 11
123.525
 21
75.2
 31
0.0
  0
LINE
  5
A18
330
68B
100
AcDbEntity
  8
0
  6
Continuous
 62
     3
100
AcDbLine
 10
125.575
 20
71.5
 30
0.0
 11
126.1249999999999
 21
70.95
 31
0.0
  0
LINE
  5
A19
330
68B
100
AcDbEntity
  8
0
  6
Continuous
 62
     3
100
AcDbLine
 10
125.475
 20
71.40000000000002
 30
0.0
 11
126.025
 21
70.84999999999998
 31
0.0
  0
LINE
  5
A1A
330
68B
100
AcDbEntity
  8
0
  6
Continuous
 62
     3
100
AcDbLine
 10
122.475
 20
70.90000000000002
 30
0.0
 11
123.075
 21
71.34999999999998
 31
0.0
  0
LINE
  5
A1B
330
68B
100
AcDbEntity
  8
0
  6
Continuous
 62
     3
100
AcDbLine
 10
122.441666667
 20
70.84999999999998
 30
0.0
 11
122.575
 21
70.65000000000002
 31
0.0
  0
LINE
  5
A1C
330
68B
100
AcDbEntity
  8
0
  6
Continuous
 62
     3
100
AcDbLine
 10
125.475
 20
71.40000000000002
 30
0.0
 11
123.075
 21
71.40000000000002
 31
0.0
  0
LINE
  5
A1D
330
68B
100
AcDbEntity
  8
0
  6
Continuous
 62
     3
100
AcDbLine
 10
126.1249999999999
 20
70.922222222
 30
0.0
 11
126.2249999999996
 21
71.0
 31
0.0
  0
LINE
  5
A1E
330
68B
100
AcDbEntity
  8
0
  6
Continuous
 62
     3
100
AcDbLine
 10
125.775
 20
70.65000000000002
 30
0.0
 11
126.025
 21
70.84444444399998
 31
0.0
  0
LINE
  5
A1F
330
68B
100
AcDbEntity
  8
0
  6
Continuous
 62
     3
100
AcDbLine
 10
125.775
 20
70.65000000000002
 30
0.0
 11
122.525
 21
70.65000000000002
 31
0.0
  0
LINE
  5
A20
330
68B
100
AcDbEntity
  8
0
  6
Continuous
 62
     3
100
AcDbLine
 10
126.6796875
 20
74.28749999999998
 30
0.0
 11
126.2671875
 21
70.98749999999999
 31
0.0
  0
LINE
  5
A21
330
68B
100
AcDbEntity
  8
0
  6
Continuous
 62
     3
100
AcDbLine
 10
125.8984375
 20
74.03749999999998
 30
0.0
 11
125.5859375
 21
71.53749999999998
 31
0.0
  0
LINE
  5
A22
330
68B
100
AcDbEntity
  8
0
  6
Continuous
 62
     3
100
AcDbLine
 10
125.9249999999999
 20
75.0
 30
0.0
 11
124.775
 21
75.0
 31
0.0
  0
LINE
  5
A23
330
68B
100
AcDbEntity
  8
0
  6
Continuous
 62
     3
100
AcDbLine
 10
123.5546875
 20
75.28749999999998
 30
0.0
 11
123.8609375
 21
77.73749999999998
 31
0.0
  0
LINE
  5
A24
330
68B
100
AcDbEntity
  8
0
  6
Continuous
 62
     3
100
AcDbLine
 10
123.3249999999999
 20
78.38571428600001
 30
0.0
 11
123.225
 21
78.29999999999998
 31
0.0
  0
LINE
  5
A25
330
68B
100
AcDbEntity
  8
0
  6
Continuous
 62
     3
100
AcDbLine
 10
123.575
 20
78.59999999999998
 30
0.0
 11
123.525
 21
78.557142857
 31
0.0
  0
LINE
  5
A26
330
68B
100
AcDbEntity
  8
0
  6
Continuous
 62
     3
100
AcDbLine
 10
122.7421875
 20
74.78749999999998
 30
0.0
 11
123.1734375
 21
78.23749999999998
 31
0.0
  0
LINE
  5
A27
330
68B
100
AcDbEntity
  8
0
  6
Continuous
 62
     3
100
AcDbLine
 10
124.025
 20
77.9
 30
0.0
 11
126.3749999999999
 21
77.9
 31
0.0
  0
LINE
  5
A28
330
68B
100
AcDbEntity
  8
0
  6
Continuous
 62
     3
100
AcDbLine
 10
126.3484374999999
 20
77.6375
 30
0.0
 11
126.0296874999996
 21
75.0875
 31
0.0
  0
LINE
  5
A29
330
68B
100
AcDbEntity
  8
0
  6
Continuous
 62
     3
100
AcDbLine
 10
127.075
 20
78.45714285699999
 30
0.0
 11
127.1749999999999
 21
78.4
 31
0.0
  0
LINE
  5
A2A
330
68B
100
AcDbEntity
  8
0
  6
Continuous
 62
     3
100
AcDbLine
 10
126.825
 20
78.59999999999998
 30
0.0
 11
126.875
 21
78.571428571
 31
0.0
  0
LINE
  5
A2B
330
68B
100
AcDbEntity
  8
0
  6
Continuous
 62
     3
100
AcDbLine
 10
123.625
 20
78.65000000000001
 30
0.0
 11
126.775
 21
78.65000000000001
 31
0.0
  0
LINE
  5
A2C
330
68B
100
AcDbEntity
  8
0
  6
Continuous
 62
     3
100
AcDbLine
 10
127.2249999999995
 20
78.4
 30
0.0
 11
126.7249999999995
 21
74.65
 31
0.0
  0
POINT
  5
A2D
330
68B
100
AcDbEntity
  8
0
  6
Continuous
 62
     3
100
AcDbPoint
 10
133.85
 20
70.65000000000002
 30
0.0
  0
POINT
  5
A2E
330
68B
100
AcDbEntity
  8
0
  6
Continuous
 62
     3
100
AcDbPoint
 10
133.85
 20
70.65000000000002
 30
0.0
  0
POINT
  5
A2F
330
68B
100
AcDbEntity
  8
0
  6
Continuous
 62
     3
100
AcDbPoint
 10
130.0999999999999
 20
70.65000000000002
 30
0.0
  0
POINT
  5
A30
330
68B
100
AcDbEntity
  8
0
  6
Continuous
 62
     3
100
AcDbPoint
 10
133.6
 20
78.65000000000001
 30
0.0
  0
LINE
  5
A31
330
68B
100
AcDbEntity
  8
0
  6
Continuous
 62
     3
100
AcDbLine
 10
131.85
 20
75.0
 30
0.0
 11
130.6999999999999
 21
75.0
 31
0.0
  0
LINE
  5
A32
330
68B
100
AcDbEntity
  8
0
  6
Continuous
 62
     3
100
AcDbLine
 10
130.6499999999994
 20
74.25
 30
0.0
 11
133.15
 21
74.25
 31
0.0
  0
LINE
  5
A33
330
68B
100
AcDbEntity
  8
0
  6
Continuous
 62
     3
100
AcDbLine
 10
133.45
 20
77.9
 30
0.0
 11
133.9499999999999
 21
78.5
 31
0.0
  0
LINE
  5
A34
330
68B
100
AcDbEntity
  8
0
  6
Continuous
 62
     3
100
AcDbLine
 10
134.15
 20
78.45
 30
0.0
 11
133.55
 21
77.7
 31
0.0
  0
LINE
  5
A35
330
68B
100
AcDbEntity
  8
0
  6
Continuous
 62
     3
100
AcDbLine
 10
131.0999999999999
 20
77.95
 30
0.0
 11
130.6499999999994
 21
78.5
 31
0.0
  0
LINE
  5
A36
330
68B
100
AcDbEntity
  8
0
  6
Continuous
 62
     3
100
AcDbLine
 10
131.0
 20
77.75
 30
0.0
 11
130.4999999999995
 21
78.4
 31
0.0
  0
LINE
  5
A37
330
68B
100
AcDbEntity
  8
0
  6
Continuous
 62
     3
100
AcDbLine
 10
133.15
 20
75.09999999999998
 30
0.0
 11
133.8
 21
74.59999999999998
 31
0.0
  0
LINE
  5
A38
330
68B
100
AcDbEntity
  8
0
  6
Continuous
 62
     3
100
AcDbLine
 10
133.0999999999999
 20
74.95
 30
0.0
 11
133.75
 21
74.45
 31
0.0
  0
LINE
  5
A39
330
68B
100
AcDbEntity
  8
0
  6
Continuous
 62
     3
100
AcDbLine
 10
133.75
 20
74.45
 30
0.0
 11
133.05
 21
74.25
 31
0.0
  0
LINE
  5
A3A
330
68B
100
AcDbEntity
  8
0
  6
Continuous
 62
     3
100
AcDbLine
 10
133.05
 20
74.09999999999998
 30
0.0
 11
133.8
 21
74.29999999999998
 31
0.0
  0
LINE
  5
A3B
330
68B
100
AcDbEntity
  8
0
  6
Continuous
 62
     3
100
AcDbLine
 10
130.6499999999994
 20
75.0
 30
0.0
 11
130.0
 21
74.7
 31
0.0
  0
LINE
  5
A3C
330
68B
100
AcDbEntity
  8
0
  6
Continuous
 62
     3
100
AcDbLine
 10
130.0
 20
74.7
 30
0.0
 11
130.6
 21
74.25
 31
0.0
  0
LINE
  5
A3D
330
68B
100
AcDbEntity
  8
0
  6
Continuous
 62
     3
100
AcDbLine
 10
129.9
 20
74.79999999999998
 30
0.0
 11
130.6499999999994
 21
75.2
 31
0.0
  0
LINE
  5
A3E
330
68B
100
AcDbEntity
  8
0
  6
Continuous
 62
     3
100
AcDbLine
 10
132.6999999999999
 20
71.5
 30
0.0
 11
133.25
 21
70.95
 31
0.0
  0
LINE
  5
A3F
330
68B
100
AcDbEntity
  8
0
  6
Continuous
 62
     3
100
AcDbLine
 10
132.6
 20
71.40000000000002
 30
0.0
 11
133.15
 21
70.84999999999998
 31
0.0
  0
LINE
  5
A40
330
68B
100
AcDbEntity
  8
0
  6
Continuous
 62
     3
100
AcDbLine
 10
129.6
 20
70.90000000000002
 30
0.0
 11
130.1999999999999
 21
71.34999999999998
 31
0.0
  0
LINE
  5
A41
330
68B
100
AcDbEntity
  8
0
  6
Continuous
 62
     3
100
AcDbLine
 10
129.566666667
 20
70.84999999999998
 30
0.0
 11
129.6999999999999
 21
70.65000000000002
 31
0.0
  0
LINE
  5
A42
330
68B
100
AcDbEntity
  8
0
  6
Continuous
 62
     3
100
AcDbLine
 10
132.6
 20
71.40000000000002
 30
0.0
 11
130.1999999999999
 21
71.40000000000002
 31
0.0
  0
LINE
  5
A43
330
68B
100
AcDbEntity
  8
0
  6
Continuous
 62
     3
100
AcDbLine
 10
133.25
 20
70.922222222
 30
0.0
 11
133.3499999999999
 21
71.0
 31
0.0
  0
LINE
  5
A44
330
68B
100
AcDbEntity
  8
0
  6
Continuous
 62
     3
100
AcDbLine
 10
132.9
 20
70.65000000000002
 30
0.0
 11
133.15
 21
70.84444444399998
 31
0.0
  0
LINE
  5
A45
330
68B
100
AcDbEntity
  8
0
  6
Continuous
 62
     3
100
AcDbLine
 10
132.9
 20
70.65000000000002
 30
0.0
 11
129.6499999999996
 21
70.65000000000002
 31
0.0
  0
LINE
  5
A46
330
68B
100
AcDbEntity
  8
0
  6
Continuous
 62
     3
100
AcDbLine
 10
133.8046875
 20
74.28749999999998
 30
0.0
 11
133.3921875
 21
70.98749999999999
 31
0.0
  0
LINE
  5
A47
330
68B
100
AcDbEntity
  8
0
  6
Continuous
 62
     3
100
AcDbLine
 10
133.0234375
 20
74.03749999999998
 30
0.0
 11
132.7109375
 21
71.53749999999998
 31
0.0
  0
LINE
  5
A48
330
68B
100
AcDbEntity
  8
0
  6
Continuous
 62
     3
100
AcDbLine
 10
133.05
 20
75.0
 30
0.0
 11
131.9
 21
75.0
 31
0.0
  0
LINE
  5
A49
330
68B
100
AcDbEntity
  8
0
  6
Continuous
 62
     3
100
AcDbLine
 10
130.6796875
 20
75.28749999999998
 30
0.0
 11
130.9859375
 21
77.73749999999998
 31
0.0
  0
LINE
  5
A4A
330
68B
100
AcDbEntity
  8
0
  6
Continuous
 62
     3
100
AcDbLine
 10
130.4499999999999
 20
78.38571428600001
 30
0.0
 11
130.3499999999999
 21
78.29999999999998
 31
0.0
  0
LINE
  5
A4B
330
68B
100
AcDbEntity
  8
0
  6
Continuous
 62
     3
100
AcDbLine
 10
130.6999999999999
 20
78.59999999999998
 30
0.0
 11
130.6499999999994
 21
78.557142857
 31
0.0
  0
LINE
  5
A4C
330
68B
100
AcDbEntity
  8
0
  6
Continuous
 62
     3
100
AcDbLine
 10
129.8671874999998
 20
74.78749999999998
 30
0.0
 11
130.2984375
 21
78.23749999999998
 31
0.0
  0
LINE
  5
A4D
330
68B
100
AcDbEntity
  8
0
  6
Continuous
 62
     3
100
AcDbLine
 10
131.15
 20
77.9
 30
0.0
 11
133.4999999999995
 21
77.9
 31
0.0
  0
LINE
  5
A4E
330
68B
100
AcDbEntity
  8
0
  6
Continuous
 62
     3
100
AcDbLine
 10
133.4734374999999
 20
77.6375
 30
0.0
 11
133.1546874999999
 21
75.0875
 31
0.0
  0
LINE
  5
A4F
330
68B
100
AcDbEntity
  8
0
  6
Continuous
 62
     3
100
AcDbLine
 10
134.1999999999994
 20
78.45714285699999
 30
0.0
 11
134.3
 21
78.4
 31
0.0
  0
LINE
  5
A50
330
68B
100
AcDbEntity
  8
0
  6
Continuous
 62
     3
100
AcDbLine
 10
133.9499999999999
 20
78.59999999999998
 30
0.0
 11
134.0
 21
78.571428571
 31
0.0
  0
LINE
  5
A51
330
68B
100
AcDbEntity
  8
0
  6
Continuous
 62
     3
100
AcDbLine
 10
130.75
 20
78.65000000000001
 30
0.0
 11
133.9
 21
78.65000000000001
 31
0.0
  0
LINE
  5
A52
330
68B
100
AcDbEntity
  8
0
  6
Continuous
 62
     3
100
AcDbLine
 10
134.3171874999999
 20
78.3875
 30
0.0
 11
133.8421874999999
 21
74.58750000000001
 31
0.0
  0
POINT
  5
A53
330
68B
100
AcDbEntity
  8
0
  6
Continuous
 62
     3
100
AcDbPoint
 10
140.975
 20
70.65000000000002
 30
0.0
  0
POINT
  5
A54
330
68B
100
AcDbEntity
  8
0
  6
Continuous
 62
     3
100
AcDbPoint
 10
140.975
 20
70.65000000000002
 30
0.0
  0
POINT
  5
A55
330
68B
100
AcDbEntity
  8
0
  6
Continuous
 62
     3
100
AcDbPoint
 10
137.2249999999999
 20
70.65000000000002
 30
0.0
  0
POINT
  5
A56
330
68B
100
AcDbEntity
  8
0
  6
Continuous
 62
     3
100
AcDbPoint
 10
140.7249999999999
 20
78.65000000000001
 30
0.0
  0
LINE
  5
A57
330
68B
100
AcDbEntity
  8
0
  6
Continuous
 62
     3
100
AcDbLine
 10
138.975
 20
75.0
 30
0.0
 11
137.8249999999999
 21
75.0
 31
0.0
  0
LINE
  5
A58
330
68B
100
AcDbEntity
  8
0
  6
Continuous
 62
     3
100
AcDbLine
 10
137.775
 20
74.25
 30
0.0
 11
140.275
 21
74.25
 31
0.0
  0
LINE
  5
A59
330
68B
100
AcDbEntity
  8
0
  6
Continuous
 62
     3
100
AcDbLine
 10
140.5749999999999
 20
77.9
 30
0.0
 11
141.0749999999999
 21
78.5
 31
0.0
  0
LINE
  5
A5A
330
68B
100
AcDbEntity
  8
0
  6
Continuous
 62
     3
100
AcDbLine
 10
141.275
 20
78.45
 30
0.0
 11
140.675
 21
77.7
 31
0.0
  0
LINE
  5
A5B
330
68B
100
AcDbEntity
  8
0
  6
Continuous
 62
     3
100
AcDbLine
 10
138.2249999999999
 20
77.95
 30
0.0
 11
137.775
 21
78.5
 31
0.0
  0
LINE
  5
A5C
330
68B
100
AcDbEntity
  8
0
  6
Continuous
 62
     3
100
AcDbLine
 10
138.125
 20
77.75
 30
0.0
 11
137.6249999999995
 21
78.4
 31
0.0
  0
LINE
  5
A5D
330
68B
100
AcDbEntity
  8
0
  6
Continuous
 62
     3
100
AcDbLine
 10
140.275
 20
75.09999999999998
 30
0.0
 11
140.925
 21
74.59999999999998
 31
0.0
  0
LINE
  5
A5E
330
68B
100
AcDbEntity
  8
0
  6
Continuous
 62
     3
100
AcDbLine
 10
140.2249999999999
 20
74.95
 30
0.0
 11
140.8749999999995
 21
74.45
 31
0.0
  0
LINE
  5
A5F
330
68B
100
AcDbEntity
  8
0
  6
Continuous
 62
     3
100
AcDbLine
 10
140.8749999999995
 20
74.45
 30
0.0
 11
140.175
 21
74.25
 31
0.0
  0
LINE
  5
A60
330
68B
100
AcDbEntity
  8
0
  6
Continuous
 62
     3
100
AcDbLine
 10
140.175
 20
74.09999999999998
 30
0.0
 11
140.925
 21
74.29999999999998
 31
0.0
  0
LINE
  5
A61
330
68B
100
AcDbEntity
  8
0
  6
Continuous
 62
     3
100
AcDbLine
 10
137.775
 20
75.0
 30
0.0
 11
137.125
 21
74.7
 31
0.0
  0
LINE
  5
A62
330
68B
100
AcDbEntity
  8
0
  6
Continuous
 62
     3
100
AcDbLine
 10
137.125
 20
74.7
 30
0.0
 11
137.7249999999999
 21
74.25
 31
0.0
  0
LINE
  5
A63
330
68B
100
AcDbEntity
  8
0
  6
Continuous
 62
     3
100
AcDbLine
 10
137.025
 20
74.79999999999998
 30
0.0
 11
137.775
 21
75.2
 31
0.0
  0
LINE
  5
A64
330
68B
100
AcDbEntity
  8
0
  6
Continuous
 62
     3
100
AcDbLine
 10
139.8249999999999
 20
71.5
 30
0.0
 11
140.375
 21
70.95
 31
0.0
  0
LINE
  5
A65
330
68B
100
AcDbEntity
  8
0
  6
Continuous
 62
     3
100
AcDbLine
 10
139.7249999999999
 20
71.40000000000002
 30
0.0
 11
140.275
 21
70.84999999999998
 31
0.0
  0
LINE
  5
A66
330
68B
100
AcDbEntity
  8
0
  6
Continuous
 62
     3
100
AcDbLine
 10
136.725
 20
70.90000000000002
 30
0.0
 11
137.3249999999994
 21
71.34999999999998
 31
0.0
  0
LINE
  5
A67
330
68B
100
AcDbEntity
  8
0
  6
Continuous
 62
     3
100
AcDbLine
 10
136.691666667
 20
70.84999999999998
 30
0.0
 11
136.8249999999999
 21
70.65000000000002
 31
0.0
  0
LINE
  5
A68
330
68B
100
AcDbEntity
  8
0
  6
Continuous
 62
     3
100
AcDbLine
 10
139.7249999999999
 20
71.40000000000002
 30
0.0
 11
137.3249999999994
 21
71.40000000000002
 31
0.0
  0
LINE
  5
A69
330
68B
100
AcDbEntity
  8
0
  6
Continuous
 62
     3
100
AcDbLine
 10
140.375
 20
70.922222222
 30
0.0
 11
140.4749999999999
 21
71.0
 31
0.0
  0
LINE
  5
A6A
330
68B
100
AcDbEntity
  8
0
  6
Continuous
 62
     3
100
AcDbLine
 10
140.0249999999996
 20
70.65000000000002
 30
0.0
 11
140.275
 21
70.84444444399998
 31
0.0
  0
LINE
  5
A6B
330
68B
100
AcDbEntity
  8
0
  6
Continuous
 62
     3
100
AcDbLine
 10
140.0249999999996
 20
70.65000000000002
 30
0.0
 11
136.775
 21
70.65000000000002
 31
0.0
  0
LINE
  5
A6C
330
68B
100
AcDbEntity
  8
0
  6
Continuous
 62
     3
100
AcDbLine
 10
140.9296875
 20
74.28749999999998
 30
0.0
 11
140.5171875
 21
70.98749999999999
 31
0.0
  0
LINE
  5
A6D
330
68B
100
AcDbEntity
  8
0
  6
Continuous
 62
     3
100
AcDbLine
 10
140.1484375
 20
74.03749999999998
 30
0.0
 11
139.8359375
 21
71.53749999999998
 31
0.0
  0
LINE
  5
A6E
330
68B
100
AcDbEntity
  8
0
  6
Continuous
 62
     3
100
AcDbLine
 10
140.175
 20
75.0
 30
0.0
 11
139.0249999999996
 21
75.0
 31
0.0
  0
LINE
  5
A6F
330
68B
100
AcDbEntity
  8
0
  6
Continuous
 62
     3
100
AcDbLine
 10
137.8046875
 20
75.28749999999998
 30
0.0
 11
138.1109375
 21
77.73749999999998
 31
0.0
  0
LINE
  5
A70
330
68B
100
AcDbEntity
  8
0
  6
Continuous
 62
     3
100
AcDbLine
 10
137.5749999999999
 20
78.38571428600001
 30
0.0
 11
137.4749999999999
 21
78.29999999999998
 31
0.0
  0
LINE
  5
A71
330
68B
100
AcDbEntity
  8
0
  6
Continuous
 62
     3
100
AcDbLine
 10
137.8249999999999
 20
78.59999999999998
 30
0.0
 11
137.775
 21
78.557142857
 31
0.0
  0
LINE
  5
A72
330
68B
100
AcDbEntity
  8
0
  6
Continuous
 62
     3
100
AcDbLine
 10
136.9921874999995
 20
74.78749999999998
 30
0.0
 11
137.4234375
 21
78.23749999999998
 31
0.0
  0
LINE
  5
A73
330
68B
100
AcDbEntity
  8
0
  6
Continuous
 62
     3
100
AcDbLine
 10
138.275
 20
77.9
 30
0.0
 11
140.625
 21
77.9
 31
0.0
  0
LINE
  5
A74
330
68B
100
AcDbEntity
  8
0
  6
Continuous
 62
     3
100
AcDbLine
 10
140.5984374999997
 20
77.6375
 30
0.0
 11
140.2796874999999
 21
75.0875
 31
0.0
  0
LINE
  5
A75
330
68B
100
AcDbEntity
  8
0
  6
Continuous
 62
     3
100
AcDbLine
 10
141.3249999999998
 20
78.45714285699999
 30
0.0
 11
141.425
 21
78.4
 31
0.0
  0
LINE
  5
A76
330
68B
100
AcDbEntity
  8
0
  6
Continuous
 62
     3
100
AcDbLine
 10
141.0749999999999
 20
78.59999999999998
 30
0.0
 11
141.125
 21
78.571428571
 31
0.0
  0
LINE
  5
A77
330
68B
100
AcDbEntity
  8
0
  6
Continuous
 62
     3
100
AcDbLine
 10
137.8749999999998
 20
78.65000000000001
 30
0.0
 11
141.025
 21
78.65000000000001
 31
0.0
  0
LINE
  5
A78
330
68B
100
AcDbEntity
  8
0
  6
Continuous
 62
     3
100
AcDbLine
 10
141.4749999999999
 20
78.4
 30
0.0
 11
140.975
 21
74.65
 31
0.0
  0
POINT
  5
A79
330
68B
100
AcDbEntity
  8
0
  6
Continuous
 62
     3
100
AcDbPoint
 10
148.0999999999999
 20
70.65000000000002
 30
0.0
  0
POINT
  5
A7A
330
68B
100
AcDbEntity
  8
0
  6
Continuous
 62
     3
100
AcDbPoint
 10
148.0999999999999
 20
70.65000000000002
 30
0.0
  0
POINT
  5
A7B
330
68B
100
AcDbEntity
  8
0
  6
Continuous
 62
     3
100
AcDbPoint
 10
144.35
 20
70.65000000000002
 30
0.0
  0
POINT
  5
A7C
330
68B
100
AcDbEntity
  8
0
  6
Continuous
 62
     3
100
AcDbPoint
 10
147.8499999999999
 20
78.65000000000001
 30
0.0
  0
LINE
  5
A7D
330
68B
100
AcDbEntity
  8
0
  6
Continuous
 62
     3
100
AcDbLine
 10
146.1
 20
75.0
 30
0.0
 11
144.95
 21
75.0
 31
0.0
  0
LINE
  5
A7E
330
68B
100
AcDbEntity
  8
0
  6
Continuous
 62
     3
100
AcDbLine
 10
144.9
 20
74.25
 30
0.0
 11
147.4
 21
74.25
 31
0.0
  0
LINE
  5
A7F
330
68B
100
AcDbEntity
  8
0
  6
Continuous
 62
     3
100
AcDbLine
 10
147.6999999999998
 20
77.9
 30
0.0
 11
148.2
 21
78.5
 31
0.0
  0
LINE
  5
A80
330
68B
100
AcDbEntity
  8
0
  6
Continuous
 62
     3
100
AcDbLine
 10
148.3999999999998
 20
78.45
 30
0.0
 11
147.8
 21
77.7
 31
0.0
  0
LINE
  5
A81
330
68B
100
AcDbEntity
  8
0
  6
Continuous
 62
     3
100
AcDbLine
 10
145.35
 20
77.95
 30
0.0
 11
144.9
 21
78.5
 31
0.0
  0
LINE
  5
A82
330
68B
100
AcDbEntity
  8
0
  6
Continuous
 62
     3
100
AcDbLine
 10
145.25
 20
77.75
 30
0.0
 11
144.7499999999998
 21
78.4
 31
0.0
  0
LINE
  5
A83
330
68B
100
AcDbEntity
  8
0
  6
Continuous
 62
     3
100
AcDbLine
 10
147.4
 20
75.09999999999998
 30
0.0
 11
148.05
 21
74.59999999999998
 31
0.0
  0
LINE
  5
A84
330
68B
100
AcDbEntity
  8
0
  6
Continuous
 62
     3
100
AcDbLine
 10
147.35
 20
74.95
 30
0.0
 11
148.0
 21
74.45
 31
0.0
  0
LINE
  5
A85
330
68B
100
AcDbEntity
  8
0
  6
Continuous
 62
     3
100
AcDbLine
 10
148.0
 20
74.45
 30
0.0
 11
147.3
 21
74.25
 31
0.0
  0
LINE
  5
A86
330
68B
100
AcDbEntity
  8
0
  6
Continuous
 62
     3
100
AcDbLine
 10
147.3
 20
74.09999999999998
 30
0.0
 11
148.05
 21
74.29999999999998
 31
0.0
  0
LINE
  5
A87
330
68B
100
AcDbEntity
  8
0
  6
Continuous
 62
     3
100
AcDbLine
 10
144.9
 20
75.0
 30
0.0
 11
144.25
 21
74.7
 31
0.0
  0
LINE
  5
A88
330
68B
100
AcDbEntity
  8
0
  6
Continuous
 62
     3
100
AcDbLine
 10
144.25
 20
74.7
 30
0.0
 11
144.8499999999999
 21
74.25
 31
0.0
  0
LINE
  5
A89
330
68B
100
AcDbEntity
  8
0
  6
Continuous
 62
     3
100
AcDbLine
 10
144.15
 20
74.79999999999998
 30
0.0
 11
144.9
 21
75.2
 31
0.0
  0
LINE
  5
A8A
330
68B
100
AcDbEntity
  8
0
  6
Continuous
 62
     3
100
AcDbLine
 10
146.9499999999999
 20
71.5
 30
0.0
 11
147.5
 21
70.95
 31
0.0
  0
LINE
  5
A8B
330
68B
100
AcDbEntity
  8
0
  6
Continuous
 62
     3
100
AcDbLine
 10
146.8499999999995
 20
71.40000000000002
 30
0.0
 11
147.4
 21
70.84999999999998
 31
0.0
  0
LINE
  5
A8C
330
68B
100
AcDbEntity
  8
0
  6
Continuous
 62
     3
100
AcDbLine
 10
143.8499999999999
 20
70.90000000000002
 30
0.0
 11
144.4499999999998
 21
71.34999999999998
 31
0.0
  0
LINE
  5
A8D
330
68B
100
AcDbEntity
  8
0
  6
Continuous
 62
     3
100
AcDbLine
 10
143.816666667
 20
70.84999999999998
 30
0.0
 11
143.9499999999999
 21
70.65000000000002
 31
0.0
  0
LINE
  5
A8E
330
68B
100
AcDbEntity
  8
0
  6
Continuous
 62
     3
100
AcDbLine
 10
146.8499999999995
 20
71.40000000000002
 30
0.0
 11
144.4499999999998
 21
71.40000000000002
 31
0.0
  0
LINE
  5
A8F
330
68B
100
AcDbEntity
  8
0
  6
Continuous
 62
     3
100
AcDbLine
 10
147.5
 20
70.922222222
 30
0.0
 11
147.5999999999999
 21
71.0
 31
0.0
  0
LINE
  5
A90
330
68B
100
AcDbEntity
  8
0
  6
Continuous
 62
     3
100
AcDbLine
 10
147.1499999999998
 20
70.65000000000002
 30
0.0
 11
147.4
 21
70.84444444399998
 31
0.0
  0
LINE
  5
A91
330
68B
100
AcDbEntity
  8
0
  6
Continuous
 62
     3
100
AcDbLine
 10
147.1499999999998
 20
70.65000000000002
 30
0.0
 11
143.9
 21
70.65000000000002
 31
0.0
  0
LINE
  5
A92
330
68B
100
AcDbEntity
  8
0
  6
Continuous
 62
     3
100
AcDbLine
 10
148.0546874999996
 20
74.28749999999998
 30
0.0
 11
147.6421874999996
 21
70.98749999999999
 31
0.0
  0
LINE
  5
A93
330
68B
100
AcDbEntity
  8
0
  6
Continuous
 62
     3
100
AcDbLine
 10
147.2734374999996
 20
74.03749999999998
 30
0.0
 11
146.9609375
 21
71.53749999999998
 31
0.0
  0
LINE
  5
A94
330
68B
100
AcDbEntity
  8
0
  6
Continuous
 62
     3
100
AcDbLine
 10
147.3
 20
75.0
 30
0.0
 11
146.15
 21
75.0
 31
0.0
  0
LINE
  5
A95
330
68B
100
AcDbEntity
  8
0
  6
Continuous
 62
     3
100
AcDbLine
 10
144.9296874999996
 20
75.28749999999998
 30
0.0
 11
145.2359375
 21
77.73749999999998
 31
0.0
  0
LINE
  5
A96
330
68B
100
AcDbEntity
  8
0
  6
Continuous
 62
     3
100
AcDbLine
 10
144.6999999999998
 20
78.38571428600001
 30
0.0
 11
144.5999999999999
 21
78.29999999999998
 31
0.0
  0
LINE
  5
A97
330
68B
100
AcDbEntity
  8
0
  6
Continuous
 62
     3
100
AcDbLine
 10
144.95
 20
78.59999999999998
 30
0.0
 11
144.9
 21
78.557142857
 31
0.0
  0
LINE
  5
A98
330
68B
100
AcDbEntity
  8
0
  6
Continuous
 62
     3
100
AcDbLine
 10
144.1171875
 20
74.78749999999998
 30
0.0
 11
144.5484375
 21
78.23749999999998
 31
0.0
  0
LINE
  5
A99
330
68B
100
AcDbEntity
  8
0
  6
Continuous
 62
     3
100
AcDbLine
 10
145.4
 20
77.9
 30
0.0
 11
147.75
 21
77.9
 31
0.0
  0
LINE
  5
A9A
330
68B
100
AcDbEntity
  8
0
  6
Continuous
 62
     3
100
AcDbLine
 10
147.7234374999999
 20
77.6375
 30
0.0
 11
147.4046874999999
 21
75.0875
 31
0.0
  0
LINE
  5
A9B
330
68B
100
AcDbEntity
  8
0
  6
Continuous
 62
     3
100
AcDbLine
 10
148.2
 20
78.59999999999998
 30
0.0
 11
148.2499999999996
 21
78.571428571
 31
0.0
  0
LINE
  5
A9C
330
68B
100
AcDbEntity
  8
0
  6
Continuous
 62
     3
100
AcDbLine
 10
145.0
 20
78.65000000000001
 30
0.0
 11
148.15
 21
78.65000000000001
 31
0.0
  0
LINE
  5
A9D
330
68B
100
AcDbEntity
  8
0
  6
Continuous
 62
     3
100
AcDbLine
 10
148.5671874999999
 20
78.3875
 30
0.0
 11
148.0921874999999
 21
74.58750000000001
 31
0.0
  0
POINT
  5
A9E
330
68B
100
AcDbEntity
  8
0
  6
Continuous
 62
     3
100
AcDbPoint
 10
123.65
 20
59.7
 30
0.0
  0
POINT
  5
A9F
330
68B
100
AcDbEntity
  8
0
  6
Continuous
 62
     3
100
AcDbPoint
 10
123.225
 20
67.15
 30
0.0
  0
POINT
  5
AA0
330
68B
100
AcDbEntity
  8
0
  6
Continuous
 62
     3
100
AcDbPoint
 10
122.9749999999997
 20
59.15
 30
0.0
  0
POINT
  5
AA1
330
68B
100
AcDbEntity
  8
0
  6
Continuous
 62
     3
100
AcDbPoint
 10
126.475
 20
67.15
 30
0.0
  0
LINE
  5
AA2
330
68B
100
AcDbEntity
  8
0
  6
Continuous
 62
     3
100
AcDbLine
 10
124.7249999999997
 20
63.5
 30
0.0
 11
123.575
 21
63.5
 31
0.0
  0
LINE
  5
AA3
330
68B
100
AcDbEntity
  8
0
  6
Continuous
 62
     3
100
AcDbLine
 10
123.525
 20
62.75
 30
0.0
 11
126.025
 21
62.75
 31
0.0
  0
LINE
  5
AA4
330
68B
100
AcDbEntity
  8
0
  6
Continuous
 62
     3
100
AcDbLine
 10
126.3249999999999
 20
66.4
 30
0.0
 11
126.825
 21
67.0
 31
0.0
  0
LINE
  5
AA5
330
68B
100
AcDbEntity
  8
0
  6
Continuous
 62
     3
100
AcDbLine
 10
127.025
 20
66.95
 30
0.0
 11
126.425
 21
66.2
 31
0.0
  0
LINE
  5
AA6
330
68B
100
AcDbEntity
  8
0
  6
Continuous
 62
     3
100
AcDbLine
 10
123.9749999999997
 20
66.45
 30
0.0
 11
123.525
 21
67.0
 31
0.0
  0
LINE
  5
AA7
330
68B
100
AcDbEntity
  8
0
  6
Continuous
 62
     3
100
AcDbLine
 10
123.875
 20
66.25
 30
0.0
 11
123.375
 21
66.90000000000001
 31
0.0
  0
LINE
  5
AA8
330
68B
100
AcDbEntity
  8
0
  6
Continuous
 62
     3
100
AcDbLine
 10
126.025
 20
63.6
 30
0.0
 11
126.675
 21
63.1
 31
0.0
  0
LINE
  5
AA9
330
68B
100
AcDbEntity
  8
0
  6
Continuous
 62
     3
100
AcDbLine
 10
125.9749999999997
 20
63.45
 30
0.0
 11
126.625
 21
62.95
 31
0.0
  0
LINE
  5
AAA
330
68B
100
AcDbEntity
  8
0
  6
Continuous
 62
     3
100
AcDbLine
 10
126.625
 20
62.95
 30
0.0
 11
125.9249999999999
 21
62.75
 31
0.0
  0
LINE
  5
AAB
330
68B
100
AcDbEntity
  8
0
  6
Continuous
 62
     3
100
AcDbLine
 10
125.9249999999999
 20
62.6
 30
0.0
 11
126.675
 21
62.8
 31
0.0
  0
LINE
  5
AAC
330
68B
100
AcDbEntity
  8
0
  6
Continuous
 62
     3
100
AcDbLine
 10
123.525
 20
63.5
 30
0.0
 11
122.875
 21
63.2
 31
0.0
  0
LINE
  5
AAD
330
68B
100
AcDbEntity
  8
0
  6
Continuous
 62
     3
100
AcDbLine
 10
122.875
 20
63.2
 30
0.0
 11
123.475
 21
62.75
 31
0.0
  0
LINE
  5
AAE
330
68B
100
AcDbEntity
  8
0
  6
Continuous
 62
     3
100
AcDbLine
 10
123.375
 20
62.65
 30
0.0
 11
122.7249999999997
 21
63.1
 31
0.0
  0
LINE
  5
AAF
330
68B
100
AcDbEntity
  8
0
  6
Continuous
 62
     3
100
AcDbLine
 10
122.775
 20
63.3
 30
0.0
 11
123.525
 21
63.7
 31
0.0
  0
LINE
  5
AB0
330
68B
100
AcDbEntity
  8
0
  6
Continuous
 62
     3
100
AcDbLine
 10
125.575
 20
60.0
 30
0.0
 11
126.1249999999999
 21
59.45
 31
0.0
  0
LINE
  5
AB1
330
68B
100
AcDbEntity
  8
0
  6
Continuous
 62
     3
100
AcDbLine
 10
125.475
 20
59.9
 30
0.0
 11
126.025
 21
59.35
 31
0.0
  0
LINE
  5
AB2
330
68B
100
AcDbEntity
  8
0
  6
Continuous
 62
     3
100
AcDbLine
 10
123.075
 20
60.0
 30
0.0
 11
122.375
 21
59.5
 31
0.0
  0
LINE
  5
AB3
330
68B
100
AcDbEntity
  8
0
  6
Continuous
 62
     3
100
AcDbLine
 10
122.475
 20
59.4
 30
0.0
 11
123.075
 21
59.85
 31
0.0
  0
LINE
  5
AB4
330
68B
100
AcDbEntity
  8
0
  6
Continuous
 62
     3
100
AcDbLine
 10
122.28125
 20
59.6
 30
0.0
 11
122.7249999999997
 21
63.15
 31
0.0
  0
LINE
  5
AB5
330
68B
100
AcDbEntity
  8
0
  6
Continuous
 62
     3
100
AcDbLine
 10
122.441666667
 20
59.35
 30
0.0
 11
122.575
 21
59.15
 31
0.0
  0
LINE
  5
AB6
330
68B
100
AcDbEntity
  8
0
  6
Continuous
 62
     3
100
AcDbLine
 10
122.275
 20
59.6
 30
0.0
 11
122.375
 21
59.45
 31
0.0
  0
LINE
  5
AB7
330
68B
100
AcDbEntity
  8
0
  6
Continuous
 62
     3
100
AcDbLine
 10
125.475
 20
59.9
 30
0.0
 11
123.075
 21
59.9
 31
0.0
  0
LINE
  5
AB8
330
68B
100
AcDbEntity
  8
0
  6
Continuous
 62
     3
100
AcDbLine
 10
126.1249999999999
 20
59.42222222199998
 30
0.0
 11
126.2249999999996
 21
59.5
 31
0.0
  0
LINE
  5
AB9
330
68B
100
AcDbEntity
  8
0
  6
Continuous
 62
     3
100
AcDbLine
 10
125.775
 20
59.15
 30
0.0
 11
126.025
 21
59.344444444
 31
0.0
  0
LINE
  5
ABA
330
68B
100
AcDbEntity
  8
0
  6
Continuous
 62
     3
100
AcDbLine
 10
125.775
 20
59.15
 30
0.0
 11
122.525
 21
59.15
 31
0.0
  0
LINE
  5
ABB
330
68B
100
AcDbEntity
  8
0
  6
Continuous
 62
     3
100
AcDbLine
 10
126.6796875
 20
62.7875
 30
0.0
 11
126.2671875
 21
59.4875
 31
0.0
  0
LINE
  5
ABC
330
68B
100
AcDbEntity
  8
0
  6
Continuous
 62
     3
100
AcDbLine
 10
125.8984375
 20
62.5375
 30
0.0
 11
125.5859375
 21
60.0375
 31
0.0
  0
LINE
  5
ABD
330
68B
100
AcDbEntity
  8
0
  6
Continuous
 62
     3
100
AcDbLine
 10
125.9249999999999
 20
63.5
 30
0.0
 11
124.775
 21
63.5
 31
0.0
  0
LINE
  5
ABE
330
68B
100
AcDbEntity
  8
0
  6
Continuous
 62
     3
100
AcDbLine
 10
123.0859375
 20
60.0375
 30
0.0
 11
123.4046874999995
 21
62.5875
 31
0.0
  0
LINE
  5
ABF
330
68B
100
AcDbEntity
  8
0
  6
Continuous
 62
     3
100
AcDbLine
 10
123.5546875
 20
63.7875
 30
0.0
 11
123.8609375
 21
66.2375
 31
0.0
  0
LINE
  5
AC0
330
68B
100
AcDbEntity
  8
0
  6
Continuous
 62
     3
100
AcDbLine
 10
123.3249999999999
 20
66.88571428600001
 30
0.0
 11
123.225
 21
66.79999999999998
 31
0.0
  0
LINE
  5
AC1
330
68B
100
AcDbEntity
  8
0
  6
Continuous
 62
     3
100
AcDbLine
 10
123.575
 20
67.09999999999999
 30
0.0
 11
123.525
 21
67.057142857
 31
0.0
  0
LINE
  5
AC2
330
68B
100
AcDbEntity
  8
0
  6
Continuous
 62
     3
100
AcDbLine
 10
123.2234374999999
 20
67.1375
 30
0.0
 11
123.225
 21
67.15
 31
0.0
  0
LINE
  5
AC3
330
68B
100
AcDbEntity
  8
0
  6
Continuous
 62
     3
100
AcDbLine
 10
122.7421875
 20
63.2875
 30
0.0
 11
123.1734375
 21
66.7375
 31
0.0
  0
LINE
  5
AC4
330
68B
100
AcDbEntity
  8
0
  6
Continuous
 62
     3
100
AcDbLine
 10
124.025
 20
66.4
 30
0.0
 11
126.3749999999999
 21
66.4
 31
0.0
  0
LINE
  5
AC5
330
68B
100
AcDbEntity
  8
0
  6
Continuous
 62
     3
100
AcDbLine
 10
126.3484374999999
 20
66.1375
 30
0.0
 11
126.0296874999996
 21
63.5875
 31
0.0
  0
LINE
  5
AC6
330
68B
100
AcDbEntity
  8
0
  6
Continuous
 62
     3
100
AcDbLine
 10
126.825
 20
67.09999999999999
 30
0.0
 11
126.875
 21
67.071428571
 31
0.0
  0
LINE
  5
AC7
330
68B
100
AcDbEntity
  8
0
  6
Continuous
 62
     3
100
AcDbLine
 10
123.625
 20
67.15
 30
0.0
 11
126.775
 21
67.15
 31
0.0
  0
LINE
  5
AC8
330
68B
100
AcDbEntity
  8
0
  6
Continuous
 62
     3
100
AcDbLine
 10
127.1921875
 20
66.8875
 30
0.0
 11
126.7171875
 21
63.08749999999999
 31
0.0
  0
LINE
  5
AC9
330
68B
100
AcDbEntity
  8
0
  6
Continuous
 62
     3
100
AcDbLine
 10
136.675
 20
98.9
 30
0.0
 11
60.67499999999999
 21
98.9
 31
0.0
  0
LINE
  5
ACA
330
68B
100
AcDbEntity
  8
0
  6
Continuous
 62
     3
100
AcDbLine
 10
107.675
 20
99.90000000000001
 30
0.0
 11
135.425
 21
99.90000000000001
 31
0.0
  0
LINE
  5
ACB
330
68B
100
AcDbEntity
  8
0
  6
Continuous
 62
     3
100
AcDbLine
 10
153.425
 20
259.0249999999999
 30
0.0
 11
153.425
 21
241.475
 31
0.0
  0
LINE
  5
ACC
330
68B
100
AcDbEntity
  8
0
  6
Continuous
 62
     3
100
AcDbLine
 10
221.375
 20
119.4
 30
0.0
 11
221.875
 21
119.4
 31
0.0
  0
LINE
  5
ACD
330
68B
100
AcDbEntity
  8
0
  6
Continuous
 62
     3
100
AcDbLine
 10
224.875
 20
119.9
 30
0.0
 11
224.875
 21
121.4
 31
0.0
  0
LINE
  5
ACE
330
68B
100
AcDbEntity
  8
0
  6
Continuous
 62
     3
100
AcDbLine
 10
224.875
 20
121.4
 30
0.0
 11
223.375
 21
121.4
 31
0.0
  0
LINE
  5
ACF
330
68B
100
AcDbEntity
  8
0
  6
Continuous
 62
     3
100
AcDbLine
 10
223.375
 20
121.4
 30
0.0
 11
223.375
 21
241.4
 31
0.0
  0
LINE
  5
AD0
330
68B
100
AcDbEntity
  8
0
  6
Continuous
 62
     3
100
AcDbLine
 10
223.375
 20
241.4
 30
0.0
 11
220.875
 21
241.4
 31
0.0
  0
LINE
  5
AD1
330
68B
100
AcDbEntity
  8
0
  6
Continuous
 62
     3
100
AcDbLine
 10
216.875
 20
121.4
 30
0.0
 11
216.875
 21
124.3999999999999
 31
0.0
  0
LINE
  5
AD2
330
68B
100
AcDbEntity
  8
0
  6
Continuous
 62
     3
100
AcDbLine
 10
216.875
 20
124.3999999999999
 30
0.0
 11
212.875
 21
124.3999999999999
 31
0.0
  0
LINE
  5
AD3
330
68B
100
AcDbEntity
  8
0
  6
Continuous
 62
     3
100
AcDbLine
 10
212.875
 20
124.3999999999999
 30
0.0
 11
212.875
 21
121.4
 31
0.0
  0
LINE
  5
AD4
330
68B
100
AcDbEntity
  8
0
  6
Continuous
 62
     3
100
AcDbLine
 10
180.3749999999998
 20
119.4
 30
0.0
 11
179.875
 21
119.4
 31
0.0
  0
LINE
  5
AD5
330
68B
100
AcDbEntity
  8
0
  6
Continuous
 62
     3
100
AcDbLine
 10
176.875
 20
119.9
 30
0.0
 11
176.875
 21
121.4
 31
0.0
  0
LINE
  5
AD6
330
68B
100
AcDbEntity
  8
0
  6
Continuous
 62
     3
100
AcDbLine
 10
178.3749999999995
 20
121.4
 30
0.0
 11
178.3749999999995
 21
241.4
 31
0.0
  0
LINE
  5
AD7
330
68B
100
AcDbEntity
  8
0
  6
Continuous
 62
     3
100
AcDbLine
 10
184.875
 20
121.4
 30
0.0
 11
184.875
 21
124.3999999999999
 31
0.0
  0
LINE
  5
AD8
330
68B
100
AcDbEntity
  8
0
  6
Continuous
 62
     3
100
AcDbLine
 10
184.875
 20
124.3999999999999
 30
0.0
 11
188.8749999999998
 21
124.3999999999999
 31
0.0
  0
LINE
  5
AD9
330
68B
100
AcDbEntity
  8
0
  6
Continuous
 62
     3
100
AcDbLine
 10
188.8749999999998
 20
124.3999999999999
 30
0.0
 11
188.8749999999998
 21
121.4
 31
0.0
  0
LINE
  5
ADA
330
68B
100
AcDbEntity
  8
0
  6
Continuous
 62
     3
100
AcDbLine
 10
195.375
 20
241.4
 30
0.0
 11
195.375
 21
240.3999999999999
 31
0.0
  0
LINE
  5
ADB
330
68B
100
AcDbEntity
  8
0
  6
Continuous
 62
     3
100
AcDbLine
 10
213.375
 20
138.9
 30
0.0
 11
213.375
 21
131.9
 31
0.0
  0
LINE
  5
ADC
330
68B
100
AcDbEntity
  8
0
  6
Continuous
 62
     3
100
AcDbLine
 10
221.875
 20
119.9
 30
0.0
 11
224.875
 21
119.9
 31
0.0
  0
LINE
  5
ADD
330
68B
100
AcDbEntity
  8
0
  6
Continuous
 62
     3
100
AcDbLine
 10
200.875
 20
119.4
 30
0.0
 11
221.875
 21
119.4
 31
0.0
  0
LINE
  5
ADE
330
68B
100
AcDbEntity
  8
0
  6
Continuous
 62
     3
100
AcDbLine
 10
179.875
 20
119.9
 30
0.0
 11
176.875
 21
119.9
 31
0.0
  0
LINE
  5
ADF
330
68B
100
AcDbEntity
  8
0
  6
Continuous
 62
     3
100
AcDbLine
 10
200.875
 20
119.4
 30
0.0
 11
179.875
 21
119.4
 31
0.0
  0
LINE
  5
AE0
330
68B
100
AcDbEntity
  8
0
  6
Continuous
 62
     3
100
AcDbLine
 10
176.875
 20
121.4
 30
0.0
 11
184.875
 21
121.4
 31
0.0
  0
LINE
  5
AE1
330
68B
100
AcDbEntity
  8
0
  6
Continuous
 62
     3
100
AcDbLine
 10
212.625
 20
121.4
 30
0.0
 11
184.875
 21
121.4
 31
0.0
  0
LINE
  5
AE2
330
68B
100
AcDbEntity
  8
0
  6
Continuous
 62
     3
100
AcDbLine
 10
212.875
 20
121.4
 30
0.0
 11
223.875
 21
121.4
 31
0.0
  0
LINE
  5
AE3
330
68B
100
AcDbEntity
  8
0
  6
Continuous
 62
     3
100
AcDbLine
 10
207.125
 20
171.4
 30
0.0
 11
212.1249999999998
 21
171.4
 31
0.0
  0
LINE
  5
AE4
330
68B
100
AcDbEntity
  8
0
  6
Continuous
 62
     3
100
AcDbLine
 10
212.1249999999998
 20
171.4
 30
0.0
 11
212.1249999999998
 21
143.4
 31
0.0
  0
LINE
  5
AE5
330
68B
100
AcDbEntity
  8
0
  6
Continuous
 62
     3
100
AcDbLine
 10
212.1249999999998
 20
143.4
 30
0.0
 11
207.125
 21
143.4
 31
0.0
  0
LINE
  5
AE6
330
68B
100
AcDbEntity
  8
0
  6
Continuous
 62
     3
100
AcDbLine
 10
207.125
 20
143.4
 30
0.0
 11
207.125
 21
171.4
 31
0.0
  0
LINE
  5
AE8
330
68B
100
AcDbEntity
  8
0
  6
Continuous
 62
     3
100
AcDbLine
 10
181.3749999999995
 20
152.9
 30
0.0
 11
183.125
 21
152.9
 31
0.0
  0
LINE
  5
AE9
330
68B
100
AcDbEntity
  8
0
  6
Continuous
 62
     3
100
AcDbLine
 10
184.375
 20
152.9
 30
0.0
 11
186.125
 21
152.9
 31
0.0
  0
LINE
  5
AEA
330
68B
100
AcDbEntity
  8
0
  6
Continuous
 62
     3
100
AcDbLine
 10
220.3749999999998
 20
152.9
 30
0.0
 11
218.625
 21
152.9
 31
0.0
  0
LINE
  5
AEB
330
68B
100
AcDbEntity
  8
0
  6
Continuous
 62
     3
100
AcDbLine
 10
217.375
 20
152.9
 30
0.0
 11
215.625
 21
152.9
 31
0.0
  0
LINE
  5
AEC
330
68B
100
AcDbEntity
  8
0
  6
Continuous
 62
     3
100
AcDbLine
 10
182.375
 20
238.3999999999999
 30
0.0
 11
180.3749999999998
 21
238.3999999999999
 31
0.0
  0
LINE
  5
AED
330
68B
100
AcDbEntity
  8
0
  6
Continuous
 62
     3
100
AcDbLine
 10
188.375
 20
230.9
 30
0.0
 11
190.125
 21
230.9
 31
0.0
  0
LINE
  5
AEE
330
68B
100
AcDbEntity
  8
0
  6
Continuous
 62
     3
100
AcDbLine
 10
188.375
 20
213.3999999999999
 30
0.0
 11
188.375
 21
230.9
 31
0.0
  0
LINE
  5
AEF
330
68B
100
AcDbEntity
  8
0
  6
Continuous
 62
     3
100
AcDbLine
 10
190.125
 20
230.9
 30
0.0
 11
190.125
 21
213.1499999999999
 31
0.0
  0
LINE
  5
AF0
330
68B
100
AcDbEntity
  8
0
  6
Continuous
 62
     3
100
AcDbLine
 10
188.375
 20
195.65
 30
0.0
 11
188.375
 21
213.3999999999999
 31
0.0
  0
LINE
  5
AF1
330
68B
100
AcDbEntity
  8
0
  6
Continuous
 62
     3
100
AcDbLine
 10
190.125
 20
213.3999999999999
 30
0.0
 11
190.125
 21
195.8999999999998
 31
0.0
  0
LINE
  5
AF2
330
68B
100
AcDbEntity
  8
0
  6
Continuous
 62
     3
100
AcDbLine
 10
190.125
 20
215.9
 30
0.0
 11
188.375
 21
215.9
 31
0.0
  0
LINE
  5
AF3
330
68B
100
AcDbEntity
  8
0
  6
Continuous
 62
     3
100
AcDbLine
 10
188.375
 20
210.8999999999999
 30
0.0
 11
190.125
 21
210.8999999999999
 31
0.0
  0
LINE
  5
AF4
330
68B
100
AcDbEntity
  8
0
  6
Continuous
 62
     3
100
AcDbLine
 10
190.125
 20
195.8999999999998
 30
0.0
 11
188.375
 21
195.8999999999998
 31
0.0
  0
LINE
  5
AF5
330
68B
100
AcDbEntity
  8
0
  6
Continuous
 62
     3
100
AcDbLine
 10
190.125
 20
190.8999999999998
 30
0.0
 11
188.375
 21
190.8999999999998
 31
0.0
  0
LINE
  5
AF6
330
68B
100
AcDbEntity
  8
0
  6
Continuous
 62
     3
100
AcDbLine
 10
188.375
 20
175.9
 30
0.0
 11
190.125
 21
175.9
 31
0.0
  0
LINE
  5
AF7
330
68B
100
AcDbEntity
  8
0
  6
Continuous
 62
     3
100
AcDbLine
 10
188.375
 20
195.8999999999998
 30
0.0
 11
188.375
 21
175.9
 31
0.0
  0
LINE
  5
AF8
330
68B
100
AcDbEntity
  8
0
  6
Continuous
 62
     3
100
AcDbLine
 10
190.125
 20
175.9
 30
0.0
 11
190.125
 21
195.8999999999998
 31
0.0
  0
LINE
  5
AF9
330
68B
100
AcDbEntity
  8
0
  6
Continuous
 62
     3
100
AcDbLine
 10
191.375
 20
230.9
 30
0.0
 11
193.125
 21
230.9
 31
0.0
  0
LINE
  5
AFA
330
68B
100
AcDbEntity
  8
0
  6
Continuous
 62
     3
100
AcDbLine
 10
191.375
 20
213.3999999999999
 30
0.0
 11
191.375
 21
230.9
 31
0.0
  0
LINE
  5
AFB
330
68B
100
AcDbEntity
  8
0
  6
Continuous
 62
     3
100
AcDbLine
 10
193.125
 20
230.9
 30
0.0
 11
193.125
 21
213.1499999999999
 31
0.0
  0
LINE
  5
AFC
330
68B
100
AcDbEntity
  8
0
  6
Continuous
 62
     3
100
AcDbLine
 10
191.375
 20
195.65
 30
0.0
 11
191.375
 21
213.3999999999999
 31
0.0
  0
LINE
  5
AFD
330
68B
100
AcDbEntity
  8
0
  6
Continuous
 62
     3
100
AcDbLine
 10
193.125
 20
213.3999999999999
 30
0.0
 11
193.125
 21
195.8999999999998
 31
0.0
  0
LINE
  5
AFE
330
68B
100
AcDbEntity
  8
0
  6
Continuous
 62
     3
100
AcDbLine
 10
193.125
 20
215.9
 30
0.0
 11
191.375
 21
215.9
 31
0.0
  0
LINE
  5
AFF
330
68B
100
AcDbEntity
  8
0
  6
Continuous
 62
     3
100
AcDbLine
 10
191.375
 20
210.8999999999999
 30
0.0
 11
193.125
 21
210.8999999999999
 31
0.0
  0
LINE
  5
B00
330
68B
100
AcDbEntity
  8
0
  6
Continuous
 62
     3
100
AcDbLine
 10
193.125
 20
195.8999999999998
 30
0.0
 11
191.375
 21
195.8999999999998
 31
0.0
  0
LINE
  5
B01
330
68B
100
AcDbEntity
  8
0
  6
Continuous
 62
     3
100
AcDbLine
 10
193.125
 20
190.8999999999998
 30
0.0
 11
191.375
 21
190.8999999999998
 31
0.0
  0
LINE
  5
B02
330
68B
100
AcDbEntity
  8
0
  6
Continuous
 62
     3
100
AcDbLine
 10
191.375
 20
175.9
 30
0.0
 11
193.125
 21
175.9
 31
0.0
  0
LINE
  5
B03
330
68B
100
AcDbEntity
  8
0
  6
Continuous
 62
     3
100
AcDbLine
 10
191.375
 20
195.8999999999998
 30
0.0
 11
191.375
 21
175.9
 31
0.0
  0
LINE
  5
B04
330
68B
100
AcDbEntity
  8
0
  6
Continuous
 62
     3
100
AcDbLine
 10
193.125
 20
175.9
 30
0.0
 11
193.125
 21
195.8999999999998
 31
0.0
  0
LINE
  5
B05
330
68B
100
AcDbEntity
  8
0
  6
Continuous
 62
     3
100
AcDbLine
 10
194.375
 20
213.3999999999999
 30
0.0
 11
194.375
 21
230.9
 31
0.0
  0
LINE
  5
B06
330
68B
100
AcDbEntity
  8
0
  6
Continuous
 62
     3
100
AcDbLine
 10
194.375
 20
195.65
 30
0.0
 11
194.375
 21
213.3999999999999
 31
0.0
  0
LINE
  5
B07
330
68B
100
AcDbEntity
  8
0
  6
Continuous
 62
     3
100
AcDbLine
 10
194.375
 20
195.8999999999998
 30
0.0
 11
194.375
 21
175.9
 31
0.0
  0
LINE
  5
B08
330
68B
100
AcDbEntity
  8
0
  6
Continuous
 62
     3
100
AcDbLine
 10
180.3749999999998
 20
215.9
 30
0.0
 11
182.375
 21
215.9
 31
0.0
  0
LINE
  5
B09
330
68B
100
AcDbEntity
  8
0
  6
Continuous
 62
     3
100
AcDbLine
 10
182.375
 20
214.15
 30
0.0
 11
180.3749999999998
 21
214.15
 31
0.0
  0
LINE
  5
B0A
330
68B
100
AcDbEntity
  8
0
  6
Continuous
 62
     3
100
AcDbLine
 10
180.3749999999998
 20
238.3999999999999
 30
0.0
 11
180.3749999999998
 21
215.9
 31
0.0
  0
LINE
  5
B0B
330
68B
100
AcDbEntity
  8
0
  6
Continuous
 62
     3
100
AcDbLine
 10
182.375
 20
215.9
 30
0.0
 11
182.375
 21
238.3999999999999
 31
0.0
  0
LINE
  5
B0C
330
68B
100
AcDbEntity
  8
0
  6
Continuous
 62
     3
100
AcDbLine
 10
180.3749999999998
 20
214.15
 30
0.0
 11
180.3749999999998
 21
211.3999999999998
 31
0.0
  0
LINE
  5
B0D
330
68B
100
AcDbEntity
  8
0
  6
Continuous
 62
     3
100
AcDbLine
 10
182.375
 20
211.3999999999998
 30
0.0
 11
182.375
 21
214.15
 31
0.0
  0
LINE
  5
B0E
330
68B
100
AcDbEntity
  8
0
  6
Continuous
 62
     3
100
AcDbLine
 10
182.375
 20
192.65
 30
0.0
 11
180.3749999999998
 21
192.65
 31
0.0
  0
LINE
  5
B0F
330
68B
100
AcDbEntity
  8
0
  6
Continuous
 62
     3
100
AcDbLine
 10
180.3749999999998
 20
190.8999999999998
 30
0.0
 11
182.375
 21
190.8999999999998
 31
0.0
  0
LINE
  5
B10
330
68B
100
AcDbEntity
  8
0
  6
Continuous
 62
     3
100
AcDbLine
 10
180.3749999999998
 20
192.65
 30
0.0
 11
180.3749999999998
 21
211.3999999999998
 31
0.0
  0
LINE
  5
B11
330
68B
100
AcDbEntity
  8
0
  6
Continuous
 62
     3
100
AcDbLine
 10
182.375
 20
211.3999999999998
 30
0.0
 11
182.375
 21
192.65
 31
0.0
  0
LINE
  5
B12
330
68B
100
AcDbEntity
  8
0
  6
Continuous
 62
     3
100
AcDbLine
 10
182.375
 20
186.65
 30
0.0
 11
182.375
 21
167.4
 31
0.0
  0
LINE
  5
B13
330
68B
100
AcDbEntity
  8
0
  6
Continuous
 62
     3
100
AcDbLine
 10
182.375
 20
167.4
 30
0.0
 11
180.3749999999998
 21
167.4
 31
0.0
  0
LINE
  5
B14
330
68B
100
AcDbEntity
  8
0
  6
Continuous
 62
     3
100
AcDbLine
 10
180.3749999999998
 20
167.4
 30
0.0
 11
180.3749999999998
 21
186.65
 31
0.0
  0
LINE
  5
B15
330
68B
100
AcDbEntity
  8
0
  6
Continuous
 62
     3
100
AcDbLine
 10
180.3749999999998
 20
186.65
 30
0.0
 11
180.3749999999998
 21
190.8999999999998
 31
0.0
  0
LINE
  5
B16
330
68B
100
AcDbEntity
  8
0
  6
Continuous
 62
     3
100
AcDbLine
 10
182.375
 20
190.8999999999998
 30
0.0
 11
182.375
 21
186.15
 31
0.0
  0
LINE
  5
B17
330
68B
100
AcDbEntity
  8
0
  6
Continuous
 62
     3
100
AcDbLine
 10
219.375
 20
238.3999999999999
 30
0.0
 11
221.375
 21
238.3999999999999
 31
0.0
  0
LINE
  5
B18
330
68B
100
AcDbEntity
  8
0
  6
Continuous
 62
     3
100
AcDbLine
 10
213.375
 20
230.9
 30
0.0
 11
211.6249999999999
 21
230.9
 31
0.0
  0
LINE
  5
B19
330
68B
100
AcDbEntity
  8
0
  6
Continuous
 62
     3
100
AcDbLine
 10
213.375
 20
213.3999999999999
 30
0.0
 11
213.375
 21
230.9
 31
0.0
  0
LINE
  5
B1A
330
68B
100
AcDbEntity
  8
0
  6
Continuous
 62
     3
100
AcDbLine
 10
211.6249999999999
 20
230.9
 30
0.0
 11
211.6249999999999
 21
213.1499999999999
 31
0.0
  0
LINE
  5
B1B
330
68B
100
AcDbEntity
  8
0
  6
Continuous
 62
     3
100
AcDbLine
 10
213.375
 20
195.65
 30
0.0
 11
213.375
 21
213.3999999999999
 31
0.0
  0
LINE
  5
B1C
330
68B
100
AcDbEntity
  8
0
  6
Continuous
 62
     3
100
AcDbLine
 10
211.6249999999999
 20
213.3999999999999
 30
0.0
 11
211.6249999999999
 21
195.8999999999998
 31
0.0
  0
LINE
  5
B1D
330
68B
100
AcDbEntity
  8
0
  6
Continuous
 62
     3
100
AcDbLine
 10
211.6249999999999
 20
215.9
 30
0.0
 11
213.375
 21
215.9
 31
0.0
  0
LINE
  5
B1E
330
68B
100
AcDbEntity
  8
0
  6
Continuous
 62
     3
100
AcDbLine
 10
213.375
 20
210.8999999999999
 30
0.0
 11
211.6249999999999
 21
210.8999999999999
 31
0.0
  0
LINE
  5
B1F
330
68B
100
AcDbEntity
  8
0
  6
Continuous
 62
     3
100
AcDbLine
 10
211.6249999999999
 20
195.8999999999998
 30
0.0
 11
213.375
 21
195.8999999999998
 31
0.0
  0
LINE
  5
B20
330
68B
100
AcDbEntity
  8
0
  6
Continuous
 62
     3
100
AcDbLine
 10
211.6249999999999
 20
190.8999999999998
 30
0.0
 11
213.375
 21
190.8999999999998
 31
0.0
  0
LINE
  5
B21
330
68B
100
AcDbEntity
  8
0
  6
Continuous
 62
     3
100
AcDbLine
 10
213.375
 20
175.9
 30
0.0
 11
211.6249999999999
 21
175.9
 31
0.0
  0
LINE
  5
B22
330
68B
100
AcDbEntity
  8
0
  6
Continuous
 62
     3
100
AcDbLine
 10
213.375
 20
195.8999999999998
 30
0.0
 11
213.375
 21
175.9
 31
0.0
  0
LINE
  5
B23
330
68B
100
AcDbEntity
  8
0
  6
Continuous
 62
     3
100
AcDbLine
 10
211.6249999999999
 20
175.9
 30
0.0
 11
211.6249999999999
 21
195.8999999999998
 31
0.0
  0
LINE
  5
B24
330
68B
100
AcDbEntity
  8
0
  6
Continuous
 62
     3
100
AcDbLine
 10
210.375
 20
230.9
 30
0.0
 11
208.625
 21
230.9
 31
0.0
  0
LINE
  5
B25
330
68B
100
AcDbEntity
  8
0
  6
Continuous
 62
     3
100
AcDbLine
 10
210.375
 20
213.3999999999999
 30
0.0
 11
210.375
 21
230.9
 31
0.0
  0
LINE
  5
B26
330
68B
100
AcDbEntity
  8
0
  6
Continuous
 62
     3
100
AcDbLine
 10
208.625
 20
230.9
 30
0.0
 11
208.625
 21
213.1499999999999
 31
0.0
  0
LINE
  5
B27
330
68B
100
AcDbEntity
  8
0
  6
Continuous
 62
     3
100
AcDbLine
 10
210.375
 20
195.65
 30
0.0
 11
210.375
 21
213.3999999999999
 31
0.0
  0
LINE
  5
B28
330
68B
100
AcDbEntity
  8
0
  6
Continuous
 62
     3
100
AcDbLine
 10
208.625
 20
213.3999999999999
 30
0.0
 11
208.625
 21
195.8999999999998
 31
0.0
  0
LINE
  5
B29
330
68B
100
AcDbEntity
  8
0
  6
Continuous
 62
     3
100
AcDbLine
 10
208.625
 20
215.9
 30
0.0
 11
210.375
 21
215.9
 31
0.0
  0
LINE
  5
B2A
330
68B
100
AcDbEntity
  8
0
  6
Continuous
 62
     3
100
AcDbLine
 10
210.375
 20
210.8999999999999
 30
0.0
 11
208.625
 21
210.8999999999999
 31
0.0
  0
LINE
  5
B2B
330
68B
100
AcDbEntity
  8
0
  6
Continuous
 62
     3
100
AcDbLine
 10
208.625
 20
195.8999999999998
 30
0.0
 11
210.375
 21
195.8999999999998
 31
0.0
  0
LINE
  5
B2C
330
68B
100
AcDbEntity
  8
0
  6
Continuous
 62
     3
100
AcDbLine
 10
208.625
 20
190.8999999999998
 30
0.0
 11
210.375
 21
190.8999999999998
 31
0.0
  0
LINE
  5
B2D
330
68B
100
AcDbEntity
  8
0
  6
Continuous
 62
     3
100
AcDbLine
 10
210.375
 20
175.9
 30
0.0
 11
208.625
 21
175.9
 31
0.0
  0
LINE
  5
B2E
330
68B
100
AcDbEntity
  8
0
  6
Continuous
 62
     3
100
AcDbLine
 10
210.375
 20
195.8999999999998
 30
0.0
 11
210.375
 21
175.9
 31
0.0
  0
LINE
  5
B2F
330
68B
100
AcDbEntity
  8
0
  6
Continuous
 62
     3
100
AcDbLine
 10
208.625
 20
175.9
 30
0.0
 11
208.625
 21
195.8999999999998
 31
0.0
  0
LINE
  5
B30
330
68B
100
AcDbEntity
  8
0
  6
Continuous
 62
     3
100
AcDbLine
 10
207.3749999999999
 20
213.3999999999999
 30
0.0
 11
207.3749999999999
 21
230.9
 31
0.0
  0
LINE
  5
B31
330
68B
100
AcDbEntity
  8
0
  6
Continuous
 62
     3
100
AcDbLine
 10
207.3749999999999
 20
195.65
 30
0.0
 11
207.3749999999999
 21
213.3999999999999
 31
0.0
  0
LINE
  5
B32
330
68B
100
AcDbEntity
  8
0
  6
Continuous
 62
     3
100
AcDbLine
 10
207.3749999999999
 20
195.8999999999998
 30
0.0
 11
207.3749999999999
 21
175.9
 31
0.0
  0
LINE
  5
B33
330
68B
100
AcDbEntity
  8
0
  6
Continuous
 62
     3
100
AcDbLine
 10
221.375
 20
215.9
 30
0.0
 11
219.375
 21
215.9
 31
0.0
  0
LINE
  5
B34
330
68B
100
AcDbEntity
  8
0
  6
Continuous
 62
     3
100
AcDbLine
 10
219.375
 20
214.15
 30
0.0
 11
221.375
 21
214.15
 31
0.0
  0
LINE
  5
B35
330
68B
100
AcDbEntity
  8
0
  6
Continuous
 62
     3
100
AcDbLine
 10
221.375
 20
238.3999999999999
 30
0.0
 11
221.375
 21
215.9
 31
0.0
  0
LINE
  5
B36
330
68B
100
AcDbEntity
  8
0
  6
Continuous
 62
     3
100
AcDbLine
 10
219.375
 20
215.9
 30
0.0
 11
219.375
 21
238.3999999999999
 31
0.0
  0
LINE
  5
B37
330
68B
100
AcDbEntity
  8
0
  6
Continuous
 62
     3
100
AcDbLine
 10
221.375
 20
214.15
 30
0.0
 11
221.375
 21
211.3999999999998
 31
0.0
  0
LINE
  5
B38
330
68B
100
AcDbEntity
  8
0
  6
Continuous
 62
     3
100
AcDbLine
 10
219.375
 20
211.3999999999998
 30
0.0
 11
219.375
 21
214.15
 31
0.0
  0
LINE
  5
B39
330
68B
100
AcDbEntity
  8
0
  6
Continuous
 62
     3
100
AcDbLine
 10
219.375
 20
192.65
 30
0.0
 11
221.375
 21
192.65
 31
0.0
  0
LINE
  5
B3A
330
68B
100
AcDbEntity
  8
0
  6
Continuous
 62
     3
100
AcDbLine
 10
221.375
 20
190.8999999999998
 30
0.0
 11
219.375
 21
190.8999999999998
 31
0.0
  0
LINE
  5
B3B
330
68B
100
AcDbEntity
  8
0
  6
Continuous
 62
     3
100
AcDbLine
 10
221.375
 20
192.65
 30
0.0
 11
221.375
 21
211.3999999999998
 31
0.0
  0
LINE
  5
B3C
330
68B
100
AcDbEntity
  8
0
  6
Continuous
 62
     3
100
AcDbLine
 10
219.375
 20
211.3999999999998
 30
0.0
 11
219.375
 21
192.65
 31
0.0
  0
LINE
  5
B3D
330
68B
100
AcDbEntity
  8
0
  6
Continuous
 62
     3
100
AcDbLine
 10
219.375
 20
186.65
 30
0.0
 11
219.375
 21
167.4
 31
0.0
  0
LINE
  5
B3E
330
68B
100
AcDbEntity
  8
0
  6
Continuous
 62
     3
100
AcDbLine
 10
219.375
 20
167.4
 30
0.0
 11
221.375
 21
167.4
 31
0.0
  0
LINE
  5
B3F
330
68B
100
AcDbEntity
  8
0
  6
Continuous
 62
     3
100
AcDbLine
 10
221.375
 20
167.4
 30
0.0
 11
221.375
 21
186.65
 31
0.0
  0
LINE
  5
B40
330
68B
100
AcDbEntity
  8
0
  6
Continuous
 62
     3
100
AcDbLine
 10
221.375
 20
186.65
 30
0.0
 11
221.375
 21
190.8999999999998
 31
0.0
  0
LINE
  5
B41
330
68B
100
AcDbEntity
  8
0
  6
Continuous
 62
     3
100
AcDbLine
 10
219.375
 20
190.8999999999998
 30
0.0
 11
219.375
 21
186.15
 31
0.0
  0
LINE
  5
B42
330
68B
100
AcDbEntity
  8
0
  6
Continuous
 62
     3
100
AcDbLine
 10
188.375
 20
152.9
 30
0.0
 11
190.125
 21
152.9
 31
0.0
  0
LINE
  5
B43
330
68B
100
AcDbEntity
  8
0
  6
Continuous
 62
     3
100
AcDbLine
 10
191.375
 20
152.9
 30
0.0
 11
193.125
 21
152.9
 31
0.0
  0
LINE
  5
B44
330
68B
100
AcDbEntity
  8
0
  6
Continuous
 62
     3
100
AcDbLine
 10
183.125
 20
127.9
 30
0.0
 11
181.3749999999995
 21
127.9
 31
0.0
  0
LINE
  5
B45
330
68B
100
AcDbEntity
  8
0
  6
Continuous
 62
     3
100
AcDbLine
 10
186.125
 20
127.9
 30
0.0
 11
184.375
 21
127.9
 31
0.0
  0
LINE
  5
B46
330
68B
100
AcDbEntity
  8
0
  6
Continuous
 62
     3
100
AcDbLine
 10
190.125
 20
127.9
 30
0.0
 11
188.375
 21
127.9
 31
0.0
  0
LINE
  5
B47
330
68B
100
AcDbEntity
  8
0
  6
Continuous
 62
     3
100
AcDbLine
 10
193.125
 20
127.9
 30
0.0
 11
191.375
 21
127.9
 31
0.0
  0
LINE
  5
B48
330
68B
100
AcDbEntity
  8
0
  6
Continuous
 62
     3
100
AcDbLine
 10
186.125
 20
142.9
 30
0.0
 11
184.375
 21
142.9
 31
0.0
  0
LINE
  5
B49
330
68B
100
AcDbEntity
  8
0
  6
Continuous
 62
     3
100
AcDbLine
 10
181.3749999999995
 20
142.9
 30
0.0
 11
183.125
 21
142.9
 31
0.0
  0
LINE
  5
B4A
330
68B
100
AcDbEntity
  8
0
  6
Continuous
 62
     3
100
AcDbLine
 10
193.125
 20
142.9
 30
0.0
 11
191.375
 21
142.9
 31
0.0
  0
LINE
  5
B4B
330
68B
100
AcDbEntity
  8
0
  6
Continuous
 62
     3
100
AcDbLine
 10
188.375
 20
142.9
 30
0.0
 11
190.125
 21
142.9
 31
0.0
  0
LINE
  5
B4C
330
68B
100
AcDbEntity
  8
0
  6
Continuous
 62
     3
100
AcDbLine
 10
184.375
 20
137.9
 30
0.0
 11
186.125
 21
137.9
 31
0.0
  0
LINE
  5
B4D
330
68B
100
AcDbEntity
  8
0
  6
Continuous
 62
     3
100
AcDbLine
 10
183.125
 20
137.9
 30
0.0
 11
181.3749999999995
 21
137.9
 31
0.0
  0
LINE
  5
B4E
330
68B
100
AcDbEntity
  8
0
  6
Continuous
 62
     3
100
AcDbLine
 10
191.375
 20
137.9
 30
0.0
 11
193.125
 21
137.9
 31
0.0
  0
LINE
  5
B4F
330
68B
100
AcDbEntity
  8
0
  6
Continuous
 62
     3
100
AcDbLine
 10
190.125
 20
137.9
 30
0.0
 11
188.375
 21
137.9
 31
0.0
  0
LINE
  5
B50
330
68B
100
AcDbEntity
  8
0
  6
Continuous
 62
     3
100
AcDbLine
 10
215.625
 20
142.9
 30
0.0
 11
217.375
 21
142.9
 31
0.0
  0
LINE
  5
B51
330
68B
100
AcDbEntity
  8
0
  6
Continuous
 62
     3
100
AcDbLine
 10
220.3749999999998
 20
142.9
 30
0.0
 11
218.625
 21
142.9
 31
0.0
  0
LINE
  5
B52
330
68B
100
AcDbEntity
  8
0
  6
Continuous
 62
     3
100
AcDbLine
 10
217.375
 20
137.9
 30
0.0
 11
215.625
 21
137.9
 31
0.0
  0
LINE
  5
B53
330
68B
100
AcDbEntity
  8
0
  6
Continuous
 62
     3
100
AcDbLine
 10
218.625
 20
137.9
 30
0.0
 11
220.3749999999998
 21
137.9
 31
0.0
  0
LINE
  5
B54
330
68B
100
AcDbEntity
  8
0
  6
Continuous
 62
     3
100
AcDbLine
 10
218.625
 20
127.9
 30
0.0
 11
220.3749999999998
 21
127.9
 31
0.0
  0
LINE
  5
B55
330
68B
100
AcDbEntity
  8
0
  6
Continuous
 62
     3
100
AcDbLine
 10
215.625
 20
127.9
 30
0.0
 11
217.375
 21
127.9
 31
0.0
  0
LINE
  5
B56
330
68B
100
AcDbEntity
  8
0
  6
Continuous
 62
     3
100
AcDbLine
 10
215.625
 20
152.9
 30
0.0
 11
215.625
 21
127.9
 31
0.0
  0
LINE
  5
B57
330
68B
100
AcDbEntity
  8
0
  6
Continuous
 62
     3
100
AcDbLine
 10
217.375
 20
127.9
 30
0.0
 11
217.375
 21
152.9
 31
0.0
  0
LINE
  5
B58
330
68B
100
AcDbEntity
  8
0
  6
Continuous
 62
     3
100
AcDbLine
 10
218.625
 20
152.9
 30
0.0
 11
218.625
 21
127.9
 31
0.0
  0
LINE
  5
B59
330
68B
100
AcDbEntity
  8
0
  6
Continuous
 62
     3
100
AcDbLine
 10
220.3749999999998
 20
127.9
 30
0.0
 11
220.3749999999998
 21
152.9
 31
0.0
  0
LINE
  5
B5A
330
68B
100
AcDbEntity
  8
0
  6
Continuous
 62
     3
100
AcDbLine
 10
194.375
 20
127.9
 30
0.0
 11
194.375
 21
152.9
 31
0.0
  0
LINE
  5
B5B
330
68B
100
AcDbEntity
  8
0
  6
Continuous
 62
     3
100
AcDbLine
 10
193.125
 20
152.9
 30
0.0
 11
193.125
 21
127.9
 31
0.0
  0
LINE
  5
B5C
330
68B
100
AcDbEntity
  8
0
  6
Continuous
 62
     3
100
AcDbLine
 10
191.375
 20
127.9
 30
0.0
 11
191.375
 21
152.9
 31
0.0
  0
LINE
  5
B5D
330
68B
100
AcDbEntity
  8
0
  6
Continuous
 62
     3
100
AcDbLine
 10
190.125
 20
152.9
 30
0.0
 11
190.125
 21
127.9
 31
0.0
  0
LINE
  5
B5E
330
68B
100
AcDbEntity
  8
0
  6
Continuous
 62
     3
100
AcDbLine
 10
188.375
 20
127.9
 30
0.0
 11
188.375
 21
152.9
 31
0.0
  0
LINE
  5
B5F
330
68B
100
AcDbEntity
  8
0
  6
Continuous
 62
     3
100
AcDbLine
 10
186.125
 20
152.9
 30
0.0
 11
186.125
 21
127.9
 31
0.0
  0
LINE
  5
B60
330
68B
100
AcDbEntity
  8
0
  6
Continuous
 62
     3
100
AcDbLine
 10
184.375
 20
127.9
 30
0.0
 11
184.375
 21
152.9
 31
0.0
  0
LINE
  5
B61
330
68B
100
AcDbEntity
  8
0
  6
Continuous
 62
     3
100
AcDbLine
 10
183.125
 20
152.9
 30
0.0
 11
183.125
 21
127.9
 31
0.0
  0
LINE
  5
B62
330
68B
100
AcDbEntity
  8
0
  6
Continuous
 62
     3
100
AcDbLine
 10
181.3749999999995
 20
127.9
 30
0.0
 11
181.3749999999995
 21
152.9
 31
0.0
  0
LINE
  5
B63
330
68B
100
AcDbEntity
  8
0
  6
Continuous
 62
     3
100
AcDbLine
 10
176.875
 20
119.9
 30
0.0
 11
177.125
 21
114.4
 31
0.0
  0
LINE
  5
B64
330
68B
100
AcDbEntity
  8
0
  6
Continuous
 62
     3
100
AcDbLine
 10
177.125
 20
114.4
 30
0.0
 11
224.6249999999998
 21
114.4
 31
0.0
  0
LINE
  5
B65
330
68B
100
AcDbEntity
  8
0
  6
Continuous
 62
     3
100
AcDbLine
 10
224.6249999999998
 20
114.4
 30
0.0
 11
224.875
 21
119.9
 31
0.0
  0
LINE
  5
B66
330
68B
100
AcDbEntity
  8
0
  6
Continuous
 62
     3
100
AcDbLine
 10
221.875
 20
119.9
 30
0.0
 11
221.875
 21
119.4
 31
0.0
  0
LINE
  5
B67
330
68B
100
AcDbEntity
  8
0
  6
Continuous
 62
     3
100
AcDbLine
 10
179.875
 20
119.4
 30
0.0
 11
179.875
 21
119.9
 31
0.0
  0
LINE
  5
B68
330
68B
100
AcDbEntity
  8
0
  6
Continuous
 62
     3
100
AcDbLine
 10
207.125
 20
121.4
 30
0.0
 11
196.1249999999998
 21
121.4
 31
0.0
  0
LINE
  5
B69
330
68B
100
AcDbEntity
  8
0
  6
Continuous
 62
     3
100
AcDbLine
 10
195.375
 20
243.0
 30
0.0
 11
200.875
 21
243.0
 31
0.0
  0
LINE
  5
B6A
330
68B
100
AcDbEntity
  8
0
  6
Continuous
 62
     3
100
AcDbLine
 10
195.375
 20
241.4
 30
0.0
 11
195.375
 21
243.0
 31
0.0
  0
LINE
  5
B6B
330
68B
100
AcDbEntity
  8
0
  6
Continuous
 62
     3
100
AcDbLine
 10
194.375
 20
230.9
 30
0.0
 11
195.375
 21
230.9
 31
0.0
  0
LINE
  5
B6C
330
68B
100
AcDbEntity
  8
0
  6
Continuous
 62
     3
100
AcDbLine
 10
195.375
 20
215.9
 30
0.0
 11
194.375
 21
215.9
 31
0.0
  0
LINE
  5
B6D
330
68B
100
AcDbEntity
  8
0
  6
Continuous
 62
     3
100
AcDbLine
 10
207.3749999999999
 20
230.9
 30
0.0
 11
206.375
 21
230.9
 31
0.0
  0
LINE
  5
B6E
330
68B
100
AcDbEntity
  8
0
  6
Continuous
 62
     3
100
AcDbLine
 10
206.375
 20
215.9
 30
0.0
 11
207.3749999999999
 21
215.9
 31
0.0
  0
LINE
  5
B6F
330
68B
100
AcDbEntity
  8
0
  6
Continuous
 62
     3
100
AcDbLine
 10
207.3749999999999
 20
210.8999999999999
 30
0.0
 11
206.375
 21
210.8999999999999
 31
0.0
  0
LINE
  5
B70
330
68B
100
AcDbEntity
  8
0
  6
Continuous
 62
     3
100
AcDbLine
 10
194.375
 20
210.8999999999999
 30
0.0
 11
195.375
 21
210.8999999999999
 31
0.0
  0
LINE
  5
B71
330
68B
100
AcDbEntity
  8
0
  6
Continuous
 62
     3
100
AcDbLine
 10
206.375
 20
195.8999999999998
 30
0.0
 11
207.3749999999999
 21
195.8999999999998
 31
0.0
  0
LINE
  5
B72
330
68B
100
AcDbEntity
  8
0
  6
Continuous
 62
     3
100
AcDbLine
 10
206.375
 20
190.8999999999998
 30
0.0
 11
207.3749999999999
 21
190.8999999999998
 31
0.0
  0
LINE
  5
B73
330
68B
100
AcDbEntity
  8
0
  6
Continuous
 62
     3
100
AcDbLine
 10
195.375
 20
195.8999999999998
 30
0.0
 11
194.375
 21
195.8999999999998
 31
0.0
  0
LINE
  5
B74
330
68B
100
AcDbEntity
  8
0
  6
Continuous
 62
     3
100
AcDbLine
 10
195.375
 20
190.8999999999998
 30
0.0
 11
194.375
 21
190.8999999999998
 31
0.0
  0
LINE
  5
B75
330
68B
100
AcDbEntity
  8
0
  6
Continuous
 62
     3
100
AcDbLine
 10
194.375
 20
175.9
 30
0.0
 11
195.375
 21
175.9
 31
0.0
  0
LINE
  5
B76
330
68B
100
AcDbEntity
  8
0
  6
Continuous
 62
     3
100
AcDbLine
 10
207.3749999999999
 20
175.9
 30
0.0
 11
206.375
 21
175.9
 31
0.0
  0
LINE
  5
B77
330
68B
100
AcDbEntity
  8
0
  6
Continuous
 62
     3
100
AcDbLine
 10
194.375
 20
152.9
 30
0.0
 11
195.375
 21
152.9
 31
0.0
  0
LINE
  5
B78
330
68B
100
AcDbEntity
  8
0
  6
Continuous
 62
     3
100
AcDbLine
 10
195.375
 20
142.9
 30
0.0
 11
194.375
 21
142.9
 31
0.0
  0
LINE
  5
B79
330
68B
100
AcDbEntity
  8
0
  6
Continuous
 62
     3
100
AcDbLine
 10
194.375
 20
137.9
 30
0.0
 11
195.375
 21
137.9
 31
0.0
  0
LINE
  5
B7A
330
68B
100
AcDbEntity
  8
0
  6
Continuous
 62
     3
100
AcDbLine
 10
195.375
 20
127.9
 30
0.0
 11
194.375
 21
127.9
 31
0.0
  0
LINE
  5
B7B
330
68B
100
AcDbEntity
  8
0
  6
Continuous
 62
     3
100
AcDbLine
 10
200.875
 20
159.4
 30
0.0
 11
198.8749999999995
 21
159.4
 31
0.0
  0
LINE
  5
B7C
330
68B
100
AcDbEntity
  8
0
  6
Continuous
 62
     3
100
AcDbLine
 10
202.875
 20
159.4
 30
0.0
 11
200.875
 21
159.4
 31
0.0
  0
LINE
  5
B7D
330
68B
100
AcDbEntity
  8
0
  6
Continuous
 62
     3
100
AcDbLine
 10
200.875
 20
157.9
 30
0.0
 11
202.875
 21
157.9
 31
0.0
  0
LINE
  5
B7E
330
68B
100
AcDbEntity
  8
0
  6
Continuous
 62
     3
100
AcDbLine
 10
200.875
 20
157.9
 30
0.0
 11
198.8749999999995
 21
157.9
 31
0.0
  0
LINE
  5
B7F
330
68B
100
AcDbEntity
  8
0
  6
Continuous
 62
     3
100
AcDbLine
 10
195.375
 20
170.4
 30
0.0
 11
195.375
 21
241.4
 31
0.0
  0
LINE
  5
B80
330
68B
100
AcDbEntity
  8
0
  6
Continuous
 62
     3
100
AcDbLine
 10
206.375
 20
138.9
 30
0.0
 11
213.375
 21
138.9
 31
0.0
  0
LINE
  5
B81
330
68B
100
AcDbEntity
  8
0
  6
Continuous
 62
     3
100
AcDbLine
 10
213.375
 20
131.9
 30
0.0
 11
206.375
 21
131.9
 31
0.0
  0
LINE
  5
B82
330
68B
100
AcDbEntity
  8
0
  6
Continuous
 62
     3
100
AcDbLine
 10
191.375
 20
258.5249999999999
 30
0.0
 11
191.375
 21
241.5249999999999
 31
0.0
  0
ARC
  5
B83
330
68B
100
AcDbEntity
  8
0
  6
Continuous
 62
     3
100
AcDbCircle
 10
190.8749999999995
 20
258.5249999999999
 30
0.0
 40
0.5
100
AcDbArc
 50
0.0
 51
89.99999999899998
  0
LINE
  5
B84
330
68B
100
AcDbEntity
  8
0
  6
Continuous
 62
     3
100
AcDbLine
 10
178.875
 20
241.5249999999999
 30
0.0
 11
178.875
 21
258.5249999999999
 31
0.0
  0
ARC
  5
B85
330
68B
100
AcDbEntity
  8
0
  6
Continuous
 62
     3
100
AcDbCircle
 10
179.375
 20
258.5249999999999
 30
0.0
 40
0.5
100
AcDbArc
 50
89.99999999899998
 51
180.0
  0
ARC
  5
B86
330
68B
100
AcDbEntity
  8
0
  6
Continuous
 62
     3
100
AcDbCircle
 10
202.275
 20
261.3249999999998
 30
0.0
 40
0.5
100
AcDbArc
 50
89.99999999899998
 51
180.0
  0
LINE
  5
B87
330
68B
100
AcDbEntity
  8
0
  6
Continuous
 62
     3
100
AcDbLine
 10
211.775
 20
253.825
 30
0.0
 11
211.775
 21
261.3249999999998
 31
0.0
  0
ARC
  5
B88
330
68B
100
AcDbEntity
  8
0
  6
Continuous
 62
     3
100
AcDbCircle
 10
211.275
 20
261.3249999999998
 30
0.0
 40
0.5
100
AcDbArc
 50
0.0
 51
89.99999999899998
  0
LINE
  5
B89
330
68B
100
AcDbEntity
  8
0
  6
Continuous
 62
     3
100
AcDbLine
 10
220.2749999999999
 20
253.825
 30
0.0
 11
211.775
 21
253.825
 31
0.0
  0
ARC
  5
B8A
330
68B
100
AcDbEntity
  8
0
  6
Continuous
 62
     3
100
AcDbCircle
 10
220.2749999999999
 20
253.3249999999999
 30
0.0
 40
0.5
100
AcDbArc
 50
0.0
 51
89.99999999899998
  0
LINE
  5
B8B
330
68B
100
AcDbEntity
  8
0
  6
Continuous
 62
     3
100
AcDbLine
 10
220.775
 20
241.4499999999999
 30
0.0
 11
220.775
 21
253.2249999999999
 31
0.0
  0
LINE
  5
B8C
330
68B
100
AcDbEntity
  8
0
  6
Continuous
 62
     3
100
AcDbLine
 10
195.4
 20
241.5249999999999
 30
0.0
 11
178.875
 21
241.5249999999999
 31
0.0
  0
LINE
  5
B8D
330
68B
100
AcDbEntity
  8
0
  6
Continuous
 62
     3
100
AcDbLine
 10
201.7749999999999
 20
261.3249999999998
 30
0.0
 11
201.7749999999999
 21
242.9499999999999
 31
0.0
  0
LINE
  5
B8E
330
68B
100
AcDbEntity
  8
0
  6
Continuous
 62
     3
100
AcDbLine
 10
200.875
 20
243.0
 30
0.0
 11
206.375
 21
243.0
 31
0.0
  0
CIRCLE
  5
B8F
330
68B
100
AcDbEntity
  8
0
  6
Continuous
 62
     3
100
AcDbCircle
 10
79.35999999999999
 20
71.81999999999998
 30
0.0
 40
0.7
  0
LINE
  5
B90
330
68B
100
AcDbEntity
  8
0
  6
Continuous
 62
     3
100
AcDbLine
 10
202.875
 20
148.75
 30
0.0
 11
202.875
 21
159.4
 31
0.0
  0
LINE
  5
B91
330
68B
100
AcDbEntity
  8
0
  6
Continuous
 62
     3
100
AcDbLine
 10
198.8749999999995
 20
159.4
 30
0.0
 11
198.8749999999995
 21
148.75
 31
0.0
  0
LINE
  5
B92
330
68B
100
AcDbEntity
  8
0
  6
Continuous
 62
     3
100
AcDbLine
 10
198.8749999999995
 20
148.75
 30
0.0
 11
202.625
 21
148.75
 31
0.0
  0
LINE
  5
B93
330
68B
100
AcDbEntity
  8
0
  6
Continuous
 62
     3
100
AcDbLine
 10
195.375
 20
121.75
 30
0.0
 11
195.375
 21
170.5
 31
0.0
  0
LINE
  5
B94
330
68B
100
AcDbEntity
  8
0
  6
Continuous
 62
     3
100
AcDbLine
 10
206.375
 20
243.0
 30
0.0
 11
206.375
 21
121.75
 31
0.0
  0
LINE
  5
B95
330
68B
100
AcDbEntity
  8
0
  6
Continuous
 62
     3
100
AcDbLine
 10
195.375
 20
121.75
 30
0.0
 11
206.375
 21
121.75
 31
0.0
  0
LINE
  5
B96
330
68B
100
AcDbEntity
  8
0
  6
Continuous
 62
     3
100
AcDbLine
 10
181.875
 20
248.525
 30
0.0
 11
188.375
 21
248.525
 31
0.0
  0
LINE
  5
B97
330
68B
100
AcDbEntity
  8
0
  6
Continuous
 62
     3
100
AcDbLine
 10
182.125
 20
248.525
 30
0.0
 11
182.125
 21
249.025
 31
0.0
  0
LINE
  5
B98
330
68B
100
AcDbEntity
  8
0
  6
Continuous
 62
     3
100
AcDbLine
 10
182.125
 20
249.025
 30
0.0
 11
188.125
 21
249.025
 31
0.0
  0
LINE
  5
B99
330
68B
100
AcDbEntity
  8
0
  6
Continuous
 62
     3
100
AcDbLine
 10
188.125
 20
249.025
 30
0.0
 11
188.125
 21
248.525
 31
0.0
  0
LINE
  5
B9A
330
68B
100
AcDbEntity
  8
0
  6
Continuous
 62
     3
100
AcDbLine
 10
184.875
 20
249.025
 30
0.0
 11
184.375
 21
248.525
 31
0.0
  0
LINE
  5
B9B
330
68B
100
AcDbEntity
  8
0
  6
Continuous
 62
     3
100
AcDbLine
 10
184.875
 20
248.525
 30
0.0
 11
185.3749999999998
 21
249.025
 31
0.0
  0
LINE
  5
B9C
330
68B
100
AcDbEntity
  8
0
  6
Continuous
 62
     3
100
AcDbLine
 10
182.375
 20
250.225
 30
0.0
 11
182.375
 21
249.025
 31
0.0
  0
ARC
  5
B9D
330
68B
100
AcDbEntity
  8
0
  6
Continuous
 62
     3
100
AcDbCircle
 10
183.175
 20
250.225
 30
0.0
 40
0.8
100
AcDbArc
 50
90.0
 51
180.0000000009999
  0
LINE
  5
B9E
330
68B
100
AcDbEntity
  8
0
  6
Continuous
 62
     3
100
AcDbLine
 10
187.875
 20
249.025
 30
0.0
 11
187.875
 21
250.225
 31
0.0
  0
LINE
  5
B9F
330
68B
100
AcDbEntity
  8
0
  6
Continuous
 62
     3
100
AcDbLine
 10
187.0749999999999
 20
251.025
 30
0.0
 11
183.175
 21
251.025
 31
0.0
  0
ARC
  5
BA0
330
68B
100
AcDbEntity
  8
0
  6
Continuous
 62
     3
100
AcDbCircle
 10
187.0749999999999
 20
250.225
 30
0.0
 40
0.8
100
AcDbArc
 50
0.0
 51
90.0
  0
LINE
  5
BA1
330
68B
100
AcDbEntity
  8
0
  6
Continuous
 62
     3
100
AcDbLine
 10
188.375
 20
259.0249999999999
 30
0.0
 11
190.8749999999995
 21
259.0249999999999
 31
0.0
  0
LINE
  5
BA2
330
68B
100
AcDbEntity
  8
0
  6
Continuous
 62
     3
100
AcDbLine
 10
188.375
 20
248.525
 30
0.0
 11
188.375
 21
257.525
 31
0.0
  0
ARC
  5
BA3
330
68B
100
AcDbEntity
  8
0
  6
Continuous
 62
     3
100
AcDbCircle
 10
186.875
 20
257.525
 30
0.0
 40
1.5
100
AcDbArc
 50
0.0
 51
90.0
  0
LINE
  5
BA4
330
68B
100
AcDbEntity
  8
0
  6
Continuous
 62
     3
100
AcDbLine
 10
183.375
 20
259.0249999999999
 30
0.0
 11
186.875
 21
259.0249999999999
 31
0.0
  0
LINE
  5
BA5
330
68B
100
AcDbEntity
  8
0
  6
Continuous
 62
     3
100
AcDbLine
 10
181.875
 20
257.525
 30
0.0
 11
181.875
 21
248.525
 31
0.0
  0
ARC
  5
BA6
330
68B
100
AcDbEntity
  8
0
  6
Continuous
 62
     3
100
AcDbCircle
 10
183.375
 20
257.525
 30
0.0
 40
1.5
100
AcDbArc
 50
90.0
 51
180.0000000009999
  0
LINE
  5
BA7
330
68B
100
AcDbEntity
  8
0
  6
Continuous
 62
     3
100
AcDbLine
 10
179.375
 20
259.0249999999999
 30
0.0
 11
188.625
 21
259.0249999999999
 31
0.0
  0
LINE
  5
BA8
330
68B
100
AcDbEntity
  8
0
  6
Continuous
 62
     3
100
AcDbLine
 10
181.875
 20
253.025
 30
0.0
 11
178.875
 21
253.025
 31
0.0
  0
LINE
  5
BA9
330
68B
100
AcDbEntity
  8
0
  6
Continuous
 62
     3
100
AcDbLine
 10
188.375
 20
253.025
 30
0.0
 11
191.375
 21
253.025
 31
0.0
  0
LINE
  5
BAA
330
68B
100
AcDbEntity
  8
0
  6
Continuous
 62
     3
100
AcDbLine
 10
178.3749999999995
 20
240.3999999999999
 30
0.0
 11
195.375
 21
240.3999999999999
 31
0.0
  0
LINE
  5
BAB
330
68B
100
AcDbEntity
  8
0
  6
Continuous
 62
     3
100
AcDbLine
 10
178.3749999999995
 20
241.4
 30
0.0
 11
178.875
 21
241.4
 31
0.0
  0
LINE
  5
BAC
330
68B
100
AcDbEntity
  8
0
  6
Continuous
 62
     3
100
AcDbLine
 10
194.375
 20
241.5249999999999
 30
0.0
 11
194.375
 21
240.3999999999999
 31
0.0
  0
LINE
  5
BAD
330
68B
100
AcDbEntity
  8
0
  6
Continuous
 62
     3
100
AcDbLine
 10
207.3749999999999
 20
241.5249999999999
 30
0.0
 11
207.3749999999999
 21
240.3999999999999
 31
0.0
  0
LINE
  5
BAE
330
68B
100
AcDbEntity
  8
0
  6
Continuous
 62
     3
100
AcDbLine
 10
223.2499999999999
 20
240.3999999999999
 30
0.0
 11
206.375
 21
240.3999999999999
 31
0.0
  0
LINE
  5
BAF
330
68B
100
AcDbEntity
  8
0
  6
Continuous
 62
     3
100
AcDbLine
 10
220.75
 20
241.5249999999999
 30
0.0
 11
206.4
 21
241.5249999999999
 31
0.0
  0
LINE
  5
BB0
330
68B
100
AcDbEntity
  8
1
  6
Continuous
 62
     4
100
AcDbLine
 10
59.575
 20
114.9
 30
0.0
 11
44.15999999999999
 21
114.9
 31
0.0
  0
LINE
  5
BB1
330
68B
100
AcDbEntity
  8
1
  6
Continuous
 62
     4
100
AcDbLine
 10
45.16
 20
114.9
 30
0.0
 11
45.67763809
 21
116.8318516529998
 31
0.0
  0
LINE
  5
BB2
330
68B
100
AcDbEntity
  8
1
  6
Continuous
 62
     4
100
AcDbLine
 10
45.16
 20
114.9
 30
0.0
 11
44.64236191
 21
116.8318516529998
 31
0.0
  0
LINE
  5
BB3
330
68B
100
AcDbEntity
  8
1
  6
Continuous
 62
     4
100
AcDbLine
 10
45.16
 20
114.9
 30
0.0
 11
45.16
 21
259.0249999999999
 31
0.0
  0
LINE
  5
BB4
330
68B
100
AcDbEntity
  8
1
  6
Continuous
 62
     4
100
AcDbLine
 10
45.16
 20
259.0249999999999
 30
0.0
 11
44.64236191
 21
257.093148347
 31
0.0
  0
LINE
  5
BB5
330
68B
100
AcDbEntity
  8
1
  6
Continuous
 62
     4
100
AcDbLine
 10
45.16
 20
259.0249999999999
 30
0.0
 11
45.67763809
 21
257.093148347
 31
0.0
  0
LINE
  5
BB6
330
68B
100
AcDbEntity
  8
1
  6
Continuous
 62
     4
100
AcDbLine
 10
61.575
 20
259.0249999999999
 30
0.0
 11
44.15999999999999
 21
259.0249999999999
 31
0.0
  0
TEXT
  5
BB7
330
68B
100
AcDbEntity
  8
1
  6
Continuous
 62
     4
100
AcDbText
 10
44.15999999999999
 20
184.4125
 30
0.0
 40
2.0
  1
１４４
 50
90.0
 41
0.85
  7
KANJI3
100
AcDbText
  0
LINE
  5
BB8
330
68B
100
AcDbEntity
  8
1
  6
Continuous
 62
     4
100
AcDbLine
 10
59.325
 20
121.4
 30
0.0
 11
51.66
 21
121.4
 31
0.0
  0
LINE
  5
BB9
330
68B
100
AcDbEntity
  8
1
  6
Continuous
 62
     4
100
AcDbLine
 10
52.66
 20
121.4
 30
0.0
 11
53.17763809
 21
123.3318516529999
 31
0.0
  0
LINE
  5
BBA
330
68B
100
AcDbEntity
  8
1
  6
Continuous
 62
     4
100
AcDbLine
 10
52.66
 20
121.4
 30
0.0
 11
52.14236191
 21
123.3318516529999
 31
0.0
  0
LINE
  5
BBB
330
68B
100
AcDbEntity
  8
1
  6
Continuous
 62
     4
100
AcDbLine
 10
52.66
 20
126.0999999999997
 30
0.0
 11
52.66
 21
121.4
 31
0.0
  0
LINE
  5
BBC
330
68B
100
AcDbEntity
  8
1
  6
Continuous
 62
     4
100
AcDbLine
 10
52.66
 20
121.4
 30
0.0
 11
52.66
 21
114.9
 31
0.0
  0
LINE
  5
BBD
330
68B
100
AcDbEntity
  8
1
  6
Continuous
 62
     4
100
AcDbLine
 10
52.66
 20
114.9
 30
0.0
 11
52.66
 21
111.8999999999999
 31
0.0
  0
LINE
  5
BBE
330
68B
100
AcDbEntity
  8
1
  6
Continuous
 62
     4
100
AcDbLine
 10
52.66
 20
114.9
 30
0.0
 11
52.14236191
 21
112.968148347
 31
0.0
  0
LINE
  5
BBF
330
68B
100
AcDbEntity
  8
1
  6
Continuous
 62
     4
100
AcDbLine
 10
52.66
 20
114.9
 30
0.0
 11
53.17763809
 21
112.968148347
 31
0.0
  0
LINE
  5
BC0
330
68B
100
AcDbEntity
  8
1
  6
Continuous
 62
     4
100
AcDbLine
 10
52.325
 20
114.9
 30
0.0
 11
51.66
 21
114.9
 31
0.0
  0
TEXT
  5
BC1
330
68B
100
AcDbEntity
  8
1
  6
Continuous
 62
     4
100
AcDbText
 10
51.66
 20
124.3999999999999
 30
0.0
 40
2.0
  1
７
 50
90.0
 41
0.85
  7
KANJI3
100
AcDbText
  0
LINE
  5
BC2
330
68B
100
AcDbEntity
  8
1
  6
Continuous
 62
     4
100
AcDbLine
 10
166.66
 20
114.4
 30
0.0
 11
167.1776380899999
 21
116.3318516529999
 31
0.0
  0
LINE
  5
BC3
330
68B
100
AcDbEntity
  8
1
  6
Continuous
 62
     4
100
AcDbLine
 10
166.66
 20
114.4
 30
0.0
 11
166.1423619099998
 21
116.3318516529999
 31
0.0
  0
LINE
  5
BC4
330
68B
100
AcDbEntity
  8
1
  6
Continuous
 62
     4
100
AcDbLine
 10
176.775
 20
114.4
 30
0.0
 11
165.66
 21
114.4
 31
0.0
  0
TEXT
  5
BC5
330
68B
100
AcDbEntity
  8
1
  6
Continuous
 62
     4
100
AcDbText
 10
165.66
 20
185.5625
 30
0.0
 40
2.0
  1
１４８
 50
90.0
 41
0.85
  7
KANJI3
100
AcDbText
  0
LINE
  5
BC6
330
68B
100
AcDbEntity
  8
1
  6
Continuous
 62
     4
100
AcDbLine
 10
178.3749999999995
 20
121.0499999999999
 30
0.0
 11
178.3749999999995
 21
99.90000000000001
 31
0.0
  0
LINE
  5
BC7
330
68B
100
AcDbEntity
  8
1
  6
Continuous
 62
     4
100
AcDbLine
 10
178.3749999999995
 20
100.9
 30
0.0
 11
180.3068516529999
 21
100.38236191
 31
0.0
  0
LINE
  5
BC8
330
68B
100
AcDbEntity
  8
1
  6
Continuous
 62
     4
100
AcDbLine
 10
178.3749999999995
 20
100.9
 30
0.0
 11
180.3068516529999
 21
101.4176380899999
 31
0.0
  0
LINE
  5
BC9
330
68B
100
AcDbEntity
  8
1
  6
Continuous
 62
     4
100
AcDbLine
 10
178.3749999999995
 20
100.9
 30
0.0
 11
223.375
 21
100.9
 31
0.0
  0
LINE
  5
BCA
330
68B
100
AcDbEntity
  8
1
  6
Continuous
 62
     4
100
AcDbLine
 10
223.375
 20
100.9
 30
0.0
 11
221.443148347
 21
101.4176380899999
 31
0.0
  0
LINE
  5
BCB
330
68B
100
AcDbEntity
  8
1
  6
Continuous
 62
     4
100
AcDbLine
 10
223.375
 20
100.9
 30
0.0
 11
221.443148347
 21
100.38236191
 31
0.0
  0
LINE
  5
BCC
330
68B
100
AcDbEntity
  8
1
  6
Continuous
 62
     4
100
AcDbLine
 10
223.375
 20
121.0499999999999
 30
0.0
 11
223.375
 21
99.90000000000001
 31
0.0
  0
TEXT
  5
BCD
330
68B
100
AcDbEntity
  8
1
  6
Continuous
 62
     4
100
AcDbText
 10
199.175
 20
101.9
 30
0.0
 40
2.0
  1
４５
 41
0.85
  7
KANJI3
100
AcDbText
  0
LINE
  5
BCE
330
68B
100
AcDbEntity
  8
1
  6
Continuous
 62
     4
100
AcDbLine
 10
223.7249999999999
 20
241.4
 30
0.0
 11
232.8749999999998
 21
241.4
 31
0.0
  0
LINE
  5
BCF
330
68B
100
AcDbEntity
  8
1
  6
Continuous
 62
     4
100
AcDbLine
 10
231.875
 20
241.4
 30
0.0
 11
231.35736191
 21
239.468148347
 31
0.0
  0
LINE
  5
BD0
330
68B
100
AcDbEntity
  8
1
  6
Continuous
 62
     4
100
AcDbLine
 10
231.875
 20
241.4
 30
0.0
 11
232.39263809
 21
239.468148347
 31
0.0
  0
LINE
  5
BD1
330
68B
100
AcDbEntity
  8
1
  6
Continuous
 62
     4
100
AcDbLine
 10
231.875
 20
241.4
 30
0.0
 11
231.875
 21
114.4
 31
0.0
  0
LINE
  5
BD2
330
68B
100
AcDbEntity
  8
1
  6
Continuous
 62
     4
100
AcDbLine
 10
231.875
 20
114.4
 30
0.0
 11
232.39263809
 21
116.3318516529999
 31
0.0
  0
LINE
  5
BD3
330
68B
100
AcDbEntity
  8
1
  6
Continuous
 62
     4
100
AcDbLine
 10
231.875
 20
114.4
 30
0.0
 11
231.35736191
 21
116.3318516529999
 31
0.0
  0
LINE
  5
BD4
330
68B
100
AcDbEntity
  8
1
  6
Continuous
 62
     4
100
AcDbLine
 10
224.975
 20
114.4
 30
0.0
 11
232.8749999999998
 21
114.4
 31
0.0
  0
TEXT
  5
BD5
330
68B
100
AcDbEntity
  8
1
  6
Continuous
 62
     4
100
AcDbText
 10
230.8749999999998
 20
175.35
 30
0.0
 40
2.0
  1
１２７
 50
90.0
 41
0.85
  7
KANJI3
100
AcDbText
  0
LINE
  5
BD6
330
68B
100
AcDbEntity
  8
1
  6
Continuous
 62
     4
100
AcDbLine
 10
176.5249999999998
 20
121.4
 30
0.0
 11
170.375
 21
121.4
 31
0.0
  0
LINE
  5
BD7
330
68B
100
AcDbEntity
  8
1
  6
Continuous
 62
     4
100
AcDbLine
 10
171.375
 20
121.4
 30
0.0
 11
171.8926380899999
 21
123.3318516529999
 31
0.0
  0
LINE
  5
BD8
330
68B
100
AcDbEntity
  8
1
  6
Continuous
 62
     4
100
AcDbLine
 10
171.375
 20
121.4
 30
0.0
 11
170.85736191
 21
123.3318516529999
 31
0.0
  0
LINE
  5
BD9
330
68B
100
AcDbEntity
  8
1
  6
Continuous
 62
     4
100
AcDbLine
 10
171.375
 20
121.4
 30
0.0
 11
171.375
 21
114.4
 31
0.0
  0
LINE
  5
BDA
330
68B
100
AcDbEntity
  8
1
  6
Continuous
 62
     4
100
AcDbLine
 10
171.375
 20
114.4
 30
0.0
 11
171.375
 21
111.4
 31
0.0
  0
LINE
  5
BDB
330
68B
100
AcDbEntity
  8
1
  6
Continuous
 62
     4
100
AcDbLine
 10
171.375
 20
114.4
 30
0.0
 11
170.85736191
 21
112.468148347
 31
0.0
  0
LINE
  5
BDC
330
68B
100
AcDbEntity
  8
1
  6
Continuous
 62
     4
100
AcDbLine
 10
171.375
 20
114.4
 30
0.0
 11
171.8926380899999
 21
112.468148347
 31
0.0
  0
LINE
  5
BDD
330
68B
100
AcDbEntity
  8
1
  6
Continuous
 62
     4
100
AcDbLine
 10
171.7249999999999
 20
114.4
 30
0.0
 11
172.375
 21
114.4
 31
0.0
  0
TEXT
  5
BDE
330
68B
100
AcDbEntity
  8
1
  6
Continuous
 62
     4
100
AcDbText
 10
170.375
 20
116.9
 30
0.0
 40
2.0
  1
７
 50
90.0
 41
0.85
  7
KANJI3
100
AcDbText
  0
LINE
  5
BDF
330
68B
100
AcDbEntity
  8
1
  6
Continuous
 62
     4
100
AcDbLine
 10
171.375
 20
124.9
 30
0.0
 11
171.375
 21
121.4
 31
0.0
  0
LINE
  5
BE0
330
68B
100
AcDbEntity
  8
0
  6
LTYPE2
 62
     1
100
AcDbLine
 10
107.675
 20
183.3999999999998
 30
0.0
 11
87.67499999999998
 21
183.3999999999998
 31
0.0
  0
ARC
  5
BE1
330
68B
100
AcDbEntity
  8
0
  6
LTYPE2
 62
     1
100
AcDbCircle
 10
87.67499999999998
 20
182.4
 30
0.0
 40
1.0
100
AcDbArc
 50
90.0
 51
180.0
  0
ARC
  5
BE2
330
68B
100
AcDbEntity
  8
0
  6
LTYPE2
 62
     1
100
AcDbCircle
 10
87.67499999999998
 20
171.4
 30
0.0
 40
1.0
100
AcDbArc
 50
180.0
 51
270.0
  0
LINE
  5
BE3
330
68B
100
AcDbEntity
  8
0
  6
LTYPE2
 62
     1
100
AcDbLine
 10
87.67499999999998
 20
170.4
 30
0.0
 11
107.675
 21
170.4
 31
0.0
  0
LINE
  5
BE4
330
68B
100
AcDbEntity
  8
0
  6
LTYPE2
 62
     1
100
AcDbLine
 10
86.67499999999998
 20
182.4
 30
0.0
 11
86.67499999999998
 21
171.4
 31
0.0
  0
ARC
  5
BE5
330
68B
100
AcDbEntity
  8
0
  6
LTYPE2
 62
     1
100
AcDbCircle
 10
107.675
 20
171.4
 30
0.0
 40
1.0
100
AcDbArc
 50
270.0
 51
0.0
  0
LINE
  5
BE6
330
68B
100
AcDbEntity
  8
0
  6
LTYPE2
 62
     1
100
AcDbLine
 10
108.675
 20
171.4
 30
0.0
 11
108.675
 21
182.4
 31
0.0
  0
ARC
  5
BE7
330
68B
100
AcDbEntity
  8
0
  6
LTYPE2
 62
     1
100
AcDbCircle
 10
107.675
 20
182.4
 30
0.0
 40
1.0
100
AcDbArc
 50
0.0
 51
90.0
  0
LINE
  5
BEC
330
68B
100
AcDbEntity
  8
0
  6
Continuous
 62
     3
100
AcDbLine
 10
122.475
 20
82.4
 30
0.0
 11
123.075
 21
82.84999999999998
 31
0.0
  0
LINE
  5
BED
330
68B
100
AcDbEntity
  8
0
  6
Continuous
 62
     3
100
AcDbLine
 10
137.125
 20
86.2
 30
0.0
 11
137.7249999999999
 21
85.75000000000001
 31
0.0
  0
LINE
  5
BEE
330
68B
100
AcDbEntity
  8
0
  6
Continuous
 62
     3
100
AcDbLine
 10
122.875
 20
74.7
 30
0.0
 11
123.475
 21
74.25
 31
0.0
  0
TEXT
  5
BEF
330
68B
100
AcDbEntity
  8
0
  6
Continuous
 62
     4
100
AcDbText
 10
44.15999999999999
 20
74.01999999999998
 30
0.0
 40
2.0
  1
４８
 50
90.0
 41
0.9
  7
KANJI0
100
AcDbText
  0
LINE
  5
BF0
330
68B
100
AcDbEntity
  8
0
  6
Continuous
 62
     4
100
AcDbLine
 10
45.16
 20
99.81999999999999
 30
0.0
 11
45.16
 21
51.82
 31
0.0
  0
LINE
  5
BF1
330
68B
100
AcDbEntity
  8
0
  6
Continuous
 62
     4
100
AcDbLine
 10
59.46
 20
99.81999999999999
 30
0.0
 11
44.15999999999999
 21
99.81999999999999
 31
0.0
  0
LINE
  5
BF2
330
68B
100
AcDbEntity
  8
0
  6
Continuous
 62
     4
100
AcDbLine
 10
45.16
 20
99.81999999999999
 30
0.0
 11
44.64236191
 21
97.88814834700001
 31
0.0
  0
LINE
  5
BF3
330
68B
100
AcDbEntity
  8
0
  6
Continuous
 62
     4
100
AcDbLine
 10
45.16
 20
99.81999999999999
 30
0.0
 11
45.67763809
 21
97.88814834700001
 31
0.0
  0
LINE
  5
BFC
330
68B
100
AcDbEntity
  8
0
  6
Continuous
 62
     4
100
AcDbLine
 10
144.783805854
 20
106.0
 30
0.0
 11
52.78380585399999
 21
106.0
 31
0.0
  0
LINE
  5
BFD
330
68B
100
AcDbEntity
  8
0
  6
Continuous
 62
     4
100
AcDbLine
 10
52.78380585399999
 20
106.0
 30
0.0
 11
54.71565750699999
 21
105.4823619099999
 31
0.0
  0
LINE
  5
BFE
330
68B
100
AcDbEntity
  8
0
  6
Continuous
 62
     4
100
AcDbLine
 10
52.78380585399999
 20
106.0
 30
0.0
 11
54.71565750699999
 21
106.51763809
 31
0.0
  0
LINE
  5
BFF
330
68B
100
AcDbEntity
  8
0
  6
Continuous
 62
     4
100
AcDbLine
 10
61.425
 20
120.9669872979999
 30
0.0
 11
52.283805854
 21
105.133974596
 31
0.0
  0
LINE
  5
C00
330
68B
100
AcDbEntity
  8
0
  6
Continuous
 62
     4
100
AcDbLine
 10
59.66
 20
51.82
 30
0.0
 11
44.15999999999999
 21
51.82
 31
0.0
  0
LINE
  5
C01
330
68B
100
AcDbEntity
  8
0
  6
Continuous
 62
     4
100
AcDbLine
 10
45.16
 20
51.82
 30
0.0
 11
45.67763809
 21
53.751851653
 31
0.0
  0
LINE
  5
C02
330
68B
100
AcDbEntity
  8
0
  6
Continuous
 62
     4
100
AcDbLine
 10
45.16
 20
51.82
 30
0.0
 11
44.64236191
 21
53.751851653
 31
0.0
  0
LINE
  5
C03
330
68B
100
AcDbEntity
  8
0
  6
Continuous
 62
     4
100
AcDbLine
 10
59.66
 20
51.92
 30
0.0
 11
59.66
 21
43.22
 31
0.0
  0
LINE
  5
C04
330
68B
100
AcDbEntity
  8
0
  6
Continuous
 62
     4
100
AcDbLine
 10
59.66
 20
44.21999999999999
 30
0.0
 11
61.591851653
 21
43.70236191
 31
0.0
  0
LINE
  5
C05
330
68B
100
AcDbEntity
  8
0
  6
Continuous
 62
     4
100
AcDbLine
 10
59.66
 20
44.21999999999999
 30
0.0
 11
61.591851653
 21
44.73763809
 31
0.0
  0
LINE
  5
C06
330
68B
100
AcDbEntity
  8
0
  6
Continuous
 62
     4
100
AcDbLine
 10
59.66
 20
44.21999999999999
 30
0.0
 11
155.6599999999999
 21
44.21999999999999
 31
0.0
  0
TEXT
  5
C07
330
68B
100
AcDbEntity
  8
0
  6
Continuous
 62
     4
100
AcDbText
 10
105.8599999999999
 20
45.22
 30
0.0
 40
2.0
  1
９６
 41
0.9
  7
KANJI0
100
AcDbText
  0
LINE
  5
C08
330
68B
100
AcDbEntity
  8
0
  6
Continuous
 62
     4
100
AcDbLine
 10
155.6599999999999
 20
44.21999999999999
 30
0.0
 11
153.728148347
 21
44.73763809
 31
0.0
  0
LINE
  5
C09
330
68B
100
AcDbEntity
  8
0
  6
Continuous
 62
     4
100
AcDbLine
 10
155.6599999999999
 20
44.21999999999999
 30
0.0
 11
153.728148347
 21
43.70236191
 31
0.0
  0
LINE
  5
C0A
330
68B
100
AcDbEntity
  8
0
  6
Continuous
 62
     4
100
AcDbLine
 10
155.6599999999999
 20
52.32
 30
0.0
 11
155.6599999999999
 21
43.22
 31
0.0
  0
LINE
  5
C13
330
68B
100
AcDbEntity
  8
0
  6
Continuous
 62
     4
100
AcDbLine
 10
153.425
 20
120.9669872979999
 30
0.0
 11
144.283805854
 21
105.133974596
 31
0.0
  0
LINE
  5
C14
330
68B
100
AcDbEntity
  8
0
  6
Continuous
 62
     4
100
AcDbLine
 10
144.783805854
 20
106.0
 30
0.0
 11
142.851954202
 21
106.51763809
 31
0.0
  0
LINE
  5
C15
330
68B
100
AcDbEntity
  8
0
  6
Continuous
 62
     4
100
AcDbLine
 10
144.783805854
 20
106.0
 30
0.0
 11
142.851954202
 21
105.4823619099999
 31
0.0
  0
TEXT
  5
C16
330
68B
100
AcDbEntity
  8
0
  6
Continuous
 62
     4
100
AcDbText
 10
96.983805854
 20
107.0
 30
0.0
 40
2.0
  1
９２
 41
0.9
  7
KANJI0
100
AcDbText
  0
TEXT
  5
C17
330
68B
100
AcDbEntity
  8
0
  6
Continuous
 62
     4
100
AcDbText
 10
89.47499999999998
 20
178.15
 30
0.0
 40
2.5
  1
角孔
 41
0.9
  7
KANJI4
100
AcDbText
  0
LINE
  5
C1F
330
68B
100
AcDbEntity
  8
0
  6
Continuous
 62
     3
100
AcDbLine
 10
149.5999999999999
 20
81.15
 30
0.0
 11
149.5999999999999
 21
91.025
 31
0.0
  0
LINE
  5
C21
330
68B
100
AcDbEntity
  8
0
  6
Continuous
 62
     3
100
AcDbLine
 10
79.67499999999998
 20
69.65
 30
0.0
 11
118.625
 21
69.65
 31
0.0
  0
LINE
  5
C27
330
68B
100
AcDbEntity
  8
0
  6
LTYPE2
 62
     1
100
AcDbLine
 10
87.92499999999998
 20
63.9
 30
0.2
 11
87.92499999999998
 21
57.9
 31
0.2
  0
LINE
  5
C28
330
68B
100
AcDbEntity
  8
0
  6
LTYPE2
 62
     1
100
AcDbLine
 10
87.67499999999998
 20
63.9
 30
0.0
 11
87.67499999999998
 21
57.9
 31
0.0
  0
LINE
  5
C29
330
68B
100
AcDbEntity
  8
0
  6
LTYPE2
 62
     1
100
AcDbLine
 10
85.67499999999999
 20
57.9
 30
0.0
 11
85.67499999999999
 21
63.9
 31
0.0
  0
LINE
  5
C48
330
68B
100
AcDbEntity
  8
0
  6
Continuous
 62
     3
100
AcDbLine
 10
72.67499999999998
 20
261.775
 30
0.0
 11
142.675
 21
261.775
 31
0.0
  0
LINE
  5
C49
330
68B
100
AcDbEntity
  8
0
  6
Continuous
 62
     3
100
AcDbLine
 10
142.675
 20
261.775
 30
0.0
 11
142.675
 21
259.0249999999999
 31
0.0
  0
LINE
  5
C4A
330
68B
100
AcDbEntity
  8
0
  6
Continuous
 62
     3
100
AcDbLine
 10
72.67499999999998
 20
261.775
 30
0.0
 11
72.67499999999998
 21
259.0249999999999
 31
0.0
  0
LINE
  5
C4B
330
68B
100
AcDbEntity
  8
1
  6
Continuous
 62
     4
100
AcDbLine
 10
61.92499999999999
 20
269.2749999999999
 30
0.0
 11
63.85685165299999
 21
268.7573619099998
 31
0.0
  0
LINE
  5
C4C
330
68B
100
AcDbEntity
  8
1
  6
Continuous
 62
     4
100
AcDbLine
 10
61.92499999999999
 20
269.2749999999999
 30
0.0
 11
63.85685165299999
 21
269.79263809
 31
0.0
  0
LINE
  5
C4D
330
68B
100
AcDbEntity
  8
1
  6
Continuous
 62
     4
100
AcDbLine
 10
61.92499999999999
 20
269.2749999999999
 30
0.0
 11
153.425
 21
269.2749999999999
 31
0.0
  0
LINE
  5
C4E
330
68B
100
AcDbEntity
  8
1
  6
Continuous
 62
     4
100
AcDbLine
 10
153.425
 20
269.2749999999999
 30
0.0
 11
151.493148347
 21
269.79263809
 31
0.0
  0
LINE
  5
C4F
330
68B
100
AcDbEntity
  8
1
  6
Continuous
 62
     4
100
AcDbLine
 10
153.425
 20
269.2749999999999
 30
0.0
 11
151.493148347
 21
268.7573619099998
 31
0.0
  0
TEXT
  5
C50
330
68B
100
AcDbEntity
  8
1
  6
Continuous
 62
     4
100
AcDbText
 10
105.9749999999997
 20
270.2749999999999
 30
0.0
 40
2.0
  1
９２
 41
0.85
  7
KANJI3
100
AcDbText
  0
LINE
  5
C51
330
68B
100
AcDbEntity
  8
0
  6
Continuous
 62
     3
100
AcDbLine
 10
107.675
 20
259.0249999999999
 30
0.0
 11
153.425
 21
259.0249999999999
 31
0.0
  0
LINE
  5
C52
330
68B
100
AcDbEntity
  8
0
  6
Continuous
 62
     3
100
AcDbLine
 10
61.92499999999999
 20
259.0249999999999
 30
0.0
 11
107.675
 21
259.0249999999999
 31
0.0
  0
LINE
  5
C53
330
68B
100
AcDbEntity
  8
1
  6
Continuous
 62
     4
100
AcDbLine
 10
61.92499999999999
 20
259.5249999999999
 30
0.0
 11
61.92499999999999
 21
270.2749999999999
 31
0.0
  0
LINE
  5
C54
330
68B
100
AcDbEntity
  8
1
  6
Continuous
 62
     4
100
AcDbLine
 10
153.425
 20
259.5249999999999
 30
0.0
 11
153.425
 21
270.2749999999999
 31
0.0
  0
LINE
  5
C55
330
68B
100
AcDbEntity
  8
1
  6
Continuous
 62
     4
100
AcDbLine
 10
201.925002697
 20
261.8249999999998
 30
0.0
 11
165.66
 21
261.8249999999998
 31
0.0
  0
LINE
  5
C56
330
68B
100
AcDbEntity
  8
1
  6
Continuous
 62
     4
100
AcDbLine
 10
166.66
 20
261.8249999999998
 30
0.0
 11
166.1423619099998
 21
259.893148347
 31
0.0
  0
LINE
  5
C57
330
68B
100
AcDbEntity
  8
1
  6
Continuous
 62
     4
100
AcDbLine
 10
166.66
 20
261.8249999999998
 30
0.0
 11
167.1776380899999
 21
259.893148347
 31
0.0
  0
LINE
  5
C58
330
68B
100
AcDbEntity
  8
1
  6
Continuous
 62
     4
100
AcDbLine
 10
166.66
 20
261.8249999999998
 30
0.0
 11
166.66
 21
114.4
 31
0.0
  0
LINE
  5
C59
330
68B
100
AcDbEntity
  8
0
  6
Continuous
 62
     3
100
AcDbLine
 10
211.275
 20
261.8249999999998
 30
0.0
 11
202.275
 21
261.8249999999998
 31
0.0
  0
LINE
  5
C5D
330
68B
100
AcDbEntity
  8
0
  6
Continuous
 62
     3
100
AcDbLine
 10
61.55
 20
241.5249999999999
 30
0.0
 11
153.8
 21
241.5249999999999
 31
0.0
  0
LINE
  5
C5E
330
68B
100
AcDbEntity
  8
0
  6
Continuous
 62
     3
100
AcDbLine
 10
153.675
 20
240.3999999999999
 30
0.0
 11
144.925
 21
240.3999999999999
 31
0.0
  0
LINE
  5
C5F
330
68B
100
AcDbEntity
  8
0
  6
Continuous
 62
     3
100
AcDbLine
 10
143.175
 20
193.65
 30
0.0
 11
143.175
 21
238.9
 31
0.0
  0
TEXT
  5
C61
330
68B
100
AcDbEntity
  8
0
  6
Continuous
 62
     3
100
AcDbText
 10
70.1025
 20
58.99499999999999
 30
0.0
 40
3.9
  1
Ｅ
 41
0.88
  7
KANJI8
100
AcDbText
  0
TEXT
  5
C62
330
68B
100
AcDbEntity
  8
0
  6
Continuous
 62
     3
100
AcDbText
 10
80.0275
 20
58.99499999999999
 30
0.0
 40
3.9
  1
Ｍ
 41
0.88
  7
KANJI8
100
AcDbText
  0
TEXT
  5
C63
330
68B
100
AcDbEntity
  8
0
  6
Continuous
 62
     3
100
AcDbText
 10
109.8875
 20
59.047
 30
0.0
 40
3.9
  1
Ｓ
 41
0.9
  7
KANJI9
100
AcDbText
  0
LINE
  5
C64
330
68B
100
AcDbEntity
  8
0
  6
Continuous
 62
     3
100
AcDbLine
 10
89.90999999999997
 20
62.43
 30
0.0
 11
89.90999999999997
 21
59.43
 31
0.0
  0
LINE
  5
C65
330
68B
100
AcDbEntity
  8
0
  6
Continuous
 62
     3
100
AcDbLine
 10
89.90999999999997
 20
59.43
 30
0.0
 11
93.51
 21
60.92999999999999
 31
0.0
  0
LINE
  5
C66
330
68B
100
AcDbEntity
  8
0
  6
Continuous
 62
     3
100
AcDbLine
 10
93.51
 20
60.92999999999999
 30
0.0
 11
89.90999999999997
 21
62.43
 31
0.0
  0
LINE
  5
C67
330
68B
100
AcDbEntity
  8
0
  6
Continuous
 62
     3
100
AcDbLine
 10
89.90999999999997
 20
62.13
 30
0.0
 11
90.63
 21
62.13
 31
0.0
  0
LINE
  5
C68
330
68B
100
AcDbEntity
  8
0
  6
Continuous
 62
     3
100
AcDbLine
 10
91.34999999999999
 20
61.82999999999999
 30
0.0
 11
89.90999999999997
 21
61.82999999999999
 31
0.0
  0
LINE
  5
C69
330
68B
100
AcDbEntity
  8
0
  6
Continuous
 62
     3
100
AcDbLine
 10
89.90999999999997
 20
61.53
 30
0.0
 11
92.06999999999998
 21
61.53
 31
0.0
  0
LINE
  5
C6A
330
68B
100
AcDbEntity
  8
0
  6
Continuous
 62
     3
100
AcDbLine
 10
92.79000000000001
 20
61.23
 30
0.0
 11
89.90999999999997
 21
61.23
 31
0.0
  0
LINE
  5
C6B
330
68B
100
AcDbEntity
  8
0
  6
Continuous
 62
     3
100
AcDbLine
 10
89.90999999999997
 20
60.92999999999999
 30
0.0
 11
93.51
 21
60.92999999999999
 31
0.0
  0
LINE
  5
C6C
330
68B
100
AcDbEntity
  8
0
  6
Continuous
 62
     3
100
AcDbLine
 10
92.79000000000001
 20
60.63
 30
0.0
 11
89.90999999999997
 21
60.63
 31
0.0
  0
LINE
  5
C6D
330
68B
100
AcDbEntity
  8
0
  6
Continuous
 62
     3
100
AcDbLine
 10
89.90999999999997
 20
60.33
 30
0.0
 11
92.06999999999998
 21
60.33
 31
0.0
  0
LINE
  5
C6E
330
68B
100
AcDbEntity
  8
0
  6
Continuous
 62
     3
100
AcDbLine
 10
91.34999999999999
 20
60.03
 30
0.0
 11
89.90999999999997
 21
60.03
 31
0.0
  0
LINE
  5
C6F
330
68B
100
AcDbEntity
  8
0
  6
Continuous
 62
     3
100
AcDbLine
 10
89.90999999999997
 20
59.72999999999998
 30
0.0
 11
90.63
 21
59.72999999999998
 31
0.0
  0
LINE
  5
C70
330
68B
100
AcDbEntity
  8
0
  6
Continuous
 62
     3
100
AcDbLine
 10
89.90999999999997
 20
62.43
 30
0.0
 11
89.90999999999997
 21
59.43
 31
0.0
  0
LINE
  5
C71
330
68B
100
AcDbEntity
  8
0
  6
Continuous
 62
     3
100
AcDbLine
 10
90.20999999999999
 20
59.555
 30
0.0
 11
90.20999999999999
 21
62.305
 31
0.0
  0
LINE
  5
C72
330
68B
100
AcDbEntity
  8
0
  6
Continuous
 62
     3
100
AcDbLine
 10
90.51
 20
62.17999999999999
 30
0.0
 11
90.51
 21
59.67999999999999
 31
0.0
  0
LINE
  5
C73
330
68B
100
AcDbEntity
  8
0
  6
Continuous
 62
     3
100
AcDbLine
 10
90.81000000000001
 20
59.805
 30
0.0
 11
90.81000000000001
 21
62.055
 31
0.0
  0
LINE
  5
C74
330
68B
100
AcDbEntity
  8
0
  6
Continuous
 62
     3
100
AcDbLine
 10
91.11000000000002
 20
61.93
 30
0.0
 11
91.11000000000002
 21
59.93
 31
0.0
  0
LINE
  5
C75
330
68B
100
AcDbEntity
  8
0
  6
Continuous
 62
     3
100
AcDbLine
 10
91.41
 20
60.055
 30
0.0
 11
91.41
 21
61.805
 31
0.0
  0
LINE
  5
C76
330
68B
100
AcDbEntity
  8
0
  6
Continuous
 62
     3
100
AcDbLine
 10
91.70999999999999
 20
61.68
 30
0.0
 11
91.70999999999999
 21
60.18
 31
0.0
  0
LINE
  5
C77
330
68B
100
AcDbEntity
  8
0
  6
Continuous
 62
     3
100
AcDbLine
 10
92.01
 20
60.30499999999999
 30
0.0
 11
92.01
 21
61.55499999999999
 31
0.0
  0
LINE
  5
C78
330
68B
100
AcDbEntity
  8
0
  6
Continuous
 62
     3
100
AcDbLine
 10
92.30999999999999
 20
61.43
 30
0.0
 11
92.30999999999999
 21
60.43
 31
0.0
  0
LINE
  5
C79
330
68B
100
AcDbEntity
  8
0
  6
Continuous
 62
     3
100
AcDbLine
 10
92.61000000000001
 20
60.555
 30
0.0
 11
92.61000000000001
 21
61.305
 31
0.0
  0
LINE
  5
C7A
330
68B
100
AcDbEntity
  8
0
  6
Continuous
 62
     3
100
AcDbLine
 10
92.91
 20
61.18
 30
0.0
 11
92.91
 21
60.68
 31
0.0
  0
LINE
  5
C7B
330
68B
100
AcDbEntity
  8
0
  6
Continuous
 62
     3
100
AcDbLine
 10
93.20999999999999
 20
60.805
 30
0.0
 11
93.20999999999999
 21
61.055
 31
0.0
  0
LINE
  5
C7C
330
68B
100
AcDbEntity
  8
0
  6
Continuous
 62
     3
100
AcDbLine
 10
100.2099999999995
 20
59.18
 30
0.0
 11
101.7099999999997
 21
62.78
 31
0.0
  0
LINE
  5
C7D
330
68B
100
AcDbEntity
  8
0
  6
Continuous
 62
     3
100
AcDbLine
 10
101.7099999999997
 20
62.78
 30
0.0
 11
103.21
 21
59.18
 31
0.0
  0
LINE
  5
C7E
330
68B
100
AcDbEntity
  8
0
  6
Continuous
 62
     3
100
AcDbLine
 10
103.21
 20
59.18
 30
0.0
 11
100.2099999999995
 21
59.18
 31
0.0
  0
LINE
  5
C7F
330
68B
100
AcDbEntity
  8
0
  6
Continuous
 62
     3
100
AcDbLine
 10
101.8349999999995
 20
62.48
 30
0.0
 11
101.5849999999997
 21
62.48
 31
0.0
  0
LINE
  5
C80
330
68B
100
AcDbEntity
  8
0
  6
Continuous
 62
     3
100
AcDbLine
 10
101.4599999999997
 20
62.17999999999999
 30
0.0
 11
101.96
 21
62.17999999999999
 31
0.0
  0
LINE
  5
C81
330
68B
100
AcDbEntity
  8
0
  6
Continuous
 62
     3
100
AcDbLine
 10
102.085
 20
61.88
 30
0.0
 11
101.3349999999995
 21
61.88
 31
0.0
  0
LINE
  5
C82
330
68B
100
AcDbEntity
  8
0
  6
Continuous
 62
     3
100
AcDbLine
 10
101.2099999999998
 20
61.58
 30
0.0
 11
102.21
 21
61.58
 31
0.0
  0
LINE
  5
C83
330
68B
100
AcDbEntity
  8
0
  6
Continuous
 62
     3
100
AcDbLine
 10
102.3349999999995
 20
61.28
 30
0.0
 11
101.085
 21
61.28
 31
0.0
  0
LINE
  5
C84
330
68B
100
AcDbEntity
  8
0
  6
Continuous
 62
     3
100
AcDbLine
 10
100.96
 20
60.97999999999998
 30
0.0
 11
102.4599999999997
 21
60.97999999999998
 31
0.0
  0
LINE
  5
C85
330
68B
100
AcDbEntity
  8
0
  6
Continuous
 62
     3
100
AcDbLine
 10
102.5849999999997
 20
60.68
 30
0.0
 11
100.8349999999996
 21
60.68
 31
0.0
  0
LINE
  5
C86
330
68B
100
AcDbEntity
  8
0
  6
Continuous
 62
     3
100
AcDbLine
 10
100.7099999999995
 20
60.38
 30
0.0
 11
102.7099999999997
 21
60.38
 31
0.0
  0
LINE
  5
C87
330
68B
100
AcDbEntity
  8
0
  6
Continuous
 62
     3
100
AcDbLine
 10
102.8349999999995
 20
60.08
 30
0.0
 11
100.5849999999997
 21
60.08
 31
0.0
  0
LINE
  5
C88
330
68B
100
AcDbEntity
  8
0
  6
Continuous
 62
     3
100
AcDbLine
 10
100.4599999999997
 20
59.78
 30
0.0
 11
102.9599999999998
 21
59.78
 31
0.0
  0
LINE
  5
C89
330
68B
100
AcDbEntity
  8
0
  6
Continuous
 62
     3
100
AcDbLine
 10
103.085
 20
59.48
 30
0.0
 11
100.3349999999997
 21
59.48
 31
0.0
  0
LINE
  5
C8A
330
68B
100
AcDbEntity
  8
0
  6
Continuous
 62
     3
100
AcDbLine
 10
100.2099999999995
 20
59.18
 30
0.0
 11
103.21
 21
59.18
 31
0.0
  0
LINE
  5
C8B
330
68B
100
AcDbEntity
  8
0
  6
Continuous
 62
     3
100
AcDbLine
 10
100.51
 20
59.9
 30
0.0
 11
100.51
 21
59.18
 31
0.0
  0
LINE
  5
C8C
330
68B
100
AcDbEntity
  8
0
  6
Continuous
 62
     3
100
AcDbLine
 10
100.8099999999999
 20
59.18
 30
0.0
 11
100.8099999999999
 21
60.62
 31
0.0
  0
LINE
  5
C8D
330
68B
100
AcDbEntity
  8
0
  6
Continuous
 62
     3
100
AcDbLine
 10
101.11
 20
61.34
 30
0.0
 11
101.11
 21
59.18
 31
0.0
  0
LINE
  5
C8E
330
68B
100
AcDbEntity
  8
0
  6
Continuous
 62
     3
100
AcDbLine
 10
101.41
 20
59.18
 30
0.0
 11
101.41
 21
62.06
 31
0.0
  0
LINE
  5
C8F
330
68B
100
AcDbEntity
  8
0
  6
Continuous
 62
     3
100
AcDbLine
 10
101.7099999999997
 20
62.78
 30
0.0
 11
101.7099999999997
 21
59.18
 31
0.0
  0
LINE
  5
C90
330
68B
100
AcDbEntity
  8
0
  6
Continuous
 62
     3
100
AcDbLine
 10
102.01
 20
59.18
 30
0.0
 11
102.01
 21
62.06
 31
0.0
  0
LINE
  5
C91
330
68B
100
AcDbEntity
  8
0
  6
Continuous
 62
     3
100
AcDbLine
 10
102.31
 20
61.34
 30
0.0
 11
102.31
 21
59.18
 31
0.0
  0
LINE
  5
C92
330
68B
100
AcDbEntity
  8
0
  6
Continuous
 62
     3
100
AcDbLine
 10
102.61
 20
59.18
 30
0.0
 11
102.61
 21
60.62
 31
0.0
  0
LINE
  5
C93
330
68B
100
AcDbEntity
  8
0
  6
Continuous
 62
     3
100
AcDbLine
 10
102.9099999999999
 20
59.9
 30
0.0
 11
102.9099999999999
 21
59.18
 31
0.0
  0
LINE
  5
C94
330
68B
100
AcDbEntity
  8
2
  6
Continuous
 62
     3
100
AcDbLine
 10
273.3999999999999
 20
150.0
 30
0.0
 11
250.0
 21
150.0
 31
0.0
  0
LINE
  5
C95
330
68B
100
AcDbEntity
  8
2
  6
Continuous
 62
     3
100
AcDbLine
 10
250.0
 20
150.0
 30
0.0
 11
250.0
 21
161.6999999999999
 31
0.0
  0
LINE
  5
C96
330
68B
100
AcDbEntity
  8
2
  6
Continuous
 62
     3
100
AcDbLine
 10
250.0
 20
179.64
 30
0.0
 11
273.3999999999999
 21
179.64
 31
0.0
  0
LINE
  5
C97
330
68B
100
AcDbEntity
  8
2
  6
Continuous
 62
     3
100
AcDbLine
 10
273.3999999999999
 20
179.64
 30
0.0
 11
273.3999999999999
 21
167.94
 31
0.0
  0
LINE
  5
C98
330
68B
100
AcDbEntity
  8
2
  6
Continuous
 62
     3
100
AcDbLine
 10
281.1999999999999
 20
179.64
 30
0.0
 11
304.6
 21
179.64
 31
0.0
  0
LINE
  5
C99
330
68B
100
AcDbEntity
  8
2
  6
Continuous
 62
     3
100
AcDbLine
 10
281.1999999999999
 20
167.94
 30
0.0
 11
281.1999999999999
 21
179.64
 31
0.0
  0
LINE
  5
C9A
330
68B
100
AcDbEntity
  8
2
  6
Continuous
 62
     3
100
AcDbLine
 10
250.0
 20
167.94
 30
0.0
 11
250.0
 21
179.64
 31
0.0
  0
LINE
  5
C9B
330
68B
100
AcDbEntity
  8
2
  6
Continuous
 62
     3
100
AcDbLine
 10
273.3999999999999
 20
167.94
 30
0.0
 11
250.0
 21
167.94
 31
0.0
  0
LINE
  5
C9C
330
68B
100
AcDbEntity
  8
2
  6
Continuous
 62
     3
100
AcDbLine
 10
273.3999999999999
 20
161.6999999999999
 30
0.0
 11
273.3999999999999
 21
150.0
 31
0.0
  0
LINE
  5
C9D
330
68B
100
AcDbEntity
  8
2
  6
Continuous
 62
     3
100
AcDbLine
 10
250.0
 20
161.6999999999999
 30
0.0
 11
273.3999999999999
 21
161.6999999999999
 31
0.0
  0
LINE
  5
C9E
330
68B
100
AcDbEntity
  8
2
  6
Continuous
 62
     3
100
AcDbLine
 10
281.1999999999999
 20
161.6999999999999
 30
0.0
 11
304.6
 21
161.6999999999999
 31
0.0
  0
LINE
  5
C9F
330
68B
100
AcDbEntity
  8
2
  6
Continuous
 62
     3
100
AcDbLine
 10
281.1999999999999
 20
150.0
 30
0.0
 11
281.1999999999999
 21
161.6999999999999
 31
0.0
  0
LINE
  5
CA0
330
68B
100
AcDbEntity
  8
2
  6
Continuous
 62
     3
100
AcDbLine
 10
304.6
 20
161.6999999999999
 30
0.0
 11
304.6
 21
150.0
 31
0.0
  0
LINE
  5
CA1
330
68B
100
AcDbEntity
  8
2
  6
Continuous
 62
     3
100
AcDbLine
 10
304.6
 20
150.0
 30
0.0
 11
281.1999999999999
 21
150.0
 31
0.0
  0
LINE
  5
CA2
330
68B
100
AcDbEntity
  8
2
  6
Continuous
 62
     3
100
AcDbLine
 10
304.6
 20
179.64
 30
0.0
 11
304.6
 21
167.94
 31
0.0
  0
LINE
  5
CA3
330
68B
100
AcDbEntity
  8
2
  6
Continuous
 62
     3
100
AcDbLine
 10
304.6
 20
167.94
 30
0.0
 11
281.1999999999999
 21
167.94
 31
0.0
  0
TEXT
  5
CA4
330
68B
100
AcDbEntity
  8
0
  6
Continuous
 62
     3
100
AcDbText
 10
266.341
 20
183.1832
 30
0.10374
 40
3.12
  1
ＰＡＮＥＬ　ＣＵＴ
 41
0.75
  7
KANJI10
100
AcDbText
  0
LINE
  5
CA5
330
68B
100
AcDbEntity
  8
2
  6
Continuous
 62
     4
100
AcDbLine
 10
249.2199999999999
 20
167.94
 30
0.10374
 11
242.9799999999999
 21
167.94
 31
0.10374
  0
LINE
  5
CA6
330
68B
100
AcDbEntity
  8
2
  6
Continuous
 62
     4
100
AcDbLine
 10
244.5399999999999
 20
167.94
 30
0.0
 11
244.9437577099998
 21
169.4468442889998
 31
0.0
  0
LINE
  5
CA7
330
68B
100
AcDbEntity
  8
2
  6
Continuous
 62
     4
100
AcDbLine
 10
244.5399999999999
 20
167.94
 30
0.0
 11
244.13624229
 21
169.4468442889998
 31
0.0
  0
LINE
  5
CA8
330
68B
100
AcDbEntity
  8
2
  6
Continuous
 62
     4
100
AcDbLine
 10
244.5399999999999
 20
179.64
 30
0.0
 11
244.5399999999999
 21
167.94
 31
0.0
  0
TEXT
  5
CA9
330
68B
100
AcDbEntity
  8
2
  6
Continuous
 62
     4
100
AcDbText
 10
243.214
 20
170.3969999999999
 30
0.078
 40
1.794
  1
４５
 50
90.0
 41
0.739130435
  7
KANJI11
100
AcDbText
  0
TEXT
  5
CAA
330
68B
100
AcDbEntity
  8
2
  6
Continuous
 62
     4
100
AcDbText
 10
244.2201999999999
 20
173.3570999999994
 30
0.0702
 40
1.6146
  1
－０
 50
90.0
 41
0.739130435
  7
KANJI12
100
AcDbText
  0
TEXT
  5
CAB
330
68B
100
AcDbEntity
  8
2
  6
Continuous
 62
     4
100
AcDbText
 10
242.3794
 20
173.3570999999994
 30
0.0702
 40
1.6146
  1
＋０.６
 50
90.0
 41
0.739130435
  7
KANJI12
100
AcDbText
  0
LINE
  5
CAC
330
68B
100
AcDbEntity
  8
2
  6
Continuous
 62
     4
100
AcDbLine
 10
249.2199999999999
 20
179.64
 30
0.0702
 11
242.9799999999999
 21
179.64
 31
0.0702
  0
LINE
  5
CAD
330
68B
100
AcDbEntity
  8
2
  6
Continuous
 62
     4
100
AcDbLine
 10
244.5399999999999
 20
179.64
 30
0.0
 11
244.13624229
 21
178.1331557109998
 31
0.0
  0
LINE
  5
CAE
330
68B
100
AcDbEntity
  8
2
  6
Continuous
 62
     4
100
AcDbLine
 10
244.5399999999999
 20
179.64
 30
0.0
 11
244.9437577099998
 21
178.1331557109998
 31
0.0
  0
LINE
  5
CAF
330
68B
100
AcDbEntity
  8
2
  6
Continuous
 62
     4
100
AcDbLine
 10
246.2559999999998
 20
173.7899999999999
 30
0.0
 11
258.9544
 21
173.7899999999999
 31
0.0
  0
LINE
  5
CB0
330
68B
100
AcDbEntity
  8
2
  6
Continuous
 62
     4
100
AcDbLine
 10
261.6999999999998
 20
175.2564
 30
0.0
 11
261.6999999999998
 21
171.7463999999999
 31
0.0
  0
LINE
  5
CB1
330
68B
100
AcDbEntity
  8
2
  6
Continuous
 62
     4
100
AcDbLine
 10
260.1243999999999
 20
173.7899999999999
 30
0.0
 11
263.6344
 21
173.7899999999999
 31
0.0
  0
LINE
  5
CB2
330
68B
100
AcDbEntity
  8
2
  6
Continuous
 62
     4
100
AcDbLine
 10
264.8044
 20
173.7899999999999
 30
0.0
 11
290.1544
 21
173.7899999999999
 31
0.0
  0
LINE
  5
CB3
330
68B
100
AcDbEntity
  8
2
  6
Continuous
 62
     4
100
AcDbLine
 10
261.6999999999998
 20
170.5764
 30
0.0
 11
261.6999999999998
 21
159.6563999999998
 31
0.0
  0
TEXT
  5
CB4
330
68B
100
AcDbEntity
  8
2
  6
Continuous
 62
     4
100
AcDbText
 10
258.3849999999998
 20
164.6639999999998
 30
0.078
 40
1.794
  1
９２
 41
0.739130435
  7
KANJI11
100
AcDbText
  0
TEXT
  5
CB5
330
68B
100
AcDbEntity
  8
2
  6
Continuous
 62
     4
100
AcDbText
 10
262.7491
 20
164.0477999999999
 30
0.0702
 40
1.6146
  1
－０
 41
0.739130435
  7
KANJI12
100
AcDbText
  0
TEXT
  5
CB6
330
68B
100
AcDbEntity
  8
2
  6
Continuous
 62
     4
100
AcDbText
 10
262.7491
 20
165.8886
 30
0.0
 40
1.6146
  1
＋０.８
 41
0.739130435
  7
KANJI13
100
AcDbText
  0
LINE
  5
CB7
330
68B
100
AcDbEntity
  8
2
  6
Continuous
 62
     4
100
AcDbLine
 10
250.0
 20
163.65
 30
0.0
 11
251.506844289
 21
163.2462422899999
 31
0.0
  0
LINE
  5
CB8
330
68B
100
AcDbEntity
  8
2
  6
Continuous
 62
     4
100
AcDbLine
 10
250.0
 20
163.65
 30
0.0
 11
273.3999999999999
 21
163.65
 31
0.0
  0
LINE
  5
CB9
330
68B
100
AcDbEntity
  8
2
  6
Continuous
 62
     4
100
AcDbLine
 10
250.0
 20
163.65
 30
0.0
 11
251.506844289
 21
164.05375771
 31
0.0
  0
LINE
  5
CBA
330
68B
100
AcDbEntity
  8
2
  6
Continuous
 62
     4
100
AcDbLine
 10
250.0
 20
167.1599999999999
 30
0.0
 11
250.0
 21
162.87
 31
0.0
  0
LINE
  5
CBB
330
68B
100
AcDbEntity
  8
2
  6
Continuous
 62
     4
100
AcDbLine
 10
273.3999999999999
 20
163.65
 30
0.0
 11
271.8931557109999
 21
164.05375771
 31
0.0
  0
LINE
  5
CBC
330
68B
100
AcDbEntity
  8
2
  6
Continuous
 62
     4
100
AcDbLine
 10
273.3999999999999
 20
163.65
 30
0.0
 11
271.8931557109999
 21
163.2462422899999
 31
0.0
  0
LINE
  5
CBD
330
68B
100
AcDbEntity
  8
2
  6
Continuous
 62
     4
100
AcDbLine
 10
273.3999999999999
 20
167.1599999999999
 30
0.0
 11
273.3999999999999
 21
162.87
 31
0.0
  0
LINE
  5
CBE
330
68B
100
AcDbEntity
  8
2
  6
Continuous
 62
     4
100
AcDbLine
 10
265.1943999999999
 20
155.8499999999999
 30
0.0
 11
287.869
 21
155.8499999999999
 31
0.0
  0
LINE
  5
CBF
330
68B
100
AcDbEntity
  8
2
  6
Continuous
 62
     4
100
AcDbLine
 10
259.7344
 20
155.8499999999999
 30
0.0
 11
264.0244
 21
155.8499999999999
 31
0.0
  0
LINE
  5
CC0
330
68B
100
AcDbEntity
  8
2
  6
Continuous
 62
     4
100
AcDbLine
 10
261.6999999999998
 20
158.4864
 30
0.0
 11
261.6999999999998
 21
153.8064
 31
0.0
  0
LINE
  5
CC1
330
68B
100
AcDbEntity
  8
2
  6
Continuous
 62
     4
100
AcDbLine
 10
246.1624
 20
155.8499999999999
 30
0.0
 11
258.5643999999999
 21
155.8499999999999
 31
0.0
  0
LINE
  5
CC2
330
68B
100
AcDbEntity
  8
2
  6
Continuous
 62
     4
100
AcDbLine
 10
261.6999999999998
 20
152.6364
 30
0.0
 11
261.6999999999998
 21
139.782
 31
0.0
  0
TEXT
  5
CC3
330
68B
100
AcDbEntity
  8
2
  6
Continuous
 62
     4
100
AcDbText
 10
272.425
 20
141.966
 30
0.078
 40
1.794
  1
ＭＩＮ.１２０
 41
0.739130435
  7
KANJI11
100
AcDbText
  0
LINE
  5
CC4
330
68B
100
AcDbEntity
  8
2
  6
Continuous
 62
     4
100
AcDbLine
 10
261.6999999999998
 20
141.342
 30
0.078
 11
263.206844289
 21
140.93824229
 31
0.078
  0
LINE
  5
CC5
330
68B
100
AcDbEntity
  8
2
  6
Continuous
 62
     4
100
AcDbLine
 10
261.6999999999998
 20
141.342
 30
0.0
 11
263.206844289
 21
141.7457577099999
 31
0.0
  0
LINE
  5
CC6
330
68B
100
AcDbEntity
  8
2
  6
Continuous
 62
     4
100
AcDbLine
 10
292.8999999999998
 20
141.342
 30
0.0
 11
291.3931557109996
 21
140.93824229
 31
0.0
  0
LINE
  5
CC7
330
68B
100
AcDbEntity
  8
2
  6
Continuous
 62
     4
100
AcDbLine
 10
292.8999999999998
 20
141.342
 30
0.0
 11
291.3931557109996
 21
141.7457577099999
 31
0.0
  0
LINE
  5
CC8
330
68B
100
AcDbEntity
  8
2
  6
Continuous
 62
     4
100
AcDbLine
 10
292.8999999999998
 20
153.0264
 30
0.0
 11
292.8999999999998
 21
139.782
 31
0.0
  0
LINE
  5
CC9
330
68B
100
AcDbEntity
  8
2
  6
Continuous
 62
     4
100
AcDbLine
 10
292.8999999999998
 20
141.342
 30
0.0
 11
261.6999999999998
 21
141.342
 31
0.0
  0
LINE
  5
CCA
330
68B
100
AcDbEntity
  8
2
  6
Continuous
 62
     4
100
AcDbLine
 10
289.4289999999998
 20
155.8499999999999
 30
0.0
 11
297.229
 21
155.8499999999999
 31
0.0
  0
LINE
  5
CCB
330
68B
100
AcDbEntity
  8
2
  6
Continuous
 62
     4
100
AcDbLine
 10
292.8999999999998
 20
157.7064
 30
0.0
 11
292.8999999999998
 21
154.1964
 31
0.0
  0
LINE
  5
CCC
330
68B
100
AcDbEntity
  8
2
  6
Continuous
 62
     4
100
AcDbLine
 10
292.8999999999998
 20
171.1224
 30
0.0
 11
292.8999999999998
 21
158.8763999999999
 31
0.0
  0
LINE
  5
CCD
330
68B
100
AcDbEntity
  8
2
  6
Continuous
 62
     4
100
AcDbLine
 10
292.8999999999998
 20
176.5824
 30
0.0
 11
292.8999999999998
 21
172.2144
 31
0.0
  0
LINE
  5
CCE
330
68B
100
AcDbEntity
  8
2
  6
Continuous
 62
     4
100
AcDbLine
 10
291.3244
 20
173.7899999999999
 30
0.0
 11
295.6144
 21
173.7899999999999
 31
0.0
  0
ARC
  5
D15
330
68B
100
AcDbEntity
  8
0
  6
Continuous
 62
     3
100
AcDbCircle
 10
190.1749749999997
 20
159.85
 30
0.0
 40
6.0
100
AcDbArc
 50
29.92595633399909
 51
330.0740436660008
  0
CIRCLE
  5
D18
330
68B
100
AcDbEntity
  8
0
  6
Continuous
 62
     3
100
AcDbCircle
 10
190.1749749999997
 20
159.85
 30
0.0
 40
3.0
  0
CIRCLE
  5
D19
330
68B
100
AcDbEntity
  8
0
  6
Continuous
 62
     3
100
AcDbCircle
 10
190.1749749999997
 20
159.85
 30
0.0
 40
3.2
  0
LINE
  5
D23
330
68B
100
AcDbEntity
  8
0
  6
Continuous
 62
     3
100
AcDbLine
 10
182.3749999999995
 20
167.4
 30
0.0
 11
180.3749999999998
 21
167.4
 31
0.0
  0
CIRCLE
  5
D36
330
68B
100
AcDbEntity
  8
0
  6
Continuous
 62
     3
100
AcDbCircle
 10
190.1749749999997
 20
159.85
 30
0.0
 40
1.44705781687692
  0
ENDSEC
  0
SECTION
  2
OBJECTS
  0
DICTIONARY
  5
679
330
0
100
AcDbDictionary
281
     1
  3
ACAD_GROUP
350
67A
  3
ACAD_PLOTSTYLENAME
350
67B
  3
ACAD_MLINESTYLE
350
683
  3
ACAD_PLOTSETTINGS
350
685
  3
ACAD_LAYOUT
350
686
  0
DICTIONARY
  5
67A
102
{ACAD_REACTORS
330
679
102
}
330
679
100
AcDbDictionary
281
     1
  0
ACDBDICTIONARYWDFLT
  5
67B
102
{ACAD_REACTORS
330
679
102
}
330
679
100
AcDbDictionary
281
     1
  3
Normal
350
67C
100
AcDbDictionaryWithDefault
340
67C
  0
DICTIONARY
  5
683
102
{ACAD_REACTORS
330
679
102
}
330
679
100
AcDbDictionary
281
     1
  3
Standard
350
684
  0
DICTIONARY
  5
685
102
{ACAD_REACTORS
330
679
102
}
330
679
100
AcDbDictionary
281
     1
  0
DICTIONARY
  5
686
102
{ACAD_REACTORS
330
679
102
}
330
679
100
AcDbDictionary
281
     1
  3
ﾚｲｱｳﾄ1
350
68A
  3
Model
350
68E
  0
ACDBPLACEHOLDER
  5
67C
102
{ACAD_REACTORS
330
67B
102
}
330
67B
  0
MLINESTYLE
  5
684
102
{ACAD_REACTORS
330
683
102
}
330
683
100
AcDbMlineStyle
  2
STANDARD
 70
     0
  3

 62
   256
 51
90.0
 52
90.0
 71
     2
 49
0.5
 62
   256
  6
BYLAYER
 49
-0.5
 62
   256
  6
BYLAYER
  0
LAYOUT
  5
68A
102
{ACAD_REACTORS
330
686
102
}
330
686
100
AcDbPlotSettings
  1

  2
Canon LBP-880
  4

  6

 40
0.0
 41
0.0
 42
0.0
 43
0.0
 44
0.0
 45
0.0
 46
0.0
 47
0.0
 48
0.0
 49
0.0
140
0.0
141
0.0
142
1.0
143
1.0
 70
   688
 72
     0
 73
     0
 74
     5
  7

 75
    16
147
1.0
148
0.0
149
0.0
100
AcDbLayout
  1
ﾚｲｱｳﾄ1
 70
     1
 71
     1
 10
0.0
 20
0.0
 11
12.0
 21
9.0
 12
0.0
 22
0.0
 32
0.0
 14
1.000000000000000E+20
 24
1.000000000000000E+20
 34
1.000000000000000E+20
 15
-1.000000000000000E+20
 25
-1.000000000000000E+20
 35
-1.000000000000000E+20
146
0.0
 13
0.0
 23
0.0
 33
0.0
 16
1.0
 26
0.0
 36
0.0
 17
0.0
 27
1.0
 37
0.0
 76
     0
330
687
  0
LAYOUT
  5
68E
102
{ACAD_REACTORS
330
686
102
}
330
686
100
AcDbPlotSettings
  1

  2
Canon LBP-880
  4

  6

 40
0.0
 41
0.0
 42
0.0
 43
0.0
 44
0.0
 45
0.0
 46
0.0
 47
0.0
 48
0.0
 49
0.0
140
0.0
141
0.0
142
1.0
143
1.0
 70
  1712
 72
     0
 73
     0
 74
     0
  7

 75
     0
147
1.0
148
0.0
149
0.0
100
AcDbLayout
  1
Model
 70
     1
 71
     0
 10
0.0
 20
0.0
 11
12.0
 21
9.0
 12
0.0
 22
0.0
 32
0.0
 14
0.0
 24
0.0
 34
0.0
 15
0.0
 25
0.0
 35
0.0
146
0.0
 13
0.0
 23
0.0
 33
0.0
 16
1.0
 26
0.0
 36
0.0
 17
0.0
 27
1.0
 37
0.0
 76
     0
330
68B
  0
ENDSEC
  0
EOF
