  0
SECTION
  2
HEADER
  9
$ACADVER
  1
AC1015
  9
$ACADMAINTVER
 70
     6
  9
$DWGCODEPAGE
  3
ANSI_932
  9
$INSBASE
 10
0.0
 20
0.0
 30
0.0
  9
$EXTMIN
 10
-5.941616374145985E+73
 20
-1.269263905633295E+99
 30
0.0
  9
$EXTMAX
 10
6.282985302827068E+99
 20
5.941616374145985E+73
 30
0.3
  9
$LIMMIN
 10
0.0
 20
0.0
  9
$LIMMAX
 10
12.0
 20
9.0
  9
$ORTHOMODE
 70
     0
  9
$REGENMODE
 70
     1
  9
$FILLMODE
 70
     1
  9
$QTEXTMODE
 70
     0
  9
$MIRRTEXT
 70
     1
  9
$LTSCALE
 40
1.0
  9
$ATTMODE
 70
     1
  9
$TEXTSIZE
 40
0.2
  9
$TRACEWID
 40
0.05
  9
$TEXTSTYLE
  7
STANDARD
  9
$CLAYER
  8
0
  9
$CELTYPE
  6
CONTINUOUS
  9
$CECOLOR
 62
   256
  9
$CELTSCALE
 40
1.0
  9
$DISPSILH
 70
     0
  9
$DIMSCALE
 40
1.0
  9
$DIMASZ
 40
0.18
  9
$DIMEXO
 40
0.0625
  9
$DIMDLI
 40
0.38
  9
$DIMRND
 40
0.0
  9
$DIMDLE
 40
0.0
  9
$DIMEXE
 40
0.18
  9
$DIMTP
 40
0.0
  9
$DIMTM
 40
0.0
  9
$DIMTXT
 40
0.18
  9
$DIMCEN
 40
0.09
  9
$DIMTSZ
 40
0.0
  9
$DIMTOL
 70
     0
  9
$DIMLIM
 70
     0
  9
$DIMTIH
 70
     1
  9
$DIMTOH
 70
     1
  9
$DIMSE1
 70
     0
  9
$DIMSE2
 70
     0
  9
$DIMTAD
 70
     0
  9
$DIMZIN
 70
     0
  9
$DIMBLK
  1

  9
$DIMASO
 70
     1
  9
$DIMSHO
 70
     1
  9
$DIMPOST
  1

  9
$DIMAPOST
  1

  9
$DIMALT
 70
     0
  9
$DIMALTD
 70
     2
  9
$DIMALTF
 40
25.4
  9
$DIMLFAC
 40
1.0
  9
$DIMTOFL
 70
     0
  9
$DIMTVP
 40
0.0
  9
$DIMTIX
 70
     0
  9
$DIMSOXD
 70
     0
  9
$DIMSAH
 70
     0
  9
$DIMBLK1
  1

  9
$DIMBLK2
  1

  9
$DIMSTYLE
  2
STANDARD
  9
$DIMCLRD
 70
     0
  9
$DIMCLRE
 70
     0
  9
$DIMCLRT
 70
     0
  9
$DIMTFAC
 40
1.0
  9
$DIMGAP
 40
0.09
  9
$DIMJUST
 70
     0
  9
$DIMSD1
 70
     0
  9
$DIMSD2
 70
     0
  9
$DIMTOLJ
 70
     1
  9
$DIMTZIN
 70
     0
  9
$DIMALTZ
 70
     0
  9
$DIMALTTZ
 70
     0
  9
$DIMUPT
 70
     0
  9
$DIMDEC
 70
     4
  9
$DIMTDEC
 70
     4
  9
$DIMALTU
 70
     2
  9
$DIMALTTD
 70
     2
  9
$DIMTXSTY
  7
STANDARD
  9
$DIMAUNIT
 70
     0
  9
$DIMADEC
 70
     0
  9
$DIMALTRND
 40
0.0
  9
$DIMAZIN
 70
     0
  9
$DIMDSEP
 70
    46
  9
$DIMATFIT
 70
     3
  9
$DIMFRAC
 70
     0
  9
$DIMLDRBLK
  1

  9
$DIMLUNIT
 70
     2
  9
$DIMLWD
 70
    -2
  9
$DIMLWE
 70
    -2
  9
$DIMTMOVE
 70
     0
  9
$LUNITS
 70
     2
  9
$LUPREC
 70
     4
  9
$SKETCHINC
 40
0.1
  9
$FILLETRAD
 40
0.0
  9
$AUNITS
 70
     0
  9
$AUPREC
 70
     0
  9
$MENU
  1
.
  9
$ELEVATION
 40
0.0
  9
$PELEVATION
 40
0.0
  9
$THICKNESS
 40
0.0
  9
$LIMCHECK
 70
     0
  9
$CHAMFERA
 40
0.0
  9
$CHAMFERB
 40
0.0
  9
$CHAMFERC
 40
0.0
  9
$CHAMFERD
 40
0.0
  9
$SKPOLY
 70
     0
  9
$TDCREATE
 40
2451948.708756829
  9
$TDUCREATE
 40
2451948.333756829
  9
$TDUPDATE
 40
2452719.583515972
  9
$TDUUPDATE
 40
2452719.208515972
  9
$TDINDWG
 40
0.1499618287
  9
$TDUSRTIMER
 40
0.1499576620
  9
$USRTIMER
 70
     1
  9
$ANGBASE
 50
0.0
  9
$ANGDIR
 70
     0
  9
$PDMODE
 70
     0
  9
$PDSIZE
 40
0.0
  9
$PLINEWID
 40
0.0
  9
$SPLFRAME
 70
     0
  9
$SPLINETYPE
 70
     6
  9
$SPLINESEGS
 70
     8
  9
$HANDSEED
  5
CFB
  9
$SURFTAB1
 70
     6
  9
$SURFTAB2
 70
     6
  9
$SURFTYPE
 70
     6
  9
$SURFU
 70
     6
  9
$SURFV
 70
     6
  9
$UCSBASE
  2

  9
$UCSNAME
  2

  9
$UCSORG
 10
0.0
 20
0.0
 30
0.0
  9
$UCSXDIR
 10
1.0
 20
0.0
 30
0.0
  9
$UCSYDIR
 10
0.0
 20
1.0
 30
0.0
  9
$UCSORTHOREF
  2

  9
$UCSORTHOVIEW
 70
     0
  9
$UCSORGTOP
 10
0.0
 20
0.0
 30
0.0
  9
$UCSORGBOTTOM
 10
0.0
 20
0.0
 30
0.0
  9
$UCSORGLEFT
 10
0.0
 20
0.0
 30
0.0
  9
$UCSORGRIGHT
 10
0.0
 20
0.0
 30
0.0
  9
$UCSORGFRONT
 10
0.0
 20
0.0
 30
0.0
  9
$UCSORGBACK
 10
0.0
 20
0.0
 30
0.0
  9
$PUCSBASE
  2

  9
$PUCSNAME
  2

  9
$PUCSORG
 10
0.0
 20
0.0
 30
0.0
  9
$PUCSXDIR
 10
1.0
 20
0.0
 30
0.0
  9
$PUCSYDIR
 10
0.0
 20
1.0
 30
0.0
  9
$PUCSORTHOREF
  2

  9
$PUCSORTHOVIEW
 70
     0
  9
$PUCSORGTOP
 10
0.0
 20
0.0
 30
0.0
  9
$PUCSORGBOTTOM
 10
0.0
 20
0.0
 30
0.0
  9
$PUCSORGLEFT
 10
0.0
 20
0.0
 30
0.0
  9
$PUCSORGRIGHT
 10
0.0
 20
0.0
 30
0.0
  9
$PUCSORGFRONT
 10
0.0
 20
0.0
 30
0.0
  9
$PUCSORGBACK
 10
0.0
 20
0.0
 30
0.0
  9
$USERI1
 70
     0
  9
$USERI2
 70
     0
  9
$USERI3
 70
     0
  9
$USERI4
 70
     0
  9
$USERI5
 70
     0
  9
$USERR1
 40
0.0
  9
$USERR2
 40
0.0
  9
$USERR3
 40
0.0
  9
$USERR4
 40
0.0
  9
$USERR5
 40
0.0
  9
$WORLDVIEW
 70
     1
  9
$SHADEDGE
 70
     3
  9
$SHADEDIF
 70
    70
  9
$TILEMODE
 70
     1
  9
$MAXACTVP
 70
    64
  9
$PINSBASE
 10
0.0
 20
0.0
 30
0.0
  9
$PLIMCHECK
 70
     0
  9
$PEXTMIN
 10
1.000000000000000E+20
 20
1.000000000000000E+20
 30
1.000000000000000E+20
  9
$PEXTMAX
 10
-1.000000000000000E+20
 20
-1.000000000000000E+20
 30
-1.000000000000000E+20
  9
$PLIMMIN
 10
0.0
 20
0.0
  9
$PLIMMAX
 10
12.0
 20
9.0
  9
$UNITMODE
 70
     0
  9
$VISRETAIN
 70
     1
  9
$PLINEGEN
 70
     0
  9
$PSLTSCALE
 70
     1
  9
$TREEDEPTH
 70
  3020
  9
$CMLSTYLE
  2
Standard
  9
$CMLJUST
 70
     0
  9
$CMLSCALE
 40
1.0
  9
$PROXYGRAPHICS
 70
     1
  9
$MEASUREMENT
 70
     0
  9
$CELWEIGHT
370
    -1
  9
$ENDCAPS
280
     0
  9
$JOINSTYLE
280
     0
  9
$LWDISPLAY
290
     0
  9
$INSUNITS
 70
     0
  9
$HYPERLINKBASE
  1

  9
$STYLESHEET
  1

  9
$XEDIT
290
     1
  9
$CEPSNTYPE
380
     0
  9
$PSTYLEMODE
290
     1
  9
$FINGERPRINTGUID
  2
{5F22B8E2-50B6-11D7-9C19-0040267F10D4}
  9
$VERSIONGUID
  2
{746F44B6-5AD2-11D7-9C19-0040267F10D4}
  9
$EXTNAMES
290
     1
  9
$PSVPSCALE
 40
0.0
  9
$OLESTARTUP
290
     0
  0
ENDSEC
  0
SECTION
  2
CLASSES
  0
CLASS
  1
ACDBDICTIONARYWDFLT
  2
AcDbDictionaryWithDefault
  3
AutoCAD 2000
 90
        0
280
     0
281
     0
  0
CLASS
  1
ACDBPLACEHOLDER
  2
AcDbPlaceHolder
  3
AutoCAD 2000
 90
        0
280
     0
281
     0
  0
CLASS
  1
LAYOUT
  2
AcDbLayout
  3
AutoCAD 2000
 90
        0
280
     0
281
     0
  0
ENDSEC
  0
SECTION
  2
TABLES
  0
TABLE
  2
VPORT
  5
A0F
330
0
100
AcDbSymbolTable
 70
     3
  0
VPORT
  5
CFA
330
A0F
100
AcDbSymbolTableRecord
100
AcDbViewportTableRecord
  2
*Active
 70
     0
 10
0.0
 20
0.0
 11
1.0
 21
1.0
 12
190.0363263053105
 22
157.260526780202
 13
0.0
 23
0.0
 14
1.0
 24
1.0
 15
0.0
 25
0.0
 16
0.0
 26
0.0
 36
1.0
 17
0.0
 27
0.0
 37
0.0
 40
258.9936039090155
 41
2.210374639769452
 42
50.0
 43
0.0
 44
0.0
 50
0.0
 51
0.0
 71
     0
 72
   100
 73
     1
 74
     1
 75
     0
 76
     0
 77
     0
 78
     0
281
     0
 65
     1
110
0.0
120
0.0
130
0.0
111
1.0
121
0.0
131
0.0
112
0.0
122
1.0
132
0.0
 79
     0
146
0.0
  0
ENDTAB
  0
TABLE
  2
LTYPE
  5
A0C
330
0
100
AcDbSymbolTable
 70
     5
  0
LTYPE
  5
A1A
330
A0C
100
AcDbSymbolTableRecord
100
AcDbLinetypeTableRecord
  2
ByBlock
 70
     0
  3

 72
    65
 73
     0
 40
0.0
  0
LTYPE
  5
A1B
330
A0C
100
AcDbSymbolTableRecord
100
AcDbLinetypeTableRecord
  2
ByLayer
 70
     0
  3

 72
    65
 73
     0
 40
0.0
  0
LTYPE
  5
A1C
330
A0C
100
AcDbSymbolTableRecord
100
AcDbLinetypeTableRecord
  2
CONTINUOUS
 70
     0
  3
Solid line
 72
    65
 73
     0
 40
0.0
  0
LTYPE
  5
A2A
330
A0C
100
AcDbSymbolTableRecord
100
AcDbLinetypeTableRecord
  2
LTYPE1
 70
     0
  3
HIDDEN
 72
    65
 73
     2
 40
3.0
 49
1.8
 74
     0
 49
-1.199999999999999
 74
     0
  0
LTYPE
  5
A2B
330
A0C
100
AcDbSymbolTableRecord
100
AcDbLinetypeTableRecord
  2
LTYPE2
 70
     0
  3
CENTER
 72
    65
 73
     4
 40
15.0
 49
10.5
 74
     0
 49
-1.5
 74
     0
 49
1.5
 74
     0
 49
-1.5
 74
     0
  0
LTYPE
  5
A2C
330
A0C
100
AcDbSymbolTableRecord
100
AcDbLinetypeTableRecord
  2
LTYPE3
 70
     0
  3
CENTER
 72
    65
 73
     4
 40
10.0
 49
7.0
 74
     0
 49
-1.0
 74
     0
 49
1.0
 74
     0
 49
-1.0
 74
     0
  0
LTYPE
  5
A2D
330
A0C
100
AcDbSymbolTableRecord
100
AcDbLinetypeTableRecord
  2
LTYPE4
 70
     0
  3
HIDDEN
 72
    65
 73
     2
 40
1.5
 49
0.9
 74
     0
 49
-0.6
 74
     0
  0
ENDTAB
  0
TABLE
  2
LAYER
  5
A09
330
0
100
AcDbSymbolTable
 70
   128
  0
LAYER
  5
A17
330
A09
100
AcDbSymbolTableRecord
100
AcDbLayerTableRecord
  2
0
 70
     0
 62
     7
  6
CONTINUOUS
370
    -3
390
A16
  0
LAYER
  5
A2E
330
A09
100
AcDbSymbolTableRecord
100
AcDbLayerTableRecord
  2
1
 70
     0
 62
     7
  6
CONTINUOUS
370
    -3
390
A16
  0
LAYER
  5
A2F
330
A09
100
AcDbSymbolTableRecord
100
AcDbLayerTableRecord
  2
2
 70
     0
 62
     7
  6
CONTINUOUS
370
    -3
390
A16
  0
LAYER
  5
A30
330
A09
100
AcDbSymbolTableRecord
100
AcDbLayerTableRecord
  2
3
 70
     0
 62
     7
  6
CONTINUOUS
370
    -3
390
A16
  0
LAYER
  5
A31
330
A09
100
AcDbSymbolTableRecord
100
AcDbLayerTableRecord
  2
4
 70
     0
 62
     7
  6
CONTINUOUS
370
    -3
390
A16
  0
LAYER
  5
A32
330
A09
100
AcDbSymbolTableRecord
100
AcDbLayerTableRecord
  2
5
 70
     0
 62
     7
  6
CONTINUOUS
370
    -3
390
A16
  0
LAYER
  5
A33
330
A09
100
AcDbSymbolTableRecord
100
AcDbLayerTableRecord
  2
6
 70
     0
 62
     7
  6
CONTINUOUS
370
    -3
390
A16
  0
LAYER
  5
A34
330
A09
100
AcDbSymbolTableRecord
100
AcDbLayerTableRecord
  2
7
 70
     0
 62
     7
  6
CONTINUOUS
370
    -3
390
A16
  0
LAYER
  5
A35
330
A09
100
AcDbSymbolTableRecord
100
AcDbLayerTableRecord
  2
8
 70
     0
 62
     7
  6
CONTINUOUS
370
    -3
390
A16
  0
LAYER
  5
A36
330
A09
100
AcDbSymbolTableRecord
100
AcDbLayerTableRecord
  2
9
 70
     0
 62
     7
  6
CONTINUOUS
370
    -3
390
A16
  0
LAYER
  5
A37
330
A09
100
AcDbSymbolTableRecord
100
AcDbLayerTableRecord
  2
10
 70
     0
 62
     7
  6
CONTINUOUS
370
    -3
390
A16
  0
LAYER
  5
A38
330
A09
100
AcDbSymbolTableRecord
100
AcDbLayerTableRecord
  2
11
 70
     0
 62
     7
  6
CONTINUOUS
370
    -3
390
A16
  0
LAYER
  5
A39
330
A09
100
AcDbSymbolTableRecord
100
AcDbLayerTableRecord
  2
12
 70
     0
 62
     7
  6
CONTINUOUS
370
    -3
390
A16
  0
LAYER
  5
A3A
330
A09
100
AcDbSymbolTableRecord
100
AcDbLayerTableRecord
  2
13
 70
     0
 62
     7
  6
CONTINUOUS
370
    -3
390
A16
  0
LAYER
  5
A3B
330
A09
100
AcDbSymbolTableRecord
100
AcDbLayerTableRecord
  2
14
 70
     0
 62
     7
  6
CONTINUOUS
370
    -3
390
A16
  0
LAYER
  5
A3C
330
A09
100
AcDbSymbolTableRecord
100
AcDbLayerTableRecord
  2
15
 70
     0
 62
     7
  6
CONTINUOUS
370
    -3
390
A16
  0
LAYER
  5
A3D
330
A09
100
AcDbSymbolTableRecord
100
AcDbLayerTableRecord
  2
16
 70
     0
 62
     7
  6
CONTINUOUS
370
    -3
390
A16
  0
LAYER
  5
A3E
330
A09
100
AcDbSymbolTableRecord
100
AcDbLayerTableRecord
  2
17
 70
     0
 62
     7
  6
CONTINUOUS
370
    -3
390
A16
  0
LAYER
  5
A3F
330
A09
100
AcDbSymbolTableRecord
100
AcDbLayerTableRecord
  2
18
 70
     0
 62
     7
  6
CONTINUOUS
370
    -3
390
A16
  0
LAYER
  5
A40
330
A09
100
AcDbSymbolTableRecord
100
AcDbLayerTableRecord
  2
19
 70
     0
 62
     7
  6
CONTINUOUS
370
    -3
390
A16
  0
LAYER
  5
A41
330
A09
100
AcDbSymbolTableRecord
100
AcDbLayerTableRecord
  2
20
 70
     0
 62
     7
  6
CONTINUOUS
370
    -3
390
A16
  0
LAYER
  5
A42
330
A09
100
AcDbSymbolTableRecord
100
AcDbLayerTableRecord
  2
21
 70
     0
 62
     7
  6
CONTINUOUS
370
    -3
390
A16
  0
LAYER
  5
A43
330
A09
100
AcDbSymbolTableRecord
100
AcDbLayerTableRecord
  2
22
 70
     0
 62
     7
  6
CONTINUOUS
370
    -3
390
A16
  0
LAYER
  5
A44
330
A09
100
AcDbSymbolTableRecord
100
AcDbLayerTableRecord
  2
23
 70
     0
 62
     7
  6
CONTINUOUS
370
    -3
390
A16
  0
LAYER
  5
A45
330
A09
100
AcDbSymbolTableRecord
100
AcDbLayerTableRecord
  2
24
 70
     0
 62
     7
  6
CONTINUOUS
370
    -3
390
A16
  0
LAYER
  5
A46
330
A09
100
AcDbSymbolTableRecord
100
AcDbLayerTableRecord
  2
25
 70
     0
 62
     7
  6
CONTINUOUS
370
    -3
390
A16
  0
LAYER
  5
A47
330
A09
100
AcDbSymbolTableRecord
100
AcDbLayerTableRecord
  2
26
 70
     0
 62
     7
  6
CONTINUOUS
370
    -3
390
A16
  0
LAYER
  5
A48
330
A09
100
AcDbSymbolTableRecord
100
AcDbLayerTableRecord
  2
27
 70
     0
 62
     7
  6
CONTINUOUS
370
    -3
390
A16
  0
LAYER
  5
A49
330
A09
100
AcDbSymbolTableRecord
100
AcDbLayerTableRecord
  2
28
 70
     0
 62
     7
  6
CONTINUOUS
370
    -3
390
A16
  0
LAYER
  5
A4A
330
A09
100
AcDbSymbolTableRecord
100
AcDbLayerTableRecord
  2
29
 70
     0
 62
     7
  6
CONTINUOUS
370
    -3
390
A16
  0
LAYER
  5
A4B
330
A09
100
AcDbSymbolTableRecord
100
AcDbLayerTableRecord
  2
30
 70
     0
 62
     7
  6
CONTINUOUS
370
    -3
390
A16
  0
LAYER
  5
A4C
330
A09
100
AcDbSymbolTableRecord
100
AcDbLayerTableRecord
  2
31
 70
     0
 62
     7
  6
CONTINUOUS
370
    -3
390
A16
  0
LAYER
  5
A4D
330
A09
100
AcDbSymbolTableRecord
100
AcDbLayerTableRecord
  2
32
 70
     0
 62
     7
  6
CONTINUOUS
370
    -3
390
A16
  0
LAYER
  5
A4E
330
A09
100
AcDbSymbolTableRecord
100
AcDbLayerTableRecord
  2
33
 70
     0
 62
     7
  6
CONTINUOUS
370
    -3
390
A16
  0
LAYER
  5
A4F
330
A09
100
AcDbSymbolTableRecord
100
AcDbLayerTableRecord
  2
34
 70
     0
 62
     7
  6
CONTINUOUS
370
    -3
390
A16
  0
LAYER
  5
A50
330
A09
100
AcDbSymbolTableRecord
100
AcDbLayerTableRecord
  2
35
 70
     0
 62
     7
  6
CONTINUOUS
370
    -3
390
A16
  0
LAYER
  5
A51
330
A09
100
AcDbSymbolTableRecord
100
AcDbLayerTableRecord
  2
36
 70
     0
 62
     7
  6
CONTINUOUS
370
    -3
390
A16
  0
LAYER
  5
A52
330
A09
100
AcDbSymbolTableRecord
100
AcDbLayerTableRecord
  2
37
 70
     0
 62
     7
  6
CONTINUOUS
370
    -3
390
A16
  0
LAYER
  5
A53
330
A09
100
AcDbSymbolTableRecord
100
AcDbLayerTableRecord
  2
38
 70
     0
 62
     7
  6
CONTINUOUS
370
    -3
390
A16
  0
LAYER
  5
A54
330
A09
100
AcDbSymbolTableRecord
100
AcDbLayerTableRecord
  2
39
 70
     0
 62
     7
  6
CONTINUOUS
370
    -3
390
A16
  0
LAYER
  5
A55
330
A09
100
AcDbSymbolTableRecord
100
AcDbLayerTableRecord
  2
40
 70
     0
 62
     7
  6
CONTINUOUS
370
    -3
390
A16
  0
LAYER
  5
A56
330
A09
100
AcDbSymbolTableRecord
100
AcDbLayerTableRecord
  2
41
 70
     0
 62
     7
  6
CONTINUOUS
370
    -3
390
A16
  0
LAYER
  5
A57
330
A09
100
AcDbSymbolTableRecord
100
AcDbLayerTableRecord
  2
42
 70
     0
 62
     7
  6
CONTINUOUS
370
    -3
390
A16
  0
LAYER
  5
A58
330
A09
100
AcDbSymbolTableRecord
100
AcDbLayerTableRecord
  2
43
 70
     0
 62
     7
  6
CONTINUOUS
370
    -3
390
A16
  0
LAYER
  5
A59
330
A09
100
AcDbSymbolTableRecord
100
AcDbLayerTableRecord
  2
44
 70
     0
 62
     7
  6
CONTINUOUS
370
    -3
390
A16
  0
LAYER
  5
A5A
330
A09
100
AcDbSymbolTableRecord
100
AcDbLayerTableRecord
  2
45
 70
     0
 62
     7
  6
CONTINUOUS
370
    -3
390
A16
  0
LAYER
  5
A5B
330
A09
100
AcDbSymbolTableRecord
100
AcDbLayerTableRecord
  2
46
 70
     0
 62
     7
  6
CONTINUOUS
370
    -3
390
A16
  0
LAYER
  5
A5C
330
A09
100
AcDbSymbolTableRecord
100
AcDbLayerTableRecord
  2
47
 70
     0
 62
     7
  6
CONTINUOUS
370
    -3
390
A16
  0
LAYER
  5
A5D
330
A09
100
AcDbSymbolTableRecord
100
AcDbLayerTableRecord
  2
48
 70
     0
 62
     7
  6
CONTINUOUS
370
    -3
390
A16
  0
LAYER
  5
A5E
330
A09
100
AcDbSymbolTableRecord
100
AcDbLayerTableRecord
  2
49
 70
     0
 62
     7
  6
CONTINUOUS
370
    -3
390
A16
  0
LAYER
  5
A5F
330
A09
100
AcDbSymbolTableRecord
100
AcDbLayerTableRecord
  2
50
 70
     0
 62
     7
  6
CONTINUOUS
370
    -3
390
A16
  0
LAYER
  5
A60
330
A09
100
AcDbSymbolTableRecord
100
AcDbLayerTableRecord
  2
51
 70
     0
 62
     7
  6
CONTINUOUS
370
    -3
390
A16
  0
LAYER
  5
A61
330
A09
100
AcDbSymbolTableRecord
100
AcDbLayerTableRecord
  2
52
 70
     0
 62
     7
  6
CONTINUOUS
370
    -3
390
A16
  0
LAYER
  5
A62
330
A09
100
AcDbSymbolTableRecord
100
AcDbLayerTableRecord
  2
53
 70
     0
 62
     7
  6
CONTINUOUS
370
    -3
390
A16
  0
LAYER
  5
A63
330
A09
100
AcDbSymbolTableRecord
100
AcDbLayerTableRecord
  2
54
 70
     0
 62
     7
  6
CONTINUOUS
370
    -3
390
A16
  0
LAYER
  5
A64
330
A09
100
AcDbSymbolTableRecord
100
AcDbLayerTableRecord
  2
55
 70
     0
 62
     7
  6
CONTINUOUS
370
    -3
390
A16
  0
LAYER
  5
A65
330
A09
100
AcDbSymbolTableRecord
100
AcDbLayerTableRecord
  2
56
 70
     0
 62
     7
  6
CONTINUOUS
370
    -3
390
A16
  0
LAYER
  5
A66
330
A09
100
AcDbSymbolTableRecord
100
AcDbLayerTableRecord
  2
57
 70
     0
 62
     7
  6
CONTINUOUS
370
    -3
390
A16
  0
LAYER
  5
A67
330
A09
100
AcDbSymbolTableRecord
100
AcDbLayerTableRecord
  2
58
 70
     0
 62
     7
  6
CONTINUOUS
370
    -3
390
A16
  0
LAYER
  5
A68
330
A09
100
AcDbSymbolTableRecord
100
AcDbLayerTableRecord
  2
59
 70
     0
 62
     7
  6
CONTINUOUS
370
    -3
390
A16
  0
LAYER
  5
A69
330
A09
100
AcDbSymbolTableRecord
100
AcDbLayerTableRecord
  2
60
 70
     0
 62
     7
  6
CONTINUOUS
370
    -3
390
A16
  0
LAYER
  5
A6A
330
A09
100
AcDbSymbolTableRecord
100
AcDbLayerTableRecord
  2
61
 70
     0
 62
     7
  6
CONTINUOUS
370
    -3
390
A16
  0
LAYER
  5
A6B
330
A09
100
AcDbSymbolTableRecord
100
AcDbLayerTableRecord
  2
62
 70
     0
 62
     7
  6
CONTINUOUS
370
    -3
390
A16
  0
LAYER
  5
A6C
330
A09
100
AcDbSymbolTableRecord
100
AcDbLayerTableRecord
  2
63
 70
     0
 62
     7
  6
CONTINUOUS
370
    -3
390
A16
  0
LAYER
  5
A6D
330
A09
100
AcDbSymbolTableRecord
100
AcDbLayerTableRecord
  2
64
 70
     0
 62
     7
  6
CONTINUOUS
370
    -3
390
A16
  0
LAYER
  5
A6E
330
A09
100
AcDbSymbolTableRecord
100
AcDbLayerTableRecord
  2
65
 70
     0
 62
     7
  6
CONTINUOUS
370
    -3
390
A16
  0
LAYER
  5
A6F
330
A09
100
AcDbSymbolTableRecord
100
AcDbLayerTableRecord
  2
66
 70
     0
 62
     7
  6
CONTINUOUS
370
    -3
390
A16
  0
LAYER
  5
A70
330
A09
100
AcDbSymbolTableRecord
100
AcDbLayerTableRecord
  2
67
 70
     0
 62
     7
  6
CONTINUOUS
370
    -3
390
A16
  0
LAYER
  5
A71
330
A09
100
AcDbSymbolTableRecord
100
AcDbLayerTableRecord
  2
68
 70
     0
 62
     7
  6
CONTINUOUS
370
    -3
390
A16
  0
LAYER
  5
A72
330
A09
100
AcDbSymbolTableRecord
100
AcDbLayerTableRecord
  2
69
 70
     0
 62
     7
  6
CONTINUOUS
370
    -3
390
A16
  0
LAYER
  5
A73
330
A09
100
AcDbSymbolTableRecord
100
AcDbLayerTableRecord
  2
70
 70
     0
 62
     7
  6
CONTINUOUS
370
    -3
390
A16
  0
LAYER
  5
A74
330
A09
100
AcDbSymbolTableRecord
100
AcDbLayerTableRecord
  2
71
 70
     0
 62
     7
  6
CONTINUOUS
370
    -3
390
A16
  0
LAYER
  5
A75
330
A09
100
AcDbSymbolTableRecord
100
AcDbLayerTableRecord
  2
72
 70
     0
 62
     7
  6
CONTINUOUS
370
    -3
390
A16
  0
LAYER
  5
A76
330
A09
100
AcDbSymbolTableRecord
100
AcDbLayerTableRecord
  2
73
 70
     0
 62
     7
  6
CONTINUOUS
370
    -3
390
A16
  0
LAYER
  5
A77
330
A09
100
AcDbSymbolTableRecord
100
AcDbLayerTableRecord
  2
74
 70
     0
 62
     7
  6
CONTINUOUS
370
    -3
390
A16
  0
LAYER
  5
A78
330
A09
100
AcDbSymbolTableRecord
100
AcDbLayerTableRecord
  2
75
 70
     0
 62
     7
  6
CONTINUOUS
370
    -3
390
A16
  0
LAYER
  5
A79
330
A09
100
AcDbSymbolTableRecord
100
AcDbLayerTableRecord
  2
76
 70
     0
 62
     7
  6
CONTINUOUS
370
    -3
390
A16
  0
LAYER
  5
A7A
330
A09
100
AcDbSymbolTableRecord
100
AcDbLayerTableRecord
  2
77
 70
     0
 62
     7
  6
CONTINUOUS
370
    -3
390
A16
  0
LAYER
  5
A7B
330
A09
100
AcDbSymbolTableRecord
100
AcDbLayerTableRecord
  2
78
 70
     0
 62
     7
  6
CONTINUOUS
370
    -3
390
A16
  0
LAYER
  5
A7C
330
A09
100
AcDbSymbolTableRecord
100
AcDbLayerTableRecord
  2
79
 70
     0
 62
     7
  6
CONTINUOUS
370
    -3
390
A16
  0
LAYER
  5
A7D
330
A09
100
AcDbSymbolTableRecord
100
AcDbLayerTableRecord
  2
80
 70
     0
 62
     7
  6
CONTINUOUS
370
    -3
390
A16
  0
LAYER
  5
A7E
330
A09
100
AcDbSymbolTableRecord
100
AcDbLayerTableRecord
  2
81
 70
     0
 62
     7
  6
CONTINUOUS
370
    -3
390
A16
  0
LAYER
  5
A7F
330
A09
100
AcDbSymbolTableRecord
100
AcDbLayerTableRecord
  2
82
 70
     0
 62
     7
  6
CONTINUOUS
370
    -3
390
A16
  0
LAYER
  5
A80
330
A09
100
AcDbSymbolTableRecord
100
AcDbLayerTableRecord
  2
83
 70
     0
 62
     7
  6
CONTINUOUS
370
    -3
390
A16
  0
LAYER
  5
A81
330
A09
100
AcDbSymbolTableRecord
100
AcDbLayerTableRecord
  2
84
 70
     0
 62
     7
  6
CONTINUOUS
370
    -3
390
A16
  0
LAYER
  5
A82
330
A09
100
AcDbSymbolTableRecord
100
AcDbLayerTableRecord
  2
85
 70
     0
 62
     7
  6
CONTINUOUS
370
    -3
390
A16
  0
LAYER
  5
A83
330
A09
100
AcDbSymbolTableRecord
100
AcDbLayerTableRecord
  2
86
 70
     0
 62
     7
  6
CONTINUOUS
370
    -3
390
A16
  0
LAYER
  5
A84
330
A09
100
AcDbSymbolTableRecord
100
AcDbLayerTableRecord
  2
87
 70
     0
 62
     7
  6
CONTINUOUS
370
    -3
390
A16
  0
LAYER
  5
A85
330
A09
100
AcDbSymbolTableRecord
100
AcDbLayerTableRecord
  2
88
 70
     0
 62
     7
  6
CONTINUOUS
370
    -3
390
A16
  0
LAYER
  5
A86
330
A09
100
AcDbSymbolTableRecord
100
AcDbLayerTableRecord
  2
89
 70
     0
 62
     7
  6
CONTINUOUS
370
    -3
390
A16
  0
LAYER
  5
A87
330
A09
100
AcDbSymbolTableRecord
100
AcDbLayerTableRecord
  2
90
 70
     0
 62
     7
  6
CONTINUOUS
370
    -3
390
A16
  0
LAYER
  5
A88
330
A09
100
AcDbSymbolTableRecord
100
AcDbLayerTableRecord
  2
91
 70
     0
 62
     7
  6
CONTINUOUS
370
    -3
390
A16
  0
LAYER
  5
A89
330
A09
100
AcDbSymbolTableRecord
100
AcDbLayerTableRecord
  2
92
 70
     0
 62
     7
  6
CONTINUOUS
370
    -3
390
A16
  0
LAYER
  5
A8A
330
A09
100
AcDbSymbolTableRecord
100
AcDbLayerTableRecord
  2
93
 70
     0
 62
     7
  6
CONTINUOUS
370
    -3
390
A16
  0
LAYER
  5
A8B
330
A09
100
AcDbSymbolTableRecord
100
AcDbLayerTableRecord
  2
94
 70
     0
 62
     7
  6
CONTINUOUS
370
    -3
390
A16
  0
LAYER
  5
A8C
330
A09
100
AcDbSymbolTableRecord
100
AcDbLayerTableRecord
  2
95
 70
     0
 62
     7
  6
CONTINUOUS
370
    -3
390
A16
  0
LAYER
  5
A8D
330
A09
100
AcDbSymbolTableRecord
100
AcDbLayerTableRecord
  2
96
 70
     0
 62
     7
  6
CONTINUOUS
370
    -3
390
A16
  0
LAYER
  5
A8E
330
A09
100
AcDbSymbolTableRecord
100
AcDbLayerTableRecord
  2
97
 70
     0
 62
     7
  6
CONTINUOUS
370
    -3
390
A16
  0
LAYER
  5
A8F
330
A09
100
AcDbSymbolTableRecord
100
AcDbLayerTableRecord
  2
98
 70
     0
 62
     7
  6
CONTINUOUS
370
    -3
390
A16
  0
LAYER
  5
A90
330
A09
100
AcDbSymbolTableRecord
100
AcDbLayerTableRecord
  2
99
 70
     0
 62
     7
  6
CONTINUOUS
370
    -3
390
A16
  0
LAYER
  5
A91
330
A09
100
AcDbSymbolTableRecord
100
AcDbLayerTableRecord
  2
100
 70
     0
 62
     7
  6
CONTINUOUS
370
    -3
390
A16
  0
LAYER
  5
A92
330
A09
100
AcDbSymbolTableRecord
100
AcDbLayerTableRecord
  2
101
 70
     0
 62
     7
  6
CONTINUOUS
370
    -3
390
A16
  0
LAYER
  5
A93
330
A09
100
AcDbSymbolTableRecord
100
AcDbLayerTableRecord
  2
102
 70
     0
 62
     7
  6
CONTINUOUS
370
    -3
390
A16
  0
LAYER
  5
A94
330
A09
100
AcDbSymbolTableRecord
100
AcDbLayerTableRecord
  2
103
 70
     0
 62
     7
  6
CONTINUOUS
370
    -3
390
A16
  0
LAYER
  5
A95
330
A09
100
AcDbSymbolTableRecord
100
AcDbLayerTableRecord
  2
104
 70
     0
 62
     7
  6
CONTINUOUS
370
    -3
390
A16
  0
LAYER
  5
A96
330
A09
100
AcDbSymbolTableRecord
100
AcDbLayerTableRecord
  2
105
 70
     0
 62
     7
  6
CONTINUOUS
370
    -3
390
A16
  0
LAYER
  5
A97
330
A09
100
AcDbSymbolTableRecord
100
AcDbLayerTableRecord
  2
106
 70
     0
 62
     7
  6
CONTINUOUS
370
    -3
390
A16
  0
LAYER
  5
A98
330
A09
100
AcDbSymbolTableRecord
100
AcDbLayerTableRecord
  2
107
 70
     0
 62
     7
  6
CONTINUOUS
370
    -3
390
A16
  0
LAYER
  5
A99
330
A09
100
AcDbSymbolTableRecord
100
AcDbLayerTableRecord
  2
108
 70
     0
 62
     7
  6
CONTINUOUS
370
    -3
390
A16
  0
LAYER
  5
A9A
330
A09
100
AcDbSymbolTableRecord
100
AcDbLayerTableRecord
  2
109
 70
     0
 62
     7
  6
CONTINUOUS
370
    -3
390
A16
  0
LAYER
  5
A9B
330
A09
100
AcDbSymbolTableRecord
100
AcDbLayerTableRecord
  2
110
 70
     0
 62
     7
  6
CONTINUOUS
370
    -3
390
A16
  0
LAYER
  5
A9C
330
A09
100
AcDbSymbolTableRecord
100
AcDbLayerTableRecord
  2
111
 70
     0
 62
     7
  6
CONTINUOUS
370
    -3
390
A16
  0
LAYER
  5
A9D
330
A09
100
AcDbSymbolTableRecord
100
AcDbLayerTableRecord
  2
112
 70
     0
 62
     7
  6
CONTINUOUS
370
    -3
390
A16
  0
LAYER
  5
A9E
330
A09
100
AcDbSymbolTableRecord
100
AcDbLayerTableRecord
  2
113
 70
     0
 62
     7
  6
CONTINUOUS
370
    -3
390
A16
  0
LAYER
  5
A9F
330
A09
100
AcDbSymbolTableRecord
100
AcDbLayerTableRecord
  2
114
 70
     0
 62
     7
  6
CONTINUOUS
370
    -3
390
A16
  0
LAYER
  5
AA0
330
A09
100
AcDbSymbolTableRecord
100
AcDbLayerTableRecord
  2
115
 70
     0
 62
     7
  6
CONTINUOUS
370
    -3
390
A16
  0
LAYER
  5
AA1
330
A09
100
AcDbSymbolTableRecord
100
AcDbLayerTableRecord
  2
116
 70
     0
 62
     7
  6
CONTINUOUS
370
    -3
390
A16
  0
LAYER
  5
AA2
330
A09
100
AcDbSymbolTableRecord
100
AcDbLayerTableRecord
  2
117
 70
     0
 62
     7
  6
CONTINUOUS
370
    -3
390
A16
  0
LAYER
  5
AA3
330
A09
100
AcDbSymbolTableRecord
100
AcDbLayerTableRecord
  2
118
 70
     0
 62
     7
  6
CONTINUOUS
370
    -3
390
A16
  0
LAYER
  5
AA4
330
A09
100
AcDbSymbolTableRecord
100
AcDbLayerTableRecord
  2
119
 70
     0
 62
     7
  6
CONTINUOUS
370
    -3
390
A16
  0
LAYER
  5
AA5
330
A09
100
AcDbSymbolTableRecord
100
AcDbLayerTableRecord
  2
120
 70
     0
 62
     7
  6
CONTINUOUS
370
    -3
390
A16
  0
LAYER
  5
AA6
330
A09
100
AcDbSymbolTableRecord
100
AcDbLayerTableRecord
  2
121
 70
     0
 62
     7
  6
CONTINUOUS
370
    -3
390
A16
  0
LAYER
  5
AA7
330
A09
100
AcDbSymbolTableRecord
100
AcDbLayerTableRecord
  2
122
 70
     0
 62
     7
  6
CONTINUOUS
370
    -3
390
A16
  0
LAYER
  5
AA8
330
A09
100
AcDbSymbolTableRecord
100
AcDbLayerTableRecord
  2
123
 70
     0
 62
     7
  6
CONTINUOUS
370
    -3
390
A16
  0
LAYER
  5
AA9
330
A09
100
AcDbSymbolTableRecord
100
AcDbLayerTableRecord
  2
124
 70
     0
 62
     7
  6
CONTINUOUS
370
    -3
390
A16
  0
LAYER
  5
AAA
330
A09
100
AcDbSymbolTableRecord
100
AcDbLayerTableRecord
  2
125
 70
     0
 62
     7
  6
CONTINUOUS
370
    -3
390
A16
  0
LAYER
  5
AAB
330
A09
100
AcDbSymbolTableRecord
100
AcDbLayerTableRecord
  2
126
 70
     0
 62
     7
  6
CONTINUOUS
370
    -3
390
A16
  0
LAYER
  5
AAC
330
A09
100
AcDbSymbolTableRecord
100
AcDbLayerTableRecord
  2
127
 70
     0
 62
     7
  6
CONTINUOUS
370
    -3
390
A16
  0
ENDTAB
  0
TABLE
  2
STYLE
  5
A0A
330
0
100
AcDbSymbolTable
 70
    14
  0
STYLE
  5
A18
330
A0A
100
AcDbSymbolTableRecord
100
AcDbTextStyleTableRecord
  2
STANDARD
 70
     0
 40
0.0
 41
1.0
 50
0.0
 71
     0
 42
0.2
  3
txt
  4

  0
STYLE
  5
AAD
330
A0A
100
AcDbSymbolTableRecord
100
AcDbTextStyleTableRecord
  2
KANJI0
 70
     0
 40
3.0
 41
0.833333333
 50
0.0
 71
     0
 42
3.0
  3
txt.shx
  4
bigfont
  0
STYLE
  5
AAE
330
A0A
100
AcDbSymbolTableRecord
100
AcDbTextStyleTableRecord
  2
KANJI1
 70
     0
 40
1.0
 41
0.7
 50
0.0
 71
     0
 42
1.0
  3
txt.shx
  4
bigfont
  0
STYLE
  5
AAF
330
A0A
100
AcDbSymbolTableRecord
100
AcDbTextStyleTableRecord
  2
KANJI2
 70
     0
 40
0.5
 41
0.7
 50
0.0
 71
     0
 42
0.5
  3
txt.shx
  4
bigfont
  0
STYLE
  5
AB0
330
A0A
100
AcDbSymbolTableRecord
100
AcDbTextStyleTableRecord
  2
KANJI3
 70
     0
 40
1.5
 41
0.75
 50
0.0
 71
     0
 42
1.5
  3
txt.shx
  4
bigfont
  0
STYLE
  5
AB1
330
A0A
100
AcDbSymbolTableRecord
100
AcDbTextStyleTableRecord
  2
KANJI4
 70
     0
 40
2.0
 41
0.925
 50
0.0
 71
     0
 42
2.0
  3
txt.shx
  4
bigfont
  0
STYLE
  5
AB2
330
A0A
100
AcDbSymbolTableRecord
100
AcDbTextStyleTableRecord
  2
KANJI5
 70
     0
 40
2.375999999999999
 41
0.925
 50
0.0
 71
     0
 42
2.375999999999999
  3
txt.shx
  4
bigfont
  0
STYLE
  5
AB3
330
A0A
100
AcDbSymbolTableRecord
100
AcDbTextStyleTableRecord
  2
KANJI6
 70
     0
 40
1.439999999999999
 41
1.0
 50
0.0
 71
     0
 42
1.439999999999999
  3
txt.shx
  4
bigfont
  0
STYLE
  5
AB4
330
A0A
100
AcDbSymbolTableRecord
100
AcDbTextStyleTableRecord
  2
KANJI7
 70
     0
 40
2.0
 41
1.0
 50
0.0
 71
     0
 42
2.0
  3
txt.shx
  4
bigfont
  0
STYLE
  5
AB5
330
A0A
100
AcDbSymbolTableRecord
100
AcDbTextStyleTableRecord
  2
KANJI8
 70
     0
 40
1.5
 41
1.0
 50
0.0
 71
     0
 42
1.5
  3
txt.shx
  4
bigfont
  0
STYLE
  5
AB6
330
A0A
100
AcDbSymbolTableRecord
100
AcDbTextStyleTableRecord
  2
KANJI9
 70
     0
 40
3.0
 41
0.8
 50
0.0
 71
     0
 42
3.0
  3
txt.shx
  4
bigfont
  0
STYLE
  5
AB7
330
A0A
100
AcDbSymbolTableRecord
100
AcDbTextStyleTableRecord
  2
KANJI10
 70
     0
 40
1.8
 41
1.0
 50
0.0
 71
     0
 42
1.8
  3
txt.shx
  4
bigfont
  0
STYLE
  5
AB8
330
A0A
100
AcDbSymbolTableRecord
100
AcDbTextStyleTableRecord
  2
KANJI11
 70
     0
 40
2.5
 41
0.8
 50
0.0
 71
     0
 42
2.5
  3
txt.shx
  4
bigfont
  0
STYLE
  5
AB9
330
A0A
100
AcDbSymbolTableRecord
100
AcDbTextStyleTableRecord
  2
KANJI12
 70
     0
 40
4.0
 41
1.0
 50
0.0
 71
     0
 42
4.0
  3
txt.shx
  4
bigfont
  0
ENDTAB
  0
TABLE
  2
VIEW
  5
A0D
330
0
100
AcDbSymbolTable
 70
     0
  0
ENDTAB
  0
TABLE
  2
UCS
  5
A0E
330
0
100
AcDbSymbolTable
 70
     0
  0
ENDTAB
  0
TABLE
  2
APPID
  5
A10
330
0
100
AcDbSymbolTable
 70
     1
  0
APPID
  5
A19
330
A10
100
AcDbSymbolTableRecord
100
AcDbRegAppTableRecord
  2
ACAD
 70
     0
  0
ENDTAB
  0
TABLE
  2
DIMSTYLE
  5
A11
330
0
100
AcDbSymbolTable
 70
     1
100
AcDbDimStyleTable
 71
     0
  0
DIMSTYLE
105
ABA
330
A11
100
AcDbSymbolTableRecord
100
AcDbDimStyleTableRecord
  2
STANDARD
 70
     0
279
     2
340
A18
  0
ENDTAB
  0
TABLE
  2
BLOCK_RECORD
  5
A08
330
0
100
AcDbSymbolTable
 70
     2
  0
BLOCK_RECORD
  5
A25
330
A08
100
AcDbSymbolTableRecord
100
AcDbBlockTableRecord
  2
*Model_Space
340
A28
  0
BLOCK_RECORD
  5
A21
330
A08
100
AcDbSymbolTableRecord
100
AcDbBlockTableRecord
  2
*Paper_Space
340
A24
  0
BLOCK_RECORD
  5
ABD
330
A08
100
AcDbSymbolTableRecord
100
AcDbBlockTableRecord
  2
$MODEL_SPACE
340
0
  0
BLOCK_RECORD
  5
AC0
330
A08
100
AcDbSymbolTableRecord
100
AcDbBlockTableRecord
  2
$PAPER_SPACE
340
0
  0
ENDTAB
  0
ENDSEC
  0
SECTION
  2
BLOCKS
  0
BLOCK
  5
A26
330
A25
100
AcDbEntity
  8
0
100
AcDbBlockBegin
  2
*Model_Space
 70
     0
 10
0.0
 20
0.0
 30
0.0
  3
*Model_Space
  1

  0
ENDBLK
  5
A27
330
A25
100
AcDbEntity
  8
0
100
AcDbBlockEnd
  0
BLOCK
  5
A22
330
A21
100
AcDbEntity
 67
     1
  8
0
100
AcDbBlockBegin
  2
*Paper_Space
 70
     0
 10
0.0
 20
0.0
 30
0.0
  3
*Paper_Space
  1

  0
ENDBLK
  5
A23
330
A21
100
AcDbEntity
 67
     1
  8
0
100
AcDbBlockEnd
  0
BLOCK
  5
ABE
330
ABD
100
AcDbEntity
  8
0
100
AcDbBlockBegin
  2
$MODEL_SPACE
 70
     0
 10
0.0
 20
0.0
 30
0.0
  3
$MODEL_SPACE
  1

  0
ENDBLK
  5
ABF
330
ABD
100
AcDbEntity
  8
0
100
AcDbBlockEnd
  0
BLOCK
  5
AC1
330
AC0
100
AcDbEntity
  8
0
100
AcDbBlockBegin
  2
$PAPER_SPACE
 70
     0
 10
0.0
 20
0.0
 30
0.0
  3
$PAPER_SPACE
  1

  0
ENDBLK
  5
AC2
330
AC0
100
AcDbEntity
  8
0
100
AcDbBlockEnd
  0
ENDSEC
  0
SECTION
  2
ENTITIES
  0
LINE
  5
AC3
330
A25
100
AcDbEntity
  8
0
  6
Continuous
 62
     3
100
AcDbLine
 10
64.0
 20
128.4999999999998
 30
0.0
 11
64.0
 21
127.0
 31
0.0
  0
LINE
  5
AC4
330
A25
100
AcDbEntity
  8
0
  6
Continuous
 62
     3
100
AcDbLine
 10
64.0
 20
127.0
 30
0.0
 11
64.0
 21
122.0
 31
0.0
  0
LINE
  5
AC5
330
A25
100
AcDbEntity
  8
0
  6
Continuous
 62
     3
100
AcDbLine
 10
158.0
 20
136.2125
 30
0.0
 11
156.0681483469998
 21
136.73013809
 31
0.0
  0
LINE
  5
AC6
330
A25
100
AcDbEntity
  8
0
  6
Continuous
 62
     3
100
AcDbLine
 10
158.0
 20
136.2125
 30
0.0
 11
156.0681483469998
 21
135.6948619099999
 31
0.0
  0
LINE
  5
AC7
330
A25
100
AcDbEntity
  8
0
  6
Continuous
 62
     3
100
AcDbLine
 10
66.0
 20
136.2125
 30
0.0
 11
67.93185165299999
 21
135.6948619099999
 31
0.0
  0
LINE
  5
AC8
330
A25
100
AcDbEntity
  8
0
  6
Continuous
 62
     3
100
AcDbLine
 10
66.0
 20
136.2125
 30
0.0
 11
67.93185165299999
 21
136.73013809
 31
0.0
  0
LINE
  5
AC9
330
A25
100
AcDbEntity
  8
0
  6
Continuous
 62
     3
100
AcDbLine
 10
66.0
 20
128.4999999999998
 30
0.0
 11
66.0
 21
137.2125
 31
0.0
  0
POINT
  5
ACA
330
A25
100
AcDbEntity
  8
0
  6
Continuous
 62
     3
100
AcDbPoint
 10
112.0
 20
75.84999999999998
 30
0.0
  0
LINE
  5
ACB
330
A25
100
AcDbEntity
  8
0
  6
Continuous
 62
     4
100
AcDbLine
 10
64.0
 20
107.0
 30
0.0
 11
48.0
 21
107.0
 31
0.0
  0
LINE
  5
ACC
330
A25
100
AcDbEntity
  8
0
  6
Continuous
 62
     4
100
AcDbLine
 10
49.0
 20
107.0
 30
0.0
 11
48.48236191
 21
105.068148347
 31
0.0
  0
LINE
  5
ACD
330
A25
100
AcDbEntity
  8
0
  6
Continuous
 62
     4
100
AcDbLine
 10
49.0
 20
107.0
 30
0.0
 11
49.51763809
 21
105.068148347
 31
0.0
  0
LINE
  5
ACE
330
A25
100
AcDbEntity
  8
0
  6
Continuous
 62
     4
100
AcDbLine
 10
49.0
 20
107.0
 30
0.0
 11
49.0
 21
59.0
 31
0.0
  0
LINE
  5
ACF
330
A25
100
AcDbEntity
  8
0
  6
Continuous
 62
     4
100
AcDbLine
 10
49.0
 20
59.0
 30
0.0
 11
49.51763809
 21
60.931851653
 31
0.0
  0
LINE
  5
AD0
330
A25
100
AcDbEntity
  8
0
  6
Continuous
 62
     4
100
AcDbLine
 10
49.0
 20
59.0
 30
0.0
 11
48.48236191
 21
60.931851653
 31
0.0
  0
LINE
  5
AD1
330
A25
100
AcDbEntity
  8
0
  6
Continuous
 62
     4
100
AcDbLine
 10
64.0
 20
59.0
 30
0.0
 11
48.0
 21
59.0
 31
0.0
  0
TEXT
  5
AD2
330
A25
100
AcDbEntity
  8
0
  6
Continuous
 62
     4
100
AcDbText
 10
48.0
 20
80.4
 30
0.3
 40
3.0
  1
48
 50
90.0
 41
0.833333333
  7
KANJI0
100
AcDbText
  0
LINE
  5
AD3
330
A25
100
AcDbEntity
  8
0
  6
Continuous
 62
     4
100
AcDbLine
 10
64.0
 20
59.5
 30
0.3
 11
64.0
 21
45.49999999999999
 31
0.3
  0
LINE
  5
AD4
330
A25
100
AcDbEntity
  8
0
  6
Continuous
 62
     4
100
AcDbLine
 10
64.0
 20
46.5
 30
0.0
 11
65.93185165299999
 21
45.98236191
 31
0.0
  0
LINE
  5
AD5
330
A25
100
AcDbEntity
  8
0
  6
Continuous
 62
     4
100
AcDbLine
 10
64.0
 20
46.5
 30
0.0
 11
65.93185165299999
 21
47.01763809
 31
0.0
  0
LINE
  5
AD6
330
A25
100
AcDbEntity
  8
0
  6
Continuous
 62
     4
100
AcDbLine
 10
160.0
 20
46.5
 30
0.0
 11
158.068148347
 21
47.01763809
 31
0.0
  0
LINE
  5
AD7
330
A25
100
AcDbEntity
  8
0
  6
Continuous
 62
     4
100
AcDbLine
 10
160.0
 20
46.5
 30
0.0
 11
158.068148347
 21
45.98236191
 31
0.0
  0
LINE
  5
AD8
330
A25
100
AcDbEntity
  8
0
  6
Continuous
 62
     4
100
AcDbLine
 10
160.0
 20
59.0
 30
0.0
 11
160.0
 21
45.49999999999999
 31
0.0
  0
TEXT
  5
AD9
330
A25
100
AcDbEntity
  8
0
  6
Continuous
 62
     4
100
AcDbText
 10
114.4
 20
47.5
 30
0.3
 40
3.0
  1
96
 41
0.833333333
  7
KANJI0
100
AcDbText
  0
LINE
  5
ADA
330
A25
100
AcDbEntity
  8
0
  6
Continuous
 62
     4
100
AcDbLine
 10
64.0
 20
46.5
 30
0.3
 11
160.0
 21
46.5
 31
0.3
  0
LINE
  5
ADB
330
A25
100
AcDbEntity
  8
0
  6
Continuous
 62
     4
100
AcDbLine
 10
66.0
 20
136.2125
 30
0.1875
 11
158.0
 21
136.2125
 31
0.1875
  0
TEXT
  5
ADC
330
A25
100
AcDbEntity
  8
0
  6
Continuous
 62
     4
100
AcDbText
 10
113.3
 20
137.2125
 30
0.3
 40
3.0
  1
91.8
 41
0.833333333
  7
KANJI0
100
AcDbText
  0
LINE
  5
ADD
330
A25
100
AcDbEntity
  8
0
  6
Continuous
 62
     3
100
AcDbLine
 10
76.29999999999999
 20
183.0
 30
0.3
 11
77.29999999999998
 21
184.0
 31
0.3
  0
LINE
  5
ADE
330
A25
100
AcDbEntity
  8
1
  6
Continuous
 62
     4
100
AcDbLine
 10
66.29999999999999
 20
178.0
 30
0.0
 11
50.8
 21
178.0
 31
0.0
  0
LINE
  5
ADF
330
A25
100
AcDbEntity
  8
1
  6
Continuous
 62
     4
100
AcDbLine
 10
51.79999999999999
 20
178.0
 30
0.0
 11
51.411771432
 21
176.5511112609999
 31
0.0
  0
LINE
  5
AE0
330
A25
100
AcDbEntity
  8
1
  6
Continuous
 62
     4
100
AcDbLine
 10
51.79999999999999
 20
178.0
 30
0.0
 11
52.188228568
 21
176.5511112609999
 31
0.0
  0
LINE
  5
AE1
330
A25
100
AcDbEntity
  8
1
  6
Continuous
 62
     4
100
AcDbLine
 10
51.79999999999999
 20
178.0
 30
0.0
 11
51.79999999999999
 21
122.0
 31
0.0
  0
LINE
  5
AE2
330
A25
100
AcDbEntity
  8
1
  6
Continuous
 62
     4
100
AcDbLine
 10
51.79999999999999
 20
122.0
 30
0.0
 11
52.188228568
 21
123.4488887389999
 31
0.0
  0
LINE
  5
AE3
330
A25
100
AcDbEntity
  8
1
  6
Continuous
 62
     4
100
AcDbLine
 10
51.79999999999999
 20
122.0
 30
0.0
 11
51.411771432
 21
123.4488887389999
 31
0.0
  0
LINE
  5
AE4
330
A25
100
AcDbEntity
  8
1
  6
Continuous
 62
     4
100
AcDbLine
 10
63.5
 20
122.0
 30
0.0
 11
50.8
 21
122.0
 31
0.0
  0
TEXT
  5
AE5
330
A25
100
AcDbEntity
  8
1
  6
Continuous
 62
     4
100
AcDbText
 10
50.8
 20
148.15
 30
0.0
 40
2.0
  1
56
 50
90.0
 41
0.925
  7
KANJI4
100
AcDbText
  0
LINE
  5
AE6
330
A25
100
AcDbEntity
  8
1
  6
Continuous
 62
     4
100
AcDbLine
 10
65.3
 20
175.0
 30
0.0
 11
58.79999999999999
 21
175.0
 31
0.0
  0
LINE
  5
AE7
330
A25
100
AcDbEntity
  8
1
  6
Continuous
 62
     4
100
AcDbLine
 10
59.8
 20
175.0
 30
0.0
 11
59.411771432
 21
173.551111261
 31
0.0
  0
LINE
  5
AE8
330
A25
100
AcDbEntity
  8
1
  6
Continuous
 62
     4
100
AcDbLine
 10
59.8
 20
175.0
 30
0.0
 11
60.18822856799999
 21
173.551111261
 31
0.0
  0
LINE
  5
AE9
330
A25
100
AcDbEntity
  8
1
  6
Continuous
 62
     4
100
AcDbLine
 10
59.8
 20
172.75
 30
0.0
 11
59.8
 21
175.0
 31
0.0
  0
LINE
  5
AEA
330
A25
100
AcDbEntity
  8
1
  6
Continuous
 62
     4
100
AcDbLine
 10
59.8
 20
175.0
 30
0.0
 11
59.8
 21
178.0
 31
0.0
  0
LINE
  5
AEB
330
A25
100
AcDbEntity
  8
1
  6
Continuous
 62
     4
100
AcDbLine
 10
59.8
 20
178.0
 30
0.0
 11
59.8
 21
180.25
 31
0.0
  0
LINE
  5
AEC
330
A25
100
AcDbEntity
  8
1
  6
Continuous
 62
     4
100
AcDbLine
 10
59.8
 20
178.0
 30
0.0
 11
60.18822856799999
 21
179.448888739
 31
0.0
  0
LINE
  5
AED
330
A25
100
AcDbEntity
  8
1
  6
Continuous
 62
     4
100
AcDbLine
 10
59.8
 20
178.0
 30
0.0
 11
59.411771432
 21
179.448888739
 31
0.0
  0
LINE
  5
AEE
330
A25
100
AcDbEntity
  8
1
  6
Continuous
 62
     4
100
AcDbLine
 10
66.29999999999999
 20
178.0
 30
0.0
 11
58.79999999999999
 21
178.0
 31
0.0
  0
TEXT
  5
AEF
330
A25
100
AcDbEntity
  8
1
  6
Continuous
 62
     4
100
AcDbText
 10
58.79999999999999
 20
175.5749999999999
 30
0.0
 40
2.0
  1
3
 50
90.0
 41
0.925
  7
KANJI4
100
AcDbText
  0
LINE
  5
AF0
330
A25
100
AcDbEntity
  8
1
  6
Continuous
 62
     4
100
AcDbLine
 10
63.5
 20
128.4999999999998
 30
0.0
 11
57.0
 21
128.4999999999998
 31
0.0
  0
LINE
  5
AF1
330
A25
100
AcDbEntity
  8
1
  6
Continuous
 62
     4
100
AcDbLine
 10
58.0
 20
128.4999999999998
 30
0.0
 11
57.611771432
 21
127.051111261
 31
0.0
  0
LINE
  5
AF2
330
A25
100
AcDbEntity
  8
1
  6
Continuous
 62
     4
100
AcDbLine
 10
58.0
 20
128.4999999999998
 30
0.0
 11
58.388228568
 21
127.051111261
 31
0.0
  0
LINE
  5
AF3
330
A25
100
AcDbEntity
  8
1
  6
Continuous
 62
     4
100
AcDbLine
 10
58.0
 20
128.4999999999998
 30
0.0
 11
58.0
 21
122.0
 31
0.0
  0
LINE
  5
AF4
330
A25
100
AcDbEntity
  8
1
  6
Continuous
 62
     4
100
AcDbLine
 10
58.0
 20
122.0
 30
0.0
 11
58.388228568
 21
123.4488887389999
 31
0.0
  0
LINE
  5
AF5
330
A25
100
AcDbEntity
  8
1
  6
Continuous
 62
     4
100
AcDbLine
 10
58.0
 20
122.0
 30
0.0
 11
57.611771432
 21
123.4488887389999
 31
0.0
  0
LINE
  5
AF6
330
A25
100
AcDbEntity
  8
1
  6
Continuous
 62
     4
100
AcDbLine
 10
63.5
 20
122.0
 30
0.0
 11
57.0
 21
122.0
 31
0.0
  0
LINE
  5
AF7
330
A25
100
AcDbEntity
  8
1
  6
Continuous
 62
     4
100
AcDbLine
 10
63.5
 20
122.0
 30
0.0
 11
41.0
 21
122.0
 31
0.0
  0
LINE
  5
AF8
330
A25
100
AcDbEntity
  8
1
  6
Continuous
 62
     4
100
AcDbLine
 10
42.0
 20
122.0
 30
0.0
 11
42.388228568
 21
123.4488887389999
 31
0.0
  0
LINE
  5
AF9
330
A25
100
AcDbEntity
  8
1
  6
Continuous
 62
     4
100
AcDbLine
 10
42.0
 20
122.0
 30
0.0
 11
41.61177143199997
 21
123.4488887389999
 31
0.0
  0
LINE
  5
AFA
330
A25
100
AcDbEntity
  8
1
  6
Continuous
 62
     4
100
AcDbLine
 10
42.0
 20
122.0
 30
0.0
 11
42.0
 21
184.0
 31
0.0
  0
LINE
  5
AFB
330
A25
100
AcDbEntity
  8
1
  6
Continuous
 62
     4
100
AcDbLine
 10
42.0
 20
184.0
 30
0.0
 11
41.61177143199997
 21
182.5511112609999
 31
0.0
  0
LINE
  5
AFC
330
A25
100
AcDbEntity
  8
1
  6
Continuous
 62
     4
100
AcDbLine
 10
42.0
 20
184.0
 30
0.0
 11
42.388228568
 21
182.5511112609999
 31
0.0
  0
LINE
  5
AFD
330
A25
100
AcDbEntity
  8
1
  6
Continuous
 62
     4
100
AcDbLine
 10
76.79999999999998
 20
184.0
 30
0.0
 11
41.0
 21
184.0
 31
0.0
  0
TEXT
  5
AFE
330
A25
100
AcDbEntity
  8
1
  6
Continuous
 62
     4
100
AcDbText
 10
41.0
 20
151.15
 30
0.0
 40
2.0
  1
62
 50
90.0
 41
0.925
  7
KANJI4
100
AcDbText
  0
TEXT
  5
AFF
330
A25
100
AcDbEntity
  8
1
  6
Continuous
 62
     4
100
AcDbText
 10
56.956
 20
123.1003490828357
 30
0.0
 40
2.375999999999999
  1
6.5
 50
90.0
 41
0.925
  7
KANJI5
100
AcDbText
  0
TEXT
  5
B00
330
A25
100
AcDbEntity
  8
0
  6
Continuous
 62
     4
100
AcDbText
 10
41.008
 20
155.4159999999999
 30
0.0
 40
1.439999999999999
  1
±0.5
 50
90.0
  7
KANJI6
100
AcDbText
  0
LINE
  5
B01
330
A25
100
AcDbEntity
  8
0
  6
Continuous
 62
     4
100
AcDbLine
 10
66.0
 20
148.5
 30
0.0
 11
64.2
 21
143.6999999999999
 31
0.0
  0
LINE
  5
B02
330
A25
100
AcDbEntity
  8
0
  6
Continuous
 62
     4
100
AcDbLine
 10
64.2
 20
143.6999999999999
 30
0.0
 11
62.4
 21
140.6999999999999
 31
0.0
  0
LINE
  5
B03
330
A25
100
AcDbEntity
  8
0
  6
Continuous
 62
     4
100
AcDbLine
 10
62.4
 20
140.6999999999999
 30
0.0
 11
60.8
 21
138.7
 31
0.0
  0
LINE
  5
B04
330
A25
100
AcDbEntity
  8
0
  6
Continuous
 62
     4
100
AcDbLine
 10
60.8
 20
138.7
 30
0.0
 11
66.0
 21
128.4999999999998
 31
0.0
  0
POINT
  5
B05
330
A25
100
AcDbEntity
  8
0
  6
Continuous
 62
     1
100
AcDbPoint
 10
1.269263905633295E+99
 20
-5.479536498971387E+72
 30
0.0
  0
POINT
  5
B06
330
A25
100
AcDbEntity
  8
0
  6
Continuous
 62
     1
100
AcDbPoint
 10
1.269263905633295E+99
 20
-5.479536498971387E+72
 30
0.0
  0
LINE
  5
B07
330
A25
100
AcDbEntity
  8
0
  6
Continuous
 62
     1
100
AcDbLine
 10
-5.941616374145985E+73
 20
42.0
 30
0.0
 11
-5.941616374145985E+73
 21
42.647047613
 31
0.0
  0
LINE
  5
B08
330
A25
100
AcDbEntity
  8
0
  6
Continuous
 62
     1
100
AcDbLine
 10
-5.941616374145985E+73
 20
42.0
 30
0.0
 11
-5.941616374145985E+73
 21
41.35295238699999
 31
0.0
  0
POINT
  5
B09
330
A25
100
AcDbEntity
  8
2
  6
Continuous
 62
     1
100
AcDbPoint
 10
1.269263905633295E+99
 20
252.0
 30
0.0
  0
POINT
  5
B0A
330
A25
100
AcDbEntity
  8
2
  6
Continuous
 62
     1
100
AcDbPoint
 10
1.269263905633295E+99
 20
252.0
 30
0.0
  0
POINT
  5
B0B
330
A25
100
AcDbEntity
  8
2
  6
Continuous
 62
     1
100
AcDbPoint
 10
-5.941616374145985E+73
 20
252.0
 30
0.0
  0
POINT
  5
B0C
330
A25
100
AcDbEntity
  8
2
  6
Continuous
 62
     1
100
AcDbPoint
 10
-5.941616374145985E+73
 20
252.0
 30
0.0
  0
POINT
  5
B0D
330
A25
100
AcDbEntity
  8
2
  6
Continuous
 62
     1
100
AcDbPoint
 10
6.282985302827068E+99
 20
-1.269263905633295E+99
 30
0.0
  0
POINT
  5
B0E
330
A25
100
AcDbEntity
  8
2
  6
Continuous
 62
     1
100
AcDbPoint
 10
6.282985302827068E+99
 20
-1.269263905633295E+99
 30
0.0
  0
POINT
  5
B0F
330
A25
100
AcDbEntity
  8
2
  6
Continuous
 62
     1
100
AcDbPoint
 10
-2.941160477983472E+62
 20
5.941616374145985E+73
 30
0.0
  0
POINT
  5
B10
330
A25
100
AcDbEntity
  8
2
  6
Continuous
 62
     1
100
AcDbPoint
 10
-2.941160477983472E+62
 20
5.941616374145985E+73
 30
0.0
  0
POINT
  5
B11
330
A25
100
AcDbEntity
  8
2
  6
Continuous
 62
     1
100
AcDbPoint
 10
6.282985302827068E+99
 20
-1.269263905633295E+99
 30
0.0
  0
POINT
  5
B12
330
A25
100
AcDbEntity
  8
2
  6
Continuous
 62
     1
100
AcDbPoint
 10
6.282985302827068E+99
 20
-1.269263905633295E+99
 30
0.0
  0
POINT
  5
B13
330
A25
100
AcDbEntity
  8
2
  6
Continuous
 62
     1
100
AcDbPoint
 10
-2.941160477983472E+62
 20
5.941616374145985E+73
 30
0.0
  0
POINT
  5
B14
330
A25
100
AcDbEntity
  8
2
  6
Continuous
 62
     1
100
AcDbPoint
 10
-2.941160477983472E+62
 20
5.941616374145985E+73
 30
0.0
  0
POINT
  5
B15
330
A25
100
AcDbEntity
  8
2
  6
Continuous
 62
     1
100
AcDbPoint
 10
1.269263905633295E+99
 20
252.0
 30
0.0
  0
POINT
  5
B16
330
A25
100
AcDbEntity
  8
2
  6
Continuous
 62
     1
100
AcDbPoint
 10
1.269263905633295E+99
 20
252.0
 30
0.0
  0
POINT
  5
B17
330
A25
100
AcDbEntity
  8
2
  6
Continuous
 62
     1
100
AcDbPoint
 10
-5.941616374145985E+73
 20
252.0
 30
0.0
  0
POINT
  5
B18
330
A25
100
AcDbEntity
  8
2
  6
Continuous
 62
     1
100
AcDbPoint
 10
-5.941616374145985E+73
 20
252.0
 30
0.0
  0
POINT
  5
B19
330
A25
100
AcDbEntity
  8
2
  6
Continuous
 62
     1
100
AcDbPoint
 10
1.269263905633295E+99
 20
252.0
 30
0.0
  0
POINT
  5
B1A
330
A25
100
AcDbEntity
  8
2
  6
Continuous
 62
     1
100
AcDbPoint
 10
1.269263905633295E+99
 20
252.0
 30
0.0
  0
POINT
  5
B1B
330
A25
100
AcDbEntity
  8
2
  6
Continuous
 62
     1
100
AcDbPoint
 10
-5.941616374145985E+73
 20
252.0
 30
0.0
  0
POINT
  5
B1C
330
A25
100
AcDbEntity
  8
2
  6
Continuous
 62
     1
100
AcDbPoint
 10
-5.941616374145985E+73
 20
252.0
 30
0.0
  0
POINT
  5
B1D
330
A25
100
AcDbEntity
  8
0
  6
Continuous
 62
     1
100
AcDbPoint
 10
1.269263905633295E+99
 20
-5.479536498971387E+72
 30
0.0
  0
POINT
  5
B1E
330
A25
100
AcDbEntity
  8
0
  6
Continuous
 62
     1
100
AcDbPoint
 10
1.269263905633295E+99
 20
-5.479536498971387E+72
 30
0.0
  0
LINE
  5
B1F
330
A25
100
AcDbEntity
  8
0
  6
Continuous
 62
     1
100
AcDbLine
 10
-5.941616374145985E+73
 20
42.0
 30
0.0
 11
-5.941616374145985E+73
 21
42.647047613
 31
0.0
  0
LINE
  5
B20
330
A25
100
AcDbEntity
  8
0
  6
Continuous
 62
     1
100
AcDbLine
 10
-5.941616374145985E+73
 20
42.0
 30
0.0
 11
-5.941616374145985E+73
 21
41.35295238699999
 31
0.0
  0
POINT
  5
B21
330
A25
100
AcDbEntity
  8
0
  6
Continuous
 62
     1
100
AcDbPoint
 10
1.269263905633295E+99
 20
-5.479536498971387E+72
 30
0.0
  0
POINT
  5
B22
330
A25
100
AcDbEntity
  8
0
  6
Continuous
 62
     1
100
AcDbPoint
 10
1.269263905633295E+99
 20
-5.479536498971387E+72
 30
0.0
  0
LINE
  5
B23
330
A25
100
AcDbEntity
  8
0
  6
Continuous
 62
     1
100
AcDbLine
 10
-5.941616374145985E+73
 20
42.0
 30
0.0
 11
-5.941616374145985E+73
 21
42.647047613
 31
0.0
  0
LINE
  5
B24
330
A25
100
AcDbEntity
  8
0
  6
Continuous
 62
     1
100
AcDbLine
 10
-5.941616374145985E+73
 20
42.0
 30
0.0
 11
-5.941616374145985E+73
 21
41.35295238699999
 31
0.0
  0
POINT
  5
B25
330
A25
100
AcDbEntity
  8
0
  6
Continuous
 62
     1
100
AcDbPoint
 10
1.269263905633295E+99
 20
-5.479536498971387E+72
 30
0.0
  0
POINT
  5
B26
330
A25
100
AcDbEntity
  8
0
  6
Continuous
 62
     1
100
AcDbPoint
 10
1.269263905633295E+99
 20
-5.479536498971387E+72
 30
0.0
  0
LINE
  5
B27
330
A25
100
AcDbEntity
  8
0
  6
Continuous
 62
     1
100
AcDbLine
 10
-5.941616374145985E+73
 20
42.0
 30
0.0
 11
-5.941616374145985E+73
 21
42.647047613
 31
0.0
  0
LINE
  5
B28
330
A25
100
AcDbEntity
  8
0
  6
Continuous
 62
     1
100
AcDbLine
 10
-5.941616374145985E+73
 20
42.0
 30
0.0
 11
-5.941616374145985E+73
 21
41.35295238699999
 31
0.0
  0
POINT
  5
B29
330
A25
100
AcDbEntity
  8
2
  6
Continuous
 62
     1
100
AcDbPoint
 10
1.269263905633295E+99
 20
252.0
 30
0.0
  0
POINT
  5
B2A
330
A25
100
AcDbEntity
  8
2
  6
Continuous
 62
     1
100
AcDbPoint
 10
1.269263905633295E+99
 20
252.0
 30
0.0
  0
POINT
  5
B2B
330
A25
100
AcDbEntity
  8
2
  6
Continuous
 62
     1
100
AcDbPoint
 10
-5.941616374145985E+73
 20
252.0
 30
0.0
  0
POINT
  5
B2C
330
A25
100
AcDbEntity
  8
2
  6
Continuous
 62
     1
100
AcDbPoint
 10
-5.941616374145985E+73
 20
252.0
 30
0.0
  0
POINT
  5
B2D
330
A25
100
AcDbEntity
  8
2
  6
Continuous
 62
     1
100
AcDbPoint
 10
6.282985302827068E+99
 20
-1.269263905633295E+99
 30
0.0
  0
POINT
  5
B2E
330
A25
100
AcDbEntity
  8
2
  6
Continuous
 62
     1
100
AcDbPoint
 10
6.282985302827068E+99
 20
-1.269263905633295E+99
 30
0.0
  0
POINT
  5
B2F
330
A25
100
AcDbEntity
  8
2
  6
Continuous
 62
     1
100
AcDbPoint
 10
-2.941160477983472E+62
 20
5.941616374145985E+73
 30
0.0
  0
POINT
  5
B30
330
A25
100
AcDbEntity
  8
2
  6
Continuous
 62
     1
100
AcDbPoint
 10
-2.941160477983472E+62
 20
5.941616374145985E+73
 30
0.0
  0
POINT
  5
B31
330
A25
100
AcDbEntity
  8
2
  6
Continuous
 62
     1
100
AcDbPoint
 10
6.282985302827068E+99
 20
-1.269263905633295E+99
 30
0.0
  0
POINT
  5
B32
330
A25
100
AcDbEntity
  8
2
  6
Continuous
 62
     1
100
AcDbPoint
 10
6.282985302827068E+99
 20
-1.269263905633295E+99
 30
0.0
  0
POINT
  5
B33
330
A25
100
AcDbEntity
  8
2
  6
Continuous
 62
     1
100
AcDbPoint
 10
-2.941160477983472E+62
 20
5.941616374145985E+73
 30
0.0
  0
POINT
  5
B34
330
A25
100
AcDbEntity
  8
2
  6
Continuous
 62
     1
100
AcDbPoint
 10
-2.941160477983472E+62
 20
5.941616374145985E+73
 30
0.0
  0
POINT
  5
B35
330
A25
100
AcDbEntity
  8
2
  6
Continuous
 62
     1
100
AcDbPoint
 10
1.269263905633295E+99
 20
252.0
 30
0.0
  0
POINT
  5
B36
330
A25
100
AcDbEntity
  8
2
  6
Continuous
 62
     1
100
AcDbPoint
 10
1.269263905633295E+99
 20
252.0
 30
0.0
  0
POINT
  5
B37
330
A25
100
AcDbEntity
  8
2
  6
Continuous
 62
     1
100
AcDbPoint
 10
-5.941616374145985E+73
 20
252.0
 30
0.0
  0
POINT
  5
B38
330
A25
100
AcDbEntity
  8
2
  6
Continuous
 62
     1
100
AcDbPoint
 10
-5.941616374145985E+73
 20
252.0
 30
0.0
  0
POINT
  5
B39
330
A25
100
AcDbEntity
  8
2
  6
Continuous
 62
     1
100
AcDbPoint
 10
1.269263905633295E+99
 20
252.0
 30
0.0
  0
POINT
  5
B3A
330
A25
100
AcDbEntity
  8
2
  6
Continuous
 62
     1
100
AcDbPoint
 10
1.269263905633295E+99
 20
252.0
 30
0.0
  0
POINT
  5
B3B
330
A25
100
AcDbEntity
  8
2
  6
Continuous
 62
     1
100
AcDbPoint
 10
-5.941616374145985E+73
 20
252.0
 30
0.0
  0
POINT
  5
B3C
330
A25
100
AcDbEntity
  8
2
  6
Continuous
 62
     1
100
AcDbPoint
 10
-5.941616374145985E+73
 20
252.0
 30
0.0
  0
POINT
  5
B3D
330
A25
100
AcDbEntity
  8
0
  6
Continuous
 62
     1
100
AcDbPoint
 10
1.269263905633295E+99
 20
-5.479536498971387E+72
 30
0.0
  0
POINT
  5
B3E
330
A25
100
AcDbEntity
  8
0
  6
Continuous
 62
     1
100
AcDbPoint
 10
1.269263905633295E+99
 20
-5.479536498971387E+72
 30
0.0
  0
LINE
  5
B3F
330
A25
100
AcDbEntity
  8
0
  6
Continuous
 62
     1
100
AcDbLine
 10
-5.941616374145985E+73
 20
42.0
 30
0.0
 11
-5.941616374145985E+73
 21
42.647047613
 31
0.0
  0
LINE
  5
B40
330
A25
100
AcDbEntity
  8
0
  6
Continuous
 62
     1
100
AcDbLine
 10
-5.941616374145985E+73
 20
42.0
 30
0.0
 11
-5.941616374145985E+73
 21
41.35295238699999
 31
0.0
  0
POINT
  5
B41
330
A25
100
AcDbEntity
  8
0
  6
Continuous
 62
     1
100
AcDbPoint
 10
1.269263905633295E+99
 20
-5.479536498971387E+72
 30
0.0
  0
POINT
  5
B42
330
A25
100
AcDbEntity
  8
0
  6
Continuous
 62
     1
100
AcDbPoint
 10
1.269263905633295E+99
 20
-5.479536498971387E+72
 30
0.0
  0
LINE
  5
B43
330
A25
100
AcDbEntity
  8
0
  6
Continuous
 62
     1
100
AcDbLine
 10
-5.941616374145985E+73
 20
42.0
 30
0.0
 11
-5.941616374145985E+73
 21
42.647047613
 31
0.0
  0
LINE
  5
B44
330
A25
100
AcDbEntity
  8
0
  6
Continuous
 62
     1
100
AcDbLine
 10
-5.941616374145985E+73
 20
42.0
 30
0.0
 11
-5.941616374145985E+73
 21
41.35295238699999
 31
0.0
  0
LINE
  5
B47
330
A25
100
AcDbEntity
  8
0
  6
Continuous
 62
     4
100
AcDbLine
 10
381.6
 20
197.5999999999999
 30
0.0
 11
395.3
 21
197.5999999999999
 31
0.0
  0
LINE
  5
B48
330
A25
100
AcDbEntity
  8
0
  6
Continuous
 62
     4
100
AcDbLine
 10
394.2999999999996
 20
197.5999999999999
 30
0.0
 11
393.834125719
 21
195.861333513
 31
0.0
  0
LINE
  5
B49
330
A25
100
AcDbEntity
  8
0
  6
Continuous
 62
     4
100
AcDbLine
 10
394.2999999999996
 20
197.5999999999999
 30
0.0
 11
394.7658742809999
 21
195.861333513
 31
0.0
  0
LINE
  5
B4A
330
A25
100
AcDbEntity
  8
0
  6
Continuous
 62
     4
100
AcDbLine
 10
394.2999999999996
 20
197.5999999999999
 30
0.0
 11
394.2999999999996
 21
152.5999999999999
 31
0.0
  0
LINE
  5
B4B
330
A25
100
AcDbEntity
  8
0
  6
Continuous
 62
     4
100
AcDbLine
 10
394.2999999999996
 20
152.5999999999999
 30
0.0
 11
394.7658742809999
 21
154.338666487
 31
0.0
  0
LINE
  5
B4C
330
A25
100
AcDbEntity
  8
0
  6
Continuous
 62
     4
100
AcDbLine
 10
394.2999999999996
 20
152.5999999999999
 30
0.0
 11
393.834125719
 21
154.338666487
 31
0.0
  0
LINE
  5
B4D
330
A25
100
AcDbEntity
  8
0
  6
Continuous
 62
     4
100
AcDbLine
 10
381.6
 20
152.5999999999999
 30
0.0
 11
395.3
 21
152.5999999999999
 31
0.0
  0
TEXT
  5
B4E
330
A25
100
AcDbEntity
  8
0
  6
Continuous
 62
     4
100
AcDbText
 10
393.3
 20
173.0999999999999
 30
0.0
 40
2.0
  1
45
 50
90.0
  7
KANJI7
100
AcDbText
  0
LINE
  5
B4F
330
A25
100
AcDbEntity
  8
0
  6
Continuous
 62
     4
100
AcDbLine
 10
287.3
 20
150.3
 30
0.0
 11
287.3
 21
131.6
 31
0.0
  0
LINE
  5
B50
330
A25
100
AcDbEntity
  8
0
  6
Continuous
 62
     4
100
AcDbLine
 10
287.3
 20
132.6
 30
0.0
 11
289.0386664869997
 21
132.134125719
 31
0.0
  0
LINE
  5
B51
330
A25
100
AcDbEntity
  8
0
  6
Continuous
 62
     4
100
AcDbLine
 10
287.3
 20
132.6
 30
0.0
 11
289.0386664869997
 21
133.0658742809999
 31
0.0
  0
LINE
  5
B52
330
A25
100
AcDbEntity
  8
0
  6
Continuous
 62
     4
100
AcDbLine
 10
287.3
 20
132.6
 30
0.0
 11
379.3
 21
132.6
 31
0.0
  0
LINE
  5
B53
330
A25
100
AcDbEntity
  8
0
  6
Continuous
 62
     4
100
AcDbLine
 10
379.3
 20
132.6
 30
0.0
 11
377.561333513
 21
133.0658742809999
 31
0.0
  0
LINE
  5
B54
330
A25
100
AcDbEntity
  8
0
  6
Continuous
 62
     4
100
AcDbLine
 10
379.3
 20
132.6
 30
0.0
 11
377.561333513
 21
132.134125719
 31
0.0
  0
LINE
  5
B55
330
A25
100
AcDbEntity
  8
0
  6
Continuous
 62
     4
100
AcDbLine
 10
379.3
 20
150.3
 30
0.0
 11
379.3
 21
131.6
 31
0.0
  0
TEXT
  5
B56
330
A25
100
AcDbEntity
  8
0
  6
Continuous
 62
     4
100
AcDbText
 10
331.3
 20
133.6
 30
0.0
 40
2.0
  1
92
  7
KANJI7
100
AcDbText
  0
TEXT
  5
B57
330
A25
100
AcDbEntity
  8
0
  6
Continuous
 62
     4
100
AcDbText
 10
335.1999999999998
 20
134.4999999999996
 30
0.0
 40
1.5
  1
＋0.8
  7
KANJI8
100
AcDbText
  0
TEXT
  5
B58
330
A25
100
AcDbEntity
  8
0
  6
Continuous
 62
     4
100
AcDbText
 10
335.1999999999998
 20
132.9
 30
0.0
 40
1.5
  1
－0
  7
KANJI8
100
AcDbText
  0
TEXT
  5
B59
330
A25
100
AcDbEntity
  8
0
  6
Continuous
 62
     4
100
AcDbText
 10
392.3
 20
177.2
 30
0.0
 40
1.5
  1
＋0.6
 50
90.0
  7
KANJI8
100
AcDbText
  0
TEXT
  5
B5A
330
A25
100
AcDbEntity
  8
0
  6
Continuous
 62
     4
100
AcDbText
 10
393.8
 20
177.2
 30
0.0
 40
1.5
  1
－0
 50
90.0
  7
KANJI8
100
AcDbText
  0
LINE
  5
B5B
330
A25
100
AcDbEntity
  8
0
  6
Continuous
 62
     4
100
AcDbLine
 10
150.3
 20
172.0
 30
0.0
 11
162.0
 21
172.0
 31
0.0
  0
LINE
  5
B5C
330
A25
100
AcDbEntity
  8
0
  6
Continuous
 62
     4
100
AcDbLine
 10
161.0
 20
172.0
 30
0.0
 11
160.534125719
 21
170.2613335129998
 31
0.0
  0
LINE
  5
B5D
330
A25
100
AcDbEntity
  8
0
  6
Continuous
 62
     4
100
AcDbLine
 10
161.0
 20
172.0
 30
0.0
 11
161.465874281
 21
170.2613335129998
 31
0.0
  0
LINE
  5
B5E
330
A25
100
AcDbEntity
  8
0
  6
Continuous
 62
     4
100
AcDbLine
 10
161.0
 20
169.3
 30
0.0
 11
161.0
 21
172.0
 31
0.0
  0
LINE
  5
B5F
330
A25
100
AcDbEntity
  8
0
  6
Continuous
 62
     4
100
AcDbLine
 10
161.0
 20
172.0
 30
0.0
 11
161.0
 21
175.0
 31
0.0
  0
LINE
  5
B60
330
A25
100
AcDbEntity
  8
0
  6
Continuous
 62
     4
100
AcDbLine
 10
161.0
 20
175.0
 30
0.0
 11
161.0
 21
179.6999999999999
 31
0.0
  0
LINE
  5
B61
330
A25
100
AcDbEntity
  8
0
  6
Continuous
 62
     4
100
AcDbLine
 10
161.0
 20
175.0
 30
0.0
 11
161.465874281
 21
176.738666487
 31
0.0
  0
LINE
  5
B62
330
A25
100
AcDbEntity
  8
0
  6
Continuous
 62
     4
100
AcDbLine
 10
161.0
 20
175.0
 30
0.0
 11
160.534125719
 21
176.738666487
 31
0.0
  0
LINE
  5
B63
330
A25
100
AcDbEntity
  8
0
  6
Continuous
 62
     4
100
AcDbLine
 10
158.3
 20
175.0
 30
0.0
 11
162.0
 21
175.0
 31
0.0
  0
TEXT
  5
B64
330
A25
100
AcDbEntity
  8
0
  6
Continuous
 62
     4
100
AcDbText
 10
160.0
 20
177.6999999999999
 30
0.0
 40
2.0
  1
3
 50
90.0
  7
KANJI7
100
AcDbText
  0
LINE
  5
B65
330
A25
100
AcDbEntity
  8
0
  6
Continuous
 62
     1
100
AcDbLine
 10
287.3
 20
197.5999999999999
 30
0.0
 11
287.3
 21
152.5999999999999
 31
0.0
  0
LINE
  5
B66
330
A25
100
AcDbEntity
  8
0
  6
Continuous
 62
     1
100
AcDbLine
 10
379.3
 20
197.5999999999999
 30
0.0
 11
287.3
 21
197.5999999999999
 31
0.0
  0
LINE
  5
B67
330
A25
100
AcDbEntity
  8
0
  6
Continuous
 62
     1
100
AcDbLine
 10
287.3
 20
152.5999999999999
 30
0.0
 11
379.3
 21
152.5999999999999
 31
0.0
  0
LINE
  5
B68
330
A25
100
AcDbEntity
  8
0
  6
Continuous
 62
     1
100
AcDbLine
 10
379.3
 20
152.5999999999999
 30
0.0
 11
379.3
 21
197.5999999999999
 31
0.0
  0
LINE
  5
B69
330
A25
100
AcDbEntity
  8
0
  6
Continuous
 62
     1
100
AcDbLine
 10
160.0
 20
59.0
 30
0.0
 11
160.0
 21
107.0
 31
0.0
  0
LINE
  5
B6A
330
A25
100
AcDbEntity
  8
0
  6
Continuous
 62
     1
100
AcDbLine
 10
157.0
 20
67.5
 30
0.0
 11
157.0
 21
98.50000000000001
 31
0.0
  0
LINE
  5
B6B
330
A25
100
AcDbEntity
  8
0
  6
Continuous
 62
     1
100
AcDbLine
 10
64.0
 20
107.0
 30
0.0
 11
64.0
 21
59.0
 31
0.0
  0
LINE
  5
B6C
330
A25
100
AcDbEntity
  8
0
  6
Continuous
 62
     1
100
AcDbLine
 10
112.0
 20
98.50000000000001
 30
0.0
 11
67.0
 21
98.50000000000001
 31
0.0
  0
LINE
  5
B6D
330
A25
100
AcDbEntity
  8
0
  6
Continuous
 62
     1
100
AcDbLine
 10
157.0
 20
67.5
 30
0.0
 11
67.0
 21
67.5
 31
0.0
  0
LINE
  5
B6E
330
A25
100
AcDbEntity
  8
0
  6
Continuous
 62
     1
100
AcDbLine
 10
157.0
 20
69.0
 30
0.0
 11
67.0
 21
69.0
 31
0.0
  0
POINT
  5
B6F
330
A25
100
AcDbEntity
  8
0
  6
Continuous
 62
     1
100
AcDbPoint
 10
67.0
 20
69.0
 30
0.0
  0
LINE
  5
B70
330
A25
100
AcDbEntity
  8
0
  6
Continuous
 62
     1
100
AcDbLine
 10
67.0
 20
98.50000000000001
 30
0.0
 11
67.0
 21
67.5
 31
0.0
  0
LINE
  5
B71
330
A25
100
AcDbEntity
  8
0
  6
Continuous
 62
     1
100
AcDbLine
 10
157.0
 20
69.5
 30
0.0
 11
67.0
 21
69.5
 31
0.0
  0
LINE
  5
B72
330
A25
100
AcDbEntity
  8
0
  6
Continuous
 62
     1
100
AcDbLine
 10
64.0
 20
59.0
 30
0.0
 11
160.0
 21
59.0
 31
0.0
  0
LINE
  5
B73
330
A25
100
AcDbEntity
  8
0
  6
Continuous
 62
     1
100
AcDbLine
 10
64.0
 20
59.5
 30
0.0
 11
160.0
 21
59.5
 31
0.0
  0
LINE
  5
B74
330
A25
100
AcDbEntity
  8
0
  6
Continuous
 62
     1
100
AcDbLine
 10
102.4999999999999
 20
83.54999999999998
 30
0.0
 11
100.2
 21
83.54999999999998
 31
0.0
  0
LINE
  5
B75
330
A25
100
AcDbEntity
  8
0
  6
Continuous
 62
     1
100
AcDbLine
 10
100.0999999999997
 20
82.04999999999998
 30
0.0
 11
105.0999999999997
 21
82.04999999999998
 31
0.0
  0
LINE
  5
B76
330
A25
100
AcDbEntity
  8
0
  6
Continuous
 62
     1
100
AcDbLine
 10
105.0999999999997
 20
83.75
 30
0.0
 11
106.4
 21
82.75
 31
0.0
  0
LINE
  5
B77
330
A25
100
AcDbEntity
  8
0
  6
Continuous
 62
     1
100
AcDbLine
 10
105.0
 20
83.45
 30
0.0
 11
106.2999999999999
 21
82.45
 31
0.0
  0
LINE
  5
B78
330
A25
100
AcDbEntity
  8
0
  6
Continuous
 62
     1
100
AcDbLine
 10
106.2999999999999
 20
82.45
 30
0.0
 11
104.9
 21
82.04999999999998
 31
0.0
  0
LINE
  5
B79
330
A25
100
AcDbEntity
  8
0
  6
Continuous
 62
     1
100
AcDbLine
 10
104.9
 20
81.75
 30
0.0
 11
106.4
 21
82.15000000000001
 31
0.0
  0
LINE
  5
B7A
330
A25
100
AcDbEntity
  8
0
  6
Continuous
 62
     1
100
AcDbLine
 10
100.0999999999997
 20
83.54999999999998
 30
0.0
 11
98.8
 21
82.94999999999998
 31
0.0
  0
LINE
  5
B7B
330
A25
100
AcDbEntity
  8
0
  6
Continuous
 62
     1
100
AcDbLine
 10
98.8
 20
82.94999999999998
 30
0.0
 11
100.0
 21
82.04999999999998
 31
0.0
  0
LINE
  5
B7C
330
A25
100
AcDbEntity
  8
0
  6
Continuous
 62
     1
100
AcDbLine
 10
99.8
 20
81.84999999999998
 30
0.0
 11
98.50000000000001
 21
82.75
 31
0.0
  0
LINE
  5
B7D
330
A25
100
AcDbEntity
  8
0
  6
Continuous
 62
     1
100
AcDbLine
 10
98.59999999999999
 20
83.15000000000003
 30
0.0
 11
100.0999999999997
 21
83.95000000000001
 31
0.0
  0
LINE
  5
B7E
330
A25
100
AcDbEntity
  8
0
  6
Continuous
 62
     1
100
AcDbLine
 10
104.9
 20
83.54999999999998
 30
0.0
 11
102.6
 21
83.54999999999998
 31
0.0
  0
POINT
  5
B7F
330
A25
100
AcDbEntity
  8
0
  6
Continuous
 62
     1
100
AcDbPoint
 10
106.0
 20
89.84999999999997
 30
0.0
  0
LINE
  5
B80
330
A25
100
AcDbEntity
  8
0
  6
Continuous
 62
     1
100
AcDbLine
 10
105.6999999999999
 20
88.34999999999999
 30
0.0
 11
106.6999999999999
 21
89.54999999999998
 31
0.0
  0
LINE
  5
B81
330
A25
100
AcDbEntity
  8
0
  6
Continuous
 62
     1
100
AcDbLine
 10
107.0999999999997
 20
89.45
 30
0.0
 11
105.9
 21
87.94999999999996
 31
0.0
  0
LINE
  5
B82
330
A25
100
AcDbEntity
  8
0
  6
Continuous
 62
     1
100
AcDbLine
 10
101.0
 20
88.45
 30
0.0
 11
100.0999999999997
 21
89.54999999999998
 31
0.0
  0
LINE
  5
B83
330
A25
100
AcDbEntity
  8
0
  6
Continuous
 62
     1
100
AcDbLine
 10
100.8
 20
88.04999999999997
 30
0.0
 11
99.8
 21
89.34999999999998
 31
0.0
  0
LINE
  5
B84
330
A25
100
AcDbEntity
  8
0
  6
Continuous
 62
     1
100
AcDbLine
 10
100.159375
 20
84.12499999999999
 30
0.0
 11
100.7718749999996
 21
88.025
 31
0.0
  0
LINE
  5
B85
330
A25
100
AcDbEntity
  8
0
  6
Continuous
 62
     1
100
AcDbLine
 10
99.7
 20
89.321428571
 30
0.0
 11
99.50000000000001
 21
89.15
 31
0.0
  0
LINE
  5
B86
330
A25
100
AcDbEntity
  8
0
  6
Continuous
 62
     1
100
AcDbLine
 10
100.2
 20
89.74999999999999
 30
0.0
 11
100.0999999999997
 21
89.66428571399998
 31
0.0
  0
LINE
  5
B87
330
A25
100
AcDbEntity
  8
0
  6
Continuous
 62
     1
100
AcDbLine
 10
98.534375
 20
83.125
 30
0.0
 11
99.39687499999999
 21
89.02500000000001
 31
0.0
  0
LINE
  5
B88
330
A25
100
AcDbEntity
  8
0
  6
Continuous
 62
     1
100
AcDbLine
 10
101.0999999999997
 20
88.34999999999999
 30
0.0
 11
105.8
 21
88.34999999999999
 31
0.0
  0
LINE
  5
B89
330
A25
100
AcDbEntity
  8
0
  6
Continuous
 62
     1
100
AcDbLine
 10
105.7468749999999
 20
87.825
 30
0.0
 11
105.1093749999999
 21
83.72499999999998
 31
0.0
  0
LINE
  5
B8A
330
A25
100
AcDbEntity
  8
0
  6
Continuous
 62
     1
100
AcDbLine
 10
107.2
 20
89.464285714
 30
0.0
 11
107.4
 21
89.34999999999998
 31
0.0
  0
LINE
  5
B8B
330
A25
100
AcDbEntity
  8
0
  6
Continuous
 62
     1
100
AcDbLine
 10
106.6999999999999
 20
89.74999999999999
 30
0.0
 11
106.8
 21
89.69285714299999
 31
0.0
  0
LINE
  5
B8C
330
A25
100
AcDbEntity
  8
0
  6
Continuous
 62
     1
100
AcDbLine
 10
100.2999999999999
 20
89.84999999999997
 30
0.0
 11
106.6
 21
89.84999999999997
 31
0.0
  0
LINE
  5
B8D
330
A25
100
AcDbEntity
  8
0
  6
Continuous
 62
     1
100
AcDbLine
 10
107.434375
 20
89.325
 30
0.0
 11
106.484375
 21
82.72499999999999
 31
0.0
  0
LINE
  5
B8E
330
A25
100
AcDbEntity
  8
0
  6
Continuous
 62
     1
100
AcDbLine
 10
89.50000000000001
 20
83.54999999999998
 30
0.0
 11
87.2
 21
83.54999999999998
 31
0.0
  0
LINE
  5
B8F
330
A25
100
AcDbEntity
  8
0
  6
Continuous
 62
     1
100
AcDbLine
 10
87.09999999999999
 20
82.04999999999998
 30
0.0
 11
92.09999999999999
 21
82.04999999999998
 31
0.0
  0
LINE
  5
B90
330
A25
100
AcDbEntity
  8
0
  6
Continuous
 62
     1
100
AcDbLine
 10
92.09999999999999
 20
83.75
 30
0.0
 11
93.40000000000001
 21
82.75
 31
0.0
  0
LINE
  5
B91
330
A25
100
AcDbEntity
  8
0
  6
Continuous
 62
     1
100
AcDbLine
 10
92.0
 20
83.45
 30
0.0
 11
93.3
 21
82.45
 31
0.0
  0
LINE
  5
B92
330
A25
100
AcDbEntity
  8
0
  6
Continuous
 62
     1
100
AcDbLine
 10
93.3
 20
82.45
 30
0.0
 11
91.90000000000001
 21
82.04999999999998
 31
0.0
  0
LINE
  5
B93
330
A25
100
AcDbEntity
  8
0
  6
Continuous
 62
     1
100
AcDbLine
 10
91.90000000000001
 20
81.75
 30
0.0
 11
93.40000000000001
 21
82.15000000000001
 31
0.0
  0
LINE
  5
B94
330
A25
100
AcDbEntity
  8
0
  6
Continuous
 62
     1
100
AcDbLine
 10
91.90000000000001
 20
83.54999999999998
 30
0.0
 11
89.59999999999999
 21
83.54999999999998
 31
0.0
  0
LINE
  5
B95
330
A25
100
AcDbEntity
  8
0
  6
Continuous
 62
     1
100
AcDbLine
 10
94.1
 20
89.45
 30
0.0
 11
92.9
 21
87.94999999999996
 31
0.0
  0
LINE
  5
B96
330
A25
100
AcDbEntity
  8
0
  6
Continuous
 62
     1
100
AcDbLine
 10
92.746875
 20
87.825
 30
0.0
 11
92.109375
 21
83.72499999999998
 31
0.0
  0
LINE
  5
B97
330
A25
100
AcDbEntity
  8
0
  6
Continuous
 62
     1
100
AcDbLine
 10
94.19999999999999
 20
89.464285714
 30
0.0
 11
94.40000000000001
 21
89.34999999999998
 31
0.0
  0
LINE
  5
B98
330
A25
100
AcDbEntity
  8
0
  6
Continuous
 62
     1
100
AcDbLine
 10
94.43437499999999
 20
89.325
 30
0.0
 11
93.48437500000001
 21
82.72499999999999
 31
0.0
  0
POINT
  5
B99
330
A25
100
AcDbEntity
  8
0
  6
Continuous
 62
     1
100
AcDbPoint
 10
99.0
 20
75.84999999999998
 30
0.0
  0
LINE
  5
B9A
330
A25
100
AcDbEntity
  8
0
  6
Continuous
 62
     1
100
AcDbLine
 10
104.2
 20
77.54999999999999
 30
0.0
 11
105.2999999999999
 21
76.45
 31
0.0
  0
LINE
  5
B9B
330
A25
100
AcDbEntity
  8
0
  6
Continuous
 62
     1
100
AcDbLine
 10
104.0
 20
77.34999999999998
 30
0.0
 11
105.0999999999997
 21
76.25
 31
0.0
  0
LINE
  5
B9C
330
A25
100
AcDbEntity
  8
0
  6
Continuous
 62
     1
100
AcDbLine
 10
99.20000000000001
 20
77.54999999999999
 30
0.0
 11
97.80000000000001
 21
76.54999999999998
 31
0.0
  0
LINE
  5
B9D
330
A25
100
AcDbEntity
  8
0
  6
Continuous
 62
     1
100
AcDbLine
 10
98.0
 20
76.34999999999998
 30
0.0
 11
99.20000000000001
 21
77.25
 31
0.0
  0
LINE
  5
B9E
330
A25
100
AcDbEntity
  8
0
  6
Continuous
 62
     1
100
AcDbLine
 10
97.6125
 20
76.75
 30
0.0
 11
98.50000000000001
 21
82.84999999999998
 31
0.0
  0
LINE
  5
B9F
330
A25
100
AcDbEntity
  8
0
  6
Continuous
 62
     1
100
AcDbLine
 10
97.93333333299999
 20
76.25
 30
0.0
 11
98.2
 21
75.84999999999998
 31
0.0
  0
LINE
  5
BA0
330
A25
100
AcDbEntity
  8
0
  6
Continuous
 62
     1
100
AcDbLine
 10
97.59999999999999
 20
76.75
 30
0.0
 11
97.80000000000001
 21
76.45
 31
0.0
  0
LINE
  5
BA1
330
A25
100
AcDbEntity
  8
0
  6
Continuous
 62
     1
100
AcDbLine
 10
104.0
 20
77.34999999999998
 30
0.0
 11
99.20000000000001
 21
77.34999999999998
 31
0.0
  0
LINE
  5
BA2
330
A25
100
AcDbEntity
  8
0
  6
Continuous
 62
     1
100
AcDbLine
 10
105.2999999999999
 20
76.394444444
 30
0.0
 11
105.4999999999999
 21
76.54999999999998
 31
0.0
  0
LINE
  5
BA3
330
A25
100
AcDbEntity
  8
0
  6
Continuous
 62
     1
100
AcDbLine
 10
104.6
 20
75.84999999999998
 30
0.0
 11
105.0999999999997
 21
76.23888888899998
 31
0.0
  0
LINE
  5
BA4
330
A25
100
AcDbEntity
  8
0
  6
Continuous
 62
     1
100
AcDbLine
 10
104.6
 20
75.84999999999998
 30
0.0
 11
98.1
 21
75.84999999999998
 31
0.0
  0
LINE
  5
BA5
330
A25
100
AcDbEntity
  8
0
  6
Continuous
 62
     1
100
AcDbLine
 10
106.409375
 20
82.125
 30
0.0
 11
105.5843749999997
 21
76.525
 31
0.0
  0
LINE
  5
BA6
330
A25
100
AcDbEntity
  8
0
  6
Continuous
 62
     1
100
AcDbLine
 10
91.2
 20
77.54999999999999
 30
0.0
 11
92.3
 21
76.45
 31
0.0
  0
LINE
  5
BA7
330
A25
100
AcDbEntity
  8
0
  6
Continuous
 62
     1
100
AcDbLine
 10
92.3
 20
76.394444444
 30
0.0
 11
92.5
 21
76.54999999999998
 31
0.0
  0
LINE
  5
BA8
330
A25
100
AcDbEntity
  8
0
  6
Continuous
 62
     1
100
AcDbLine
 10
93.409375
 20
82.125
 30
0.0
 11
92.58437499999999
 21
76.525
 31
0.0
  0
LINE
  5
BA9
330
A25
100
AcDbEntity
  8
0
  6
Continuous
 62
     1
100
AcDbLine
 10
91.75
 20
81.59999999999998
 30
0.0
 11
91.25
 21
77.59999999999998
 31
0.0
  0
LINE
  5
BAA
330
A25
100
AcDbEntity
  8
0
  6
Continuous
 62
     1
100
AcDbLine
 10
99.25
 20
77.59999999999998
 30
0.0
 11
99.75000000000001
 21
81.59999999999998
 31
0.0
  0
LINE
  5
BAB
330
A25
100
AcDbEntity
  8
0
  6
Continuous
 62
     1
100
AcDbLine
 10
104.2499999999999
 20
77.59999999999998
 30
0.0
 11
104.75
 21
81.59999999999998
 31
0.0
  0
LINE
  5
BAC
330
A25
100
AcDbEntity
  8
0
  6
Continuous
 62
     1
100
AcDbLine
 10
87.09999999999999
 20
83.54999999999998
 30
0.0
 11
85.79999999999998
 21
82.94999999999998
 31
0.0
  0
LINE
  5
BAD
330
A25
100
AcDbEntity
  8
0
  6
Continuous
 62
     1
100
AcDbLine
 10
85.79999999999998
 20
82.94999999999998
 30
0.0
 11
87.0
 21
82.04999999999998
 31
0.0
  0
LINE
  5
BAE
330
A25
100
AcDbEntity
  8
0
  6
Continuous
 62
     1
100
AcDbLine
 10
128.4999999999998
 20
83.54999999999998
 30
0.0
 11
126.2
 21
83.54999999999998
 31
0.0
  0
LINE
  5
BAF
330
A25
100
AcDbEntity
  8
0
  6
Continuous
 62
     1
100
AcDbLine
 10
126.0999999999997
 20
82.04999999999998
 30
0.0
 11
131.0999999999999
 21
82.04999999999998
 31
0.0
  0
LINE
  5
BB0
330
A25
100
AcDbEntity
  8
0
  6
Continuous
 62
     1
100
AcDbLine
 10
131.0999999999999
 20
83.75
 30
0.0
 11
132.4
 21
82.75
 31
0.0
  0
LINE
  5
BB1
330
A25
100
AcDbEntity
  8
0
  6
Continuous
 62
     1
100
AcDbLine
 10
131.0
 20
83.45
 30
0.0
 11
132.3
 21
82.45
 31
0.0
  0
LINE
  5
BB2
330
A25
100
AcDbEntity
  8
0
  6
Continuous
 62
     1
100
AcDbLine
 10
132.3
 20
82.45
 30
0.0
 11
130.9
 21
82.04999999999998
 31
0.0
  0
LINE
  5
BB3
330
A25
100
AcDbEntity
  8
0
  6
Continuous
 62
     1
100
AcDbLine
 10
130.9
 20
81.75
 30
0.0
 11
132.4
 21
82.15000000000001
 31
0.0
  0
LINE
  5
BB4
330
A25
100
AcDbEntity
  8
0
  6
Continuous
 62
     1
100
AcDbLine
 10
126.0999999999997
 20
83.54999999999998
 30
0.0
 11
124.7999999999999
 21
82.94999999999998
 31
0.0
  0
LINE
  5
BB5
330
A25
100
AcDbEntity
  8
0
  6
Continuous
 62
     1
100
AcDbLine
 10
124.7999999999999
 20
82.94999999999998
 30
0.0
 11
126.0
 21
82.04999999999998
 31
0.0
  0
LINE
  5
BB6
330
A25
100
AcDbEntity
  8
0
  6
Continuous
 62
     1
100
AcDbLine
 10
125.8
 20
81.84999999999998
 30
0.0
 11
124.5
 21
82.75
 31
0.0
  0
LINE
  5
BB7
330
A25
100
AcDbEntity
  8
0
  6
Continuous
 62
     1
100
AcDbLine
 10
124.5999999999996
 20
83.15000000000003
 30
0.0
 11
126.0999999999997
 21
83.95000000000001
 31
0.0
  0
LINE
  5
BB8
330
A25
100
AcDbEntity
  8
0
  6
Continuous
 62
     1
100
AcDbLine
 10
130.9
 20
83.54999999999998
 30
0.0
 11
128.6
 21
83.54999999999998
 31
0.0
  0
POINT
  5
BB9
330
A25
100
AcDbEntity
  8
0
  6
Continuous
 62
     1
100
AcDbPoint
 10
132.0
 20
89.84999999999997
 30
0.0
  0
LINE
  5
BBA
330
A25
100
AcDbEntity
  8
0
  6
Continuous
 62
     1
100
AcDbLine
 10
133.0999999999999
 20
89.45
 30
0.0
 11
131.9
 21
87.94999999999996
 31
0.0
  0
LINE
  5
BBB
330
A25
100
AcDbEntity
  8
0
  6
Continuous
 62
     1
100
AcDbLine
 10
126.8
 20
88.04999999999997
 30
0.0
 11
125.8
 21
89.34999999999998
 31
0.0
  0
LINE
  5
BBC
330
A25
100
AcDbEntity
  8
0
  6
Continuous
 62
     1
100
AcDbLine
 10
126.159375
 20
84.12499999999999
 30
0.0
 11
126.771875
 21
88.025
 31
0.0
  0
LINE
  5
BBD
330
A25
100
AcDbEntity
  8
0
  6
Continuous
 62
     1
100
AcDbLine
 10
125.7
 20
89.321428571
 30
0.0
 11
125.5
 21
89.15
 31
0.0
  0
LINE
  5
BBE
330
A25
100
AcDbEntity
  8
0
  6
Continuous
 62
     1
100
AcDbLine
 10
126.2
 20
89.74999999999999
 30
0.0
 11
126.0999999999997
 21
89.66428571399998
 31
0.0
  0
LINE
  5
BBF
330
A25
100
AcDbEntity
  8
0
  6
Continuous
 62
     1
100
AcDbLine
 10
124.5343749999999
 20
83.125
 30
0.0
 11
125.396875
 21
89.02500000000001
 31
0.0
  0
LINE
  5
BC0
330
A25
100
AcDbEntity
  8
0
  6
Continuous
 62
     1
100
AcDbLine
 10
131.7468749999999
 20
87.825
 30
0.0
 11
131.1093749999996
 21
83.72499999999998
 31
0.0
  0
LINE
  5
BC1
330
A25
100
AcDbEntity
  8
0
  6
Continuous
 62
     1
100
AcDbLine
 10
133.1999999999995
 20
89.464285714
 30
0.0
 11
133.4
 21
89.34999999999998
 31
0.0
  0
LINE
  5
BC2
330
A25
100
AcDbEntity
  8
0
  6
Continuous
 62
     1
100
AcDbLine
 10
126.2999999999999
 20
89.84999999999997
 30
0.0
 11
132.6
 21
89.84999999999997
 31
0.0
  0
LINE
  5
BC3
330
A25
100
AcDbEntity
  8
0
  6
Continuous
 62
     1
100
AcDbLine
 10
133.4343749999999
 20
89.325
 30
0.0
 11
132.484375
 21
82.72499999999999
 31
0.0
  0
LINE
  5
BC4
330
A25
100
AcDbEntity
  8
0
  6
Continuous
 62
     1
100
AcDbLine
 10
118.1
 20
83.75
 30
0.0
 11
119.4
 21
82.75
 31
0.0
  0
LINE
  5
BC5
330
A25
100
AcDbEntity
  8
0
  6
Continuous
 62
     1
100
AcDbLine
 10
118.0
 20
83.45
 30
0.0
 11
119.3
 21
82.45
 31
0.0
  0
LINE
  5
BC6
330
A25
100
AcDbEntity
  8
0
  6
Continuous
 62
     1
100
AcDbLine
 10
119.3
 20
82.45
 30
0.0
 11
117.9
 21
82.04999999999998
 31
0.0
  0
LINE
  5
BC7
330
A25
100
AcDbEntity
  8
0
  6
Continuous
 62
     1
100
AcDbLine
 10
117.9
 20
81.75
 30
0.0
 11
119.4
 21
82.15000000000001
 31
0.0
  0
LINE
  5
BC8
330
A25
100
AcDbEntity
  8
0
  6
Continuous
 62
     1
100
AcDbLine
 10
117.9
 20
83.54999999999998
 30
0.0
 11
115.5999999999997
 21
83.54999999999998
 31
0.0
  0
POINT
  5
BC9
330
A25
100
AcDbEntity
  8
0
  6
Continuous
 62
     1
100
AcDbPoint
 10
119.0
 20
89.84999999999997
 30
0.0
  0
LINE
  5
BCA
330
A25
100
AcDbEntity
  8
0
  6
Continuous
 62
     1
100
AcDbLine
 10
118.7
 20
88.34999999999999
 30
0.0
 11
119.7
 21
89.54999999999998
 31
0.0
  0
LINE
  5
BCB
330
A25
100
AcDbEntity
  8
0
  6
Continuous
 62
     1
100
AcDbLine
 10
120.1
 20
89.45
 30
0.0
 11
118.9
 21
87.94999999999996
 31
0.0
  0
LINE
  5
BCC
330
A25
100
AcDbEntity
  8
0
  6
Continuous
 62
     1
100
AcDbLine
 10
114.1
 20
88.34999999999999
 30
0.0
 11
118.7999999999999
 21
88.34999999999999
 31
0.0
  0
LINE
  5
BCD
330
A25
100
AcDbEntity
  8
0
  6
Continuous
 62
     1
100
AcDbLine
 10
118.746875
 20
87.825
 30
0.0
 11
118.109375
 21
83.72499999999998
 31
0.0
  0
LINE
  5
BCE
330
A25
100
AcDbEntity
  8
0
  6
Continuous
 62
     1
100
AcDbLine
 10
120.1999999999999
 20
89.464285714
 30
0.0
 11
120.4
 21
89.34999999999998
 31
0.0
  0
LINE
  5
BCF
330
A25
100
AcDbEntity
  8
0
  6
Continuous
 62
     1
100
AcDbLine
 10
119.7
 20
89.74999999999999
 30
0.0
 11
119.7999999999999
 21
89.69285714299999
 31
0.0
  0
LINE
  5
BD0
330
A25
100
AcDbEntity
  8
0
  6
Continuous
 62
     1
100
AcDbLine
 10
120.434375
 20
89.325
 30
0.0
 11
119.4843749999999
 21
82.72499999999999
 31
0.0
  0
POINT
  5
BD1
330
A25
100
AcDbEntity
  8
0
  6
Continuous
 62
     1
100
AcDbPoint
 10
125.0
 20
75.84999999999998
 30
0.0
  0
LINE
  5
BD2
330
A25
100
AcDbEntity
  8
0
  6
Continuous
 62
     1
100
AcDbLine
 10
130.1999999999999
 20
77.54999999999999
 30
0.0
 11
131.3
 21
76.45
 31
0.0
  0
LINE
  5
BD3
330
A25
100
AcDbEntity
  8
0
  6
Continuous
 62
     1
100
AcDbLine
 10
130.0
 20
77.34999999999998
 30
0.0
 11
131.0999999999999
 21
76.25
 31
0.0
  0
LINE
  5
BD4
330
A25
100
AcDbEntity
  8
0
  6
Continuous
 62
     1
100
AcDbLine
 10
125.2
 20
77.54999999999999
 30
0.0
 11
123.7999999999999
 21
76.54999999999998
 31
0.0
  0
LINE
  5
BD5
330
A25
100
AcDbEntity
  8
0
  6
Continuous
 62
     1
100
AcDbLine
 10
124.0
 20
76.34999999999998
 30
0.0
 11
125.2
 21
77.25
 31
0.0
  0
LINE
  5
BD6
330
A25
100
AcDbEntity
  8
0
  6
Continuous
 62
     1
100
AcDbLine
 10
123.6124999999999
 20
76.75
 30
0.0
 11
124.5
 21
82.84999999999998
 31
0.0
  0
LINE
  5
BD7
330
A25
100
AcDbEntity
  8
0
  6
Continuous
 62
     1
100
AcDbLine
 10
123.933333333
 20
76.25
 30
0.0
 11
124.1999999999999
 21
75.84999999999998
 31
0.0
  0
LINE
  5
BD8
330
A25
100
AcDbEntity
  8
0
  6
Continuous
 62
     1
100
AcDbLine
 10
123.5999999999996
 20
76.75
 30
0.0
 11
123.7999999999999
 21
76.45
 31
0.0
  0
LINE
  5
BD9
330
A25
100
AcDbEntity
  8
0
  6
Continuous
 62
     1
100
AcDbLine
 10
130.0
 20
77.34999999999998
 30
0.0
 11
125.2
 21
77.34999999999998
 31
0.0
  0
LINE
  5
BDA
330
A25
100
AcDbEntity
  8
0
  6
Continuous
 62
     1
100
AcDbLine
 10
131.3
 20
76.394444444
 30
0.0
 11
131.4999999999996
 21
76.54999999999998
 31
0.0
  0
LINE
  5
BDB
330
A25
100
AcDbEntity
  8
0
  6
Continuous
 62
     1
100
AcDbLine
 10
130.6
 20
75.84999999999998
 30
0.0
 11
131.0999999999999
 21
76.23888888899998
 31
0.0
  0
LINE
  5
BDC
330
A25
100
AcDbEntity
  8
0
  6
Continuous
 62
     1
100
AcDbLine
 10
130.6
 20
75.84999999999998
 30
0.0
 11
124.0999999999996
 21
75.84999999999998
 31
0.0
  0
LINE
  5
BDD
330
A25
100
AcDbEntity
  8
0
  6
Continuous
 62
     1
100
AcDbLine
 10
132.409375
 20
82.125
 30
0.0
 11
131.5843749999999
 21
76.525
 31
0.0
  0
LINE
  5
BDE
330
A25
100
AcDbEntity
  8
0
  6
Continuous
 62
     1
100
AcDbLine
 10
117.2
 20
77.54999999999999
 30
0.0
 11
118.3
 21
76.45
 31
0.0
  0
LINE
  5
BDF
330
A25
100
AcDbEntity
  8
0
  6
Continuous
 62
     1
100
AcDbLine
 10
117.0
 20
77.34999999999998
 30
0.0
 11
118.1
 21
76.25
 31
0.0
  0
LINE
  5
BE0
330
A25
100
AcDbEntity
  8
0
  6
Continuous
 62
     1
100
AcDbLine
 10
117.0
 20
77.34999999999998
 30
0.0
 11
112.2
 21
77.34999999999998
 31
0.0
  0
LINE
  5
BE1
330
A25
100
AcDbEntity
  8
0
  6
Continuous
 62
     1
100
AcDbLine
 10
118.3
 20
76.394444444
 30
0.0
 11
118.5
 21
76.54999999999998
 31
0.0
  0
LINE
  5
BE2
330
A25
100
AcDbEntity
  8
0
  6
Continuous
 62
     1
100
AcDbLine
 10
117.5999999999997
 20
75.84999999999998
 30
0.0
 11
118.1
 21
76.23888888899998
 31
0.0
  0
LINE
  5
BE3
330
A25
100
AcDbEntity
  8
0
  6
Continuous
 62
     1
100
AcDbLine
 10
119.4093749999999
 20
82.125
 30
0.0
 11
118.5843749999998
 21
76.525
 31
0.0
  0
LINE
  5
BE4
330
A25
100
AcDbEntity
  8
0
  6
Continuous
 62
     1
100
AcDbLine
 10
117.7499999999999
 20
81.59999999999998
 30
0.0
 11
117.25
 21
77.59999999999998
 31
0.0
  0
LINE
  5
BE5
330
A25
100
AcDbEntity
  8
0
  6
Continuous
 62
     1
100
AcDbLine
 10
130.75
 20
81.59999999999998
 30
0.0
 11
130.2499999999996
 21
77.59999999999998
 31
0.0
  0
LINE
  5
BE6
330
A25
100
AcDbEntity
  8
0
  6
Continuous
 62
     1
100
AcDbLine
 10
125.75
 20
81.84999999999998
 30
0.0
 11
125.2499999999999
 21
77.84999999999998
 31
0.0
  0
LINE
  5
BE7
330
A25
100
AcDbEntity
  8
0
  6
Continuous
 62
     1
100
AcDbLine
 10
127.0999999999997
 20
88.34999999999999
 30
0.0
 11
131.6999999999999
 21
88.34999999999999
 31
0.0
  0
LINE
  5
BE8
330
A25
100
AcDbEntity
  8
0
  6
Continuous
 62
     1
100
AcDbLine
 10
127.081818182
 20
88.34999999999999
 30
0.0
 11
126.0999999999997
 21
89.54999999999998
 31
0.0
  0
LINE
  5
BE9
330
A25
100
AcDbEntity
  8
0
  6
Continuous
 62
     1
100
AcDbLine
 10
131.6999999999999
 20
88.34999999999999
 30
0.0
 11
132.783333333
 21
89.65000000000001
 31
0.0
  0
LINE
  5
BEA
330
A25
100
AcDbEntity
  8
0
  6
Continuous
 62
     1
100
AcDbLine
 10
132.6
 20
89.80714285700001
 30
0.0
 11
132.8
 21
89.69285714299999
 31
0.0
  0
LINE
  5
BEB
330
A25
100
AcDbEntity
  8
0
  6
Continuous
 62
     1
100
AcDbLine
 10
112.2
 20
77.54999999999999
 30
0.0
 11
110.8
 21
76.54999999999998
 31
0.0
  0
LINE
  5
BEC
330
A25
100
AcDbEntity
  8
0
  6
Continuous
 62
     1
100
AcDbLine
 10
111.0
 20
76.34999999999998
 30
0.0
 11
112.2
 21
77.25
 31
0.0
  0
LINE
  5
BED
330
A25
100
AcDbEntity
  8
0
  6
Continuous
 62
     1
100
AcDbLine
 10
110.6125
 20
76.75
 30
0.0
 11
111.4999999999999
 21
82.84999999999998
 31
0.0
  0
LINE
  5
BEE
330
A25
100
AcDbEntity
  8
0
  6
Continuous
 62
     1
100
AcDbLine
 10
110.9333333329998
 20
76.25
 30
0.0
 11
111.2
 21
75.84999999999998
 31
0.0
  0
LINE
  5
BEF
330
A25
100
AcDbEntity
  8
0
  6
Continuous
 62
     1
100
AcDbLine
 10
110.5999999999996
 20
76.75
 30
0.0
 11
110.8
 21
76.45
 31
0.0
  0
LINE
  5
BF0
330
A25
100
AcDbEntity
  8
0
  6
Continuous
 62
     1
100
AcDbLine
 10
117.5999999999997
 20
75.84999999999998
 30
0.0
 11
111.0999999999996
 21
75.84999999999998
 31
0.0
  0
LINE
  5
BF1
330
A25
100
AcDbEntity
  8
0
  6
Continuous
 62
     1
100
AcDbLine
 10
112.25
 20
77.59999999999998
 30
0.0
 11
112.7499999999999
 21
81.59999999999998
 31
0.0
  0
LINE
  5
BF2
330
A25
100
AcDbEntity
  8
0
  6
Continuous
 62
     1
100
AcDbLine
 10
113.1
 20
83.54999999999998
 30
0.0
 11
111.8
 21
82.94999999999998
 31
0.0
  0
LINE
  5
BF3
330
A25
100
AcDbEntity
  8
0
  6
Continuous
 62
     1
100
AcDbLine
 10
111.8
 20
82.94999999999998
 30
0.0
 11
113.0
 21
82.04999999999998
 31
0.0
  0
LINE
  5
BF4
330
A25
100
AcDbEntity
  8
0
  6
Continuous
 62
     1
100
AcDbLine
 10
112.7999999999999
 20
81.84999999999998
 30
0.0
 11
111.4999999999999
 21
82.75
 31
0.0
  0
LINE
  5
BF5
330
A25
100
AcDbEntity
  8
0
  6
Continuous
 62
     1
100
AcDbLine
 10
111.5999999999996
 20
83.15000000000003
 30
0.0
 11
113.1
 21
83.95000000000001
 31
0.0
  0
LINE
  5
BF6
330
A25
100
AcDbEntity
  8
0
  6
Continuous
 62
     1
100
AcDbLine
 10
115.5
 20
83.54999999999998
 30
0.0
 11
113.2
 21
83.54999999999998
 31
0.0
  0
LINE
  5
BF7
330
A25
100
AcDbEntity
  8
0
  6
Continuous
 62
     1
100
AcDbLine
 10
113.1
 20
82.04999999999998
 30
0.0
 11
118.1
 21
82.04999999999998
 31
0.0
  0
LINE
  5
BF8
330
A25
100
AcDbEntity
  8
0
  6
Continuous
 62
     1
100
AcDbLine
 10
113.1593749999999
 20
84.12499999999999
 30
0.0
 11
113.7718749999997
 21
88.025
 31
0.0
  0
LINE
  5
BF9
330
A25
100
AcDbEntity
  8
0
  6
Continuous
 62
     1
100
AcDbLine
 10
111.534375
 20
83.125
 30
0.0
 11
112.3968749999997
 21
89.02500000000001
 31
0.0
  0
LINE
  5
BFA
330
A25
100
AcDbEntity
  8
0
  6
Continuous
 62
     1
100
AcDbLine
 10
112.7
 20
89.321428571
 30
0.0
 11
112.5
 21
89.15
 31
0.0
  0
LINE
  5
BFB
330
A25
100
AcDbEntity
  8
0
  6
Continuous
 62
     1
100
AcDbLine
 10
113.2
 20
89.74999999999999
 30
0.0
 11
113.1
 21
89.66428571399998
 31
0.0
  0
LINE
  5
BFC
330
A25
100
AcDbEntity
  8
0
  6
Continuous
 62
     1
100
AcDbLine
 10
114.0
 20
88.45
 30
0.0
 11
113.1
 21
89.54999999999998
 31
0.0
  0
LINE
  5
BFD
330
A25
100
AcDbEntity
  8
0
  6
Continuous
 62
     1
100
AcDbLine
 10
113.7999999999999
 20
88.04999999999997
 30
0.0
 11
112.7999999999999
 21
89.34999999999998
 31
0.0
  0
LINE
  5
BFE
330
A25
100
AcDbEntity
  8
0
  6
Continuous
 62
     1
100
AcDbLine
 10
113.3
 20
89.84999999999997
 30
0.0
 11
119.5999999999997
 21
89.84999999999997
 31
0.0
  0
LINE
  5
BFF
330
A25
100
AcDbEntity
  8
0
  6
Continuous
 62
     1
100
AcDbLine
 10
112.0
 20
98.50000000000001
 30
0.0
 11
157.0
 21
98.50000000000001
 31
0.0
  0
LINE
  5
C00
330
A25
100
AcDbEntity
  8
0
  6
Continuous
 62
     1
100
AcDbLine
 10
67.0
 20
97.0
 30
0.0
 11
157.0
 21
97.0
 31
0.0
  0
LINE
  5
C01
330
A25
100
AcDbEntity
  8
0
  6
Continuous
 62
     1
100
AcDbLine
 10
157.0
 20
96.5
 30
0.0
 11
67.0
 21
96.5
 31
0.0
  0
LINE
  5
C02
330
A25
100
AcDbEntity
  8
0
  6
Continuous
 62
     1
100
AcDbLine
 10
160.0
 20
107.0
 30
0.0
 11
64.0
 21
107.0
 31
0.0
  0
LINE
  5
C03
330
A25
100
AcDbEntity
  8
0
  6
Continuous
 62
     1
100
AcDbLine
 10
160.0
 20
106.4999999999999
 30
0.0
 11
64.0
 21
106.4999999999999
 31
0.0
  0
LINE
  5
C04
330
A25
100
AcDbEntity
  8
0
  6
Continuous
 62
     1
100
AcDbLine
 10
64.0
 20
122.0
 30
0.0
 11
160.0
 21
122.0
 31
0.0
  0
LINE
  5
C05
330
A25
100
AcDbEntity
  8
0
  6
Continuous
 62
     1
100
AcDbLine
 10
74.0
 20
143.0
 30
0.0
 11
74.0
 21
172.0
 31
0.0
  0
LINE
  5
C06
330
A25
100
AcDbEntity
  8
0
  6
Continuous
 62
     1
100
AcDbLine
 10
150.0
 20
143.0
 30
0.0
 11
74.0
 21
143.0
 31
0.0
  0
LINE
  5
C07
330
A25
100
AcDbEntity
  8
0
  6
Continuous
 62
     1
100
AcDbLine
 10
160.0
 20
127.0
 30
0.0
 11
160.0
 21
128.4999999999998
 31
0.0
  0
LINE
  5
C08
330
A25
100
AcDbEntity
  8
0
  6
Continuous
 62
     1
100
AcDbLine
 10
160.0
 20
122.0
 30
0.0
 11
160.0
 21
127.0
 31
0.0
  0
LINE
  5
C09
330
A25
100
AcDbEntity
  8
0
  6
Continuous
 62
     1
100
AcDbLine
 10
158.0
 20
128.4999999999998
 30
0.0
 11
158.0
 21
137.2125
 31
0.0
  0
LINE
  5
C0A
330
A25
100
AcDbEntity
  8
0
  6
Continuous
 62
     1
100
AcDbLine
 10
64.0
 20
127.0
 30
0.0
 11
160.0
 21
127.0
 31
0.0
  0
LINE
  5
C0B
330
A25
100
AcDbEntity
  8
0
  6
Continuous
 62
     1
100
AcDbLine
 10
160.0
 20
128.4999999999998
 30
0.0
 11
64.0
 21
128.4999999999998
 31
0.0
  0
LINE
  5
C0C
330
A25
100
AcDbEntity
  8
0
  6
Continuous
 62
     1
100
AcDbLine
 10
160.0
 20
127.0
 30
0.0
 11
64.0
 21
127.0
 31
0.0
  0
LINE
  5
C0D
330
A25
100
AcDbEntity
  8
0
  6
Continuous
 62
     1
100
AcDbLine
 10
160.0
 20
127.0
 30
0.0
 11
64.0
 21
127.0
 31
0.0
  0
LINE
  5
C0E
330
A25
100
AcDbEntity
  8
0
  6
Continuous
 62
     1
100
AcDbLine
 10
64.0
 20
128.4999999999998
 30
0.0
 11
160.0
 21
128.4999999999998
 31
0.0
  0
LINE
  5
C0F
330
A25
100
AcDbEntity
  8
0
  6
Continuous
 62
     1
100
AcDbLine
 10
64.0
 20
127.0
 30
0.0
 11
160.0
 21
127.0
 31
0.0
  0
LINE
  5
C10
330
A25
100
AcDbEntity
  8
0
  6
Continuous
 62
     1
100
AcDbLine
 10
158.0
 20
148.5
 30
0.0
 11
159.8
 21
143.6999999999999
 31
0.0
  0
LINE
  5
C11
330
A25
100
AcDbEntity
  8
0
  6
Continuous
 62
     1
100
AcDbLine
 10
159.8
 20
143.6999999999999
 30
0.0
 11
161.5999999999999
 21
140.6999999999999
 31
0.0
  0
LINE
  5
C12
330
A25
100
AcDbEntity
  8
0
  6
Continuous
 62
     1
100
AcDbLine
 10
158.0
 20
128.4999999999998
 30
0.0
 11
157.6999999999999
 21
175.0
 31
0.0
  0
LINE
  5
C13
330
A25
100
AcDbEntity
  8
0
  6
Continuous
 62
     1
100
AcDbLine
 10
161.5999999999999
 20
140.6999999999999
 30
0.0
 11
163.1999999999998
 21
138.7
 31
0.0
  0
LINE
  5
C14
330
A25
100
AcDbEntity
  8
0
  6
Continuous
 62
     1
100
AcDbLine
 10
163.1999999999998
 20
138.7
 30
0.0
 11
158.0
 21
128.4999999999998
 31
0.0
  0
LINE
  5
C15
330
A25
100
AcDbEntity
  8
0
  6
Continuous
 62
     1
100
AcDbLine
 10
74.0
 20
172.0
 30
0.0
 11
150.0
 21
172.0
 31
0.0
  0
LINE
  5
C16
330
A25
100
AcDbEntity
  8
0
  6
Continuous
 62
     1
100
AcDbLine
 10
81.29999999999999
 20
178.0
 30
0.0
 11
81.29999999999999
 21
175.0
 31
0.0
  0
LINE
  5
C17
330
A25
100
AcDbEntity
  8
0
  6
Continuous
 62
     1
100
AcDbLine
 10
75.29999999999998
 20
175.0
 30
0.0
 11
75.29999999999998
 21
178.0
 31
0.0
  0
LINE
  5
C18
330
A25
100
AcDbEntity
  8
0
  6
Continuous
 62
     1
100
AcDbLine
 10
76.29999999999999
 20
178.0
 30
0.0
 11
76.29999999999999
 21
183.0
 31
0.0
  0
LINE
  5
C19
330
A25
100
AcDbEntity
  8
0
  6
Continuous
 62
     1
100
AcDbLine
 10
75.29999999999998
 20
178.0
 30
0.0
 11
81.29999999999999
 21
178.0
 31
0.0
  0
LINE
  5
C1A
330
A25
100
AcDbEntity
  8
0
  6
Continuous
 62
     1
100
AcDbLine
 10
157.1999999999999
 20
178.0
 30
0.0
 11
151.2
 21
178.0
 31
0.0
  0
LINE
  5
C1B
330
A25
100
AcDbEntity
  8
0
  6
Continuous
 62
     1
100
AcDbLine
 10
148.6999999999999
 20
178.0
 30
0.0
 11
142.6999999999999
 21
178.0
 31
0.0
  0
LINE
  5
C1C
330
A25
100
AcDbEntity
  8
0
  6
Continuous
 62
     1
100
AcDbLine
 10
151.2
 20
178.0
 30
0.0
 11
151.2
 21
175.0
 31
0.0
  0
LINE
  5
C1D
330
A25
100
AcDbEntity
  8
0
  6
Continuous
 62
     1
100
AcDbLine
 10
148.6999999999999
 20
178.0
 30
0.0
 11
148.6999999999999
 21
175.0
 31
0.0
  0
LINE
  5
C1E
330
A25
100
AcDbEntity
  8
0
  6
Continuous
 62
     1
100
AcDbLine
 10
142.6999999999999
 20
178.0
 30
0.0
 11
142.6999999999999
 21
175.0
 31
0.0
  0
LINE
  5
C1F
330
A25
100
AcDbEntity
  8
0
  6
Continuous
 62
     1
100
AcDbLine
 10
157.1999999999999
 20
175.0
 30
0.0
 11
157.1999999999999
 21
178.0
 31
0.0
  0
LINE
  5
C20
330
A25
100
AcDbEntity
  8
0
  6
Continuous
 62
     1
100
AcDbLine
 10
147.6999999999998
 20
183.0
 30
0.0
 11
146.6999999999998
 21
184.0
 31
0.0
  0
LINE
  5
C21
330
A25
100
AcDbEntity
  8
0
  6
Continuous
 62
     1
100
AcDbLine
 10
146.6999999999998
 20
184.0
 30
0.0
 11
77.29999999999998
 21
184.0
 31
0.0
  0
LINE
  5
C22
330
A25
100
AcDbEntity
  8
0
  6
Continuous
 62
     1
100
AcDbLine
 10
147.6999999999998
 20
178.0
 30
0.0
 11
147.6999999999998
 21
183.0
 31
0.0
  0
LINE
  5
C23
330
A25
100
AcDbEntity
  8
0
  6
Continuous
 62
     1
100
AcDbLine
 10
66.79999999999998
 20
178.0
 30
0.0
 11
72.79999999999998
 21
178.0
 31
0.0
  0
LINE
  5
C24
330
A25
100
AcDbEntity
  8
0
  6
Continuous
 62
     1
100
AcDbLine
 10
72.79999999999998
 20
178.0
 30
0.0
 11
72.79999999999998
 21
175.0
 31
0.0
  0
LINE
  5
C25
330
A25
100
AcDbEntity
  8
0
  6
Continuous
 62
     1
100
AcDbLine
 10
66.0
 20
128.4999999999998
 30
0.0
 11
66.29999999999999
 21
175.0
 31
0.0
  0
LINE
  5
C26
330
A25
100
AcDbEntity
  8
0
  6
Continuous
 62
     1
100
AcDbLine
 10
66.79999999999998
 20
175.0
 30
0.0
 11
66.79999999999998
 21
178.0
 31
0.0
  0
LINE
  5
C27
330
A25
100
AcDbEntity
  8
0
  6
Continuous
 62
     1
100
AcDbLine
 10
66.29999999999999
 20
175.0
 30
0.0
 11
157.6999999999999
 21
175.0
 31
0.0
  0
LINE
  5
C2D
330
A25
100
AcDbEntity
  8
0
  6
Continuous
 62
     1
100
AcDbLine
 10
150.0
 20
172.0
 30
0.0
 11
150.0
 21
143.0
 31
0.0
  0
CIRCLE
  5
C2E
330
A25
100
AcDbEntity
  8
0
  6
Continuous
 62
     1
100
AcDbCircle
 10
78.5
 20
222.6624999999999
 30
0.0
 40
1.25
  0
CIRCLE
  5
C2F
330
A25
100
AcDbEntity
  8
0
  6
Continuous
 62
     1
100
AcDbCircle
 10
78.5
 20
222.6624999999999
 30
0.0
 40
3.0
  0
CIRCLE
  5
C30
330
A25
100
AcDbEntity
  8
0
  6
Continuous
 62
     1
100
AcDbCircle
 10
145.5
 20
222.6624999999999
 30
0.0
 40
3.0
  0
CIRCLE
  5
C31
330
A25
100
AcDbEntity
  8
0
  6
Continuous
 62
     1
100
AcDbCircle
 10
145.5
 20
222.6624999999999
 30
0.0
 40
1.25
  0
LINE
  5
C32
330
A25
100
AcDbEntity
  8
0
  6
Continuous
 62
     1
100
AcDbLine
 10
83.49999999999999
 20
221.6625
 30
0.0
 11
83.49999999999999
 21
223.6625
 31
0.0
  0
LINE
  5
C33
330
A25
100
AcDbEntity
  8
0
  6
Continuous
 62
     1
100
AcDbLine
 10
83.49999999999999
 20
223.6625
 30
0.0
 11
140.5
 21
223.6625
 31
0.0
  0
LINE
  5
C34
330
A25
100
AcDbEntity
  8
0
  6
Continuous
 62
     1
100
AcDbLine
 10
140.5
 20
223.6625
 30
0.0
 11
140.5
 21
221.6625
 31
0.0
  0
LINE
  5
C35
330
A25
100
AcDbEntity
  8
0
  6
Continuous
 62
     1
100
AcDbLine
 10
140.5
 20
221.6625
 30
0.0
 11
83.49999999999999
 21
221.6625
 31
0.0
  0
LINE
  5
C37
330
A25
100
AcDbEntity
  8
0
  6
Continuous
 62
     1
100
AcDbLine
 10
66.0
 20
260.0124999999998
 30
0.0
 11
66.0
 21
216.0124999999999
 31
0.0
  0
POINT
  5
C38
330
A25
100
AcDbEntity
  8
0
  6
Continuous
 62
     1
100
AcDbPoint
 10
158.0
 20
262.0124999999998
 30
0.0
  0
LINE
  5
C39
330
A25
100
AcDbEntity
  8
0
  6
Continuous
 62
     1
100
AcDbLine
 10
158.0
 20
260.0124999999998
 30
0.0
 11
158.0
 21
216.0124999999999
 31
0.0
  0
LINE
  5
C3A
330
A25
100
AcDbEntity
  8
0
  6
Continuous
 62
     1
100
AcDbLine
 10
158.0
 20
216.0124999999999
 30
0.0
 11
66.0
 21
216.0124999999999
 31
0.0
  0
LINE
  5
C3B
330
A25
100
AcDbEntity
  8
0
  6
Continuous
 62
     1
100
AcDbLine
 10
66.0
 20
260.0124999999998
 30
0.0
 11
158.0
 21
260.0124999999998
 31
0.0
  0
LINE
  5
C3C
330
A25
100
AcDbEntity
  8
0
  6
Continuous
 62
     1
100
AcDbLine
 10
75.0
 20
252.3625
 30
0.0
 11
75.0
 21
254.3625
 31
0.0
  0
LINE
  5
C3D
330
A25
100
AcDbEntity
  8
0
  6
Continuous
 62
     1
100
AcDbLine
 10
149.0
 20
252.3625
 30
0.0
 11
149.0
 21
254.3625
 31
0.0
  0
LINE
  5
C3E
330
A25
100
AcDbEntity
  8
0
  6
Continuous
 62
     1
100
AcDbLine
 10
75.0
 20
254.3625
 30
0.0
 11
149.0
 21
254.3625
 31
0.0
  0
LINE
  5
C3F
330
A25
100
AcDbEntity
  8
0
  6
Continuous
 62
     1
100
AcDbLine
 10
149.0
 20
252.3625
 30
0.0
 11
75.0
 21
252.3625
 31
0.0
  0
LINE
  5
C40
330
A25
100
AcDbEntity
  8
0
  6
Continuous
 62
     1
100
AcDbLine
 10
66.0
 20
237.0124999999999
 30
0.0
 11
67.5
 21
237.0124999999999
 31
0.0
  0
LINE
  5
C41
330
A25
100
AcDbEntity
  8
0
  6
Continuous
 62
     1
100
AcDbLine
 10
67.5
 20
237.0124999999999
 30
0.0
 11
67.5
 21
239.0124999999999
 31
0.0
  0
LINE
  5
C42
330
A25
100
AcDbEntity
  8
0
  6
Continuous
 62
     1
100
AcDbLine
 10
67.5
 20
239.0124999999999
 30
0.0
 11
66.0
 21
239.0124999999999
 31
0.0
  0
LINE
  5
C43
330
A25
100
AcDbEntity
  8
0
  6
Continuous
 62
     1
100
AcDbLine
 10
66.0
 20
242.0125
 30
0.0
 11
67.5
 21
242.0125
 31
0.0
  0
LINE
  5
C44
330
A25
100
AcDbEntity
  8
0
  6
Continuous
 62
     1
100
AcDbLine
 10
67.5
 20
242.0125
 30
0.0
 11
67.5
 21
244.0125
 31
0.0
  0
LINE
  5
C45
330
A25
100
AcDbEntity
  8
0
  6
Continuous
 62
     1
100
AcDbLine
 10
67.5
 20
244.0125
 30
0.0
 11
66.0
 21
244.0125
 31
0.0
  0
LINE
  5
C46
330
A25
100
AcDbEntity
  8
0
  6
Continuous
 62
     1
100
AcDbLine
 10
66.0
 20
247.0124999999999
 30
0.0
 11
67.5
 21
247.0124999999999
 31
0.0
  0
LINE
  5
C47
330
A25
100
AcDbEntity
  8
0
  6
Continuous
 62
     1
100
AcDbLine
 10
67.5
 20
247.0124999999999
 30
0.0
 11
67.5
 21
249.0124999999999
 31
0.0
  0
LINE
  5
C48
330
A25
100
AcDbEntity
  8
0
  6
Continuous
 62
     1
100
AcDbLine
 10
67.5
 20
249.0124999999999
 30
0.0
 11
66.0
 21
249.0124999999999
 31
0.0
  0
LINE
  5
C49
330
A25
100
AcDbEntity
  8
0
  6
Continuous
 62
     1
100
AcDbLine
 10
66.0
 20
234.0125
 30
0.0
 11
67.5
 21
234.0125
 31
0.0
  0
LINE
  5
C4A
330
A25
100
AcDbEntity
  8
0
  6
Continuous
 62
     1
100
AcDbLine
 10
67.5
 20
234.0125
 30
0.0
 11
67.5
 21
232.0124999999999
 31
0.0
  0
LINE
  5
C4B
330
A25
100
AcDbEntity
  8
0
  6
Continuous
 62
     1
100
AcDbLine
 10
67.5
 20
232.0124999999999
 30
0.0
 11
66.0
 21
232.0124999999999
 31
0.0
  0
LINE
  5
C4C
330
A25
100
AcDbEntity
  8
0
  6
Continuous
 62
     1
100
AcDbLine
 10
66.0
 20
229.0124999999999
 30
0.0
 11
67.5
 21
229.0124999999999
 31
0.0
  0
LINE
  5
C4D
330
A25
100
AcDbEntity
  8
0
  6
Continuous
 62
     1
100
AcDbLine
 10
67.5
 20
229.0124999999999
 30
0.0
 11
67.5
 21
227.0124999999999
 31
0.0
  0
LINE
  5
C4E
330
A25
100
AcDbEntity
  8
0
  6
Continuous
 62
     1
100
AcDbLine
 10
67.5
 20
227.0124999999999
 30
0.0
 11
66.0
 21
227.0124999999999
 31
0.0
  0
LINE
  5
C4F
330
A25
100
AcDbEntity
  8
0
  6
Continuous
 62
     1
100
AcDbLine
 10
158.0
 20
239.0124999999999
 30
0.0
 11
156.4999999999996
 21
239.0124999999999
 31
0.0
  0
LINE
  5
C50
330
A25
100
AcDbEntity
  8
0
  6
Continuous
 62
     1
100
AcDbLine
 10
156.4999999999996
 20
239.0124999999999
 30
0.0
 11
156.4999999999996
 21
237.0124999999999
 31
0.0
  0
LINE
  5
C51
330
A25
100
AcDbEntity
  8
0
  6
Continuous
 62
     1
100
AcDbLine
 10
156.4999999999996
 20
237.0124999999999
 30
0.0
 11
158.0
 21
237.0124999999999
 31
0.0
  0
LINE
  5
C52
330
A25
100
AcDbEntity
  8
0
  6
Continuous
 62
     1
100
AcDbLine
 10
158.0
 20
234.0125
 30
0.0
 11
156.4999999999996
 21
234.0125
 31
0.0
  0
LINE
  5
C53
330
A25
100
AcDbEntity
  8
0
  6
Continuous
 62
     1
100
AcDbLine
 10
156.4999999999996
 20
234.0125
 30
0.0
 11
156.4999999999996
 21
232.0124999999999
 31
0.0
  0
LINE
  5
C54
330
A25
100
AcDbEntity
  8
0
  6
Continuous
 62
     1
100
AcDbLine
 10
156.4999999999996
 20
232.0124999999999
 30
0.0
 11
158.0
 21
232.0124999999999
 31
0.0
  0
LINE
  5
C55
330
A25
100
AcDbEntity
  8
0
  6
Continuous
 62
     1
100
AcDbLine
 10
158.0
 20
229.0124999999999
 30
0.0
 11
156.4999999999996
 21
229.0124999999999
 31
0.0
  0
LINE
  5
C56
330
A25
100
AcDbEntity
  8
0
  6
Continuous
 62
     1
100
AcDbLine
 10
156.4999999999996
 20
229.0124999999999
 30
0.0
 11
156.4999999999996
 21
227.0124999999999
 31
0.0
  0
LINE
  5
C57
330
A25
100
AcDbEntity
  8
0
  6
Continuous
 62
     1
100
AcDbLine
 10
156.4999999999996
 20
227.0124999999999
 30
0.0
 11
158.0
 21
227.0124999999999
 31
0.0
  0
LINE
  5
C58
330
A25
100
AcDbEntity
  8
0
  6
Continuous
 62
     1
100
AcDbLine
 10
158.0
 20
242.0125
 30
0.0
 11
156.4999999999996
 21
242.0125
 31
0.0
  0
LINE
  5
C59
330
A25
100
AcDbEntity
  8
0
  6
Continuous
 62
     1
100
AcDbLine
 10
156.4999999999996
 20
242.0125
 30
0.0
 11
156.4999999999996
 21
244.0125
 31
0.0
  0
LINE
  5
C5A
330
A25
100
AcDbEntity
  8
0
  6
Continuous
 62
     1
100
AcDbLine
 10
156.4999999999996
 20
244.0125
 30
0.0
 11
158.0
 21
244.0125
 31
0.0
  0
LINE
  5
C5B
330
A25
100
AcDbEntity
  8
0
  6
Continuous
 62
     1
100
AcDbLine
 10
158.0
 20
247.0124999999999
 30
0.0
 11
156.4999999999996
 21
247.0124999999999
 31
0.0
  0
LINE
  5
C5C
330
A25
100
AcDbEntity
  8
0
  6
Continuous
 62
     1
100
AcDbLine
 10
156.4999999999996
 20
247.0124999999999
 30
0.0
 11
156.4999999999996
 21
249.0124999999999
 31
0.0
  0
LINE
  5
C5D
330
A25
100
AcDbEntity
  8
0
  6
Continuous
 62
     1
100
AcDbLine
 10
156.4999999999996
 20
249.0124999999999
 30
0.0
 11
158.0
 21
249.0124999999999
 31
0.0
  0
LINE
  5
C5E
330
A25
100
AcDbEntity
  8
0
  6
Continuous
 62
     1
100
AcDbLine
 10
161.0
 20
262.0124999999998
 30
0.0
 11
63.0
 21
262.0124999999998
 31
0.0
  0
LINE
  5
C5F
330
A25
100
AcDbEntity
  8
0
  6
Continuous
 62
     1
100
AcDbLine
 10
63.0
 20
214.0124999999999
 30
0.0
 11
161.0
 21
214.0124999999999
 31
0.0
  0
LINE
  5
C60
330
A25
100
AcDbEntity
  8
0
  6
Continuous
 62
     1
100
AcDbLine
 10
158.0
 20
229.0124999999999
 30
0.0
 11
162.0
 21
229.0124999999999
 31
0.0
  0
LINE
  5
C61
330
A25
100
AcDbEntity
  8
0
  6
Continuous
 62
     1
100
AcDbLine
 10
162.0
 20
229.0124999999999
 30
0.0
 11
162.0
 21
247.0124999999999
 31
0.0
  0
LINE
  5
C62
330
A25
100
AcDbEntity
  8
0
  6
Continuous
 62
     1
100
AcDbLine
 10
162.0
 20
247.0124999999999
 30
0.0
 11
158.0
 21
247.0124999999999
 31
0.0
  0
LINE
  5
C63
330
A25
100
AcDbEntity
  8
0
  6
Continuous
 62
     1
100
AcDbLine
 10
66.0
 20
229.0124999999999
 30
0.0
 11
62.0
 21
229.0124999999999
 31
0.0
  0
LINE
  5
C64
330
A25
100
AcDbEntity
  8
0
  6
Continuous
 62
     1
100
AcDbLine
 10
62.0
 20
229.0124999999999
 30
0.0
 11
62.0
 21
247.0124999999999
 31
0.0
  0
LINE
  5
C65
330
A25
100
AcDbEntity
  8
0
  6
Continuous
 62
     1
100
AcDbLine
 10
62.0
 20
247.0124999999999
 30
0.0
 11
66.0
 21
247.0124999999999
 31
0.0
  0
LINE
  5
C66
330
A25
100
AcDbEntity
  8
0
  6
Continuous
 62
     1
100
AcDbLine
 10
161.0
 20
262.0124999999998
 30
0.0
 11
161.0
 21
247.0124999999999
 31
0.0
  0
LINE
  5
C67
330
A25
100
AcDbEntity
  8
0
  6
Continuous
 62
     1
100
AcDbLine
 10
161.0
 20
229.0124999999999
 30
0.0
 11
161.0
 21
214.0124999999999
 31
0.0
  0
LINE
  5
C68
330
A25
100
AcDbEntity
  8
0
  6
Continuous
 62
     1
100
AcDbLine
 10
63.0
 20
214.0124999999999
 30
0.0
 11
63.0
 21
229.0124999999999
 31
0.0
  0
LINE
  5
C69
330
A25
100
AcDbEntity
  8
0
  6
Continuous
 62
     1
100
AcDbLine
 10
63.0
 20
247.0124999999999
 30
0.0
 11
63.0
 21
262.0124999999998
 31
0.0
  0
LINE
  5
C6A
330
A25
100
AcDbEntity
  8
0
  6
Continuous
 62
     4
100
AcDbLine
 10
78.5
 20
228.7125
 30
0.0
 11
78.5
 21
203.0124999999999
 31
0.0
  0
LINE
  5
C6B
330
A25
100
AcDbEntity
  8
0
  6
Continuous
 62
     4
100
AcDbLine
 10
78.5
 20
204.0124999999999
 30
0.0
 11
80.238666487
 21
203.546625719
 31
0.0
  0
LINE
  5
C6C
330
A25
100
AcDbEntity
  8
0
  6
Continuous
 62
     4
100
AcDbLine
 10
78.5
 20
204.0124999999999
 30
0.0
 11
80.238666487
 21
204.4783742809999
 31
0.0
  0
LINE
  5
C6D
330
A25
100
AcDbEntity
  8
0
  6
Continuous
 62
     4
100
AcDbLine
 10
78.5
 20
204.0124999999999
 30
0.0
 11
145.5
 21
204.0124999999999
 31
0.0
  0
LINE
  5
C6E
330
A25
100
AcDbEntity
  8
0
  6
Continuous
 62
     4
100
AcDbLine
 10
145.5
 20
204.0124999999999
 30
0.0
 11
143.7613335129998
 21
204.4783742809999
 31
0.0
  0
LINE
  5
C6F
330
A25
100
AcDbEntity
  8
0
  6
Continuous
 62
     4
100
AcDbLine
 10
145.5
 20
204.0124999999999
 30
0.0
 11
143.7613335129998
 21
203.546625719
 31
0.0
  0
LINE
  5
C70
330
A25
100
AcDbEntity
  8
0
  6
Continuous
 62
     4
100
AcDbLine
 10
145.5
 20
228.7125
 30
0.0
 11
145.5
 21
203.0124999999999
 31
0.0
  0
TEXT
  5
C71
330
A25
100
AcDbEntity
  8
0
  6
Continuous
 62
     4
100
AcDbText
 10
110.0
 20
205.0124999999999
 30
0.0
 40
2.0
  1
67
  7
KANJI7
100
AcDbText
  0
LINE
  5
C72
330
A25
100
AcDbEntity
  8
0
  6
Continuous
 62
     4
100
AcDbLine
 10
70.0
 20
247.3125
 30
0.0
 11
70.0
 21
268.0124999999998
 31
0.0
  0
LINE
  5
C73
330
A25
100
AcDbEntity
  8
0
  6
Continuous
 62
     4
100
AcDbLine
 10
70.0
 20
267.0125
 30
0.0
 11
71.738666487
 21
266.546625719
 31
0.0
  0
LINE
  5
C74
330
A25
100
AcDbEntity
  8
0
  6
Continuous
 62
     4
100
AcDbLine
 10
70.0
 20
267.0125
 30
0.0
 11
71.738666487
 21
267.4783742809996
 31
0.0
  0
LINE
  5
C75
330
A25
100
AcDbEntity
  8
0
  6
Continuous
 62
     4
100
AcDbLine
 10
70.0
 20
267.0125
 30
0.0
 11
154.0
 21
267.0125
 31
0.0
  0
LINE
  5
C76
330
A25
100
AcDbEntity
  8
0
  6
Continuous
 62
     4
100
AcDbLine
 10
154.0
 20
267.0125
 30
0.0
 11
152.2613335129999
 21
267.4783742809996
 31
0.0
  0
LINE
  5
C77
330
A25
100
AcDbEntity
  8
0
  6
Continuous
 62
     4
100
AcDbLine
 10
154.0
 20
267.0125
 30
0.0
 11
152.2613335129999
 21
266.546625719
 31
0.0
  0
LINE
  5
C78
330
A25
100
AcDbEntity
  8
0
  6
Continuous
 62
     4
100
AcDbLine
 10
154.0
 20
247.3125
 30
0.0
 11
154.0
 21
268.0124999999998
 31
0.0
  0
TEXT
  5
C79
330
A25
100
AcDbEntity
  8
0
  6
Continuous
 62
     4
100
AcDbText
 10
110.0
 20
268.0124999999998
 30
0.0
 40
2.0
  1
84
  7
KANJI7
100
AcDbText
  0
CIRCLE
  5
C7A
330
A25
100
AcDbEntity
  8
0
  6
Continuous
 62
     1
100
AcDbCircle
 10
70.0
 20
253.3625
 30
0.0
 40
3.0
  0
CIRCLE
  5
C7B
330
A25
100
AcDbEntity
  8
0
  6
Continuous
 62
     1
100
AcDbCircle
 10
70.0
 20
253.3625
 30
0.0
 40
1.25
  0
CIRCLE
  5
C7C
330
A25
100
AcDbEntity
  8
0
  6
Continuous
 62
     1
100
AcDbCircle
 10
154.0
 20
253.3625
 30
0.0
 40
1.25
  0
CIRCLE
  5
C7D
330
A25
100
AcDbEntity
  8
0
  6
Continuous
 62
     1
100
AcDbCircle
 10
154.0
 20
253.3625
 30
0.0
 40
3.0
  0
LINE
  5
C7E
330
A25
100
AcDbEntity
  8
0
  6
Continuous
 62
     4
100
AcDbLine
 10
59.8
 20
222.6624999999999
 30
0.0
 11
184.4999999999996
 21
222.6624999999999
 31
0.0
  0
LINE
  5
C7F
330
A25
100
AcDbEntity
  8
0
  6
Continuous
 62
     4
100
AcDbLine
 10
183.4999999999998
 20
222.6624999999999
 30
0.0
 11
183.965874281
 21
224.401166487
 31
0.0
  0
LINE
  5
C80
330
A25
100
AcDbEntity
  8
0
  6
Continuous
 62
     4
100
AcDbLine
 10
183.4999999999998
 20
222.6624999999999
 30
0.0
 11
183.0341257189998
 21
224.401166487
 31
0.0
  0
LINE
  5
C81
330
A25
100
AcDbEntity
  8
0
  6
Continuous
 62
     4
100
AcDbLine
 10
183.4999999999998
 20
222.6624999999999
 30
0.0
 11
183.4999999999998
 21
253.3625
 31
0.0
  0
LINE
  5
C82
330
A25
100
AcDbEntity
  8
0
  6
Continuous
 62
     4
100
AcDbLine
 10
183.4999999999998
 20
253.3625
 30
0.0
 11
183.0341257189998
 21
251.623833513
 31
0.0
  0
LINE
  5
C83
330
A25
100
AcDbEntity
  8
0
  6
Continuous
 62
     4
100
AcDbLine
 10
183.4999999999998
 20
253.3625
 30
0.0
 11
183.965874281
 21
251.623833513
 31
0.0
  0
LINE
  5
C84
330
A25
100
AcDbEntity
  8
0
  6
Continuous
 62
     4
100
AcDbLine
 10
59.8
 20
253.3625
 30
0.0
 11
184.4999999999996
 21
253.3625
 31
0.0
  0
TEXT
  5
C85
330
A25
100
AcDbEntity
  8
0
  6
Continuous
 62
     4
100
AcDbText
 10
182.5
 20
234.0125
 30
0.0
 40
2.0
  1
30.7
 50
90.0
  7
KANJI7
100
AcDbText
  0
LINE
  5
C89
330
A25
100
AcDbEntity
  8
0
  6
Continuous
 62
     4
100
AcDbLine
 10
207.2
 20
141.1999999999999
 30
0.0
 11
207.2
 21
127.5
 31
0.0
  0
LINE
  5
C8A
330
A25
100
AcDbEntity
  8
0
  6
Continuous
 62
     4
100
AcDbLine
 10
207.2
 20
128.4999999999998
 30
0.0
 11
208.938666487
 21
128.034125719
 31
0.0
  0
LINE
  5
C8B
330
A25
100
AcDbEntity
  8
0
  6
Continuous
 62
     4
100
AcDbLine
 10
207.2
 20
128.4999999999998
 30
0.0
 11
208.938666487
 21
128.9658742809999
 31
0.0
  0
LINE
  5
C8C
330
A25
100
AcDbEntity
  8
0
  6
Continuous
 62
     4
100
AcDbLine
 10
207.2
 20
128.4999999999998
 30
0.0
 11
252.0
 21
128.4999999999998
 31
0.0
  0
LINE
  5
C8D
330
A25
100
AcDbEntity
  8
0
  6
Continuous
 62
     4
100
AcDbLine
 10
252.0
 20
128.4999999999998
 30
0.0
 11
250.2613335129999
 21
128.9658742809999
 31
0.0
  0
LINE
  5
C8E
330
A25
100
AcDbEntity
  8
0
  6
Continuous
 62
     4
100
AcDbLine
 10
252.0
 20
128.4999999999998
 30
0.0
 11
250.2613335129999
 21
128.034125719
 31
0.0
  0
LINE
  5
C8F
330
A25
100
AcDbEntity
  8
0
  6
Continuous
 62
     4
100
AcDbLine
 10
252.0
 20
141.1999999999999
 30
0.0
 11
252.0
 21
127.5
 31
0.0
  0
TEXT
  5
C90
330
A25
100
AcDbEntity
  8
0
  6
Continuous
 62
     4
100
AcDbText
 10
225.5999999999999
 20
129.4999999999996
 30
0.0
 40
2.0
  1
44.8
  7
KANJI7
100
AcDbText
  0
LINE
  5
C91
330
A25
100
AcDbEntity
  8
0
  6
Continuous
 62
     4
100
AcDbLine
 10
255.15
 20
142.0
 30
0.0
 11
265.85
 21
142.0
 31
0.0
  0
LINE
  5
C92
330
A25
100
AcDbEntity
  8
0
  6
Continuous
 62
     4
100
AcDbLine
 10
264.85
 20
142.0
 30
0.0
 11
265.315874281
 21
143.738666487
 31
0.0
  0
LINE
  5
C93
330
A25
100
AcDbEntity
  8
0
  6
Continuous
 62
     4
100
AcDbLine
 10
264.85
 20
142.0
 30
0.0
 11
264.384125719
 21
143.738666487
 31
0.0
  0
LINE
  5
C94
330
A25
100
AcDbEntity
  8
0
  6
Continuous
 62
     4
100
AcDbLine
 10
264.85
 20
142.0
 30
0.0
 11
264.85
 21
214.5
 31
0.0
  0
LINE
  5
C95
330
A25
100
AcDbEntity
  8
0
  6
Continuous
 62
     4
100
AcDbLine
 10
264.85
 20
214.5
 30
0.0
 11
264.384125719
 21
212.7613335129999
 31
0.0
  0
LINE
  5
C96
330
A25
100
AcDbEntity
  8
0
  6
Continuous
 62
     4
100
AcDbLine
 10
264.85
 20
214.5
 30
0.0
 11
265.315874281
 21
212.7613335129999
 31
0.0
  0
LINE
  5
C97
330
A25
100
AcDbEntity
  8
0
  6
Continuous
 62
     4
100
AcDbLine
 10
246.75
 20
214.5
 30
0.0
 11
265.85
 21
214.5
 31
0.0
  0
TEXT
  5
C98
330
A25
100
AcDbEntity
  8
0
  6
Continuous
 62
     4
100
AcDbText
 10
263.85
 20
174.2499999999996
 30
0.0
 40
2.0
  1
72.5
 50
90.0
  7
KANJI7
100
AcDbText
  0
TEXT
  5
C99
330
A25
100
AcDbEntity
  8
0
  6
Continuous
 62
     4
100
AcDbText
 10
263.1
 20
183.1999999999999
 30
0.0
 40
1.8
  1
±1
 50
90.0
  7
KANJI10
100
AcDbText
  0
LINE
  5
C9A
330
A25
100
AcDbEntity
  8
0
  6
Continuous
 62
     1
100
AcDbLine
 10
229.5999999999999
 20
142.3
 30
0.0
 11
207.35
 21
142.3
 31
0.0
  0
LINE
  5
C9B
330
A25
100
AcDbEntity
  8
0
  6
Continuous
 62
     1
100
AcDbLine
 10
207.35
 20
142.3
 30
0.0
 11
207.35
 21
142.0
 31
0.0
  0
LINE
  5
C9C
330
A25
100
AcDbEntity
  8
0
  6
Continuous
 62
     1
100
AcDbLine
 10
207.35
 20
142.0
 30
0.0
 11
205.1
 21
142.0
 31
0.0
  0
LINE
  5
C9D
330
A25
100
AcDbEntity
  8
0
  6
Continuous
 62
     1
100
AcDbLine
 10
205.1
 20
142.0
 30
0.0
 11
204.5999999999999
 21
142.5
 31
0.0
  0
LINE
  5
C9E
330
A25
100
AcDbEntity
  8
0
  6
Continuous
 62
     1
100
AcDbLine
 10
204.5999999999999
 20
142.5
 30
0.0
 11
204.5999999999999
 21
147.0
 31
0.0
  0
LINE
  5
C9F
330
A25
100
AcDbEntity
  8
0
  6
Continuous
 62
     1
100
AcDbLine
 10
204.5999999999999
 20
147.0
 30
0.0
 11
204.5999999999999
 21
148.5
 31
0.0
  0
POINT
  5
CA0
330
A25
100
AcDbEntity
  8
0
  6
Continuous
 62
     1
100
AcDbPoint
 10
204.5999999999999
 20
148.5
 30
0.0
  0
LINE
  5
CA1
330
A25
100
AcDbEntity
  8
0
  6
Continuous
 62
     1
100
AcDbLine
 10
204.5999999999999
 20
148.5
 30
0.0
 11
206.1999999999999
 21
148.5
 31
0.0
  0
POINT
  5
CA2
330
A25
100
AcDbEntity
  8
0
  6
Continuous
 62
     1
100
AcDbPoint
 10
206.1999999999999
 20
148.5
 30
0.0
  0
LINE
  5
CA3
330
A25
100
AcDbEntity
  8
0
  6
Continuous
 62
     1
100
AcDbLine
 10
207.2
 20
151.2
 30
0.0
 11
207.2
 21
148.5
 31
0.0
  0
LINE
  5
CA4
330
A25
100
AcDbEntity
  8
0
  6
Continuous
 62
     1
100
AcDbLine
 10
254.5999999999999
 20
142.5
 30
0.0
 11
254.5999999999999
 21
147.0
 31
0.0
  0
LINE
  5
CA5
330
A25
100
AcDbEntity
  8
0
  6
Continuous
 62
     1
100
AcDbLine
 10
254.5999999999999
 20
147.0
 30
0.0
 11
254.5999999999999
 21
148.5
 31
0.0
  0
POINT
  5
CA6
330
A25
100
AcDbEntity
  8
0
  6
Continuous
 62
     1
100
AcDbPoint
 10
254.5999999999999
 20
148.5
 30
0.0
  0
LINE
  5
CA7
330
A25
100
AcDbEntity
  8
0
  6
Continuous
 62
     1
100
AcDbLine
 10
254.5999999999999
 20
148.5
 30
0.0
 11
253.0
 21
148.5
 31
0.0
  0
POINT
  5
CA8
330
A25
100
AcDbEntity
  8
0
  6
Continuous
 62
     1
100
AcDbPoint
 10
253.0
 20
148.5
 30
0.0
  0
LINE
  5
CA9
330
A25
100
AcDbEntity
  8
0
  6
Continuous
 62
     1
100
AcDbLine
 10
252.0
 20
148.5
 30
0.0
 11
252.0
 21
151.2
 31
0.0
  0
LINE
  5
CAA
330
A25
100
AcDbEntity
  8
0
  6
Continuous
 62
     1
100
AcDbLine
 10
251.8499999999999
 20
142.3
 30
0.0
 11
251.8499999999999
 21
142.0
 31
0.0
  0
LINE
  5
CAB
330
A25
100
AcDbEntity
  8
0
  6
Continuous
 62
     1
100
AcDbLine
 10
229.5999999999999
 20
142.3
 30
0.0
 11
251.8499999999999
 21
142.3
 31
0.0
  0
LINE
  5
CAC
330
A25
100
AcDbEntity
  8
0
  6
Continuous
 62
     1
100
AcDbLine
 10
251.8499999999999
 20
142.0
 30
0.0
 11
254.0999999999999
 21
142.0
 31
0.0
  0
LINE
  5
CAD
330
A25
100
AcDbEntity
  8
0
  6
Continuous
 62
     1
100
AcDbLine
 10
254.0999999999999
 20
142.0
 30
0.0
 11
254.5999999999999
 21
142.5
 31
0.0
  0
LINE
  5
CAE
330
A25
100
AcDbEntity
  8
0
  6
Continuous
 62
     1
100
AcDbLine
 10
252.0
 20
195.0
 30
0.0
 11
252.0
 21
151.2
 31
0.0
  0
LINE
  5
CAF
330
A25
100
AcDbEntity
  8
0
  6
Continuous
 62
     1
100
AcDbLine
 10
224.5999999999999
 20
148.5999999999999
 30
0.0
 11
234.6
 21
148.5999999999999
 31
0.0
  0
LINE
  5
CB0
330
A25
100
AcDbEntity
  8
0
  6
Continuous
 62
     1
100
AcDbLine
 10
239.5999999999999
 20
148.5
 30
0.0
 11
239.5999999999999
 21
166.5
 31
0.0
  0
LINE
  5
CB1
330
A25
100
AcDbEntity
  8
0
  6
Continuous
 62
     1
100
AcDbLine
 10
238.6
 20
148.5
 30
0.0
 11
238.6
 21
166.5
 31
0.0
  0
LINE
  5
CB2
330
A25
100
AcDbEntity
  8
0
  6
Continuous
 62
     1
100
AcDbLine
 10
219.6
 20
148.5
 30
0.0
 11
219.6
 21
166.5
 31
0.0
  0
LINE
  5
CB3
330
A25
100
AcDbEntity
  8
0
  6
Continuous
 62
     1
100
AcDbLine
 10
220.5999999999999
 20
166.5
 30
0.0
 11
220.5999999999999
 21
148.5
 31
0.0
  0
LINE
  5
CB4
330
A25
100
AcDbEntity
  8
0
  6
Continuous
 62
     1
100
AcDbLine
 10
220.5999999999999
 20
154.4999999999998
 30
0.0
 11
238.6
 21
154.4999999999998
 31
0.0
  0
LINE
  5
CB5
330
A25
100
AcDbEntity
  8
0
  6
Continuous
 62
     1
100
AcDbLine
 10
238.6
 20
154.0
 30
0.0
 11
220.5999999999999
 21
154.0
 31
0.0
  0
LINE
  5
CB6
330
A25
100
AcDbEntity
  8
0
  6
Continuous
 62
     1
100
AcDbLine
 10
220.5999999999999
 20
153.5
 30
0.0
 11
238.6
 21
153.5
 31
0.0
  0
LINE
  5
CB7
330
A25
100
AcDbEntity
  8
0
  6
Continuous
 62
     1
100
AcDbLine
 10
238.6
 20
153.0
 30
0.0
 11
220.5999999999999
 21
153.0
 31
0.0
  0
LINE
  5
CB8
330
A25
100
AcDbEntity
  8
0
  6
Continuous
 62
     1
100
AcDbLine
 10
220.5999999999999
 20
152.5
 30
0.0
 11
238.6
 21
152.5
 31
0.0
  0
LINE
  5
CB9
330
A25
100
AcDbEntity
  8
0
  6
Continuous
 62
     1
100
AcDbLine
 10
238.6
 20
152.0
 30
0.0
 11
220.5999999999999
 21
152.0
 31
0.0
  0
LINE
  5
CBA
330
A25
100
AcDbEntity
  8
0
  6
Continuous
 62
     1
100
AcDbLine
 10
220.5999999999999
 20
151.5
 30
0.0
 11
238.6
 21
151.5
 31
0.0
  0
LINE
  5
CBB
330
A25
100
AcDbEntity
  8
0
  6
Continuous
 62
     1
100
AcDbLine
 10
238.6
 20
151.0
 30
0.0
 11
220.5999999999999
 21
151.0
 31
0.0
  0
LINE
  5
CBC
330
A25
100
AcDbEntity
  8
0
  6
Continuous
 62
     1
100
AcDbLine
 10
220.5999999999999
 20
150.5
 30
0.0
 11
238.6
 21
150.5
 31
0.0
  0
LINE
  5
CBD
330
A25
100
AcDbEntity
  8
0
  6
Continuous
 62
     1
100
AcDbLine
 10
238.6
 20
150.0
 30
0.0
 11
220.5999999999999
 21
150.0
 31
0.0
  0
LINE
  5
CBE
330
A25
100
AcDbEntity
  8
0
  6
Continuous
 62
     1
100
AcDbLine
 10
220.5999999999999
 20
149.5
 30
0.0
 11
238.6
 21
149.5
 31
0.0
  0
LINE
  5
CBF
330
A25
100
AcDbEntity
  8
0
  6
Continuous
 62
     1
100
AcDbLine
 10
238.6
 20
149.0
 30
0.0
 11
220.5999999999999
 21
149.0
 31
0.0
  0
LINE
  5
CC0
330
A25
100
AcDbEntity
  8
0
  6
Continuous
 62
     1
100
AcDbLine
 10
206.1999999999999
 20
148.5
 30
0.0
 11
253.0
 21
148.5
 31
0.0
  0
LINE
  5
CC1
330
A25
100
AcDbEntity
  8
0
  6
Continuous
 62
     1
100
AcDbLine
 10
254.5999999999999
 20
147.0
 30
0.0
 11
204.5999999999999
 21
147.0
 31
0.0
  0
LINE
  5
CC2
330
A25
100
AcDbEntity
  8
0
  6
Continuous
 62
     1
100
AcDbLine
 10
206.1999999999999
 20
148.5
 30
0.0
 11
253.0
 21
148.5
 31
0.0
  0
LINE
  5
CC3
330
A25
100
AcDbEntity
  8
0
  6
Continuous
 62
     1
100
AcDbLine
 10
211.2499999999998
 20
198.0
 30
0.0
 11
211.2499999999998
 21
195.0
 31
0.0
  0
LINE
  5
CC4
330
A25
100
AcDbEntity
  8
0
  6
Continuous
 62
     1
100
AcDbLine
 10
207.2
 20
151.2
 30
0.0
 11
207.2
 21
195.0
 31
0.0
  0
ARC
  5
CC5
330
A25
100
AcDbEntity
  8
0
  6
Continuous
 62
     1
100
AcDbCircle
 10
224.35
 20
183.0
 30
0.0
 40
1.0
100
AcDbArc
 50
180.0
 51
284.477512187
  0
ARC
  5
CC6
330
A25
100
AcDbEntity
  8
0
  6
Continuous
 62
     1
100
AcDbCircle
 10
219.0999999999999
 20
183.0
 30
0.0
 40
1.0
100
AcDbArc
 50
180.0
 51
0.0
  0
ARC
  5
CC7
330
A25
100
AcDbEntity
  8
0
  6
Continuous
 62
     1
100
AcDbCircle
 10
224.35
 20
183.0
 30
0.0
 40
1.0
100
AcDbArc
 50
180.0
 51
0.0
  0
LINE
  5
CC8
330
A25
100
AcDbEntity
  8
0
  6
Continuous
 62
     1
100
AcDbLine
 10
218.1
 20
183.0
 30
0.0
 11
218.1
 21
195.0
 31
0.0
  0
LINE
  5
CC9
330
A25
100
AcDbEntity
  8
0
  6
Continuous
 62
     1
100
AcDbLine
 10
220.1
 20
183.0
 30
0.0
 11
220.1
 21
195.0
 31
0.0
  0
LINE
  5
CCA
330
A25
100
AcDbEntity
  8
0
  6
Continuous
 62
     1
100
AcDbLine
 10
223.3499999999999
 20
183.0
 30
0.0
 11
223.3499999999999
 21
195.0
 31
0.0
  0
LINE
  5
CCB
330
A25
100
AcDbEntity
  8
0
  6
Continuous
 62
     1
100
AcDbLine
 10
225.3499999999999
 20
183.0
 30
0.0
 11
225.3499999999999
 21
195.0
 31
0.0
  0
ARC
  5
CCC
330
A25
100
AcDbEntity
  8
0
  6
Continuous
 62
     1
100
AcDbCircle
 10
234.85
 20
183.0
 30
0.0
 40
1.0
100
AcDbArc
 50
180.0
 51
0.0
  0
LINE
  5
CCD
330
A25
100
AcDbEntity
  8
0
  6
Continuous
 62
     1
100
AcDbLine
 10
233.8499999999999
 20
183.0
 30
0.0
 11
233.8499999999999
 21
195.0
 31
0.0
  0
LINE
  5
CCE
330
A25
100
AcDbEntity
  8
0
  6
Continuous
 62
     1
100
AcDbLine
 10
235.8499999999999
 20
183.0
 30
0.0
 11
235.8499999999999
 21
195.0
 31
0.0
  0
ARC
  5
CCF
330
A25
100
AcDbEntity
  8
0
  6
Continuous
 62
     1
100
AcDbCircle
 10
229.5999999999999
 20
180.0
 30
0.0
 40
1.0
100
AcDbArc
 50
180.0
 51
0.0
  0
LINE
  5
CD0
330
A25
100
AcDbEntity
  8
0
  6
Continuous
 62
     1
100
AcDbLine
 10
228.6
 20
180.0
 30
0.0
 11
228.6
 21
195.0
 31
0.0
  0
LINE
  5
CD1
330
A25
100
AcDbEntity
  8
0
  6
Continuous
 62
     1
100
AcDbLine
 10
230.6
 20
180.0
 30
0.0
 11
230.6
 21
195.0
 31
0.0
  0
LINE
  5
CD2
330
A25
100
AcDbEntity
  8
0
  6
Continuous
 62
     1
100
AcDbLine
 10
217.2499999999998
 20
195.0
 30
0.0
 11
217.2499999999998
 21
198.0
 31
0.0
  0
LINE
  5
CD3
330
A25
100
AcDbEntity
  8
0
  6
Continuous
 62
     1
100
AcDbLine
 10
217.2499999999998
 20
198.0
 30
0.0
 11
211.2499999999998
 21
198.0
 31
0.0
  0
ARC
  5
CD4
330
A25
100
AcDbEntity
  8
0
  6
Continuous
 62
     1
100
AcDbCircle
 10
240.0999999999999
 20
183.0
 30
0.0
 40
1.0
100
AcDbArc
 50
180.0
 51
0.0
  0
LINE
  5
CD5
330
A25
100
AcDbEntity
  8
0
  6
Continuous
 62
     1
100
AcDbLine
 10
239.1
 20
183.0
 30
0.0
 11
239.1
 21
195.0
 31
0.0
  0
LINE
  5
CD6
330
A25
100
AcDbEntity
  8
0
  6
Continuous
 62
     1
100
AcDbLine
 10
241.1
 20
183.0
 30
0.0
 11
241.1
 21
195.0
 31
0.0
  0
LINE
  5
CD8
330
A25
100
AcDbEntity
  8
0
  6
LTYPE4
 62
     1
100
AcDbLine
 10
249.9499999999999
 20
207.0
 30
0.0
 11
239.9499999999999
 21
207.0
 31
0.0
  0
LINE
  5
CD9
330
A25
100
AcDbEntity
  8
0
  6
LTYPE4
 62
     1
100
AcDbLine
 10
239.9499999999999
 20
207.0
 30
0.0
 11
239.9499999999999
 21
195.0
 31
0.0
  0
LINE
  5
CDA
330
A25
100
AcDbEntity
  8
0
  6
LTYPE4
 62
     1
100
AcDbLine
 10
249.9499999999999
 20
207.0
 30
0.0
 11
249.9499999999999
 21
195.0
 31
0.0
  0
LINE
  5
CDB
330
A25
100
AcDbEntity
  8
0
  6
LTYPE4
 62
     1
100
AcDbLine
 10
244.45
 20
214.5
 30
0.0
 11
244.45
 21
207.0
 31
0.0
  0
LINE
  5
CDC
330
A25
100
AcDbEntity
  8
0
  6
LTYPE4
 62
     1
100
AcDbLine
 10
245.4499999999999
 20
207.0
 30
0.0
 11
245.4499999999999
 21
214.5
 31
0.0
  0
LINE
  5
CDD
330
A25
100
AcDbEntity
  8
0
  6
LTYPE4
 62
     1
100
AcDbLine
 10
245.4499999999999
 20
214.5
 30
0.0
 11
244.45
 21
214.5
 31
0.0
  0
LINE
  5
CDE
330
A25
100
AcDbEntity
  8
0
  6
Continuous
 62
     1
100
AcDbLine
 10
241.9499999999999
 20
198.0
 30
0.0
 11
241.9499999999999
 21
195.0
 31
0.0
  0
LINE
  5
CDF
330
A25
100
AcDbEntity
  8
0
  6
Continuous
 62
     1
100
AcDbLine
 10
243.9499999999999
 20
203.0
 30
0.0
 11
243.9499999999999
 21
198.0
 31
0.0
  0
LINE
  5
CE0
330
A25
100
AcDbEntity
  8
0
  6
Continuous
 62
     1
100
AcDbLine
 10
245.9499999999999
 20
198.0
 30
0.0
 11
245.9499999999999
 21
203.0
 31
0.0
  0
LINE
  5
CE1
330
A25
100
AcDbEntity
  8
0
  6
Continuous
 62
     1
100
AcDbLine
 10
247.9499999999999
 20
198.0
 30
0.0
 11
241.9499999999999
 21
198.0
 31
0.0
  0
LINE
  5
CE2
330
A25
100
AcDbEntity
  8
0
  6
Continuous
 62
     1
100
AcDbLine
 10
245.9499999999999
 20
203.0
 30
0.0
 11
243.9499999999999
 21
203.0
 31
0.0
  0
LINE
  5
CE3
330
A25
100
AcDbEntity
  8
0
  6
Continuous
 62
     1
100
AcDbLine
 10
247.9499999999999
 20
195.0
 30
0.0
 11
247.9499999999999
 21
198.0
 31
0.0
  0
LINE
  5
CE4
330
A25
100
AcDbEntity
  8
0
  6
Continuous
 62
     1
100
AcDbLine
 10
207.2
 20
195.0
 30
0.0
 11
252.0
 21
195.0
 31
0.0
  0
TEXT
  5
CEF
330
A25
100
AcDbEntity
  8
0
  6
Continuous
 62
     1
100
AcDbText
 10
315.0
 20
217.2
 30
0.0
 40
4.0
  1
ＰＡＮＥＬ　ＣＵＴ
  7
KANJI12
100
AcDbText
  0
LINE
  5
CF0
330
A25
100
AcDbEntity
  8
0
  6
Continuous
 62
     1
100
AcDbLine
 10
314.0
 20
216.1999999999999
 30
0.0
 11
354.0
 21
216.1999999999999
 31
0.0
  0
ENDSEC
  0
SECTION
  2
OBJECTS
  0
DICTIONARY
  5
A13
330
0
100
AcDbDictionary
281
     1
  3
ACAD_GROUP
350
A14
  3
ACAD_PLOTSTYLENAME
350
A15
  3
ACAD_MLINESTYLE
350
A1D
  3
ACAD_PLOTSETTINGS
350
A1F
  3
ACAD_LAYOUT
350
A20
  0
DICTIONARY
  5
A14
102
{ACAD_REACTORS
330
A13
102
}
330
A13
100
AcDbDictionary
281
     1
  0
ACDBDICTIONARYWDFLT
  5
A15
102
{ACAD_REACTORS
330
A13
102
}
330
A13
100
AcDbDictionary
281
     1
  3
Normal
350
A16
100
AcDbDictionaryWithDefault
340
A16
  0
DICTIONARY
  5
A1D
102
{ACAD_REACTORS
330
A13
102
}
330
A13
100
AcDbDictionary
281
     1
  3
Standard
350
A1E
  0
DICTIONARY
  5
A1F
102
{ACAD_REACTORS
330
A13
102
}
330
A13
100
AcDbDictionary
281
     1
  0
DICTIONARY
  5
A20
102
{ACAD_REACTORS
330
A13
102
}
330
A13
100
AcDbDictionary
281
     1
  3
ﾚｲｱｳﾄ1
350
A24
  3
Model
350
A28
  0
ACDBPLACEHOLDER
  5
A16
102
{ACAD_REACTORS
330
A15
102
}
330
A15
  0
MLINESTYLE
  5
A1E
102
{ACAD_REACTORS
330
A1D
102
}
330
A1D
100
AcDbMlineStyle
  2
STANDARD
 70
     0
  3

 62
   256
 51
90.0
 52
90.0
 71
     2
 49
0.5
 62
   256
  6
BYLAYER
 49
-0.5
 62
   256
  6
BYLAYER
  0
LAYOUT
  5
A24
102
{ACAD_REACTORS
330
A20
102
}
330
A20
100
AcDbPlotSettings
  1

  2
Canon LBP-880
  4

  6

 40
0.0
 41
0.0
 42
0.0
 43
0.0
 44
0.0
 45
0.0
 46
0.0
 47
0.0
 48
0.0
 49
0.0
140
0.0
141
0.0
142
1.0
143
1.0
 70
   688
 72
     0
 73
     0
 74
     5
  7

 75
    16
147
1.0
148
0.0
149
0.0
100
AcDbLayout
  1
ﾚｲｱｳﾄ1
 70
     1
 71
     1
 10
0.0
 20
0.0
 11
12.0
 21
9.0
 12
0.0
 22
0.0
 32
0.0
 14
1.000000000000000E+20
 24
1.000000000000000E+20
 34
1.000000000000000E+20
 15
-1.000000000000000E+20
 25
-1.000000000000000E+20
 35
-1.000000000000000E+20
146
0.0
 13
0.0
 23
0.0
 33
0.0
 16
1.0
 26
0.0
 36
0.0
 17
0.0
 27
1.0
 37
0.0
 76
     0
330
A21
  0
LAYOUT
  5
A28
102
{ACAD_REACTORS
330
A20
102
}
330
A20
100
AcDbPlotSettings
  1

  2
Canon LBP-880
  4

  6

 40
0.0
 41
0.0
 42
0.0
 43
0.0
 44
0.0
 45
0.0
 46
0.0
 47
0.0
 48
0.0
 49
0.0
140
0.0
141
0.0
142
1.0
143
1.0
 70
  1712
 72
     0
 73
     0
 74
     0
  7

 75
     0
147
1.0
148
0.0
149
0.0
100
AcDbLayout
  1
Model
 70
     1
 71
     0
 10
0.0
 20
0.0
 11
12.0
 21
9.0
 12
0.0
 22
0.0
 32
0.0
 14
0.0
 24
0.0
 34
0.0
 15
0.0
 25
0.0
 35
0.0
146
0.0
 13
0.0
 23
0.0
 33
0.0
 16
1.0
 26
0.0
 36
0.0
 17
0.0
 27
1.0
 37
0.0
 76
     0
330
A25
  0
ENDSEC
  0
EOF
