  0
SECTION
  2
HEADER
  9
$ACADVER
  1
AC1015
  9
$ACADMAINTVER
 70
     6
  9
$DWGCODEPAGE
  3
ANSI_932
  9
$INSBASE
 10
0.0
 20
0.0
 30
0.0
  9
$EXTMIN
 10
7.599999999999999
 20
28.39999999999999
 30
0.0
  9
$EXTMAX
 10
221.9
 20
168.25
 30
0.3
  9
$LIMMIN
 10
0.0
 20
0.0
  9
$LIMMAX
 10
12.0
 20
9.0
  9
$ORTHOMODE
 70
     0
  9
$REGENMODE
 70
     1
  9
$FILLMODE
 70
     1
  9
$QTEXTMODE
 70
     0
  9
$MIRRTEXT
 70
     1
  9
$LTSCALE
 40
1.0
  9
$ATTMODE
 70
     1
  9
$TEXTSIZE
 40
0.2
  9
$TRACEWID
 40
0.05
  9
$TEXTSTYLE
  7
STANDARD
  9
$CLAYER
  8
0
  9
$CELTYPE
  6
CONTINUOUS
  9
$CECOLOR
 62
   256
  9
$CELTSCALE
 40
1.0
  9
$DISPSILH
 70
     0
  9
$DIMSCALE
 40
1.0
  9
$DIMASZ
 40
0.18
  9
$DIMEXO
 40
0.0625
  9
$DIMDLI
 40
0.38
  9
$DIMRND
 40
0.0
  9
$DIMDLE
 40
0.0
  9
$DIMEXE
 40
0.18
  9
$DIMTP
 40
0.0
  9
$DIMTM
 40
0.0
  9
$DIMTXT
 40
0.18
  9
$DIMCEN
 40
0.09
  9
$DIMTSZ
 40
0.0
  9
$DIMTOL
 70
     0
  9
$DIMLIM
 70
     0
  9
$DIMTIH
 70
     1
  9
$DIMTOH
 70
     1
  9
$DIMSE1
 70
     0
  9
$DIMSE2
 70
     0
  9
$DIMTAD
 70
     0
  9
$DIMZIN
 70
     0
  9
$DIMBLK
  1

  9
$DIMASO
 70
     1
  9
$DIMSHO
 70
     1
  9
$DIMPOST
  1

  9
$DIMAPOST
  1

  9
$DIMALT
 70
     0
  9
$DIMALTD
 70
     2
  9
$DIMALTF
 40
25.4
  9
$DIMLFAC
 40
1.0
  9
$DIMTOFL
 70
     0
  9
$DIMTVP
 40
0.0
  9
$DIMTIX
 70
     0
  9
$DIMSOXD
 70
     0
  9
$DIMSAH
 70
     0
  9
$DIMBLK1
  1

  9
$DIMBLK2
  1

  9
$DIMSTYLE
  2
STANDARD
  9
$DIMCLRD
 70
     0
  9
$DIMCLRE
 70
     0
  9
$DIMCLRT
 70
     0
  9
$DIMTFAC
 40
1.0
  9
$DIMGAP
 40
0.09
  9
$DIMJUST
 70
     0
  9
$DIMSD1
 70
     0
  9
$DIMSD2
 70
     0
  9
$DIMTOLJ
 70
     1
  9
$DIMTZIN
 70
     0
  9
$DIMALTZ
 70
     0
  9
$DIMALTTZ
 70
     0
  9
$DIMUPT
 70
     0
  9
$DIMDEC
 70
     4
  9
$DIMTDEC
 70
     4
  9
$DIMALTU
 70
     2
  9
$DIMALTTD
 70
     2
  9
$DIMTXSTY
  7
STANDARD
  9
$DIMAUNIT
 70
     0
  9
$DIMADEC
 70
     0
  9
$DIMALTRND
 40
0.0
  9
$DIMAZIN
 70
     0
  9
$DIMDSEP
 70
    46
  9
$DIMATFIT
 70
     3
  9
$DIMFRAC
 70
     0
  9
$DIMLDRBLK
  1

  9
$DIMLUNIT
 70
     2
  9
$DIMLWD
 70
    -2
  9
$DIMLWE
 70
    -2
  9
$DIMTMOVE
 70
     0
  9
$LUNITS
 70
     2
  9
$LUPREC
 70
     4
  9
$SKETCHINC
 40
0.1
  9
$FILLETRAD
 40
0.0
  9
$AUNITS
 70
     0
  9
$AUPREC
 70
     0
  9
$MENU
  1
.
  9
$ELEVATION
 40
0.0
  9
$PELEVATION
 40
0.0
  9
$THICKNESS
 40
0.0
  9
$LIMCHECK
 70
     0
  9
$CHAMFERA
 40
0.0
  9
$CHAMFERB
 40
0.0
  9
$CHAMFERC
 40
0.0
  9
$CHAMFERD
 40
0.0
  9
$SKPOLY
 70
     0
  9
$TDCREATE
 40
2452152.883615046
  9
$TDUCREATE
 40
2452152.508615046
  9
$TDUPDATE
 40
2452723.685159259
  9
$TDUUPDATE
 40
2452723.310159259
  9
$TDINDWG
 40
0.0049680440
  9
$TDUSRTIMER
 40
0.0049665394
  9
$USRTIMER
 70
     1
  9
$ANGBASE
 50
0.0
  9
$ANGDIR
 70
     0
  9
$PDMODE
 70
     0
  9
$PDSIZE
 40
0.0
  9
$PLINEWID
 40
0.0
  9
$SPLFRAME
 70
     0
  9
$SPLINETYPE
 70
     6
  9
$SPLINESEGS
 70
     8
  9
$HANDSEED
  5
4FB
  9
$SURFTAB1
 70
     6
  9
$SURFTAB2
 70
     6
  9
$SURFTYPE
 70
     6
  9
$SURFU
 70
     6
  9
$SURFV
 70
     6
  9
$UCSBASE
  2

  9
$UCSNAME
  2

  9
$UCSORG
 10
0.0
 20
0.0
 30
0.0
  9
$UCSXDIR
 10
1.0
 20
0.0
 30
0.0
  9
$UCSYDIR
 10
0.0
 20
1.0
 30
0.0
  9
$UCSORTHOREF
  2

  9
$UCSORTHOVIEW
 70
     0
  9
$UCSORGTOP
 10
0.0
 20
0.0
 30
0.0
  9
$UCSORGBOTTOM
 10
0.0
 20
0.0
 30
0.0
  9
$UCSORGLEFT
 10
0.0
 20
0.0
 30
0.0
  9
$UCSORGRIGHT
 10
0.0
 20
0.0
 30
0.0
  9
$UCSORGFRONT
 10
0.0
 20
0.0
 30
0.0
  9
$UCSORGBACK
 10
0.0
 20
0.0
 30
0.0
  9
$PUCSBASE
  2

  9
$PUCSNAME
  2

  9
$PUCSORG
 10
0.0
 20
0.0
 30
0.0
  9
$PUCSXDIR
 10
1.0
 20
0.0
 30
0.0
  9
$PUCSYDIR
 10
0.0
 20
1.0
 30
0.0
  9
$PUCSORTHOREF
  2

  9
$PUCSORTHOVIEW
 70
     0
  9
$PUCSORGTOP
 10
0.0
 20
0.0
 30
0.0
  9
$PUCSORGBOTTOM
 10
0.0
 20
0.0
 30
0.0
  9
$PUCSORGLEFT
 10
0.0
 20
0.0
 30
0.0
  9
$PUCSORGRIGHT
 10
0.0
 20
0.0
 30
0.0
  9
$PUCSORGFRONT
 10
0.0
 20
0.0
 30
0.0
  9
$PUCSORGBACK
 10
0.0
 20
0.0
 30
0.0
  9
$USERI1
 70
     0
  9
$USERI2
 70
     0
  9
$USERI3
 70
     0
  9
$USERI4
 70
     0
  9
$USERI5
 70
     0
  9
$USERR1
 40
0.0
  9
$USERR2
 40
0.0
  9
$USERR3
 40
0.0
  9
$USERR4
 40
0.0
  9
$USERR5
 40
0.0
  9
$WORLDVIEW
 70
     1
  9
$SHADEDGE
 70
     3
  9
$SHADEDIF
 70
    70
  9
$TILEMODE
 70
     1
  9
$MAXACTVP
 70
    64
  9
$PINSBASE
 10
0.0
 20
0.0
 30
0.0
  9
$PLIMCHECK
 70
     0
  9
$PEXTMIN
 10
1.000000000000000E+20
 20
1.000000000000000E+20
 30
1.000000000000000E+20
  9
$PEXTMAX
 10
-1.000000000000000E+20
 20
-1.000000000000000E+20
 30
-1.000000000000000E+20
  9
$PLIMMIN
 10
0.0
 20
0.0
  9
$PLIMMAX
 10
12.0
 20
9.0
  9
$UNITMODE
 70
     0
  9
$VISRETAIN
 70
     1
  9
$PLINEGEN
 70
     0
  9
$PSLTSCALE
 70
     1
  9
$TREEDEPTH
 70
  3020
  9
$CMLSTYLE
  2
Standard
  9
$CMLJUST
 70
     0
  9
$CMLSCALE
 40
1.0
  9
$PROXYGRAPHICS
 70
     1
  9
$MEASUREMENT
 70
     0
  9
$CELWEIGHT
370
    -1
  9
$ENDCAPS
280
     0
  9
$JOINSTYLE
280
     0
  9
$LWDISPLAY
290
     0
  9
$INSUNITS
 70
     0
  9
$HYPERLINKBASE
  1

  9
$STYLESHEET
  1

  9
$XEDIT
290
     1
  9
$CEPSNTYPE
380
     0
  9
$PSTYLEMODE
290
     1
  9
$FINGERPRINTGUID
  2
{5F22B8FC-50B6-11D7-9C19-0040267F10D4}
  9
$VERSIONGUID
  2
{DCFEE1E6-5E13-11D7-9C19-0040267F10D4}
  9
$EXTNAMES
290
     1
  9
$PSVPSCALE
 40
0.0
  9
$OLESTARTUP
290
     0
  0
ENDSEC
  0
SECTION
  2
CLASSES
  0
CLASS
  1
ACDBDICTIONARYWDFLT
  2
AcDbDictionaryWithDefault
  3
AutoCAD 2000
 90
        0
280
     0
281
     0
  0
CLASS
  1
ACDBPLACEHOLDER
  2
AcDbPlaceHolder
  3
AutoCAD 2000
 90
        0
280
     0
281
     0
  0
CLASS
  1
LAYOUT
  2
AcDbLayout
  3
AutoCAD 2000
 90
        0
280
     0
281
     0
  0
ENDSEC
  0
SECTION
  2
TABLES
  0
TABLE
  2
VPORT
  5
286
330
0
100
AcDbSymbolTable
 70
     3
  0
VPORT
  5
4FA
330
286
100
AcDbSymbolTableRecord
100
AcDbViewportTableRecord
  2
*Active
 70
     0
 10
0.0
 20
0.0
 11
1.0
 21
1.0
 12
102.6058959167557
 22
91.77584942166944
 13
0.0
 23
0.0
 14
1.0
 24
1.0
 15
0.0
 25
0.0
 16
0.0
 26
0.0
 36
1.0
 17
0.0
 27
0.0
 37
0.0
 40
170.0179715156739
 41
2.210374639769452
 42
50.0
 43
0.0
 44
0.0
 50
0.0
 51
0.0
 71
     0
 72
   100
 73
     1
 74
     1
 75
     0
 76
     0
 77
     0
 78
     0
281
     0
 65
     1
110
0.0
120
0.0
130
0.0
111
1.0
121
0.0
131
0.0
112
0.0
122
1.0
132
0.0
 79
     0
146
0.0
  0
ENDTAB
  0
TABLE
  2
LTYPE
  5
283
330
0
100
AcDbSymbolTable
 70
     3
  0
LTYPE
  5
291
330
283
100
AcDbSymbolTableRecord
100
AcDbLinetypeTableRecord
  2
ByBlock
 70
     0
  3

 72
    65
 73
     0
 40
0.0
  0
LTYPE
  5
292
330
283
100
AcDbSymbolTableRecord
100
AcDbLinetypeTableRecord
  2
ByLayer
 70
     0
  3

 72
    65
 73
     0
 40
0.0
  0
LTYPE
  5
293
330
283
100
AcDbSymbolTableRecord
100
AcDbLinetypeTableRecord
  2
CONTINUOUS
 70
     0
  3
Solid line
 72
    65
 73
     0
 40
0.0
  0
LTYPE
  5
2A1
330
283
100
AcDbSymbolTableRecord
100
AcDbLinetypeTableRecord
  2
LTYPE1
 70
     0
  3
CENTER
 72
    65
 73
     4
 40
15.0
 49
10.5
 74
     0
 49
-1.5
 74
     0
 49
1.5
 74
     0
 49
-1.5
 74
     0
  0
LTYPE
  5
2A2
330
283
100
AcDbSymbolTableRecord
100
AcDbLinetypeTableRecord
  2
LTYPE2
 70
     0
  3
HIDDEN
 72
    65
 73
     2
 40
3.0
 49
1.8
 74
     0
 49
-1.199999999999999
 74
     0
  0
ENDTAB
  0
TABLE
  2
LAYER
  5
280
330
0
100
AcDbSymbolTable
 70
   128
  0
LAYER
  5
28E
330
280
100
AcDbSymbolTableRecord
100
AcDbLayerTableRecord
  2
0
 70
     0
 62
     7
  6
CONTINUOUS
370
    -3
390
28D
  0
LAYER
  5
2A3
330
280
100
AcDbSymbolTableRecord
100
AcDbLayerTableRecord
  2
1
 70
     0
 62
     7
  6
CONTINUOUS
370
    -3
390
28D
  0
LAYER
  5
2A4
330
280
100
AcDbSymbolTableRecord
100
AcDbLayerTableRecord
  2
2
 70
     0
 62
     7
  6
CONTINUOUS
370
    -3
390
28D
  0
LAYER
  5
2A5
330
280
100
AcDbSymbolTableRecord
100
AcDbLayerTableRecord
  2
3
 70
     0
 62
     7
  6
CONTINUOUS
370
    -3
390
28D
  0
LAYER
  5
2A6
330
280
100
AcDbSymbolTableRecord
100
AcDbLayerTableRecord
  2
4
 70
     0
 62
     7
  6
CONTINUOUS
370
    -3
390
28D
  0
LAYER
  5
2A7
330
280
100
AcDbSymbolTableRecord
100
AcDbLayerTableRecord
  2
5
 70
     0
 62
     7
  6
CONTINUOUS
370
    -3
390
28D
  0
LAYER
  5
2A8
330
280
100
AcDbSymbolTableRecord
100
AcDbLayerTableRecord
  2
6
 70
     0
 62
     7
  6
CONTINUOUS
370
    -3
390
28D
  0
LAYER
  5
2A9
330
280
100
AcDbSymbolTableRecord
100
AcDbLayerTableRecord
  2
7
 70
     0
 62
     7
  6
CONTINUOUS
370
    -3
390
28D
  0
LAYER
  5
2AA
330
280
100
AcDbSymbolTableRecord
100
AcDbLayerTableRecord
  2
8
 70
     0
 62
     7
  6
CONTINUOUS
370
    -3
390
28D
  0
LAYER
  5
2AB
330
280
100
AcDbSymbolTableRecord
100
AcDbLayerTableRecord
  2
9
 70
     0
 62
     7
  6
CONTINUOUS
370
    -3
390
28D
  0
LAYER
  5
2AC
330
280
100
AcDbSymbolTableRecord
100
AcDbLayerTableRecord
  2
10
 70
     0
 62
     7
  6
CONTINUOUS
370
    -3
390
28D
  0
LAYER
  5
2AD
330
280
100
AcDbSymbolTableRecord
100
AcDbLayerTableRecord
  2
11
 70
     0
 62
     7
  6
CONTINUOUS
370
    -3
390
28D
  0
LAYER
  5
2AE
330
280
100
AcDbSymbolTableRecord
100
AcDbLayerTableRecord
  2
12
 70
     0
 62
     7
  6
CONTINUOUS
370
    -3
390
28D
  0
LAYER
  5
2AF
330
280
100
AcDbSymbolTableRecord
100
AcDbLayerTableRecord
  2
13
 70
     0
 62
     7
  6
CONTINUOUS
370
    -3
390
28D
  0
LAYER
  5
2B0
330
280
100
AcDbSymbolTableRecord
100
AcDbLayerTableRecord
  2
14
 70
     0
 62
     7
  6
CONTINUOUS
370
    -3
390
28D
  0
LAYER
  5
2B1
330
280
100
AcDbSymbolTableRecord
100
AcDbLayerTableRecord
  2
15
 70
     0
 62
     7
  6
CONTINUOUS
370
    -3
390
28D
  0
LAYER
  5
2B2
330
280
100
AcDbSymbolTableRecord
100
AcDbLayerTableRecord
  2
16
 70
     0
 62
     7
  6
CONTINUOUS
370
    -3
390
28D
  0
LAYER
  5
2B3
330
280
100
AcDbSymbolTableRecord
100
AcDbLayerTableRecord
  2
17
 70
     0
 62
     7
  6
CONTINUOUS
370
    -3
390
28D
  0
LAYER
  5
2B4
330
280
100
AcDbSymbolTableRecord
100
AcDbLayerTableRecord
  2
18
 70
     0
 62
     7
  6
CONTINUOUS
370
    -3
390
28D
  0
LAYER
  5
2B5
330
280
100
AcDbSymbolTableRecord
100
AcDbLayerTableRecord
  2
19
 70
     0
 62
     7
  6
CONTINUOUS
370
    -3
390
28D
  0
LAYER
  5
2B6
330
280
100
AcDbSymbolTableRecord
100
AcDbLayerTableRecord
  2
20
 70
     0
 62
     7
  6
CONTINUOUS
370
    -3
390
28D
  0
LAYER
  5
2B7
330
280
100
AcDbSymbolTableRecord
100
AcDbLayerTableRecord
  2
21
 70
     0
 62
     7
  6
CONTINUOUS
370
    -3
390
28D
  0
LAYER
  5
2B8
330
280
100
AcDbSymbolTableRecord
100
AcDbLayerTableRecord
  2
22
 70
     0
 62
     7
  6
CONTINUOUS
370
    -3
390
28D
  0
LAYER
  5
2B9
330
280
100
AcDbSymbolTableRecord
100
AcDbLayerTableRecord
  2
23
 70
     0
 62
     7
  6
CONTINUOUS
370
    -3
390
28D
  0
LAYER
  5
2BA
330
280
100
AcDbSymbolTableRecord
100
AcDbLayerTableRecord
  2
24
 70
     0
 62
     7
  6
CONTINUOUS
370
    -3
390
28D
  0
LAYER
  5
2BB
330
280
100
AcDbSymbolTableRecord
100
AcDbLayerTableRecord
  2
25
 70
     0
 62
     7
  6
CONTINUOUS
370
    -3
390
28D
  0
LAYER
  5
2BC
330
280
100
AcDbSymbolTableRecord
100
AcDbLayerTableRecord
  2
26
 70
     0
 62
     7
  6
CONTINUOUS
370
    -3
390
28D
  0
LAYER
  5
2BD
330
280
100
AcDbSymbolTableRecord
100
AcDbLayerTableRecord
  2
27
 70
     0
 62
     7
  6
CONTINUOUS
370
    -3
390
28D
  0
LAYER
  5
2BE
330
280
100
AcDbSymbolTableRecord
100
AcDbLayerTableRecord
  2
28
 70
     0
 62
     7
  6
CONTINUOUS
370
    -3
390
28D
  0
LAYER
  5
2BF
330
280
100
AcDbSymbolTableRecord
100
AcDbLayerTableRecord
  2
29
 70
     0
 62
     7
  6
CONTINUOUS
370
    -3
390
28D
  0
LAYER
  5
2C0
330
280
100
AcDbSymbolTableRecord
100
AcDbLayerTableRecord
  2
30
 70
     0
 62
     7
  6
CONTINUOUS
370
    -3
390
28D
  0
LAYER
  5
2C1
330
280
100
AcDbSymbolTableRecord
100
AcDbLayerTableRecord
  2
31
 70
     0
 62
     7
  6
CONTINUOUS
370
    -3
390
28D
  0
LAYER
  5
2C2
330
280
100
AcDbSymbolTableRecord
100
AcDbLayerTableRecord
  2
32
 70
     0
 62
     7
  6
CONTINUOUS
370
    -3
390
28D
  0
LAYER
  5
2C3
330
280
100
AcDbSymbolTableRecord
100
AcDbLayerTableRecord
  2
33
 70
     0
 62
     7
  6
CONTINUOUS
370
    -3
390
28D
  0
LAYER
  5
2C4
330
280
100
AcDbSymbolTableRecord
100
AcDbLayerTableRecord
  2
34
 70
     0
 62
     7
  6
CONTINUOUS
370
    -3
390
28D
  0
LAYER
  5
2C5
330
280
100
AcDbSymbolTableRecord
100
AcDbLayerTableRecord
  2
35
 70
     0
 62
     7
  6
CONTINUOUS
370
    -3
390
28D
  0
LAYER
  5
2C6
330
280
100
AcDbSymbolTableRecord
100
AcDbLayerTableRecord
  2
36
 70
     0
 62
     7
  6
CONTINUOUS
370
    -3
390
28D
  0
LAYER
  5
2C7
330
280
100
AcDbSymbolTableRecord
100
AcDbLayerTableRecord
  2
37
 70
     0
 62
     7
  6
CONTINUOUS
370
    -3
390
28D
  0
LAYER
  5
2C8
330
280
100
AcDbSymbolTableRecord
100
AcDbLayerTableRecord
  2
38
 70
     0
 62
     7
  6
CONTINUOUS
370
    -3
390
28D
  0
LAYER
  5
2C9
330
280
100
AcDbSymbolTableRecord
100
AcDbLayerTableRecord
  2
39
 70
     0
 62
     7
  6
CONTINUOUS
370
    -3
390
28D
  0
LAYER
  5
2CA
330
280
100
AcDbSymbolTableRecord
100
AcDbLayerTableRecord
  2
40
 70
     0
 62
     7
  6
CONTINUOUS
370
    -3
390
28D
  0
LAYER
  5
2CB
330
280
100
AcDbSymbolTableRecord
100
AcDbLayerTableRecord
  2
41
 70
     0
 62
     7
  6
CONTINUOUS
370
    -3
390
28D
  0
LAYER
  5
2CC
330
280
100
AcDbSymbolTableRecord
100
AcDbLayerTableRecord
  2
42
 70
     0
 62
     7
  6
CONTINUOUS
370
    -3
390
28D
  0
LAYER
  5
2CD
330
280
100
AcDbSymbolTableRecord
100
AcDbLayerTableRecord
  2
43
 70
     0
 62
     7
  6
CONTINUOUS
370
    -3
390
28D
  0
LAYER
  5
2CE
330
280
100
AcDbSymbolTableRecord
100
AcDbLayerTableRecord
  2
44
 70
     0
 62
     7
  6
CONTINUOUS
370
    -3
390
28D
  0
LAYER
  5
2CF
330
280
100
AcDbSymbolTableRecord
100
AcDbLayerTableRecord
  2
45
 70
     0
 62
     7
  6
CONTINUOUS
370
    -3
390
28D
  0
LAYER
  5
2D0
330
280
100
AcDbSymbolTableRecord
100
AcDbLayerTableRecord
  2
46
 70
     0
 62
     7
  6
CONTINUOUS
370
    -3
390
28D
  0
LAYER
  5
2D1
330
280
100
AcDbSymbolTableRecord
100
AcDbLayerTableRecord
  2
47
 70
     0
 62
     7
  6
CONTINUOUS
370
    -3
390
28D
  0
LAYER
  5
2D2
330
280
100
AcDbSymbolTableRecord
100
AcDbLayerTableRecord
  2
48
 70
     0
 62
     7
  6
CONTINUOUS
370
    -3
390
28D
  0
LAYER
  5
2D3
330
280
100
AcDbSymbolTableRecord
100
AcDbLayerTableRecord
  2
49
 70
     0
 62
     7
  6
CONTINUOUS
370
    -3
390
28D
  0
LAYER
  5
2D4
330
280
100
AcDbSymbolTableRecord
100
AcDbLayerTableRecord
  2
50
 70
     0
 62
     7
  6
CONTINUOUS
370
    -3
390
28D
  0
LAYER
  5
2D5
330
280
100
AcDbSymbolTableRecord
100
AcDbLayerTableRecord
  2
51
 70
     0
 62
     7
  6
CONTINUOUS
370
    -3
390
28D
  0
LAYER
  5
2D6
330
280
100
AcDbSymbolTableRecord
100
AcDbLayerTableRecord
  2
52
 70
     0
 62
     7
  6
CONTINUOUS
370
    -3
390
28D
  0
LAYER
  5
2D7
330
280
100
AcDbSymbolTableRecord
100
AcDbLayerTableRecord
  2
53
 70
     0
 62
     7
  6
CONTINUOUS
370
    -3
390
28D
  0
LAYER
  5
2D8
330
280
100
AcDbSymbolTableRecord
100
AcDbLayerTableRecord
  2
54
 70
     0
 62
     7
  6
CONTINUOUS
370
    -3
390
28D
  0
LAYER
  5
2D9
330
280
100
AcDbSymbolTableRecord
100
AcDbLayerTableRecord
  2
55
 70
     0
 62
     7
  6
CONTINUOUS
370
    -3
390
28D
  0
LAYER
  5
2DA
330
280
100
AcDbSymbolTableRecord
100
AcDbLayerTableRecord
  2
56
 70
     0
 62
     7
  6
CONTINUOUS
370
    -3
390
28D
  0
LAYER
  5
2DB
330
280
100
AcDbSymbolTableRecord
100
AcDbLayerTableRecord
  2
57
 70
     0
 62
     7
  6
CONTINUOUS
370
    -3
390
28D
  0
LAYER
  5
2DC
330
280
100
AcDbSymbolTableRecord
100
AcDbLayerTableRecord
  2
58
 70
     0
 62
     7
  6
CONTINUOUS
370
    -3
390
28D
  0
LAYER
  5
2DD
330
280
100
AcDbSymbolTableRecord
100
AcDbLayerTableRecord
  2
59
 70
     0
 62
     7
  6
CONTINUOUS
370
    -3
390
28D
  0
LAYER
  5
2DE
330
280
100
AcDbSymbolTableRecord
100
AcDbLayerTableRecord
  2
60
 70
     0
 62
     7
  6
CONTINUOUS
370
    -3
390
28D
  0
LAYER
  5
2DF
330
280
100
AcDbSymbolTableRecord
100
AcDbLayerTableRecord
  2
61
 70
     0
 62
     7
  6
CONTINUOUS
370
    -3
390
28D
  0
LAYER
  5
2E0
330
280
100
AcDbSymbolTableRecord
100
AcDbLayerTableRecord
  2
62
 70
     0
 62
     7
  6
CONTINUOUS
370
    -3
390
28D
  0
LAYER
  5
2E1
330
280
100
AcDbSymbolTableRecord
100
AcDbLayerTableRecord
  2
63
 70
     0
 62
     7
  6
CONTINUOUS
370
    -3
390
28D
  0
LAYER
  5
2E2
330
280
100
AcDbSymbolTableRecord
100
AcDbLayerTableRecord
  2
64
 70
     0
 62
     7
  6
CONTINUOUS
370
    -3
390
28D
  0
LAYER
  5
2E3
330
280
100
AcDbSymbolTableRecord
100
AcDbLayerTableRecord
  2
65
 70
     0
 62
     7
  6
CONTINUOUS
370
    -3
390
28D
  0
LAYER
  5
2E4
330
280
100
AcDbSymbolTableRecord
100
AcDbLayerTableRecord
  2
66
 70
     0
 62
     7
  6
CONTINUOUS
370
    -3
390
28D
  0
LAYER
  5
2E5
330
280
100
AcDbSymbolTableRecord
100
AcDbLayerTableRecord
  2
67
 70
     0
 62
     7
  6
CONTINUOUS
370
    -3
390
28D
  0
LAYER
  5
2E6
330
280
100
AcDbSymbolTableRecord
100
AcDbLayerTableRecord
  2
68
 70
     0
 62
     7
  6
CONTINUOUS
370
    -3
390
28D
  0
LAYER
  5
2E7
330
280
100
AcDbSymbolTableRecord
100
AcDbLayerTableRecord
  2
69
 70
     0
 62
     7
  6
CONTINUOUS
370
    -3
390
28D
  0
LAYER
  5
2E8
330
280
100
AcDbSymbolTableRecord
100
AcDbLayerTableRecord
  2
70
 70
     0
 62
     7
  6
CONTINUOUS
370
    -3
390
28D
  0
LAYER
  5
2E9
330
280
100
AcDbSymbolTableRecord
100
AcDbLayerTableRecord
  2
71
 70
     0
 62
     7
  6
CONTINUOUS
370
    -3
390
28D
  0
LAYER
  5
2EA
330
280
100
AcDbSymbolTableRecord
100
AcDbLayerTableRecord
  2
72
 70
     0
 62
     7
  6
CONTINUOUS
370
    -3
390
28D
  0
LAYER
  5
2EB
330
280
100
AcDbSymbolTableRecord
100
AcDbLayerTableRecord
  2
73
 70
     0
 62
     7
  6
CONTINUOUS
370
    -3
390
28D
  0
LAYER
  5
2EC
330
280
100
AcDbSymbolTableRecord
100
AcDbLayerTableRecord
  2
74
 70
     0
 62
     7
  6
CONTINUOUS
370
    -3
390
28D
  0
LAYER
  5
2ED
330
280
100
AcDbSymbolTableRecord
100
AcDbLayerTableRecord
  2
75
 70
     0
 62
     7
  6
CONTINUOUS
370
    -3
390
28D
  0
LAYER
  5
2EE
330
280
100
AcDbSymbolTableRecord
100
AcDbLayerTableRecord
  2
76
 70
     0
 62
     7
  6
CONTINUOUS
370
    -3
390
28D
  0
LAYER
  5
2EF
330
280
100
AcDbSymbolTableRecord
100
AcDbLayerTableRecord
  2
77
 70
     0
 62
     7
  6
CONTINUOUS
370
    -3
390
28D
  0
LAYER
  5
2F0
330
280
100
AcDbSymbolTableRecord
100
AcDbLayerTableRecord
  2
78
 70
     0
 62
     7
  6
CONTINUOUS
370
    -3
390
28D
  0
LAYER
  5
2F1
330
280
100
AcDbSymbolTableRecord
100
AcDbLayerTableRecord
  2
79
 70
     0
 62
     7
  6
CONTINUOUS
370
    -3
390
28D
  0
LAYER
  5
2F2
330
280
100
AcDbSymbolTableRecord
100
AcDbLayerTableRecord
  2
80
 70
     0
 62
     7
  6
CONTINUOUS
370
    -3
390
28D
  0
LAYER
  5
2F3
330
280
100
AcDbSymbolTableRecord
100
AcDbLayerTableRecord
  2
81
 70
     0
 62
     7
  6
CONTINUOUS
370
    -3
390
28D
  0
LAYER
  5
2F4
330
280
100
AcDbSymbolTableRecord
100
AcDbLayerTableRecord
  2
82
 70
     0
 62
     7
  6
CONTINUOUS
370
    -3
390
28D
  0
LAYER
  5
2F5
330
280
100
AcDbSymbolTableRecord
100
AcDbLayerTableRecord
  2
83
 70
     0
 62
     7
  6
CONTINUOUS
370
    -3
390
28D
  0
LAYER
  5
2F6
330
280
100
AcDbSymbolTableRecord
100
AcDbLayerTableRecord
  2
84
 70
     0
 62
     7
  6
CONTINUOUS
370
    -3
390
28D
  0
LAYER
  5
2F7
330
280
100
AcDbSymbolTableRecord
100
AcDbLayerTableRecord
  2
85
 70
     0
 62
     7
  6
CONTINUOUS
370
    -3
390
28D
  0
LAYER
  5
2F8
330
280
100
AcDbSymbolTableRecord
100
AcDbLayerTableRecord
  2
86
 70
     0
 62
     7
  6
CONTINUOUS
370
    -3
390
28D
  0
LAYER
  5
2F9
330
280
100
AcDbSymbolTableRecord
100
AcDbLayerTableRecord
  2
87
 70
     0
 62
     7
  6
CONTINUOUS
370
    -3
390
28D
  0
LAYER
  5
2FA
330
280
100
AcDbSymbolTableRecord
100
AcDbLayerTableRecord
  2
88
 70
     0
 62
     7
  6
CONTINUOUS
370
    -3
390
28D
  0
LAYER
  5
2FB
330
280
100
AcDbSymbolTableRecord
100
AcDbLayerTableRecord
  2
89
 70
     0
 62
     7
  6
CONTINUOUS
370
    -3
390
28D
  0
LAYER
  5
2FC
330
280
100
AcDbSymbolTableRecord
100
AcDbLayerTableRecord
  2
90
 70
     0
 62
     7
  6
CONTINUOUS
370
    -3
390
28D
  0
LAYER
  5
2FD
330
280
100
AcDbSymbolTableRecord
100
AcDbLayerTableRecord
  2
91
 70
     0
 62
     7
  6
CONTINUOUS
370
    -3
390
28D
  0
LAYER
  5
2FE
330
280
100
AcDbSymbolTableRecord
100
AcDbLayerTableRecord
  2
92
 70
     0
 62
     7
  6
CONTINUOUS
370
    -3
390
28D
  0
LAYER
  5
2FF
330
280
100
AcDbSymbolTableRecord
100
AcDbLayerTableRecord
  2
93
 70
     0
 62
     7
  6
CONTINUOUS
370
    -3
390
28D
  0
LAYER
  5
300
330
280
100
AcDbSymbolTableRecord
100
AcDbLayerTableRecord
  2
94
 70
     0
 62
     7
  6
CONTINUOUS
370
    -3
390
28D
  0
LAYER
  5
301
330
280
100
AcDbSymbolTableRecord
100
AcDbLayerTableRecord
  2
95
 70
     0
 62
     7
  6
CONTINUOUS
370
    -3
390
28D
  0
LAYER
  5
302
330
280
100
AcDbSymbolTableRecord
100
AcDbLayerTableRecord
  2
96
 70
     0
 62
     7
  6
CONTINUOUS
370
    -3
390
28D
  0
LAYER
  5
303
330
280
100
AcDbSymbolTableRecord
100
AcDbLayerTableRecord
  2
97
 70
     0
 62
     7
  6
CONTINUOUS
370
    -3
390
28D
  0
LAYER
  5
304
330
280
100
AcDbSymbolTableRecord
100
AcDbLayerTableRecord
  2
98
 70
     0
 62
     7
  6
CONTINUOUS
370
    -3
390
28D
  0
LAYER
  5
305
330
280
100
AcDbSymbolTableRecord
100
AcDbLayerTableRecord
  2
99
 70
     0
 62
     7
  6
CONTINUOUS
370
    -3
390
28D
  0
LAYER
  5
306
330
280
100
AcDbSymbolTableRecord
100
AcDbLayerTableRecord
  2
100
 70
     0
 62
     7
  6
CONTINUOUS
370
    -3
390
28D
  0
LAYER
  5
307
330
280
100
AcDbSymbolTableRecord
100
AcDbLayerTableRecord
  2
101
 70
     0
 62
     7
  6
CONTINUOUS
370
    -3
390
28D
  0
LAYER
  5
308
330
280
100
AcDbSymbolTableRecord
100
AcDbLayerTableRecord
  2
102
 70
     0
 62
     7
  6
CONTINUOUS
370
    -3
390
28D
  0
LAYER
  5
309
330
280
100
AcDbSymbolTableRecord
100
AcDbLayerTableRecord
  2
103
 70
     0
 62
     7
  6
CONTINUOUS
370
    -3
390
28D
  0
LAYER
  5
30A
330
280
100
AcDbSymbolTableRecord
100
AcDbLayerTableRecord
  2
104
 70
     0
 62
     7
  6
CONTINUOUS
370
    -3
390
28D
  0
LAYER
  5
30B
330
280
100
AcDbSymbolTableRecord
100
AcDbLayerTableRecord
  2
105
 70
     0
 62
     7
  6
CONTINUOUS
370
    -3
390
28D
  0
LAYER
  5
30C
330
280
100
AcDbSymbolTableRecord
100
AcDbLayerTableRecord
  2
106
 70
     0
 62
     7
  6
CONTINUOUS
370
    -3
390
28D
  0
LAYER
  5
30D
330
280
100
AcDbSymbolTableRecord
100
AcDbLayerTableRecord
  2
107
 70
     0
 62
     7
  6
CONTINUOUS
370
    -3
390
28D
  0
LAYER
  5
30E
330
280
100
AcDbSymbolTableRecord
100
AcDbLayerTableRecord
  2
108
 70
     0
 62
     7
  6
CONTINUOUS
370
    -3
390
28D
  0
LAYER
  5
30F
330
280
100
AcDbSymbolTableRecord
100
AcDbLayerTableRecord
  2
109
 70
     0
 62
     7
  6
CONTINUOUS
370
    -3
390
28D
  0
LAYER
  5
310
330
280
100
AcDbSymbolTableRecord
100
AcDbLayerTableRecord
  2
110
 70
     0
 62
     7
  6
CONTINUOUS
370
    -3
390
28D
  0
LAYER
  5
311
330
280
100
AcDbSymbolTableRecord
100
AcDbLayerTableRecord
  2
111
 70
     0
 62
     7
  6
CONTINUOUS
370
    -3
390
28D
  0
LAYER
  5
312
330
280
100
AcDbSymbolTableRecord
100
AcDbLayerTableRecord
  2
112
 70
     0
 62
     7
  6
CONTINUOUS
370
    -3
390
28D
  0
LAYER
  5
313
330
280
100
AcDbSymbolTableRecord
100
AcDbLayerTableRecord
  2
113
 70
     0
 62
     7
  6
CONTINUOUS
370
    -3
390
28D
  0
LAYER
  5
314
330
280
100
AcDbSymbolTableRecord
100
AcDbLayerTableRecord
  2
114
 70
     0
 62
     7
  6
CONTINUOUS
370
    -3
390
28D
  0
LAYER
  5
315
330
280
100
AcDbSymbolTableRecord
100
AcDbLayerTableRecord
  2
115
 70
     0
 62
     7
  6
CONTINUOUS
370
    -3
390
28D
  0
LAYER
  5
316
330
280
100
AcDbSymbolTableRecord
100
AcDbLayerTableRecord
  2
116
 70
     0
 62
     7
  6
CONTINUOUS
370
    -3
390
28D
  0
LAYER
  5
317
330
280
100
AcDbSymbolTableRecord
100
AcDbLayerTableRecord
  2
117
 70
     0
 62
     7
  6
CONTINUOUS
370
    -3
390
28D
  0
LAYER
  5
318
330
280
100
AcDbSymbolTableRecord
100
AcDbLayerTableRecord
  2
118
 70
     0
 62
     7
  6
CONTINUOUS
370
    -3
390
28D
  0
LAYER
  5
319
330
280
100
AcDbSymbolTableRecord
100
AcDbLayerTableRecord
  2
119
 70
     0
 62
     7
  6
CONTINUOUS
370
    -3
390
28D
  0
LAYER
  5
31A
330
280
100
AcDbSymbolTableRecord
100
AcDbLayerTableRecord
  2
120
 70
     0
 62
     7
  6
CONTINUOUS
370
    -3
390
28D
  0
LAYER
  5
31B
330
280
100
AcDbSymbolTableRecord
100
AcDbLayerTableRecord
  2
121
 70
     0
 62
     7
  6
CONTINUOUS
370
    -3
390
28D
  0
LAYER
  5
31C
330
280
100
AcDbSymbolTableRecord
100
AcDbLayerTableRecord
  2
122
 70
     0
 62
     7
  6
CONTINUOUS
370
    -3
390
28D
  0
LAYER
  5
31D
330
280
100
AcDbSymbolTableRecord
100
AcDbLayerTableRecord
  2
123
 70
     0
 62
     7
  6
CONTINUOUS
370
    -3
390
28D
  0
LAYER
  5
31E
330
280
100
AcDbSymbolTableRecord
100
AcDbLayerTableRecord
  2
124
 70
     0
 62
     7
  6
CONTINUOUS
370
    -3
390
28D
  0
LAYER
  5
31F
330
280
100
AcDbSymbolTableRecord
100
AcDbLayerTableRecord
  2
125
 70
     0
 62
     7
  6
CONTINUOUS
370
    -3
390
28D
  0
LAYER
  5
320
330
280
100
AcDbSymbolTableRecord
100
AcDbLayerTableRecord
  2
126
 70
     0
 62
     7
  6
CONTINUOUS
370
    -3
390
28D
  0
LAYER
  5
321
330
280
100
AcDbSymbolTableRecord
100
AcDbLayerTableRecord
  2
127
 70
     0
 62
     7
  6
CONTINUOUS
370
    -3
390
28D
  0
ENDTAB
  0
TABLE
  2
STYLE
  5
281
330
0
100
AcDbSymbolTable
 70
     2
  0
STYLE
  5
28F
330
281
100
AcDbSymbolTableRecord
100
AcDbTextStyleTableRecord
  2
STANDARD
 70
     0
 40
0.0
 41
1.0
 50
0.0
 71
     0
 42
0.2
  3
txt
  4

  0
STYLE
  5
322
330
281
100
AcDbSymbolTableRecord
100
AcDbTextStyleTableRecord
  2
KANJI0
 70
     0
 40
3.0
 41
0.6
 50
0.0
 71
     0
 42
3.0
  3
txt
  4
bigfont
  0
ENDTAB
  0
TABLE
  2
VIEW
  5
284
330
0
100
AcDbSymbolTable
 70
     0
  0
ENDTAB
  0
TABLE
  2
UCS
  5
285
330
0
100
AcDbSymbolTable
 70
     0
  0
ENDTAB
  0
TABLE
  2
APPID
  5
287
330
0
100
AcDbSymbolTable
 70
     1
  0
APPID
  5
290
330
287
100
AcDbSymbolTableRecord
100
AcDbRegAppTableRecord
  2
ACAD
 70
     0
  0
ENDTAB
  0
TABLE
  2
DIMSTYLE
  5
288
330
0
100
AcDbSymbolTable
 70
     1
100
AcDbDimStyleTable
 71
     0
  0
DIMSTYLE
105
323
330
288
100
AcDbSymbolTableRecord
100
AcDbDimStyleTableRecord
  2
STANDARD
 70
     0
279
     2
340
28F
  0
ENDTAB
  0
TABLE
  2
BLOCK_RECORD
  5
27F
330
0
100
AcDbSymbolTable
 70
     2
  0
BLOCK_RECORD
  5
29C
330
27F
100
AcDbSymbolTableRecord
100
AcDbBlockTableRecord
  2
*Model_Space
340
29F
  0
BLOCK_RECORD
  5
298
330
27F
100
AcDbSymbolTableRecord
100
AcDbBlockTableRecord
  2
*Paper_Space
340
29B
  0
BLOCK_RECORD
  5
326
330
27F
100
AcDbSymbolTableRecord
100
AcDbBlockTableRecord
  2
$MODEL_SPACE
340
0
  0
BLOCK_RECORD
  5
329
330
27F
100
AcDbSymbolTableRecord
100
AcDbBlockTableRecord
  2
$PAPER_SPACE
340
0
  0
ENDTAB
  0
ENDSEC
  0
SECTION
  2
BLOCKS
  0
BLOCK
  5
29D
330
29C
100
AcDbEntity
  8
0
100
AcDbBlockBegin
  2
*Model_Space
 70
     0
 10
0.0
 20
0.0
 30
0.0
  3
*Model_Space
  1

  0
ENDBLK
  5
29E
330
29C
100
AcDbEntity
  8
0
100
AcDbBlockEnd
  0
BLOCK
  5
299
330
298
100
AcDbEntity
 67
     1
  8
0
100
AcDbBlockBegin
  2
*Paper_Space
 70
     0
 10
0.0
 20
0.0
 30
0.0
  3
*Paper_Space
  1

  0
ENDBLK
  5
29A
330
298
100
AcDbEntity
 67
     1
  8
0
100
AcDbBlockEnd
  0
BLOCK
  5
327
330
326
100
AcDbEntity
  8
0
100
AcDbBlockBegin
  2
$MODEL_SPACE
 70
     0
 10
0.0
 20
0.0
 30
0.0
  3
$MODEL_SPACE
  1

  0
ENDBLK
  5
328
330
326
100
AcDbEntity
  8
0
100
AcDbBlockEnd
  0
BLOCK
  5
32A
330
329
100
AcDbEntity
  8
0
100
AcDbBlockBegin
  2
$PAPER_SPACE
 70
     0
 10
0.0
 20
0.0
 30
0.0
  3
$PAPER_SPACE
  1

  0
ENDBLK
  5
32B
330
329
100
AcDbEntity
  8
0
100
AcDbBlockEnd
  0
ENDSEC
  0
SECTION
  2
ENTITIES
  0
LINE
  5
32C
330
29C
100
AcDbEntity
  8
0
  6
Continuous
 62
     3
100
AcDbLine
 10
144.4
 20
100.15
 30
0.0
 11
108.4
 21
100.15
 31
0.0
  0
LINE
  5
32D
330
29C
100
AcDbEntity
  8
0
  6
Continuous
 62
     3
100
AcDbLine
 10
108.4
 20
100.15
 30
0.0
 11
108.4
 21
104.95
 31
0.0
  0
LINE
  5
32E
330
29C
100
AcDbEntity
  8
0
  6
Continuous
 62
     3
100
AcDbLine
 10
144.4
 20
104.95
 30
0.0
 11
108.4
 21
104.95
 31
0.0
  0
LINE
  5
32F
330
29C
100
AcDbEntity
  8
0
  6
Continuous
 62
     3
100
AcDbLine
 10
144.4
 20
100.15
 30
0.0
 11
144.4
 21
104.95
 31
0.0
  0
LINE
  5
330
330
29C
100
AcDbEntity
  8
0
  6
Continuous
 62
     3
100
AcDbLine
 10
109.8999999999999
 20
104.95
 30
0.0
 11
109.8999999999999
 21
121.25
 31
0.0
  0
LINE
  5
331
330
29C
100
AcDbEntity
  8
0
  6
Continuous
 62
     3
100
AcDbLine
 10
142.9
 20
104.95
 30
0.0
 11
142.9
 21
121.25
 31
0.0
  0
LINE
  5
332
330
29C
100
AcDbEntity
  8
0
  6
Continuous
 62
     3
100
AcDbLine
 10
109.8999999999999
 20
121.25
 30
0.0
 11
142.9
 21
121.25
 31
0.0
  0
LINE
  5
333
330
29C
100
AcDbEntity
  8
0
  6
Continuous
 62
     3
100
AcDbLine
 10
126.4
 20
105.2499999999999
 30
0.0
 11
121.4
 21
105.2499999999999
 31
0.0
  0
LINE
  5
334
330
29C
100
AcDbEntity
  8
0
  6
Continuous
 62
     3
100
AcDbLine
 10
126.4
 20
104.95
 30
0.0
 11
120.4
 21
104.95
 31
0.0
  0
POINT
  5
335
330
29C
100
AcDbEntity
  8
0
  6
Continuous
 62
     3
100
AcDbPoint
 10
120.4
 20
105.4499999999999
 30
0.0
  0
ARC
  5
336
330
29C
100
AcDbEntity
  8
0
  6
Continuous
 62
     3
100
AcDbCircle
 10
120.9
 20
117.45
 30
0.0
 40
0.5
100
AcDbArc
 50
0.0
 51
180.0
  0
LINE
  5
337
330
29C
100
AcDbEntity
  8
0
  6
Continuous
 62
     3
100
AcDbLine
 10
121.4
 20
105.2499999999999
 30
0.0
 11
121.4
 21
117.45
 31
0.0
  0
LINE
  5
338
330
29C
100
AcDbEntity
  8
0
  6
Continuous
 62
     3
100
AcDbLine
 10
120.4
 20
104.95
 30
0.0
 11
120.4
 21
117.45
 31
0.0
  0
LINE
  5
339
330
29C
100
AcDbEntity
  8
0
  6
Continuous
 62
     3
100
AcDbLine
 10
126.4
 20
105.2499999999999
 30
0.0
 11
131.4
 21
105.2499999999999
 31
0.0
  0
LINE
  5
33A
330
29C
100
AcDbEntity
  8
0
  6
Continuous
 62
     3
100
AcDbLine
 10
126.4
 20
104.95
 30
0.0
 11
132.4
 21
104.95
 31
0.0
  0
POINT
  5
33B
330
29C
100
AcDbEntity
  8
0
  6
Continuous
 62
     3
100
AcDbPoint
 10
132.4
 20
105.4499999999999
 30
0.0
  0
ARC
  5
33C
330
29C
100
AcDbEntity
  8
0
  6
Continuous
 62
     3
100
AcDbCircle
 10
131.9
 20
117.45
 30
0.0
 40
0.5
100
AcDbArc
 50
0.0
 51
180.0
  0
LINE
  5
33D
330
29C
100
AcDbEntity
  8
0
  6
Continuous
 62
     3
100
AcDbLine
 10
131.4
 20
105.2499999999999
 30
0.0
 11
131.4
 21
117.45
 31
0.0
  0
LINE
  5
33E
330
29C
100
AcDbEntity
  8
0
  6
Continuous
 62
     3
100
AcDbLine
 10
132.4
 20
104.95
 30
0.0
 11
132.4
 21
117.45
 31
0.0
  0
LINE
  5
33F
330
29C
100
AcDbEntity
  8
0
  6
Continuous
 62
     3
100
AcDbLine
 10
121.4
 20
105.75
 30
0.0
 11
131.4
 21
105.75
 31
0.0
  0
LINE
  5
340
330
29C
100
AcDbEntity
  8
0
  6
Continuous
 62
     3
100
AcDbLine
 10
131.4
 20
106.25
 30
0.0
 11
121.4
 21
106.25
 31
0.0
  0
LINE
  5
341
330
29C
100
AcDbEntity
  8
0
  6
Continuous
 62
     3
100
AcDbLine
 10
121.4
 20
106.75
 30
0.0
 11
131.4
 21
106.75
 31
0.0
  0
LINE
  5
342
330
29C
100
AcDbEntity
  8
0
  6
Continuous
 62
     3
100
AcDbLine
 10
131.4
 20
107.25
 30
0.0
 11
121.4
 21
107.25
 31
0.0
  0
LINE
  5
343
330
29C
100
AcDbEntity
  8
0
  6
Continuous
 62
     3
100
AcDbLine
 10
121.4
 20
107.75
 30
0.0
 11
131.4
 21
107.75
 31
0.0
  0
LINE
  5
344
330
29C
100
AcDbEntity
  8
0
  6
Continuous
 62
     3
100
AcDbLine
 10
131.4
 20
108.25
 30
0.0
 11
121.4
 21
108.25
 31
0.0
  0
LINE
  5
345
330
29C
100
AcDbEntity
  8
0
  6
Continuous
 62
     3
100
AcDbLine
 10
121.4
 20
108.75
 30
0.0
 11
131.4
 21
108.75
 31
0.0
  0
LINE
  5
346
330
29C
100
AcDbEntity
  8
0
  6
Continuous
 62
     3
100
AcDbLine
 10
121.4
 20
109.25
 30
0.0
 11
131.4
 21
109.25
 31
0.0
  0
LINE
  5
347
330
29C
100
AcDbEntity
  8
0
  6
Continuous
 62
     3
100
AcDbLine
 10
131.4
 20
109.7499999999999
 30
0.0
 11
121.4
 21
109.7499999999999
 31
0.0
  0
LINE
  5
348
330
29C
100
AcDbEntity
  8
0
  6
Continuous
 62
     3
100
AcDbLine
 10
121.4
 20
110.25
 30
0.0
 11
131.4
 21
110.25
 31
0.0
  0
LINE
  5
349
330
29C
100
AcDbEntity
  8
0
  6
Continuous
 62
     3
100
AcDbLine
 10
137.9
 20
121.25
 30
0.0
 11
137.9
 21
124.65
 31
0.0
  0
LINE
  5
34A
330
29C
100
AcDbEntity
  8
0
  6
LTYPE1
 62
     3
100
AcDbLine
 10
137.9
 20
124.65
 30
0.0
 11
137.1999999999995
 21
124.65
 31
0.0
  0
LINE
  5
34B
330
29C
100
AcDbEntity
  8
0
  6
Continuous
 62
     3
100
AcDbLine
 10
114.9
 20
121.25
 30
0.0
 11
114.9
 21
124.65
 31
0.0
  0
LINE
  5
34C
330
29C
100
AcDbEntity
  8
0
  6
LTYPE1
 62
     3
100
AcDbLine
 10
114.9
 20
124.65
 30
0.0
 11
115.5999999999997
 21
124.65
 31
0.0
  0
LINE
  5
34D
330
29C
100
AcDbEntity
  8
0
  6
LTYPE1
 62
     3
100
AcDbLine
 10
115.5999999999997
 20
124.65
 30
0.0
 11
115.5999999999997
 21
121.25
 31
0.0
  0
LINE
  5
34E
330
29C
100
AcDbEntity
  8
0
  6
LTYPE1
 62
     3
100
AcDbLine
 10
137.1999999999995
 20
124.65
 30
0.0
 11
137.1999999999995
 21
121.25
 31
0.0
  0
LINE
  5
34F
330
29C
100
AcDbEntity
  8
0
  6
Continuous
 62
     3
100
AcDbLine
 10
117.25
 20
123.8499999999997
 30
0.0
 11
117.25
 21
124.2499999999999
 31
0.0
  0
LINE
  5
350
330
29C
100
AcDbEntity
  8
0
  6
Continuous
 62
     3
100
AcDbLine
 10
117.25
 20
124.2499999999999
 30
0.0
 11
118.05
 21
124.2499999999999
 31
0.0
  0
LINE
  5
351
330
29C
100
AcDbEntity
  8
0
  6
Continuous
 62
     3
100
AcDbLine
 10
118.05
 20
124.2499999999999
 30
0.0
 11
118.05
 21
123.8499999999997
 31
0.0
  0
LINE
  5
352
330
29C
100
AcDbEntity
  8
0
  6
Continuous
 62
     3
100
AcDbLine
 10
119.75
 20
123.8499999999997
 30
0.0
 11
119.75
 21
124.2499999999999
 31
0.0
  0
LINE
  5
353
330
29C
100
AcDbEntity
  8
0
  6
Continuous
 62
     3
100
AcDbLine
 10
119.75
 20
124.2499999999999
 30
0.0
 11
120.55
 21
124.2499999999999
 31
0.0
  0
LINE
  5
354
330
29C
100
AcDbEntity
  8
0
  6
Continuous
 62
     3
100
AcDbLine
 10
120.55
 20
124.2499999999999
 30
0.0
 11
120.55
 21
123.8499999999997
 31
0.0
  0
LINE
  5
355
330
29C
100
AcDbEntity
  8
0
  6
Continuous
 62
     3
100
AcDbLine
 10
122.2499999999999
 20
123.8499999999997
 30
0.0
 11
122.2499999999999
 21
124.2499999999999
 31
0.0
  0
LINE
  5
356
330
29C
100
AcDbEntity
  8
0
  6
Continuous
 62
     3
100
AcDbLine
 10
122.2499999999999
 20
124.2499999999999
 30
0.0
 11
123.0499999999999
 21
124.2499999999999
 31
0.0
  0
LINE
  5
357
330
29C
100
AcDbEntity
  8
0
  6
Continuous
 62
     3
100
AcDbLine
 10
123.0499999999999
 20
124.2499999999999
 30
0.0
 11
123.0499999999999
 21
123.8499999999997
 31
0.0
  0
LINE
  5
358
330
29C
100
AcDbEntity
  8
0
  6
Continuous
 62
     3
100
AcDbLine
 10
124.75
 20
123.8499999999997
 30
0.0
 11
124.75
 21
124.2499999999999
 31
0.0
  0
LINE
  5
359
330
29C
100
AcDbEntity
  8
0
  6
Continuous
 62
     3
100
AcDbLine
 10
124.75
 20
124.2499999999999
 30
0.0
 11
125.55
 21
124.2499999999999
 31
0.0
  0
LINE
  5
35A
330
29C
100
AcDbEntity
  8
0
  6
Continuous
 62
     3
100
AcDbLine
 10
125.55
 20
124.2499999999999
 30
0.0
 11
125.55
 21
123.8499999999997
 31
0.0
  0
LINE
  5
35B
330
29C
100
AcDbEntity
  8
0
  6
Continuous
 62
     3
100
AcDbLine
 10
127.2499999999999
 20
123.8499999999997
 30
0.0
 11
127.2499999999999
 21
124.2499999999999
 31
0.0
  0
LINE
  5
35C
330
29C
100
AcDbEntity
  8
0
  6
Continuous
 62
     3
100
AcDbLine
 10
127.2499999999999
 20
124.2499999999999
 30
0.0
 11
128.05
 21
124.2499999999999
 31
0.0
  0
LINE
  5
35D
330
29C
100
AcDbEntity
  8
0
  6
Continuous
 62
     3
100
AcDbLine
 10
128.05
 20
124.2499999999999
 30
0.0
 11
128.05
 21
123.8499999999997
 31
0.0
  0
LINE
  5
35E
330
29C
100
AcDbEntity
  8
0
  6
Continuous
 62
     3
100
AcDbLine
 10
129.75
 20
123.8499999999997
 30
0.0
 11
129.75
 21
124.2499999999999
 31
0.0
  0
LINE
  5
35F
330
29C
100
AcDbEntity
  8
0
  6
Continuous
 62
     3
100
AcDbLine
 10
129.75
 20
124.2499999999999
 30
0.0
 11
130.55
 21
124.2499999999999
 31
0.0
  0
LINE
  5
360
330
29C
100
AcDbEntity
  8
0
  6
Continuous
 62
     3
100
AcDbLine
 10
130.55
 20
124.2499999999999
 30
0.0
 11
130.55
 21
123.8499999999997
 31
0.0
  0
LINE
  5
361
330
29C
100
AcDbEntity
  8
0
  6
Continuous
 62
     3
100
AcDbLine
 10
132.25
 20
123.8499999999997
 30
0.0
 11
132.25
 21
124.2499999999999
 31
0.0
  0
LINE
  5
362
330
29C
100
AcDbEntity
  8
0
  6
Continuous
 62
     3
100
AcDbLine
 10
132.25
 20
124.2499999999999
 30
0.0
 11
133.05
 21
124.2499999999999
 31
0.0
  0
LINE
  5
363
330
29C
100
AcDbEntity
  8
0
  6
Continuous
 62
     3
100
AcDbLine
 10
133.05
 20
124.2499999999999
 30
0.0
 11
133.05
 21
123.8499999999997
 31
0.0
  0
LINE
  5
364
330
29C
100
AcDbEntity
  8
0
  6
Continuous
 62
     3
100
AcDbLine
 10
134.7499999999998
 20
123.8499999999997
 30
0.0
 11
134.7499999999998
 21
124.2499999999999
 31
0.0
  0
LINE
  5
365
330
29C
100
AcDbEntity
  8
0
  6
Continuous
 62
     3
100
AcDbLine
 10
134.7499999999998
 20
124.2499999999999
 30
0.0
 11
135.55
 21
124.2499999999999
 31
0.0
  0
LINE
  5
366
330
29C
100
AcDbEntity
  8
0
  6
Continuous
 62
     3
100
AcDbLine
 10
135.55
 20
124.2499999999999
 30
0.0
 11
135.55
 21
123.8499999999997
 31
0.0
  0
LINE
  5
367
330
29C
100
AcDbEntity
  8
0
  6
Continuous
 62
     3
100
AcDbLine
 10
117.25
 20
123.8499999999997
 30
0.0
 11
115.5999999999997
 21
123.8499999999997
 31
0.0
  0
LINE
  5
368
330
29C
100
AcDbEntity
  8
0
  6
Continuous
 62
     3
100
AcDbLine
 10
119.75
 20
123.8499999999997
 30
0.0
 11
118.05
 21
123.8499999999997
 31
0.0
  0
LINE
  5
369
330
29C
100
AcDbEntity
  8
0
  6
Continuous
 62
     3
100
AcDbLine
 10
122.2499999999999
 20
123.8499999999997
 30
0.0
 11
120.55
 21
123.8499999999997
 31
0.0
  0
LINE
  5
36A
330
29C
100
AcDbEntity
  8
0
  6
Continuous
 62
     3
100
AcDbLine
 10
124.75
 20
123.8499999999997
 30
0.0
 11
123.0499999999999
 21
123.8499999999997
 31
0.0
  0
LINE
  5
36B
330
29C
100
AcDbEntity
  8
0
  6
Continuous
 62
     3
100
AcDbLine
 10
127.2499999999999
 20
123.8499999999997
 30
0.0
 11
125.55
 21
123.8499999999997
 31
0.0
  0
LINE
  5
36C
330
29C
100
AcDbEntity
  8
0
  6
Continuous
 62
     3
100
AcDbLine
 10
129.75
 20
123.8499999999997
 30
0.0
 11
128.05
 21
123.8499999999997
 31
0.0
  0
LINE
  5
36D
330
29C
100
AcDbEntity
  8
0
  6
Continuous
 62
     3
100
AcDbLine
 10
132.25
 20
123.8499999999997
 30
0.0
 11
130.55
 21
123.8499999999997
 31
0.0
  0
LINE
  5
36E
330
29C
100
AcDbEntity
  8
0
  6
Continuous
 62
     3
100
AcDbLine
 10
134.7499999999998
 20
123.8499999999997
 30
0.0
 11
133.05
 21
123.8499999999997
 31
0.0
  0
LINE
  5
36F
330
29C
100
AcDbEntity
  8
0
  6
Continuous
 62
     3
100
AcDbLine
 10
137.1999999999995
 20
123.8499999999997
 30
0.0
 11
135.55
 21
123.8499999999997
 31
0.0
  0
LINE
  5
370
330
29C
100
AcDbEntity
  8
0
  6
Continuous
 62
     3
100
AcDbLine
 10
115.65
 20
129.05
 30
0.0
 11
117.1499999999999
 21
129.05
 31
0.0
  0
CIRCLE
  5
371
330
29C
100
AcDbEntity
  8
0
  6
Continuous
 62
     3
100
AcDbCircle
 10
116.4
 20
128.05
 30
0.0
 40
0.3
  0
LINE
  5
372
330
29C
100
AcDbEntity
  8
0
  6
Continuous
 62
     3
100
AcDbLine
 10
115.65
 20
123.8499999999997
 30
0.0
 11
115.65
 21
129.05
 31
0.0
  0
LINE
  5
373
330
29C
100
AcDbEntity
  8
0
  6
Continuous
 62
     3
100
AcDbLine
 10
117.1499999999999
 20
129.05
 30
0.0
 11
117.1499999999999
 21
123.8499999999997
 31
0.0
  0
LINE
  5
374
330
29C
100
AcDbEntity
  8
0
  6
Continuous
 62
     3
100
AcDbLine
 10
118.1499999999999
 20
129.05
 30
0.0
 11
119.65
 21
129.05
 31
0.0
  0
CIRCLE
  5
375
330
29C
100
AcDbEntity
  8
0
  6
Continuous
 62
     3
100
AcDbCircle
 10
118.9
 20
128.05
 30
0.0
 40
0.3
  0
LINE
  5
376
330
29C
100
AcDbEntity
  8
0
  6
Continuous
 62
     3
100
AcDbLine
 10
118.1499999999999
 20
123.8499999999997
 30
0.0
 11
118.1499999999999
 21
129.05
 31
0.0
  0
LINE
  5
377
330
29C
100
AcDbEntity
  8
0
  6
Continuous
 62
     3
100
AcDbLine
 10
119.65
 20
129.05
 30
0.0
 11
119.65
 21
123.8499999999997
 31
0.0
  0
LINE
  5
378
330
29C
100
AcDbEntity
  8
0
  6
Continuous
 62
     3
100
AcDbLine
 10
120.65
 20
129.05
 30
0.0
 11
122.15
 21
129.05
 31
0.0
  0
CIRCLE
  5
379
330
29C
100
AcDbEntity
  8
0
  6
Continuous
 62
     3
100
AcDbCircle
 10
121.4
 20
128.05
 30
0.0
 40
0.3
  0
LINE
  5
37A
330
29C
100
AcDbEntity
  8
0
  6
Continuous
 62
     3
100
AcDbLine
 10
120.65
 20
123.8499999999997
 30
0.0
 11
120.65
 21
129.05
 31
0.0
  0
LINE
  5
37B
330
29C
100
AcDbEntity
  8
0
  6
Continuous
 62
     3
100
AcDbLine
 10
122.15
 20
129.05
 30
0.0
 11
122.15
 21
123.8499999999997
 31
0.0
  0
LINE
  5
37C
330
29C
100
AcDbEntity
  8
0
  6
Continuous
 62
     3
100
AcDbLine
 10
123.15
 20
129.05
 30
0.0
 11
124.65
 21
129.05
 31
0.0
  0
CIRCLE
  5
37D
330
29C
100
AcDbEntity
  8
0
  6
Continuous
 62
     3
100
AcDbCircle
 10
123.9
 20
128.05
 30
0.0
 40
0.3
  0
LINE
  5
37E
330
29C
100
AcDbEntity
  8
0
  6
Continuous
 62
     3
100
AcDbLine
 10
123.15
 20
123.8499999999997
 30
0.0
 11
123.15
 21
129.05
 31
0.0
  0
LINE
  5
37F
330
29C
100
AcDbEntity
  8
0
  6
Continuous
 62
     3
100
AcDbLine
 10
124.65
 20
129.05
 30
0.0
 11
124.65
 21
123.8499999999997
 31
0.0
  0
LINE
  5
380
330
29C
100
AcDbEntity
  8
0
  6
Continuous
 62
     3
100
AcDbLine
 10
125.65
 20
129.05
 30
0.0
 11
127.15
 21
129.05
 31
0.0
  0
CIRCLE
  5
381
330
29C
100
AcDbEntity
  8
0
  6
Continuous
 62
     3
100
AcDbCircle
 10
126.4
 20
128.05
 30
0.0
 40
0.3
  0
LINE
  5
382
330
29C
100
AcDbEntity
  8
0
  6
Continuous
 62
     3
100
AcDbLine
 10
125.65
 20
123.8499999999997
 30
0.0
 11
125.65
 21
129.05
 31
0.0
  0
LINE
  5
383
330
29C
100
AcDbEntity
  8
0
  6
Continuous
 62
     3
100
AcDbLine
 10
127.15
 20
129.05
 30
0.0
 11
127.15
 21
123.8499999999997
 31
0.0
  0
LINE
  5
384
330
29C
100
AcDbEntity
  8
0
  6
Continuous
 62
     3
100
AcDbLine
 10
128.15
 20
129.05
 30
0.0
 11
129.6499999999996
 21
129.05
 31
0.0
  0
CIRCLE
  5
385
330
29C
100
AcDbEntity
  8
0
  6
Continuous
 62
     3
100
AcDbCircle
 10
128.9
 20
128.05
 30
0.0
 40
0.3
  0
LINE
  5
386
330
29C
100
AcDbEntity
  8
0
  6
Continuous
 62
     3
100
AcDbLine
 10
128.15
 20
123.8499999999997
 30
0.0
 11
128.15
 21
129.05
 31
0.0
  0
LINE
  5
387
330
29C
100
AcDbEntity
  8
0
  6
Continuous
 62
     3
100
AcDbLine
 10
129.6499999999996
 20
129.05
 30
0.0
 11
129.6499999999996
 21
123.8499999999997
 31
0.0
  0
LINE
  5
388
330
29C
100
AcDbEntity
  8
0
  6
Continuous
 62
     3
100
AcDbLine
 10
130.6499999999995
 20
129.05
 30
0.0
 11
132.15
 21
129.05
 31
0.0
  0
CIRCLE
  5
389
330
29C
100
AcDbEntity
  8
0
  6
Continuous
 62
     3
100
AcDbCircle
 10
131.4
 20
128.05
 30
0.0
 40
0.3
  0
LINE
  5
38A
330
29C
100
AcDbEntity
  8
0
  6
Continuous
 62
     3
100
AcDbLine
 10
130.6499999999995
 20
123.8499999999997
 30
0.0
 11
130.6499999999995
 21
129.05
 31
0.0
  0
LINE
  5
38B
330
29C
100
AcDbEntity
  8
0
  6
Continuous
 62
     3
100
AcDbLine
 10
132.15
 20
129.05
 30
0.0
 11
132.15
 21
123.8499999999997
 31
0.0
  0
LINE
  5
38C
330
29C
100
AcDbEntity
  8
0
  6
Continuous
 62
     3
100
AcDbLine
 10
133.15
 20
129.05
 30
0.0
 11
134.65
 21
129.05
 31
0.0
  0
CIRCLE
  5
38D
330
29C
100
AcDbEntity
  8
0
  6
Continuous
 62
     3
100
AcDbCircle
 10
133.9
 20
128.05
 30
0.0
 40
0.3
  0
LINE
  5
38E
330
29C
100
AcDbEntity
  8
0
  6
Continuous
 62
     3
100
AcDbLine
 10
133.15
 20
123.8499999999997
 30
0.0
 11
133.15
 21
129.05
 31
0.0
  0
LINE
  5
38F
330
29C
100
AcDbEntity
  8
0
  6
Continuous
 62
     3
100
AcDbLine
 10
134.65
 20
129.05
 30
0.0
 11
134.65
 21
123.8499999999997
 31
0.0
  0
LINE
  5
390
330
29C
100
AcDbEntity
  8
0
  6
Continuous
 62
     3
100
AcDbLine
 10
135.65
 20
129.05
 30
0.0
 11
137.15
 21
129.05
 31
0.0
  0
CIRCLE
  5
391
330
29C
100
AcDbEntity
  8
0
  6
Continuous
 62
     3
100
AcDbCircle
 10
136.4
 20
128.05
 30
0.0
 40
0.3
  0
LINE
  5
392
330
29C
100
AcDbEntity
  8
0
  6
Continuous
 62
     3
100
AcDbLine
 10
135.65
 20
123.8499999999997
 30
0.0
 11
135.65
 21
129.05
 31
0.0
  0
LINE
  5
393
330
29C
100
AcDbEntity
  8
0
  6
Continuous
 62
     3
100
AcDbLine
 10
137.15
 20
129.05
 30
0.0
 11
137.15
 21
123.8499999999997
 31
0.0
  0
LINE
  5
394
330
29C
100
AcDbEntity
  8
0
  6
Continuous
 62
     4
100
AcDbLine
 10
145.4
 20
100.15
 30
0.0
 11
158.4
 21
100.15
 31
0.0
  0
LINE
  5
395
330
29C
100
AcDbEntity
  8
0
  6
Continuous
 62
     4
100
AcDbLine
 10
156.4
 20
100.15
 30
0.0
 11
157.0470476129998
 21
102.564814566
 31
0.0
  0
LINE
  5
396
330
29C
100
AcDbEntity
  8
0
  6
Continuous
 62
     4
100
AcDbLine
 10
156.4
 20
100.15
 30
0.0
 11
155.7529523869999
 21
102.564814566
 31
0.0
  0
LINE
  5
397
330
29C
100
AcDbEntity
  8
0
  6
Continuous
 62
     4
100
AcDbLine
 10
156.4
 20
100.15
 30
0.0
 11
156.4
 21
104.95
 31
0.0
  0
LINE
  5
398
330
29C
100
AcDbEntity
  8
0
  6
Continuous
 62
     4
100
AcDbLine
 10
156.4
 20
104.95
 30
0.0
 11
155.7529523869999
 21
102.5351854339999
 31
0.0
  0
LINE
  5
399
330
29C
100
AcDbEntity
  8
0
  6
Continuous
 62
     4
100
AcDbLine
 10
156.4
 20
104.95
 30
0.0
 11
157.0470476129998
 21
102.5351854339999
 31
0.0
  0
LINE
  5
39A
330
29C
100
AcDbEntity
  8
0
  6
Continuous
 62
     4
100
AcDbLine
 10
145.4
 20
104.95
 30
0.0
 11
158.4
 21
104.95
 31
0.0
  0
TEXT
  5
39B
330
29C
100
AcDbEntity
  8
0
  6
Continuous
 62
     4
100
AcDbText
 10
155.4
 20
99.55
 30
0.3
 40
3.0
  1
 ４.８
 50
90.0
 41
0.6
  7
KANJI0
100
AcDbText
  0
LINE
  5
39C
330
29C
100
AcDbEntity
  8
0
  6
Continuous
 62
     3
100
AcDbLine
 10
145.4
 20
104.95
 30
0.3
 11
158.4
 21
104.95
 31
0.3
  0
LINE
  5
39D
330
29C
100
AcDbEntity
  8
0
  6
Continuous
 62
     4
100
AcDbLine
 10
156.4
 20
104.95
 30
0.0
 11
157.0470476129998
 21
107.3648145659997
 31
0.0
  0
LINE
  5
39E
330
29C
100
AcDbEntity
  8
0
  6
Continuous
 62
     4
100
AcDbLine
 10
156.4
 20
104.95
 30
0.0
 11
155.7529523869999
 21
107.3648145659997
 31
0.0
  0
LINE
  5
39F
330
29C
100
AcDbEntity
  8
0
  6
Continuous
 62
     4
100
AcDbLine
 10
156.4
 20
104.95
 30
0.0
 11
156.4
 21
121.25
 31
0.0
  0
LINE
  5
3A0
330
29C
100
AcDbEntity
  8
0
  6
Continuous
 62
     4
100
AcDbLine
 10
156.4
 20
121.25
 30
0.0
 11
155.7529523869999
 21
118.835185434
 31
0.0
  0
LINE
  5
3A1
330
29C
100
AcDbEntity
  8
0
  6
Continuous
 62
     4
100
AcDbLine
 10
156.4
 20
121.25
 30
0.0
 11
157.0470476129998
 21
118.835185434
 31
0.0
  0
LINE
  5
3A2
330
29C
100
AcDbEntity
  8
0
  6
Continuous
 62
     4
100
AcDbLine
 10
143.9
 20
121.25
 30
0.0
 11
158.4
 21
121.25
 31
0.0
  0
TEXT
  5
3A3
330
29C
100
AcDbEntity
  8
0
  6
Continuous
 62
     4
100
AcDbText
 10
155.4
 20
109.05
 30
0.3
 40
3.0
  1
１６.３
 50
90.0
 41
0.6
  7
KANJI0
100
AcDbText
  0
LINE
  5
3A4
330
29C
100
AcDbEntity
  8
0
  6
Continuous
 62
     4
100
AcDbLine
 10
145.4
 20
100.15
 30
0.3
 11
167.9
 21
100.15
 31
0.3
  0
LINE
  5
3A5
330
29C
100
AcDbEntity
  8
0
  6
Continuous
 62
     4
100
AcDbLine
 10
165.8999999999998
 20
100.15
 30
0.0
 11
166.5470476129998
 21
102.564814566
 31
0.0
  0
LINE
  5
3A6
330
29C
100
AcDbEntity
  8
0
  6
Continuous
 62
     4
100
AcDbLine
 10
165.8999999999998
 20
100.15
 30
0.0
 11
165.252952387
 21
102.564814566
 31
0.0
  0
LINE
  5
3A7
330
29C
100
AcDbEntity
  8
0
  6
Continuous
 62
     4
100
AcDbLine
 10
165.8999999999998
 20
100.15
 30
0.0
 11
165.8999999999998
 21
129.05
 31
0.0
  0
LINE
  5
3A8
330
29C
100
AcDbEntity
  8
0
  6
Continuous
 62
     4
100
AcDbLine
 10
165.8999999999998
 20
129.05
 30
0.0
 11
165.252952387
 21
126.6351854339998
 31
0.0
  0
LINE
  5
3A9
330
29C
100
AcDbEntity
  8
0
  6
Continuous
 62
     4
100
AcDbLine
 10
165.8999999999998
 20
129.05
 30
0.0
 11
166.5470476129998
 21
126.6351854339998
 31
0.0
  0
LINE
  5
3AA
330
29C
100
AcDbEntity
  8
0
  6
Continuous
 62
     4
100
AcDbLine
 10
138.15
 20
129.05
 30
0.0
 11
167.9
 21
129.05
 31
0.0
  0
TEXT
  5
3AB
330
29C
100
AcDbEntity
  8
0
  6
Continuous
 62
     4
100
AcDbText
 10
164.9
 20
110.5499999999999
 30
0.3
 40
3.0
  1
２８.９
 50
90.0
 41
0.6
  7
KANJI0
100
AcDbText
  0
LINE
  5
3AC
330
29C
100
AcDbEntity
  8
0
  6
Continuous
 62
     3
100
AcDbLine
 10
25.4
 20
100.15
 30
0.3
 11
97.40000000000001
 21
100.15
 31
0.3
  0
LINE
  5
3AD
330
29C
100
AcDbEntity
  8
0
  6
Continuous
 62
     3
100
AcDbLine
 10
97.40000000000001
 20
100.15
 30
0.0
 11
97.40000000000001
 21
104.95
 31
0.0
  0
LINE
  5
3AE
330
29C
100
AcDbEntity
  8
0
  6
Continuous
 62
     3
100
AcDbLine
 10
25.4
 20
100.15
 30
0.0
 11
25.4
 21
104.95
 31
0.0
  0
LINE
  5
3AF
330
29C
100
AcDbEntity
  8
0
  6
Continuous
 62
     3
100
AcDbLine
 10
25.4
 20
104.95
 30
0.0
 11
97.40000000000001
 21
104.95
 31
0.0
  0
LINE
  5
3B0
330
29C
100
AcDbEntity
  8
0
  6
Continuous
 62
     3
100
AcDbLine
 10
95.90000000000001
 20
104.95
 30
0.0
 11
95.90000000000001
 21
100.15
 31
0.0
  0
LINE
  5
3B1
330
29C
100
AcDbEntity
  8
0
  6
Continuous
 62
     3
100
AcDbLine
 10
26.89999999999999
 20
104.95
 30
0.0
 11
26.89999999999999
 21
100.15
 31
0.0
  0
LINE
  5
3B2
330
29C
100
AcDbEntity
  8
0
  6
Continuous
 62
     3
100
AcDbLine
 10
95.4
 20
104.95
 30
0.0
 11
95.4
 21
121.25
 31
0.0
  0
LINE
  5
3B3
330
29C
100
AcDbEntity
  8
0
  6
Continuous
 62
     3
100
AcDbLine
 10
27.4
 20
104.95
 30
0.0
 11
27.4
 21
121.25
 31
0.0
  0
LINE
  5
3B4
330
29C
100
AcDbEntity
  8
0
  6
Continuous
 62
     3
100
AcDbLine
 10
27.4
 20
121.25
 30
0.0
 11
95.4
 21
121.25
 31
0.0
  0
LINE
  5
3B5
330
29C
100
AcDbEntity
  8
0
  6
Continuous
 62
     3
100
AcDbLine
 10
81.4
 20
110.85
 30
0.0
 11
79.40000000000002
 21
110.85
 31
0.0
  0
LINE
  5
3B6
330
29C
100
AcDbEntity
  8
0
  6
Continuous
 62
     3
100
AcDbLine
 10
81.4
 20
110.85
 30
0.0
 11
83.40000000000001
 21
110.85
 31
0.0
  0
LINE
  5
3B7
330
29C
100
AcDbEntity
  8
0
  6
Continuous
 62
     3
100
AcDbLine
 10
81.4
 20
112.85
 30
0.0
 11
84.9
 21
112.85
 31
0.0
  0
LINE
  5
3B8
330
29C
100
AcDbEntity
  8
0
  6
Continuous
 62
     3
100
AcDbLine
 10
81.4
 20
112.85
 30
0.0
 11
77.9
 21
112.85
 31
0.0
  0
LINE
  5
3B9
330
29C
100
AcDbEntity
  8
0
  6
Continuous
 62
     3
100
AcDbLine
 10
79.40000000000002
 20
110.85
 30
0.0
 11
78.92066964199999
 21
105.5773660629999
 31
0.0
  0
ARC
  5
3BA
330
29C
100
AcDbEntity
  8
0
  6
Continuous
 62
     3
100
AcDbCircle
 10
78.671696341
 20
105.6
 30
0.0
 40
0.25
100
AcDbArc
 50
270.0
 51
354.8055710919999
  0
LINE
  5
3BB
330
29C
100
AcDbEntity
  8
0
  6
Continuous
 62
     3
100
AcDbLine
 10
78.38444198399999
 20
105.5833702469999
 30
0.0
 11
77.9
 21
112.85
 31
0.0
  0
LINE
  5
3BC
330
29C
100
AcDbEntity
  8
0
  6
Continuous
 62
     3
100
AcDbLine
 10
78.63388827299998
 20
105.3499999999997
 30
0.0
 11
78.671696341
 21
105.3499999999997
 31
0.0
  0
ARC
  5
3BD
330
29C
100
AcDbEntity
  8
0
  6
Continuous
 62
     3
100
AcDbCircle
 10
78.63388827299998
 20
105.6
 30
0.0
 40
0.25
100
AcDbArc
 50
183.814074834
 51
270.0
  0
LINE
  5
3BE
330
29C
100
AcDbEntity
  8
0
  6
Continuous
 62
     3
100
AcDbLine
 10
83.40000000000001
 20
110.85
 30
0.0
 11
83.87933035800001
 21
105.5773660629999
 31
0.0
  0
ARC
  5
3BF
330
29C
100
AcDbEntity
  8
0
  6
Continuous
 62
     3
100
AcDbCircle
 10
84.12830365899997
 20
105.6
 30
0.0
 40
0.25
100
AcDbArc
 50
185.194428908
 51
270.0
  0
LINE
  5
3C0
330
29C
100
AcDbEntity
  8
0
  6
Continuous
 62
     3
100
AcDbLine
 10
84.41555801600001
 20
105.5833702469999
 30
0.0
 11
84.9
 21
112.85
 31
0.0
  0
LINE
  5
3C1
330
29C
100
AcDbEntity
  8
0
  6
Continuous
 62
     3
100
AcDbLine
 10
84.12830365899997
 20
105.3499999999997
 30
0.0
 11
84.16611172699999
 21
105.3499999999997
 31
0.0
  0
ARC
  5
3C2
330
29C
100
AcDbEntity
  8
0
  6
Continuous
 62
     3
100
AcDbCircle
 10
84.16611172699999
 20
105.6
 30
0.0
 40
0.25
100
AcDbArc
 50
270.0
 51
356.185925166
  0
LINE
  5
3C3
330
29C
100
AcDbEntity
  8
0
  6
Continuous
 62
     3
100
AcDbLine
 10
41.39999999999999
 20
110.85
 30
0.0
 11
39.39999999999999
 21
110.85
 31
0.0
  0
LINE
  5
3C4
330
29C
100
AcDbEntity
  8
0
  6
Continuous
 62
     3
100
AcDbLine
 10
41.39999999999999
 20
110.85
 30
0.0
 11
43.39999999999998
 21
110.85
 31
0.0
  0
LINE
  5
3C5
330
29C
100
AcDbEntity
  8
0
  6
Continuous
 62
     3
100
AcDbLine
 10
41.39999999999999
 20
112.85
 30
0.0
 11
44.9
 21
112.85
 31
0.0
  0
LINE
  5
3C6
330
29C
100
AcDbEntity
  8
0
  6
Continuous
 62
     3
100
AcDbLine
 10
41.39999999999999
 20
112.85
 30
0.0
 11
37.9
 21
112.85
 31
0.0
  0
LINE
  5
3C7
330
29C
100
AcDbEntity
  8
0
  6
Continuous
 62
     3
100
AcDbLine
 10
39.39999999999999
 20
110.85
 30
0.0
 11
38.920669642
 21
105.5773660629999
 31
0.0
  0
ARC
  5
3C8
330
29C
100
AcDbEntity
  8
0
  6
Continuous
 62
     3
100
AcDbCircle
 10
38.671696341
 20
105.6
 30
0.0
 40
0.25
100
AcDbArc
 50
270.0
 51
354.8055710919999
  0
LINE
  5
3C9
330
29C
100
AcDbEntity
  8
0
  6
Continuous
 62
     3
100
AcDbLine
 10
38.38444198399999
 20
105.5833702469999
 30
0.0
 11
37.9
 21
112.85
 31
0.0
  0
LINE
  5
3CA
330
29C
100
AcDbEntity
  8
0
  6
Continuous
 62
     3
100
AcDbLine
 10
38.633888273
 20
105.3499999999997
 30
0.0
 11
38.671696341
 21
105.3499999999997
 31
0.0
  0
ARC
  5
3CB
330
29C
100
AcDbEntity
  8
0
  6
Continuous
 62
     3
100
AcDbCircle
 10
38.633888273
 20
105.6
 30
0.0
 40
0.25
100
AcDbArc
 50
183.814074834
 51
270.0
  0
LINE
  5
3CC
330
29C
100
AcDbEntity
  8
0
  6
Continuous
 62
     3
100
AcDbLine
 10
43.39999999999998
 20
110.85
 30
0.0
 11
43.879330358
 21
105.5773660629999
 31
0.0
  0
ARC
  5
3CD
330
29C
100
AcDbEntity
  8
0
  6
Continuous
 62
     3
100
AcDbCircle
 10
44.12830365899999
 20
105.6
 30
0.0
 40
0.25
100
AcDbArc
 50
185.194428908
 51
270.0
  0
LINE
  5
3CE
330
29C
100
AcDbEntity
  8
0
  6
Continuous
 62
     3
100
AcDbLine
 10
44.415558016
 20
105.5833702469999
 30
0.0
 11
44.9
 21
112.85
 31
0.0
  0
LINE
  5
3CF
330
29C
100
AcDbEntity
  8
0
  6
Continuous
 62
     3
100
AcDbLine
 10
44.12830365899999
 20
105.3499999999997
 30
0.0
 11
44.166111727
 21
105.3499999999997
 31
0.0
  0
ARC
  5
3D0
330
29C
100
AcDbEntity
  8
0
  6
Continuous
 62
     3
100
AcDbCircle
 10
44.166111727
 20
105.6
 30
0.0
 40
0.25
100
AcDbArc
 50
270.0
 51
356.185925166
  0
LINE
  5
3D1
330
29C
100
AcDbEntity
  8
0
  6
Continuous
 62
     3
100
AcDbLine
 10
30.4
 20
121.25
 30
0.0
 11
30.89999999999999
 21
125.2499999999999
 31
0.0
  0
LINE
  5
3D2
330
29C
100
AcDbEntity
  8
0
  6
Continuous
 62
     3
100
AcDbLine
 10
30.89999999999999
 20
125.2499999999999
 30
0.0
 11
35.89999999999999
 21
125.2499999999999
 31
0.0
  0
LINE
  5
3D3
330
29C
100
AcDbEntity
  8
0
  6
Continuous
 62
     3
100
AcDbLine
 10
35.89999999999999
 20
125.2499999999999
 30
0.0
 11
36.4
 21
121.25
 31
0.0
  0
LINE
  5
3D4
330
29C
100
AcDbEntity
  8
0
  6
Continuous
 62
     3
100
AcDbLine
 10
24.9
 20
109.7499999999999
 30
0.0
 11
26.6
 21
105.2499999999999
 31
0.0
  0
LINE
  5
3D5
330
29C
100
AcDbEntity
  8
0
  6
Continuous
 62
     3
100
AcDbLine
 10
26.6
 20
105.2499999999999
 30
0.0
 11
26.8
 21
105.2499999999999
 31
0.0
  0
LINE
  5
3D6
330
29C
100
AcDbEntity
  8
0
  6
Continuous
 62
     3
100
AcDbLine
 10
26.8
 20
105.2499999999999
 30
0.0
 11
27.4
 21
109.25
 31
0.0
  0
ARC
  5
3D7
330
29C
100
AcDbEntity
  8
0
  6
Continuous
 62
     3
100
AcDbCircle
 10
8.542857142999999
 20
119.178571429
 30
0.0
 40
18.879991569
100
AcDbArc
 50
330.040025281
 51
357.1808940509999
  0
LINE
  5
3D8
330
29C
100
AcDbEntity
  8
0
  6
Continuous
 62
     3
100
AcDbLine
 10
97.9
 20
109.7499999999999
 30
0.0
 11
96.2
 21
105.2499999999999
 31
0.0
  0
LINE
  5
3D9
330
29C
100
AcDbEntity
  8
0
  6
Continuous
 62
     3
100
AcDbLine
 10
96.2
 20
105.2499999999999
 30
0.0
 11
96.0
 21
105.2499999999999
 31
0.0
  0
LINE
  5
3DA
330
29C
100
AcDbEntity
  8
0
  6
Continuous
 62
     3
100
AcDbLine
 10
96.0
 20
105.2499999999999
 30
0.0
 11
95.4
 21
109.25
 31
0.0
  0
ARC
  5
3DB
330
29C
100
AcDbEntity
  8
0
  6
Continuous
 62
     3
100
AcDbCircle
 10
114.257142857
 20
119.178571429
 30
0.0
 40
18.879991569
100
AcDbArc
 50
182.819105949
 51
209.959974719
  0
LINE
  5
3DC
330
29C
100
AcDbEntity
  8
0
  6
Continuous
 62
     3
100
AcDbLine
 10
93.40000000000001
 20
121.25
 30
0.0
 11
93.40000000000001
 21
125.2499999999999
 31
0.0
  0
LINE
  5
3DD
330
29C
100
AcDbEntity
  8
0
  6
Continuous
 62
     3
100
AcDbLine
 10
93.40000000000001
 20
125.2499999999999
 30
0.0
 11
88.9
 21
125.2499999999999
 31
0.0
  0
LINE
  5
3DE
330
29C
100
AcDbEntity
  8
0
  6
Continuous
 62
     3
100
AcDbLine
 10
88.9
 20
125.2499999999999
 30
0.0
 11
88.9
 21
121.25
 31
0.0
  0
LINE
  5
3DF
330
29C
100
AcDbEntity
  8
0
  6
Continuous
 62
     3
100
AcDbLine
 10
88.40000000000001
 20
121.25
 30
0.0
 11
88.40000000000001
 21
125.2499999999999
 31
0.0
  0
LINE
  5
3E0
330
29C
100
AcDbEntity
  8
0
  6
Continuous
 62
     3
100
AcDbLine
 10
88.9
 20
125.2499999999999
 30
0.0
 11
88.40000000000001
 21
125.2499999999999
 31
0.0
  0
LINE
  5
3E1
330
29C
100
AcDbEntity
  8
0
  6
Continuous
 62
     3
100
AcDbLine
 10
91.4
 20
125.2499999999999
 30
0.0
 11
91.4
 21
129.05
 31
0.0
  0
LINE
  5
3E2
330
29C
100
AcDbEntity
  8
0
  6
Continuous
 62
     3
100
AcDbLine
 10
25.4
 20
52.14999999999999
 30
0.0
 11
97.40000000000001
 21
52.14999999999999
 31
0.0
  0
LINE
  5
3E3
330
29C
100
AcDbEntity
  8
0
  6
Continuous
 62
     3
100
AcDbLine
 10
97.40000000000001
 20
52.14999999999999
 30
0.0
 11
97.40000000000001
 21
88.15000000000003
 31
0.0
  0
LINE
  5
3E4
330
29C
100
AcDbEntity
  8
0
  6
Continuous
 62
     3
100
AcDbLine
 10
97.40000000000001
 20
88.15000000000003
 30
0.0
 11
25.4
 21
88.15000000000003
 31
0.0
  0
LINE
  5
3E5
330
29C
100
AcDbEntity
  8
0
  6
Continuous
 62
     3
100
AcDbLine
 10
25.4
 20
88.15000000000003
 30
0.0
 11
25.4
 21
52.14999999999999
 31
0.0
  0
POINT
  5
3E6
330
29C
100
AcDbEntity
  8
0
  6
Continuous
 62
     3
100
AcDbPoint
 10
61.4
 20
70.15
 30
0.0
  0
LINE
  5
3E7
330
29C
100
AcDbEntity
  8
0
  6
Continuous
 62
     3
100
AcDbLine
 10
26.89999999999999
 20
52.14999999999999
 30
0.0
 11
26.89999999999999
 21
88.15000000000003
 31
0.0
  0
LINE
  5
3E8
330
29C
100
AcDbEntity
  8
0
  6
Continuous
 62
     3
100
AcDbLine
 10
95.90000000000001
 20
52.14999999999999
 30
0.0
 11
95.90000000000001
 21
88.15000000000003
 31
0.0
  0
POINT
  5
3E9
330
29C
100
AcDbEntity
  8
0
  6
Continuous
 62
     3
100
AcDbPoint
 10
77.58410850199999
 20
78.415844497
 30
0.0
  0
LINE
  5
3EA
330
29C
100
AcDbEntity
  8
0
  6
Continuous
 62
     3
100
AcDbLine
 10
81.80688300199999
 20
65.438537497
 30
0.0
 11
82.527844502
 21
64.202603497
 31
0.0
  0
LINE
  5
3EB
330
29C
100
AcDbEntity
  8
0
  6
Continuous
 62
     3
100
AcDbLine
 10
81.9928065
 20
65.65759799999999
 30
0.0
 11
82.713768
 21
64.42166400000001
 31
0.0
  0
LINE
  5
3EC
330
29C
100
AcDbEntity
  8
0
  6
Continuous
 62
     3
100
AcDbLine
 10
76.22511450000001
 20
65.45160899999999
 30
0.0
 11
75.09217499999998
 21
64.215675
 31
0.0
  0
LINE
  5
3ED
330
29C
100
AcDbEntity
  8
0
  6
Continuous
 62
     3
100
AcDbLine
 10
81.7868175
 20
65.45160899999999
 30
0.0
 11
76.22511450000001
 21
65.45160899999999
 31
0.0
  0
LINE
  5
3EE
330
29C
100
AcDbEntity
  8
0
  6
Continuous
 62
     3
100
AcDbLine
 10
82.713768
 20
64.34204612000001
 30
0.0
 11
82.939822502
 21
64.51158699699999
 31
0.0
  0
LINE
  5
3EF
330
29C
100
AcDbEntity
  8
0
  6
Continuous
 62
     3
100
AcDbLine
 10
82.40478449999997
 20
64.215675
 30
0.0
 11
75.09217499999998
 21
64.215675
 31
0.0
  0
LINE
  5
3F0
330
29C
100
AcDbEntity
  8
0
  6
Continuous
 62
     3
100
AcDbLine
 10
82.919757
 20
72.043257
 30
0.0
 11
83.6407185
 21
71.42529
 31
0.0
  0
LINE
  5
3F1
330
29C
100
AcDbEntity
  8
0
  6
Continuous
 62
     3
100
AcDbLine
 10
83.6407185
 20
71.42529
 30
0.0
 11
82.713768
 21
70.807323
 31
0.0
  0
LINE
  5
3F2
330
29C
100
AcDbEntity
  8
0
  6
Continuous
 62
     3
100
AcDbLine
 10
82.81676249999998
 20
70.60133399999998
 30
0.0
 11
84.05269649999999
 21
71.42529
 31
0.0
  0
LINE
  5
3F3
330
29C
100
AcDbEntity
  8
0
  6
Continuous
 62
     3
100
AcDbLine
 10
84.05269649999999
 20
71.42529
 30
0.0
 11
84.155691
 21
71.32229549999998
 31
0.0
  0
LINE
  5
3F4
330
29C
100
AcDbEntity
  8
0
  6
Continuous
 62
     3
100
AcDbLine
 10
83.12574599999997
 20
72.1462515
 30
0.0
 11
83.84670749999996
 21
71.5282845
 31
0.0
  0
LINE
  5
3F5
330
29C
100
AcDbEntity
  8
0
  6
Continuous
 62
     3
100
AcDbLine
 10
83.84670749999996
 20
71.5282845
 30
0.0
 11
84.2586855
 21
71.83726800000002
 31
0.0
  0
LINE
  5
3F6
330
29C
100
AcDbEntity
  8
0
  6
Continuous
 62
     3
100
AcDbLine
 10
84.16090642499998
 20
71.32229549999998
 30
0.0
 11
82.96229961699998
 21
64.5246585
 31
0.0
  0
LINE
  5
3F7
330
29C
100
AcDbEntity
  8
0
  6
Continuous
 62
     3
100
AcDbLine
 10
82.79784746
 20
70.60133399999998
 30
0.0
 11
81.92613341800001
 21
65.65759799999999
 31
0.0
  0
LINE
  5
3F8
330
29C
100
AcDbEntity
  8
0
  6
Continuous
 62
     3
100
AcDbLine
 10
77.2550595
 20
70.807323
 30
0.0
 11
76.4311035
 21
71.42529
 31
0.0
  0
LINE
  5
3F9
330
29C
100
AcDbEntity
  8
0
  6
Continuous
 62
     3
100
AcDbLine
 10
76.4311035
 20
71.42529
 30
0.0
 11
77.56404299999998
 21
72.043257
 31
0.0
  0
LINE
  5
3FA
330
29C
100
AcDbEntity
  8
0
  6
Continuous
 62
     3
100
AcDbLine
 10
77.2550595
 20
72.1462515
 30
0.0
 11
76.22511450000001
 21
71.5282845
 31
0.0
  0
LINE
  5
3FB
330
29C
100
AcDbEntity
  8
0
  6
Continuous
 62
     3
100
AcDbLine
 10
76.22511450000001
 20
71.5282845
 30
0.0
 11
76.0191255
 21
71.7342735
 31
0.0
  0
LINE
  5
3FC
330
29C
100
AcDbEntity
  8
0
  6
Continuous
 62
     3
100
AcDbLine
 10
82.713768
 20
70.807323
 30
0.0
 11
77.2550595
 21
70.807323
 31
0.0
  0
LINE
  5
3FD
330
29C
100
AcDbEntity
  8
0
  6
Continuous
 62
     3
100
AcDbLine
 10
77.56404299999998
 20
72.043257
 30
0.0
 11
82.919757
 21
72.043257
 31
0.0
  0
LINE
  5
3FE
330
29C
100
AcDbEntity
  8
0
  6
Continuous
 62
     3
100
AcDbLine
 10
78.18200999999998
 20
76.986993
 30
0.0
 11
77.2550595
 21
78.11993249999997
 31
0.0
  0
LINE
  5
3FF
330
29C
100
AcDbEntity
  8
0
  6
Continuous
 62
     3
100
AcDbLine
 10
77.4610485
 20
78.32592149999998
 30
0.0
 11
78.38799899999997
 21
77.192982
 31
0.0
  0
LINE
  5
400
330
29C
100
AcDbEntity
  8
0
  6
Continuous
 62
     3
100
AcDbLine
 10
77.30256609899999
 20
72.1462515
 30
0.0
 11
78.15611943199998
 21
76.986993
 31
0.0
  0
LINE
  5
401
330
29C
100
AcDbEntity
  8
0
  6
Continuous
 62
     3
100
AcDbLine
 10
77.2550595
 20
78.169057745
 30
0.0
 11
77.172130502
 21
78.10686099699998
 31
0.0
  0
LINE
  5
402
330
29C
100
AcDbEntity
  8
0
  6
Continuous
 62
     3
100
AcDbLine
 10
77.58410850199999
 20
78.415844497
 30
0.0
 11
77.4610485
 21
78.32354949499998
 31
0.0
  0
LINE
  5
403
330
29C
100
AcDbEntity
  8
0
  6
Continuous
 62
     3
100
AcDbLine
 10
75.99398926100001
 20
71.7342735
 30
0.0
 11
77.119953234
 21
78.11993249999997
 31
0.0
  0
LINE
  5
404
330
29C
100
AcDbEntity
  8
0
  6
Continuous
 62
     3
100
AcDbLine
 10
83.74371299999998
 20
77.192982
 30
0.0
 11
85.08264149999998
 21
78.222927
 31
0.0
  0
LINE
  5
405
330
29C
100
AcDbEntity
  8
0
  6
Continuous
 62
     3
100
AcDbLine
 10
83.92381143199999
 20
76.986993
 30
0.0
 11
83.070258099
 21
72.1462515
 31
0.0
  0
LINE
  5
406
330
29C
100
AcDbEntity
  8
0
  6
Continuous
 62
     3
100
AcDbLine
 10
78.38799899999997
 20
77.179910497
 30
0.0
 11
83.74371299999998
 21
77.179910497
 31
0.0
  0
LINE
  5
407
330
29C
100
AcDbEntity
  8
0
  6
Continuous
 62
     3
100
AcDbLine
 10
77.56404299999998
 20
78.415844497
 30
0.0
 11
84.979647
 21
78.415844497
 31
0.0
  0
LINE
  5
408
330
29C
100
AcDbEntity
  8
0
  6
Continuous
 62
     3
100
AcDbLine
 10
84.99971250199999
 20
78.415844497
 30
0.0
 11
85.144400625
 21
78.222927
 31
0.0
  0
LINE
  5
409
330
29C
100
AcDbEntity
  8
0
  6
Continuous
 62
     3
100
AcDbLine
 10
85.185636
 20
77.9139435
 30
0.0
 11
85.28863050000003
 21
77.7079545
 31
0.0
  0
LINE
  5
40A
330
29C
100
AcDbEntity
  8
0
  6
Continuous
 62
     3
100
AcDbLine
 10
85.28687039599999
 20
77.7079545
 30
0.0
 11
84.25170997099998
 21
71.83726800000002
 31
0.0
  0
LINE
  5
40B
330
29C
100
AcDbEntity
  8
0
  6
Continuous
 62
     3
100
AcDbLine
 10
85.185636
 20
77.937711461
 30
0.0
 11
83.94970200000001
 21
76.986993
 31
0.0
  0
LINE
  5
40C
330
29C
100
AcDbEntity
  8
0
  6
Continuous
 62
     3
100
AcDbLine
 10
74.88618599999998
 20
64.31866949999998
 30
0.0
 11
74.68019699999998
 21
64.5246585
 31
0.0
  0
LINE
  5
40D
330
29C
100
AcDbEntity
  8
0
  6
Continuous
 62
     3
100
AcDbLine
 10
74.655060761
 20
64.5246585
 30
0.0
 11
75.781024734
 21
70.91031750000002
 31
0.0
  0
LINE
  5
40E
330
29C
100
AcDbEntity
  8
0
  6
Continuous
 62
     3
100
AcDbLine
 10
74.874246489
 20
64.31866949999998
 30
0.0
 11
76.110180489
 21
65.5546035
 31
0.0
  0
LINE
  5
40F
330
29C
100
AcDbEntity
  8
0
  6
Continuous
 62
     3
100
AcDbLine
 10
76.108923272
 20
65.5546035
 30
0.0
 11
76.817190932
 21
69.571389
 31
0.0
  0
LINE
  5
410
330
29C
100
AcDbEntity
  8
0
  6
Continuous
 62
     3
100
AcDbLine
 10
76.21317498899998
 20
71.219301
 30
0.0
 11
77.03713098899999
 21
70.60133399999998
 31
0.0
  0
LINE
  5
411
330
29C
100
AcDbEntity
  8
0
  6
Continuous
 62
     3
100
AcDbLine
 10
77.03713098899999
 20
70.60133399999998
 30
0.0
 11
76.831141989
 21
69.571389
 31
0.0
  0
LINE
  5
412
330
29C
100
AcDbEntity
  8
0
  6
Continuous
 62
     3
100
AcDbLine
 10
75.80119698899999
 20
70.91031750000002
 30
0.0
 11
76.21317498899998
 21
71.219301
 31
0.0
  0
POINT
  5
413
330
29C
100
AcDbEntity
  8
0
  6
Continuous
 62
     3
100
AcDbPoint
 10
64.08410850199999
 20
78.415844497
 30
0.0
  0
LINE
  5
414
330
29C
100
AcDbEntity
  8
0
  6
Continuous
 62
     3
100
AcDbLine
 10
68.30688300199999
 20
65.438537497
 30
0.0
 11
69.02784450199999
 21
64.202603497
 31
0.0
  0
LINE
  5
415
330
29C
100
AcDbEntity
  8
0
  6
Continuous
 62
     3
100
AcDbLine
 10
68.4928065
 20
65.65759799999999
 30
0.0
 11
69.213768
 21
64.42166400000001
 31
0.0
  0
LINE
  5
416
330
29C
100
AcDbEntity
  8
0
  6
Continuous
 62
     3
100
AcDbLine
 10
62.72511449999999
 20
65.45160899999999
 30
0.0
 11
61.592175
 21
64.215675
 31
0.0
  0
LINE
  5
417
330
29C
100
AcDbEntity
  8
0
  6
Continuous
 62
     3
100
AcDbLine
 10
68.2868175
 20
65.45160899999999
 30
0.0
 11
62.72511449999999
 21
65.45160899999999
 31
0.0
  0
LINE
  5
418
330
29C
100
AcDbEntity
  8
0
  6
Continuous
 62
     3
100
AcDbLine
 10
69.213768
 20
64.34204612000001
 30
0.0
 11
69.439822502
 21
64.51158699699999
 31
0.0
  0
LINE
  5
419
330
29C
100
AcDbEntity
  8
0
  6
Continuous
 62
     3
100
AcDbLine
 10
68.90478449999999
 20
64.215675
 30
0.0
 11
61.592175
 21
64.215675
 31
0.0
  0
LINE
  5
41A
330
29C
100
AcDbEntity
  8
0
  6
Continuous
 62
     3
100
AcDbLine
 10
69.41975699999999
 20
72.043257
 30
0.0
 11
70.1407185
 21
71.42529
 31
0.0
  0
LINE
  5
41B
330
29C
100
AcDbEntity
  8
0
  6
Continuous
 62
     3
100
AcDbLine
 10
70.1407185
 20
71.42529
 30
0.0
 11
69.213768
 21
70.807323
 31
0.0
  0
LINE
  5
41C
330
29C
100
AcDbEntity
  8
0
  6
Continuous
 62
     3
100
AcDbLine
 10
69.31676249999999
 20
70.60133399999998
 30
0.0
 11
70.55269649999998
 21
71.42529
 31
0.0
  0
LINE
  5
41D
330
29C
100
AcDbEntity
  8
0
  6
Continuous
 62
     3
100
AcDbLine
 10
70.55269649999998
 20
71.42529
 30
0.0
 11
70.65569100000002
 21
71.32229549999998
 31
0.0
  0
LINE
  5
41E
330
29C
100
AcDbEntity
  8
0
  6
Continuous
 62
     3
100
AcDbLine
 10
69.62574599999999
 20
72.1462515
 30
0.0
 11
70.3467075
 21
71.5282845
 31
0.0
  0
LINE
  5
41F
330
29C
100
AcDbEntity
  8
0
  6
Continuous
 62
     3
100
AcDbLine
 10
70.3467075
 20
71.5282845
 30
0.0
 11
70.7586855
 21
71.83726800000002
 31
0.0
  0
LINE
  5
420
330
29C
100
AcDbEntity
  8
0
  6
Continuous
 62
     3
100
AcDbLine
 10
70.66090642499998
 20
71.32229549999998
 30
0.0
 11
69.462299617
 21
64.5246585
 31
0.0
  0
LINE
  5
421
330
29C
100
AcDbEntity
  8
0
  6
Continuous
 62
     3
100
AcDbLine
 10
69.29784746
 20
70.60133399999998
 30
0.0
 11
68.426133418
 21
65.65759799999999
 31
0.0
  0
LINE
  5
422
330
29C
100
AcDbEntity
  8
0
  6
Continuous
 62
     3
100
AcDbLine
 10
63.75505949999999
 20
70.807323
 30
0.0
 11
62.9311035
 21
71.42529
 31
0.0
  0
LINE
  5
423
330
29C
100
AcDbEntity
  8
0
  6
Continuous
 62
     3
100
AcDbLine
 10
62.9311035
 20
71.42529
 30
0.0
 11
64.064043
 21
72.043257
 31
0.0
  0
LINE
  5
424
330
29C
100
AcDbEntity
  8
0
  6
Continuous
 62
     3
100
AcDbLine
 10
63.75505949999999
 20
72.1462515
 30
0.0
 11
62.72511449999999
 21
71.5282845
 31
0.0
  0
LINE
  5
425
330
29C
100
AcDbEntity
  8
0
  6
Continuous
 62
     3
100
AcDbLine
 10
62.72511449999999
 20
71.5282845
 30
0.0
 11
62.5191255
 21
71.7342735
 31
0.0
  0
LINE
  5
426
330
29C
100
AcDbEntity
  8
0
  6
Continuous
 62
     3
100
AcDbLine
 10
69.213768
 20
70.807323
 30
0.0
 11
63.75505949999999
 21
70.807323
 31
0.0
  0
LINE
  5
427
330
29C
100
AcDbEntity
  8
0
  6
Continuous
 62
     3
100
AcDbLine
 10
64.064043
 20
72.043257
 30
0.0
 11
69.41975699999999
 21
72.043257
 31
0.0
  0
LINE
  5
428
330
29C
100
AcDbEntity
  8
0
  6
Continuous
 62
     3
100
AcDbLine
 10
64.68200999999999
 20
76.986993
 30
0.0
 11
63.75505949999999
 21
78.11993249999997
 31
0.0
  0
LINE
  5
429
330
29C
100
AcDbEntity
  8
0
  6
Continuous
 62
     3
100
AcDbLine
 10
63.9610485
 20
78.32592149999998
 30
0.0
 11
64.887999
 21
77.192982
 31
0.0
  0
LINE
  5
42A
330
29C
100
AcDbEntity
  8
0
  6
Continuous
 62
     3
100
AcDbLine
 10
63.80256609899999
 20
72.1462515
 30
0.0
 11
64.65611943199998
 21
76.986993
 31
0.0
  0
LINE
  5
42B
330
29C
100
AcDbEntity
  8
0
  6
Continuous
 62
     3
100
AcDbLine
 10
63.75505949999999
 20
78.169057745
 30
0.0
 11
63.672130502
 21
78.10686099699998
 31
0.0
  0
LINE
  5
42C
330
29C
100
AcDbEntity
  8
0
  6
Continuous
 62
     3
100
AcDbLine
 10
64.08410850199999
 20
78.415844497
 30
0.0
 11
63.9610485
 21
78.32354949499998
 31
0.0
  0
LINE
  5
42D
330
29C
100
AcDbEntity
  8
0
  6
Continuous
 62
     3
100
AcDbLine
 10
62.493989261
 20
71.7342735
 30
0.0
 11
63.61995323399999
 21
78.11993249999997
 31
0.0
  0
LINE
  5
42E
330
29C
100
AcDbEntity
  8
0
  6
Continuous
 62
     3
100
AcDbLine
 10
70.243713
 20
77.192982
 30
0.0
 11
71.58264149999998
 21
78.222927
 31
0.0
  0
LINE
  5
42F
330
29C
100
AcDbEntity
  8
0
  6
Continuous
 62
     3
100
AcDbLine
 10
70.423811432
 20
76.986993
 30
0.0
 11
69.570258099
 21
72.1462515
 31
0.0
  0
LINE
  5
430
330
29C
100
AcDbEntity
  8
0
  6
Continuous
 62
     3
100
AcDbLine
 10
64.887999
 20
77.179910497
 30
0.0
 11
70.243713
 21
77.179910497
 31
0.0
  0
LINE
  5
431
330
29C
100
AcDbEntity
  8
0
  6
Continuous
 62
     3
100
AcDbLine
 10
64.064043
 20
78.415844497
 30
0.0
 11
71.479647
 21
78.415844497
 31
0.0
  0
LINE
  5
432
330
29C
100
AcDbEntity
  8
0
  6
Continuous
 62
     3
100
AcDbLine
 10
71.499712502
 20
78.415844497
 30
0.0
 11
71.644400625
 21
78.222927
 31
0.0
  0
LINE
  5
433
330
29C
100
AcDbEntity
  8
0
  6
Continuous
 62
     3
100
AcDbLine
 10
71.685636
 20
77.9139435
 30
0.0
 11
71.78863050000003
 21
77.7079545
 31
0.0
  0
LINE
  5
434
330
29C
100
AcDbEntity
  8
0
  6
Continuous
 62
     3
100
AcDbLine
 10
71.78687039599998
 20
77.7079545
 30
0.0
 11
70.75170997099998
 21
71.83726800000002
 31
0.0
  0
LINE
  5
435
330
29C
100
AcDbEntity
  8
0
  6
Continuous
 62
     3
100
AcDbLine
 10
71.685636
 20
77.937711461
 30
0.0
 11
70.449702
 21
76.986993
 31
0.0
  0
LINE
  5
436
330
29C
100
AcDbEntity
  8
0
  6
Continuous
 62
     3
100
AcDbLine
 10
61.386186
 20
64.31866949999998
 30
0.0
 11
61.180197
 21
64.5246585
 31
0.0
  0
LINE
  5
437
330
29C
100
AcDbEntity
  8
0
  6
Continuous
 62
     3
100
AcDbLine
 10
61.155060761
 20
64.5246585
 30
0.0
 11
62.28102473399999
 21
70.91031750000002
 31
0.0
  0
LINE
  5
438
330
29C
100
AcDbEntity
  8
0
  6
Continuous
 62
     3
100
AcDbLine
 10
61.37424648899999
 20
64.31866949999998
 30
0.0
 11
62.61018048899999
 21
65.5546035
 31
0.0
  0
LINE
  5
439
330
29C
100
AcDbEntity
  8
0
  6
Continuous
 62
     3
100
AcDbLine
 10
62.608923272
 20
65.5546035
 30
0.0
 11
63.317190932
 21
69.571389
 31
0.0
  0
LINE
  5
43A
330
29C
100
AcDbEntity
  8
0
  6
Continuous
 62
     3
100
AcDbLine
 10
62.713174989
 20
71.219301
 30
0.0
 11
63.537130989
 21
70.60133399999998
 31
0.0
  0
LINE
  5
43B
330
29C
100
AcDbEntity
  8
0
  6
Continuous
 62
     3
100
AcDbLine
 10
63.537130989
 20
70.60133399999998
 30
0.0
 11
63.33114198899999
 21
69.571389
 31
0.0
  0
LINE
  5
43C
330
29C
100
AcDbEntity
  8
0
  6
Continuous
 62
     3
100
AcDbLine
 10
62.301196989
 20
70.91031750000002
 30
0.0
 11
62.713174989
 21
71.219301
 31
0.0
  0
POINT
  5
43D
330
29C
100
AcDbEntity
  8
0
  6
Continuous
 62
     3
100
AcDbPoint
 10
50.584108502
 20
78.415844497
 30
0.0
  0
LINE
  5
43E
330
29C
100
AcDbEntity
  8
0
  6
Continuous
 62
     3
100
AcDbLine
 10
54.806883002
 20
65.438537497
 30
0.0
 11
55.527844502
 21
64.202603497
 31
0.0
  0
LINE
  5
43F
330
29C
100
AcDbEntity
  8
0
  6
Continuous
 62
     3
100
AcDbLine
 10
54.99280649999999
 20
65.65759799999999
 30
0.0
 11
55.713768
 21
64.42166400000001
 31
0.0
  0
LINE
  5
440
330
29C
100
AcDbEntity
  8
0
  6
Continuous
 62
     3
100
AcDbLine
 10
49.2251145
 20
65.45160899999999
 30
0.0
 11
48.09217499999999
 21
64.215675
 31
0.0
  0
LINE
  5
441
330
29C
100
AcDbEntity
  8
0
  6
Continuous
 62
     3
100
AcDbLine
 10
54.78681749999999
 20
65.45160899999999
 30
0.0
 11
49.2251145
 21
65.45160899999999
 31
0.0
  0
LINE
  5
442
330
29C
100
AcDbEntity
  8
0
  6
Continuous
 62
     3
100
AcDbLine
 10
55.713768
 20
64.34204612000001
 30
0.0
 11
55.93982250199999
 21
64.51158699699999
 31
0.0
  0
LINE
  5
443
330
29C
100
AcDbEntity
  8
0
  6
Continuous
 62
     3
100
AcDbLine
 10
55.4047845
 20
64.215675
 30
0.0
 11
48.09217499999999
 21
64.215675
 31
0.0
  0
LINE
  5
444
330
29C
100
AcDbEntity
  8
0
  6
Continuous
 62
     3
100
AcDbLine
 10
55.91975699999998
 20
72.043257
 30
0.0
 11
56.6407185
 21
71.42529
 31
0.0
  0
LINE
  5
445
330
29C
100
AcDbEntity
  8
0
  6
Continuous
 62
     3
100
AcDbLine
 10
56.6407185
 20
71.42529
 30
0.0
 11
55.713768
 21
70.807323
 31
0.0
  0
LINE
  5
446
330
29C
100
AcDbEntity
  8
0
  6
Continuous
 62
     3
100
AcDbLine
 10
55.81676250000001
 20
70.60133399999998
 30
0.0
 11
57.05269649999999
 21
71.42529
 31
0.0
  0
LINE
  5
447
330
29C
100
AcDbEntity
  8
0
  6
Continuous
 62
     3
100
AcDbLine
 10
57.05269649999999
 20
71.42529
 30
0.0
 11
57.15569099999999
 21
71.32229549999998
 31
0.0
  0
LINE
  5
448
330
29C
100
AcDbEntity
  8
0
  6
Continuous
 62
     3
100
AcDbLine
 10
56.125746
 20
72.1462515
 30
0.0
 11
56.84670749999999
 21
71.5282845
 31
0.0
  0
LINE
  5
449
330
29C
100
AcDbEntity
  8
0
  6
Continuous
 62
     3
100
AcDbLine
 10
56.84670749999999
 20
71.5282845
 30
0.0
 11
57.2586855
 21
71.83726800000002
 31
0.0
  0
LINE
  5
44A
330
29C
100
AcDbEntity
  8
0
  6
Continuous
 62
     3
100
AcDbLine
 10
57.160906425
 20
71.32229549999998
 30
0.0
 11
55.962299617
 21
64.5246585
 31
0.0
  0
LINE
  5
44B
330
29C
100
AcDbEntity
  8
0
  6
Continuous
 62
     3
100
AcDbLine
 10
55.79784746
 20
70.60133399999998
 30
0.0
 11
54.926133418
 21
65.65759799999999
 31
0.0
  0
LINE
  5
44C
330
29C
100
AcDbEntity
  8
0
  6
Continuous
 62
     3
100
AcDbLine
 10
50.25505949999999
 20
70.807323
 30
0.0
 11
49.4311035
 21
71.42529
 31
0.0
  0
LINE
  5
44D
330
29C
100
AcDbEntity
  8
0
  6
Continuous
 62
     3
100
AcDbLine
 10
49.4311035
 20
71.42529
 30
0.0
 11
50.564043
 21
72.043257
 31
0.0
  0
LINE
  5
44E
330
29C
100
AcDbEntity
  8
0
  6
Continuous
 62
     3
100
AcDbLine
 10
50.25505949999999
 20
72.1462515
 30
0.0
 11
49.2251145
 21
71.5282845
 31
0.0
  0
LINE
  5
44F
330
29C
100
AcDbEntity
  8
0
  6
Continuous
 62
     3
100
AcDbLine
 10
49.2251145
 20
71.5282845
 30
0.0
 11
49.0191255
 21
71.7342735
 31
0.0
  0
LINE
  5
450
330
29C
100
AcDbEntity
  8
0
  6
Continuous
 62
     3
100
AcDbLine
 10
55.713768
 20
70.807323
 30
0.0
 11
50.25505949999999
 21
70.807323
 31
0.0
  0
LINE
  5
451
330
29C
100
AcDbEntity
  8
0
  6
Continuous
 62
     3
100
AcDbLine
 10
50.564043
 20
72.043257
 30
0.0
 11
55.91975699999998
 21
72.043257
 31
0.0
  0
LINE
  5
452
330
29C
100
AcDbEntity
  8
0
  6
Continuous
 62
     3
100
AcDbLine
 10
51.18201
 20
76.986993
 30
0.0
 11
50.25505949999999
 21
78.11993249999997
 31
0.0
  0
LINE
  5
453
330
29C
100
AcDbEntity
  8
0
  6
Continuous
 62
     3
100
AcDbLine
 10
50.46104849999998
 20
78.32592149999998
 30
0.0
 11
51.387999
 21
77.192982
 31
0.0
  0
LINE
  5
454
330
29C
100
AcDbEntity
  8
0
  6
Continuous
 62
     3
100
AcDbLine
 10
50.302566099
 20
72.1462515
 30
0.0
 11
51.156119432
 21
76.986993
 31
0.0
  0
LINE
  5
455
330
29C
100
AcDbEntity
  8
0
  6
Continuous
 62
     3
100
AcDbLine
 10
50.25505949999999
 20
78.169057745
 30
0.0
 11
50.17213050199998
 21
78.10686099699998
 31
0.0
  0
LINE
  5
456
330
29C
100
AcDbEntity
  8
0
  6
Continuous
 62
     3
100
AcDbLine
 10
50.584108502
 20
78.415844497
 30
0.0
 11
50.46104849999998
 21
78.32354949499998
 31
0.0
  0
LINE
  5
457
330
29C
100
AcDbEntity
  8
0
  6
Continuous
 62
     3
100
AcDbLine
 10
48.993989261
 20
71.7342735
 30
0.0
 11
50.11995323399999
 21
78.11993249999997
 31
0.0
  0
LINE
  5
458
330
29C
100
AcDbEntity
  8
0
  6
Continuous
 62
     3
100
AcDbLine
 10
56.743713
 20
77.192982
 30
0.0
 11
58.0826415
 21
78.222927
 31
0.0
  0
LINE
  5
459
330
29C
100
AcDbEntity
  8
0
  6
Continuous
 62
     3
100
AcDbLine
 10
56.923811432
 20
76.986993
 30
0.0
 11
56.07025809899999
 21
72.1462515
 31
0.0
  0
LINE
  5
45A
330
29C
100
AcDbEntity
  8
0
  6
Continuous
 62
     3
100
AcDbLine
 10
51.387999
 20
77.179910497
 30
0.0
 11
56.743713
 21
77.179910497
 31
0.0
  0
LINE
  5
45B
330
29C
100
AcDbEntity
  8
0
  6
Continuous
 62
     3
100
AcDbLine
 10
50.564043
 20
78.415844497
 30
0.0
 11
57.979647
 21
78.415844497
 31
0.0
  0
LINE
  5
45C
330
29C
100
AcDbEntity
  8
0
  6
Continuous
 62
     3
100
AcDbLine
 10
57.999712502
 20
78.415844497
 30
0.0
 11
58.14440062500001
 21
78.222927
 31
0.0
  0
LINE
  5
45D
330
29C
100
AcDbEntity
  8
0
  6
Continuous
 62
     3
100
AcDbLine
 10
58.185636
 20
77.9139435
 30
0.0
 11
58.28863049999998
 21
77.7079545
 31
0.0
  0
LINE
  5
45E
330
29C
100
AcDbEntity
  8
0
  6
Continuous
 62
     3
100
AcDbLine
 10
58.28687039600001
 20
77.7079545
 30
0.0
 11
57.25170997100001
 21
71.83726800000002
 31
0.0
  0
LINE
  5
45F
330
29C
100
AcDbEntity
  8
0
  6
Continuous
 62
     3
100
AcDbLine
 10
58.185636
 20
77.937711461
 30
0.0
 11
56.949702
 21
76.986993
 31
0.0
  0
LINE
  5
460
330
29C
100
AcDbEntity
  8
0
  6
Continuous
 62
     3
100
AcDbLine
 10
47.886186
 20
64.31866949999998
 30
0.0
 11
47.68019699999999
 21
64.5246585
 31
0.0
  0
LINE
  5
461
330
29C
100
AcDbEntity
  8
0
  6
Continuous
 62
     3
100
AcDbLine
 10
47.655060761
 20
64.5246585
 30
0.0
 11
48.781024734
 21
70.91031750000002
 31
0.0
  0
LINE
  5
462
330
29C
100
AcDbEntity
  8
0
  6
Continuous
 62
     3
100
AcDbLine
 10
47.87424648899999
 20
64.31866949999998
 30
0.0
 11
49.11018048899999
 21
65.5546035
 31
0.0
  0
LINE
  5
463
330
29C
100
AcDbEntity
  8
0
  6
Continuous
 62
     3
100
AcDbLine
 10
49.108923272
 20
65.5546035
 30
0.0
 11
49.81719093199998
 21
69.571389
 31
0.0
  0
LINE
  5
464
330
29C
100
AcDbEntity
  8
0
  6
Continuous
 62
     3
100
AcDbLine
 10
49.21317498899999
 20
71.219301
 30
0.0
 11
50.037130989
 21
70.60133399999998
 31
0.0
  0
LINE
  5
465
330
29C
100
AcDbEntity
  8
0
  6
Continuous
 62
     3
100
AcDbLine
 10
50.037130989
 20
70.60133399999998
 30
0.0
 11
49.831141989
 21
69.571389
 31
0.0
  0
LINE
  5
466
330
29C
100
AcDbEntity
  8
0
  6
Continuous
 62
     3
100
AcDbLine
 10
48.80119698899999
 20
70.91031750000002
 30
0.0
 11
49.21317498899999
 21
71.219301
 31
0.0
  0
LINE
  5
467
330
29C
100
AcDbEntity
  8
0
  6
Continuous
 62
     3
100
AcDbLine
 10
41.4928065
 20
65.65759799999999
 30
0.0
 11
42.213768
 21
64.42166400000001
 31
0.0
  0
LINE
  5
468
330
29C
100
AcDbEntity
  8
0
  6
Continuous
 62
     3
100
AcDbLine
 10
42.213768
 20
64.34204612000001
 30
0.0
 11
42.439822502
 21
64.51158699699999
 31
0.0
  0
LINE
  5
469
330
29C
100
AcDbEntity
  8
0
  6
Continuous
 62
     3
100
AcDbLine
 10
42.419757
 20
72.043257
 30
0.0
 11
43.1407185
 21
71.42529
 31
0.0
  0
LINE
  5
46A
330
29C
100
AcDbEntity
  8
0
  6
Continuous
 62
     3
100
AcDbLine
 10
43.1407185
 20
71.42529
 30
0.0
 11
42.213768
 21
70.807323
 31
0.0
  0
LINE
  5
46B
330
29C
100
AcDbEntity
  8
0
  6
Continuous
 62
     3
100
AcDbLine
 10
42.3167625
 20
70.60133399999998
 30
0.0
 11
43.5526965
 21
71.42529
 31
0.0
  0
LINE
  5
46C
330
29C
100
AcDbEntity
  8
0
  6
Continuous
 62
     3
100
AcDbLine
 10
43.5526965
 20
71.42529
 30
0.0
 11
43.655691
 21
71.32229549999998
 31
0.0
  0
LINE
  5
46D
330
29C
100
AcDbEntity
  8
0
  6
Continuous
 62
     3
100
AcDbLine
 10
42.62574599999999
 20
72.1462515
 30
0.0
 11
43.34670749999999
 21
71.5282845
 31
0.0
  0
LINE
  5
46E
330
29C
100
AcDbEntity
  8
0
  6
Continuous
 62
     3
100
AcDbLine
 10
43.34670749999999
 20
71.5282845
 30
0.0
 11
43.75868549999998
 21
71.83726800000002
 31
0.0
  0
LINE
  5
46F
330
29C
100
AcDbEntity
  8
0
  6
Continuous
 62
     3
100
AcDbLine
 10
43.660906425
 20
71.32229549999998
 30
0.0
 11
42.462299617
 21
64.5246585
 31
0.0
  0
LINE
  5
470
330
29C
100
AcDbEntity
  8
0
  6
Continuous
 62
     3
100
AcDbLine
 10
42.29784745999999
 20
70.60133399999998
 30
0.0
 11
41.42613341799999
 21
65.65759799999999
 31
0.0
  0
LINE
  5
471
330
29C
100
AcDbEntity
  8
0
  6
Continuous
 62
     3
100
AcDbLine
 10
36.75505949999996
 20
70.807323
 30
0.0
 11
35.93110349999999
 21
71.42529
 31
0.0
  0
LINE
  5
472
330
29C
100
AcDbEntity
  8
0
  6
Continuous
 62
     3
100
AcDbLine
 10
35.93110349999999
 20
71.42529
 30
0.0
 11
37.06404299999999
 21
72.043257
 31
0.0
  0
LINE
  5
473
330
29C
100
AcDbEntity
  8
0
  6
Continuous
 62
     3
100
AcDbLine
 10
42.213768
 20
70.807323
 30
0.0
 11
36.75505949999996
 21
70.807323
 31
0.0
  0
LINE
  5
474
330
29C
100
AcDbEntity
  8
0
  6
Continuous
 62
     3
100
AcDbLine
 10
37.06404299999999
 20
72.043257
 30
0.0
 11
42.419757
 21
72.043257
 31
0.0
  0
LINE
  5
475
330
29C
100
AcDbEntity
  8
0
  6
Continuous
 62
     3
100
AcDbLine
 10
43.42381143199999
 20
76.986993
 30
0.0
 11
42.570258099
 21
72.1462515
 31
0.0
  0
LINE
  5
476
330
29C
100
AcDbEntity
  8
0
  6
Continuous
 62
     3
100
AcDbLine
 10
44.68563599999998
 20
77.9139435
 30
0.0
 11
44.7886305
 21
77.7079545
 31
0.0
  0
LINE
  5
477
330
29C
100
AcDbEntity
  8
0
  6
Continuous
 62
     3
100
AcDbLine
 10
44.786870396
 20
77.7079545
 30
0.0
 11
43.751709971
 21
71.83726800000002
 31
0.0
  0
LINE
  5
478
330
29C
100
AcDbEntity
  8
0
  6
Continuous
 62
     3
100
AcDbLine
 10
44.68563599999998
 20
77.937711461
 30
0.0
 11
43.449702
 21
76.986993
 31
0.0
  0
LINE
  5
479
330
29C
100
AcDbEntity
  8
0
  6
Continuous
 62
     3
100
AcDbLine
 10
97.40000000000001
 20
65.15
 30
0.0
 11
98.40000000000001
 21
65.15
 31
0.0
  0
LINE
  5
47A
330
29C
100
AcDbEntity
  8
0
  6
Continuous
 62
     3
100
AcDbLine
 10
98.40000000000001
 20
65.15
 30
0.0
 11
98.40000000000001
 21
75.15
 31
0.0
  0
LINE
  5
47B
330
29C
100
AcDbEntity
  8
0
  6
Continuous
 62
     3
100
AcDbLine
 10
98.40000000000001
 20
75.15
 30
0.0
 11
97.40000000000001
 21
75.15
 31
0.0
  0
LINE
  5
47C
330
29C
100
AcDbEntity
  8
0
  6
Continuous
 62
     3
100
AcDbLine
 10
97.40000000000001
 20
75.15
 30
0.0
 11
97.40000000000001
 21
65.15
 31
0.0
  0
POINT
  5
47D
330
29C
100
AcDbEntity
  8
0
  6
Continuous
 62
     3
100
AcDbPoint
 10
97.9
 20
70.15
 30
0.0
  0
LINE
  5
47E
330
29C
100
AcDbEntity
  8
0
  6
Continuous
 62
     3
100
AcDbLine
 10
24.39999999999999
 20
65.15
 30
0.0
 11
25.4
 21
65.15
 31
0.0
  0
LINE
  5
47F
330
29C
100
AcDbEntity
  8
0
  6
Continuous
 62
     3
100
AcDbLine
 10
25.4
 20
65.15
 30
0.0
 11
25.4
 21
75.15
 31
0.0
  0
LINE
  5
480
330
29C
100
AcDbEntity
  8
0
  6
Continuous
 62
     3
100
AcDbLine
 10
25.4
 20
75.15
 30
0.0
 11
24.39999999999999
 21
75.15
 31
0.0
  0
LINE
  5
481
330
29C
100
AcDbEntity
  8
0
  6
Continuous
 62
     3
100
AcDbLine
 10
24.39999999999999
 20
75.15
 30
0.0
 11
24.39999999999999
 21
65.15
 31
0.0
  0
POINT
  5
482
330
29C
100
AcDbEntity
  8
0
  6
Continuous
 62
     3
100
AcDbPoint
 10
24.9
 20
70.15
 30
0.0
  0
LINE
  5
483
330
29C
100
AcDbEntity
  8
0
  6
Continuous
 62
     3
100
AcDbLine
 10
24.9
 20
75.15
 30
0.0
 11
24.9
 21
65.15
 31
0.0
  0
LINE
  5
484
330
29C
100
AcDbEntity
  8
0
  6
Continuous
 62
     3
100
AcDbLine
 10
97.9
 20
75.15
 30
0.0
 11
97.9
 21
65.15
 31
0.0
  0
LINE
  5
485
330
29C
100
AcDbEntity
  8
0
  6
Continuous
 62
     4
100
AcDbLine
 10
25.4
 20
51.15
 30
0.0
 11
25.4
 21
28.39999999999999
 31
0.0
  0
LINE
  5
486
330
29C
100
AcDbEntity
  8
0
  6
Continuous
 62
     4
100
AcDbLine
 10
25.4
 20
30.4
 30
0.0
 11
27.81481456599999
 21
29.75295238699999
 31
0.0
  0
LINE
  5
487
330
29C
100
AcDbEntity
  8
0
  6
Continuous
 62
     4
100
AcDbLine
 10
25.4
 20
30.4
 30
0.0
 11
27.81481456599999
 21
31.047047613
 31
0.0
  0
LINE
  5
488
330
29C
100
AcDbEntity
  8
0
  6
Continuous
 62
     4
100
AcDbLine
 10
25.4
 20
30.4
 30
0.0
 11
97.40000000000001
 21
30.4
 31
0.0
  0
LINE
  5
489
330
29C
100
AcDbEntity
  8
0
  6
Continuous
 62
     4
100
AcDbLine
 10
97.40000000000001
 20
30.4
 30
0.0
 11
94.98518543400001
 21
31.047047613
 31
0.0
  0
LINE
  5
48A
330
29C
100
AcDbEntity
  8
0
  6
Continuous
 62
     4
100
AcDbLine
 10
97.40000000000001
 20
30.4
 30
0.0
 11
94.98518543400001
 21
29.75295238699999
 31
0.0
  0
LINE
  5
48B
330
29C
100
AcDbEntity
  8
0
  6
Continuous
 62
     4
100
AcDbLine
 10
97.40000000000001
 20
51.15
 30
0.0
 11
97.40000000000001
 21
28.39999999999999
 31
0.0
  0
TEXT
  5
48C
330
29C
100
AcDbEntity
  8
0
  6
Continuous
 62
     4
100
AcDbText
 10
59.45
 20
31.4
 30
0.3
 40
3.0
  1
７２
 41
0.6
  7
KANJI0
100
AcDbText
  0
LINE
  5
48D
330
29C
100
AcDbEntity
  8
0
  6
Continuous
 62
     4
100
AcDbLine
 10
24.39999999999999
 20
88.15000000000003
 30
0.3
 11
9.4
 21
88.15000000000003
 31
0.3
  0
LINE
  5
48E
330
29C
100
AcDbEntity
  8
0
  6
Continuous
 62
     4
100
AcDbLine
 10
11.4
 20
88.15000000000003
 30
0.0
 11
10.752952387
 21
85.735185434
 31
0.0
  0
LINE
  5
48F
330
29C
100
AcDbEntity
  8
0
  6
Continuous
 62
     4
100
AcDbLine
 10
11.4
 20
88.15000000000003
 30
0.0
 11
12.047047613
 21
85.735185434
 31
0.0
  0
LINE
  5
490
330
29C
100
AcDbEntity
  8
0
  6
Continuous
 62
     4
100
AcDbLine
 10
11.4
 20
88.15000000000003
 30
0.0
 11
11.4
 21
52.14999999999999
 31
0.0
  0
LINE
  5
491
330
29C
100
AcDbEntity
  8
0
  6
Continuous
 62
     4
100
AcDbLine
 10
11.4
 20
52.14999999999999
 30
0.0
 11
12.047047613
 21
54.564814566
 31
0.0
  0
LINE
  5
492
330
29C
100
AcDbEntity
  8
0
  6
Continuous
 62
     4
100
AcDbLine
 10
11.4
 20
52.14999999999999
 30
0.0
 11
10.752952387
 21
54.564814566
 31
0.0
  0
LINE
  5
493
330
29C
100
AcDbEntity
  8
0
  6
Continuous
 62
     4
100
AcDbLine
 10
24.39999999999999
 20
52.14999999999999
 30
0.0
 11
9.4
 21
52.14999999999999
 31
0.0
  0
TEXT
  5
494
330
29C
100
AcDbEntity
  8
0
  6
Continuous
 62
     4
100
AcDbText
 10
10.4
 20
68.2
 30
0.3
 40
3.0
  1
３６
 50
90.0
 41
0.6
  7
KANJI0
100
AcDbText
  0
LINE
  5
495
330
29C
100
AcDbEntity
  8
0
  6
Continuous
 62
     3
100
AcDbLine
 10
209.9
 20
100.15
 30
0.3
 11
173.9
 21
100.15
 31
0.3
  0
LINE
  5
496
330
29C
100
AcDbEntity
  8
0
  6
Continuous
 62
     3
100
AcDbLine
 10
173.9
 20
100.15
 30
0.0
 11
173.9
 21
104.95
 31
0.0
  0
LINE
  5
497
330
29C
100
AcDbEntity
  8
0
  6
Continuous
 62
     3
100
AcDbLine
 10
209.9
 20
104.95
 30
0.0
 11
173.9
 21
104.95
 31
0.0
  0
LINE
  5
498
330
29C
100
AcDbEntity
  8
0
  6
Continuous
 62
     4
100
AcDbLine
 10
209.9
 20
100.15
 30
0.0
 11
209.9
 21
104.95
 31
0.0
  0
LINE
  5
499
330
29C
100
AcDbEntity
  8
0
  6
Continuous
 62
     3
100
AcDbLine
 10
175.4
 20
104.95
 30
0.0
 11
175.4
 21
121.25
 31
0.0
  0
LINE
  5
49A
330
29C
100
AcDbEntity
  8
0
  6
Continuous
 62
     3
100
AcDbLine
 10
208.4
 20
104.95
 30
0.0
 11
208.4
 21
121.25
 31
0.0
  0
LINE
  5
49B
330
29C
100
AcDbEntity
  8
0
  6
Continuous
 62
     3
100
AcDbLine
 10
175.4
 20
121.25
 30
0.0
 11
208.4
 21
121.25
 31
0.0
  0
LINE
  5
49C
330
29C
100
AcDbEntity
  8
0
  6
Continuous
 62
     3
100
AcDbLine
 10
191.9
 20
105.2499999999999
 30
0.0
 11
186.8999999999997
 21
105.2499999999999
 31
0.0
  0
LINE
  5
49D
330
29C
100
AcDbEntity
  8
0
  6
Continuous
 62
     3
100
AcDbLine
 10
191.9
 20
104.95
 30
0.0
 11
185.8999999999998
 21
104.95
 31
0.0
  0
POINT
  5
49E
330
29C
100
AcDbEntity
  8
0
  6
Continuous
 62
     3
100
AcDbPoint
 10
185.8999999999998
 20
105.4499999999999
 30
0.0
  0
ARC
  5
49F
330
29C
100
AcDbEntity
  8
0
  6
Continuous
 62
     3
100
AcDbCircle
 10
186.4
 20
117.45
 30
0.0
 40
0.5
100
AcDbArc
 50
0.0
 51
180.0
  0
LINE
  5
4A0
330
29C
100
AcDbEntity
  8
0
  6
Continuous
 62
     3
100
AcDbLine
 10
186.8999999999997
 20
105.2499999999999
 30
0.0
 11
186.8999999999997
 21
117.45
 31
0.0
  0
LINE
  5
4A1
330
29C
100
AcDbEntity
  8
0
  6
Continuous
 62
     3
100
AcDbLine
 10
185.8999999999998
 20
104.95
 30
0.0
 11
185.8999999999998
 21
117.45
 31
0.0
  0
LINE
  5
4A2
330
29C
100
AcDbEntity
  8
0
  6
Continuous
 62
     3
100
AcDbLine
 10
191.9
 20
105.2499999999999
 30
0.0
 11
196.9
 21
105.2499999999999
 31
0.0
  0
LINE
  5
4A3
330
29C
100
AcDbEntity
  8
0
  6
Continuous
 62
     3
100
AcDbLine
 10
191.9
 20
104.95
 30
0.0
 11
197.9
 21
104.95
 31
0.0
  0
POINT
  5
4A4
330
29C
100
AcDbEntity
  8
0
  6
Continuous
 62
     3
100
AcDbPoint
 10
197.9
 20
105.4499999999999
 30
0.0
  0
ARC
  5
4A5
330
29C
100
AcDbEntity
  8
0
  6
Continuous
 62
     3
100
AcDbCircle
 10
197.4
 20
117.45
 30
0.0
 40
0.5
100
AcDbArc
 50
0.0
 51
180.0
  0
LINE
  5
4A6
330
29C
100
AcDbEntity
  8
0
  6
Continuous
 62
     3
100
AcDbLine
 10
196.9
 20
105.2499999999999
 30
0.0
 11
196.9
 21
117.45
 31
0.0
  0
LINE
  5
4A7
330
29C
100
AcDbEntity
  8
0
  6
Continuous
 62
     3
100
AcDbLine
 10
197.9
 20
104.95
 30
0.0
 11
197.9
 21
117.45
 31
0.0
  0
LINE
  5
4A8
330
29C
100
AcDbEntity
  8
0
  6
Continuous
 62
     3
100
AcDbLine
 10
186.8999999999997
 20
105.75
 30
0.0
 11
196.9
 21
105.75
 31
0.0
  0
LINE
  5
4A9
330
29C
100
AcDbEntity
  8
0
  6
Continuous
 62
     3
100
AcDbLine
 10
196.9
 20
106.25
 30
0.0
 11
186.8999999999997
 21
106.25
 31
0.0
  0
LINE
  5
4AA
330
29C
100
AcDbEntity
  8
0
  6
Continuous
 62
     3
100
AcDbLine
 10
186.8999999999997
 20
106.75
 30
0.0
 11
196.9
 21
106.75
 31
0.0
  0
LINE
  5
4AB
330
29C
100
AcDbEntity
  8
0
  6
Continuous
 62
     3
100
AcDbLine
 10
196.9
 20
107.25
 30
0.0
 11
186.8999999999997
 21
107.25
 31
0.0
  0
LINE
  5
4AC
330
29C
100
AcDbEntity
  8
0
  6
Continuous
 62
     3
100
AcDbLine
 10
186.8999999999997
 20
107.75
 30
0.0
 11
196.9
 21
107.75
 31
0.0
  0
LINE
  5
4AD
330
29C
100
AcDbEntity
  8
0
  6
Continuous
 62
     3
100
AcDbLine
 10
196.9
 20
108.25
 30
0.0
 11
186.8999999999997
 21
108.25
 31
0.0
  0
LINE
  5
4AE
330
29C
100
AcDbEntity
  8
0
  6
Continuous
 62
     3
100
AcDbLine
 10
186.8999999999997
 20
108.75
 30
0.0
 11
196.9
 21
108.75
 31
0.0
  0
LINE
  5
4AF
330
29C
100
AcDbEntity
  8
0
  6
Continuous
 62
     3
100
AcDbLine
 10
186.8999999999997
 20
109.25
 30
0.0
 11
196.9
 21
109.25
 31
0.0
  0
LINE
  5
4B0
330
29C
100
AcDbEntity
  8
0
  6
Continuous
 62
     3
100
AcDbLine
 10
196.9
 20
109.7499999999999
 30
0.0
 11
186.8999999999997
 21
109.7499999999999
 31
0.0
  0
LINE
  5
4B1
330
29C
100
AcDbEntity
  8
0
  6
Continuous
 62
     3
100
AcDbLine
 10
186.8999999999997
 20
110.25
 30
0.0
 11
196.9
 21
110.25
 31
0.0
  0
LINE
  5
4B2
330
29C
100
AcDbEntity
  8
0
  6
Continuous
 62
     3
100
AcDbLine
 10
203.4
 20
121.25
 30
0.0
 11
203.4
 21
124.65
 31
0.0
  0
LINE
  5
4B3
330
29C
100
AcDbEntity
  8
0
  6
LTYPE1
 62
     3
100
AcDbLine
 10
203.4
 20
124.65
 30
0.0
 11
202.7
 21
124.65
 31
0.0
  0
LINE
  5
4B4
330
29C
100
AcDbEntity
  8
0
  6
Continuous
 62
     3
100
AcDbLine
 10
180.4
 20
121.25
 30
0.0
 11
180.4
 21
124.65
 31
0.0
  0
LINE
  5
4B5
330
29C
100
AcDbEntity
  8
0
  6
LTYPE1
 62
     3
100
AcDbLine
 10
180.4
 20
124.65
 30
0.0
 11
181.0999999999999
 21
124.65
 31
0.0
  0
LINE
  5
4B6
330
29C
100
AcDbEntity
  8
0
  6
LTYPE1
 62
     3
100
AcDbLine
 10
181.0999999999999
 20
124.65
 30
0.0
 11
181.0999999999999
 21
121.25
 31
0.0
  0
LINE
  5
4B7
330
29C
100
AcDbEntity
  8
0
  6
LTYPE1
 62
     3
100
AcDbLine
 10
202.7
 20
124.65
 30
0.0
 11
202.7
 21
121.25
 31
0.0
  0
LINE
  5
4B8
330
29C
100
AcDbEntity
  8
0
  6
Continuous
 62
     3
100
AcDbLine
 10
182.75
 20
123.8499999999997
 30
0.0
 11
182.75
 21
124.2499999999999
 31
0.0
  0
LINE
  5
4B9
330
29C
100
AcDbEntity
  8
0
  6
Continuous
 62
     3
100
AcDbLine
 10
182.75
 20
124.2499999999999
 30
0.0
 11
183.55
 21
124.2499999999999
 31
0.0
  0
LINE
  5
4BA
330
29C
100
AcDbEntity
  8
0
  6
Continuous
 62
     3
100
AcDbLine
 10
183.55
 20
124.2499999999999
 30
0.0
 11
183.55
 21
123.8499999999997
 31
0.0
  0
LINE
  5
4BB
330
29C
100
AcDbEntity
  8
0
  6
Continuous
 62
     3
100
AcDbLine
 10
185.25
 20
123.8499999999997
 30
0.0
 11
185.25
 21
124.2499999999999
 31
0.0
  0
LINE
  5
4BC
330
29C
100
AcDbEntity
  8
0
  6
Continuous
 62
     3
100
AcDbLine
 10
185.25
 20
124.2499999999999
 30
0.0
 11
186.05
 21
124.2499999999999
 31
0.0
  0
LINE
  5
4BD
330
29C
100
AcDbEntity
  8
0
  6
Continuous
 62
     3
100
AcDbLine
 10
186.05
 20
124.2499999999999
 30
0.0
 11
186.05
 21
123.8499999999997
 31
0.0
  0
LINE
  5
4BE
330
29C
100
AcDbEntity
  8
0
  6
Continuous
 62
     3
100
AcDbLine
 10
187.7499999999997
 20
123.8499999999997
 30
0.0
 11
187.7499999999997
 21
124.2499999999999
 31
0.0
  0
LINE
  5
4BF
330
29C
100
AcDbEntity
  8
0
  6
Continuous
 62
     3
100
AcDbLine
 10
187.7499999999997
 20
124.2499999999999
 30
0.0
 11
188.55
 21
124.2499999999999
 31
0.0
  0
LINE
  5
4C0
330
29C
100
AcDbEntity
  8
0
  6
Continuous
 62
     3
100
AcDbLine
 10
188.55
 20
124.2499999999999
 30
0.0
 11
188.55
 21
123.8499999999997
 31
0.0
  0
LINE
  5
4C1
330
29C
100
AcDbEntity
  8
0
  6
Continuous
 62
     3
100
AcDbLine
 10
190.25
 20
123.8499999999997
 30
0.0
 11
190.25
 21
124.2499999999999
 31
0.0
  0
LINE
  5
4C2
330
29C
100
AcDbEntity
  8
0
  6
Continuous
 62
     3
100
AcDbLine
 10
190.25
 20
124.2499999999999
 30
0.0
 11
191.05
 21
124.2499999999999
 31
0.0
  0
LINE
  5
4C3
330
29C
100
AcDbEntity
  8
0
  6
Continuous
 62
     3
100
AcDbLine
 10
191.05
 20
124.2499999999999
 30
0.0
 11
191.05
 21
123.8499999999997
 31
0.0
  0
LINE
  5
4C4
330
29C
100
AcDbEntity
  8
0
  6
Continuous
 62
     3
100
AcDbLine
 10
192.75
 20
123.8499999999997
 30
0.0
 11
192.75
 21
124.2499999999999
 31
0.0
  0
LINE
  5
4C5
330
29C
100
AcDbEntity
  8
0
  6
Continuous
 62
     3
100
AcDbLine
 10
192.75
 20
124.2499999999999
 30
0.0
 11
193.55
 21
124.2499999999999
 31
0.0
  0
LINE
  5
4C6
330
29C
100
AcDbEntity
  8
0
  6
Continuous
 62
     3
100
AcDbLine
 10
193.55
 20
124.2499999999999
 30
0.0
 11
193.55
 21
123.8499999999997
 31
0.0
  0
LINE
  5
4C7
330
29C
100
AcDbEntity
  8
0
  6
Continuous
 62
     3
100
AcDbLine
 10
195.25
 20
123.8499999999997
 30
0.0
 11
195.25
 21
124.2499999999999
 31
0.0
  0
LINE
  5
4C8
330
29C
100
AcDbEntity
  8
0
  6
Continuous
 62
     3
100
AcDbLine
 10
195.25
 20
124.2499999999999
 30
0.0
 11
196.05
 21
124.2499999999999
 31
0.0
  0
LINE
  5
4C9
330
29C
100
AcDbEntity
  8
0
  6
Continuous
 62
     3
100
AcDbLine
 10
196.05
 20
124.2499999999999
 30
0.0
 11
196.05
 21
123.8499999999997
 31
0.0
  0
LINE
  5
4CA
330
29C
100
AcDbEntity
  8
0
  6
Continuous
 62
     3
100
AcDbLine
 10
197.75
 20
123.8499999999997
 30
0.0
 11
197.75
 21
124.2499999999999
 31
0.0
  0
LINE
  5
4CB
330
29C
100
AcDbEntity
  8
0
  6
Continuous
 62
     3
100
AcDbLine
 10
197.75
 20
124.2499999999999
 30
0.0
 11
198.55
 21
124.2499999999999
 31
0.0
  0
LINE
  5
4CC
330
29C
100
AcDbEntity
  8
0
  6
Continuous
 62
     3
100
AcDbLine
 10
198.55
 20
124.2499999999999
 30
0.0
 11
198.55
 21
123.8499999999997
 31
0.0
  0
LINE
  5
4CD
330
29C
100
AcDbEntity
  8
0
  6
Continuous
 62
     3
100
AcDbLine
 10
200.2499999999999
 20
123.8499999999997
 30
0.0
 11
200.2499999999999
 21
124.2499999999999
 31
0.0
  0
LINE
  5
4CE
330
29C
100
AcDbEntity
  8
0
  6
Continuous
 62
     3
100
AcDbLine
 10
200.2499999999999
 20
124.2499999999999
 30
0.0
 11
201.0499999999999
 21
124.2499999999999
 31
0.0
  0
LINE
  5
4CF
330
29C
100
AcDbEntity
  8
0
  6
Continuous
 62
     3
100
AcDbLine
 10
201.0499999999999
 20
124.2499999999999
 30
0.0
 11
201.0499999999999
 21
123.8499999999997
 31
0.0
  0
LINE
  5
4D0
330
29C
100
AcDbEntity
  8
0
  6
Continuous
 62
     3
100
AcDbLine
 10
182.75
 20
123.8499999999997
 30
0.0
 11
181.0999999999999
 21
123.8499999999997
 31
0.0
  0
LINE
  5
4D1
330
29C
100
AcDbEntity
  8
0
  6
Continuous
 62
     3
100
AcDbLine
 10
185.25
 20
123.8499999999997
 30
0.0
 11
183.55
 21
123.8499999999997
 31
0.0
  0
LINE
  5
4D2
330
29C
100
AcDbEntity
  8
0
  6
Continuous
 62
     3
100
AcDbLine
 10
187.7499999999997
 20
123.8499999999997
 30
0.0
 11
186.05
 21
123.8499999999997
 31
0.0
  0
LINE
  5
4D3
330
29C
100
AcDbEntity
  8
0
  6
Continuous
 62
     3
100
AcDbLine
 10
190.25
 20
123.8499999999997
 30
0.0
 11
188.55
 21
123.8499999999997
 31
0.0
  0
LINE
  5
4D4
330
29C
100
AcDbEntity
  8
0
  6
Continuous
 62
     3
100
AcDbLine
 10
192.75
 20
123.8499999999997
 30
0.0
 11
191.05
 21
123.8499999999997
 31
0.0
  0
LINE
  5
4D5
330
29C
100
AcDbEntity
  8
0
  6
Continuous
 62
     3
100
AcDbLine
 10
195.25
 20
123.8499999999997
 30
0.0
 11
193.55
 21
123.8499999999997
 31
0.0
  0
LINE
  5
4D6
330
29C
100
AcDbEntity
  8
0
  6
Continuous
 62
     3
100
AcDbLine
 10
197.75
 20
123.8499999999997
 30
0.0
 11
196.05
 21
123.8499999999997
 31
0.0
  0
LINE
  5
4D7
330
29C
100
AcDbEntity
  8
0
  6
Continuous
 62
     3
100
AcDbLine
 10
200.2499999999999
 20
123.8499999999997
 30
0.0
 11
198.55
 21
123.8499999999997
 31
0.0
  0
LINE
  5
4D8
330
29C
100
AcDbEntity
  8
0
  6
Continuous
 62
     3
100
AcDbLine
 10
202.7
 20
123.8499999999997
 30
0.0
 11
201.0499999999999
 21
123.8499999999997
 31
0.0
  0
LINE
  5
4D9
330
29C
100
AcDbEntity
  8
0
  6
Continuous
 62
     3
100
AcDbLine
 10
207.9
 20
124.75
 30
0.0
 11
207.9
 21
126.35
 31
0.0
  0
LINE
  5
4DA
330
29C
100
AcDbEntity
  8
0
  6
Continuous
 62
     3
100
AcDbLine
 10
207.9
 20
126.35
 30
0.0
 11
175.9
 21
126.35
 31
0.0
  0
LINE
  5
4DB
330
29C
100
AcDbEntity
  8
0
  6
Continuous
 62
     3
100
AcDbLine
 10
175.9
 20
126.35
 30
0.0
 11
175.9
 21
124.75
 31
0.0
  0
LINE
  5
4DC
330
29C
100
AcDbEntity
  8
0
  6
Continuous
 62
     3
100
AcDbLine
 10
175.9
 20
124.75
 30
0.0
 11
207.9
 21
124.75
 31
0.0
  0
LINE
  5
4DD
330
29C
100
AcDbEntity
  8
0
  6
Continuous
 62
     3
100
AcDbLine
 10
175.9
 20
126.35
 30
0.0
 11
207.9
 21
126.35
 31
0.0
  0
LINE
  5
4DE
330
29C
100
AcDbEntity
  8
0
  6
LTYPE2
 62
     3
100
AcDbLine
 10
175.9
 20
141.25
 30
0.0
 11
175.9
 21
126.35
 31
0.0
  0
LINE
  5
4DF
330
29C
100
AcDbEntity
  8
0
  6
LTYPE2
 62
     3
100
AcDbLine
 10
207.9
 20
126.35
 30
0.0
 11
207.9
 21
141.25
 31
0.0
  0
LINE
  5
4E0
330
29C
100
AcDbEntity
  8
0
  6
LTYPE2
 62
     3
100
AcDbLine
 10
207.9
 20
141.25
 30
0.0
 11
175.9
 21
141.25
 31
0.0
  0
LINE
  5
4E1
330
29C
100
AcDbEntity
  8
0
  6
Continuous
 62
     4
100
AcDbLine
 10
210.8999999999999
 20
100.2499999999999
 30
0.0
 11
221.9
 21
100.2499999999999
 31
0.0
  0
LINE
  5
4E2
330
29C
100
AcDbEntity
  8
0
  6
Continuous
 62
     4
100
AcDbLine
 10
219.9
 20
100.2499999999999
 30
0.0
 11
220.5470476129999
 21
102.664814566
 31
0.0
  0
LINE
  5
4E3
330
29C
100
AcDbEntity
  8
0
  6
Continuous
 62
     4
100
AcDbLine
 10
219.9
 20
100.2499999999999
 30
0.0
 11
219.2529523869997
 21
102.664814566
 31
0.0
  0
LINE
  5
4E4
330
29C
100
AcDbEntity
  8
0
  6
Continuous
 62
     4
100
AcDbLine
 10
219.9
 20
100.2499999999999
 30
0.0
 11
219.9
 21
141.25
 31
0.0
  0
LINE
  5
4E5
330
29C
100
AcDbEntity
  8
0
  6
Continuous
 62
     4
100
AcDbLine
 10
219.9
 20
141.25
 30
0.0
 11
219.2529523869997
 21
138.835185434
 31
0.0
  0
LINE
  5
4E6
330
29C
100
AcDbEntity
  8
0
  6
Continuous
 62
     4
100
AcDbLine
 10
219.9
 20
141.25
 30
0.0
 11
220.5470476129999
 21
138.835185434
 31
0.0
  0
LINE
  5
4E7
330
29C
100
AcDbEntity
  8
0
  6
Continuous
 62
     4
100
AcDbLine
 10
208.8999999999999
 20
141.25
 30
0.0
 11
221.9
 21
141.25
 31
0.0
  0
LINE
  5
4E8
330
29C
100
AcDbEntity
  8
0
  6
Continuous
 62
     4
100
AcDbLine
 10
175.9
 20
142.25
 30
0.0
 11
175.9
 21
168.25
 31
0.0
  0
LINE
  5
4E9
330
29C
100
AcDbEntity
  8
0
  6
Continuous
 62
     4
100
AcDbLine
 10
175.9
 20
166.25
 30
0.0
 11
178.314814566
 21
165.602952387
 31
0.0
  0
LINE
  5
4EA
330
29C
100
AcDbEntity
  8
0
  6
Continuous
 62
     4
100
AcDbLine
 10
175.9
 20
166.25
 30
0.0
 11
178.314814566
 21
166.8970476129999
 31
0.0
  0
LINE
  5
4EB
330
29C
100
AcDbEntity
  8
0
  6
Continuous
 62
     4
100
AcDbLine
 10
175.9
 20
166.25
 30
0.0
 11
207.9
 21
166.25
 31
0.0
  0
LINE
  5
4EC
330
29C
100
AcDbEntity
  8
0
  6
Continuous
 62
     4
100
AcDbLine
 10
207.9
 20
166.25
 30
0.0
 11
205.485185434
 21
166.8970476129999
 31
0.0
  0
LINE
  5
4ED
330
29C
100
AcDbEntity
  8
0
  6
Continuous
 62
     4
100
AcDbLine
 10
207.9
 20
166.25
 30
0.0
 11
205.485185434
 21
165.602952387
 31
0.0
  0
LINE
  5
4EE
330
29C
100
AcDbEntity
  8
0
  6
Continuous
 62
     4
100
AcDbLine
 10
207.9
 20
142.25
 30
0.0
 11
207.9
 21
168.25
 31
0.0
  0
TEXT
  5
4EF
330
29C
100
AcDbEntity
  8
0
  6
Continuous
 62
     4
100
AcDbText
 10
205.8499999999999
 20
165.25
 30
0.3
 40
3.0
  1
３２（Ａ）２９（Ｂ，Ｃ，Ｄ）
 50
180.0
 41
0.6
  7
KANJI0
100
AcDbText
  0
TEXT
  5
4F0
330
29C
100
AcDbEntity
  8
0
  6
Continuous
 62
     4
100
AcDbText
 10
218.9
 20
108.8
 30
0.3
 40
3.0
  1
４１（Ａ，Ｄ）３４（Ｂ，Ｃ）
 50
90.0
 41
0.6
  7
KANJI0
100
AcDbText
  0
ENDSEC
  0
SECTION
  2
OBJECTS
  0
DICTIONARY
  5
28A
330
0
100
AcDbDictionary
281
     1
  3
ACAD_GROUP
350
28B
  3
ACAD_PLOTSTYLENAME
350
28C
  3
ACAD_MLINESTYLE
350
294
  3
ACAD_PLOTSETTINGS
350
296
  3
ACAD_LAYOUT
350
297
  0
DICTIONARY
  5
28B
102
{ACAD_REACTORS
330
28A
102
}
330
28A
100
AcDbDictionary
281
     1
  0
ACDBDICTIONARYWDFLT
  5
28C
102
{ACAD_REACTORS
330
28A
102
}
330
28A
100
AcDbDictionary
281
     1
  3
Normal
350
28D
100
AcDbDictionaryWithDefault
340
28D
  0
DICTIONARY
  5
294
102
{ACAD_REACTORS
330
28A
102
}
330
28A
100
AcDbDictionary
281
     1
  3
Standard
350
295
  0
DICTIONARY
  5
296
102
{ACAD_REACTORS
330
28A
102
}
330
28A
100
AcDbDictionary
281
     1
  0
DICTIONARY
  5
297
102
{ACAD_REACTORS
330
28A
102
}
330
28A
100
AcDbDictionary
281
     1
  3
ﾚｲｱｳﾄ1
350
29B
  3
Model
350
29F
  0
ACDBPLACEHOLDER
  5
28D
102
{ACAD_REACTORS
330
28C
102
}
330
28C
  0
MLINESTYLE
  5
295
102
{ACAD_REACTORS
330
294
102
}
330
294
100
AcDbMlineStyle
  2
STANDARD
 70
     0
  3

 62
   256
 51
90.0
 52
90.0
 71
     2
 49
0.5
 62
   256
  6
BYLAYER
 49
-0.5
 62
   256
  6
BYLAYER
  0
LAYOUT
  5
29B
102
{ACAD_REACTORS
330
297
102
}
330
297
100
AcDbPlotSettings
  1

  2
Canon LBP-880
  4

  6

 40
0.0
 41
0.0
 42
0.0
 43
0.0
 44
0.0
 45
0.0
 46
0.0
 47
0.0
 48
0.0
 49
0.0
140
0.0
141
0.0
142
1.0
143
1.0
 70
   688
 72
     0
 73
     0
 74
     5
  7

 75
    16
147
1.0
148
0.0
149
0.0
100
AcDbLayout
  1
ﾚｲｱｳﾄ1
 70
     1
 71
     1
 10
0.0
 20
0.0
 11
12.0
 21
9.0
 12
0.0
 22
0.0
 32
0.0
 14
1.000000000000000E+20
 24
1.000000000000000E+20
 34
1.000000000000000E+20
 15
-1.000000000000000E+20
 25
-1.000000000000000E+20
 35
-1.000000000000000E+20
146
0.0
 13
0.0
 23
0.0
 33
0.0
 16
1.0
 26
0.0
 36
0.0
 17
0.0
 27
1.0
 37
0.0
 76
     0
330
298
  0
LAYOUT
  5
29F
102
{ACAD_REACTORS
330
297
102
}
330
297
100
AcDbPlotSettings
  1

  2
Canon LBP-880
  4

  6

 40
0.0
 41
0.0
 42
0.0
 43
0.0
 44
0.0
 45
0.0
 46
0.0
 47
0.0
 48
0.0
 49
0.0
140
0.0
141
0.0
142
1.0
143
1.0
 70
  1712
 72
     0
 73
     0
 74
     0
  7

 75
     0
147
1.0
148
0.0
149
0.0
100
AcDbLayout
  1
Model
 70
     1
 71
     0
 10
0.0
 20
0.0
 11
12.0
 21
9.0
 12
0.0
 22
0.0
 32
0.0
 14
0.0
 24
0.0
 34
0.0
 15
0.0
 25
0.0
 35
0.0
146
0.0
 13
0.0
 23
0.0
 33
0.0
 16
1.0
 26
0.0
 36
0.0
 17
0.0
 27
1.0
 37
0.0
 76
     0
330
29C
  0
ENDSEC
  0
EOF
