  0
SECTION
  2
HEADER
  9
$EXTMIN
 10
0.0
 20
0.0
 30
0.0
  9
$EXTMAX
 10
420.0
 20
297.0
 30
0.0
  9
$LIMMIN
 10
0.0
 20
0.0
  9
$LIMMAX
 10
420.0
 20
297.0
  9
$LTSCALE
 40
1.0
  9
$PDMODE
 70
     0
  0
ENDSEC
  0
SECTION
  2
TABLES
  0
TABLE
  2
LTYPE
 70
     2
  0
LTYPE
  2
CONTINUOUS
 70
    64
  3
Solid line
 72
    65
 73
     0
 40
0.0
  0
LTYPE
  2
LTYPE1
 70
    64
  3
HIDDEN
 72
    65
 73
     2
 40
1.0
 49
0.6
 49
-0.4
  0
ENDTAB
  0
TABLE
  2
LAYER
 70
   128
  0
LAYER
  2
0
 70
     0
 62
     7
  6
CONTINUOUS
  0
LAYER
  2
1
 70
     0
 62
     7
  6
CONTINUOUS
  0
LAYER
  2
2
 70
     0
 62
     7
  6
CONTINUOUS
  0
LAYER
  2
3
 70
     0
 62
     7
  6
CONTINUOUS
  0
LAYER
  2
4
 70
     0
 62
     7
  6
CONTINUOUS
  0
LAYER
  2
5
 70
     0
 62
     7
  6
CONTINUOUS
  0
LAYER
  2
6
 70
     0
 62
     7
  6
CONTINUOUS
  0
LAYER
  2
7
 70
     0
 62
     7
  6
CONTINUOUS
  0
LAYER
  2
8
 70
     0
 62
     7
  6
CONTINUOUS
  0
LAYER
  2
9
 70
     0
 62
     7
  6
CONTINUOUS
  0
LAYER
  2
10
 70
     0
 62
     7
  6
CONTINUOUS
  0
LAYER
  2
11
 70
     0
 62
     7
  6
CONTINUOUS
  0
LAYER
  2
12
 70
     0
 62
     7
  6
CONTINUOUS
  0
LAYER
  2
13
 70
     0
 62
     7
  6
CONTINUOUS
  0
LAYER
  2
14
 70
     0
 62
     7
  6
CONTINUOUS
  0
LAYER
  2
15
 70
     0
 62
     7
  6
CONTINUOUS
  0
LAYER
  2
16
 70
     0
 62
     7
  6
CONTINUOUS
  0
LAYER
  2
17
 70
     0
 62
     7
  6
CONTINUOUS
  0
LAYER
  2
18
 70
     0
 62
     7
  6
CONTINUOUS
  0
LAYER
  2
19
 70
     0
 62
     7
  6
CONTINUOUS
  0
LAYER
  2
20
 70
     0
 62
     7
  6
CONTINUOUS
  0
LAYER
  2
21
 70
     0
 62
     7
  6
CONTINUOUS
  0
LAYER
  2
22
 70
     0
 62
     7
  6
CONTINUOUS
  0
LAYER
  2
23
 70
     0
 62
     7
  6
CONTINUOUS
  0
LAYER
  2
24
 70
     0
 62
     7
  6
CONTINUOUS
  0
LAYER
  2
25
 70
     0
 62
     7
  6
CONTINUOUS
  0
LAYER
  2
26
 70
     0
 62
     7
  6
CONTINUOUS
  0
LAYER
  2
27
 70
     0
 62
     7
  6
CONTINUOUS
  0
LAYER
  2
28
 70
     0
 62
     7
  6
CONTINUOUS
  0
LAYER
  2
29
 70
     0
 62
     7
  6
CONTINUOUS
  0
LAYER
  2
30
 70
     0
 62
     7
  6
CONTINUOUS
  0
LAYER
  2
31
 70
     0
 62
     7
  6
CONTINUOUS
  0
LAYER
  2
32
 70
     0
 62
     7
  6
CONTINUOUS
  0
LAYER
  2
33
 70
     0
 62
     7
  6
CONTINUOUS
  0
LAYER
  2
34
 70
     0
 62
     7
  6
CONTINUOUS
  0
LAYER
  2
35
 70
     0
 62
     7
  6
CONTINUOUS
  0
LAYER
  2
36
 70
     0
 62
     7
  6
CONTINUOUS
  0
LAYER
  2
37
 70
     0
 62
     7
  6
CONTINUOUS
  0
LAYER
  2
38
 70
     0
 62
     7
  6
CONTINUOUS
  0
LAYER
  2
39
 70
     0
 62
     7
  6
CONTINUOUS
  0
LAYER
  2
40
 70
     0
 62
     7
  6
CONTINUOUS
  0
LAYER
  2
41
 70
     0
 62
     7
  6
CONTINUOUS
  0
LAYER
  2
42
 70
     0
 62
     7
  6
CONTINUOUS
  0
LAYER
  2
43
 70
     0
 62
     7
  6
CONTINUOUS
  0
LAYER
  2
44
 70
     0
 62
     7
  6
CONTINUOUS
  0
LAYER
  2
45
 70
     0
 62
     7
  6
CONTINUOUS
  0
LAYER
  2
46
 70
     0
 62
     7
  6
CONTINUOUS
  0
LAYER
  2
47
 70
     0
 62
     7
  6
CONTINUOUS
  0
LAYER
  2
48
 70
     0
 62
     7
  6
CONTINUOUS
  0
LAYER
  2
49
 70
     0
 62
     7
  6
CONTINUOUS
  0
LAYER
  2
50
 70
     0
 62
     7
  6
CONTINUOUS
  0
LAYER
  2
51
 70
     0
 62
     7
  6
CONTINUOUS
  0
LAYER
  2
52
 70
     0
 62
     7
  6
CONTINUOUS
  0
LAYER
  2
53
 70
     0
 62
     7
  6
CONTINUOUS
  0
LAYER
  2
54
 70
     0
 62
     7
  6
CONTINUOUS
  0
LAYER
  2
55
 70
     0
 62
     7
  6
CONTINUOUS
  0
LAYER
  2
56
 70
     0
 62
     7
  6
CONTINUOUS
  0
LAYER
  2
57
 70
     0
 62
     7
  6
CONTINUOUS
  0
LAYER
  2
58
 70
     0
 62
     7
  6
CONTINUOUS
  0
LAYER
  2
59
 70
     0
 62
     7
  6
CONTINUOUS
  0
LAYER
  2
60
 70
     0
 62
     7
  6
CONTINUOUS
  0
LAYER
  2
61
 70
     0
 62
     7
  6
CONTINUOUS
  0
LAYER
  2
62
 70
     0
 62
     7
  6
CONTINUOUS
  0
LAYER
  2
63
 70
     0
 62
     7
  6
CONTINUOUS
  0
LAYER
  2
64
 70
     0
 62
     7
  6
CONTINUOUS
  0
LAYER
  2
65
 70
     0
 62
     7
  6
CONTINUOUS
  0
LAYER
  2
66
 70
     0
 62
     7
  6
CONTINUOUS
  0
LAYER
  2
67
 70
     0
 62
     7
  6
CONTINUOUS
  0
LAYER
  2
68
 70
     0
 62
     7
  6
CONTINUOUS
  0
LAYER
  2
69
 70
     0
 62
     7
  6
CONTINUOUS
  0
LAYER
  2
70
 70
     0
 62
     7
  6
CONTINUOUS
  0
LAYER
  2
71
 70
     0
 62
     7
  6
CONTINUOUS
  0
LAYER
  2
72
 70
     0
 62
     7
  6
CONTINUOUS
  0
LAYER
  2
73
 70
     0
 62
     7
  6
CONTINUOUS
  0
LAYER
  2
74
 70
     0
 62
     7
  6
CONTINUOUS
  0
LAYER
  2
75
 70
     0
 62
     7
  6
CONTINUOUS
  0
LAYER
  2
76
 70
     0
 62
     7
  6
CONTINUOUS
  0
LAYER
  2
77
 70
     0
 62
     7
  6
CONTINUOUS
  0
LAYER
  2
78
 70
     0
 62
     7
  6
CONTINUOUS
  0
LAYER
  2
79
 70
     0
 62
     7
  6
CONTINUOUS
  0
LAYER
  2
80
 70
     0
 62
     7
  6
CONTINUOUS
  0
LAYER
  2
81
 70
     0
 62
     7
  6
CONTINUOUS
  0
LAYER
  2
82
 70
     0
 62
     7
  6
CONTINUOUS
  0
LAYER
  2
83
 70
     0
 62
     7
  6
CONTINUOUS
  0
LAYER
  2
84
 70
     0
 62
     7
  6
CONTINUOUS
  0
LAYER
  2
85
 70
     0
 62
     7
  6
CONTINUOUS
  0
LAYER
  2
86
 70
     0
 62
     7
  6
CONTINUOUS
  0
LAYER
  2
87
 70
     0
 62
     7
  6
CONTINUOUS
  0
LAYER
  2
88
 70
     0
 62
     7
  6
CONTINUOUS
  0
LAYER
  2
89
 70
     0
 62
     7
  6
CONTINUOUS
  0
LAYER
  2
90
 70
     0
 62
     7
  6
CONTINUOUS
  0
LAYER
  2
91
 70
     0
 62
     7
  6
CONTINUOUS
  0
LAYER
  2
92
 70
     0
 62
     7
  6
CONTINUOUS
  0
LAYER
  2
93
 70
     0
 62
     7
  6
CONTINUOUS
  0
LAYER
  2
94
 70
     0
 62
     7
  6
CONTINUOUS
  0
LAYER
  2
95
 70
     0
 62
     7
  6
CONTINUOUS
  0
LAYER
  2
96
 70
     0
 62
     7
  6
CONTINUOUS
  0
LAYER
  2
97
 70
     0
 62
     7
  6
CONTINUOUS
  0
LAYER
  2
98
 70
     0
 62
     7
  6
CONTINUOUS
  0
LAYER
  2
99
 70
     0
 62
     7
  6
CONTINUOUS
  0
LAYER
  2
100
 70
     0
 62
     7
  6
CONTINUOUS
  0
LAYER
  2
101
 70
     0
 62
     7
  6
CONTINUOUS
  0
LAYER
  2
102
 70
     0
 62
     7
  6
CONTINUOUS
  0
LAYER
  2
103
 70
     0
 62
     7
  6
CONTINUOUS
  0
LAYER
  2
104
 70
     0
 62
     7
  6
CONTINUOUS
  0
LAYER
  2
105
 70
     0
 62
     7
  6
CONTINUOUS
  0
LAYER
  2
106
 70
     0
 62
     7
  6
CONTINUOUS
  0
LAYER
  2
107
 70
     0
 62
     7
  6
CONTINUOUS
  0
LAYER
  2
108
 70
     0
 62
     7
  6
CONTINUOUS
  0
LAYER
  2
109
 70
     0
 62
     7
  6
CONTINUOUS
  0
LAYER
  2
110
 70
     0
 62
     7
  6
CONTINUOUS
  0
LAYER
  2
111
 70
     0
 62
     7
  6
CONTINUOUS
  0
LAYER
  2
112
 70
     0
 62
     7
  6
CONTINUOUS
  0
LAYER
  2
113
 70
     0
 62
     7
  6
CONTINUOUS
  0
LAYER
  2
114
 70
     0
 62
     7
  6
CONTINUOUS
  0
LAYER
  2
115
 70
     0
 62
     7
  6
CONTINUOUS
  0
LAYER
  2
116
 70
     0
 62
     7
  6
CONTINUOUS
  0
LAYER
  2
117
 70
     0
 62
     7
  6
CONTINUOUS
  0
LAYER
  2
118
 70
     0
 62
     7
  6
CONTINUOUS
  0
LAYER
  2
119
 70
     0
 62
     7
  6
CONTINUOUS
  0
LAYER
  2
120
 70
     0
 62
     7
  6
CONTINUOUS
  0
LAYER
  2
121
 70
     0
 62
     7
  6
CONTINUOUS
  0
LAYER
  2
122
 70
     0
 62
     7
  6
CONTINUOUS
  0
LAYER
  2
123
 70
     0
 62
     7
  6
CONTINUOUS
  0
LAYER
  2
124
 70
     0
 62
     7
  6
CONTINUOUS
  0
LAYER
  2
125
 70
     0
 62
     7
  6
CONTINUOUS
  0
LAYER
  2
126
 70
     0
 62
     7
  6
CONTINUOUS
  0
LAYER
  2
127
 70
     0
 62
     7
  6
CONTINUOUS
  0
ENDTAB
  0
TABLE
  2
STYLE
 70
     6
  0
STYLE
  2
STANDARD
 70
     0
 40
0.0
 41
1.0
 50
0.0
 71
     0
 42
0.2
  3
txt
  4

  0
STYLE
  2
KANJI0
 70
     0
 40
1.8
 41
0.666666667
 50
0.0
 71
     0
 42
1.8
  3

  4
bigfont
  0
STYLE
  2
KANJI1
 70
     0
 40
1.8
 41
0.666666667
 50
0.0
 71
     0
 42
1.8
  3

  4
bigfont
  0
STYLE
  2
KANJI2
 70
     0
 40
2.5
 41
0.6
 50
0.0
 71
     0
 42
2.5
  3

  4
bigfont
  0
STYLE
  2
KANJI3
 70
     0
 40
2.0
 41
0.75
 50
0.0
 71
     0
 42
2.0
  3

  4
bigfont
  0
STYLE
  2
KANJI4
 70
     0
 40
2.0
 41
0.8
 50
0.0
 71
     0
 42
2.0
  3

  4
bigfont
  0
ENDTAB
  0
TABLE
  2
VIEW
 70
     0
  0
ENDTAB
  0
ENDSEC
  0
SECTION
  2
BLOCKS
  0
ENDSEC
  0
SECTION
  2
ENTITIES
  0
POLYLINE
  8
0
  6
CONTINUOUS
 62
     1
 66
     1
 70
     1
  0
VERTEX
  8
0
  6
CONTINUOUS
 62
     1
 10
126926390563329640000000000000000000000000000000000000000000000000000000000000000000000000000000000000000000000000000000000000000000000000000000000000000000000000000000000000000000000000000000000000000000000000000000000000000000000000.0
 20
-5479536498971388700000000000000000000000000000000000000000000000000000000.0
  0
VERTEX
  8
0
  6
CONTINUOUS
 62
     1
 10
126926390563329640000000000000000000000000000000000000000000000000000000000000000000000000000000000000000000000000000000000000000000000000000000000000000000000000000000000000000000000000000000000000000000000000000000000000000000000000.0
 20
-5479536498971388700000000000000000000000000000000000000000000000000000000.0
  0
SEQEND
  0
LINE
  8
0
  6
CONTINUOUS
 62
     1
 10
-59416163741459895000000000000000000000000000000000000000000000000000000000.0
 20
0.0
 11
-59416163741459895000000000000000000000000000000000000000000000000000000000.0
 21
0.647047613
  0
LINE
  8
0
  6
CONTINUOUS
 62
     1
 10
-59416163741459895000000000000000000000000000000000000000000000000000000000.0
 20
0.0
 11
-59416163741459895000000000000000000000000000000000000000000000000000000000.0
 21
-0.647047613
  0
POINT
  8
0
  6
CONTINUOUS
 62
     1
 10
126926390563329640000000000000000000000000000000000000000000000000000000000000000000000000000000000000000000000000000000000000000000000000000000000000000000000000000000000000000000000000000000000000000000000000000000000000000000000000.0
 20
-5479536498971388700000000000000000000000000000000000000000000000000000000.0
  0
POINT
  8
0
  6
CONTINUOUS
 62
     1
 10
126926390563329640000000000000000000000000000000000000000000000000000000000000000000000000000000000000000000000000000000000000000000000000000000000000000000000000000000000000000000000000000000000000000000000000000000000000000000000000.0
 20
-5479536498971388700000000000000000000000000000000000000000000000000000000.0
  0
LINE
  8
0
  6
CONTINUOUS
 62
     1
 10
-59416163741459895000000000000000000000000000000000000000000000000000000000.0
 20
0.0
 11
-59416163741459895000000000000000000000000000000000000000000000000000000000.0
 21
0.647047613
  0
LINE
  8
0
  6
CONTINUOUS
 62
     1
 10
-59416163741459895000000000000000000000000000000000000000000000000000000000.0
 20
0.0
 11
-59416163741459895000000000000000000000000000000000000000000000000000000000.0
 21
-0.647047613
  0
LINE
  8
1
  6
CONTINUOUS
 62
     2
 10
105.753333
 20
265.066667
 11
183.753333
 21
265.066667
  0
POLYLINE
  8
1
  6
CONTINUOUS
 62
     2
 66
     1
  0
VERTEX
  8
1
  6
CONTINUOUS
 62
     2
 10
183.753333
 20
265.066667
  0
VERTEX
  8
1
  6
CONTINUOUS
 62
     2
 10
183.753333
 20
253.066667
  0
VERTEX
  8
1
  6
CONTINUOUS
 62
     2
 10
105.753333
 20
253.066667
  0
VERTEX
  8
1
  6
CONTINUOUS
 62
     2
 10
105.753333
 20
265.066667
  0
SEQEND
  0
POLYLINE
  8
1
  6
CONTINUOUS
 62
     2
 66
     1
 70
     1
  0
VERTEX
  8
1
  6
CONTINUOUS
 62
     2
 10
107.253333
 20
260.566667
  0
VERTEX
  8
1
  6
CONTINUOUS
 62
     2
 10
110.253333
 20
260.566667
  0
VERTEX
  8
1
  6
CONTINUOUS
 62
     2
 10
110.253333
 20
263.566667
  0
VERTEX
  8
1
  6
CONTINUOUS
 62
     2
 10
107.253333
 20
263.566667
  0
SEQEND
  0
POLYLINE
  8
1
  6
CONTINUOUS
 62
     2
 66
     1
 70
     1
  0
VERTEX
  8
1
  6
CONTINUOUS
 62
     2
 10
113.253333
 20
260.566667
  0
VERTEX
  8
1
  6
CONTINUOUS
 62
     2
 10
116.253333
 20
260.566667
  0
VERTEX
  8
1
  6
CONTINUOUS
 62
     2
 10
116.253333
 20
263.566667
  0
VERTEX
  8
1
  6
CONTINUOUS
 62
     2
 10
113.253333
 20
263.566667
  0
SEQEND
  0
POLYLINE
  8
1
  6
CONTINUOUS
 62
     2
 66
     1
 70
     1
  0
VERTEX
  8
1
  6
CONTINUOUS
 62
     2
 10
119.253333
 20
260.566667
  0
VERTEX
  8
1
  6
CONTINUOUS
 62
     2
 10
122.253333
 20
260.566667
  0
VERTEX
  8
1
  6
CONTINUOUS
 62
     2
 10
122.253333
 20
263.566667
  0
VERTEX
  8
1
  6
CONTINUOUS
 62
     2
 10
119.253333
 20
263.566667
  0
SEQEND
  0
POLYLINE
  8
1
  6
CONTINUOUS
 62
     2
 66
     1
 70
     1
  0
VERTEX
  8
1
  6
CONTINUOUS
 62
     2
 10
125.253333
 20
260.566667
  0
VERTEX
  8
1
  6
CONTINUOUS
 62
     2
 10
128.253333
 20
260.566667
  0
VERTEX
  8
1
  6
CONTINUOUS
 62
     2
 10
128.253333
 20
263.566667
  0
VERTEX
  8
1
  6
CONTINUOUS
 62
     2
 10
125.253333
 20
263.566667
  0
SEQEND
  0
POLYLINE
  8
1
  6
CONTINUOUS
 62
     2
 66
     1
 70
     1
  0
VERTEX
  8
1
  6
CONTINUOUS
 62
     2
 10
131.253333
 20
260.566667
  0
VERTEX
  8
1
  6
CONTINUOUS
 62
     2
 10
134.253333
 20
260.566667
  0
VERTEX
  8
1
  6
CONTINUOUS
 62
     2
 10
134.253333
 20
263.566667
  0
VERTEX
  8
1
  6
CONTINUOUS
 62
     2
 10
131.253333
 20
263.566667
  0
SEQEND
  0
POLYLINE
  8
1
  6
CONTINUOUS
 62
     2
 66
     1
 70
     1
  0
VERTEX
  8
1
  6
CONTINUOUS
 62
     2
 10
137.253333
 20
260.566667
  0
VERTEX
  8
1
  6
CONTINUOUS
 62
     2
 10
140.253333
 20
260.566667
  0
VERTEX
  8
1
  6
CONTINUOUS
 62
     2
 10
140.253333
 20
263.566667
  0
VERTEX
  8
1
  6
CONTINUOUS
 62
     2
 10
137.253333
 20
263.566667
  0
SEQEND
  0
POLYLINE
  8
1
  6
CONTINUOUS
 62
     2
 66
     1
 70
     1
  0
VERTEX
  8
1
  6
CONTINUOUS
 62
     2
 10
143.253333
 20
260.566667
  0
VERTEX
  8
1
  6
CONTINUOUS
 62
     2
 10
146.253333
 20
260.566667
  0
VERTEX
  8
1
  6
CONTINUOUS
 62
     2
 10
146.253333
 20
263.566667
  0
VERTEX
  8
1
  6
CONTINUOUS
 62
     2
 10
143.253333
 20
263.566667
  0
SEQEND
  0
POLYLINE
  8
1
  6
CONTINUOUS
 62
     2
 66
     1
 70
     1
  0
VERTEX
  8
1
  6
CONTINUOUS
 62
     2
 10
149.253333
 20
260.566667
  0
VERTEX
  8
1
  6
CONTINUOUS
 62
     2
 10
152.253333
 20
260.566667
  0
VERTEX
  8
1
  6
CONTINUOUS
 62
     2
 10
152.253333
 20
263.566667
  0
VERTEX
  8
1
  6
CONTINUOUS
 62
     2
 10
149.253333
 20
263.566667
  0
SEQEND
  0
POLYLINE
  8
1
  6
CONTINUOUS
 62
     2
 66
     1
 70
     1
  0
VERTEX
  8
1
  6
CONTINUOUS
 62
     2
 10
155.253333
 20
260.566667
  0
VERTEX
  8
1
  6
CONTINUOUS
 62
     2
 10
158.253333
 20
260.566667
  0
VERTEX
  8
1
  6
CONTINUOUS
 62
     2
 10
158.253333
 20
263.566667
  0
VERTEX
  8
1
  6
CONTINUOUS
 62
     2
 10
155.253333
 20
263.566667
  0
SEQEND
  0
POLYLINE
  8
1
  6
CONTINUOUS
 62
     2
 66
     1
 70
     1
  0
VERTEX
  8
1
  6
CONTINUOUS
 62
     2
 10
161.253333
 20
260.566667
  0
VERTEX
  8
1
  6
CONTINUOUS
 62
     2
 10
164.253333
 20
260.566667
  0
VERTEX
  8
1
  6
CONTINUOUS
 62
     2
 10
164.253333
 20
263.566667
  0
VERTEX
  8
1
  6
CONTINUOUS
 62
     2
 10
161.253333
 20
263.566667
  0
SEQEND
  0
POLYLINE
  8
1
  6
CONTINUOUS
 62
     2
 66
     1
 70
     1
  0
VERTEX
  8
1
  6
CONTINUOUS
 62
     2
 10
167.253333
 20
260.566667
  0
VERTEX
  8
1
  6
CONTINUOUS
 62
     2
 10
170.253333
 20
260.566667
  0
VERTEX
  8
1
  6
CONTINUOUS
 62
     2
 10
170.253333
 20
263.566667
  0
VERTEX
  8
1
  6
CONTINUOUS
 62
     2
 10
167.253333
 20
263.566667
  0
SEQEND
  0
POLYLINE
  8
1
  6
CONTINUOUS
 62
     2
 66
     1
 70
     1
  0
VERTEX
  8
1
  6
CONTINUOUS
 62
     2
 10
173.253333
 20
260.566667
  0
VERTEX
  8
1
  6
CONTINUOUS
 62
     2
 10
176.253333
 20
260.566667
  0
VERTEX
  8
1
  6
CONTINUOUS
 62
     2
 10
176.253333
 20
263.566667
  0
VERTEX
  8
1
  6
CONTINUOUS
 62
     2
 10
173.253333
 20
263.566667
  0
SEQEND
  0
POLYLINE
  8
1
  6
CONTINUOUS
 62
     2
 66
     1
 70
     1
  0
VERTEX
  8
1
  6
CONTINUOUS
 62
     2
 10
179.253333
 20
260.566667
  0
VERTEX
  8
1
  6
CONTINUOUS
 62
     2
 10
182.253333
 20
260.566667
  0
VERTEX
  8
1
  6
CONTINUOUS
 62
     2
 10
182.253333
 20
263.566667
  0
VERTEX
  8
1
  6
CONTINUOUS
 62
     2
 10
179.253333
 20
263.566667
  0
SEQEND
  0
POLYLINE
  8
1
  6
CONTINUOUS
 62
     2
 66
     1
 70
     1
  0
VERTEX
  8
1
  6
CONTINUOUS
 62
     2
 10
107.253333
 20
254.566667
  0
VERTEX
  8
1
  6
CONTINUOUS
 62
     2
 10
110.253333
 20
254.566667
  0
VERTEX
  8
1
  6
CONTINUOUS
 62
     2
 10
110.253333
 20
257.566667
  0
VERTEX
  8
1
  6
CONTINUOUS
 62
     2
 10
107.253333
 20
257.566667
  0
SEQEND
  0
POLYLINE
  8
1
  6
CONTINUOUS
 62
     2
 66
     1
 70
     1
  0
VERTEX
  8
1
  6
CONTINUOUS
 62
     2
 10
113.253333
 20
254.566667
  0
VERTEX
  8
1
  6
CONTINUOUS
 62
     2
 10
116.253333
 20
254.566667
  0
VERTEX
  8
1
  6
CONTINUOUS
 62
     2
 10
116.253333
 20
257.566667
  0
VERTEX
  8
1
  6
CONTINUOUS
 62
     2
 10
113.253333
 20
257.566667
  0
SEQEND
  0
POLYLINE
  8
1
  6
CONTINUOUS
 62
     2
 66
     1
 70
     1
  0
VERTEX
  8
1
  6
CONTINUOUS
 62
     2
 10
119.253333
 20
254.566667
  0
VERTEX
  8
1
  6
CONTINUOUS
 62
     2
 10
122.253333
 20
254.566667
  0
VERTEX
  8
1
  6
CONTINUOUS
 62
     2
 10
122.253333
 20
257.566667
  0
VERTEX
  8
1
  6
CONTINUOUS
 62
     2
 10
119.253333
 20
257.566667
  0
SEQEND
  0
POLYLINE
  8
1
  6
CONTINUOUS
 62
     2
 66
     1
 70
     1
  0
VERTEX
  8
1
  6
CONTINUOUS
 62
     2
 10
125.253333
 20
254.566667
  0
VERTEX
  8
1
  6
CONTINUOUS
 62
     2
 10
128.253333
 20
254.566667
  0
VERTEX
  8
1
  6
CONTINUOUS
 62
     2
 10
128.253333
 20
257.566667
  0
VERTEX
  8
1
  6
CONTINUOUS
 62
     2
 10
125.253333
 20
257.566667
  0
SEQEND
  0
POLYLINE
  8
1
  6
CONTINUOUS
 62
     2
 66
     1
 70
     1
  0
VERTEX
  8
1
  6
CONTINUOUS
 62
     2
 10
131.253333
 20
254.566667
  0
VERTEX
  8
1
  6
CONTINUOUS
 62
     2
 10
134.253333
 20
254.566667
  0
VERTEX
  8
1
  6
CONTINUOUS
 62
     2
 10
134.253333
 20
257.566667
  0
VERTEX
  8
1
  6
CONTINUOUS
 62
     2
 10
131.253333
 20
257.566667
  0
SEQEND
  0
POLYLINE
  8
1
  6
CONTINUOUS
 62
     2
 66
     1
 70
     1
  0
VERTEX
  8
1
  6
CONTINUOUS
 62
     2
 10
137.253333
 20
254.566667
  0
VERTEX
  8
1
  6
CONTINUOUS
 62
     2
 10
140.253333
 20
254.566667
  0
VERTEX
  8
1
  6
CONTINUOUS
 62
     2
 10
140.253333
 20
257.566667
  0
VERTEX
  8
1
  6
CONTINUOUS
 62
     2
 10
137.253333
 20
257.566667
  0
SEQEND
  0
POLYLINE
  8
1
  6
CONTINUOUS
 62
     2
 66
     1
 70
     1
  0
VERTEX
  8
1
  6
CONTINUOUS
 62
     2
 10
143.253333
 20
254.566667
  0
VERTEX
  8
1
  6
CONTINUOUS
 62
     2
 10
146.253333
 20
254.566667
  0
VERTEX
  8
1
  6
CONTINUOUS
 62
     2
 10
146.253333
 20
257.566667
  0
VERTEX
  8
1
  6
CONTINUOUS
 62
     2
 10
143.253333
 20
257.566667
  0
SEQEND
  0
POLYLINE
  8
1
  6
CONTINUOUS
 62
     2
 66
     1
 70
     1
  0
VERTEX
  8
1
  6
CONTINUOUS
 62
     2
 10
149.253333
 20
254.566667
  0
VERTEX
  8
1
  6
CONTINUOUS
 62
     2
 10
152.253333
 20
254.566667
  0
VERTEX
  8
1
  6
CONTINUOUS
 62
     2
 10
152.253333
 20
257.566667
  0
VERTEX
  8
1
  6
CONTINUOUS
 62
     2
 10
149.253333
 20
257.566667
  0
SEQEND
  0
POLYLINE
  8
1
  6
CONTINUOUS
 62
     2
 66
     1
 70
     1
  0
VERTEX
  8
1
  6
CONTINUOUS
 62
     2
 10
155.253333
 20
254.566667
  0
VERTEX
  8
1
  6
CONTINUOUS
 62
     2
 10
158.253333
 20
254.566667
  0
VERTEX
  8
1
  6
CONTINUOUS
 62
     2
 10
158.253333
 20
257.566667
  0
VERTEX
  8
1
  6
CONTINUOUS
 62
     2
 10
155.253333
 20
257.566667
  0
SEQEND
  0
POLYLINE
  8
1
  6
CONTINUOUS
 62
     2
 66
     1
 70
     1
  0
VERTEX
  8
1
  6
CONTINUOUS
 62
     2
 10
161.253333
 20
254.566667
  0
VERTEX
  8
1
  6
CONTINUOUS
 62
     2
 10
164.253333
 20
254.566667
  0
VERTEX
  8
1
  6
CONTINUOUS
 62
     2
 10
164.253333
 20
257.566667
  0
VERTEX
  8
1
  6
CONTINUOUS
 62
     2
 10
161.253333
 20
257.566667
  0
SEQEND
  0
POLYLINE
  8
1
  6
CONTINUOUS
 62
     2
 66
     1
 70
     1
  0
VERTEX
  8
1
  6
CONTINUOUS
 62
     2
 10
167.253333
 20
254.566667
  0
VERTEX
  8
1
  6
CONTINUOUS
 62
     2
 10
170.253333
 20
254.566667
  0
VERTEX
  8
1
  6
CONTINUOUS
 62
     2
 10
170.253333
 20
257.566667
  0
VERTEX
  8
1
  6
CONTINUOUS
 62
     2
 10
167.253333
 20
257.566667
  0
SEQEND
  0
POLYLINE
  8
1
  6
CONTINUOUS
 62
     2
 66
     1
 70
     1
  0
VERTEX
  8
1
  6
CONTINUOUS
 62
     2
 10
173.253333
 20
254.566667
  0
VERTEX
  8
1
  6
CONTINUOUS
 62
     2
 10
176.253333
 20
254.566667
  0
VERTEX
  8
1
  6
CONTINUOUS
 62
     2
 10
176.253333
 20
257.566667
  0
VERTEX
  8
1
  6
CONTINUOUS
 62
     2
 10
173.253333
 20
257.566667
  0
SEQEND
  0
POLYLINE
  8
1
  6
CONTINUOUS
 62
     2
 66
     1
 70
     1
  0
VERTEX
  8
1
  6
CONTINUOUS
 62
     2
 10
179.253333
 20
254.566667
  0
VERTEX
  8
1
  6
CONTINUOUS
 62
     2
 10
182.253333
 20
254.566667
  0
VERTEX
  8
1
  6
CONTINUOUS
 62
     2
 10
182.253333
 20
257.566667
  0
VERTEX
  8
1
  6
CONTINUOUS
 62
     2
 10
179.253333
 20
257.566667
  0
SEQEND
  0
TEXT
  8
1
  6
CONTINUOUS
 62
     2
 10
108.122096257
 20
261.218243728
 30
0.0
 40
1.8
  1
１
 50
0.0
 41
0.666666667
 51
0.0
  7
KANJI0
  0
TEXT
  8
1
  6
CONTINUOUS
 62
     2
 10
114.056612882
 20
261.220972202
 30
0.06
 40
1.8
  1
３
 50
0.0
 41
0.666666667
 51
0.0
  7
KANJI1
  0
TEXT
  8
1
  6
CONTINUOUS
 62
     2
 10
120.056612882
 20
261.220972202
 30
0.06
 40
1.8
  1
５
 50
0.0
 41
0.666666667
 51
0.0
  7
KANJI1
  0
TEXT
  8
1
  6
CONTINUOUS
 62
     2
 10
126.053338713
 20
261.220972202
 30
0.06
 40
1.8
  1
７
 50
0.0
 41
0.666666667
 51
0.0
  7
KANJI1
  0
TEXT
  8
1
  6
CONTINUOUS
 62
     2
 10
132.056612882
 20
261.220972202
 30
0.06
 40
1.8
  1
９
 50
0.0
 41
0.666666667
 51
0.0
  7
KANJI1
  0
TEXT
  8
1
  6
CONTINUOUS
 62
     2
 10
137.725376139
 20
261.218243728
 30
0.06
 40
1.8
  1
１１
 50
0.0
 41
0.666666667
 51
0.0
  7
KANJI1
  0
TEXT
  8
1
  6
CONTINUOUS
 62
     2
 10
143.616782875
 20
261.218243728
 30
0.06
 40
1.8
  1
１３
 50
0.0
 41
0.666666667
 51
0.0
  7
KANJI1
  0
TEXT
  8
1
  6
CONTINUOUS
 62
     2
 10
149.616782875
 20
261.218243728
 30
0.06
 40
1.8
  1
１５
 50
0.0
 41
0.666666667
 51
0.0
  7
KANJI1
  0
TEXT
  8
1
  6
CONTINUOUS
 62
     2
 10
155.626059686
 20
261.218243728
 30
0.06
 40
1.8
  1
１７
 50
0.0
 41
0.666666667
 51
0.0
  7
KANJI1
  0
TEXT
  8
1
  6
CONTINUOUS
 62
     2
 10
161.620057043
 20
261.218243728
 30
0.06
 40
1.8
  1
１９
 50
0.0
 41
0.666666667
 51
0.0
  7
KANJI1
  0
TEXT
  8
1
  6
CONTINUOUS
 62
     2
 10
167.768486028
 20
261.218243728
 30
0.06
 40
1.8
  1
２１
 50
0.0
 41
0.666666667
 51
0.0
  7
KANJI1
  0
TEXT
  8
1
  6
CONTINUOUS
 62
     2
 10
173.659892764
 20
261.220972202
 30
0.06
 40
1.8
  1
２３
 50
0.0
 41
0.666666667
 51
0.0
  7
KANJI1
  0
TEXT
  8
1
  6
CONTINUOUS
 62
     2
 10
179.659892764
 20
261.220972202
 30
0.06
 40
1.8
  1
２５
 50
0.0
 41
0.666666667
 51
0.0
  7
KANJI1
  0
TEXT
  8
1
  6
CONTINUOUS
 62
     2
 10
108.056612882
 20
255.220972202
 30
0.06
 40
1.8
  1
２
 50
0.0
 41
0.666666667
 51
0.0
  7
KANJI1
  0
TEXT
  8
1
  6
CONTINUOUS
 62
     2
 10
114.053338713
 20
255.220972202
 30
0.06
 40
1.8
  1
４
 50
0.0
 41
0.666666667
 51
0.0
  7
KANJI1
  0
TEXT
  8
1
  6
CONTINUOUS
 62
     2
 10
120.056612882
 20
255.220972202
 30
0.06
 40
1.8
  1
６
 50
0.0
 41
0.666666667
 51
0.0
  7
KANJI1
  0
TEXT
  8
1
  6
CONTINUOUS
 62
     2
 10
126.056612882
 20
255.220972202
 30
0.06
 40
1.8
  1
８
 50
0.0
 41
0.666666667
 51
0.0
  7
KANJI1
  0
TEXT
  8
1
  6
CONTINUOUS
 62
     2
 10
131.604231894
 20
255.218243728
 30
0.06
 40
1.8
  1
１０
 50
0.0
 41
0.666666667
 51
0.0
  7
KANJI1
  0
TEXT
  8
1
  6
CONTINUOUS
 62
     2
 10
137.616782875
 20
255.218243728
 30
0.06
 40
1.8
  1
１２
 50
0.0
 41
0.666666667
 51
0.0
  7
KANJI1
  0
TEXT
  8
1
  6
CONTINUOUS
 62
     2
 10
143.600957725
 20
255.218243728
 30
0.06
 40
1.8
  1
１４
 50
0.0
 41
0.666666667
 51
0.0
  7
KANJI1
  0
TEXT
  8
1
  6
CONTINUOUS
 62
     2
 10
149.620057043
 20
255.218243728
 30
0.06
 40
1.8
  1
１６
 50
0.0
 41
0.666666667
 51
0.0
  7
KANJI1
  0
TEXT
  8
1
  6
CONTINUOUS
 62
     2
 10
155.613508706
 20
255.218243728
 30
0.06
 40
1.8
  1
１８
 50
0.0
 41
0.666666667
 51
0.0
  7
KANJI1
  0
TEXT
  8
1
  6
CONTINUOUS
 62
     2
 10
161.647341783
 20
255.218243728
 30
0.06
 40
1.8
  1
２０
 50
0.0
 41
0.666666667
 51
0.0
  7
KANJI1
  0
TEXT
  8
1
  6
CONTINUOUS
 62
     2
 10
167.659892764
 20
255.220972202
 30
0.06
 40
1.8
  1
２２
 50
0.0
 41
0.666666667
 51
0.0
  7
KANJI1
  0
TEXT
  8
1
  6
CONTINUOUS
 62
     2
 10
173.644067614
 20
255.220972202
 30
0.06
 40
1.8
  1
２４
 50
0.0
 41
0.666666667
 51
0.0
  7
KANJI1
  0
TEXT
  8
1
  6
CONTINUOUS
 62
     2
 10
179.663166932
 20
255.220972202
 30
0.06
 40
1.8
  1
２６
 50
0.0
 41
0.666666667
 51
0.0
  7
KANJI1
  0
LINE
  8
1
  6
CONTINUOUS
 62
     3
 10
120.753333
 20
248.566667
 11
120.753333
 21
247.066667
  0
LINE
  8
1
  6
CONTINUOUS
 62
     3
 10
108.753333
 20
248.566667
 11
108.753333
 21
247.066667
  0
LINE
  8
1
  6
CONTINUOUS
 62
     3
 10
108.753333
 20
247.066667
 11
120.753333
 21
247.066667
  0
LINE
  8
1
  6
CONTINUOUS
 62
     3
 10
180.753333
 20
247.966667
 11
180.753333
 21
246.466667
  0
LINE
  8
1
  6
CONTINUOUS
 62
     3
 10
168.753333
 20
247.966667
 11
168.753333
 21
246.466667
  0
LINE
  8
1
  6
CONTINUOUS
 62
     3
 10
168.753333
 20
246.466667
 11
180.753333
 21
246.466667
  0
LINE
  8
1
  6
CONTINUOUS
 62
     3
 10
108.753333
 20
270.766667
 11
120.753333
 21
270.766667
  0
LINE
  8
1
  6
CONTINUOUS
 62
     3
 10
120.753333
 20
270.766667
 11
120.753333
 21
269.266667
  0
LINE
  8
1
  6
CONTINUOUS
 62
     3
 10
108.753333
 20
270.766667
 11
108.753333
 21
269.266667
  0
LINE
  8
1
  6
CONTINUOUS
 62
     3
 10
150.753333
 20
270.766667
 11
150.753333
 21
269.266667
  0
POLYLINE
  8
1
  6
CONTINUOUS
 62
     3
 66
     1
  0
VERTEX
  8
1
  6
CONTINUOUS
 62
     3
 10
150.753333
 20
270.766667
  0
VERTEX
  8
1
  6
CONTINUOUS
 62
     3
 10
156.753333
 20
270.766667
  0
VERTEX
  8
1
  6
CONTINUOUS
 62
     3
 10
156.753333
 20
269.266667
  0
SEQEND
  0
LINE
  8
1
  6
LTYPE1
 62
     3
 10
108.753333
 20
260.566667
 11
108.753333
 21
257.566667
  0
LINE
  8
1
  6
LTYPE1
 62
     3
 10
120.753333
 20
260.566667
 11
120.753333
 21
257.566667
  0
LINE
  8
1
  6
LTYPE1
 62
     3
 10
126.753333
 20
260.566667
 11
126.753333
 21
257.566667
  0
LINE
  8
1
  6
LTYPE1
 62
     3
 10
132.753333
 20
260.566667
 11
132.753333
 21
257.566667
  0
LINE
  8
1
  6
LTYPE1
 62
     3
 10
168.753333
 20
260.566667
 11
168.753333
 21
257.566667
  0
LINE
  8
1
  6
LTYPE1
 62
     3
 10
180.753333
 20
260.566667
 11
180.753333
 21
257.566667
  0
LINE
  8
1
  6
LTYPE1
 62
     3
 10
132.753333
 20
259.066667
 11
120.753333
 21
259.066667
  0
TEXT
  8
1
  6
CONTINUOUS
 62
     3
 10
109.761800069
 20
249.175308794
 30
0.06
 40
2.5
  1
ＨＩ
 50
90.0
 41
0.6
 51
0.0
  7
KANJI2
  0
TEXT
  8
1
  6
CONTINUOUS
 62
     3
 10
115.844747577
 20
249.471818496
 30
0.06
 40
2.5
  1
ＮＣ
 50
90.0
 41
0.6
 51
0.0
  7
KANJI2
  0
TEXT
  8
1
  6
CONTINUOUS
 62
     3
 10
121.761800069
 20
249.588537892
 30
0.06
 40
2.5
  1
ＬＯ
 50
90.0
 41
0.6
 51
0.0
  7
KANJI2
  0
TEXT
  8
1
  6
CONTINUOUS
 62
     3
 10
157.844747577
 20
249.471818496
 30
0.06
 40
2.5
  1
ＮＣ
 50
90.0
 41
0.6
 51
0.0
  7
KANJI2
  0
TEXT
  8
1
  6
CONTINUOUS
 62
     3
 10
163.844747577
 20
249.471818496
 30
0.06
 40
2.5
  1
ＮＣ
 50
90.0
 41
0.6
 51
0.0
  7
KANJI2
  0
TEXT
  8
1
  6
CONTINUOUS
 62
     3
 10
169.744337436
 20
249.566709601
 30
0.06
 40
2.5
  1
０Ｖ
 50
90.0
 41
0.6
 51
0.0
  7
KANJI2
  0
TEXT
  8
1
  6
CONTINUOUS
 62
     3
 10
175.844747577
 20
249.471818496
 30
0.06
 40
2.5
  1
ＮＣ
 50
90.0
 41
0.6
 51
0.0
  7
KANJI2
  0
TEXT
  8
1
  6
CONTINUOUS
 62
     3
 10
181.744337436
 20
248.147870651
 30
0.06
 40
2.5
  1
＋５Ｖ
 50
90.0
 41
0.6
 51
0.0
  7
KANJI2
  0
TEXT
  8
1
  6
CONTINUOUS
 62
     3
 10
171.944747577
 20
243.891095167
 30
0.06
 40
2.5
  1
ＰＯＷＥＲ
 50
0.0
 41
0.6
 51
0.0
  7
KANJI2
  0
TEXT
  8
1
  6
CONTINUOUS
 62
     3
 10
175.844747577
 20
266.391095167
 30
0.06
 40
2.5
  1
ＮＣ
 50
90.0
 41
0.6
 51
0.0
  7
KANJI2
  0
TEXT
  8
1
  6
CONTINUOUS
 62
     3
 10
169.744337436
 20
266.292867855
 30
0.06
 40
2.5
  1
０Ｖ
 50
90.0
 41
0.6
 51
0.0
  7
KANJI2
  0
TEXT
  8
1
  6
CONTINUOUS
 62
     3
 10
163.844747577
 20
266.391095167
 30
0.06
 40
2.5
  1
ＮＣ
 50
90.0
 41
0.6
 51
0.0
  7
KANJI2
  0
TEXT
  8
1
  6
CONTINUOUS
 62
     3
 10
151.760708654
 20
266.208938362
 30
0.06
 40
2.5
  1
１０
 50
90.0
 41
0.6
 51
0.0
  7
KANJI2
  0
TEXT
  8
1
  6
CONTINUOUS
 62
     3
 10
151.544747577
 20
271.191095167
 30
0.06
 40
2.5
  1
Ｄ．Ｐ．
 50
0.0
 41
0.6
 51
0.0
  7
KANJI2
  0
TEXT
  8
1
  6
CONTINUOUS
 62
     3
 10
145.844747577
 20
266.102009313
 30
0.06
 40
2.5
  1
ＳＯＵＴ
 50
90.0
 41
0.6
 51
0.0
  7
KANJI2
  0
TEXT
  8
1
  6
CONTINUOUS
 62
     3
 10
139.844747577
 20
266.102009313
 30
0.06
 40
2.5
  1
ＳＴＢ
 50
90.0
 41
0.6
 51
0.0
  7
KANJI2
  0
TEXT
  8
1
  6
CONTINUOUS
 62
     3
 10
133.844747577
 20
266.102009313
 30
0.06
 40
2.5
  1
ＣＯＭ
 50
90.0
 41
0.6
 51
0.0
  7
KANJI2
  0
TEXT
  8
1
  6
CONTINUOUS
 62
     3
 10
127.844747577
 20
266.102009313
 30
0.06
 40
2.5
  1
ＣＯＭ
 50
90.0
 41
0.6
 51
0.0
  7
KANJI2
  0
TEXT
  8
1
  6
CONTINUOUS
 62
     3
 10
121.761800069
 20
266.036524438
 30
0.06
 40
2.5
  1
ＬＯ
 50
90.0
 41
0.6
 51
0.0
  7
KANJI2
  0
TEXT
  8
1
  6
CONTINUOUS
 62
     3
 10
115.844747577
 20
266.091095167
 30
0.06
 40
2.5
  1
ＮＣ
 50
90.0
 41
0.6
 51
0.0
  7
KANJI2
  0
TEXT
  8
1
  6
CONTINUOUS
 62
     3
 10
109.761800069
 20
266.036524438
 30
0.06
 40
2.5
  1
ＨＩ
 50
90.0
 41
0.6
 51
0.0
  7
KANJI2
  0
TEXT
  8
1
  6
CONTINUOUS
 62
     3
 10
111.944747577
 20
271.191095167
 30
0.06
 40
2.5
  1
ＩＮＰＵＴ
 50
0.0
 41
0.6
 51
0.0
  7
KANJI2
  0
TEXT
  8
1
  6
CONTINUOUS
 62
     3
 10
111.944747577
 20
244.491095167
 30
0.06
 40
2.5
  1
ＩＮＰＵＴ
 50
0.0
 41
0.6
 51
0.0
  7
KANJI2
  0
TEXT
  8
1
  6
CONTINUOUS
 62
     3
 10
149.810708654
 20
268.928488911
 30
0.06
 40
2.0
  1
１
 50
90.0
 41
0.75
 51
0.0
  7
KANJI3
  0
TEXT
  8
1
  6
CONTINUOUS
 62
     3
 10
157.410708654
 20
266.558938362
 30
0.06
 40
2.5
  1
１０
 50
90.0
 41
0.6
 51
0.0
  7
KANJI2
  0
TEXT
  8
1
  6
CONTINUOUS
 62
     3
 10
155.510708654
 20
268.978488911
 30
0.06
 40
2.0
  1
３
 50
90.0
 41
0.75
 51
0.0
  7
KANJI3
  0
LINE
  8
1
  6
CONTINUOUS
 62
     3
 10
168.753333
 20
272.216667
 11
180.753333
 21
272.216667
  0
LINE
  8
1
  6
CONTINUOUS
 62
     3
 10
180.753333
 20
272.216667
 11
180.753333
 21
270.716667
  0
LINE
  8
1
  6
CONTINUOUS
 62
     3
 10
168.753333
 20
272.216667
 11
168.753333
 21
270.716667
  0
TEXT
  8
1
  6
CONTINUOUS
 62
     3
 10
171.944747577
 20
272.641095167
 30
0.06
 40
2.5
  1
ＰＯＷＥＲ
 50
0.0
 41
0.6
 51
0.0
  7
KANJI2
  0
TEXT
  8
1
  6
CONTINUOUS
 62
     3
 10
181.744337436
 20
265.892867855
 30
0.06
 40
2.5
  1
＋５Ｖ
 50
90.0
 41
0.6
 51
0.0
  7
KANJI2
  0
TEXT
  8
1
  6
CONTINUOUS
 62
     3
 10
151.760708654
 20
242.358938362
 30
0.06
 40
2.5
  1
Ｄ．Ｐ．１０
 50
90.0
 41
0.6
 51
0.0
  7
KANJI2
  0
TEXT
  8
1
  6
CONTINUOUS
 62
     3
 10
149.710708654
 20
251.078488911
 30
0.06
 40
2.0
  1
２
 50
90.0
 41
0.75
 51
0.0
  7
KANJI3
  0
TEXT
  8
1
  6
CONTINUOUS
 62
     3
 10
127.844747577
 20
247.674807837
 30
0.06
 40
2.5
  1
ＣＯＭ
 50
90.0
 41
0.6
 51
0.0
  7
KANJI2
  0
TEXT
  8
1
  6
CONTINUOUS
 62
     3
 10
133.844747577
 20
247.674807837
 30
0.06
 40
2.5
  1
ＣＯＭ
 50
90.0
 41
0.6
 51
0.0
  7
KANJI2
  0
TEXT
  8
1
  6
CONTINUOUS
 62
     3
 10
139.844747577
 20
249.071818496
 30
0.06
 40
2.5
  1
ＰＣ
 50
90.0
 41
0.6
 51
0.0
  7
KANJI2
  0
TEXT
  8
1
  6
CONTINUOUS
 62
     3
 10
145.844747577
 20
246.255968888
 30
0.06
 40
2.5
  1
ＨＯＬＤ
 50
90.0
 41
0.6
 51
0.0
  7
KANJI2
  0
LINE
  8
1
  6
CONTINUOUS
 62
     3
 10
137.353333
 20
249.066667
 11
137.353333
 21
252.016667
  0
LINE
  8
1
  6
CONTINUOUS
 62
     3
 10
143.253333
 20
272.116667
 11
143.253333
 21
266.266667
  0
LINE
  8
1
  6
CONTINUOUS
 62
     3
 10
137.103333
 20
270.366667
 11
137.103333
 21
266.266667
  0
POLYLINE
  8
0
  6
CONTINUOUS
 62
     3
 66
     1
 70
     1
  0
VERTEX
  8
0
  6
CONTINUOUS
 62
     3
 10
32.603333
 20
78.666667
  0
VERTEX
  8
0
  6
CONTINUOUS
 62
     3
 10
128.603333
 20
78.666667
  0
VERTEX
  8
0
  6
CONTINUOUS
 62
     3
 10
128.603333
 20
126.666667
  0
VERTEX
  8
0
  6
CONTINUOUS
 62
     3
 10
32.603333
 20
126.666667
  0
SEQEND
  0
LINE
  8
0
  6
CONTINUOUS
 62
     3
 10
32.603333
 20
126.166667
 11
128.603333
 21
126.166667
  0
LINE
  8
0
  6
CONTINUOUS
 62
     3
 10
128.603333
 20
126.166667
 11
128.603333
 21
126.666667
  0
LINE
  8
0
  6
CONTINUOUS
 62
     3
 10
128.603333
 20
126.666667
 11
32.603333
 21
126.666667
  0
LINE
  8
0
  6
CONTINUOUS
 62
     3
 10
32.603333
 20
126.666667
 11
32.603333
 21
126.166667
  0
LINE
  8
0
  6
CONTINUOUS
 62
     3
 10
32.603333
 20
125.166667
 11
128.603333
 21
125.166667
  0
LINE
  8
0
  6
CONTINUOUS
 62
     3
 10
128.603333
 20
125.166667
 11
128.603333
 21
126.166667
  0
LINE
  8
0
  6
CONTINUOUS
 62
     3
 10
128.603333
 20
126.166667
 11
32.603333
 21
126.166667
  0
LINE
  8
0
  6
CONTINUOUS
 62
     3
 10
32.603333
 20
126.166667
 11
32.603333
 21
125.166667
  0
LINE
  8
0
  6
CONTINUOUS
 62
     3
 10
32.603333
 20
78.666667
 11
128.603333
 21
78.666667
  0
LINE
  8
0
  6
CONTINUOUS
 62
     3
 10
128.603333
 20
78.666667
 11
128.603333
 21
79.166667
  0
LINE
  8
0
  6
CONTINUOUS
 62
     3
 10
128.603333
 20
79.166667
 11
32.603333
 21
79.166667
  0
LINE
  8
0
  6
CONTINUOUS
 62
     3
 10
32.603333
 20
79.166667
 11
32.603333
 21
78.666667
  0
LINE
  8
0
  6
CONTINUOUS
 62
     3
 10
32.603333
 20
79.166667
 11
128.603333
 21
79.166667
  0
LINE
  8
0
  6
CONTINUOUS
 62
     3
 10
128.603333
 20
79.166667
 11
128.603333
 21
80.166667
  0
LINE
  8
0
  6
CONTINUOUS
 62
     3
 10
128.603333
 20
80.166667
 11
32.603333
 21
80.166667
  0
LINE
  8
0
  6
CONTINUOUS
 62
     3
 10
32.603333
 20
80.166667
 11
32.603333
 21
79.166667
  0
LINE
  8
0
  6
CONTINUOUS
 62
     3
 10
35.603333
 20
88.666667
 11
125.603333
 21
88.666667
  0
LINE
  8
0
  6
CONTINUOUS
 62
     3
 10
125.603333
 20
88.666667
 11
125.603333
 21
116.666667
  0
LINE
  8
0
  6
CONTINUOUS
 62
     3
 10
125.603333
 20
116.666667
 11
35.603333
 21
116.666667
  0
LINE
  8
0
  6
CONTINUOUS
 62
     3
 10
35.603333
 20
116.666667
 11
35.603333
 21
88.666667
  0
LINE
  8
0
  6
CONTINUOUS
 62
     3
 10
35.603333
 20
116.666667
 11
125.603333
 21
116.666667
  0
LINE
  8
0
  6
CONTINUOUS
 62
     3
 10
125.603333
 20
116.666667
 11
125.603333
 21
118.166667
  0
LINE
  8
0
  6
CONTINUOUS
 62
     3
 10
125.603333
 20
118.166667
 11
35.603333
 21
118.166667
  0
LINE
  8
0
  6
CONTINUOUS
 62
     3
 10
35.603333
 20
118.166667
 11
35.603333
 21
116.666667
  0
LINE
  8
0
  6
CONTINUOUS
 62
     3
 10
35.603333
 20
87.166667
 11
125.603333
 21
87.166667
  0
LINE
  8
0
  6
CONTINUOUS
 62
     3
 10
125.603333
 20
87.166667
 11
125.603333
 21
88.666667
  0
LINE
  8
0
  6
CONTINUOUS
 62
     3
 10
125.603333
 20
88.666667
 11
35.603333
 21
88.666667
  0
LINE
  8
0
  6
CONTINUOUS
 62
     3
 10
35.603333
 20
88.666667
 11
35.603333
 21
87.166667
  0
LINE
  8
0
  6
CONTINUOUS
 62
     3
 10
31.603333
 20
97.666667
 11
32.603333
 21
97.666667
  0
LINE
  8
0
  6
CONTINUOUS
 62
     3
 10
32.603333
 20
97.666667
 11
32.603333
 21
108.666667
  0
LINE
  8
0
  6
CONTINUOUS
 62
     3
 10
32.603333
 20
108.666667
 11
31.603333
 21
108.666667
  0
LINE
  8
0
  6
CONTINUOUS
 62
     3
 10
31.603333
 20
108.666667
 11
31.603333
 21
97.666667
  0
LINE
  8
0
  6
CONTINUOUS
 62
     3
 10
128.603333
 20
97.666667
 11
129.603333
 21
97.666667
  0
LINE
  8
0
  6
CONTINUOUS
 62
     3
 10
129.603333
 20
97.666667
 11
129.603333
 21
108.666667
  0
LINE
  8
0
  6
CONTINUOUS
 62
     3
 10
129.603333
 20
108.666667
 11
128.603333
 21
108.666667
  0
LINE
  8
0
  6
CONTINUOUS
 62
     3
 10
128.603333
 20
108.666667
 11
128.603333
 21
97.666667
  0
LINE
  8
0
  6
CONTINUOUS
 62
     3
 10
32.57
 20
77.65
 11
32.57
 21
68.05
  0
LINE
  8
0
  6
CONTINUOUS
 62
     3
 10
32.57
 20
69.05
 11
34.501851653
 21
68.53236191
  0
LINE
  8
0
  6
CONTINUOUS
 62
     3
 10
32.57
 20
69.05
 11
34.501851653
 21
69.56763809
  0
LINE
  8
0
  6
CONTINUOUS
 62
     3
 10
32.57
 20
69.05
 11
128.62
 21
69.05
  0
LINE
  8
0
  6
CONTINUOUS
 62
     3
 10
128.62
 20
69.05
 11
126.688148347
 21
69.56763809
  0
LINE
  8
0
  6
CONTINUOUS
 62
     3
 10
128.62
 20
69.05
 11
126.688148347
 21
68.53236191
  0
LINE
  8
0
  6
CONTINUOUS
 62
     3
 10
128.62
 20
77.65
 11
128.62
 21
68.05
  0
TEXT
  8
0
  6
CONTINUOUS
 62
     3
 10
78.995
 20
70.05
 30
0.0
 40
2.0
  1
９６
 50
0.0
 41
0.8
 51
0.0
  7
KANJI4
  0
POLYLINE
  8
0
  6
CONTINUOUS
 62
     3
 66
     1
 70
     1
  0
VERTEX
  8
0
  6
CONTINUOUS
 62
     3
 10
68.253333
 20
95.116667
  0
VERTEX
  8
0
  6
CONTINUOUS
 62
     3
 10
80.253333
 20
95.116667
  0
VERTEX
  8
0
  6
CONTINUOUS
 62
     3
 10
80.253333
 20
112.116667
  0
VERTEX
  8
0
  6
CONTINUOUS
 62
     3
 10
68.253333
 20
112.116667
  0
SEQEND
  0
LINE
  8
0
  6
CONTINUOUS
 62
     3
 10
76.229417
 20
103.011404
 11
76.690955
 21
103.485088
  0
LINE
  8
0
  6
CONTINUOUS
 62
     3
 10
76.690955
 20
103.485088
 11
76.229417
 21
103.958772
  0
LINE
  8
0
  6
CONTINUOUS
 62
     3
 10
76.229417
 20
103.958772
 11
71.614032
 21
103.958772
  0
LINE
  8
0
  6
CONTINUOUS
 62
     3
 10
71.614032
 20
103.958772
 11
71.152494
 21
103.485088
  0
LINE
  8
0
  6
CONTINUOUS
 62
     3
 10
71.152494
 20
103.485088
 11
71.614032
 21
103.011404
  0
LINE
  8
0
  6
CONTINUOUS
 62
     3
 10
71.614032
 20
103.011404
 11
76.229417
 21
103.011404
  0
LINE
  8
0
  6
CONTINUOUS
 62
     3
 10
77.567879
 20
109.169298
 11
77.10634
 21
108.695614
  0
LINE
  8
0
  6
CONTINUOUS
 62
     3
 10
77.10634
 20
108.695614
 11
76.644802
 21
103.958772
  0
LINE
  8
0
  6
CONTINUOUS
 62
     3
 10
76.644802
 20
103.958772
 11
77.10634
 21
103.485088
  0
LINE
  8
0
  6
CONTINUOUS
 62
     3
 10
77.10634
 20
103.485088
 11
77.567879
 21
103.958772
  0
LINE
  8
0
  6
CONTINUOUS
 62
     3
 10
77.567879
 20
103.958772
 11
78.029417
 21
108.695614
  0
LINE
  8
0
  6
CONTINUOUS
 62
     3
 10
78.029417
 20
108.695614
 11
77.567879
 21
109.169298
  0
LINE
  8
0
  6
CONTINUOUS
 62
     3
 10
76.875571
 20
109.169298
 11
77.337109
 21
109.642982
  0
LINE
  8
0
  6
CONTINUOUS
 62
     3
 10
77.337109
 20
109.642982
 11
76.875571
 21
110.116667
  0
LINE
  8
0
  6
CONTINUOUS
 62
     3
 10
76.875571
 20
110.116667
 11
72.260186
 21
110.116667
  0
LINE
  8
0
  6
CONTINUOUS
 62
     3
 10
72.260186
 20
110.116667
 11
71.798648
 21
109.642982
  0
LINE
  8
0
  6
CONTINUOUS
 62
     3
 10
71.798648
 20
109.642982
 11
72.260186
 21
109.169298
  0
LINE
  8
0
  6
CONTINUOUS
 62
     3
 10
72.260186
 20
109.169298
 11
76.875571
 21
109.169298
  0
LINE
  8
0
  6
CONTINUOUS
 62
     3
 10
70.644802
 20
108.695614
 11
70.183263
 21
103.958772
  0
LINE
  8
0
  6
CONTINUOUS
 62
     3
 10
70.183263
 20
103.958772
 11
70.644802
 21
103.485088
  0
LINE
  8
0
  6
CONTINUOUS
 62
     3
 10
70.644802
 20
103.485088
 11
71.10634
 21
103.958772
  0
LINE
  8
0
  6
CONTINUOUS
 62
     3
 10
71.10634
 20
103.958772
 11
71.567879
 21
108.695614
  0
LINE
  8
0
  6
CONTINUOUS
 62
     3
 10
71.567879
 20
108.695614
 11
71.10634
 21
109.169298
  0
LINE
  8
0
  6
CONTINUOUS
 62
     3
 10
71.10634
 20
109.169298
 11
70.644802
 21
108.695614
  0
LINE
  8
0
  6
CONTINUOUS
 62
     3
 10
70.414032
 20
103.011404
 11
69.952494
 21
102.537719
  0
LINE
  8
0
  6
CONTINUOUS
 62
     3
 10
69.952494
 20
102.537719
 11
69.490955
 21
97.800877
  0
LINE
  8
0
  6
CONTINUOUS
 62
     3
 10
69.490955
 20
97.800877
 11
69.952494
 21
97.327193
  0
LINE
  8
0
  6
CONTINUOUS
 62
     3
 10
69.952494
 20
97.327193
 11
70.414032
 21
97.800877
  0
LINE
  8
0
  6
CONTINUOUS
 62
     3
 10
70.414032
 20
97.800877
 11
70.875571
 21
102.537719
  0
LINE
  8
0
  6
CONTINUOUS
 62
     3
 10
70.875571
 20
102.537719
 11
70.414032
 21
103.011404
  0
LINE
  8
0
  6
CONTINUOUS
 62
     3
 10
75.490955
 20
96.853509
 11
75.952494
 21
97.327193
  0
LINE
  8
0
  6
CONTINUOUS
 62
     3
 10
75.952494
 20
97.327193
 11
75.490955
 21
97.800877
  0
LINE
  8
0
  6
CONTINUOUS
 62
     3
 10
75.490955
 20
97.800877
 11
70.875571
 21
97.800877
  0
LINE
  8
0
  6
CONTINUOUS
 62
     3
 10
70.875571
 20
97.800877
 11
70.414032
 21
97.327193
  0
LINE
  8
0
  6
CONTINUOUS
 62
     3
 10
70.414032
 20
97.327193
 11
70.875571
 21
96.853509
  0
LINE
  8
0
  6
CONTINUOUS
 62
     3
 10
70.875571
 20
96.853509
 11
75.490955
 21
96.853509
  0
LINE
  8
0
  6
CONTINUOUS
 62
     3
 10
76.875571
 20
103.011404
 11
76.414032
 21
102.537719
  0
LINE
  8
0
  6
CONTINUOUS
 62
     3
 10
76.414032
 20
102.537719
 11
75.952494
 21
97.800877
  0
LINE
  8
0
  6
CONTINUOUS
 62
     3
 10
75.952494
 20
97.800877
 11
76.414032
 21
97.327193
  0
LINE
  8
0
  6
CONTINUOUS
 62
     3
 10
76.414032
 20
97.327193
 11
76.875571
 21
97.800877
  0
LINE
  8
0
  6
CONTINUOUS
 62
     3
 10
76.875571
 20
97.800877
 11
77.337109
 21
102.537719
  0
LINE
  8
0
  6
CONTINUOUS
 62
     3
 10
77.337109
 20
102.537719
 11
76.875571
 21
103.011404
  0
ARC
  8
0
  6
CONTINUOUS
 62
     3
 10
78.778849701
 20
97.485406269
 40
0.63554478
 50
158.266704767
 51
180.02869263
  0
ARC
  8
0
  6
CONTINUOUS
 62
     3
 10
78.762395041
 20
97.492471681
 40
0.61764371
 50
136.12959791
 51
158.310327092
  0
ARC
  8
0
  6
CONTINUOUS
 62
     3
 10
78.74441119
 20
97.509815247
 40
0.592659383
 50
113.333733406
 51
136.133445334
  0
ARC
  8
0
  6
CONTINUOUS
 62
     3
 10
78.7371109
 20
97.525634959
 40
0.575242135
 50
90.032859026
 51
113.290181646
  0
ARC
  8
0
  6
CONTINUOUS
 62
     3
 10
78.7364506
 20
97.525637389
 40
0.575239706
 50
66.709768414
 51
89.967091033
  0
ARC
  8
0
  6
CONTINUOUS
 62
     3
 10
78.72914981
 20
97.509815247
 40
0.592659383
 50
43.866554666
 51
66.666266594
  0
ARC
  8
0
  6
CONTINUOUS
 62
     3
 10
78.711166459
 20
97.49246913
 40
0.617645117
 50
21.689875637
 51
43.870604818
  0
ARC
  8
0
  6
CONTINUOUS
 62
     3
 10
78.694711799
 20
97.48540887
 40
0.635544282
 50
359.971072852
 51
21.733060714
  0
ARC
  8
0
  6
CONTINUOUS
 62
     3
 10
78.694709198
 20
97.48476663
 40
0.635546883
 50
338.266984244
 51
0.028972106
  0
ARC
  8
0
  6
CONTINUOUS
 62
     3
 10
78.71116901
 20
97.47770637
 40
0.617642932
 50
316.129264631
 51
338.309993812
  0
ARC
  8
0
  6
CONTINUOUS
 62
     3
 10
78.72914733
 20
97.460360253
 40
0.592660825
 50
293.333934384
 51
316.133646313
  0
ARC
  8
0
  6
CONTINUOUS
 62
     3
 10
78.7364506
 20
97.444537611
 40
0.575239706
 50
270.032908967
 51
293.290231586
  0
ARC
  8
0
  6
CONTINUOUS
 62
     3
 10
78.7371109
 20
97.444540041
 40
0.575242135
 50
246.709818354
 51
269.967140974
  0
ARC
  8
0
  6
CONTINUOUS
 62
     3
 10
78.74441367
 20
97.460360253
 40
0.592660825
 50
223.866353687
 51
246.666065616
  0
ARC
  8
0
  6
CONTINUOUS
 62
     3
 10
78.76239249
 20
97.477703819
 40
0.617641524
 50
201.689803459
 51
223.87053264
  0
ARC
  8
0
  6
CONTINUOUS
 62
     3
 10
78.778852302
 20
97.484769231
 40
0.635547382
 50
179.971262412
 51
201.733250274
  0
LINE
  8
0
  6
CONTINUOUS
 62
     3
 10
80.753333
 20
95.116667
 11
92.753333
 21
95.116667
  0
LINE
  8
0
  6
CONTINUOUS
 62
     3
 10
92.753333
 20
95.116667
 11
92.753333
 21
112.116667
  0
LINE
  8
0
  6
CONTINUOUS
 62
     3
 10
92.753333
 20
112.116667
 11
80.753333
 21
112.116667
  0
LINE
  8
0
  6
CONTINUOUS
 62
     3
 10
80.753333
 20
112.116667
 11
80.753333
 21
95.116667
  0
LINE
  8
0
  6
CONTINUOUS
 62
     3
 10
88.729417
 20
103.011404
 11
89.190955
 21
103.485088
  0
LINE
  8
0
  6
CONTINUOUS
 62
     3
 10
89.190955
 20
103.485088
 11
88.729417
 21
103.958772
  0
LINE
  8
0
  6
CONTINUOUS
 62
     3
 10
88.729417
 20
103.958772
 11
84.114032
 21
103.958772
  0
LINE
  8
0
  6
CONTINUOUS
 62
     3
 10
84.114032
 20
103.958772
 11
83.652494
 21
103.485088
  0
LINE
  8
0
  6
CONTINUOUS
 62
     3
 10
83.652494
 20
103.485088
 11
84.114032
 21
103.011404
  0
LINE
  8
0
  6
CONTINUOUS
 62
     3
 10
84.114032
 20
103.011404
 11
88.729417
 21
103.011404
  0
LINE
  8
0
  6
CONTINUOUS
 62
     3
 10
90.067879
 20
109.169298
 11
89.60634
 21
108.695614
  0
LINE
  8
0
  6
CONTINUOUS
 62
     3
 10
89.60634
 20
108.695614
 11
89.144802
 21
103.958772
  0
LINE
  8
0
  6
CONTINUOUS
 62
     3
 10
89.144802
 20
103.958772
 11
89.60634
 21
103.485088
  0
LINE
  8
0
  6
CONTINUOUS
 62
     3
 10
89.60634
 20
103.485088
 11
90.067879
 21
103.958772
  0
LINE
  8
0
  6
CONTINUOUS
 62
     3
 10
90.067879
 20
103.958772
 11
90.529417
 21
108.695614
  0
LINE
  8
0
  6
CONTINUOUS
 62
     3
 10
90.529417
 20
108.695614
 11
90.067879
 21
109.169298
  0
LINE
  8
0
  6
CONTINUOUS
 62
     3
 10
89.375571
 20
109.169298
 11
89.837109
 21
109.642982
  0
LINE
  8
0
  6
CONTINUOUS
 62
     3
 10
89.837109
 20
109.642982
 11
89.375571
 21
110.116667
  0
LINE
  8
0
  6
CONTINUOUS
 62
     3
 10
89.375571
 20
110.116667
 11
84.760186
 21
110.116667
  0
LINE
  8
0
  6
CONTINUOUS
 62
     3
 10
84.760186
 20
110.116667
 11
84.298648
 21
109.642982
  0
LINE
  8
0
  6
CONTINUOUS
 62
     3
 10
84.298648
 20
109.642982
 11
84.760186
 21
109.169298
  0
LINE
  8
0
  6
CONTINUOUS
 62
     3
 10
84.760186
 20
109.169298
 11
89.375571
 21
109.169298
  0
LINE
  8
0
  6
CONTINUOUS
 62
     3
 10
83.144802
 20
108.695614
 11
82.683263
 21
103.958772
  0
LINE
  8
0
  6
CONTINUOUS
 62
     3
 10
82.683263
 20
103.958772
 11
83.144802
 21
103.485088
  0
LINE
  8
0
  6
CONTINUOUS
 62
     3
 10
83.144802
 20
103.485088
 11
83.60634
 21
103.958772
  0
LINE
  8
0
  6
CONTINUOUS
 62
     3
 10
83.60634
 20
103.958772
 11
84.067879
 21
108.695614
  0
LINE
  8
0
  6
CONTINUOUS
 62
     3
 10
84.067879
 20
108.695614
 11
83.60634
 21
109.169298
  0
LINE
  8
0
  6
CONTINUOUS
 62
     3
 10
83.60634
 20
109.169298
 11
83.144802
 21
108.695614
  0
LINE
  8
0
  6
CONTINUOUS
 62
     3
 10
82.914032
 20
103.011404
 11
82.452494
 21
102.537719
  0
LINE
  8
0
  6
CONTINUOUS
 62
     3
 10
82.452494
 20
102.537719
 11
81.990955
 21
97.800877
  0
LINE
  8
0
  6
CONTINUOUS
 62
     3
 10
81.990955
 20
97.800877
 11
82.452494
 21
97.327193
  0
LINE
  8
0
  6
CONTINUOUS
 62
     3
 10
82.452494
 20
97.327193
 11
82.914032
 21
97.800877
  0
LINE
  8
0
  6
CONTINUOUS
 62
     3
 10
82.914032
 20
97.800877
 11
83.375571
 21
102.537719
  0
LINE
  8
0
  6
CONTINUOUS
 62
     3
 10
83.375571
 20
102.537719
 11
82.914032
 21
103.011404
  0
LINE
  8
0
  6
CONTINUOUS
 62
     3
 10
87.990955
 20
96.853509
 11
88.452494
 21
97.327193
  0
LINE
  8
0
  6
CONTINUOUS
 62
     3
 10
88.452494
 20
97.327193
 11
87.990955
 21
97.800877
  0
LINE
  8
0
  6
CONTINUOUS
 62
     3
 10
87.990955
 20
97.800877
 11
83.375571
 21
97.800877
  0
LINE
  8
0
  6
CONTINUOUS
 62
     3
 10
83.375571
 20
97.800877
 11
82.914032
 21
97.327193
  0
LINE
  8
0
  6
CONTINUOUS
 62
     3
 10
82.914032
 20
97.327193
 11
83.375571
 21
96.853509
  0
LINE
  8
0
  6
CONTINUOUS
 62
     3
 10
83.375571
 20
96.853509
 11
87.990955
 21
96.853509
  0
LINE
  8
0
  6
CONTINUOUS
 62
     3
 10
89.375571
 20
103.011404
 11
88.914032
 21
102.537719
  0
LINE
  8
0
  6
CONTINUOUS
 62
     3
 10
88.914032
 20
102.537719
 11
88.452494
 21
97.800877
  0
LINE
  8
0
  6
CONTINUOUS
 62
     3
 10
88.452494
 20
97.800877
 11
88.914032
 21
97.327193
  0
LINE
  8
0
  6
CONTINUOUS
 62
     3
 10
88.914032
 20
97.327193
 11
89.375571
 21
97.800877
  0
LINE
  8
0
  6
CONTINUOUS
 62
     3
 10
89.375571
 20
97.800877
 11
89.837109
 21
102.537719
  0
LINE
  8
0
  6
CONTINUOUS
 62
     3
 10
89.837109
 20
102.537719
 11
89.375571
 21
103.011404
  0
ARC
  8
0
  6
CONTINUOUS
 62
     3
 10
91.278849701
 20
97.485406269
 40
0.63554478
 50
158.266704767
 51
180.02869263
  0
ARC
  8
0
  6
CONTINUOUS
 62
     3
 10
91.262395041
 20
97.492471681
 40
0.61764371
 50
136.12959791
 51
158.310327092
  0
ARC
  8
0
  6
CONTINUOUS
 62
     3
 10
91.24441119
 20
97.509815247
 40
0.592659383
 50
113.333733406
 51
136.133445334
  0
ARC
  8
0
  6
CONTINUOUS
 62
     3
 10
91.2371109
 20
97.525634959
 40
0.575242135
 50
90.032859026
 51
113.290181646
  0
ARC
  8
0
  6
CONTINUOUS
 62
     3
 10
91.2364506
 20
97.525637389
 40
0.575239706
 50
66.709768414
 51
89.967091033
  0
ARC
  8
0
  6
CONTINUOUS
 62
     3
 10
91.22914981
 20
97.509815247
 40
0.592659383
 50
43.866554666
 51
66.666266594
  0
ARC
  8
0
  6
CONTINUOUS
 62
     3
 10
91.211166459
 20
97.49246913
 40
0.617645117
 50
21.689875637
 51
43.870604818
  0
ARC
  8
0
  6
CONTINUOUS
 62
     3
 10
91.194711799
 20
97.48540887
 40
0.635544282
 50
359.971072852
 51
21.733060714
  0
ARC
  8
0
  6
CONTINUOUS
 62
     3
 10
91.194709198
 20
97.48476663
 40
0.635546883
 50
338.266984244
 51
0.028972106
  0
ARC
  8
0
  6
CONTINUOUS
 62
     3
 10
91.21116901
 20
97.47770637
 40
0.617642932
 50
316.129264631
 51
338.309993812
  0
ARC
  8
0
  6
CONTINUOUS
 62
     3
 10
91.22914733
 20
97.460360253
 40
0.592660825
 50
293.333934384
 51
316.133646313
  0
ARC
  8
0
  6
CONTINUOUS
 62
     3
 10
91.2364506
 20
97.444537611
 40
0.575239706
 50
270.032908967
 51
293.290231586
  0
ARC
  8
0
  6
CONTINUOUS
 62
     3
 10
91.2371109
 20
97.444540041
 40
0.575242135
 50
246.709818354
 51
269.967140974
  0
ARC
  8
0
  6
CONTINUOUS
 62
     3
 10
91.24441367
 20
97.460360253
 40
0.592660825
 50
223.866353687
 51
246.666065616
  0
ARC
  8
0
  6
CONTINUOUS
 62
     3
 10
91.26239249
 20
97.477703819
 40
0.617641524
 50
201.689803459
 51
223.87053264
  0
ARC
  8
0
  6
CONTINUOUS
 62
     3
 10
91.278852302
 20
97.484769231
 40
0.635547382
 50
179.971262412
 51
201.733250274
  0
LINE
  8
0
  6
CONTINUOUS
 62
     3
 10
93.253333
 20
95.116667
 11
105.253333
 21
95.116667
  0
LINE
  8
0
  6
CONTINUOUS
 62
     3
 10
105.253333
 20
95.116667
 11
105.253333
 21
112.116667
  0
LINE
  8
0
  6
CONTINUOUS
 62
     3
 10
105.253333
 20
112.116667
 11
93.253333
 21
112.116667
  0
LINE
  8
0
  6
CONTINUOUS
 62
     3
 10
93.253333
 20
112.116667
 11
93.253333
 21
95.116667
  0
LINE
  8
0
  6
CONTINUOUS
 62
     3
 10
101.229417
 20
103.011404
 11
101.690955
 21
103.485088
  0
LINE
  8
0
  6
CONTINUOUS
 62
     3
 10
101.690955
 20
103.485088
 11
101.229417
 21
103.958772
  0
LINE
  8
0
  6
CONTINUOUS
 62
     3
 10
101.229417
 20
103.958772
 11
96.614032
 21
103.958772
  0
LINE
  8
0
  6
CONTINUOUS
 62
     3
 10
96.614032
 20
103.958772
 11
96.152494
 21
103.485088
  0
LINE
  8
0
  6
CONTINUOUS
 62
     3
 10
96.152494
 20
103.485088
 11
96.614032
 21
103.011404
  0
LINE
  8
0
  6
CONTINUOUS
 62
     3
 10
96.614032
 20
103.011404
 11
101.229417
 21
103.011404
  0
LINE
  8
0
  6
CONTINUOUS
 62
     3
 10
102.567879
 20
109.169298
 11
102.10634
 21
108.695614
  0
LINE
  8
0
  6
CONTINUOUS
 62
     3
 10
102.10634
 20
108.695614
 11
101.644802
 21
103.958772
  0
LINE
  8
0
  6
CONTINUOUS
 62
     3
 10
101.644802
 20
103.958772
 11
102.10634
 21
103.485088
  0
LINE
  8
0
  6
CONTINUOUS
 62
     3
 10
102.10634
 20
103.485088
 11
102.567879
 21
103.958772
  0
LINE
  8
0
  6
CONTINUOUS
 62
     3
 10
102.567879
 20
103.958772
 11
103.029417
 21
108.695614
  0
LINE
  8
0
  6
CONTINUOUS
 62
     3
 10
103.029417
 20
108.695614
 11
102.567879
 21
109.169298
  0
LINE
  8
0
  6
CONTINUOUS
 62
     3
 10
101.875571
 20
109.169298
 11
102.337109
 21
109.642982
  0
LINE
  8
0
  6
CONTINUOUS
 62
     3
 10
102.337109
 20
109.642982
 11
101.875571
 21
110.116667
  0
LINE
  8
0
  6
CONTINUOUS
 62
     3
 10
101.875571
 20
110.116667
 11
97.260186
 21
110.116667
  0
LINE
  8
0
  6
CONTINUOUS
 62
     3
 10
97.260186
 20
110.116667
 11
96.798648
 21
109.642982
  0
LINE
  8
0
  6
CONTINUOUS
 62
     3
 10
96.798648
 20
109.642982
 11
97.260186
 21
109.169298
  0
LINE
  8
0
  6
CONTINUOUS
 62
     3
 10
97.260186
 20
109.169298
 11
101.875571
 21
109.169298
  0
LINE
  8
0
  6
CONTINUOUS
 62
     3
 10
95.644802
 20
108.695614
 11
95.183263
 21
103.958772
  0
LINE
  8
0
  6
CONTINUOUS
 62
     3
 10
95.183263
 20
103.958772
 11
95.644802
 21
103.485088
  0
LINE
  8
0
  6
CONTINUOUS
 62
     3
 10
95.644802
 20
103.485088
 11
96.10634
 21
103.958772
  0
LINE
  8
0
  6
CONTINUOUS
 62
     3
 10
96.10634
 20
103.958772
 11
96.567879
 21
108.695614
  0
LINE
  8
0
  6
CONTINUOUS
 62
     3
 10
96.567879
 20
108.695614
 11
96.10634
 21
109.169298
  0
LINE
  8
0
  6
CONTINUOUS
 62
     3
 10
96.10634
 20
109.169298
 11
95.644802
 21
108.695614
  0
LINE
  8
0
  6
CONTINUOUS
 62
     3
 10
95.414032
 20
103.011404
 11
94.952494
 21
102.537719
  0
LINE
  8
0
  6
CONTINUOUS
 62
     3
 10
94.952494
 20
102.537719
 11
94.490955
 21
97.800877
  0
LINE
  8
0
  6
CONTINUOUS
 62
     3
 10
94.490955
 20
97.800877
 11
94.952494
 21
97.327193
  0
LINE
  8
0
  6
CONTINUOUS
 62
     3
 10
94.952494
 20
97.327193
 11
95.414032
 21
97.800877
  0
LINE
  8
0
  6
CONTINUOUS
 62
     3
 10
95.414032
 20
97.800877
 11
95.875571
 21
102.537719
  0
LINE
  8
0
  6
CONTINUOUS
 62
     3
 10
95.875571
 20
102.537719
 11
95.414032
 21
103.011404
  0
LINE
  8
0
  6
CONTINUOUS
 62
     3
 10
100.490955
 20
96.853509
 11
100.952494
 21
97.327193
  0
LINE
  8
0
  6
CONTINUOUS
 62
     3
 10
100.952494
 20
97.327193
 11
100.490955
 21
97.800877
  0
LINE
  8
0
  6
CONTINUOUS
 62
     3
 10
100.490955
 20
97.800877
 11
95.875571
 21
97.800877
  0
LINE
  8
0
  6
CONTINUOUS
 62
     3
 10
95.875571
 20
97.800877
 11
95.414032
 21
97.327193
  0
LINE
  8
0
  6
CONTINUOUS
 62
     3
 10
95.414032
 20
97.327193
 11
95.875571
 21
96.853509
  0
LINE
  8
0
  6
CONTINUOUS
 62
     3
 10
95.875571
 20
96.853509
 11
100.490955
 21
96.853509
  0
LINE
  8
0
  6
CONTINUOUS
 62
     3
 10
101.875571
 20
103.011404
 11
101.414032
 21
102.537719
  0
LINE
  8
0
  6
CONTINUOUS
 62
     3
 10
101.414032
 20
102.537719
 11
100.952494
 21
97.800877
  0
LINE
  8
0
  6
CONTINUOUS
 62
     3
 10
100.952494
 20
97.800877
 11
101.414032
 21
97.327193
  0
LINE
  8
0
  6
CONTINUOUS
 62
     3
 10
101.414032
 20
97.327193
 11
101.875571
 21
97.800877
  0
LINE
  8
0
  6
CONTINUOUS
 62
     3
 10
101.875571
 20
97.800877
 11
102.337109
 21
102.537719
  0
LINE
  8
0
  6
CONTINUOUS
 62
     3
 10
102.337109
 20
102.537719
 11
101.875571
 21
103.011404
  0
ARC
  8
0
  6
CONTINUOUS
 62
     3
 10
103.778849701
 20
97.485406269
 40
0.63554478
 50
158.266704767
 51
180.02869263
  0
ARC
  8
0
  6
CONTINUOUS
 62
     3
 10
103.762395041
 20
97.492471681
 40
0.61764371
 50
136.12959791
 51
158.310327092
  0
ARC
  8
0
  6
CONTINUOUS
 62
     3
 10
103.74441119
 20
97.509815247
 40
0.592659383
 50
113.333733406
 51
136.133445334
  0
ARC
  8
0
  6
CONTINUOUS
 62
     3
 10
103.7371109
 20
97.525634959
 40
0.575242135
 50
90.032859026
 51
113.290181646
  0
ARC
  8
0
  6
CONTINUOUS
 62
     3
 10
103.7364506
 20
97.525637389
 40
0.575239706
 50
66.709768414
 51
89.967091033
  0
ARC
  8
0
  6
CONTINUOUS
 62
     3
 10
103.72914981
 20
97.509815247
 40
0.592659383
 50
43.866554666
 51
66.666266594
  0
ARC
  8
0
  6
CONTINUOUS
 62
     3
 10
103.711166459
 20
97.49246913
 40
0.617645117
 50
21.689875637
 51
43.870604818
  0
ARC
  8
0
  6
CONTINUOUS
 62
     3
 10
103.694711799
 20
97.48540887
 40
0.635544282
 50
359.971072852
 51
21.733060714
  0
ARC
  8
0
  6
CONTINUOUS
 62
     3
 10
103.694709198
 20
97.48476663
 40
0.635546883
 50
338.266984244
 51
0.028972106
  0
ARC
  8
0
  6
CONTINUOUS
 62
     3
 10
103.71116901
 20
97.47770637
 40
0.617642932
 50
316.129264631
 51
338.309993812
  0
ARC
  8
0
  6
CONTINUOUS
 62
     3
 10
103.72914733
 20
97.460360253
 40
0.592660825
 50
293.333934384
 51
316.133646313
  0
ARC
  8
0
  6
CONTINUOUS
 62
     3
 10
103.7364506
 20
97.444537611
 40
0.575239706
 50
270.032908967
 51
293.290231586
  0
ARC
  8
0
  6
CONTINUOUS
 62
     3
 10
103.7371109
 20
97.444540041
 40
0.575242135
 50
246.709818354
 51
269.967140974
  0
ARC
  8
0
  6
CONTINUOUS
 62
     3
 10
103.74441367
 20
97.460360253
 40
0.592660825
 50
223.866353687
 51
246.666065616
  0
ARC
  8
0
  6
CONTINUOUS
 62
     3
 10
103.76239249
 20
97.477703819
 40
0.617641524
 50
201.689803459
 51
223.87053264
  0
ARC
  8
0
  6
CONTINUOUS
 62
     3
 10
103.778852302
 20
97.484769231
 40
0.635547382
 50
179.971262412
 51
201.733250274
  0
POLYLINE
  8
0
  6
CONTINUOUS
 62
     3
 66
     1
 70
     1
  0
VERTEX
  8
0
  6
CONTINUOUS
 62
     3
 10
55.753333
 20
95.116667
  0
VERTEX
  8
0
  6
CONTINUOUS
 62
     3
 10
67.753333
 20
95.116667
  0
VERTEX
  8
0
  6
CONTINUOUS
 62
     3
 10
67.753333
 20
112.116667
  0
VERTEX
  8
0
  6
CONTINUOUS
 62
     3
 10
55.753333
 20
112.116667
  0
SEQEND
  0
LINE
  8
0
  6
CONTINUOUS
 62
     3
 10
63.729417
 20
103.011404
 11
64.190955
 21
103.485088
  0
LINE
  8
0
  6
CONTINUOUS
 62
     3
 10
64.190955
 20
103.485088
 11
63.729417
 21
103.958772
  0
LINE
  8
0
  6
CONTINUOUS
 62
     3
 10
63.729417
 20
103.958772
 11
59.114032
 21
103.958772
  0
LINE
  8
0
  6
CONTINUOUS
 62
     3
 10
59.114032
 20
103.958772
 11
58.652494
 21
103.485088
  0
LINE
  8
0
  6
CONTINUOUS
 62
     3
 10
58.652494
 20
103.485088
 11
59.114032
 21
103.011404
  0
LINE
  8
0
  6
CONTINUOUS
 62
     3
 10
59.114032
 20
103.011404
 11
63.729417
 21
103.011404
  0
LINE
  8
0
  6
CONTINUOUS
 62
     3
 10
65.067879
 20
109.169298
 11
64.60634
 21
108.695614
  0
LINE
  8
0
  6
CONTINUOUS
 62
     3
 10
64.60634
 20
108.695614
 11
64.144802
 21
103.958772
  0
LINE
  8
0
  6
CONTINUOUS
 62
     3
 10
64.144802
 20
103.958772
 11
64.60634
 21
103.485088
  0
LINE
  8
0
  6
CONTINUOUS
 62
     3
 10
64.60634
 20
103.485088
 11
65.067879
 21
103.958772
  0
LINE
  8
0
  6
CONTINUOUS
 62
     3
 10
65.067879
 20
103.958772
 11
65.529417
 21
108.695614
  0
LINE
  8
0
  6
CONTINUOUS
 62
     3
 10
65.529417
 20
108.695614
 11
65.067879
 21
109.169298
  0
LINE
  8
0
  6
CONTINUOUS
 62
     3
 10
64.375571
 20
109.169298
 11
64.837109
 21
109.642982
  0
LINE
  8
0
  6
CONTINUOUS
 62
     3
 10
64.837109
 20
109.642982
 11
64.375571
 21
110.116667
  0
LINE
  8
0
  6
CONTINUOUS
 62
     3
 10
64.375571
 20
110.116667
 11
59.760186
 21
110.116667
  0
LINE
  8
0
  6
CONTINUOUS
 62
     3
 10
59.760186
 20
110.116667
 11
59.298648
 21
109.642982
  0
LINE
  8
0
  6
CONTINUOUS
 62
     3
 10
59.298648
 20
109.642982
 11
59.760186
 21
109.169298
  0
LINE
  8
0
  6
CONTINUOUS
 62
     3
 10
59.760186
 20
109.169298
 11
64.375571
 21
109.169298
  0
LINE
  8
0
  6
CONTINUOUS
 62
     3
 10
58.144802
 20
108.695614
 11
57.683263
 21
103.958772
  0
LINE
  8
0
  6
CONTINUOUS
 62
     3
 10
57.683263
 20
103.958772
 11
58.144802
 21
103.485088
  0
LINE
  8
0
  6
CONTINUOUS
 62
     3
 10
58.144802
 20
103.485088
 11
58.60634
 21
103.958772
  0
LINE
  8
0
  6
CONTINUOUS
 62
     3
 10
58.60634
 20
103.958772
 11
59.067879
 21
108.695614
  0
LINE
  8
0
  6
CONTINUOUS
 62
     3
 10
59.067879
 20
108.695614
 11
58.60634
 21
109.169298
  0
LINE
  8
0
  6
CONTINUOUS
 62
     3
 10
58.60634
 20
109.169298
 11
58.144802
 21
108.695614
  0
LINE
  8
0
  6
CONTINUOUS
 62
     3
 10
57.914032
 20
103.011404
 11
57.452494
 21
102.537719
  0
LINE
  8
0
  6
CONTINUOUS
 62
     3
 10
57.452494
 20
102.537719
 11
56.990955
 21
97.800877
  0
LINE
  8
0
  6
CONTINUOUS
 62
     3
 10
56.990955
 20
97.800877
 11
57.452494
 21
97.327193
  0
LINE
  8
0
  6
CONTINUOUS
 62
     3
 10
57.452494
 20
97.327193
 11
57.914032
 21
97.800877
  0
LINE
  8
0
  6
CONTINUOUS
 62
     3
 10
57.914032
 20
97.800877
 11
58.375571
 21
102.537719
  0
LINE
  8
0
  6
CONTINUOUS
 62
     3
 10
58.375571
 20
102.537719
 11
57.914032
 21
103.011404
  0
LINE
  8
0
  6
CONTINUOUS
 62
     3
 10
62.990955
 20
96.853509
 11
63.452494
 21
97.327193
  0
LINE
  8
0
  6
CONTINUOUS
 62
     3
 10
63.452494
 20
97.327193
 11
62.990955
 21
97.800877
  0
LINE
  8
0
  6
CONTINUOUS
 62
     3
 10
62.990955
 20
97.800877
 11
58.375571
 21
97.800877
  0
LINE
  8
0
  6
CONTINUOUS
 62
     3
 10
58.375571
 20
97.800877
 11
57.914032
 21
97.327193
  0
LINE
  8
0
  6
CONTINUOUS
 62
     3
 10
57.914032
 20
97.327193
 11
58.375571
 21
96.853509
  0
LINE
  8
0
  6
CONTINUOUS
 62
     3
 10
58.375571
 20
96.853509
 11
62.990955
 21
96.853509
  0
LINE
  8
0
  6
CONTINUOUS
 62
     3
 10
64.375571
 20
103.011404
 11
63.914032
 21
102.537719
  0
LINE
  8
0
  6
CONTINUOUS
 62
     3
 10
63.914032
 20
102.537719
 11
63.452494
 21
97.800877
  0
LINE
  8
0
  6
CONTINUOUS
 62
     3
 10
63.452494
 20
97.800877
 11
63.914032
 21
97.327193
  0
LINE
  8
0
  6
CONTINUOUS
 62
     3
 10
63.914032
 20
97.327193
 11
64.375571
 21
97.800877
  0
LINE
  8
0
  6
CONTINUOUS
 62
     3
 10
64.375571
 20
97.800877
 11
64.837109
 21
102.537719
  0
LINE
  8
0
  6
CONTINUOUS
 62
     3
 10
64.837109
 20
102.537719
 11
64.375571
 21
103.011404
  0
ARC
  8
0
  6
CONTINUOUS
 62
     3
 10
66.278849701
 20
97.485406269
 40
0.63554478
 50
158.266704767
 51
180.02869263
  0
ARC
  8
0
  6
CONTINUOUS
 62
     3
 10
66.262395041
 20
97.492471681
 40
0.61764371
 50
136.12959791
 51
158.310327092
  0
ARC
  8
0
  6
CONTINUOUS
 62
     3
 10
66.24441119
 20
97.509815247
 40
0.592659383
 50
113.333733406
 51
136.133445334
  0
ARC
  8
0
  6
CONTINUOUS
 62
     3
 10
66.2371109
 20
97.525634959
 40
0.575242135
 50
90.032859026
 51
113.290181646
  0
ARC
  8
0
  6
CONTINUOUS
 62
     3
 10
66.2364506
 20
97.525637389
 40
0.575239706
 50
66.709768414
 51
89.967091033
  0
ARC
  8
0
  6
CONTINUOUS
 62
     3
 10
66.22914981
 20
97.509815247
 40
0.592659383
 50
43.866554666
 51
66.666266594
  0
ARC
  8
0
  6
CONTINUOUS
 62
     3
 10
66.211166459
 20
97.49246913
 40
0.617645117
 50
21.689875637
 51
43.870604818
  0
ARC
  8
0
  6
CONTINUOUS
 62
     3
 10
66.194711799
 20
97.48540887
 40
0.635544282
 50
359.971072852
 51
21.733060714
  0
ARC
  8
0
  6
CONTINUOUS
 62
     3
 10
66.194709198
 20
97.48476663
 40
0.635546883
 50
338.266984244
 51
0.028972106
  0
ARC
  8
0
  6
CONTINUOUS
 62
     3
 10
66.21116901
 20
97.47770637
 40
0.617642932
 50
316.129264631
 51
338.309993812
  0
ARC
  8
0
  6
CONTINUOUS
 62
     3
 10
66.22914733
 20
97.460360253
 40
0.592660825
 50
293.333934384
 51
316.133646313
  0
ARC
  8
0
  6
CONTINUOUS
 62
     3
 10
66.2364506
 20
97.444537611
 40
0.575239706
 50
270.032908967
 51
293.290231586
  0
ARC
  8
0
  6
CONTINUOUS
 62
     3
 10
66.2371109
 20
97.444540041
 40
0.575242135
 50
246.709818354
 51
269.967140974
  0
ARC
  8
0
  6
CONTINUOUS
 62
     3
 10
66.24441367
 20
97.460360253
 40
0.592660825
 50
223.866353687
 51
246.666065616
  0
ARC
  8
0
  6
CONTINUOUS
 62
     3
 10
66.26239249
 20
97.477703819
 40
0.617641524
 50
201.689803459
 51
223.87053264
  0
ARC
  8
0
  6
CONTINUOUS
 62
     3
 10
66.278852302
 20
97.484769231
 40
0.635547382
 50
179.971262412
 51
201.733250274
  0
POLYLINE
  8
0
  6
CONTINUOUS
 62
     3
 66
     1
 70
     1
  0
VERTEX
  8
0
  6
CONTINUOUS
 62
     3
 10
32.603333
 20
137.816667
  0
VERTEX
  8
0
  6
CONTINUOUS
 62
     3
 10
128.603333
 20
137.816667
  0
VERTEX
  8
0
  6
CONTINUOUS
 62
     3
 10
128.603333
 20
143.116667
  0
VERTEX
  8
0
  6
CONTINUOUS
 62
     3
 10
32.603333
 20
143.116667
  0
SEQEND
  0
LINE
  8
0
  6
CONTINUOUS
 62
     3
 10
32.603333
 20
143.116667
 11
128.603333
 21
143.116667
  0
LINE
  8
0
  6
CONTINUOUS
 62
     3
 10
128.603333
 20
143.116667
 11
128.603333
 21
144.116667
  0
LINE
  8
0
  6
CONTINUOUS
 62
     3
 10
128.603333
 20
144.116667
 11
32.603333
 21
144.116667
  0
LINE
  8
0
  6
CONTINUOUS
 62
     3
 10
32.603333
 20
144.116667
 11
32.603333
 21
143.116667
  0
LINE
  8
0
  6
CONTINUOUS
 62
     3
 10
126.603333
 20
144.116667
 11
126.503442
 21
156.316667
  0
LINE
  8
0
  6
CONTINUOUS
 62
     3
 10
126.503442
 20
156.316667
 11
34.703333
 21
156.316667
  0
LINE
  8
0
  6
CONTINUOUS
 62
     3
 10
34.603333
 20
144.116667
 11
34.703333
 21
156.316667
  0
ARC
  8
0
  6
CONTINUOUS
 62
     3
 10
19.013714188
 20
156.272602401
 40
15.68968069
 50
350.049047906
 51
0.160915886
  0
ARC
  8
0
  6
CONTINUOUS
 62
     3
 10
24.023942744
 20
155.301207657
 40
10.587354843
 50
337.358733955
 51
350.541456549
  0
ARC
  8
0
  6
CONTINUOUS
 62
     3
 10
29.424645327
 20
152.937456869
 40
4.694037163
 50
315.796527156
 51
338.610308188
  0
ARC
  8
0
  6
CONTINUOUS
 62
     3
 10
31.51638608
 20
150.862825566
 40
1.748321911
 50
272.850589077
 51
316.742299759
  0
LINE
  8
0
  6
CONTINUOUS
 62
     3
 10
31.603333
 20
149.116667
 11
34.603333
 21
144.116667
  0
LINE
  8
0
  6
CONTINUOUS
 62
     3
 10
34.603333
 20
147.116667
 11
33.603333
 21
148.566667
  0
ARC
  8
0
  6
CONTINUOUS
 62
     3
 10
28.597776426
 20
150.947876348
 40
6.0079281
 50
351.977296969
 51
1.60991685
  0
ARC
  8
0
  6
CONTINUOUS
 62
     3
 10
30.953563674
 20
150.578236014
 40
3.623799591
 50
339.016505011
 51
352.566045118
  0
ARC
  8
0
  6
CONTINUOUS
 62
     3
 10
33.038808669
 20
149.734390358
 40
1.375276294
 50
314.672884936
 51
340.731569594
  0
ARC
  8
0
  6
CONTINUOUS
 62
     3
 10
33.657900276
 20
149.108773727
 40
0.495122832
 50
263.672603343
 51
314.625312932
  0
LINE
  8
0
  6
CONTINUOUS
 62
     3
 10
126.603333
 20
144.116667
 11
126.503333
 21
156.316667
  0
ARC
  8
0
  6
CONTINUOUS
 62
     3
 10
142.192952312
 20
156.272608052
 40
15.689681174
 50
179.839104757
 51
189.950972737
  0
ARC
  8
0
  6
CONTINUOUS
 62
     3
 10
137.182723756
 20
155.30120333
 40
10.587353639
 50
189.458520797
 51
202.641243391
  0
ARC
  8
0
  6
CONTINUOUS
 62
     3
 10
131.782021173
 20
152.937459348
 40
4.694038533
 50
201.389717751
 51
224.203498783
  0
ARC
  8
0
  6
CONTINUOUS
 62
     3
 10
129.69028042
 20
150.862824325
 40
1.748320696
 50
223.257681852
 51
267.149392535
  0
LINE
  8
0
  6
CONTINUOUS
 62
     3
 10
129.603333
 20
149.116667
 11
126.603333
 21
144.116667
  0
LINE
  8
0
  6
CONTINUOUS
 62
     3
 10
126.603333
 20
147.116667
 11
127.603333
 21
148.566667
  0
ARC
  8
0
  6
CONTINUOUS
 62
     3
 10
132.608889574
 20
150.947876348
 40
6.0079281
 50
178.39008315
 51
188.022703031
  0
ARC
  8
0
  6
CONTINUOUS
 62
     3
 10
130.253102326
 20
150.578236014
 40
3.623799591
 50
187.433954882
 51
200.983494989
  0
ARC
  8
0
  6
CONTINUOUS
 62
     3
 10
128.167857331
 20
149.734390358
 40
1.375276294
 50
199.268430406
 51
225.327115064
  0
ARC
  8
0
  6
CONTINUOUS
 62
     3
 10
127.548765724
 20
149.108773727
 40
0.495122832
 50
225.374687068
 51
276.327396657
  0
LINE
  8
0
  6
CONTINUOUS
 62
     3
 10
120.603333
 20
155.116667
 11
126.603333
 21
144.116667
  0
LINE
  8
0
  6
CONTINUOUS
 62
     3
 10
28.603333
 20
155.116667
 11
34.603333
 21
144.116667
  0
LINE
  8
0
  6
CONTINUOUS
 62
     3
 10
66.103333
 20
156.316667
 11
73.103333
 21
156.316667
  0
LINE
  8
0
  6
CONTINUOUS
 62
     3
 10
88.103333
 20
156.316667
 11
95.103333
 21
156.316667
  0
LINE
  8
0
  6
CONTINUOUS
 62
     3
 10
30.42
 20
151.8
 11
32.351851653
 21
151.28236191
  0
LINE
  8
0
  6
CONTINUOUS
 62
     3
 10
30.42
 20
151.8
 11
32.351851653
 21
152.31763809
  0
LINE
  8
0
  6
CONTINUOUS
 62
     3
 10
30.42
 20
151.8
 11
122.42
 21
151.8
  0
LINE
  8
0
  6
CONTINUOUS
 62
     3
 10
122.42
 20
151.8
 11
120.488148347
 21
152.31763809
  0
LINE
  8
0
  6
CONTINUOUS
 62
     3
 10
122.42
 20
151.8
 11
120.488148347
 21
151.28236191
  0
POLYLINE
  8
0
  6
CONTINUOUS
 62
     3
 66
     1
 70
     1
  0
VERTEX
  8
0
  6
CONTINUOUS
 62
     3
 10
32.603333
 20
185.116667
  0
VERTEX
  8
0
  6
CONTINUOUS
 62
     3
 10
128.603333
 20
185.116667
  0
VERTEX
  8
0
  6
CONTINUOUS
 62
     3
 10
128.603333
 20
233.116667
  0
VERTEX
  8
0
  6
CONTINUOUS
 62
     3
 10
32.603333
 20
233.116667
  0
SEQEND
  0
LINE
  8
0
  6
CONTINUOUS
 62
     3
 10
35.103333
 20
187.116667
 11
126.103333
 21
187.116667
  0
LINE
  8
0
  6
CONTINUOUS
 62
     3
 10
126.103333
 20
187.116667
 11
126.103333
 21
231.116667
  0
LINE
  8
0
  6
CONTINUOUS
 62
     3
 10
126.103333
 20
231.116667
 11
35.103333
 21
231.116667
  0
LINE
  8
0
  6
CONTINUOUS
 62
     3
 10
35.103333
 20
231.116667
 11
35.103333
 21
187.116667
  0
LINE
  8
0
  6
CONTINUOUS
 62
     3
 10
45.103333
 20
228.616667
 11
52.103333
 21
228.616667
  0
LINE
  8
0
  6
CONTINUOUS
 62
     3
 10
52.103333
 20
228.616667
 11
52.103333
 21
231.116667
  0
LINE
  8
0
  6
CONTINUOUS
 62
     3
 10
52.103333
 20
231.116667
 11
45.103333
 21
231.116667
  0
LINE
  8
0
  6
CONTINUOUS
 62
     3
 10
45.103333
 20
231.116667
 11
45.103333
 21
228.616667
  0
LINE
  8
0
  6
CONTINUOUS
 62
     3
 10
109.103333
 20
228.616667
 11
116.103333
 21
228.616667
  0
LINE
  8
0
  6
CONTINUOUS
 62
     3
 10
116.103333
 20
228.616667
 11
116.103333
 21
231.116667
  0
LINE
  8
0
  6
CONTINUOUS
 62
     3
 10
116.103333
 20
231.116667
 11
109.103333
 21
231.116667
  0
LINE
  8
0
  6
CONTINUOUS
 62
     3
 10
109.103333
 20
231.116667
 11
109.103333
 21
228.616667
  0
LINE
  8
0
  6
CONTINUOUS
 62
     3
 10
99.603333
 20
188.116667
 11
105.603333
 21
188.116667
  0
LINE
  8
0
  6
CONTINUOUS
 62
     3
 10
105.603333
 20
188.116667
 11
105.603333
 21
190.116667
  0
LINE
  8
0
  6
CONTINUOUS
 62
     3
 10
105.603333
 20
190.116667
 11
99.603333
 21
190.116667
  0
LINE
  8
0
  6
CONTINUOUS
 62
     3
 10
99.603333
 20
190.116667
 11
99.603333
 21
188.116667
  0
LINE
  8
0
  6
CONTINUOUS
 62
     3
 10
55.603333
 20
188.116667
 11
61.603333
 21
188.116667
  0
LINE
  8
0
  6
CONTINUOUS
 62
     3
 10
61.603333
 20
188.116667
 11
61.603333
 21
190.116667
  0
LINE
  8
0
  6
CONTINUOUS
 62
     3
 10
61.603333
 20
190.116667
 11
55.603333
 21
190.116667
  0
LINE
  8
0
  6
CONTINUOUS
 62
     3
 10
55.603333
 20
190.116667
 11
55.603333
 21
188.116667
  0
LINE
  8
0
  6
CONTINUOUS
 62
     3
 10
43.103333
 20
194.616667
 11
118.103333
 21
194.616667
  0
LINE
  8
0
  6
CONTINUOUS
 62
     3
 10
118.103333
 20
194.616667
 11
118.103333
 21
212.616667
  0
LINE
  8
0
  6
CONTINUOUS
 62
     3
 10
118.103333
 20
212.616667
 11
43.103333
 21
212.616667
  0
LINE
  8
0
  6
CONTINUOUS
 62
     3
 10
43.103333
 20
212.616667
 11
43.103333
 21
194.616667
  0
LINE
  8
0
  6
CONTINUOUS
 62
     3
 10
56.103333
 20
217.116667
 11
105.103333
 21
217.116667
  0
LINE
  8
0
  6
CONTINUOUS
 62
     3
 10
105.103333
 20
217.116667
 11
105.103333
 21
226.116667
  0
LINE
  8
0
  6
CONTINUOUS
 62
     3
 10
56.103333
 20
226.116667
 11
56.103333
 21
217.116667
  0
LINE
  8
0
  6
CONTINUOUS
 62
     3
 10
35.103333
 20
202.616667
 11
37.103333
 21
202.616667
  0
LINE
  8
0
  6
CONTINUOUS
 62
     3
 10
37.103333
 20
202.616667
 11
37.103333
 21
215.616667
  0
LINE
  8
0
  6
CONTINUOUS
 62
     3
 10
37.103333
 20
215.616667
 11
35.103333
 21
215.616667
  0
LINE
  8
0
  6
CONTINUOUS
 62
     3
 10
35.103333
 20
215.616667
 11
35.103333
 21
202.616667
  0
LINE
  8
0
  6
CONTINUOUS
 62
     3
 10
124.103333
 20
202.616667
 11
126.103333
 21
202.616667
  0
LINE
  8
0
  6
CONTINUOUS
 62
     3
 10
126.103333
 20
202.616667
 11
126.103333
 21
215.616667
  0
LINE
  8
0
  6
CONTINUOUS
 62
     3
 10
126.103333
 20
215.616667
 11
124.103333
 21
215.616667
  0
LINE
  8
0
  6
CONTINUOUS
 62
     3
 10
124.103333
 20
215.616667
 11
124.103333
 21
202.616667
  0
LINE
  8
0
  6
CONTINUOUS
 62
     3
 10
124.103333
 20
203.616667
 11
126.103333
 21
203.616667
  0
LINE
  8
0
  6
CONTINUOUS
 62
     3
 10
126.103333
 20
203.616667
 11
126.103333
 21
214.616667
  0
LINE
  8
0
  6
CONTINUOUS
 62
     3
 10
126.103333
 20
214.616667
 11
124.103333
 21
214.616667
  0
LINE
  8
0
  6
CONTINUOUS
 62
     3
 10
124.103333
 20
214.616667
 11
124.103333
 21
203.616667
  0
LINE
  8
0
  6
CONTINUOUS
 62
     3
 10
126.103333
 20
203.616667
 11
129.603333
 21
203.616667
  0
LINE
  8
0
  6
CONTINUOUS
 62
     3
 10
129.603333
 20
203.616667
 11
129.603333
 21
214.616667
  0
LINE
  8
0
  6
CONTINUOUS
 62
     3
 10
129.603333
 20
214.616667
 11
126.103333
 21
214.616667
  0
LINE
  8
0
  6
CONTINUOUS
 62
     3
 10
126.103333
 20
214.616667
 11
126.103333
 21
203.616667
  0
LINE
  8
0
  6
CONTINUOUS
 62
     3
 10
35.103333
 20
203.616667
 11
37.103333
 21
203.616667
  0
LINE
  8
0
  6
CONTINUOUS
 62
     3
 10
37.103333
 20
203.616667
 11
37.103333
 21
214.616667
  0
LINE
  8
0
  6
CONTINUOUS
 62
     3
 10
37.103333
 20
214.616667
 11
35.103333
 21
214.616667
  0
LINE
  8
0
  6
CONTINUOUS
 62
     3
 10
35.103333
 20
214.616667
 11
35.103333
 21
203.616667
  0
LINE
  8
0
  6
CONTINUOUS
 62
     3
 10
31.603333
 20
203.616667
 11
35.103333
 21
203.616667
  0
LINE
  8
0
  6
CONTINUOUS
 62
     3
 10
35.103333
 20
203.616667
 11
35.103333
 21
214.616667
  0
LINE
  8
0
  6
CONTINUOUS
 62
     3
 10
35.103333
 20
214.616667
 11
31.603333
 21
214.616667
  0
LINE
  8
0
  6
CONTINUOUS
 62
     3
 10
31.603333
 20
214.616667
 11
31.603333
 21
203.616667
  0
LINE
  8
0
  6
CONTINUOUS
 62
     3
 10
34.67
 20
172.45
 11
36.601851653
 21
171.93236191
  0
LINE
  8
0
  6
CONTINUOUS
 62
     3
 10
34.67
 20
172.45
 11
36.601851653
 21
172.96763809
  0
LINE
  8
0
  6
CONTINUOUS
 62
     3
 10
34.67
 20
172.45
 11
126.52
 21
172.45
  0
LINE
  8
0
  6
CONTINUOUS
 62
     3
 10
126.52
 20
172.45
 11
124.588148347
 21
172.96763809
  0
LINE
  8
0
  6
CONTINUOUS
 62
     3
 10
126.52
 20
172.45
 11
124.588148347
 21
171.93236191
  0
LINE
  8
0
  6
CONTINUOUS
 62
     3
 10
103.103333
 20
217.366667
 11
58.103333
 21
217.366667
  0
LINE
  8
0
  6
CONTINUOUS
 62
     3
 10
58.103333
 20
217.366667
 11
58.103333
 21
226.366667
  0
LINE
  8
0
  6
CONTINUOUS
 62
     3
 10
58.103333
 20
226.366667
 11
103.103333
 21
226.366667
  0
LINE
  8
0
  6
CONTINUOUS
 62
     3
 10
103.103333
 20
226.366667
 11
103.103333
 21
217.366667
  0
LINE
  8
0
  6
CONTINUOUS
 62
     3
 10
97.703333
 20
218.816667
 11
99.503333
 21
218.816667
  0
LINE
  8
0
  6
CONTINUOUS
 62
     3
 10
99.503333
 20
218.816667
 11
99.503333
 21
219.316667
  0
LINE
  8
0
  6
CONTINUOUS
 62
     3
 10
99.503333
 20
219.316667
 11
97.703333
 21
219.316667
  0
LINE
  8
0
  6
CONTINUOUS
 62
     3
 10
97.703333
 20
219.316667
 11
97.703333
 21
218.816667
  0
LINE
  8
0
  6
CONTINUOUS
 62
     3
 10
97.703333
 20
218.816667
 11
97.703333
 21
221.016667
  0
LINE
  8
0
  6
CONTINUOUS
 62
     3
 10
97.703333
 20
221.016667
 11
99.503333
 21
221.016667
  0
LINE
  8
0
  6
CONTINUOUS
 62
     3
 10
99.503333
 20
221.016667
 11
99.503333
 21
218.816667
  0
LINE
  8
0
  6
CONTINUOUS
 62
     3
 10
94.703333
 20
218.816667
 11
96.503333
 21
218.816667
  0
LINE
  8
0
  6
CONTINUOUS
 62
     3
 10
96.503333
 20
218.816667
 11
96.503333
 21
219.316667
  0
LINE
  8
0
  6
CONTINUOUS
 62
     3
 10
96.503333
 20
219.316667
 11
94.703333
 21
219.316667
  0
LINE
  8
0
  6
CONTINUOUS
 62
     3
 10
94.703333
 20
219.316667
 11
94.703333
 21
218.816667
  0
LINE
  8
0
  6
CONTINUOUS
 62
     3
 10
94.703333
 20
218.816667
 11
94.703333
 21
221.016667
  0
LINE
  8
0
  6
CONTINUOUS
 62
     3
 10
94.703333
 20
221.016667
 11
96.503333
 21
221.016667
  0
LINE
  8
0
  6
CONTINUOUS
 62
     3
 10
96.503333
 20
221.016667
 11
96.503333
 21
218.816667
  0
LINE
  8
0
  6
CONTINUOUS
 62
     3
 10
91.703333
 20
218.816667
 11
93.503333
 21
218.816667
  0
LINE
  8
0
  6
CONTINUOUS
 62
     3
 10
93.503333
 20
218.816667
 11
93.503333
 21
219.316667
  0
LINE
  8
0
  6
CONTINUOUS
 62
     3
 10
93.503333
 20
219.316667
 11
91.703333
 21
219.316667
  0
LINE
  8
0
  6
CONTINUOUS
 62
     3
 10
91.703333
 20
219.316667
 11
91.703333
 21
218.816667
  0
LINE
  8
0
  6
CONTINUOUS
 62
     3
 10
91.703333
 20
218.816667
 11
91.703333
 21
221.016667
  0
LINE
  8
0
  6
CONTINUOUS
 62
     3
 10
91.703333
 20
221.016667
 11
93.503333
 21
221.016667
  0
LINE
  8
0
  6
CONTINUOUS
 62
     3
 10
93.503333
 20
221.016667
 11
93.503333
 21
218.816667
  0
LINE
  8
0
  6
CONTINUOUS
 62
     3
 10
88.703333
 20
218.816667
 11
90.503333
 21
218.816667
  0
LINE
  8
0
  6
CONTINUOUS
 62
     3
 10
90.503333
 20
218.816667
 11
90.503333
 21
219.316667
  0
LINE
  8
0
  6
CONTINUOUS
 62
     3
 10
90.503333
 20
219.316667
 11
88.703333
 21
219.316667
  0
LINE
  8
0
  6
CONTINUOUS
 62
     3
 10
88.703333
 20
219.316667
 11
88.703333
 21
218.816667
  0
LINE
  8
0
  6
CONTINUOUS
 62
     3
 10
88.703333
 20
218.816667
 11
88.703333
 21
221.016667
  0
LINE
  8
0
  6
CONTINUOUS
 62
     3
 10
88.703333
 20
221.016667
 11
90.503333
 21
221.016667
  0
LINE
  8
0
  6
CONTINUOUS
 62
     3
 10
90.503333
 20
221.016667
 11
90.503333
 21
218.816667
  0
LINE
  8
0
  6
CONTINUOUS
 62
     3
 10
85.703333
 20
218.816667
 11
87.503333
 21
218.816667
  0
LINE
  8
0
  6
CONTINUOUS
 62
     3
 10
87.503333
 20
218.816667
 11
87.503333
 21
219.316667
  0
LINE
  8
0
  6
CONTINUOUS
 62
     3
 10
87.503333
 20
219.316667
 11
85.703333
 21
219.316667
  0
LINE
  8
0
  6
CONTINUOUS
 62
     3
 10
85.703333
 20
219.316667
 11
85.703333
 21
218.816667
  0
LINE
  8
0
  6
CONTINUOUS
 62
     3
 10
85.703333
 20
218.816667
 11
85.703333
 21
221.016667
  0
LINE
  8
0
  6
CONTINUOUS
 62
     3
 10
85.703333
 20
221.016667
 11
87.503333
 21
221.016667
  0
LINE
  8
0
  6
CONTINUOUS
 62
     3
 10
87.503333
 20
221.016667
 11
87.503333
 21
218.816667
  0
LINE
  8
0
  6
CONTINUOUS
 62
     3
 10
82.703333
 20
218.816667
 11
84.503333
 21
218.816667
  0
LINE
  8
0
  6
CONTINUOUS
 62
     3
 10
84.503333
 20
218.816667
 11
84.503333
 21
219.316667
  0
LINE
  8
0
  6
CONTINUOUS
 62
     3
 10
84.503333
 20
219.316667
 11
82.703333
 21
219.316667
  0
LINE
  8
0
  6
CONTINUOUS
 62
     3
 10
82.703333
 20
219.316667
 11
82.703333
 21
218.816667
  0
LINE
  8
0
  6
CONTINUOUS
 62
     3
 10
82.703333
 20
218.816667
 11
82.703333
 21
221.016667
  0
LINE
  8
0
  6
CONTINUOUS
 62
     3
 10
82.703333
 20
221.016667
 11
84.503333
 21
221.016667
  0
LINE
  8
0
  6
CONTINUOUS
 62
     3
 10
84.503333
 20
221.016667
 11
84.503333
 21
218.816667
  0
LINE
  8
0
  6
CONTINUOUS
 62
     3
 10
79.703333
 20
218.816667
 11
81.503333
 21
218.816667
  0
LINE
  8
0
  6
CONTINUOUS
 62
     3
 10
81.503333
 20
218.816667
 11
81.503333
 21
219.316667
  0
LINE
  8
0
  6
CONTINUOUS
 62
     3
 10
81.503333
 20
219.316667
 11
79.703333
 21
219.316667
  0
LINE
  8
0
  6
CONTINUOUS
 62
     3
 10
79.703333
 20
219.316667
 11
79.703333
 21
218.816667
  0
LINE
  8
0
  6
CONTINUOUS
 62
     3
 10
79.703333
 20
218.816667
 11
79.703333
 21
221.016667
  0
LINE
  8
0
  6
CONTINUOUS
 62
     3
 10
79.703333
 20
221.016667
 11
81.503333
 21
221.016667
  0
LINE
  8
0
  6
CONTINUOUS
 62
     3
 10
81.503333
 20
221.016667
 11
81.503333
 21
218.816667
  0
LINE
  8
0
  6
CONTINUOUS
 62
     3
 10
76.703333
 20
218.816667
 11
78.503333
 21
218.816667
  0
LINE
  8
0
  6
CONTINUOUS
 62
     3
 10
78.503333
 20
218.816667
 11
78.503333
 21
219.316667
  0
LINE
  8
0
  6
CONTINUOUS
 62
     3
 10
78.503333
 20
219.316667
 11
76.703333
 21
219.316667
  0
LINE
  8
0
  6
CONTINUOUS
 62
     3
 10
76.703333
 20
219.316667
 11
76.703333
 21
218.816667
  0
LINE
  8
0
  6
CONTINUOUS
 62
     3
 10
76.703333
 20
218.816667
 11
76.703333
 21
221.016667
  0
LINE
  8
0
  6
CONTINUOUS
 62
     3
 10
76.703333
 20
221.016667
 11
78.503333
 21
221.016667
  0
LINE
  8
0
  6
CONTINUOUS
 62
     3
 10
78.503333
 20
221.016667
 11
78.503333
 21
218.816667
  0
LINE
  8
0
  6
CONTINUOUS
 62
     3
 10
73.703333
 20
218.816667
 11
75.503333
 21
218.816667
  0
LINE
  8
0
  6
CONTINUOUS
 62
     3
 10
75.503333
 20
218.816667
 11
75.503333
 21
219.316667
  0
LINE
  8
0
  6
CONTINUOUS
 62
     3
 10
75.503333
 20
219.316667
 11
73.703333
 21
219.316667
  0
LINE
  8
0
  6
CONTINUOUS
 62
     3
 10
73.703333
 20
219.316667
 11
73.703333
 21
218.816667
  0
LINE
  8
0
  6
CONTINUOUS
 62
     3
 10
73.703333
 20
218.816667
 11
73.703333
 21
221.016667
  0
LINE
  8
0
  6
CONTINUOUS
 62
     3
 10
73.703333
 20
221.016667
 11
75.503333
 21
221.016667
  0
LINE
  8
0
  6
CONTINUOUS
 62
     3
 10
75.503333
 20
221.016667
 11
75.503333
 21
218.816667
  0
LINE
  8
0
  6
CONTINUOUS
 62
     3
 10
70.703333
 20
218.816667
 11
72.503333
 21
218.816667
  0
LINE
  8
0
  6
CONTINUOUS
 62
     3
 10
72.503333
 20
218.816667
 11
72.503333
 21
219.316667
  0
LINE
  8
0
  6
CONTINUOUS
 62
     3
 10
72.503333
 20
219.316667
 11
70.703333
 21
219.316667
  0
LINE
  8
0
  6
CONTINUOUS
 62
     3
 10
70.703333
 20
219.316667
 11
70.703333
 21
218.816667
  0
LINE
  8
0
  6
CONTINUOUS
 62
     3
 10
70.703333
 20
218.816667
 11
70.703333
 21
221.016667
  0
LINE
  8
0
  6
CONTINUOUS
 62
     3
 10
70.703333
 20
221.016667
 11
72.503333
 21
221.016667
  0
LINE
  8
0
  6
CONTINUOUS
 62
     3
 10
72.503333
 20
221.016667
 11
72.503333
 21
218.816667
  0
LINE
  8
0
  6
CONTINUOUS
 62
     3
 10
67.703333
 20
218.816667
 11
69.503333
 21
218.816667
  0
LINE
  8
0
  6
CONTINUOUS
 62
     3
 10
69.503333
 20
218.816667
 11
69.503333
 21
219.316667
  0
LINE
  8
0
  6
CONTINUOUS
 62
     3
 10
69.503333
 20
219.316667
 11
67.703333
 21
219.316667
  0
LINE
  8
0
  6
CONTINUOUS
 62
     3
 10
67.703333
 20
219.316667
 11
67.703333
 21
218.816667
  0
LINE
  8
0
  6
CONTINUOUS
 62
     3
 10
67.703333
 20
218.816667
 11
67.703333
 21
221.016667
  0
LINE
  8
0
  6
CONTINUOUS
 62
     3
 10
67.703333
 20
221.016667
 11
69.503333
 21
221.016667
  0
LINE
  8
0
  6
CONTINUOUS
 62
     3
 10
69.503333
 20
221.016667
 11
69.503333
 21
218.816667
  0
LINE
  8
0
  6
CONTINUOUS
 62
     3
 10
64.703333
 20
218.816667
 11
66.503333
 21
218.816667
  0
LINE
  8
0
  6
CONTINUOUS
 62
     3
 10
66.503333
 20
218.816667
 11
66.503333
 21
219.316667
  0
LINE
  8
0
  6
CONTINUOUS
 62
     3
 10
66.503333
 20
219.316667
 11
64.703333
 21
219.316667
  0
LINE
  8
0
  6
CONTINUOUS
 62
     3
 10
64.703333
 20
219.316667
 11
64.703333
 21
218.816667
  0
LINE
  8
0
  6
CONTINUOUS
 62
     3
 10
64.703333
 20
218.816667
 11
64.703333
 21
221.016667
  0
LINE
  8
0
  6
CONTINUOUS
 62
     3
 10
64.703333
 20
221.016667
 11
66.503333
 21
221.016667
  0
LINE
  8
0
  6
CONTINUOUS
 62
     3
 10
66.503333
 20
221.016667
 11
66.503333
 21
218.816667
  0
LINE
  8
0
  6
CONTINUOUS
 62
     3
 10
61.703333
 20
218.816667
 11
63.503333
 21
218.816667
  0
LINE
  8
0
  6
CONTINUOUS
 62
     3
 10
63.503333
 20
218.816667
 11
63.503333
 21
219.316667
  0
LINE
  8
0
  6
CONTINUOUS
 62
     3
 10
63.503333
 20
219.316667
 11
61.703333
 21
219.316667
  0
LINE
  8
0
  6
CONTINUOUS
 62
     3
 10
61.703333
 20
219.316667
 11
61.703333
 21
218.816667
  0
LINE
  8
0
  6
CONTINUOUS
 62
     3
 10
61.703333
 20
218.816667
 11
61.703333
 21
221.016667
  0
LINE
  8
0
  6
CONTINUOUS
 62
     3
 10
61.703333
 20
221.016667
 11
63.503333
 21
221.016667
  0
LINE
  8
0
  6
CONTINUOUS
 62
     3
 10
63.503333
 20
221.016667
 11
63.503333
 21
218.816667
  0
LINE
  8
0
  6
CONTINUOUS
 62
     3
 10
97.703333
 20
224.916667
 11
99.503333
 21
224.916667
  0
LINE
  8
0
  6
CONTINUOUS
 62
     3
 10
99.503333
 20
224.916667
 11
99.503333
 21
224.416667
  0
LINE
  8
0
  6
CONTINUOUS
 62
     3
 10
99.503333
 20
224.416667
 11
97.703333
 21
224.416667
  0
LINE
  8
0
  6
CONTINUOUS
 62
     3
 10
97.703333
 20
224.416667
 11
97.703333
 21
224.916667
  0
LINE
  8
0
  6
CONTINUOUS
 62
     3
 10
97.703333
 20
224.916667
 11
97.703333
 21
222.716667
  0
LINE
  8
0
  6
CONTINUOUS
 62
     3
 10
97.703333
 20
222.716667
 11
99.503333
 21
222.716667
  0
LINE
  8
0
  6
CONTINUOUS
 62
     3
 10
99.503333
 20
222.716667
 11
99.503333
 21
224.916667
  0
LINE
  8
0
  6
CONTINUOUS
 62
     3
 10
94.703333
 20
224.916667
 11
96.503333
 21
224.916667
  0
LINE
  8
0
  6
CONTINUOUS
 62
     3
 10
96.503333
 20
224.916667
 11
96.503333
 21
224.416667
  0
LINE
  8
0
  6
CONTINUOUS
 62
     3
 10
96.503333
 20
224.416667
 11
94.703333
 21
224.416667
  0
LINE
  8
0
  6
CONTINUOUS
 62
     3
 10
94.703333
 20
224.416667
 11
94.703333
 21
224.916667
  0
LINE
  8
0
  6
CONTINUOUS
 62
     3
 10
94.703333
 20
224.916667
 11
94.703333
 21
222.716667
  0
LINE
  8
0
  6
CONTINUOUS
 62
     3
 10
94.703333
 20
222.716667
 11
96.503333
 21
222.716667
  0
LINE
  8
0
  6
CONTINUOUS
 62
     3
 10
96.503333
 20
222.716667
 11
96.503333
 21
224.916667
  0
LINE
  8
0
  6
CONTINUOUS
 62
     3
 10
91.703333
 20
224.916667
 11
93.503333
 21
224.916667
  0
LINE
  8
0
  6
CONTINUOUS
 62
     3
 10
93.503333
 20
224.916667
 11
93.503333
 21
224.416667
  0
LINE
  8
0
  6
CONTINUOUS
 62
     3
 10
93.503333
 20
224.416667
 11
91.703333
 21
224.416667
  0
LINE
  8
0
  6
CONTINUOUS
 62
     3
 10
91.703333
 20
224.416667
 11
91.703333
 21
224.916667
  0
LINE
  8
0
  6
CONTINUOUS
 62
     3
 10
91.703333
 20
224.916667
 11
91.703333
 21
222.716667
  0
LINE
  8
0
  6
CONTINUOUS
 62
     3
 10
91.703333
 20
222.716667
 11
93.503333
 21
222.716667
  0
LINE
  8
0
  6
CONTINUOUS
 62
     3
 10
93.503333
 20
222.716667
 11
93.503333
 21
224.916667
  0
LINE
  8
0
  6
CONTINUOUS
 62
     3
 10
88.703333
 20
224.916667
 11
90.503333
 21
224.916667
  0
LINE
  8
0
  6
CONTINUOUS
 62
     3
 10
90.503333
 20
224.916667
 11
90.503333
 21
224.416667
  0
LINE
  8
0
  6
CONTINUOUS
 62
     3
 10
90.503333
 20
224.416667
 11
88.703333
 21
224.416667
  0
LINE
  8
0
  6
CONTINUOUS
 62
     3
 10
88.703333
 20
224.416667
 11
88.703333
 21
224.916667
  0
LINE
  8
0
  6
CONTINUOUS
 62
     3
 10
88.703333
 20
224.916667
 11
88.703333
 21
222.716667
  0
LINE
  8
0
  6
CONTINUOUS
 62
     3
 10
88.703333
 20
222.716667
 11
90.503333
 21
222.716667
  0
LINE
  8
0
  6
CONTINUOUS
 62
     3
 10
90.503333
 20
222.716667
 11
90.503333
 21
224.916667
  0
LINE
  8
0
  6
CONTINUOUS
 62
     3
 10
85.703333
 20
224.916667
 11
87.503333
 21
224.916667
  0
LINE
  8
0
  6
CONTINUOUS
 62
     3
 10
87.503333
 20
224.916667
 11
87.503333
 21
224.416667
  0
LINE
  8
0
  6
CONTINUOUS
 62
     3
 10
87.503333
 20
224.416667
 11
85.703333
 21
224.416667
  0
LINE
  8
0
  6
CONTINUOUS
 62
     3
 10
85.703333
 20
224.416667
 11
85.703333
 21
224.916667
  0
LINE
  8
0
  6
CONTINUOUS
 62
     3
 10
85.703333
 20
224.916667
 11
85.703333
 21
222.716667
  0
LINE
  8
0
  6
CONTINUOUS
 62
     3
 10
85.703333
 20
222.716667
 11
87.503333
 21
222.716667
  0
LINE
  8
0
  6
CONTINUOUS
 62
     3
 10
87.503333
 20
222.716667
 11
87.503333
 21
224.916667
  0
LINE
  8
0
  6
CONTINUOUS
 62
     3
 10
82.703333
 20
224.916667
 11
84.503333
 21
224.916667
  0
LINE
  8
0
  6
CONTINUOUS
 62
     3
 10
84.503333
 20
224.916667
 11
84.503333
 21
224.416667
  0
LINE
  8
0
  6
CONTINUOUS
 62
     3
 10
84.503333
 20
224.416667
 11
82.703333
 21
224.416667
  0
LINE
  8
0
  6
CONTINUOUS
 62
     3
 10
82.703333
 20
224.416667
 11
82.703333
 21
224.916667
  0
LINE
  8
0
  6
CONTINUOUS
 62
     3
 10
82.703333
 20
224.916667
 11
82.703333
 21
222.716667
  0
LINE
  8
0
  6
CONTINUOUS
 62
     3
 10
82.703333
 20
222.716667
 11
84.503333
 21
222.716667
  0
LINE
  8
0
  6
CONTINUOUS
 62
     3
 10
84.503333
 20
222.716667
 11
84.503333
 21
224.916667
  0
LINE
  8
0
  6
CONTINUOUS
 62
     3
 10
79.703333
 20
224.916667
 11
81.503333
 21
224.916667
  0
LINE
  8
0
  6
CONTINUOUS
 62
     3
 10
81.503333
 20
224.916667
 11
81.503333
 21
224.416667
  0
LINE
  8
0
  6
CONTINUOUS
 62
     3
 10
81.503333
 20
224.416667
 11
79.703333
 21
224.416667
  0
LINE
  8
0
  6
CONTINUOUS
 62
     3
 10
79.703333
 20
224.416667
 11
79.703333
 21
224.916667
  0
LINE
  8
0
  6
CONTINUOUS
 62
     3
 10
79.703333
 20
224.916667
 11
79.703333
 21
222.716667
  0
LINE
  8
0
  6
CONTINUOUS
 62
     3
 10
79.703333
 20
222.716667
 11
81.503333
 21
222.716667
  0
LINE
  8
0
  6
CONTINUOUS
 62
     3
 10
81.503333
 20
222.716667
 11
81.503333
 21
224.916667
  0
LINE
  8
0
  6
CONTINUOUS
 62
     3
 10
76.703333
 20
224.916667
 11
78.503333
 21
224.916667
  0
LINE
  8
0
  6
CONTINUOUS
 62
     3
 10
78.503333
 20
224.916667
 11
78.503333
 21
224.416667
  0
LINE
  8
0
  6
CONTINUOUS
 62
     3
 10
78.503333
 20
224.416667
 11
76.703333
 21
224.416667
  0
LINE
  8
0
  6
CONTINUOUS
 62
     3
 10
76.703333
 20
224.416667
 11
76.703333
 21
224.916667
  0
LINE
  8
0
  6
CONTINUOUS
 62
     3
 10
76.703333
 20
224.916667
 11
76.703333
 21
222.716667
  0
LINE
  8
0
  6
CONTINUOUS
 62
     3
 10
76.703333
 20
222.716667
 11
78.503333
 21
222.716667
  0
LINE
  8
0
  6
CONTINUOUS
 62
     3
 10
78.503333
 20
222.716667
 11
78.503333
 21
224.916667
  0
LINE
  8
0
  6
CONTINUOUS
 62
     3
 10
73.703333
 20
224.916667
 11
75.503333
 21
224.916667
  0
LINE
  8
0
  6
CONTINUOUS
 62
     3
 10
75.503333
 20
224.916667
 11
75.503333
 21
224.416667
  0
LINE
  8
0
  6
CONTINUOUS
 62
     3
 10
75.503333
 20
224.416667
 11
73.703333
 21
224.416667
  0
LINE
  8
0
  6
CONTINUOUS
 62
     3
 10
73.703333
 20
224.416667
 11
73.703333
 21
224.916667
  0
LINE
  8
0
  6
CONTINUOUS
 62
     3
 10
73.703333
 20
224.916667
 11
73.703333
 21
222.716667
  0
LINE
  8
0
  6
CONTINUOUS
 62
     3
 10
73.703333
 20
222.716667
 11
75.503333
 21
222.716667
  0
LINE
  8
0
  6
CONTINUOUS
 62
     3
 10
75.503333
 20
222.716667
 11
75.503333
 21
224.916667
  0
LINE
  8
0
  6
CONTINUOUS
 62
     3
 10
70.703333
 20
224.916667
 11
72.503333
 21
224.916667
  0
LINE
  8
0
  6
CONTINUOUS
 62
     3
 10
72.503333
 20
224.916667
 11
72.503333
 21
224.416667
  0
LINE
  8
0
  6
CONTINUOUS
 62
     3
 10
72.503333
 20
224.416667
 11
70.703333
 21
224.416667
  0
LINE
  8
0
  6
CONTINUOUS
 62
     3
 10
70.703333
 20
224.416667
 11
70.703333
 21
224.916667
  0
LINE
  8
0
  6
CONTINUOUS
 62
     3
 10
70.703333
 20
224.916667
 11
70.703333
 21
222.716667
  0
LINE
  8
0
  6
CONTINUOUS
 62
     3
 10
70.703333
 20
222.716667
 11
72.503333
 21
222.716667
  0
LINE
  8
0
  6
CONTINUOUS
 62
     3
 10
72.503333
 20
222.716667
 11
72.503333
 21
224.916667
  0
LINE
  8
0
  6
CONTINUOUS
 62
     3
 10
67.703333
 20
224.916667
 11
69.503333
 21
224.916667
  0
LINE
  8
0
  6
CONTINUOUS
 62
     3
 10
69.503333
 20
224.916667
 11
69.503333
 21
224.416667
  0
LINE
  8
0
  6
CONTINUOUS
 62
     3
 10
69.503333
 20
224.416667
 11
67.703333
 21
224.416667
  0
LINE
  8
0
  6
CONTINUOUS
 62
     3
 10
67.703333
 20
224.416667
 11
67.703333
 21
224.916667
  0
LINE
  8
0
  6
CONTINUOUS
 62
     3
 10
67.703333
 20
224.916667
 11
67.703333
 21
222.716667
  0
LINE
  8
0
  6
CONTINUOUS
 62
     3
 10
67.703333
 20
222.716667
 11
69.503333
 21
222.716667
  0
LINE
  8
0
  6
CONTINUOUS
 62
     3
 10
69.503333
 20
222.716667
 11
69.503333
 21
224.916667
  0
LINE
  8
0
  6
CONTINUOUS
 62
     3
 10
64.703333
 20
224.916667
 11
66.503333
 21
224.916667
  0
LINE
  8
0
  6
CONTINUOUS
 62
     3
 10
66.503333
 20
224.916667
 11
66.503333
 21
224.416667
  0
LINE
  8
0
  6
CONTINUOUS
 62
     3
 10
66.503333
 20
224.416667
 11
64.703333
 21
224.416667
  0
LINE
  8
0
  6
CONTINUOUS
 62
     3
 10
64.703333
 20
224.416667
 11
64.703333
 21
224.916667
  0
LINE
  8
0
  6
CONTINUOUS
 62
     3
 10
64.703333
 20
224.916667
 11
64.703333
 21
222.716667
  0
LINE
  8
0
  6
CONTINUOUS
 62
     3
 10
64.703333
 20
222.716667
 11
66.503333
 21
222.716667
  0
LINE
  8
0
  6
CONTINUOUS
 62
     3
 10
66.503333
 20
222.716667
 11
66.503333
 21
224.916667
  0
LINE
  8
0
  6
CONTINUOUS
 62
     3
 10
61.703333
 20
224.916667
 11
63.503333
 21
224.916667
  0
LINE
  8
0
  6
CONTINUOUS
 62
     3
 10
63.503333
 20
224.916667
 11
63.503333
 21
224.416667
  0
LINE
  8
0
  6
CONTINUOUS
 62
     3
 10
63.503333
 20
224.416667
 11
61.703333
 21
224.416667
  0
LINE
  8
0
  6
CONTINUOUS
 62
     3
 10
61.703333
 20
224.416667
 11
61.703333
 21
224.916667
  0
LINE
  8
0
  6
CONTINUOUS
 62
     3
 10
61.703333
 20
224.916667
 11
61.703333
 21
222.716667
  0
LINE
  8
0
  6
CONTINUOUS
 62
     3
 10
61.703333
 20
222.716667
 11
63.503333
 21
222.716667
  0
LINE
  8
0
  6
CONTINUOUS
 62
     3
 10
63.503333
 20
222.716667
 11
63.503333
 21
224.916667
  0
LINE
  8
0
  6
CONTINUOUS
 62
     3
 10
58.103333
 20
226.116667
 11
56.103333
 21
226.116667
  0
LINE
  8
0
  6
CONTINUOUS
 62
     3
 10
105.103333
 20
226.116667
 11
103.103333
 21
226.116667
  0
LINE
  8
0
  6
CONTINUOUS
 62
     3
 10
103.103333
 20
156.316667
 11
58.103333
 21
156.316667
  0
LINE
  8
0
  6
CONTINUOUS
 62
     3
 10
58.103333
 20
156.316667
 11
58.103333
 21
165.316667
  0
LINE
  8
0
  6
CONTINUOUS
 62
     3
 10
58.103333
 20
165.316667
 11
103.103333
 21
165.316667
  0
LINE
  8
0
  6
CONTINUOUS
 62
     3
 10
103.103333
 20
165.316667
 11
103.103333
 21
156.316667
  0
LINE
  8
0
  6
CONTINUOUS
 62
     3
 10
97.703333
 20
165.316667
 11
97.703333
 21
170.316667
  0
LINE
  8
0
  6
CONTINUOUS
 62
     3
 10
97.703333
 20
170.316667
 11
99.503333
 21
170.316667
  0
LINE
  8
0
  6
CONTINUOUS
 62
     3
 10
99.503333
 20
170.316667
 11
99.503333
 21
165.316667
  0
CIRCLE
  8
0
  6
CONTINUOUS
 62
     3
 10
98.603333
 20
169.316667
 40
0.6
  0
LINE
  8
0
  6
CONTINUOUS
 62
     3
 10
94.703333
 20
165.316667
 11
94.703333
 21
170.316667
  0
LINE
  8
0
  6
CONTINUOUS
 62
     3
 10
94.703333
 20
170.316667
 11
96.503333
 21
170.316667
  0
LINE
  8
0
  6
CONTINUOUS
 62
     3
 10
96.503333
 20
170.316667
 11
96.503333
 21
165.316667
  0
CIRCLE
  8
0
  6
CONTINUOUS
 62
     3
 10
95.603333
 20
169.316667
 40
0.6
  0
LINE
  8
0
  6
CONTINUOUS
 62
     3
 10
91.703333
 20
165.316667
 11
91.703333
 21
170.316667
  0
LINE
  8
0
  6
CONTINUOUS
 62
     3
 10
91.703333
 20
170.316667
 11
93.503333
 21
170.316667
  0
LINE
  8
0
  6
CONTINUOUS
 62
     3
 10
93.503333
 20
170.316667
 11
93.503333
 21
165.316667
  0
CIRCLE
  8
0
  6
CONTINUOUS
 62
     3
 10
92.603333
 20
169.316667
 40
0.6
  0
LINE
  8
0
  6
CONTINUOUS
 62
     3
 10
88.703333
 20
165.316667
 11
88.703333
 21
170.316667
  0
LINE
  8
0
  6
CONTINUOUS
 62
     3
 10
88.703333
 20
170.316667
 11
90.503333
 21
170.316667
  0
LINE
  8
0
  6
CONTINUOUS
 62
     3
 10
90.503333
 20
170.316667
 11
90.503333
 21
165.316667
  0
CIRCLE
  8
0
  6
CONTINUOUS
 62
     3
 10
89.603333
 20
169.316667
 40
0.6
  0
LINE
  8
0
  6
CONTINUOUS
 62
     3
 10
85.703333
 20
165.316667
 11
85.703333
 21
170.316667
  0
LINE
  8
0
  6
CONTINUOUS
 62
     3
 10
85.703333
 20
170.316667
 11
87.503333
 21
170.316667
  0
LINE
  8
0
  6
CONTINUOUS
 62
     3
 10
87.503333
 20
170.316667
 11
87.503333
 21
165.316667
  0
CIRCLE
  8
0
  6
CONTINUOUS
 62
     3
 10
86.603333
 20
169.316667
 40
0.6
  0
LINE
  8
0
  6
CONTINUOUS
 62
     3
 10
82.703333
 20
165.316667
 11
82.703333
 21
170.316667
  0
LINE
  8
0
  6
CONTINUOUS
 62
     3
 10
82.703333
 20
170.316667
 11
84.503333
 21
170.316667
  0
LINE
  8
0
  6
CONTINUOUS
 62
     3
 10
84.503333
 20
170.316667
 11
84.503333
 21
165.316667
  0
CIRCLE
  8
0
  6
CONTINUOUS
 62
     3
 10
83.603333
 20
169.316667
 40
0.6
  0
LINE
  8
0
  6
CONTINUOUS
 62
     3
 10
79.703333
 20
165.316667
 11
79.703333
 21
170.316667
  0
LINE
  8
0
  6
CONTINUOUS
 62
     3
 10
79.703333
 20
170.316667
 11
81.503333
 21
170.316667
  0
LINE
  8
0
  6
CONTINUOUS
 62
     3
 10
81.503333
 20
170.316667
 11
81.503333
 21
165.316667
  0
CIRCLE
  8
0
  6
CONTINUOUS
 62
     3
 10
80.603333
 20
169.316667
 40
0.6
  0
LINE
  8
0
  6
CONTINUOUS
 62
     3
 10
76.703333
 20
165.316667
 11
76.703333
 21
170.316667
  0
LINE
  8
0
  6
CONTINUOUS
 62
     3
 10
76.703333
 20
170.316667
 11
78.503333
 21
170.316667
  0
LINE
  8
0
  6
CONTINUOUS
 62
     3
 10
78.503333
 20
170.316667
 11
78.503333
 21
165.316667
  0
CIRCLE
  8
0
  6
CONTINUOUS
 62
     3
 10
77.603333
 20
169.316667
 40
0.6
  0
LINE
  8
0
  6
CONTINUOUS
 62
     3
 10
73.703333
 20
165.316667
 11
73.703333
 21
170.316667
  0
LINE
  8
0
  6
CONTINUOUS
 62
     3
 10
73.703333
 20
170.316667
 11
75.503333
 21
170.316667
  0
LINE
  8
0
  6
CONTINUOUS
 62
     3
 10
75.503333
 20
170.316667
 11
75.503333
 21
165.316667
  0
CIRCLE
  8
0
  6
CONTINUOUS
 62
     3
 10
74.603333
 20
169.316667
 40
0.6
  0
LINE
  8
0
  6
CONTINUOUS
 62
     3
 10
70.703333
 20
165.316667
 11
70.703333
 21
170.316667
  0
LINE
  8
0
  6
CONTINUOUS
 62
     3
 10
70.703333
 20
170.316667
 11
72.503333
 21
170.316667
  0
LINE
  8
0
  6
CONTINUOUS
 62
     3
 10
72.503333
 20
170.316667
 11
72.503333
 21
165.316667
  0
CIRCLE
  8
0
  6
CONTINUOUS
 62
     3
 10
71.603333
 20
169.316667
 40
0.6
  0
LINE
  8
0
  6
CONTINUOUS
 62
     3
 10
67.703333
 20
165.316667
 11
67.703333
 21
170.316667
  0
LINE
  8
0
  6
CONTINUOUS
 62
     3
 10
67.703333
 20
170.316667
 11
69.503333
 21
170.316667
  0
LINE
  8
0
  6
CONTINUOUS
 62
     3
 10
69.503333
 20
170.316667
 11
69.503333
 21
165.316667
  0
CIRCLE
  8
0
  6
CONTINUOUS
 62
     3
 10
68.603333
 20
169.316667
 40
0.6
  0
LINE
  8
0
  6
CONTINUOUS
 62
     3
 10
64.703333
 20
165.316667
 11
64.703333
 21
170.316667
  0
LINE
  8
0
  6
CONTINUOUS
 62
     3
 10
64.703333
 20
170.316667
 11
66.503333
 21
170.316667
  0
LINE
  8
0
  6
CONTINUOUS
 62
     3
 10
66.503333
 20
170.316667
 11
66.503333
 21
165.316667
  0
CIRCLE
  8
0
  6
CONTINUOUS
 62
     3
 10
65.603333
 20
169.316667
 40
0.6
  0
LINE
  8
0
  6
CONTINUOUS
 62
     3
 10
61.703333
 20
165.316667
 11
61.703333
 21
170.316667
  0
LINE
  8
0
  6
CONTINUOUS
 62
     3
 10
61.703333
 20
170.316667
 11
63.503333
 21
170.316667
  0
LINE
  8
0
  6
CONTINUOUS
 62
     3
 10
63.503333
 20
170.316667
 11
63.503333
 21
165.316667
  0
CIRCLE
  8
0
  6
CONTINUOUS
 62
     3
 10
62.603333
 20
169.316667
 40
0.6
  0
LINE
  8
0
  6
CONTINUOUS
 62
     3
 10
34.67
 20
157.566667
 11
34.67
 21
173.45
  0
LINE
  8
0
  6
CONTINUOUS
 62
     3
 10
126.52
 20
157.166667
 11
126.52
 21
173.45
  0
LINE
  8
0
  6
CONTINUOUS
 62
     3
 10
136.27
 20
78.7
 11
136.78763809
 21
80.631851653
  0
LINE
  8
0
  6
CONTINUOUS
 62
     3
 10
136.27
 20
78.7
 11
135.75236191
 21
80.631851653
  0
LINE
  8
0
  6
CONTINUOUS
 62
     3
 10
136.27
 20
78.7
 11
136.27
 21
126.7
  0
LINE
  8
0
  6
CONTINUOUS
 62
     3
 10
136.27
 20
126.7
 11
135.75236191
 21
124.768148347
  0
LINE
  8
0
  6
CONTINUOUS
 62
     3
 10
136.27
 20
126.7
 11
136.78763809
 21
124.768148347
  0
TEXT
  8
0
  6
CONTINUOUS
 62
     3
 10
135.27
 20
101.1
 30
0.0
 40
2.0
  1
４８
 50
90.0
 41
0.8
 51
0.0
  7
KANJI4
  0
LINE
  8
0
  6
CONTINUOUS
 62
     3
 10
129.72
 20
78.7
 11
137.453333
 21
78.7
  0
LINE
  8
0
  6
CONTINUOUS
 62
     3
 10
129.72
 20
126.7
 11
137.753333
 21
126.7
  0
POLYLINE
  8
0
  6
CONTINUOUS
 62
     3
 66
     1
  0
VERTEX
  8
0
  6
CONTINUOUS
 62
     3
 10
146.903333
 20
124.466667
  0
VERTEX
  8
0
  6
CONTINUOUS
 62
     3
 10
146.403333
 20
124.466667
  0
VERTEX
  8
0
  6
CONTINUOUS
 62
     3
 10
146.403333
 20
81.466667
  0
VERTEX
  8
0
  6
CONTINUOUS
 62
     3
 10
146.903333
 20
81.466667
  0
SEQEND
  0
LINE
  8
0
  6
CONTINUOUS
 62
     3
 10
146.903333
 20
78.966667
 11
147.903333
 21
78.966667
  0
LINE
  8
0
  6
CONTINUOUS
 62
     3
 10
147.903333
 20
78.966667
 11
147.903333
 21
126.966667
  0
LINE
  8
0
  6
CONTINUOUS
 62
     3
 10
147.903333
 20
126.966667
 11
146.903333
 21
126.966667
  0
LINE
  8
0
  6
CONTINUOUS
 62
     3
 10
146.903333
 20
126.966667
 11
146.903333
 21
78.966667
  0
LINE
  8
0
  6
CONTINUOUS
 62
     3
 10
141.703333
 20
78.966667
 11
146.903333
 21
78.966667
  0
LINE
  8
0
  6
CONTINUOUS
 62
     3
 10
146.903333
 20
78.966667
 11
141.703333
 21
78.966667
  0
LINE
  8
0
  6
CONTINUOUS
 62
     3
 10
141.703333
 20
78.966667
 11
141.703333
 21
80.466667
  0
LINE
  8
0
  6
CONTINUOUS
 62
     3
 10
141.703333
 20
80.466667
 11
141.703333
 21
78.966667
  0
LINE
  8
0
  6
CONTINUOUS
 62
     3
 10
141.703333
 20
80.466667
 11
141.903333
 21
80.466667
  0
LINE
  8
0
  6
CONTINUOUS
 62
     3
 10
141.903333
 20
80.466667
 11
141.703333
 21
80.466667
  0
LINE
  8
0
  6
CONTINUOUS
 62
     3
 10
141.903333
 20
80.466667
 11
141.903333
 21
125.466667
  0
LINE
  8
0
  6
CONTINUOUS
 62
     3
 10
141.903333
 20
125.466667
 11
141.603333
 21
125.466667
  0
LINE
  8
0
  6
CONTINUOUS
 62
     3
 10
141.603333
 20
125.466667
 11
141.603333
 21
126.966667
  0
LINE
  8
0
  6
CONTINUOUS
 62
     3
 10
141.603333
 20
126.966667
 11
146.903333
 21
126.966667
  0
LINE
  8
0
  6
CONTINUOUS
 62
     3
 10
147.903333
 20
125.666667
 11
160.103333
 21
125.466667
  0
LINE
  8
0
  6
CONTINUOUS
 62
     3
 10
147.903333
 20
80.266667
 11
160.103333
 21
80.466667
  0
LINE
  8
0
  6
CONTINUOUS
 62
     3
 10
160.103333
 20
80.466667
 11
160.103333
 21
125.466667
  0
LINE
  8
0
  6
CONTINUOUS
 62
     3
 10
160.103333
 20
109.966667
 11
147.903333
 21
109.966667
  0
LINE
  8
0
  6
CONTINUOUS
 62
     3
 10
160.103333
 20
96.966667
 11
147.903333
 21
96.966667
  0
LINE
  8
0
  6
CONTINUOUS
 62
     3
 10
153.403333
 20
97.966667
 11
160.103333
 21
97.966667
  0
LINE
  8
0
  6
CONTINUOUS
 62
     3
 10
160.103333
 20
97.966667
 11
160.103333
 21
108.966667
  0
LINE
  8
0
  6
CONTINUOUS
 62
     3
 10
160.103333
 20
108.966667
 11
153.403333
 21
108.966667
  0
LINE
  8
0
  6
CONTINUOUS
 62
     3
 10
153.403333
 20
108.966667
 11
153.403333
 21
97.966667
  0
LINE
  8
0
  6
CONTINUOUS
 62
     3
 10
148.403333
 20
97.966667
 11
153.403333
 21
97.966667
  0
LINE
  8
0
  6
CONTINUOUS
 62
     3
 10
153.403333
 20
97.966667
 11
153.403333
 21
108.966667
  0
LINE
  8
0
  6
CONTINUOUS
 62
     3
 10
153.403333
 20
108.966667
 11
148.403333
 21
108.966667
  0
LINE
  8
0
  6
CONTINUOUS
 62
     3
 10
148.403333
 20
108.966667
 11
148.403333
 21
97.966667
  0
LINE
  8
0
  6
CONTINUOUS
 62
     3
 10
148.903333
 20
108.966667
 11
148.903333
 21
97.966667
  0
LINE
  8
0
  6
CONTINUOUS
 62
     3
 10
149.403333
 20
108.966667
 11
149.403333
 21
97.966667
  0
LINE
  8
0
  6
CONTINUOUS
 62
     3
 10
149.903333
 20
108.966667
 11
149.903333
 21
97.966667
  0
LINE
  8
0
  6
CONTINUOUS
 62
     3
 10
150.403333
 20
108.966667
 11
150.403333
 21
97.966667
  0
LINE
  8
0
  6
CONTINUOUS
 62
     3
 10
150.903333
 20
108.966667
 11
150.903333
 21
97.966667
  0
LINE
  8
0
  6
CONTINUOUS
 62
     3
 10
151.403333
 20
108.966667
 11
151.403333
 21
97.966667
  0
LINE
  8
0
  6
CONTINUOUS
 62
     3
 10
151.903333
 20
108.966667
 11
151.903333
 21
97.966667
  0
LINE
  8
0
  6
CONTINUOUS
 62
     3
 10
152.403333
 20
108.966667
 11
152.403333
 21
97.966667
  0
LINE
  8
0
  6
CONTINUOUS
 62
     3
 10
152.903333
 20
108.966667
 11
152.903333
 21
97.966667
  0
LINE
  8
0
  6
CONTINUOUS
 62
     3
 10
160.103333
 20
91.966667
 11
160.103333
 21
85.966667
  0
LINE
  8
0
  6
CONTINUOUS
 62
     3
 10
141.72
 20
69.2
 11
139.788148347
 21
69.71763809
  0
LINE
  8
0
  6
CONTINUOUS
 62
     3
 10
141.72
 20
69.2
 11
139.788148347
 21
68.68236191
  0
LINE
  8
0
  6
CONTINUOUS
 62
     3
 10
133.92
 20
69.2
 11
141.72
 21
69.2
  0
LINE
  8
0
  6
CONTINUOUS
 62
     3
 10
141.72
 20
69.2
 11
147.92
 21
69.2
  0
LINE
  8
0
  6
CONTINUOUS
 62
     3
 10
147.92
 20
69.2
 11
150.92
 21
69.2
  0
LINE
  8
0
  6
CONTINUOUS
 62
     3
 10
147.92
 20
69.2
 11
149.851851653
 21
68.68236191
  0
LINE
  8
0
  6
CONTINUOUS
 62
     3
 10
147.92
 20
69.2
 11
149.851851653
 21
69.71763809
  0
LINE
  8
0
  6
CONTINUOUS
 62
     3
 10
147.92
 20
77.95
 11
147.92
 21
68.2
  0
TEXT
  8
0
  6
CONTINUOUS
 62
     3
 10
133.92
 20
70.2
 30
0.0
 40
2.0
  1
６．３
 50
0.0
 41
0.8
 51
0.0
  7
KANJI4
  0
LINE
  8
0
  6
CONTINUOUS
 62
     3
 10
147.92
 20
69.2
 11
149.851851653
 21
68.68236191
  0
LINE
  8
0
  6
CONTINUOUS
 62
     3
 10
147.92
 20
69.2
 11
149.851851653
 21
69.71763809
  0
LINE
  8
0
  6
CONTINUOUS
 62
     3
 10
147.92
 20
69.2
 11
160.07
 21
69.2
  0
LINE
  8
0
  6
CONTINUOUS
 62
     3
 10
160.07
 20
69.2
 11
158.138148347
 21
69.71763809
  0
LINE
  8
0
  6
CONTINUOUS
 62
     3
 10
160.07
 20
69.2
 11
158.138148347
 21
68.68236191
  0
LINE
  8
0
  6
CONTINUOUS
 62
     3
 10
160.07
 20
79.45
 11
160.07
 21
68.2
  0
TEXT
  8
0
  6
CONTINUOUS
 62
     3
 10
150.795
 20
70.2
 30
0.0
 40
2.0
  1
１２．２
 50
0.0
 41
0.8
 51
0.0
  7
KANJI4
  0
LINE
  8
0
  6
CONTINUOUS
 62
     3
 10
160.103333
 20
85.216667
 11
160.103333
 21
94.216667
  0
LINE
  8
0
  6
CONTINUOUS
 62
     3
 10
169.106666
 20
94.216667
 11
169.106666
 21
85.216667
  0
LINE
  8
0
  6
CONTINUOUS
 62
     3
 10
169.106666
 20
92.766667
 11
174.106666
 21
92.766667
  0
LINE
  8
0
  6
CONTINUOUS
 62
     3
 10
174.106666
 20
92.766667
 11
174.106666
 21
92.266667
  0
LINE
  8
0
  6
CONTINUOUS
 62
     3
 10
174.106666
 20
92.266667
 11
169.106666
 21
92.266667
  0
LINE
  8
0
  6
CONTINUOUS
 62
     3
 10
169.106666
 20
87.166667
 11
174.106666
 21
87.166667
  0
LINE
  8
0
  6
CONTINUOUS
 62
     3
 10
174.106666
 20
87.166667
 11
174.106666
 21
86.666667
  0
LINE
  8
0
  6
CONTINUOUS
 62
     3
 10
174.106666
 20
86.666667
 11
169.106666
 21
86.666667
  0
LINE
  8
0
  6
CONTINUOUS
 62
     3
 10
160.103333
 20
94.216667
 11
169.106666
 21
94.216667
  0
LINE
  8
0
  6
CONTINUOUS
 62
     3
 10
169.106666
 20
85.216667
 11
160.103333
 21
85.216667
  0
LINE
  8
0
  6
CONTINUOUS
 62
     3
 10
147.903333
 20
125.566667
 11
186.403333
 21
140.701149759
  0
LINE
  8
0
  6
CONTINUOUS
 62
     3
 10
147.903333
 20
80.266667
 11
186.253333
 21
95.342184241
  0
LINE
  8
0
  6
CONTINUOUS
 62
     3
 10
184.373555086
 20
139.903237061
 11
183.855916996
 21
137.971385409
  0
LINE
  8
0
  6
CONTINUOUS
 62
     3
 10
184.373555086
 20
139.903237061
 11
184.891193176
 21
137.971385409
  0
LINE
  8
0
  6
CONTINUOUS
 62
     3
 10
184.373555086
 20
139.903237061
 11
184.373555086
 21
94.603237061
  0
LINE
  8
0
  6
CONTINUOUS
 62
     3
 10
184.373555086
 20
94.603237061
 11
184.891193176
 21
96.535088714
  0
LINE
  8
0
  6
CONTINUOUS
 62
     3
 10
184.373555086
 20
94.603237061
 11
183.855916996
 21
96.535088714
  0
TEXT
  8
0
  6
CONTINUOUS
 62
     3
 10
183.373555086
 20
114.053237061
 30
0.0
 40
2.0
  1
４４．９
 50
90.0
 41
0.8
 51
0.0
  7
KANJI4
  0
LINE
  8
0
  6
CONTINUOUS
 62
     3
 10
161.12
 20
125.45
 11
179.723555086
 21
125.45
  0
LINE
  8
0
  6
CONTINUOUS
 62
     3
 10
161.12
 20
80.45
 11
180.173555086
 21
80.45
  0
POLYLINE
  8
0
  6
CONTINUOUS
 62
     3
 66
     1
  0
VERTEX
  8
0
  6
CONTINUOUS
 62
     3
 10
178.37
 20
80.45
  0
VERTEX
  8
0
  6
CONTINUOUS
 62
     3
 10
178.37
 20
125.45
  0
VERTEX
  8
0
  6
CONTINUOUS
 62
     3
 10
177.85236191
 20
123.518148347
  0
SEQEND
  0
LINE
  8
0
  6
CONTINUOUS
 62
     3
 10
178.37
 20
125.45
 11
178.88763809
 21
123.518148347
  0
TEXT
  8
0
  6
CONTINUOUS
 62
     3
 10
177.37
 20
99.75
 30
0.0
 40
2.0
  1
４４．８
 50
90.0
 41
0.8
 51
0.0
  7
KANJI4
  0
LINE
  8
0
  6
CONTINUOUS
 62
     3
 10
178.37
 20
80.45
 11
178.88763809
 21
82.381851653
  0
LINE
  8
0
  6
CONTINUOUS
 62
     3
 10
178.37
 20
80.45
 11
177.85236191
 21
82.381851653
  0
LINE
  8
0
  6
CONTINUOUS
 62
     3
 10
160.07
 20
69.2
 11
163.07
 21
69.2
  0
LINE
  8
0
  6
CONTINUOUS
 62
     3
 10
160.07
 20
69.2
 11
162.001851653
 21
68.68236191
  0
LINE
  8
0
  6
CONTINUOUS
 62
     3
 10
160.07
 20
69.2
 11
162.001851653
 21
69.71763809
  0
LINE
  8
0
  6
CONTINUOUS
 62
     3
 10
160.07
 20
69.2
 11
162.001851653
 21
68.68236191
  0
LINE
  8
0
  6
CONTINUOUS
 62
     3
 10
160.07
 20
69.2
 11
162.001851653
 21
69.71763809
  0
LINE
  8
0
  6
CONTINUOUS
 62
     3
 10
160.07
 20
69.2
 11
174.07
 21
69.2
  0
LINE
  8
0
  6
CONTINUOUS
 62
     3
 10
174.07
 20
69.2
 11
172.138148347
 21
69.71763809
  0
LINE
  8
0
  6
CONTINUOUS
 62
     3
 10
174.07
 20
69.2
 11
172.138148347
 21
68.68236191
  0
TEXT
  8
0
  6
CONTINUOUS
 62
     3
 10
165.695
 20
70.2
 30
0.0
 40
2.0
  1
１４
 50
0.0
 41
0.8
 51
0.0
  7
KANJI4
  0
LINE
  8
0
  6
CONTINUOUS
 62
     3
 10
141.72
 20
77.95
 11
141.72
 21
60.6
  0
LINE
  8
0
  6
CONTINUOUS
 62
     3
 10
174.07
 20
85.8
 11
174.07
 21
60.6
  0
LINE
  8
0
  6
CONTINUOUS
 62
     3
 10
141.72
 20
62.65
 11
144.72
 21
62.65
  0
LINE
  8
0
  6
CONTINUOUS
 62
     3
 10
141.72
 20
62.65
 11
143.651851653
 21
62.13236191
  0
LINE
  8
0
  6
CONTINUOUS
 62
     3
 10
141.72
 20
62.65
 11
143.651851653
 21
63.16763809
  0
LINE
  8
0
  6
CONTINUOUS
 62
     3
 10
141.72
 20
62.65
 11
143.651851653
 21
62.13236191
  0
LINE
  8
0
  6
CONTINUOUS
 62
     3
 10
141.72
 20
62.65
 11
143.651851653
 21
63.16763809
  0
LINE
  8
0
  6
CONTINUOUS
 62
     3
 10
141.72
 20
62.65
 11
174.07
 21
62.65
  0
LINE
  8
0
  6
CONTINUOUS
 62
     3
 10
174.07
 20
62.65
 11
172.138148347
 21
63.16763809
  0
LINE
  8
0
  6
CONTINUOUS
 62
     3
 10
174.07
 20
62.65
 11
172.138148347
 21
62.13236191
  0
TEXT
  8
0
  6
CONTINUOUS
 62
     3
 10
155.095
 20
63.65
 30
0.0
 40
2.0
  1
３２．５
 50
0.0
 41
0.8
 51
0.0
  7
KANJI4
  0
TEXT
  8
0
  6
CONTINUOUS
 62
     3
 10
77.395
 20
173.45
 30
0.0
 40
2.0
  1
９１．６
 50
0.0
 41
0.8
 51
0.0
  7
KANJI4
  0
TEXT
  8
0
  6
CONTINUOUS
 62
     3
 10
73.22
 20
152.8
 30
0.0
 40
2.0
  1
９１．８５
 50
0.0
 41
0.8
 51
0.0
  7
KANJI4
  0
ENDSEC
  0
EOF
