  0
SECTION
  2
HEADER
  9
$ACADVER
  1
AC1015
  9
$ACADMAINTVER
 70
     6
  9
$DWGCODEPAGE
  3
ANSI_932
  9
$INSBASE
 10
0.0
 20
0.0
 30
0.0
  9
$EXTMIN
 10
64.548720558
 20
10.5
 30
0.0
  9
$EXTMAX
 10
268.0
 20
170.5
 30
0.4
  9
$LIMMIN
 10
0.0
 20
0.0
  9
$LIMMAX
 10
297.0
 20
210.0
  9
$ORTHOMODE
 70
     0
  9
$REGENMODE
 70
     1
  9
$FILLMODE
 70
     1
  9
$QTEXTMODE
 70
     0
  9
$MIRRTEXT
 70
     1
  9
$LTSCALE
 40
1.0
  9
$ATTMODE
 70
     1
  9
$TEXTSIZE
 40
0.2
  9
$TRACEWID
 40
0.05
  9
$TEXTSTYLE
  7
STANDARD
  9
$CLAYER
  8
0
  9
$CELTYPE
  6
CONTINUOUS
  9
$CECOLOR
 62
   256
  9
$CELTSCALE
 40
1.0
  9
$DISPSILH
 70
     0
  9
$DIMSCALE
 40
1.0
  9
$DIMASZ
 40
0.18
  9
$DIMEXO
 40
0.0625
  9
$DIMDLI
 40
0.38
  9
$DIMRND
 40
0.0
  9
$DIMDLE
 40
0.0
  9
$DIMEXE
 40
0.18
  9
$DIMTP
 40
0.0
  9
$DIMTM
 40
0.0
  9
$DIMTXT
 40
0.18
  9
$DIMCEN
 40
0.09
  9
$DIMTSZ
 40
0.0
  9
$DIMTOL
 70
     0
  9
$DIMLIM
 70
     0
  9
$DIMTIH
 70
     1
  9
$DIMTOH
 70
     1
  9
$DIMSE1
 70
     0
  9
$DIMSE2
 70
     0
  9
$DIMTAD
 70
     0
  9
$DIMZIN
 70
     0
  9
$DIMBLK
  1

  9
$DIMASO
 70
     1
  9
$DIMSHO
 70
     1
  9
$DIMPOST
  1

  9
$DIMAPOST
  1

  9
$DIMALT
 70
     0
  9
$DIMALTD
 70
     2
  9
$DIMALTF
 40
25.4
  9
$DIMLFAC
 40
1.0
  9
$DIMTOFL
 70
     0
  9
$DIMTVP
 40
0.0
  9
$DIMTIX
 70
     0
  9
$DIMSOXD
 70
     0
  9
$DIMSAH
 70
     0
  9
$DIMBLK1
  1

  9
$DIMBLK2
  1

  9
$DIMSTYLE
  2
Standard
  9
$DIMCLRD
 70
     0
  9
$DIMCLRE
 70
     0
  9
$DIMCLRT
 70
     0
  9
$DIMTFAC
 40
1.0
  9
$DIMGAP
 40
0.09
  9
$DIMJUST
 70
     0
  9
$DIMSD1
 70
     0
  9
$DIMSD2
 70
     0
  9
$DIMTOLJ
 70
     1
  9
$DIMTZIN
 70
     0
  9
$DIMALTZ
 70
     0
  9
$DIMALTTZ
 70
     0
  9
$DIMUPT
 70
     0
  9
$DIMDEC
 70
     4
  9
$DIMTDEC
 70
     4
  9
$DIMALTU
 70
     2
  9
$DIMALTTD
 70
     2
  9
$DIMTXSTY
  7
STANDARD
  9
$DIMAUNIT
 70
     0
  9
$DIMADEC
 70
     0
  9
$DIMALTRND
 40
0.0
  9
$DIMAZIN
 70
     0
  9
$DIMDSEP
 70
    46
  9
$DIMATFIT
 70
     3
  9
$DIMFRAC
 70
     0
  9
$DIMLDRBLK
  1

  9
$DIMLUNIT
 70
     2
  9
$DIMLWD
 70
    -2
  9
$DIMLWE
 70
    -2
  9
$DIMTMOVE
 70
     0
  9
$LUNITS
 70
     2
  9
$LUPREC
 70
     4
  9
$SKETCHINC
 40
0.1
  9
$FILLETRAD
 40
0.0
  9
$AUNITS
 70
     0
  9
$AUPREC
 70
     0
  9
$MENU
  1
.
  9
$ELEVATION
 40
0.0
  9
$PELEVATION
 40
0.0
  9
$THICKNESS
 40
0.0
  9
$LIMCHECK
 70
     0
  9
$CHAMFERA
 40
0.0
  9
$CHAMFERB
 40
0.0
  9
$CHAMFERC
 40
0.0
  9
$CHAMFERD
 40
0.0
  9
$SKPOLY
 70
     0
  9
$TDCREATE
 40
2452698.600917743
  9
$TDUCREATE
 40
2452698.225917743
  9
$TDUPDATE
 40
2452723.697623032
  9
$TDUUPDATE
 40
2452723.322623032
  9
$TDINDWG
 40
0.0153579398
  9
$TDUSRTIMER
 40
0.0153559722
  9
$USRTIMER
 70
     1
  9
$ANGBASE
 50
0.0
  9
$ANGDIR
 70
     0
  9
$PDMODE
 70
     0
  9
$PDSIZE
 40
0.0
  9
$PLINEWID
 40
0.0
  9
$SPLFRAME
 70
     0
  9
$SPLINETYPE
 70
     6
  9
$SPLINESEGS
 70
     8
  9
$HANDSEED
  5
307
  9
$SURFTAB1
 70
     6
  9
$SURFTAB2
 70
     6
  9
$SURFTYPE
 70
     6
  9
$SURFU
 70
     6
  9
$SURFV
 70
     6
  9
$UCSBASE
  2

  9
$UCSNAME
  2

  9
$UCSORG
 10
0.0
 20
0.0
 30
0.0
  9
$UCSXDIR
 10
1.0
 20
0.0
 30
0.0
  9
$UCSYDIR
 10
0.0
 20
1.0
 30
0.0
  9
$UCSORTHOREF
  2

  9
$UCSORTHOVIEW
 70
     0
  9
$UCSORGTOP
 10
0.0
 20
0.0
 30
0.0
  9
$UCSORGBOTTOM
 10
0.0
 20
0.0
 30
0.0
  9
$UCSORGLEFT
 10
0.0
 20
0.0
 30
0.0
  9
$UCSORGRIGHT
 10
0.0
 20
0.0
 30
0.0
  9
$UCSORGFRONT
 10
0.0
 20
0.0
 30
0.0
  9
$UCSORGBACK
 10
0.0
 20
0.0
 30
0.0
  9
$PUCSBASE
  2

  9
$PUCSNAME
  2

  9
$PUCSORG
 10
0.0
 20
0.0
 30
0.0
  9
$PUCSXDIR
 10
1.0
 20
0.0
 30
0.0
  9
$PUCSYDIR
 10
0.0
 20
1.0
 30
0.0
  9
$PUCSORTHOREF
  2

  9
$PUCSORTHOVIEW
 70
     0
  9
$PUCSORGTOP
 10
0.0
 20
0.0
 30
0.0
  9
$PUCSORGBOTTOM
 10
0.0
 20
0.0
 30
0.0
  9
$PUCSORGLEFT
 10
0.0
 20
0.0
 30
0.0
  9
$PUCSORGRIGHT
 10
0.0
 20
0.0
 30
0.0
  9
$PUCSORGFRONT
 10
0.0
 20
0.0
 30
0.0
  9
$PUCSORGBACK
 10
0.0
 20
0.0
 30
0.0
  9
$USERI1
 70
     0
  9
$USERI2
 70
     0
  9
$USERI3
 70
     0
  9
$USERI4
 70
     0
  9
$USERI5
 70
     0
  9
$USERR1
 40
0.0
  9
$USERR2
 40
0.0
  9
$USERR3
 40
0.0
  9
$USERR4
 40
0.0
  9
$USERR5
 40
0.0
  9
$WORLDVIEW
 70
     1
  9
$SHADEDGE
 70
     3
  9
$SHADEDIF
 70
    70
  9
$TILEMODE
 70
     1
  9
$MAXACTVP
 70
    64
  9
$PINSBASE
 10
0.0
 20
0.0
 30
0.0
  9
$PLIMCHECK
 70
     0
  9
$PEXTMIN
 10
1.122749993181602
 20
0.7804166500962629
 30
0.0
  9
$PEXTMAX
 10
10.10474993863443
 20
7.023749850866361
 30
0.0
  9
$PLIMMIN
 10
-0.2312499519408218
 20
-0.2312499894870548
  9
$PLIMMAX
 10
11.4587498462106
 20
8.035416452903447
  9
$UNITMODE
 70
     0
  9
$VISRETAIN
 70
     1
  9
$PLINEGEN
 70
     0
  9
$PSLTSCALE
 70
     1
  9
$TREEDEPTH
 70
  3020
  9
$CMLSTYLE
  2
Standard
  9
$CMLJUST
 70
     0
  9
$CMLSCALE
 40
1.0
  9
$PROXYGRAPHICS
 70
     1
  9
$MEASUREMENT
 70
     0
  9
$CELWEIGHT
370
    -1
  9
$ENDCAPS
280
     0
  9
$JOINSTYLE
280
     0
  9
$LWDISPLAY
290
     0
  9
$INSUNITS
 70
     0
  9
$HYPERLINKBASE
  1

  9
$STYLESHEET
  1

  9
$XEDIT
290
     1
  9
$CEPSNTYPE
380
     0
  9
$PSTYLEMODE
290
     1
  9
$FINGERPRINTGUID
  2
{24824507-C46C-48A0-8A9A-49CE8F732D39}
  9
$VERSIONGUID
  2
{DCFEE1FA-5E13-11D7-9C19-0040267F10D4}
  9
$EXTNAMES
290
     1
  9
$PSVPSCALE
 40
0.0
  9
$OLESTARTUP
290
     0
  0
ENDSEC
  0
SECTION
  2
CLASSES
  0
CLASS
  1
ACDBDICTIONARYWDFLT
  2
AcDbDictionaryWithDefault
  3
AutoCAD 2000
 90
        0
280
     0
281
     0
  0
CLASS
  1
ACDBPLACEHOLDER
  2
AcDbPlaceHolder
  3
AutoCAD 2000
 90
        0
280
     0
281
     0
  0
CLASS
  1
LAYOUT
  2
AcDbLayout
  3
AutoCAD 2000
 90
        0
280
     0
281
     0
  0
ENDSEC
  0
SECTION
  2
TABLES
  0
TABLE
  2
VPORT
  5
8
330
0
100
AcDbSymbolTable
 70
     3
  0
VPORT
  5
306
330
8
100
AcDbSymbolTableRecord
100
AcDbViewportTableRecord
  2
*Active
 70
     0
 10
0.0
 20
0.0
 11
1.0
 21
1.0
 12
511.4165693962731
 22
12.41972926504257
 13
0.0
 23
0.0
 14
1.0
 24
1.0
 15
0.0
 25
0.0
 16
0.0
 26
0.0
 36
1.0
 17
0.0
 27
0.0
 37
0.0
 40
447.1469544373811
 41
2.210374639769452
 42
50.0
 43
0.0
 44
0.0
 50
0.0
 51
0.0
 71
     0
 72
   100
 73
     1
 74
     1
 75
     0
 76
     0
 77
     0
 78
     0
281
     0
 65
     1
110
0.0
120
0.0
130
0.0
111
1.0
121
0.0
131
0.0
112
0.0
122
1.0
132
0.0
 79
     0
146
0.0
  0
ENDTAB
  0
TABLE
  2
LTYPE
  5
5
330
0
100
AcDbSymbolTable
 70
     3
  0
LTYPE
  5
13
330
5
100
AcDbSymbolTableRecord
100
AcDbLinetypeTableRecord
  2
ByBlock
 70
     0
  3

 72
    65
 73
     0
 40
0.0
  0
LTYPE
  5
14
330
5
100
AcDbSymbolTableRecord
100
AcDbLinetypeTableRecord
  2
ByLayer
 70
     0
  3

 72
    65
 73
     0
 40
0.0
  0
LTYPE
  5
15
330
5
100
AcDbSymbolTableRecord
100
AcDbLinetypeTableRecord
  2
CONTINUOUS
 70
     0
  3
Solid line
 72
    65
 73
     0
 40
0.0
  0
LTYPE
  5
22
330
5
100
AcDbSymbolTableRecord
100
AcDbLinetypeTableRecord
  2
LTYPE1
 70
     0
  3
HIDDEN
 72
    65
 73
     2
 40
2.0
 49
1.199999999999999
 74
     0
 49
-0.8
 74
     0
  0
LTYPE
  5
23
330
5
100
AcDbSymbolTableRecord
100
AcDbLinetypeTableRecord
  2
LTYPE2
 70
     0
  3
PHANTOM
 72
    65
 73
     6
 40
10.0
 49
7.5
 74
     0
 49
-0.5
 74
     0
 49
0.5
 74
     0
 49
-0.5
 74
     0
 49
0.5
 74
     0
 49
-0.5
 74
     0
  0
ENDTAB
  0
TABLE
  2
LAYER
  5
2
330
0
100
AcDbSymbolTable
 70
   128
  0
LAYER
  5
10
330
2
100
AcDbSymbolTableRecord
100
AcDbLayerTableRecord
  2
0
 70
     0
 62
     7
  6
CONTINUOUS
370
    -3
390
F
  0
LAYER
  5
24
330
2
100
AcDbSymbolTableRecord
100
AcDbLayerTableRecord
  2
1
 70
     0
 62
     7
  6
CONTINUOUS
370
    -3
390
F
  0
LAYER
  5
25
330
2
100
AcDbSymbolTableRecord
100
AcDbLayerTableRecord
  2
2
 70
     0
 62
     7
  6
CONTINUOUS
370
    -3
390
F
  0
LAYER
  5
26
330
2
100
AcDbSymbolTableRecord
100
AcDbLayerTableRecord
  2
3
 70
     0
 62
     7
  6
CONTINUOUS
370
    -3
390
F
  0
LAYER
  5
27
330
2
100
AcDbSymbolTableRecord
100
AcDbLayerTableRecord
  2
4
 70
     0
 62
     7
  6
CONTINUOUS
370
    -3
390
F
  0
LAYER
  5
28
330
2
100
AcDbSymbolTableRecord
100
AcDbLayerTableRecord
  2
5
 70
     0
 62
     7
  6
CONTINUOUS
370
    -3
390
F
  0
LAYER
  5
29
330
2
100
AcDbSymbolTableRecord
100
AcDbLayerTableRecord
  2
6
 70
     0
 62
     7
  6
CONTINUOUS
370
    -3
390
F
  0
LAYER
  5
2A
330
2
100
AcDbSymbolTableRecord
100
AcDbLayerTableRecord
  2
7
 70
     0
 62
     7
  6
CONTINUOUS
370
    -3
390
F
  0
LAYER
  5
2B
330
2
100
AcDbSymbolTableRecord
100
AcDbLayerTableRecord
  2
8
 70
     0
 62
     7
  6
CONTINUOUS
370
    -3
390
F
  0
LAYER
  5
2C
330
2
100
AcDbSymbolTableRecord
100
AcDbLayerTableRecord
  2
9
 70
     0
 62
     7
  6
CONTINUOUS
370
    -3
390
F
  0
LAYER
  5
2D
330
2
100
AcDbSymbolTableRecord
100
AcDbLayerTableRecord
  2
10
 70
     0
 62
     7
  6
CONTINUOUS
370
    -3
390
F
  0
LAYER
  5
2E
330
2
100
AcDbSymbolTableRecord
100
AcDbLayerTableRecord
  2
11
 70
     0
 62
     7
  6
CONTINUOUS
370
    -3
390
F
  0
LAYER
  5
2F
330
2
100
AcDbSymbolTableRecord
100
AcDbLayerTableRecord
  2
12
 70
     0
 62
     7
  6
CONTINUOUS
370
    -3
390
F
  0
LAYER
  5
30
330
2
100
AcDbSymbolTableRecord
100
AcDbLayerTableRecord
  2
13
 70
     0
 62
     7
  6
CONTINUOUS
370
    -3
390
F
  0
LAYER
  5
31
330
2
100
AcDbSymbolTableRecord
100
AcDbLayerTableRecord
  2
14
 70
     0
 62
     7
  6
CONTINUOUS
370
    -3
390
F
  0
LAYER
  5
32
330
2
100
AcDbSymbolTableRecord
100
AcDbLayerTableRecord
  2
15
 70
     0
 62
     7
  6
CONTINUOUS
370
    -3
390
F
  0
LAYER
  5
33
330
2
100
AcDbSymbolTableRecord
100
AcDbLayerTableRecord
  2
16
 70
     0
 62
     7
  6
CONTINUOUS
370
    -3
390
F
  0
LAYER
  5
34
330
2
100
AcDbSymbolTableRecord
100
AcDbLayerTableRecord
  2
17
 70
     0
 62
     7
  6
CONTINUOUS
370
    -3
390
F
  0
LAYER
  5
35
330
2
100
AcDbSymbolTableRecord
100
AcDbLayerTableRecord
  2
18
 70
     0
 62
     7
  6
CONTINUOUS
370
    -3
390
F
  0
LAYER
  5
36
330
2
100
AcDbSymbolTableRecord
100
AcDbLayerTableRecord
  2
19
 70
     0
 62
     7
  6
CONTINUOUS
370
    -3
390
F
  0
LAYER
  5
37
330
2
100
AcDbSymbolTableRecord
100
AcDbLayerTableRecord
  2
20
 70
     0
 62
     7
  6
CONTINUOUS
370
    -3
390
F
  0
LAYER
  5
38
330
2
100
AcDbSymbolTableRecord
100
AcDbLayerTableRecord
  2
21
 70
     0
 62
     7
  6
CONTINUOUS
370
    -3
390
F
  0
LAYER
  5
39
330
2
100
AcDbSymbolTableRecord
100
AcDbLayerTableRecord
  2
22
 70
     0
 62
     7
  6
CONTINUOUS
370
    -3
390
F
  0
LAYER
  5
3A
330
2
100
AcDbSymbolTableRecord
100
AcDbLayerTableRecord
  2
23
 70
     0
 62
     7
  6
CONTINUOUS
370
    -3
390
F
  0
LAYER
  5
3B
330
2
100
AcDbSymbolTableRecord
100
AcDbLayerTableRecord
  2
24
 70
     0
 62
     7
  6
CONTINUOUS
370
    -3
390
F
  0
LAYER
  5
3C
330
2
100
AcDbSymbolTableRecord
100
AcDbLayerTableRecord
  2
25
 70
     0
 62
     7
  6
CONTINUOUS
370
    -3
390
F
  0
LAYER
  5
3D
330
2
100
AcDbSymbolTableRecord
100
AcDbLayerTableRecord
  2
26
 70
     0
 62
     7
  6
CONTINUOUS
370
    -3
390
F
  0
LAYER
  5
3E
330
2
100
AcDbSymbolTableRecord
100
AcDbLayerTableRecord
  2
27
 70
     0
 62
     7
  6
CONTINUOUS
370
    -3
390
F
  0
LAYER
  5
3F
330
2
100
AcDbSymbolTableRecord
100
AcDbLayerTableRecord
  2
28
 70
     0
 62
     7
  6
CONTINUOUS
370
    -3
390
F
  0
LAYER
  5
40
330
2
100
AcDbSymbolTableRecord
100
AcDbLayerTableRecord
  2
29
 70
     0
 62
     7
  6
CONTINUOUS
370
    -3
390
F
  0
LAYER
  5
41
330
2
100
AcDbSymbolTableRecord
100
AcDbLayerTableRecord
  2
30
 70
     0
 62
     7
  6
CONTINUOUS
370
    -3
390
F
  0
LAYER
  5
42
330
2
100
AcDbSymbolTableRecord
100
AcDbLayerTableRecord
  2
31
 70
     0
 62
     7
  6
CONTINUOUS
370
    -3
390
F
  0
LAYER
  5
43
330
2
100
AcDbSymbolTableRecord
100
AcDbLayerTableRecord
  2
32
 70
     0
 62
     7
  6
CONTINUOUS
370
    -3
390
F
  0
LAYER
  5
44
330
2
100
AcDbSymbolTableRecord
100
AcDbLayerTableRecord
  2
33
 70
     0
 62
     7
  6
CONTINUOUS
370
    -3
390
F
  0
LAYER
  5
45
330
2
100
AcDbSymbolTableRecord
100
AcDbLayerTableRecord
  2
34
 70
     0
 62
     7
  6
CONTINUOUS
370
    -3
390
F
  0
LAYER
  5
46
330
2
100
AcDbSymbolTableRecord
100
AcDbLayerTableRecord
  2
35
 70
     0
 62
     7
  6
CONTINUOUS
370
    -3
390
F
  0
LAYER
  5
47
330
2
100
AcDbSymbolTableRecord
100
AcDbLayerTableRecord
  2
36
 70
     0
 62
     7
  6
CONTINUOUS
370
    -3
390
F
  0
LAYER
  5
48
330
2
100
AcDbSymbolTableRecord
100
AcDbLayerTableRecord
  2
37
 70
     0
 62
     7
  6
CONTINUOUS
370
    -3
390
F
  0
LAYER
  5
49
330
2
100
AcDbSymbolTableRecord
100
AcDbLayerTableRecord
  2
38
 70
     0
 62
     7
  6
CONTINUOUS
370
    -3
390
F
  0
LAYER
  5
4A
330
2
100
AcDbSymbolTableRecord
100
AcDbLayerTableRecord
  2
39
 70
     0
 62
     7
  6
CONTINUOUS
370
    -3
390
F
  0
LAYER
  5
4B
330
2
100
AcDbSymbolTableRecord
100
AcDbLayerTableRecord
  2
40
 70
     0
 62
     7
  6
CONTINUOUS
370
    -3
390
F
  0
LAYER
  5
4C
330
2
100
AcDbSymbolTableRecord
100
AcDbLayerTableRecord
  2
41
 70
     0
 62
     7
  6
CONTINUOUS
370
    -3
390
F
  0
LAYER
  5
4D
330
2
100
AcDbSymbolTableRecord
100
AcDbLayerTableRecord
  2
42
 70
     0
 62
     7
  6
CONTINUOUS
370
    -3
390
F
  0
LAYER
  5
4E
330
2
100
AcDbSymbolTableRecord
100
AcDbLayerTableRecord
  2
43
 70
     0
 62
     7
  6
CONTINUOUS
370
    -3
390
F
  0
LAYER
  5
4F
330
2
100
AcDbSymbolTableRecord
100
AcDbLayerTableRecord
  2
44
 70
     0
 62
     7
  6
CONTINUOUS
370
    -3
390
F
  0
LAYER
  5
50
330
2
100
AcDbSymbolTableRecord
100
AcDbLayerTableRecord
  2
45
 70
     0
 62
     7
  6
CONTINUOUS
370
    -3
390
F
  0
LAYER
  5
51
330
2
100
AcDbSymbolTableRecord
100
AcDbLayerTableRecord
  2
46
 70
     0
 62
     7
  6
CONTINUOUS
370
    -3
390
F
  0
LAYER
  5
52
330
2
100
AcDbSymbolTableRecord
100
AcDbLayerTableRecord
  2
47
 70
     0
 62
     7
  6
CONTINUOUS
370
    -3
390
F
  0
LAYER
  5
53
330
2
100
AcDbSymbolTableRecord
100
AcDbLayerTableRecord
  2
48
 70
     0
 62
     7
  6
CONTINUOUS
370
    -3
390
F
  0
LAYER
  5
54
330
2
100
AcDbSymbolTableRecord
100
AcDbLayerTableRecord
  2
49
 70
     0
 62
     7
  6
CONTINUOUS
370
    -3
390
F
  0
LAYER
  5
55
330
2
100
AcDbSymbolTableRecord
100
AcDbLayerTableRecord
  2
50
 70
     0
 62
     7
  6
CONTINUOUS
370
    -3
390
F
  0
LAYER
  5
56
330
2
100
AcDbSymbolTableRecord
100
AcDbLayerTableRecord
  2
51
 70
     0
 62
     7
  6
CONTINUOUS
370
    -3
390
F
  0
LAYER
  5
57
330
2
100
AcDbSymbolTableRecord
100
AcDbLayerTableRecord
  2
52
 70
     0
 62
     7
  6
CONTINUOUS
370
    -3
390
F
  0
LAYER
  5
58
330
2
100
AcDbSymbolTableRecord
100
AcDbLayerTableRecord
  2
53
 70
     0
 62
     7
  6
CONTINUOUS
370
    -3
390
F
  0
LAYER
  5
59
330
2
100
AcDbSymbolTableRecord
100
AcDbLayerTableRecord
  2
54
 70
     0
 62
     7
  6
CONTINUOUS
370
    -3
390
F
  0
LAYER
  5
5A
330
2
100
AcDbSymbolTableRecord
100
AcDbLayerTableRecord
  2
55
 70
     0
 62
     7
  6
CONTINUOUS
370
    -3
390
F
  0
LAYER
  5
5B
330
2
100
AcDbSymbolTableRecord
100
AcDbLayerTableRecord
  2
56
 70
     0
 62
     7
  6
CONTINUOUS
370
    -3
390
F
  0
LAYER
  5
5C
330
2
100
AcDbSymbolTableRecord
100
AcDbLayerTableRecord
  2
57
 70
     0
 62
     7
  6
CONTINUOUS
370
    -3
390
F
  0
LAYER
  5
5D
330
2
100
AcDbSymbolTableRecord
100
AcDbLayerTableRecord
  2
58
 70
     0
 62
     7
  6
CONTINUOUS
370
    -3
390
F
  0
LAYER
  5
5E
330
2
100
AcDbSymbolTableRecord
100
AcDbLayerTableRecord
  2
59
 70
     0
 62
     7
  6
CONTINUOUS
370
    -3
390
F
  0
LAYER
  5
5F
330
2
100
AcDbSymbolTableRecord
100
AcDbLayerTableRecord
  2
60
 70
     0
 62
     7
  6
CONTINUOUS
370
    -3
390
F
  0
LAYER
  5
60
330
2
100
AcDbSymbolTableRecord
100
AcDbLayerTableRecord
  2
61
 70
     0
 62
     7
  6
CONTINUOUS
370
    -3
390
F
  0
LAYER
  5
61
330
2
100
AcDbSymbolTableRecord
100
AcDbLayerTableRecord
  2
62
 70
     0
 62
     7
  6
CONTINUOUS
370
    -3
390
F
  0
LAYER
  5
62
330
2
100
AcDbSymbolTableRecord
100
AcDbLayerTableRecord
  2
63
 70
     0
 62
     7
  6
CONTINUOUS
370
    -3
390
F
  0
LAYER
  5
63
330
2
100
AcDbSymbolTableRecord
100
AcDbLayerTableRecord
  2
64
 70
     0
 62
     7
  6
CONTINUOUS
370
    -3
390
F
  0
LAYER
  5
64
330
2
100
AcDbSymbolTableRecord
100
AcDbLayerTableRecord
  2
65
 70
     0
 62
     7
  6
CONTINUOUS
370
    -3
390
F
  0
LAYER
  5
65
330
2
100
AcDbSymbolTableRecord
100
AcDbLayerTableRecord
  2
66
 70
     0
 62
     7
  6
CONTINUOUS
370
    -3
390
F
  0
LAYER
  5
66
330
2
100
AcDbSymbolTableRecord
100
AcDbLayerTableRecord
  2
67
 70
     0
 62
     7
  6
CONTINUOUS
370
    -3
390
F
  0
LAYER
  5
67
330
2
100
AcDbSymbolTableRecord
100
AcDbLayerTableRecord
  2
68
 70
     0
 62
     7
  6
CONTINUOUS
370
    -3
390
F
  0
LAYER
  5
68
330
2
100
AcDbSymbolTableRecord
100
AcDbLayerTableRecord
  2
69
 70
     0
 62
     7
  6
CONTINUOUS
370
    -3
390
F
  0
LAYER
  5
69
330
2
100
AcDbSymbolTableRecord
100
AcDbLayerTableRecord
  2
70
 70
     0
 62
     7
  6
CONTINUOUS
370
    -3
390
F
  0
LAYER
  5
6A
330
2
100
AcDbSymbolTableRecord
100
AcDbLayerTableRecord
  2
71
 70
     0
 62
     7
  6
CONTINUOUS
370
    -3
390
F
  0
LAYER
  5
6B
330
2
100
AcDbSymbolTableRecord
100
AcDbLayerTableRecord
  2
72
 70
     0
 62
     7
  6
CONTINUOUS
370
    -3
390
F
  0
LAYER
  5
6C
330
2
100
AcDbSymbolTableRecord
100
AcDbLayerTableRecord
  2
73
 70
     0
 62
     7
  6
CONTINUOUS
370
    -3
390
F
  0
LAYER
  5
6D
330
2
100
AcDbSymbolTableRecord
100
AcDbLayerTableRecord
  2
74
 70
     0
 62
     7
  6
CONTINUOUS
370
    -3
390
F
  0
LAYER
  5
6E
330
2
100
AcDbSymbolTableRecord
100
AcDbLayerTableRecord
  2
75
 70
     0
 62
     7
  6
CONTINUOUS
370
    -3
390
F
  0
LAYER
  5
6F
330
2
100
AcDbSymbolTableRecord
100
AcDbLayerTableRecord
  2
76
 70
     0
 62
     7
  6
CONTINUOUS
370
    -3
390
F
  0
LAYER
  5
70
330
2
100
AcDbSymbolTableRecord
100
AcDbLayerTableRecord
  2
77
 70
     0
 62
     7
  6
CONTINUOUS
370
    -3
390
F
  0
LAYER
  5
71
330
2
100
AcDbSymbolTableRecord
100
AcDbLayerTableRecord
  2
78
 70
     0
 62
     7
  6
CONTINUOUS
370
    -3
390
F
  0
LAYER
  5
72
330
2
100
AcDbSymbolTableRecord
100
AcDbLayerTableRecord
  2
79
 70
     0
 62
     7
  6
CONTINUOUS
370
    -3
390
F
  0
LAYER
  5
73
330
2
100
AcDbSymbolTableRecord
100
AcDbLayerTableRecord
  2
80
 70
     0
 62
     7
  6
CONTINUOUS
370
    -3
390
F
  0
LAYER
  5
74
330
2
100
AcDbSymbolTableRecord
100
AcDbLayerTableRecord
  2
81
 70
     0
 62
     7
  6
CONTINUOUS
370
    -3
390
F
  0
LAYER
  5
75
330
2
100
AcDbSymbolTableRecord
100
AcDbLayerTableRecord
  2
82
 70
     0
 62
     7
  6
CONTINUOUS
370
    -3
390
F
  0
LAYER
  5
76
330
2
100
AcDbSymbolTableRecord
100
AcDbLayerTableRecord
  2
83
 70
     0
 62
     7
  6
CONTINUOUS
370
    -3
390
F
  0
LAYER
  5
77
330
2
100
AcDbSymbolTableRecord
100
AcDbLayerTableRecord
  2
84
 70
     0
 62
     7
  6
CONTINUOUS
370
    -3
390
F
  0
LAYER
  5
78
330
2
100
AcDbSymbolTableRecord
100
AcDbLayerTableRecord
  2
85
 70
     0
 62
     7
  6
CONTINUOUS
370
    -3
390
F
  0
LAYER
  5
79
330
2
100
AcDbSymbolTableRecord
100
AcDbLayerTableRecord
  2
86
 70
     0
 62
     7
  6
CONTINUOUS
370
    -3
390
F
  0
LAYER
  5
7A
330
2
100
AcDbSymbolTableRecord
100
AcDbLayerTableRecord
  2
87
 70
     0
 62
     7
  6
CONTINUOUS
370
    -3
390
F
  0
LAYER
  5
7B
330
2
100
AcDbSymbolTableRecord
100
AcDbLayerTableRecord
  2
88
 70
     0
 62
     7
  6
CONTINUOUS
370
    -3
390
F
  0
LAYER
  5
7C
330
2
100
AcDbSymbolTableRecord
100
AcDbLayerTableRecord
  2
89
 70
     0
 62
     7
  6
CONTINUOUS
370
    -3
390
F
  0
LAYER
  5
7D
330
2
100
AcDbSymbolTableRecord
100
AcDbLayerTableRecord
  2
90
 70
     0
 62
     7
  6
CONTINUOUS
370
    -3
390
F
  0
LAYER
  5
7E
330
2
100
AcDbSymbolTableRecord
100
AcDbLayerTableRecord
  2
91
 70
     0
 62
     7
  6
CONTINUOUS
370
    -3
390
F
  0
LAYER
  5
7F
330
2
100
AcDbSymbolTableRecord
100
AcDbLayerTableRecord
  2
92
 70
     0
 62
     7
  6
CONTINUOUS
370
    -3
390
F
  0
LAYER
  5
80
330
2
100
AcDbSymbolTableRecord
100
AcDbLayerTableRecord
  2
93
 70
     0
 62
     7
  6
CONTINUOUS
370
    -3
390
F
  0
LAYER
  5
81
330
2
100
AcDbSymbolTableRecord
100
AcDbLayerTableRecord
  2
94
 70
     0
 62
     7
  6
CONTINUOUS
370
    -3
390
F
  0
LAYER
  5
82
330
2
100
AcDbSymbolTableRecord
100
AcDbLayerTableRecord
  2
95
 70
     0
 62
     7
  6
CONTINUOUS
370
    -3
390
F
  0
LAYER
  5
83
330
2
100
AcDbSymbolTableRecord
100
AcDbLayerTableRecord
  2
96
 70
     0
 62
     7
  6
CONTINUOUS
370
    -3
390
F
  0
LAYER
  5
84
330
2
100
AcDbSymbolTableRecord
100
AcDbLayerTableRecord
  2
97
 70
     0
 62
     7
  6
CONTINUOUS
370
    -3
390
F
  0
LAYER
  5
85
330
2
100
AcDbSymbolTableRecord
100
AcDbLayerTableRecord
  2
98
 70
     0
 62
     7
  6
CONTINUOUS
370
    -3
390
F
  0
LAYER
  5
86
330
2
100
AcDbSymbolTableRecord
100
AcDbLayerTableRecord
  2
99
 70
     0
 62
     7
  6
CONTINUOUS
370
    -3
390
F
  0
LAYER
  5
87
330
2
100
AcDbSymbolTableRecord
100
AcDbLayerTableRecord
  2
100
 70
     0
 62
     7
  6
CONTINUOUS
370
    -3
390
F
  0
LAYER
  5
88
330
2
100
AcDbSymbolTableRecord
100
AcDbLayerTableRecord
  2
101
 70
     0
 62
     7
  6
CONTINUOUS
370
    -3
390
F
  0
LAYER
  5
89
330
2
100
AcDbSymbolTableRecord
100
AcDbLayerTableRecord
  2
102
 70
     0
 62
     7
  6
CONTINUOUS
370
    -3
390
F
  0
LAYER
  5
8A
330
2
100
AcDbSymbolTableRecord
100
AcDbLayerTableRecord
  2
103
 70
     0
 62
     7
  6
CONTINUOUS
370
    -3
390
F
  0
LAYER
  5
8B
330
2
100
AcDbSymbolTableRecord
100
AcDbLayerTableRecord
  2
104
 70
     0
 62
     7
  6
CONTINUOUS
370
    -3
390
F
  0
LAYER
  5
8C
330
2
100
AcDbSymbolTableRecord
100
AcDbLayerTableRecord
  2
105
 70
     0
 62
     7
  6
CONTINUOUS
370
    -3
390
F
  0
LAYER
  5
8D
330
2
100
AcDbSymbolTableRecord
100
AcDbLayerTableRecord
  2
106
 70
     0
 62
     7
  6
CONTINUOUS
370
    -3
390
F
  0
LAYER
  5
8E
330
2
100
AcDbSymbolTableRecord
100
AcDbLayerTableRecord
  2
107
 70
     0
 62
     7
  6
CONTINUOUS
370
    -3
390
F
  0
LAYER
  5
8F
330
2
100
AcDbSymbolTableRecord
100
AcDbLayerTableRecord
  2
108
 70
     0
 62
     7
  6
CONTINUOUS
370
    -3
390
F
  0
LAYER
  5
90
330
2
100
AcDbSymbolTableRecord
100
AcDbLayerTableRecord
  2
109
 70
     0
 62
     7
  6
CONTINUOUS
370
    -3
390
F
  0
LAYER
  5
91
330
2
100
AcDbSymbolTableRecord
100
AcDbLayerTableRecord
  2
110
 70
     0
 62
     7
  6
CONTINUOUS
370
    -3
390
F
  0
LAYER
  5
92
330
2
100
AcDbSymbolTableRecord
100
AcDbLayerTableRecord
  2
111
 70
     0
 62
     7
  6
CONTINUOUS
370
    -3
390
F
  0
LAYER
  5
93
330
2
100
AcDbSymbolTableRecord
100
AcDbLayerTableRecord
  2
112
 70
     0
 62
     7
  6
CONTINUOUS
370
    -3
390
F
  0
LAYER
  5
94
330
2
100
AcDbSymbolTableRecord
100
AcDbLayerTableRecord
  2
113
 70
     0
 62
     7
  6
CONTINUOUS
370
    -3
390
F
  0
LAYER
  5
95
330
2
100
AcDbSymbolTableRecord
100
AcDbLayerTableRecord
  2
114
 70
     0
 62
     7
  6
CONTINUOUS
370
    -3
390
F
  0
LAYER
  5
96
330
2
100
AcDbSymbolTableRecord
100
AcDbLayerTableRecord
  2
115
 70
     0
 62
     7
  6
CONTINUOUS
370
    -3
390
F
  0
LAYER
  5
97
330
2
100
AcDbSymbolTableRecord
100
AcDbLayerTableRecord
  2
116
 70
     0
 62
     7
  6
CONTINUOUS
370
    -3
390
F
  0
LAYER
  5
98
330
2
100
AcDbSymbolTableRecord
100
AcDbLayerTableRecord
  2
117
 70
     0
 62
     7
  6
CONTINUOUS
370
    -3
390
F
  0
LAYER
  5
99
330
2
100
AcDbSymbolTableRecord
100
AcDbLayerTableRecord
  2
118
 70
     0
 62
     7
  6
CONTINUOUS
370
    -3
390
F
  0
LAYER
  5
9A
330
2
100
AcDbSymbolTableRecord
100
AcDbLayerTableRecord
  2
119
 70
     0
 62
     7
  6
CONTINUOUS
370
    -3
390
F
  0
LAYER
  5
9B
330
2
100
AcDbSymbolTableRecord
100
AcDbLayerTableRecord
  2
120
 70
     0
 62
     7
  6
CONTINUOUS
370
    -3
390
F
  0
LAYER
  5
9C
330
2
100
AcDbSymbolTableRecord
100
AcDbLayerTableRecord
  2
121
 70
     0
 62
     7
  6
CONTINUOUS
370
    -3
390
F
  0
LAYER
  5
9D
330
2
100
AcDbSymbolTableRecord
100
AcDbLayerTableRecord
  2
122
 70
     0
 62
     7
  6
CONTINUOUS
370
    -3
390
F
  0
LAYER
  5
9E
330
2
100
AcDbSymbolTableRecord
100
AcDbLayerTableRecord
  2
123
 70
     0
 62
     7
  6
CONTINUOUS
370
    -3
390
F
  0
LAYER
  5
9F
330
2
100
AcDbSymbolTableRecord
100
AcDbLayerTableRecord
  2
124
 70
     0
 62
     7
  6
CONTINUOUS
370
    -3
390
F
  0
LAYER
  5
A0
330
2
100
AcDbSymbolTableRecord
100
AcDbLayerTableRecord
  2
125
 70
     0
 62
     7
  6
CONTINUOUS
370
    -3
390
F
  0
LAYER
  5
A1
330
2
100
AcDbSymbolTableRecord
100
AcDbLayerTableRecord
  2
126
 70
     0
 62
     7
  6
CONTINUOUS
370
    -3
390
F
  0
LAYER
  5
A2
330
2
100
AcDbSymbolTableRecord
100
AcDbLayerTableRecord
  2
127
 70
     0
 62
     7
  6
CONTINUOUS
370
    -3
390
F
  0
ENDTAB
  0
TABLE
  2
STYLE
  5
3
330
0
100
AcDbSymbolTable
 70
     6
  0
STYLE
  5
11
330
3
100
AcDbSymbolTableRecord
100
AcDbTextStyleTableRecord
  2
STANDARD
 70
     0
 40
0.0
 41
1.0
 50
0.0
 71
     0
 42
0.2
  3
txt
  4

  0
STYLE
  5
A3
330
3
100
AcDbSymbolTableRecord
100
AcDbTextStyleTableRecord
  2
KANJI0
 70
     0
 40
2.5
 41
0.8
 50
0.0
 71
     0
 42
2.5
  3

  4
bigfont
  0
STYLE
  5
A4
330
3
100
AcDbSymbolTableRecord
100
AcDbTextStyleTableRecord
  2
KANJI1
 70
     0
 40
3.0
 41
0.8
 50
0.0
 71
     0
 42
3.0
  3

  4
bigfont
  0
STYLE
  5
A5
330
3
100
AcDbSymbolTableRecord
100
AcDbTextStyleTableRecord
  2
KANJI2
 70
     0
 40
2.0
 41
0.85
 50
0.0
 71
     0
 42
2.0
  3

  4
bigfont
  0
STYLE
  5
A6
330
3
100
AcDbSymbolTableRecord
100
AcDbTextStyleTableRecord
  2
KANJI3
 70
     0
 40
1.5
 41
0.8666666670000001
 50
0.0
 71
     0
 42
1.5
  3

  4
bigfont
  0
STYLE
  5
A7
330
3
100
AcDbSymbolTableRecord
100
AcDbTextStyleTableRecord
  2
KANJI4
 70
     0
 40
2.0
 41
0.75
 50
0.0
 71
     0
 42
2.0
  3

  4
bigfont
  0
ENDTAB
  0
TABLE
  2
VIEW
  5
6
330
0
100
AcDbSymbolTable
 70
     0
  0
ENDTAB
  0
TABLE
  2
UCS
  5
7
330
0
100
AcDbSymbolTable
 70
     0
  0
ENDTAB
  0
TABLE
  2
APPID
  5
9
330
0
100
AcDbSymbolTable
 70
     1
  0
APPID
  5
12
330
9
100
AcDbSymbolTableRecord
100
AcDbRegAppTableRecord
  2
ACAD
 70
     0
  0
ENDTAB
  0
TABLE
  2
DIMSTYLE
  5
A
330
0
100
AcDbSymbolTable
 70
     1
100
AcDbDimStyleTable
 71
     0
  0
DIMSTYLE
105
2D3
330
A
100
AcDbSymbolTableRecord
100
AcDbDimStyleTableRecord
  2
Standard
 70
     0
340
11
  0
ENDTAB
  0
TABLE
  2
BLOCK_RECORD
  5
1
330
0
100
AcDbSymbolTable
 70
     0
  0
BLOCK_RECORD
  5
1E
330
1
100
AcDbSymbolTableRecord
100
AcDbBlockTableRecord
  2
*Model_Space
340
21
  0
BLOCK_RECORD
  5
1A
330
1
100
AcDbSymbolTableRecord
100
AcDbBlockTableRecord
  2
*Paper_Space
340
1D
  0
ENDTAB
  0
ENDSEC
  0
SECTION
  2
BLOCKS
  0
BLOCK
  5
1F
330
1E
100
AcDbEntity
  8
0
100
AcDbBlockBegin
  2
*Model_Space
 70
     0
 10
0.0
 20
0.0
 30
0.0
  3
*Model_Space
  1

  0
ENDBLK
  5
20
330
1E
100
AcDbEntity
  8
0
100
AcDbBlockEnd
  0
BLOCK
  5
1B
330
1A
100
AcDbEntity
 67
     1
  8
0
100
AcDbBlockBegin
  2
*Paper_Space
 70
     0
 10
0.0
 20
0.0
 30
0.0
  3
*Paper_Space
  1

  0
ENDBLK
  5
1C
330
1A
100
AcDbEntity
 67
     1
  8
0
100
AcDbBlockEnd
  0
ENDSEC
  0
SECTION
  2
ENTITIES
  0
LINE
  5
AB
330
1E
100
AcDbEntity
  8
0
  6
Continuous
 62
     3
100
AcDbLine
 10
72.0
 20
11.5
 30
0.0
 11
73.931851653
 21
10.98236191
 31
0.0
  0
LINE
  5
AC
330
1E
100
AcDbEntity
  8
0
  6
Continuous
 62
     3
100
AcDbLine
 10
72.0
 20
11.5
 30
0.0
 11
73.931851653
 21
12.01763809
 31
0.0
  0
LINE
  5
AF
330
1E
100
AcDbEntity
  8
0
  6
Continuous
 62
     1
100
AcDbLine
 10
168.0
 20
67.5
 30
0.0
 11
72.0
 21
67.5
 31
0.0
  0
LINE
  5
B0
330
1E
100
AcDbEntity
  8
0
  6
Continuous
 62
     1
100
AcDbLine
 10
72.0
 20
67.5
 30
0.0
 11
72.0
 21
19.5
 31
0.0
  0
LINE
  5
B1
330
1E
100
AcDbEntity
  8
0
  6
Continuous
 62
     1
100
AcDbLine
 10
72.0
 20
19.5
 30
0.0
 11
168.0
 21
19.5
 31
0.0
  0
LINE
  5
B2
330
1E
100
AcDbEntity
  8
0
  6
Continuous
 62
     1
100
AcDbLine
 10
168.0
 20
19.5
 30
0.0
 11
168.0
 21
67.5
 31
0.0
  0
LINE
  5
B3
330
1E
100
AcDbEntity
  8
0
  6
Continuous
 62
     1
100
AcDbLine
 10
168.0
 20
67.0
 30
0.0
 11
72.0
 21
67.0
 31
0.0
  0
LINE
  5
B4
330
1E
100
AcDbEntity
  8
0
  6
Continuous
 62
     1
100
AcDbLine
 10
72.0
 20
20.0
 30
0.0
 11
168.0
 21
20.0
 31
0.0
  0
LINE
  5
B5
330
1E
100
AcDbEntity
  8
0
  6
Continuous
 62
     1
100
AcDbLine
 10
120.0
 20
59.0
 30
0.0
 11
75.0
 21
59.0
 31
0.0
  0
LINE
  5
B6
330
1E
100
AcDbEntity
  8
0
  6
Continuous
 62
     1
100
AcDbLine
 10
120.0
 20
59.0
 30
0.0
 11
165.0
 21
59.0
 31
0.0
  0
LINE
  5
B7
330
1E
100
AcDbEntity
  8
0
  6
Continuous
 62
     1
100
AcDbLine
 10
165.0
 20
28.0
 30
0.0
 11
75.0
 21
28.0
 31
0.0
  0
LINE
  5
B8
330
1E
100
AcDbEntity
  8
0
  6
Continuous
 62
     1
100
AcDbLine
 10
75.0
 20
57.5
 30
0.0
 11
165.0
 21
57.5
 31
0.0
  0
LINE
  5
B9
330
1E
100
AcDbEntity
  8
0
  6
Continuous
 62
     1
100
AcDbLine
 10
165.0
 20
29.5
 30
0.0
 11
75.0
 21
29.5
 31
0.0
  0
POINT
  5
BA
330
1E
100
AcDbEntity
  8
0
  6
Continuous
 62
     1
100
AcDbPoint
 10
75.0
 20
29.5
 30
0.0
  0
LINE
  5
BB
330
1E
100
AcDbEntity
  8
0
  6
Continuous
 62
     1
100
AcDbLine
 10
165.0
 20
57.0
 30
0.0
 11
75.0
 21
57.0
 31
0.0
  0
LINE
  5
BC
330
1E
100
AcDbEntity
  8
0
  6
Continuous
 62
     1
100
AcDbLine
 10
165.0
 20
28.0
 30
0.0
 11
165.0
 21
59.0
 31
0.0
  0
LINE
  5
BD
330
1E
100
AcDbEntity
  8
0
  6
Continuous
 62
     1
100
AcDbLine
 10
75.0
 20
59.0
 30
0.0
 11
75.0
 21
28.0
 31
0.0
  0
LINE
  5
BE
330
1E
100
AcDbEntity
  8
0
  6
Continuous
 62
     1
100
AcDbLine
 10
165.0
 20
30.0
 30
0.0
 11
75.0
 21
30.0
 31
0.0
  0
LINE
  5
BF
330
1E
100
AcDbEntity
  8
0
  6
Continuous
 62
     1
100
AcDbLine
 10
71.075
 20
37.5
 30
0.0
 11
71.075
 21
49.5
 31
0.0
  0
LINE
  5
C0
330
1E
100
AcDbEntity
  8
0
  6
Continuous
 62
     1
100
AcDbLine
 10
168.965
 20
37.5
 30
0.0
 11
168.965
 21
49.5
 31
0.0
  0
LINE
  5
C1
330
1E
100
AcDbEntity
  8
0
  6
Continuous
 62
     1
100
AcDbLine
 10
168.965
 20
37.5
 30
0.0
 11
168.0
 21
37.5
 31
0.0
  0
LINE
  5
C2
330
1E
100
AcDbEntity
  8
0
  6
Continuous
 62
     1
100
AcDbLine
 10
168.965
 20
49.5
 30
0.0
 11
168.0
 21
49.5
 31
0.0
  0
LINE
  5
C3
330
1E
100
AcDbEntity
  8
0
  6
Continuous
 62
     1
100
AcDbLine
 10
71.075
 20
37.5
 30
0.0
 11
72.0
 21
37.5
 31
0.0
  0
LINE
  5
C4
330
1E
100
AcDbEntity
  8
0
  6
Continuous
 62
     1
100
AcDbLine
 10
71.075
 20
49.5
 30
0.0
 11
72.0
 21
49.5
 31
0.0
  0
LINE
  5
C5
330
1E
100
AcDbEntity
  8
0
  6
Continuous
 62
     1
100
AcDbLine
 10
144.0
 20
34.75
 30
0.0
 11
144.0
 21
52.25
 31
0.0
  0
LINE
  5
C6
330
1E
100
AcDbEntity
  8
0
  6
Continuous
 62
     1
100
AcDbLine
 10
144.0
 20
52.25
 30
0.0
 11
96.0
 21
52.25
 31
0.0
  0
LINE
  5
C7
330
1E
100
AcDbEntity
  8
0
  6
Continuous
 62
     1
100
AcDbLine
 10
96.0
 20
52.25
 30
0.0
 11
96.0
 21
34.75
 31
0.0
  0
LINE
  5
C8
330
1E
100
AcDbEntity
  8
0
  6
Continuous
 62
     1
100
AcDbLine
 10
96.0
 20
34.75
 30
0.0
 11
144.0
 21
34.75
 31
0.0
  0
LINE
  5
C9
330
1E
100
AcDbEntity
  8
0
  6
Continuous
 62
     1
100
AcDbLine
 10
125.476810933
 20
44.09768109299997
 30
0.0
 11
123.3955990879999
 21
44.09768109299997
 31
0.0
  0
LINE
  5
CA
330
1E
100
AcDbEntity
  8
0
  6
Continuous
 62
     1
100
AcDbLine
 10
123.305111617
 20
42.74036902099999
 30
0.0
 11
127.829485192
 21
42.74036902099999
 31
0.0
  0
LINE
  5
CB
330
1E
100
AcDbEntity
  8
0
  6
Continuous
 62
     1
100
AcDbLine
 10
127.829485192
 20
44.27865603599999
 30
0.0
 11
129.005822321
 21
43.373781321
 31
0.0
  0
LINE
  5
CC
330
1E
100
AcDbEntity
  8
0
  6
Continuous
 62
     1
100
AcDbLine
 10
127.73899772
 20
44.00719362199999
 30
0.0
 11
128.9153348499999
 21
43.10231890699999
 31
0.0
  0
LINE
  5
CD
330
1E
100
AcDbEntity
  8
0
  6
Continuous
 62
     1
100
AcDbLine
 10
128.9153348499999
 20
43.10231890699999
 30
0.0
 11
127.6485102489999
 21
42.74036902099999
 31
0.0
  0
LINE
  5
CE
330
1E
100
AcDbEntity
  8
0
  6
Continuous
 62
     1
100
AcDbLine
 10
127.6485102489999
 20
42.468906606
 30
0.0
 11
129.005822321
 21
42.83085649199999
 31
0.0
  0
LINE
  5
CF
330
1E
100
AcDbEntity
  8
0
  6
Continuous
 62
     1
100
AcDbLine
 10
123.305111617
 20
44.09768109299997
 30
0.0
 11
122.128774487
 21
43.55475626399999
 31
0.0
  0
LINE
  5
D0
330
1E
100
AcDbEntity
  8
0
  6
Continuous
 62
     1
100
AcDbLine
 10
122.128774487
 20
43.55475626399999
 30
0.0
 11
123.2146241449999
 21
42.74036902099999
 31
0.0
  0
LINE
  5
D1
330
1E
100
AcDbEntity
  8
0
  6
Continuous
 62
     1
100
AcDbLine
 10
123.033649202
 20
42.559394078
 30
0.0
 11
121.8573120729999
 21
43.373781321
 31
0.0
  0
LINE
  5
D2
330
1E
100
AcDbEntity
  8
0
  6
Continuous
 62
     1
100
AcDbLine
 10
121.9477995439999
 20
43.735731207
 30
0.0
 11
123.305111617
 21
44.45963097899999
 31
0.0
  0
LINE
  5
D3
330
1E
100
AcDbEntity
  8
0
  6
Continuous
 62
     1
100
AcDbLine
 10
127.6485102489999
 20
44.09768109299997
 30
0.0
 11
125.567298404
 21
44.09768109299997
 31
0.0
  0
POINT
  5
D4
330
1E
100
AcDbEntity
  8
0
  6
Continuous
 62
     1
100
AcDbPoint
 10
128.6438724349999
 20
49.798391798
 30
0.0
  0
LINE
  5
D5
330
1E
100
AcDbEntity
  8
0
  6
Continuous
 62
     1
100
AcDbLine
 10
128.372410021
 20
48.441079725
 30
0.0
 11
129.277284736
 21
49.526929383
 31
0.0
  0
LINE
  5
D6
330
1E
100
AcDbEntity
  8
0
  6
Continuous
 62
     1
100
AcDbLine
 10
129.639234622
 20
49.436441912
 30
0.0
 11
128.5533849639998
 21
48.07912983899999
 31
0.0
  0
LINE
  5
D7
330
1E
100
AcDbEntity
  8
0
  6
Continuous
 62
     1
100
AcDbLine
 10
124.1194988599999
 20
48.531567197
 30
0.0
 11
123.305111617
 21
49.526929383
 31
0.0
  0
LINE
  5
D8
330
1E
100
AcDbEntity
  8
0
  6
Continuous
 62
     1
100
AcDbLine
 10
123.938523917
 20
48.16961731100001
 30
0.0
 11
123.033649202
 21
49.34595444
 31
0.0
  0
LINE
  5
D9
330
1E
100
AcDbEntity
  8
0
  6
Continuous
 62
     1
100
AcDbLine
 10
123.358838553
 20
44.61798405399999
 30
0.0
 11
123.913074316
 21
48.146995443
 31
0.0
  0
LINE
  5
DA
330
1E
100
AcDbEntity
  8
0
  6
Continuous
 62
     1
100
AcDbLine
 10
122.943161731
 20
49.320100877
 30
0.0
 11
122.7621867879999
 21
49.164979497
 31
0.0
  0
LINE
  5
DB
330
1E
100
AcDbEntity
  8
0
  6
Continuous
 62
     1
100
AcDbLine
 10
123.3955990879999
 20
49.70790432600001
 30
0.0
 11
123.305111617
 21
49.63034363600001
 31
0.0
  0
LINE
  5
DC
330
1E
100
AcDbEntity
  8
0
  6
Continuous
 62
     1
100
AcDbLine
 10
121.888417141
 20
43.713109339
 30
0.0
 11
122.6688715829999
 21
49.051870158
 31
0.0
  0
LINE
  5
DD
330
1E
100
AcDbEntity
  8
0
  6
Continuous
 62
     1
100
AcDbLine
 10
124.209986332
 20
48.441079725
 30
0.0
 11
128.4628974919999
 21
48.441079725
 31
0.0
  0
LINE
  5
DE
330
1E
100
AcDbEntity
  8
0
  6
Continuous
 62
     1
100
AcDbLine
 10
128.4148260229999
 20
47.96602049999999
 30
0.0
 11
127.837968392
 21
44.256034168
 31
0.0
  0
LINE
  5
DF
330
1E
100
AcDbEntity
  8
0
  6
Continuous
 62
     1
100
AcDbLine
 10
129.7297220929999
 20
49.44936869300001
 30
0.0
 11
129.910697036
 21
49.34595444
 31
0.0
  0
LINE
  5
E0
330
1E
100
AcDbEntity
  8
0
  6
Continuous
 62
     1
100
AcDbLine
 10
129.277284736
 20
49.70790432600001
 30
0.0
 11
129.3677722069999
 21
49.6561972
 31
0.0
  0
LINE
  5
E1
330
1E
100
AcDbEntity
  8
0
  6
Continuous
 62
     1
100
AcDbLine
 10
123.4860865599999
 20
49.798391798
 30
0.0
 11
129.186797264
 21
49.798391798
 31
0.0
  0
LINE
  5
E2
330
1E
100
AcDbEntity
  8
0
  6
Continuous
 62
     1
100
AcDbLine
 10
129.941802104
 20
49.32333257199999
 30
0.0
 11
129.082171125
 21
43.351159453
 31
0.0
  0
POINT
  5
E3
330
1E
100
AcDbEntity
  8
0
  6
Continuous
 62
     1
100
AcDbPoint
 10
122.3097494299999
 20
37.130145788
 30
0.0
  0
LINE
  5
E4
330
1E
100
AcDbEntity
  8
0
  6
Continuous
 62
     1
100
AcDbLine
 10
127.0150979479998
 20
38.668432803
 30
0.0
 11
128.0104601349999
 21
37.673070617
 31
0.0
  0
LINE
  5
E5
330
1E
100
AcDbEntity
  8
0
  6
Continuous
 62
     1
100
AcDbLine
 10
126.8341230049999
 20
38.48745786
 30
0.0
 11
127.829485192
 21
37.49209567399999
 31
0.0
  0
LINE
  5
E6
330
1E
100
AcDbEntity
  8
0
  6
Continuous
 62
     1
100
AcDbLine
 10
122.4907243729999
 20
38.668432803
 30
0.0
 11
121.223899772
 21
37.763558088
 31
0.0
  0
LINE
  5
E7
330
1E
100
AcDbEntity
  8
0
  6
Continuous
 62
     1
100
AcDbLine
 10
121.404874715
 20
37.582583145
 30
0.0
 11
122.4907243729999
 21
38.396970389
 31
0.0
  0
LINE
  5
E8
330
1E
100
AcDbEntity
  8
0
  6
Continuous
 62
     1
100
AcDbLine
 10
121.054235763
 20
37.944533031
 30
0.0
 11
121.8573120729999
 21
43.464268793
 31
0.0
  0
LINE
  5
E9
330
1E
100
AcDbEntity
  8
0
  6
Continuous
 62
     1
100
AcDbLine
 10
121.3445497339999
 20
37.49209567399999
 30
0.0
 11
121.5858496579999
 21
37.130145788
 31
0.0
  0
LINE
  5
EA
330
1E
100
AcDbEntity
  8
0
  6
Continuous
 62
     1
100
AcDbLine
 10
121.042924829
 20
37.944533031
 30
0.0
 11
121.223899772
 21
37.673070617
 31
0.0
  0
LINE
  5
EB
330
1E
100
AcDbEntity
  8
0
  6
Continuous
 62
     1
100
AcDbLine
 10
126.8341230049999
 20
38.48745786
 30
0.0
 11
122.4907243729999
 21
38.48745786
 31
0.0
  0
LINE
  5
EC
330
1E
100
AcDbEntity
  8
0
  6
Continuous
 62
     1
100
AcDbLine
 10
128.0104601349999
 20
37.622799799
 30
0.0
 11
128.1914350779999
 21
37.763558088
 31
0.0
  0
LINE
  5
ED
330
1E
100
AcDbEntity
  8
0
  6
Continuous
 62
     1
100
AcDbLine
 10
127.3770478339999
 20
37.130145788
 30
0.0
 11
127.829485192
 21
37.48204151
 31
0.0
  0
LINE
  5
EE
330
1E
100
AcDbEntity
  8
0
  6
Continuous
 62
     1
100
AcDbLine
 10
127.3770478339999
 20
37.130145788
 30
0.0
 11
121.495362187
 21
37.130145788
 31
0.0
  0
LINE
  5
EF
330
1E
100
AcDbEntity
  8
0
  6
Continuous
 62
     1
100
AcDbLine
 10
129.014305521
 20
42.80823462399999
 30
0.0
 11
128.2677838819999
 21
37.74093622
 31
0.0
  0
LINE
  5
F0
330
1E
100
AcDbEntity
  8
0
  6
Continuous
 62
     1
100
AcDbLine
 10
127.512779041
 20
42.33317539899998
 30
0.0
 11
127.0603416839998
 21
38.713676539
 31
0.0
  0
LINE
  5
F1
330
1E
100
AcDbEntity
  8
0
  6
Continuous
 62
     1
100
AcDbLine
 10
122.535968109
 20
38.713676539
 30
0.0
 11
122.988405466
 21
42.33317539899998
 31
0.0
  0
LINE
  5
F2
330
1E
100
AcDbEntity
  8
0
  6
Continuous
 62
     1
100
AcDbLine
 10
136.430432798
 20
44.09768109299997
 30
0.0
 11
134.3492209529999
 21
44.09768109299997
 31
0.0
  0
LINE
  5
F3
330
1E
100
AcDbEntity
  8
0
  6
Continuous
 62
     1
100
AcDbLine
 10
134.2587334819999
 20
42.74036902099999
 30
0.0
 11
138.7831070569999
 21
42.74036902099999
 31
0.0
  0
LINE
  5
F4
330
1E
100
AcDbEntity
  8
0
  6
Continuous
 62
     1
100
AcDbLine
 10
138.7831070569999
 20
44.27865603599999
 30
0.0
 11
139.959444186
 21
43.373781321
 31
0.0
  0
LINE
  5
F5
330
1E
100
AcDbEntity
  8
0
  6
Continuous
 62
     1
100
AcDbLine
 10
138.6926195849995
 20
44.00719362199999
 30
0.0
 11
139.8689567149999
 21
43.10231890699999
 31
0.0
  0
LINE
  5
F6
330
1E
100
AcDbEntity
  8
0
  6
Continuous
 62
     1
100
AcDbLine
 10
139.8689567149999
 20
43.10231890699999
 30
0.0
 11
138.602132114
 21
42.74036902099999
 31
0.0
  0
LINE
  5
F7
330
1E
100
AcDbEntity
  8
0
  6
Continuous
 62
     1
100
AcDbLine
 10
138.602132114
 20
42.468906606
 30
0.0
 11
139.959444186
 21
42.83085649199999
 31
0.0
  0
LINE
  5
F8
330
1E
100
AcDbEntity
  8
0
  6
Continuous
 62
     1
100
AcDbLine
 10
134.2587334819999
 20
44.09768109299997
 30
0.0
 11
133.082396352
 21
43.55475626399999
 31
0.0
  0
LINE
  5
F9
330
1E
100
AcDbEntity
  8
0
  6
Continuous
 62
     1
100
AcDbLine
 10
133.082396352
 20
43.55475626399999
 30
0.0
 11
134.1682460099999
 21
42.74036902099999
 31
0.0
  0
LINE
  5
FA
330
1E
100
AcDbEntity
  8
0
  6
Continuous
 62
     1
100
AcDbLine
 10
133.9872710669999
 20
42.559394078
 30
0.0
 11
132.810933938
 21
43.373781321
 31
0.0
  0
LINE
  5
FB
330
1E
100
AcDbEntity
  8
0
  6
Continuous
 62
     1
100
AcDbLine
 10
132.9014214089999
 20
43.735731207
 30
0.0
 11
134.2587334819999
 21
44.45963097899999
 31
0.0
  0
LINE
  5
FC
330
1E
100
AcDbEntity
  8
0
  6
Continuous
 62
     1
100
AcDbLine
 10
138.602132114
 20
44.09768109299997
 30
0.0
 11
136.5209202689999
 21
44.09768109299997
 31
0.0
  0
POINT
  5
FD
330
1E
100
AcDbEntity
  8
0
  6
Continuous
 62
     1
100
AcDbPoint
 10
139.5974943
 20
49.798391798
 30
0.0
  0
LINE
  5
FE
330
1E
100
AcDbEntity
  8
0
  6
Continuous
 62
     1
100
AcDbLine
 10
140.592856487
 20
49.436441912
 30
0.0
 11
139.507006829
 21
48.07912983899999
 31
0.0
  0
LINE
  5
FF
330
1E
100
AcDbEntity
  8
0
  6
Continuous
 62
     1
100
AcDbLine
 10
134.8921457819999
 20
48.16961731100001
 30
0.0
 11
133.9872710669999
 21
49.34595444
 31
0.0
  0
LINE
  5
100
330
1E
100
AcDbEntity
  8
0
  6
Continuous
 62
     1
100
AcDbLine
 10
134.312460418
 20
44.61798405399999
 30
0.0
 11
134.866696181
 21
48.146995443
 31
0.0
  0
LINE
  5
101
330
1E
100
AcDbEntity
  8
0
  6
Continuous
 62
     1
100
AcDbLine
 10
133.896783596
 20
49.320100877
 30
0.0
 11
133.7158086529999
 21
49.164979497
 31
0.0
  0
LINE
  5
102
330
1E
100
AcDbEntity
  8
0
  6
Continuous
 62
     1
100
AcDbLine
 10
134.3492209529999
 20
49.70790432600001
 30
0.0
 11
134.2587334819999
 21
49.63034363600001
 31
0.0
  0
LINE
  5
103
330
1E
100
AcDbEntity
  8
0
  6
Continuous
 62
     1
100
AcDbLine
 10
132.842039006
 20
43.713109339
 30
0.0
 11
133.622493448
 21
49.051870158
 31
0.0
  0
LINE
  5
104
330
1E
100
AcDbEntity
  8
0
  6
Continuous
 62
     1
100
AcDbLine
 10
139.368447888
 20
47.96602049999999
 30
0.0
 11
138.791590257
 21
44.256034168
 31
0.0
  0
LINE
  5
105
330
1E
100
AcDbEntity
  8
0
  6
Continuous
 62
     1
100
AcDbLine
 10
140.6833439579999
 20
49.44936869300001
 30
0.0
 11
140.864318901
 21
49.34595444
 31
0.0
  0
LINE
  5
106
330
1E
100
AcDbEntity
  8
0
  6
Continuous
 62
     1
100
AcDbLine
 10
134.4397084249999
 20
49.798391798
 30
0.0
 11
140.140419129
 21
49.798391798
 31
0.0
  0
LINE
  5
107
330
1E
100
AcDbEntity
  8
0
  6
Continuous
 62
     1
100
AcDbLine
 10
140.895423969
 20
49.32333257199999
 30
0.0
 11
140.03579299
 21
43.351159453
 31
0.0
  0
POINT
  5
108
330
1E
100
AcDbEntity
  8
0
  6
Continuous
 62
     1
100
AcDbPoint
 10
133.263371295
 20
37.130145788
 30
0.0
  0
LINE
  5
109
330
1E
100
AcDbEntity
  8
0
  6
Continuous
 62
     1
100
AcDbLine
 10
137.9687198129998
 20
38.668432803
 30
0.0
 11
138.964082
 21
37.673070617
 31
0.0
  0
LINE
  5
10A
330
1E
100
AcDbEntity
  8
0
  6
Continuous
 62
     1
100
AcDbLine
 10
137.78774487
 20
38.48745786
 30
0.0
 11
138.7831070569999
 21
37.49209567399999
 31
0.0
  0
LINE
  5
10B
330
1E
100
AcDbEntity
  8
0
  6
Continuous
 62
     1
100
AcDbLine
 10
133.4443462379999
 20
38.668432803
 30
0.0
 11
132.177521637
 21
37.763558088
 31
0.0
  0
LINE
  5
10C
330
1E
100
AcDbEntity
  8
0
  6
Continuous
 62
     1
100
AcDbLine
 10
132.35849658
 20
37.582583145
 30
0.0
 11
133.4443462379999
 21
38.396970389
 31
0.0
  0
LINE
  5
10D
330
1E
100
AcDbEntity
  8
0
  6
Continuous
 62
     1
100
AcDbLine
 10
132.0078576279998
 20
37.944533031
 30
0.0
 11
132.810933938
 21
43.464268793
 31
0.0
  0
LINE
  5
10E
330
1E
100
AcDbEntity
  8
0
  6
Continuous
 62
     1
100
AcDbLine
 10
132.2981715989999
 20
37.49209567399999
 30
0.0
 11
132.539471523
 21
37.130145788
 31
0.0
  0
LINE
  5
10F
330
1E
100
AcDbEntity
  8
0
  6
Continuous
 62
     1
100
AcDbLine
 10
131.9965466939999
 20
37.944533031
 30
0.0
 11
132.177521637
 21
37.673070617
 31
0.0
  0
LINE
  5
110
330
1E
100
AcDbEntity
  8
0
  6
Continuous
 62
     1
100
AcDbLine
 10
137.78774487
 20
38.48745786
 30
0.0
 11
133.4443462379999
 21
38.48745786
 31
0.0
  0
LINE
  5
111
330
1E
100
AcDbEntity
  8
0
  6
Continuous
 62
     1
100
AcDbLine
 10
138.964082
 20
37.622799799
 30
0.0
 11
139.1450569429999
 21
37.763558088
 31
0.0
  0
LINE
  5
112
330
1E
100
AcDbEntity
  8
0
  6
Continuous
 62
     1
100
AcDbLine
 10
138.330669699
 20
37.130145788
 30
0.0
 11
138.7831070569999
 21
37.48204151
 31
0.0
  0
LINE
  5
113
330
1E
100
AcDbEntity
  8
0
  6
Continuous
 62
     1
100
AcDbLine
 10
138.330669699
 20
37.130145788
 30
0.0
 11
132.448984052
 21
37.130145788
 31
0.0
  0
LINE
  5
114
330
1E
100
AcDbEntity
  8
0
  6
Continuous
 62
     1
100
AcDbLine
 10
139.967927386
 20
42.80823462399999
 30
0.0
 11
139.221405747
 21
37.74093622
 31
0.0
  0
LINE
  5
115
330
1E
100
AcDbEntity
  8
0
  6
Continuous
 62
     1
100
AcDbLine
 10
138.4664009059999
 20
42.33317539899998
 30
0.0
 11
138.013963549
 21
38.713676539
 31
0.0
  0
LINE
  5
116
330
1E
100
AcDbEntity
  8
0
  6
Continuous
 62
     1
100
AcDbLine
 10
133.942027331
 20
42.559394078
 30
0.0
 11
133.4895899739999
 21
38.939895218
 31
0.0
  0
LINE
  5
117
330
1E
100
AcDbEntity
  8
0
  6
Continuous
 62
     1
100
AcDbLine
 10
135.1636081969999
 20
48.441079725
 30
0.0
 11
139.326031886
 21
48.441079725
 31
0.0
  0
LINE
  5
118
330
1E
100
AcDbEntity
  8
0
  6
Continuous
 62
     1
100
AcDbLine
 10
135.147155929
 20
48.441079725
 30
0.0
 11
134.2587334819999
 21
49.526929383
 31
0.0
  0
LINE
  5
119
330
1E
100
AcDbEntity
  8
0
  6
Continuous
 62
     1
100
AcDbLine
 10
139.326031886
 20
48.441079725
 30
0.0
 11
140.306312827
 21
49.617416855
 31
0.0
  0
LINE
  5
11A
330
1E
100
AcDbEntity
  8
0
  6
Continuous
 62
     1
100
AcDbLine
 10
140.140419129
 20
49.75961145300001
 30
0.0
 11
140.321394072
 21
49.6561972
 31
0.0
  0
LINE
  5
11B
330
1E
100
AcDbEntity
  8
0
  6
Continuous
 62
     1
100
AcDbLine
 10
114.5231890679997
 20
44.09768109299997
 30
0.0
 11
112.441977223
 21
44.09768109299997
 31
0.0
  0
LINE
  5
11C
330
1E
100
AcDbEntity
  8
0
  6
Continuous
 62
     1
100
AcDbLine
 10
112.3514897519999
 20
42.74036902099999
 30
0.0
 11
116.875863327
 21
42.74036902099999
 31
0.0
  0
LINE
  5
11D
330
1E
100
AcDbEntity
  8
0
  6
Continuous
 62
     1
100
AcDbLine
 10
116.875863327
 20
44.27865603599999
 30
0.0
 11
118.052200456
 21
43.373781321
 31
0.0
  0
LINE
  5
11E
330
1E
100
AcDbEntity
  8
0
  6
Continuous
 62
     1
100
AcDbLine
 10
116.7853758549999
 20
44.00719362199999
 30
0.0
 11
117.961712985
 21
43.10231890699999
 31
0.0
  0
LINE
  5
11F
330
1E
100
AcDbEntity
  8
0
  6
Continuous
 62
     1
100
AcDbLine
 10
117.961712985
 20
43.10231890699999
 30
0.0
 11
116.6948883839999
 21
42.74036902099999
 31
0.0
  0
LINE
  5
120
330
1E
100
AcDbEntity
  8
0
  6
Continuous
 62
     1
100
AcDbLine
 10
116.6948883839999
 20
42.468906606
 30
0.0
 11
118.052200456
 21
42.83085649199999
 31
0.0
  0
LINE
  5
121
330
1E
100
AcDbEntity
  8
0
  6
Continuous
 62
     1
100
AcDbLine
 10
112.3514897519999
 20
44.09768109299997
 30
0.0
 11
111.175152622
 21
43.55475626399999
 31
0.0
  0
LINE
  5
122
330
1E
100
AcDbEntity
  8
0
  6
Continuous
 62
     1
100
AcDbLine
 10
111.175152622
 20
43.55475626399999
 30
0.0
 11
112.2610022799999
 21
42.74036902099999
 31
0.0
  0
LINE
  5
123
330
1E
100
AcDbEntity
  8
0
  6
Continuous
 62
     1
100
AcDbLine
 10
112.0800273369999
 20
42.559394078
 30
0.0
 11
110.9036902079999
 21
43.373781321
 31
0.0
  0
LINE
  5
124
330
1E
100
AcDbEntity
  8
0
  6
Continuous
 62
     1
100
AcDbLine
 10
110.9941776789999
 20
43.735731207
 30
0.0
 11
112.3514897519999
 21
44.45963097899999
 31
0.0
  0
LINE
  5
125
330
1E
100
AcDbEntity
  8
0
  6
Continuous
 62
     1
100
AcDbLine
 10
116.6948883839999
 20
44.09768109299997
 30
0.0
 11
114.613676539
 21
44.09768109299997
 31
0.0
  0
POINT
  5
126
330
1E
100
AcDbEntity
  8
0
  6
Continuous
 62
     1
100
AcDbPoint
 10
117.6902505699999
 20
49.798391798
 30
0.0
  0
LINE
  5
127
330
1E
100
AcDbEntity
  8
0
  6
Continuous
 62
     1
100
AcDbLine
 10
117.4187881559999
 20
48.441079725
 30
0.0
 11
118.323662871
 21
49.526929383
 31
0.0
  0
LINE
  5
128
330
1E
100
AcDbEntity
  8
0
  6
Continuous
 62
     1
100
AcDbLine
 10
118.685612757
 20
49.436441912
 30
0.0
 11
117.5997630989999
 21
48.07912983899999
 31
0.0
  0
LINE
  5
129
330
1E
100
AcDbEntity
  8
0
  6
Continuous
 62
     1
100
AcDbLine
 10
113.165876995
 20
48.531567197
 30
0.0
 11
112.3514897519999
 21
49.526929383
 31
0.0
  0
LINE
  5
12A
330
1E
100
AcDbEntity
  8
0
  6
Continuous
 62
     1
100
AcDbLine
 10
112.984902052
 20
48.16961731100001
 30
0.0
 11
112.0800273369999
 21
49.34595444
 31
0.0
  0
LINE
  5
12B
330
1E
100
AcDbEntity
  8
0
  6
Continuous
 62
     1
100
AcDbLine
 10
112.405216688
 20
44.61798405399999
 30
0.0
 11
112.959452451
 21
48.146995443
 31
0.0
  0
LINE
  5
12C
330
1E
100
AcDbEntity
  8
0
  6
Continuous
 62
     1
100
AcDbLine
 10
111.9895398659999
 20
49.320100877
 30
0.0
 11
111.8085649229998
 21
49.164979497
 31
0.0
  0
LINE
  5
12D
330
1E
100
AcDbEntity
  8
0
  6
Continuous
 62
     1
100
AcDbLine
 10
112.441977223
 20
49.70790432600001
 30
0.0
 11
112.3514897519999
 21
49.63034363600001
 31
0.0
  0
LINE
  5
12E
330
1E
100
AcDbEntity
  8
0
  6
Continuous
 62
     1
100
AcDbLine
 10
110.934795276
 20
43.713109339
 30
0.0
 11
111.7152497179999
 21
49.051870158
 31
0.0
  0
LINE
  5
12F
330
1E
100
AcDbEntity
  8
0
  6
Continuous
 62
     1
100
AcDbLine
 10
113.256364467
 20
48.441079725
 30
0.0
 11
117.509275627
 21
48.441079725
 31
0.0
  0
LINE
  5
130
330
1E
100
AcDbEntity
  8
0
  6
Continuous
 62
     1
100
AcDbLine
 10
117.4612041579998
 20
47.96602049999999
 30
0.0
 11
116.884346527
 21
44.256034168
 31
0.0
  0
LINE
  5
131
330
1E
100
AcDbEntity
  8
0
  6
Continuous
 62
     1
100
AcDbLine
 10
118.776100228
 20
49.44936869300001
 30
0.0
 11
118.957075171
 21
49.34595444
 31
0.0
  0
LINE
  5
132
330
1E
100
AcDbEntity
  8
0
  6
Continuous
 62
     1
100
AcDbLine
 10
118.323662871
 20
49.70790432600001
 30
0.0
 11
118.414150342
 21
49.6561972
 31
0.0
  0
LINE
  5
133
330
1E
100
AcDbEntity
  8
0
  6
Continuous
 62
     1
100
AcDbLine
 10
112.532464695
 20
49.798391798
 30
0.0
 11
118.233175399
 21
49.798391798
 31
0.0
  0
LINE
  5
134
330
1E
100
AcDbEntity
  8
0
  6
Continuous
 62
     1
100
AcDbLine
 10
118.9881802389999
 20
49.32333257199999
 30
0.0
 11
118.12854926
 21
43.351159453
 31
0.0
  0
POINT
  5
135
330
1E
100
AcDbEntity
  8
0
  6
Continuous
 62
     1
100
AcDbPoint
 10
111.3561275649999
 20
37.130145788
 30
0.0
  0
LINE
  5
136
330
1E
100
AcDbEntity
  8
0
  6
Continuous
 62
     1
100
AcDbLine
 10
116.0614760829999
 20
38.668432803
 30
0.0
 11
117.0568382699999
 21
37.673070617
 31
0.0
  0
LINE
  5
137
330
1E
100
AcDbEntity
  8
0
  6
Continuous
 62
     1
100
AcDbLine
 10
115.88050114
 20
38.48745786
 30
0.0
 11
116.875863327
 21
37.49209567399999
 31
0.0
  0
LINE
  5
138
330
1E
100
AcDbEntity
  8
0
  6
Continuous
 62
     1
100
AcDbLine
 10
111.5371025079997
 20
38.668432803
 30
0.0
 11
110.270277907
 21
37.763558088
 31
0.0
  0
LINE
  5
139
330
1E
100
AcDbEntity
  8
0
  6
Continuous
 62
     1
100
AcDbLine
 10
110.45125285
 20
37.582583145
 30
0.0
 11
111.5371025079997
 21
38.396970389
 31
0.0
  0
LINE
  5
13A
330
1E
100
AcDbEntity
  8
0
  6
Continuous
 62
     1
100
AcDbLine
 10
110.1006138979998
 20
37.944533031
 30
0.0
 11
110.9036902079999
 21
43.464268793
 31
0.0
  0
LINE
  5
13B
330
1E
100
AcDbEntity
  8
0
  6
Continuous
 62
     1
100
AcDbLine
 10
110.3909278689998
 20
37.49209567399999
 30
0.0
 11
110.6322277929999
 21
37.130145788
 31
0.0
  0
LINE
  5
13C
330
1E
100
AcDbEntity
  8
0
  6
Continuous
 62
     1
100
AcDbLine
 10
110.0893029639999
 20
37.944533031
 30
0.0
 11
110.270277907
 21
37.673070617
 31
0.0
  0
LINE
  5
13D
330
1E
100
AcDbEntity
  8
0
  6
Continuous
 62
     1
100
AcDbLine
 10
115.88050114
 20
38.48745786
 30
0.0
 11
111.5371025079997
 21
38.48745786
 31
0.0
  0
LINE
  5
13E
330
1E
100
AcDbEntity
  8
0
  6
Continuous
 62
     1
100
AcDbLine
 10
117.0568382699999
 20
37.622799799
 30
0.0
 11
117.2378132129999
 21
37.763558088
 31
0.0
  0
LINE
  5
13F
330
1E
100
AcDbEntity
  8
0
  6
Continuous
 62
     1
100
AcDbLine
 10
116.4234259689999
 20
37.130145788
 30
0.0
 11
116.875863327
 21
37.48204151
 31
0.0
  0
LINE
  5
140
330
1E
100
AcDbEntity
  8
0
  6
Continuous
 62
     1
100
AcDbLine
 10
116.4234259689999
 20
37.130145788
 30
0.0
 11
110.541740322
 21
37.130145788
 31
0.0
  0
LINE
  5
141
330
1E
100
AcDbEntity
  8
0
  6
Continuous
 62
     1
100
AcDbLine
 10
118.060683656
 20
42.80823462399999
 30
0.0
 11
117.314162017
 21
37.74093622
 31
0.0
  0
LINE
  5
142
330
1E
100
AcDbEntity
  8
0
  6
Continuous
 62
     1
100
AcDbLine
 10
111.5823462439999
 20
38.713676539
 30
0.0
 11
112.034783601
 21
42.33317539899998
 31
0.0
  0
LINE
  5
143
330
1E
100
AcDbEntity
  8
0
  6
Continuous
 62
     1
100
AcDbLine
 10
116.106719819
 20
38.713676539
 30
0.0
 11
116.559157176
 21
42.33317539899998
 31
0.0
  0
LINE
  5
144
330
1E
100
AcDbEntity
  8
0
  6
Continuous
 62
     1
100
AcDbLine
 10
105.9222414619999
 20
44.27865603599999
 30
0.0
 11
107.098578591
 21
43.373781321
 31
0.0
  0
LINE
  5
145
330
1E
100
AcDbEntity
  8
0
  6
Continuous
 62
     1
100
AcDbLine
 10
105.7412665189999
 20
42.468906606
 30
0.0
 11
107.098578591
 21
42.83085649199999
 31
0.0
  0
LINE
  5
146
330
1E
100
AcDbEntity
  8
0
  6
Continuous
 62
     1
100
AcDbLine
 10
107.731990892
 20
49.436441912
 30
0.0
 11
106.646141234
 21
48.07912983899999
 31
0.0
  0
LINE
  5
147
330
1E
100
AcDbEntity
  8
0
  6
Continuous
 62
     1
100
AcDbLine
 10
106.5075822929999
 20
47.96602049999999
 30
0.0
 11
105.9307246619999
 21
44.256034168
 31
0.0
  0
LINE
  5
148
330
1E
100
AcDbEntity
  8
0
  6
Continuous
 62
     1
100
AcDbLine
 10
107.8224783629998
 20
49.44936869300001
 30
0.0
 11
108.003453306
 21
49.34595444
 31
0.0
  0
LINE
  5
149
330
1E
100
AcDbEntity
  8
0
  6
Continuous
 62
     1
100
AcDbLine
 10
108.0345583739999
 20
49.32333257199999
 30
0.0
 11
107.174927395
 21
43.351159453
 31
0.0
  0
LINE
  5
14A
330
1E
100
AcDbEntity
  8
0
  6
Continuous
 62
     1
100
AcDbLine
 10
105.1078542179999
 20
38.668432803
 30
0.0
 11
106.103216405
 21
37.673070617
 31
0.0
  0
LINE
  5
14B
330
1E
100
AcDbEntity
  8
0
  6
Continuous
 62
     1
100
AcDbLine
 10
106.103216405
 20
37.622799799
 30
0.0
 11
106.284191348
 21
37.763558088
 31
0.0
  0
LINE
  5
14C
330
1E
100
AcDbEntity
  8
0
  6
Continuous
 62
     1
100
AcDbLine
 10
107.107061791
 20
42.80823462399999
 30
0.0
 11
106.360540152
 21
37.74093622
 31
0.0
  0
LINE
  5
14D
330
1E
100
AcDbEntity
  8
0
  6
Continuous
 62
     1
100
AcDbLine
 10
105.605535311
 20
42.33317539899998
 30
0.0
 11
105.153097954
 21
38.713676539
 31
0.0
  0
LINE
  5
14E
330
1E
100
AcDbEntity
  8
0
  6
Continuous
 62
     1
100
AcDbLine
 10
104.8194254029997
 20
43.961949886
 30
0.0
 11
104.683694195
 21
42.876100228
 31
0.0
  0
LINE
  5
14F
330
1E
100
AcDbEntity
  8
0
  6
Continuous
 62
     1
100
AcDbLine
 10
99.752126999
 20
43.961949886
 30
0.0
 11
99.61639579100001
 21
42.876100228
 31
0.0
  0
LINE
  5
150
330
1E
100
AcDbEntity
  8
0
  6
Continuous
 62
     1
100
AcDbLine
 10
104.8363918039999
 20
43.961949886
 30
0.0
 11
99.752126999
 21
43.961949886
 31
0.0
  0
LINE
  5
151
330
1E
100
AcDbEntity
  8
0
  6
Continuous
 62
     1
100
AcDbLine
 10
99.61639579100001
 20
42.876100228
 30
0.0
 11
104.6667277939999
 21
42.876100228
 31
0.0
  0
LINE
  5
152
330
1E
100
AcDbEntity
  8
0
  6
Continuous
 62
     1
100
AcDbLine
 10
101.912515381
 20
46.043161731
 30
0.0
 11
102.9983650389999
 21
46.043161731
 31
0.0
  0
LINE
  5
153
330
1E
100
AcDbEntity
  8
0
  6
Continuous
 62
     1
100
AcDbLine
 10
102.3423308699999
 20
40.794888384
 30
0.0
 11
101.256481212
 21
40.794888384
 31
0.0
  0
LINE
  5
154
330
1E
100
AcDbEntity
  8
0
  6
Continuous
 62
     1
100
AcDbLine
 10
102.77214636
 20
44.414387244
 30
0.0
 11
101.686296702
 21
44.414387244
 31
0.0
  0
LINE
  5
155
330
1E
100
AcDbEntity
  8
0
  6
Continuous
 62
     1
100
AcDbLine
 10
101.482699891
 20
42.423662871
 30
0.0
 11
102.5685495489998
 21
42.423662871
 31
0.0
  0
LINE
  5
156
330
1E
100
AcDbEntity
  8
0
  6
Continuous
 62
     1
100
AcDbLine
 10
102.545927681
 20
42.423662871
 30
0.0
 11
102.3423308699999
 21
40.794888384
 31
0.0
  0
LINE
  5
157
330
1E
100
AcDbEntity
  8
0
  6
Continuous
 62
     1
100
AcDbLine
 10
101.4600780229997
 20
42.423662871
 30
0.0
 11
101.256481212
 21
40.794888384
 31
0.0
  0
LINE
  5
158
330
1E
100
AcDbEntity
  8
0
  6
Continuous
 62
     1
100
AcDbLine
 10
101.912515381
 20
46.043161731
 30
0.0
 11
101.7089185699999
 21
44.414387244
 31
0.0
  0
LINE
  5
159
330
1E
100
AcDbEntity
  8
0
  6
Continuous
 62
     1
100
AcDbLine
 10
102.9983650389999
 20
46.043161731
 30
0.0
 11
102.7947682279997
 21
44.414387244
 31
0.0
  0
LINE
  5
15A
330
1E
100
AcDbEntity
  8
0
  6
Continuous
 62
     1
100
AcDbLine
 10
72.0
 20
86.5
 30
0.0
 11
168.0
 21
86.5
 31
0.0
  0
LINE
  5
15B
330
1E
100
AcDbEntity
  8
0
  6
Continuous
 62
     1
100
AcDbLine
 10
168.0
 20
86.5
 30
0.0
 11
168.0
 21
88.0
 31
0.0
  0
LINE
  5
15C
330
1E
100
AcDbEntity
  8
0
  6
Continuous
 62
     1
100
AcDbLine
 10
168.0
 20
88.0
 30
0.0
 11
72.0
 21
88.0
 31
0.0
  0
LINE
  5
15D
330
1E
100
AcDbEntity
  8
0
  6
Continuous
 62
     1
100
AcDbLine
 10
72.0
 20
88.0
 30
0.0
 11
72.0
 21
86.5
 31
0.0
  0
LINE
  5
15E
330
1E
100
AcDbEntity
  8
0
  6
Continuous
 62
     1
100
AcDbLine
 10
72.0
 20
81.5
 30
0.0
 11
168.0
 21
81.5
 31
0.0
  0
LINE
  5
15F
330
1E
100
AcDbEntity
  8
0
  6
Continuous
 62
     1
100
AcDbLine
 10
168.0
 20
81.5
 30
0.0
 11
168.0
 21
86.5
 31
0.0
  0
LINE
  5
160
330
1E
100
AcDbEntity
  8
0
  6
Continuous
 62
     1
100
AcDbLine
 10
168.0
 20
86.5
 30
0.0
 11
72.0
 21
86.5
 31
0.0
  0
LINE
  5
161
330
1E
100
AcDbEntity
  8
0
  6
Continuous
 62
     1
100
AcDbLine
 10
72.0
 20
86.5
 30
0.0
 11
72.0
 21
81.5
 31
0.0
  0
LINE
  5
162
330
1E
100
AcDbEntity
  8
0
  6
Continuous
 62
     1
100
AcDbLine
 10
168.0
 20
86.5
 30
0.0
 11
72.0
 21
86.5
 31
0.0
  0
LINE
  5
163
330
1E
100
AcDbEntity
  8
0
  6
Continuous
 62
     1
100
AcDbLine
 10
72.0
 20
88.0
 30
0.0
 11
168.0
 21
88.0
 31
0.0
  0
LINE
  5
164
330
1E
100
AcDbEntity
  8
0
  6
Continuous
 62
     1
100
AcDbLine
 10
72.0
 20
86.5
 30
0.0
 11
168.0
 21
86.5
 31
0.0
  0
LINE
  5
165
330
1E
100
AcDbEntity
  8
0
  6
Continuous
 62
     1
100
AcDbLine
 10
165.925
 20
88.0
 30
0.0
 11
165.925
 21
96.7125
 31
0.0
  0
LINE
  5
166
330
1E
100
AcDbEntity
  8
0
  6
Continuous
 62
     1
100
AcDbLine
 10
74.2
 20
100.0
 30
0.0
 11
74.075
 21
88.0
 31
0.0
  0
LINE
  5
167
330
1E
100
AcDbEntity
  8
0
  6
Continuous
 62
     1
100
AcDbLine
 10
165.8
 20
100.0
 30
0.0
 11
165.925
 21
88.0
 31
0.0
  0
LINE
  5
168
330
1E
100
AcDbEntity
  8
0
  6
Continuous
 62
     1
100
AcDbLine
 10
165.8
 20
100.0
 30
0.0
 11
74.2
 21
100.0
 31
0.0
  0
ARC
  5
169
330
1E
100
AcDbEntity
  8
0
  6
Continuous
 62
     1
100
AcDbCircle
 10
59.64046535899999
 20
103.008316927
 30
0.0
 40
15.0
100
AcDbArc
 50
319.667586953
 51
346.080732555
  0
LINE
  5
16A
330
1E
100
AcDbEntity
  8
0
  6
Continuous
 62
     1
100
AcDbLine
 10
73.275
 20
88.49999999999999
 30
0.0
 11
72.875
 21
88.49999999999999
 31
0.0
  0
LINE
  5
16B
330
1E
100
AcDbEntity
  8
0
  6
Continuous
 62
     1
100
AcDbLine
 10
72.875
 20
88.49999999999999
 30
0.0
 11
72.875
 21
88.8
 31
0.0
  0
LINE
  5
16C
330
1E
100
AcDbEntity
  8
0
  6
Continuous
 62
     1
100
AcDbLine
 10
72.875
 20
88.8
 30
0.0
 11
72.675
 21
88.8
 31
0.0
  0
LINE
  5
16D
330
1E
100
AcDbEntity
  8
0
  6
Continuous
 62
     1
100
AcDbLine
 10
72.675
 20
88.8
 30
0.0
 11
72.675
 21
89.29999999999997
 31
0.0
  0
LINE
  5
16E
330
1E
100
AcDbEntity
  8
0
  6
Continuous
 62
     1
100
AcDbLine
 10
72.675
 20
89.29999999999997
 30
0.0
 11
72.47499999999998
 21
89.29999999999997
 31
0.0
  0
LINE
  5
16F
330
1E
100
AcDbEntity
  8
0
  6
Continuous
 62
     1
100
AcDbLine
 10
72.47499999999998
 20
89.29999999999997
 30
0.0
 11
72.47499999999998
 21
89.8
 31
0.0
  0
LINE
  5
170
330
1E
100
AcDbEntity
  8
0
  6
Continuous
 62
     1
100
AcDbLine
 10
72.47499999999998
 20
89.8
 30
0.0
 11
72.275
 21
89.8
 31
0.0
  0
LINE
  5
171
330
1E
100
AcDbEntity
  8
0
  6
Continuous
 62
     1
100
AcDbLine
 10
72.275
 20
89.8
 30
0.0
 11
72.275
 21
90.29999999999999
 31
0.0
  0
LINE
  5
172
330
1E
100
AcDbEntity
  8
0
  6
Continuous
 62
     1
100
AcDbLine
 10
72.275
 20
90.29999999999999
 30
0.0
 11
72.075
 21
90.29999999999999
 31
0.0
  0
LINE
  5
173
330
1E
100
AcDbEntity
  8
0
  6
Continuous
 62
     1
100
AcDbLine
 10
72.075
 20
90.29999999999999
 30
0.0
 11
72.075
 21
90.8
 31
0.0
  0
LINE
  5
174
330
1E
100
AcDbEntity
  8
0
  6
Continuous
 62
     1
100
AcDbLine
 10
72.075
 20
90.8
 30
0.0
 11
71.875
 21
90.8
 31
0.0
  0
LINE
  5
175
330
1E
100
AcDbEntity
  8
0
  6
Continuous
 62
     1
100
AcDbLine
 10
71.875
 20
90.8
 30
0.0
 11
71.875
 21
91.3
 31
0.0
  0
LINE
  5
176
330
1E
100
AcDbEntity
  8
0
  6
Continuous
 62
     1
100
AcDbLine
 10
71.875
 20
91.3
 30
0.0
 11
71.675
 21
91.3
 31
0.0
  0
LINE
  5
177
330
1E
100
AcDbEntity
  8
0
  6
Continuous
 62
     1
100
AcDbLine
 10
71.675
 20
91.3
 30
0.0
 11
71.675
 21
91.79999999999999
 31
0.0
  0
LINE
  5
178
330
1E
100
AcDbEntity
  8
0
  6
Continuous
 62
     1
100
AcDbLine
 10
71.675
 20
91.79999999999999
 30
0.0
 11
71.47499999999998
 21
91.79999999999999
 31
0.0
  0
LINE
  5
179
330
1E
100
AcDbEntity
  8
0
  6
Continuous
 62
     1
100
AcDbLine
 10
71.47499999999998
 20
91.79999999999999
 30
0.0
 11
71.47499999999998
 21
92.3
 31
0.0
  0
LINE
  5
17A
330
1E
100
AcDbEntity
  8
0
  6
Continuous
 62
     1
100
AcDbLine
 10
71.47499999999998
 20
92.3
 30
0.0
 11
71.27500000000002
 21
92.3
 31
0.0
  0
LINE
  5
17B
330
1E
100
AcDbEntity
  8
0
  6
Continuous
 62
     1
100
AcDbLine
 10
71.27500000000002
 20
92.3
 30
0.0
 11
71.27500000000002
 21
92.79999999999999
 31
0.0
  0
LINE
  5
17C
330
1E
100
AcDbEntity
  8
0
  6
Continuous
 62
     1
100
AcDbLine
 10
71.27500000000002
 20
92.79999999999999
 30
0.0
 11
71.075
 21
92.79999999999999
 31
0.0
  0
LINE
  5
17D
330
1E
100
AcDbEntity
  8
0
  6
Continuous
 62
     1
100
AcDbLine
 10
71.075
 20
92.79999999999999
 30
0.0
 11
71.075
 21
93.3
 31
0.0
  0
LINE
  5
17E
330
1E
100
AcDbEntity
  8
0
  6
Continuous
 62
     1
100
AcDbLine
 10
74.109375
 20
91.3
 30
0.0
 11
73.275
 21
88.49999999999999
 31
0.0
  0
LINE
  5
17F
330
1E
100
AcDbEntity
  8
0
  6
Continuous
 62
     1
100
AcDbLine
 10
72.909375
 20
93.3
 30
0.0
 11
74.109375
 21
91.3
 31
0.0
  0
ARC
  5
180
330
1E
100
AcDbEntity
  8
0
  6
Continuous
 62
     1
100
AcDbCircle
 10
60.427965643
 20
101.619520446
 30
0.0
 40
15.0
100
AcDbArc
 50
326.3144427359998
 51
336.214113149
  0
ARC
  5
181
330
1E
100
AcDbEntity
  8
0
  6
Continuous
 62
     1
100
AcDbCircle
 10
180.3595346409996
 20
103.008316927
 30
0.0
 40
15.0
100
AcDbArc
 50
193.919267445
 51
220.332413047
  0
LINE
  5
182
330
1E
100
AcDbEntity
  8
0
  6
Continuous
 62
     1
100
AcDbLine
 10
166.7249999999999
 20
88.49999999999999
 30
0.0
 11
167.125
 21
88.49999999999999
 31
0.0
  0
LINE
  5
183
330
1E
100
AcDbEntity
  8
0
  6
Continuous
 62
     1
100
AcDbLine
 10
167.125
 20
88.49999999999999
 30
0.0
 11
167.125
 21
88.8
 31
0.0
  0
LINE
  5
184
330
1E
100
AcDbEntity
  8
0
  6
Continuous
 62
     1
100
AcDbLine
 10
167.125
 20
88.8
 30
0.0
 11
167.3249999999999
 21
88.8
 31
0.0
  0
LINE
  5
185
330
1E
100
AcDbEntity
  8
0
  6
Continuous
 62
     1
100
AcDbLine
 10
167.3249999999999
 20
88.8
 30
0.0
 11
167.3249999999999
 21
89.29999999999997
 31
0.0
  0
LINE
  5
186
330
1E
100
AcDbEntity
  8
0
  6
Continuous
 62
     1
100
AcDbLine
 10
167.3249999999999
 20
89.29999999999997
 30
0.0
 11
167.525
 21
89.29999999999997
 31
0.0
  0
LINE
  5
187
330
1E
100
AcDbEntity
  8
0
  6
Continuous
 62
     1
100
AcDbLine
 10
167.525
 20
89.29999999999997
 30
0.0
 11
167.525
 21
89.8
 31
0.0
  0
LINE
  5
188
330
1E
100
AcDbEntity
  8
0
  6
Continuous
 62
     1
100
AcDbLine
 10
167.525
 20
89.8
 30
0.0
 11
167.7249999999999
 21
89.8
 31
0.0
  0
LINE
  5
189
330
1E
100
AcDbEntity
  8
0
  6
Continuous
 62
     1
100
AcDbLine
 10
167.7249999999999
 20
89.8
 30
0.0
 11
167.7249999999999
 21
90.29999999999999
 31
0.0
  0
LINE
  5
18A
330
1E
100
AcDbEntity
  8
0
  6
Continuous
 62
     1
100
AcDbLine
 10
167.7249999999999
 20
90.29999999999999
 30
0.0
 11
167.925
 21
90.29999999999999
 31
0.0
  0
LINE
  5
18B
330
1E
100
AcDbEntity
  8
0
  6
Continuous
 62
     1
100
AcDbLine
 10
167.925
 20
90.29999999999999
 30
0.0
 11
167.925
 21
90.8
 31
0.0
  0
LINE
  5
18C
330
1E
100
AcDbEntity
  8
0
  6
Continuous
 62
     1
100
AcDbLine
 10
167.925
 20
90.8
 30
0.0
 11
168.125
 21
90.8
 31
0.0
  0
LINE
  5
18D
330
1E
100
AcDbEntity
  8
0
  6
Continuous
 62
     1
100
AcDbLine
 10
168.125
 20
90.8
 30
0.0
 11
168.125
 21
91.3
 31
0.0
  0
LINE
  5
18E
330
1E
100
AcDbEntity
  8
0
  6
Continuous
 62
     1
100
AcDbLine
 10
168.125
 20
91.3
 30
0.0
 11
168.3249999999999
 21
91.3
 31
0.0
  0
LINE
  5
18F
330
1E
100
AcDbEntity
  8
0
  6
Continuous
 62
     1
100
AcDbLine
 10
168.3249999999999
 20
91.3
 30
0.0
 11
168.3249999999999
 21
91.79999999999999
 31
0.0
  0
LINE
  5
190
330
1E
100
AcDbEntity
  8
0
  6
Continuous
 62
     1
100
AcDbLine
 10
168.3249999999999
 20
91.79999999999999
 30
0.0
 11
168.525
 21
91.79999999999999
 31
0.0
  0
LINE
  5
191
330
1E
100
AcDbEntity
  8
0
  6
Continuous
 62
     1
100
AcDbLine
 10
168.525
 20
91.79999999999999
 30
0.0
 11
168.525
 21
92.3
 31
0.0
  0
LINE
  5
192
330
1E
100
AcDbEntity
  8
0
  6
Continuous
 62
     1
100
AcDbLine
 10
168.525
 20
92.3
 30
0.0
 11
168.7249999999995
 21
92.3
 31
0.0
  0
LINE
  5
193
330
1E
100
AcDbEntity
  8
0
  6
Continuous
 62
     1
100
AcDbLine
 10
168.7249999999995
 20
92.3
 30
0.0
 11
168.7249999999995
 21
92.79999999999999
 31
0.0
  0
LINE
  5
194
330
1E
100
AcDbEntity
  8
0
  6
Continuous
 62
     1
100
AcDbLine
 10
168.7249999999995
 20
92.79999999999999
 30
0.0
 11
168.925
 21
92.79999999999999
 31
0.0
  0
LINE
  5
195
330
1E
100
AcDbEntity
  8
0
  6
Continuous
 62
     1
100
AcDbLine
 10
168.925
 20
92.79999999999999
 30
0.0
 11
168.925
 21
93.3
 31
0.0
  0
LINE
  5
196
330
1E
100
AcDbEntity
  8
0
  6
Continuous
 62
     1
100
AcDbLine
 10
165.890625
 20
91.3
 30
0.0
 11
166.7249999999999
 21
88.49999999999999
 31
0.0
  0
LINE
  5
197
330
1E
100
AcDbEntity
  8
0
  6
Continuous
 62
     1
100
AcDbLine
 10
167.0906249999999
 20
93.3
 30
0.0
 11
165.890625
 21
91.3
 31
0.0
  0
ARC
  5
198
330
1E
100
AcDbEntity
  8
0
  6
Continuous
 62
     1
100
AcDbCircle
 10
179.572034357
 20
101.619520446
 30
0.0
 40
15.0
100
AcDbArc
 50
203.7858868509998
 51
213.685557264
  0
LINE
  5
199
330
1E
100
AcDbEntity
  8
0
  6
Continuous
 62
     1
100
AcDbLine
 10
140.5
 20
106.0
 30
0.0
 11
140.5
 21
100.0
 31
0.0
  0
LINE
  5
19A
330
1E
100
AcDbEntity
  8
0
  6
Continuous
 62
     1
100
AcDbLine
 10
99.50000000000001
 20
106.0
 30
0.0
 11
99.50000000000001
 21
100.0
 31
0.0
  0
LINE
  5
19B
330
1E
100
AcDbEntity
  8
0
  6
Continuous
 62
     1
100
AcDbLine
 10
139.5
 20
107.0
 30
0.0
 11
100.5
 21
107.0
 31
0.0
  0
LINE
  5
19C
330
1E
100
AcDbEntity
  8
0
  6
Continuous
 62
     1
100
AcDbLine
 10
99.50000000000001
 20
106.0
 30
0.0
 11
100.5
 21
107.0
 31
0.0
  0
LINE
  5
19D
330
1E
100
AcDbEntity
  8
0
  6
Continuous
 62
     1
100
AcDbLine
 10
140.5
 20
106.0
 30
0.0
 11
139.5
 21
107.0
 31
0.0
  0
LINE
  5
19E
330
1E
100
AcDbEntity
  8
0
  6
Continuous
 62
     1
100
AcDbLine
 10
168.0
 20
170.5
 30
0.0
 11
72.0
 21
170.5
 31
0.0
  0
LINE
  5
19F
330
1E
100
AcDbEntity
  8
0
  6
Continuous
 62
     1
100
AcDbLine
 10
72.0
 20
122.5
 30
0.0
 11
168.0
 21
122.5
 31
0.0
  0
LINE
  5
1A0
330
1E
100
AcDbEntity
  8
0
  6
Continuous
 62
     1
100
AcDbLine
 10
168.965
 20
140.5
 30
0.0
 11
168.965
 21
152.5
 31
0.0
  0
ARC
  5
1A1
330
1E
100
AcDbEntity
  8
0
  6
Continuous
 62
     1
100
AcDbCircle
 10
165.1999999999999
 20
168.25
 30
0.0
 40
0.6
100
AcDbArc
 50
0.0
 51
90.0
  0
ARC
  5
1A2
330
1E
100
AcDbEntity
  8
0
  6
Continuous
 62
     1
100
AcDbCircle
 10
165.1999999999999
 20
124.75
 30
0.0
 40
0.6
100
AcDbArc
 50
270.0
 51
0.0
  0
LINE
  5
1A3
330
1E
100
AcDbEntity
  8
0
  6
Continuous
 62
     1
100
AcDbLine
 10
74.8
 20
124.15
 30
0.0
 11
165.1999999999999
 21
124.15
 31
0.0
  0
ARC
  5
1A4
330
1E
100
AcDbEntity
  8
0
  6
Continuous
 62
     1
100
AcDbCircle
 10
74.8
 20
124.75
 30
0.0
 40
0.6
100
AcDbArc
 50
180.0000000009999
 51
270.0
  0
LINE
  5
1A5
330
1E
100
AcDbEntity
  8
0
  6
Continuous
 62
     1
100
AcDbLine
 10
74.8
 20
168.8499999999999
 30
0.0
 11
165.1999999999999
 21
168.8499999999999
 31
0.0
  0
ARC
  5
1A6
330
1E
100
AcDbEntity
  8
0
  6
Continuous
 62
     1
100
AcDbCircle
 10
74.8
 20
168.25
 30
0.0
 40
0.6
100
AcDbArc
 50
90.0
 51
180.0000000009999
  0
LINE
  5
1A7
330
1E
100
AcDbEntity
  8
0
  6
Continuous
 62
     1
100
AcDbLine
 10
163.3
 20
153.5
 30
0.0
 11
163.3
 21
139.5
 31
0.0
  0
LINE
  5
1A8
330
1E
100
AcDbEntity
  8
0
  6
Continuous
 62
     1
100
AcDbLine
 10
165.8
 20
153.5
 30
0.0
 11
163.3
 21
153.5
 31
0.0
  0
LINE
  5
1A9
330
1E
100
AcDbEntity
  8
0
  6
Continuous
 62
     1
100
AcDbLine
 10
165.8
 20
139.5
 30
0.0
 11
163.3
 21
139.5
 31
0.0
  0
LINE
  5
1AA
330
1E
100
AcDbEntity
  8
0
  6
Continuous
 62
     1
100
AcDbLine
 10
168.965
 20
152.5
 30
0.0
 11
163.3
 21
152.5
 31
0.0
  0
LINE
  5
1AB
330
1E
100
AcDbEntity
  8
0
  6
Continuous
 62
     1
100
AcDbLine
 10
168.965
 20
140.5
 30
0.0
 11
163.3
 21
140.5
 31
0.0
  0
LINE
  5
1AC
330
1E
100
AcDbEntity
  8
0
  6
Continuous
 62
     1
100
AcDbLine
 10
165.8
 20
168.25
 30
0.0
 11
165.8
 21
153.5
 31
0.0
  0
LINE
  5
1AD
330
1E
100
AcDbEntity
  8
0
  6
Continuous
 62
     1
100
AcDbLine
 10
165.8
 20
139.5
 30
0.0
 11
165.8
 21
124.75
 31
0.0
  0
LINE
  5
1AE
330
1E
100
AcDbEntity
  8
0
  6
Continuous
 62
     1
100
AcDbLine
 10
165.8
 20
152.5
 30
0.0
 11
165.8
 21
140.5
 31
0.0
  0
LINE
  5
1AF
330
1E
100
AcDbEntity
  8
0
  6
Continuous
 62
     1
100
AcDbLine
 10
168.0
 20
152.5
 30
0.0
 11
168.0
 21
170.5
 31
0.0
  0
LINE
  5
1B0
330
1E
100
AcDbEntity
  8
0
  6
Continuous
 62
     1
100
AcDbLine
 10
168.0
 20
122.5
 30
0.0
 11
168.0
 21
140.5
 31
0.0
  0
LINE
  5
1B1
330
1E
100
AcDbEntity
  8
0
  6
Continuous
 62
     1
100
AcDbLine
 10
164.8
 20
150.5
 30
0.0
 11
164.8
 21
142.5
 31
0.0
  0
LINE
  5
1B2
330
1E
100
AcDbEntity
  8
0
  6
Continuous
 62
     1
100
AcDbLine
 10
164.8
 20
142.5
 30
0.0
 11
163.3
 21
142.5
 31
0.0
  0
LINE
  5
1B3
330
1E
100
AcDbEntity
  8
0
  6
Continuous
 62
     1
100
AcDbLine
 10
163.3
 20
150.5
 30
0.0
 11
164.8
 21
150.5
 31
0.0
  0
LINE
  5
1B4
330
1E
100
AcDbEntity
  8
0
  6
Continuous
 62
     1
100
AcDbLine
 10
91.0
 20
166.0
 30
0.0
 11
84.0
 21
166.0
 31
0.0
  0
LINE
  5
1B5
330
1E
100
AcDbEntity
  8
0
  6
Continuous
 62
     1
100
AcDbLine
 10
84.0
 20
166.0
 30
0.0
 11
84.0
 21
168.8499999999999
 31
0.0
  0
LINE
  5
1B6
330
1E
100
AcDbEntity
  8
0
  6
Continuous
 62
     1
100
AcDbLine
 10
91.0
 20
166.0
 30
0.0
 11
91.0
 21
168.8499999999999
 31
0.0
  0
LINE
  5
1B7
330
1E
100
AcDbEntity
  8
0
  6
Continuous
 62
     1
100
AcDbLine
 10
156.0
 20
166.0
 30
0.0
 11
149.0
 21
166.0
 31
0.0
  0
LINE
  5
1B8
330
1E
100
AcDbEntity
  8
0
  6
Continuous
 62
     1
100
AcDbLine
 10
149.0
 20
166.0
 30
0.0
 11
149.0
 21
168.8499999999999
 31
0.0
  0
LINE
  5
1B9
330
1E
100
AcDbEntity
  8
0
  6
Continuous
 62
     1
100
AcDbLine
 10
156.0
 20
166.0
 30
0.0
 11
156.0
 21
168.8499999999999
 31
0.0
  0
LINE
  5
1BA
330
1E
100
AcDbEntity
  8
0
  6
Continuous
 62
     1
100
AcDbLine
 10
156.0
 20
167.5
 30
0.0
 11
149.0
 21
167.5
 31
0.0
  0
LINE
  5
1BB
330
1E
100
AcDbEntity
  8
0
  6
Continuous
 62
     1
100
AcDbLine
 10
91.0
 20
167.5
 30
0.0
 11
84.0
 21
167.5
 31
0.0
  0
LINE
  5
1BC
330
1E
100
AcDbEntity
  8
0
  6
Continuous
 62
     1
100
AcDbLine
 10
155.0
 20
168.8499999999999
 30
0.0
 11
155.0
 21
167.5
 31
0.0
  0
LINE
  5
1BD
330
1E
100
AcDbEntity
  8
0
  6
Continuous
 62
     1
100
AcDbLine
 10
150.0
 20
168.8499999999999
 30
0.0
 11
150.0
 21
167.5
 31
0.0
  0
LINE
  5
1BE
330
1E
100
AcDbEntity
  8
0
  6
Continuous
 62
     1
100
AcDbLine
 10
90.0
 20
168.8499999999999
 30
0.0
 11
90.0
 21
167.5
 31
0.0
  0
LINE
  5
1BF
330
1E
100
AcDbEntity
  8
0
  6
Continuous
 62
     1
100
AcDbLine
 10
85.0
 20
168.8499999999999
 30
0.0
 11
85.0
 21
167.5
 31
0.0
  0
LINE
  5
1C0
330
1E
100
AcDbEntity
  8
0
  6
Continuous
 62
     1
100
AcDbLine
 10
101.0
 20
127.8
 30
0.0
 11
95.0
 21
127.8
 31
0.0
  0
LINE
  5
1C1
330
1E
100
AcDbEntity
  8
0
  6
Continuous
 62
     1
100
AcDbLine
 10
95.0
 20
127.8
 30
0.0
 11
95.0
 21
125.5
 31
0.0
  0
LINE
  5
1C2
330
1E
100
AcDbEntity
  8
0
  6
Continuous
 62
     1
100
AcDbLine
 10
95.0
 20
125.5
 30
0.0
 11
101.0
 21
125.5
 31
0.0
  0
LINE
  5
1C3
330
1E
100
AcDbEntity
  8
0
  6
Continuous
 62
     1
100
AcDbLine
 10
101.0
 20
125.5
 30
0.0
 11
101.0
 21
127.8
 31
0.0
  0
LINE
  5
1C4
330
1E
100
AcDbEntity
  8
0
  6
Continuous
 62
     1
100
AcDbLine
 10
145.0
 20
127.8
 30
0.0
 11
139.0
 21
127.8
 31
0.0
  0
LINE
  5
1C5
330
1E
100
AcDbEntity
  8
0
  6
Continuous
 62
     1
100
AcDbLine
 10
139.0
 20
127.8
 30
0.0
 11
139.0
 21
125.5
 31
0.0
  0
LINE
  5
1C6
330
1E
100
AcDbEntity
  8
0
  6
Continuous
 62
     1
100
AcDbLine
 10
139.0
 20
125.5
 30
0.0
 11
145.0
 21
125.5
 31
0.0
  0
LINE
  5
1C7
330
1E
100
AcDbEntity
  8
0
  6
Continuous
 62
     1
100
AcDbLine
 10
145.0
 20
125.5
 30
0.0
 11
145.0
 21
127.8
 31
0.0
  0
LINE
  5
1C8
330
1E
100
AcDbEntity
  8
0
  6
Continuous
 62
     1
100
AcDbLine
 10
144.5
 20
155.0999999999999
 30
0.0
 11
144.5
 21
164.1999999999999
 31
0.0
  0
LINE
  5
1C9
330
1E
100
AcDbEntity
  8
0
  6
Continuous
 62
     1
100
AcDbLine
 10
95.5
 20
155.0999999999999
 30
0.0
 11
95.5
 21
164.1999999999999
 31
0.0
  0
LINE
  5
1CA
330
1E
100
AcDbEntity
  8
0
  6
Continuous
 62
     1
100
AcDbLine
 10
144.5
 20
155.0999999999999
 30
0.0
 11
95.5
 21
155.0999999999999
 31
0.0
  0
LINE
  5
1CB
330
1E
100
AcDbEntity
  8
0
  6
Continuous
 62
     1
100
AcDbLine
 10
95.5
 20
164.1999999999999
 30
0.0
 11
144.5
 21
164.1999999999999
 31
0.0
  0
LINE
  5
1CC
330
1E
100
AcDbEntity
  8
0
  6
Continuous
 62
     1
100
AcDbLine
 10
157.5
 20
132.4999999999999
 30
0.0
 11
157.5
 21
150.5
 31
0.0
  0
LINE
  5
1CD
330
1E
100
AcDbEntity
  8
0
  6
Continuous
 62
     1
100
AcDbLine
 10
82.5
 20
132.4999999999999
 30
0.0
 11
82.5
 21
150.5
 31
0.0
  0
LINE
  5
1CE
330
1E
100
AcDbEntity
  8
0
  6
Continuous
 62
     1
100
AcDbLine
 10
157.5
 20
150.5
 30
0.0
 11
82.5
 21
150.5
 31
0.0
  0
LINE
  5
1CF
330
1E
100
AcDbEntity
  8
0
  6
Continuous
 62
     1
100
AcDbLine
 10
82.5
 20
132.4999999999999
 30
0.0
 11
157.5
 21
132.4999999999999
 31
0.0
  0
LINE
  5
1D0
330
1E
100
AcDbEntity
  8
0
  6
Continuous
 62
     1
100
AcDbLine
 10
71.035
 20
140.5
 30
0.0
 11
71.035
 21
152.5
 31
0.0
  0
LINE
  5
1D1
330
1E
100
AcDbEntity
  8
0
  6
Continuous
 62
     1
100
AcDbLine
 10
76.7
 20
153.5
 30
0.0
 11
76.7
 21
139.5
 31
0.0
  0
LINE
  5
1D2
330
1E
100
AcDbEntity
  8
0
  6
Continuous
 62
     1
100
AcDbLine
 10
74.2
 20
153.5
 30
0.0
 11
76.7
 21
153.5
 31
0.0
  0
LINE
  5
1D3
330
1E
100
AcDbEntity
  8
0
  6
Continuous
 62
     1
100
AcDbLine
 10
74.2
 20
139.5
 30
0.0
 11
76.7
 21
139.5
 31
0.0
  0
LINE
  5
1D4
330
1E
100
AcDbEntity
  8
0
  6
Continuous
 62
     1
100
AcDbLine
 10
71.035
 20
152.5
 30
0.0
 11
76.7
 21
152.5
 31
0.0
  0
LINE
  5
1D5
330
1E
100
AcDbEntity
  8
0
  6
Continuous
 62
     1
100
AcDbLine
 10
71.035
 20
140.5
 30
0.0
 11
76.7
 21
140.5
 31
0.0
  0
LINE
  5
1D6
330
1E
100
AcDbEntity
  8
0
  6
Continuous
 62
     1
100
AcDbLine
 10
74.2
 20
168.25
 30
0.0
 11
74.2
 21
153.5
 31
0.0
  0
LINE
  5
1D7
330
1E
100
AcDbEntity
  8
0
  6
Continuous
 62
     1
100
AcDbLine
 10
74.2
 20
139.5
 30
0.0
 11
74.2
 21
124.75
 31
0.0
  0
LINE
  5
1D8
330
1E
100
AcDbEntity
  8
0
  6
Continuous
 62
     1
100
AcDbLine
 10
74.2
 20
152.5
 30
0.0
 11
74.2
 21
140.5
 31
0.0
  0
LINE
  5
1D9
330
1E
100
AcDbEntity
  8
0
  6
Continuous
 62
     1
100
AcDbLine
 10
72.0
 20
152.5
 30
0.0
 11
72.0
 21
170.5
 31
0.0
  0
LINE
  5
1DA
330
1E
100
AcDbEntity
  8
0
  6
Continuous
 62
     1
100
AcDbLine
 10
72.0
 20
122.5
 30
0.0
 11
72.0
 21
140.5
 31
0.0
  0
LINE
  5
1DB
330
1E
100
AcDbEntity
  8
0
  6
Continuous
 62
     1
100
AcDbLine
 10
75.2
 20
150.5
 30
0.0
 11
75.2
 21
142.5
 31
0.0
  0
LINE
  5
1DC
330
1E
100
AcDbEntity
  8
0
  6
Continuous
 62
     1
100
AcDbLine
 10
75.2
 20
142.5
 30
0.0
 11
76.7
 21
142.5
 31
0.0
  0
LINE
  5
1DD
330
1E
100
AcDbEntity
  8
0
  6
Continuous
 62
     1
100
AcDbLine
 10
76.7
 20
150.5
 30
0.0
 11
75.2
 21
150.5
 31
0.0
  0
LINE
  5
1DE
330
1E
100
AcDbEntity
  8
0
  6
Continuous
 62
     1
100
AcDbLine
 10
140.5
 20
157.6
 30
0.0
 11
140.5
 21
159.1999999999998
 31
0.0
  0
LINE
  5
1DF
330
1E
100
AcDbEntity
  8
0
  6
Continuous
 62
     1
100
AcDbLine
 10
140.5
 20
159.1999999999998
 30
0.0
 11
99.50000000000001
 21
159.1999999999998
 31
0.0
  0
LINE
  5
1E0
330
1E
100
AcDbEntity
  8
0
  6
Continuous
 62
     1
100
AcDbLine
 10
99.50000000000001
 20
159.1999999999998
 30
0.0
 11
99.50000000000001
 21
157.6
 31
0.0
  0
LINE
  5
1E1
330
1E
100
AcDbEntity
  8
0
  6
Continuous
 62
     1
100
AcDbLine
 10
99.50000000000001
 20
157.6
 30
0.0
 11
140.5
 21
157.6
 31
0.0
  0
LINE
  5
1E2
330
1E
100
AcDbEntity
  8
0
  6
Continuous
 62
     1
100
AcDbLine
 10
234.2
 20
21.14999999999997
 30
0.0
 11
222.0
 21
21.07499999999999
 31
0.0
  0
LINE
  5
1E3
330
1E
100
AcDbEntity
  8
0
  6
Continuous
 62
     1
100
AcDbLine
 10
234.2
 20
65.84999999999999
 30
0.0
 11
222.0
 21
65.925
 31
0.0
  0
LINE
  5
1E4
330
1E
100
AcDbEntity
  8
0
  6
Continuous
 62
     1
100
AcDbLine
 10
234.2
 20
21.14999999999997
 30
0.0
 11
234.2
 21
65.84999999999999
 31
0.0
  0
LINE
  5
1E5
330
1E
100
AcDbEntity
  8
0
  6
Continuous
 62
     1
100
AcDbLine
 10
222.5
 20
49.5
 30
0.0
 11
222.5
 21
37.5
 31
0.0
  0
LINE
  5
1E6
330
1E
100
AcDbEntity
  8
0
  6
Continuous
 62
     1
100
AcDbLine
 10
227.3
 20
49.5
 30
0.0
 11
227.3
 21
37.5
 31
0.0
  0
LINE
  5
1E7
330
1E
100
AcDbEntity
  8
0
  6
Continuous
 62
     1
100
AcDbLine
 10
226.8
 20
49.5
 30
0.0
 11
226.8
 21
37.5
 31
0.0
  0
LINE
  5
1E8
330
1E
100
AcDbEntity
  8
0
  6
Continuous
 62
     1
100
AcDbLine
 10
226.3
 20
49.5
 30
0.0
 11
226.3
 21
37.5
 31
0.0
  0
LINE
  5
1E9
330
1E
100
AcDbEntity
  8
0
  6
Continuous
 62
     1
100
AcDbLine
 10
225.8
 20
49.5
 30
0.0
 11
225.8
 21
37.5
 31
0.0
  0
LINE
  5
1EA
330
1E
100
AcDbEntity
  8
0
  6
Continuous
 62
     1
100
AcDbLine
 10
225.3
 20
49.5
 30
0.0
 11
225.3
 21
37.5
 31
0.0
  0
LINE
  5
1EB
330
1E
100
AcDbEntity
  8
0
  6
Continuous
 62
     1
100
AcDbLine
 10
224.8
 20
49.5
 30
0.0
 11
224.8
 21
37.5
 31
0.0
  0
LINE
  5
1EC
330
1E
100
AcDbEntity
  8
0
  6
Continuous
 62
     1
100
AcDbLine
 10
224.3
 20
49.5
 30
0.0
 11
224.3
 21
37.5
 31
0.0
  0
LINE
  5
1ED
330
1E
100
AcDbEntity
  8
0
  6
Continuous
 62
     1
100
AcDbLine
 10
223.7999999999999
 20
49.5
 30
0.0
 11
223.7999999999999
 21
37.5
 31
0.0
  0
LINE
  5
1EE
330
1E
100
AcDbEntity
  8
0
  6
Continuous
 62
     1
100
AcDbLine
 10
223.3
 20
49.5
 30
0.0
 11
223.3
 21
37.5
 31
0.0
  0
LINE
  5
1EF
330
1E
100
AcDbEntity
  8
0
  6
Continuous
 62
     1
100
AcDbLine
 10
222.8
 20
49.5
 30
0.0
 11
222.8
 21
37.5
 31
0.0
  0
LINE
  5
1F0
330
1E
100
AcDbEntity
  8
0
  6
Continuous
 62
     1
100
AcDbLine
 10
233.6999999999999
 20
49.5
 30
0.0
 11
233.6999999999999
 21
37.5
 31
0.0
  0
LINE
  5
1F1
330
1E
100
AcDbEntity
  8
0
  6
Continuous
 62
     1
100
AcDbLine
 10
233.6999999999999
 20
49.5
 30
0.0
 11
222.5
 21
49.5
 31
0.0
  0
LINE
  5
1F2
330
1E
100
AcDbEntity
  8
0
  6
Continuous
 62
     1
100
AcDbLine
 10
233.6999999999999
 20
37.5
 30
0.0
 11
222.5
 21
37.5
 31
0.0
  0
LINE
  5
1F3
330
1E
100
AcDbEntity
  8
0
  6
Continuous
 62
     1
100
AcDbLine
 10
234.2
 20
36.5
 30
0.0
 11
222.0
 21
36.5
 31
0.0
  0
LINE
  5
1F4
330
1E
100
AcDbEntity
  8
0
  6
Continuous
 62
     1
100
AcDbLine
 10
234.2
 20
50.5
 30
0.0
 11
222.0
 21
50.5
 31
0.0
  0
LINE
  5
1F5
330
1E
100
AcDbEntity
  8
0
  6
Continuous
 62
     1
100
AcDbLine
 10
232.6999999999999
 20
49.5
 30
0.0
 11
232.6999999999999
 21
50.5
 31
0.0
  0
LINE
  5
1F6
330
1E
100
AcDbEntity
  8
0
  6
Continuous
 62
     1
100
AcDbLine
 10
232.6999999999999
 20
36.5
 30
0.0
 11
232.6999999999999
 21
37.5
 31
0.0
  0
LINE
  5
1F7
330
1E
100
AcDbEntity
  8
0
  6
Continuous
 62
     1
100
AcDbLine
 10
220.5
 20
67.5
 30
0.0
 11
222.0
 21
67.5
 31
0.0
  0
POINT
  5
1F8
330
1E
100
AcDbEntity
  8
0
  6
Continuous
 62
     1
100
AcDbPoint
 10
222.0
 20
67.5
 30
0.0
  0
LINE
  5
1F9
330
1E
100
AcDbEntity
  8
0
  6
Continuous
 62
     1
100
AcDbLine
 10
222.0
 20
67.5
 30
0.0
 11
222.0
 21
65.9
 31
0.0
  0
POINT
  5
1FA
330
1E
100
AcDbEntity
  8
0
  6
Continuous
 62
     1
100
AcDbPoint
 10
222.0
 20
65.9
 30
0.0
  0
LINE
  5
1FB
330
1E
100
AcDbEntity
  8
0
  6
Continuous
 62
     1
100
AcDbLine
 10
216.05
 20
65.75
 30
0.0
 11
215.7
 21
65.75
 31
0.0
  0
LINE
  5
1FC
330
1E
100
AcDbEntity
  8
0
  6
Continuous
 62
     1
100
AcDbLine
 10
216.1
 20
67.5
 30
0.0
 11
220.5
 21
67.5
 31
0.0
  0
LINE
  5
1FD
330
1E
100
AcDbEntity
  8
0
  6
Continuous
 62
     1
100
AcDbLine
 10
215.7
 20
67.09999999999999
 30
0.0
 11
215.7
 21
65.75
 31
0.0
  0
LINE
  5
1FE
330
1E
100
AcDbEntity
  8
0
  6
Continuous
 62
     1
100
AcDbLine
 10
216.1
 20
67.5
 30
0.0
 11
215.7
 21
67.09999999999999
 31
0.0
  0
LINE
  5
1FF
330
1E
100
AcDbEntity
  8
0
  6
Continuous
 62
     1
100
AcDbLine
 10
220.5
 20
19.5
 30
0.0
 11
222.0
 21
19.5
 31
0.0
  0
POINT
  5
200
330
1E
100
AcDbEntity
  8
0
  6
Continuous
 62
     1
100
AcDbPoint
 10
222.0
 20
19.5
 30
0.0
  0
LINE
  5
201
330
1E
100
AcDbEntity
  8
0
  6
Continuous
 62
     1
100
AcDbLine
 10
222.0
 20
19.5
 30
0.0
 11
222.0
 21
21.1
 31
0.0
  0
POINT
  5
202
330
1E
100
AcDbEntity
  8
0
  6
Continuous
 62
     1
100
AcDbPoint
 10
222.0
 20
21.1
 30
0.0
  0
LINE
  5
203
330
1E
100
AcDbEntity
  8
0
  6
Continuous
 62
     1
100
AcDbLine
 10
216.05
 20
21.25
 30
0.0
 11
215.7
 21
21.25
 31
0.0
  0
LINE
  5
204
330
1E
100
AcDbEntity
  8
0
  6
Continuous
 62
     1
100
AcDbLine
 10
215.7
 20
19.9
 30
0.0
 11
215.7
 21
21.25
 31
0.0
  0
LINE
  5
205
330
1E
100
AcDbEntity
  8
0
  6
Continuous
 62
     1
100
AcDbLine
 10
216.1
 20
19.5
 30
0.0
 11
220.5
 21
19.5
 31
0.0
  0
LINE
  5
206
330
1E
100
AcDbEntity
  8
0
  6
Continuous
 62
     1
100
AcDbLine
 10
215.7
 20
19.9
 30
0.0
 11
216.1
 21
19.5
 31
0.0
  0
LINE
  5
207
330
1E
100
AcDbEntity
  8
0
  6
Continuous
 62
     1
100
AcDbLine
 10
216.05
 20
65.75
 30
0.0
 11
216.05
 21
21.25
 31
0.0
  0
LINE
  5
208
330
1E
100
AcDbEntity
  8
0
  6
Continuous
 62
     1
100
AcDbLine
 10
220.6999999999999
 20
64.75
 30
0.0
 11
220.1999999999999
 21
64.75
 31
0.0
  0
LINE
  5
209
330
1E
100
AcDbEntity
  8
0
  6
Continuous
 62
     1
100
AcDbLine
 10
220.6999999999999
 20
64.75
 30
0.0
 11
220.6999999999999
 21
67.5
 31
0.0
  0
LINE
  5
20A
330
1E
100
AcDbEntity
  8
0
  6
Continuous
 62
     1
100
AcDbLine
 10
220.6999999999999
 20
22.25
 30
0.0
 11
220.1999999999999
 21
22.25
 31
0.0
  0
LINE
  5
20B
330
1E
100
AcDbEntity
  8
0
  6
Continuous
 62
     1
100
AcDbLine
 10
220.6999999999999
 20
22.25
 30
0.0
 11
220.6999999999999
 21
19.5
 31
0.0
  0
LINE
  5
20C
330
1E
100
AcDbEntity
  8
0
  6
Continuous
 62
     1
100
AcDbLine
 10
222.0
 20
65.9
 30
0.0
 11
222.0
 21
19.5
 31
0.0
  0
LINE
  5
20D
330
1E
100
AcDbEntity
  8
0
  6
Continuous
 62
     1
100
AcDbLine
 10
220.1999999999999
 20
22.25
 30
0.0
 11
220.1999999999999
 21
64.75
 31
0.0
  0
LINE
  5
20E
330
1E
100
AcDbEntity
  8
0
  6
Continuous
 62
     1
100
AcDbLine
 10
241.4
 20
32.4
 30
0.0
 11
234.2
 21
32.4
 31
0.0
  0
LINE
  5
20F
330
1E
100
AcDbEntity
  8
0
  6
Continuous
 62
     1
100
AcDbLine
 10
241.6999999999999
 20
32.1
 30
0.0
 11
241.4
 21
32.4
 31
0.0
  0
LINE
  5
210
330
1E
100
AcDbEntity
  8
0
  6
Continuous
 62
     1
100
AcDbLine
 10
234.2
 20
30.8
 30
0.0
 11
241.4
 21
30.8
 31
0.0
  0
LINE
  5
211
330
1E
100
AcDbEntity
  8
0
  6
Continuous
 62
     1
100
AcDbLine
 10
241.6999999999999
 20
31.1
 30
0.0
 11
241.6999999999999
 21
32.1
 31
0.0
  0
ARC
  5
212
330
1E
100
AcDbEntity
  8
0
  6
Continuous
 62
     1
100
AcDbCircle
 10
241.4
 20
31.1
 30
0.0
 40
0.3
100
AcDbArc
 50
270.0
 51
0.0
  0
LINE
  5
213
330
1E
100
AcDbEntity
  8
0
  6
Continuous
 62
     1
100
AcDbLine
 10
257.0
 20
130.0
 30
0.0
 11
211.0
 21
130.0
 31
0.0
  0
LINE
  5
214
330
1E
100
AcDbEntity
  8
0
  6
Continuous
 62
     1
100
AcDbLine
 10
211.0
 20
130.0
 30
0.0
 11
211.0
 21
152.5
 31
0.0
  0
LINE
  5
215
330
1E
100
AcDbEntity
  8
0
  6
Continuous
 62
     1
100
AcDbLine
 10
257.0
 20
130.0
 30
0.0
 11
257.0
 21
152.5
 31
0.0
  0
LINE
  5
216
330
1E
100
AcDbEntity
  8
0
  6
Continuous
 62
     1
100
AcDbLine
 10
257.0
 20
152.5
 30
0.0
 11
211.0
 21
152.5
 31
0.0
  0
LINE
  5
217
330
1E
100
AcDbEntity
  8
0
  6
Continuous
 62
     1
100
AcDbLine
 10
200.1999999999999
 20
164.5
 30
0.0
 11
200.1999999999999
 21
167.5
 31
0.0
  0
LINE
  5
218
330
1E
100
AcDbEntity
  8
0
  6
Continuous
 62
     1
100
AcDbLine
 10
200.1999999999999
 20
167.5
 30
0.0
 11
203.2
 21
167.5
 31
0.0
  0
LINE
  5
219
330
1E
100
AcDbEntity
  8
0
  6
Continuous
 62
     1
100
AcDbLine
 10
203.2
 20
167.5
 30
0.0
 11
203.2
 21
164.5
 31
0.0
  0
LINE
  5
21A
330
1E
100
AcDbEntity
  8
0
  6
Continuous
 62
     1
100
AcDbLine
 10
203.2
 20
164.5
 30
0.0
 11
200.1999999999999
 21
164.5
 31
0.0
  0
LINE
  5
21B
330
1E
100
AcDbEntity
  8
0
  6
Continuous
 62
     1
100
AcDbLine
 10
200.1999999999999
 20
167.5
 30
0.0
 11
203.2
 21
167.5
 31
0.0
  0
LINE
  5
21C
330
1E
100
AcDbEntity
  8
0
  6
Continuous
 62
     1
100
AcDbLine
 10
203.2
 20
167.4
 30
0.0
 11
200.1999999999999
 21
167.4
 31
0.0
  0
LINE
  5
21D
330
1E
100
AcDbEntity
  8
0
  6
Continuous
 62
     1
100
AcDbLine
 10
200.1999999999999
 20
167.3
 30
0.0
 11
203.2
 21
167.3
 31
0.0
  0
LINE
  5
21E
330
1E
100
AcDbEntity
  8
0
  6
Continuous
 62
     1
100
AcDbLine
 10
203.2
 20
167.1999999999998
 30
0.0
 11
200.1999999999999
 21
167.1999999999998
 31
0.0
  0
LINE
  5
21F
330
1E
100
AcDbEntity
  8
0
  6
Continuous
 62
     1
100
AcDbLine
 10
200.1999999999999
 20
167.1
 30
0.0
 11
203.2
 21
167.1
 31
0.0
  0
LINE
  5
220
330
1E
100
AcDbEntity
  8
0
  6
Continuous
 62
     1
100
AcDbLine
 10
203.2
 20
167.0
 30
0.0
 11
200.1999999999999
 21
167.0
 31
0.0
  0
LINE
  5
221
330
1E
100
AcDbEntity
  8
0
  6
Continuous
 62
     1
100
AcDbLine
 10
200.1999999999999
 20
166.9
 30
0.0
 11
203.2
 21
166.9
 31
0.0
  0
LINE
  5
222
330
1E
100
AcDbEntity
  8
0
  6
Continuous
 62
     1
100
AcDbLine
 10
203.2
 20
166.8
 30
0.0
 11
200.1999999999999
 21
166.8
 31
0.0
  0
LINE
  5
223
330
1E
100
AcDbEntity
  8
0
  6
Continuous
 62
     1
100
AcDbLine
 10
200.1999999999999
 20
166.6999999999999
 30
0.0
 11
203.2
 21
166.6999999999999
 31
0.0
  0
LINE
  5
224
330
1E
100
AcDbEntity
  8
0
  6
Continuous
 62
     1
100
AcDbLine
 10
203.2
 20
166.5999999999999
 30
0.0
 11
200.1999999999999
 21
166.5999999999999
 31
0.0
  0
LINE
  5
225
330
1E
100
AcDbEntity
  8
0
  6
Continuous
 62
     1
100
AcDbLine
 10
200.1999999999999
 20
166.5
 30
0.0
 11
203.2
 21
166.5
 31
0.0
  0
LINE
  5
226
330
1E
100
AcDbEntity
  8
0
  6
Continuous
 62
     1
100
AcDbLine
 10
203.2
 20
166.4
 30
0.0
 11
200.1999999999999
 21
166.4
 31
0.0
  0
LINE
  5
227
330
1E
100
AcDbEntity
  8
0
  6
Continuous
 62
     1
100
AcDbLine
 10
200.1999999999999
 20
166.3
 30
0.0
 11
203.2
 21
166.3
 31
0.0
  0
LINE
  5
228
330
1E
100
AcDbEntity
  8
0
  6
Continuous
 62
     1
100
AcDbLine
 10
203.2
 20
166.1999999999999
 30
0.0
 11
200.1999999999999
 21
166.1999999999999
 31
0.0
  0
LINE
  5
229
330
1E
100
AcDbEntity
  8
0
  6
Continuous
 62
     1
100
AcDbLine
 10
200.1999999999999
 20
166.1
 30
0.0
 11
203.2
 21
166.1
 31
0.0
  0
LINE
  5
22A
330
1E
100
AcDbEntity
  8
0
  6
Continuous
 62
     1
100
AcDbLine
 10
203.2
 20
166.0
 30
0.0
 11
200.1999999999999
 21
166.0
 31
0.0
  0
LINE
  5
22B
330
1E
100
AcDbEntity
  8
0
  6
Continuous
 62
     1
100
AcDbLine
 10
200.1999999999999
 20
165.8999999999998
 30
0.0
 11
203.2
 21
165.8999999999998
 31
0.0
  0
LINE
  5
22C
330
1E
100
AcDbEntity
  8
0
  6
Continuous
 62
     1
100
AcDbLine
 10
203.2
 20
165.8
 30
0.0
 11
200.1999999999999
 21
165.8
 31
0.0
  0
LINE
  5
22D
330
1E
100
AcDbEntity
  8
0
  6
Continuous
 62
     1
100
AcDbLine
 10
200.1999999999999
 20
165.7
 30
0.0
 11
203.2
 21
165.7
 31
0.0
  0
LINE
  5
22E
330
1E
100
AcDbEntity
  8
0
  6
Continuous
 62
     1
100
AcDbLine
 10
203.2
 20
165.5999999999995
 30
0.0
 11
200.1999999999999
 21
165.5999999999995
 31
0.0
  0
LINE
  5
22F
330
1E
100
AcDbEntity
  8
0
  6
Continuous
 62
     1
100
AcDbLine
 10
200.1999999999999
 20
165.5
 30
0.0
 11
203.2
 21
165.5
 31
0.0
  0
LINE
  5
230
330
1E
100
AcDbEntity
  8
0
  6
Continuous
 62
     1
100
AcDbLine
 10
203.2
 20
165.4
 30
0.0
 11
200.1999999999999
 21
165.4
 31
0.0
  0
LINE
  5
231
330
1E
100
AcDbEntity
  8
0
  6
Continuous
 62
     1
100
AcDbLine
 10
200.1999999999999
 20
165.3
 30
0.0
 11
203.2
 21
165.3
 31
0.0
  0
LINE
  5
232
330
1E
100
AcDbEntity
  8
0
  6
Continuous
 62
     1
100
AcDbLine
 10
203.2
 20
165.1999999999999
 30
0.0
 11
200.1999999999999
 21
165.1999999999999
 31
0.0
  0
LINE
  5
233
330
1E
100
AcDbEntity
  8
0
  6
Continuous
 62
     1
100
AcDbLine
 10
200.1999999999999
 20
165.0999999999999
 30
0.0
 11
203.2
 21
165.0999999999999
 31
0.0
  0
LINE
  5
234
330
1E
100
AcDbEntity
  8
0
  6
Continuous
 62
     1
100
AcDbLine
 10
203.2
 20
165.0
 30
0.0
 11
200.1999999999999
 21
165.0
 31
0.0
  0
LINE
  5
235
330
1E
100
AcDbEntity
  8
0
  6
Continuous
 62
     1
100
AcDbLine
 10
200.1999999999999
 20
164.9
 30
0.0
 11
203.2
 21
164.9
 31
0.0
  0
LINE
  5
236
330
1E
100
AcDbEntity
  8
0
  6
Continuous
 62
     1
100
AcDbLine
 10
203.2
 20
164.8
 30
0.0
 11
200.1999999999999
 21
164.8
 31
0.0
  0
LINE
  5
237
330
1E
100
AcDbEntity
  8
0
  6
Continuous
 62
     1
100
AcDbLine
 10
200.1999999999999
 20
164.7
 30
0.0
 11
203.2
 21
164.7
 31
0.0
  0
LINE
  5
238
330
1E
100
AcDbEntity
  8
0
  6
Continuous
 62
     1
100
AcDbLine
 10
203.2
 20
164.5999999999999
 30
0.0
 11
200.1999999999999
 21
164.5999999999999
 31
0.0
  0
LINE
  5
239
330
1E
100
AcDbEntity
  8
0
  6
Continuous
 62
     1
100
AcDbLine
 10
200.1999999999999
 20
164.5
 30
0.0
 11
203.2
 21
164.5
 31
0.0
  0
TEXT
  5
23A
330
1E
100
AcDbEntity
  8
0
  6
Continuous
 62
     1
100
AcDbText
 10
205.2
 20
164.4
 30
0.4
 40
3.0
  1
ＰＡＮＥＬ　ＣＵＴ
 41
0.8
  7
KANJI1
100
AcDbText
  0
LINE
  5
23B
330
1E
100
AcDbEntity
  8
0
  6
LTYPE1
 62
     1
100
AcDbLine
 10
234.2
 20
34.29999999999999
 30
0.4
 11
245.4
 21
34.29999999999999
 31
0.4
  0
LINE
  5
23C
330
1E
100
AcDbEntity
  8
0
  6
LTYPE1
 62
     1
100
AcDbLine
 10
245.4
 20
34.29999999999999
 30
0.0
 11
245.4
 21
27.3
 31
0.0
  0
LINE
  5
23D
330
1E
100
AcDbEntity
  8
0
  6
LTYPE1
 62
     1
100
AcDbLine
 10
245.4
 20
27.3
 30
0.0
 11
234.2
 21
27.3
 31
0.0
  0
LINE
  5
23E
330
1E
100
AcDbEntity
  8
0
  6
LTYPE1
 62
     1
100
AcDbLine
 10
250.1999999999999
 20
29.6
 30
0.0
 11
250.1999999999999
 21
30.0
 31
0.0
  0
LINE
  5
23F
330
1E
100
AcDbEntity
  8
0
  6
LTYPE1
 62
     1
100
AcDbLine
 10
245.4
 20
29.6
 30
0.0
 11
250.1999999999999
 21
29.6
 31
0.0
  0
LINE
  5
240
330
1E
100
AcDbEntity
  8
0
  6
LTYPE1
 62
     1
100
AcDbLine
 10
250.1999999999999
 20
30.0
 30
0.0
 11
245.4
 21
30.0
 31
0.0
  0
LINE
  5
241
330
1E
100
AcDbEntity
  8
0
  6
Continuous
 62
     3
100
AcDbLine
 10
259.2
 20
21.14999999999997
 30
0.0
 11
259.7176380899999
 21
23.081851653
 31
0.0
  0
LINE
  5
242
330
1E
100
AcDbEntity
  8
0
  6
Continuous
 62
     3
100
AcDbLine
 10
259.2
 20
21.14999999999997
 30
0.0
 11
258.68236191
 21
23.081851653
 31
0.0
  0
LINE
  5
243
330
1E
100
AcDbEntity
  8
0
  6
Continuous
 62
     3
100
AcDbLine
 10
235.1999999999999
 20
21.14999999999997
 30
0.0
 11
260.1999999999999
 21
21.14999999999997
 31
0.0
  0
LINE
  5
244
330
1E
100
AcDbEntity
  8
0
  6
Continuous
 62
     3
100
AcDbLine
 10
215.7
 20
11.5
 30
0.0
 11
217.6318516529999
 21
10.98236191
 31
0.0
  0
LINE
  5
245
330
1E
100
AcDbEntity
  8
0
  6
Continuous
 62
     3
100
AcDbLine
 10
215.7
 20
11.5
 30
0.0
 11
217.6318516529999
 21
12.01763809
 31
0.0
  0
LINE
  5
246
330
1E
100
AcDbEntity
  8
0
  6
Continuous
 62
     3
100
AcDbLine
 10
215.7
 20
11.5
 30
0.0
 11
241.6999999999999
 21
11.5
 31
0.0
  0
LINE
  5
247
330
1E
100
AcDbEntity
  8
0
  6
Continuous
 62
     3
100
AcDbLine
 10
241.6999999999999
 20
11.5
 30
0.0
 11
239.7681483479999
 21
12.01763809
 31
0.0
  0
LINE
  5
248
330
1E
100
AcDbEntity
  8
0
  6
Continuous
 62
     3
100
AcDbLine
 10
241.6999999999999
 20
11.5
 30
0.0
 11
239.7681483479999
 21
10.98236191
 31
0.0
  0
TEXT
  5
249
330
1E
100
AcDbEntity
  8
0
  6
Continuous
 62
     3
100
AcDbText
 10
227.0
 20
12.5
 30
0.0
 40
2.0
  1
２６
 41
0.85
  7
KANJI2
100
AcDbText
  0
LINE
  5
24A
330
1E
100
AcDbEntity
  8
0
  6
Continuous
 62
     3
100
AcDbLine
 10
215.7
 20
15.5
 30
0.0
 11
217.6318516529999
 21
14.98236191
 31
0.0
  0
LINE
  5
24B
330
1E
100
AcDbEntity
  8
0
  6
Continuous
 62
     3
100
AcDbLine
 10
215.7
 20
15.5
 30
0.0
 11
217.6318516529999
 21
16.01763808999999
 31
0.0
  0
LINE
  5
24C
330
1E
100
AcDbEntity
  8
0
  6
Continuous
 62
     3
100
AcDbLine
 10
215.7
 20
15.5
 30
0.0
 11
222.0
 21
15.5
 31
0.0
  0
LINE
  5
24D
330
1E
100
AcDbEntity
  8
0
  6
Continuous
 62
     3
100
AcDbLine
 10
222.0
 20
15.5
 30
0.0
 11
220.0681483479999
 21
16.01763808999999
 31
0.0
  0
LINE
  5
24E
330
1E
100
AcDbEntity
  8
0
  6
Continuous
 62
     3
100
AcDbLine
 10
222.0
 20
15.5
 30
0.0
 11
220.0681483479999
 21
14.98236191
 31
0.0
  0
LINE
  5
24F
330
1E
100
AcDbEntity
  8
0
  6
Continuous
 62
     3
100
AcDbLine
 10
222.0
 20
15.5
 30
0.0
 11
223.931851653
 21
14.98236191
 31
0.0
  0
LINE
  5
250
330
1E
100
AcDbEntity
  8
0
  6
Continuous
 62
     3
100
AcDbLine
 10
222.0
 20
15.5
 30
0.0
 11
223.931851653
 21
16.01763808999999
 31
0.0
  0
LINE
  5
251
330
1E
100
AcDbEntity
  8
0
  6
Continuous
 62
     3
100
AcDbLine
 10
222.0
 20
15.5
 30
0.0
 11
234.2
 21
15.5
 31
0.0
  0
LINE
  5
252
330
1E
100
AcDbEntity
  8
0
  6
Continuous
 62
     3
100
AcDbLine
 10
234.2
 20
15.5
 30
0.0
 11
232.2681483479999
 21
16.01763808999999
 31
0.0
  0
LINE
  5
253
330
1E
100
AcDbEntity
  8
0
  6
Continuous
 62
     3
100
AcDbLine
 10
234.2
 20
15.5
 30
0.0
 11
232.2681483479999
 21
14.98236191
 31
0.0
  0
LINE
  5
254
330
1E
100
AcDbEntity
  8
0
  6
Continuous
 62
     3
100
AcDbLine
 10
234.2
 20
15.5
 30
0.0
 11
236.1318516529999
 21
14.98236191
 31
0.0
  0
LINE
  5
255
330
1E
100
AcDbEntity
  8
0
  6
Continuous
 62
     3
100
AcDbLine
 10
234.2
 20
15.5
 30
0.0
 11
236.1318516529999
 21
16.01763808999999
 31
0.0
  0
LINE
  5
256
330
1E
100
AcDbEntity
  8
0
  6
Continuous
 62
     3
100
AcDbLine
 10
234.2
 20
15.5
 30
0.0
 11
241.6999999999999
 21
15.5
 31
0.0
  0
LINE
  5
257
330
1E
100
AcDbEntity
  8
0
  6
Continuous
 62
     3
100
AcDbLine
 10
241.6999999999999
 20
15.5
 30
0.0
 11
239.7681483479999
 21
16.01763808999999
 31
0.0
  0
LINE
  5
258
330
1E
100
AcDbEntity
  8
0
  6
Continuous
 62
     3
100
AcDbLine
 10
241.6999999999999
 20
15.5
 30
0.0
 11
239.7681483479999
 21
14.98236191
 31
0.0
  0
TEXT
  5
259
330
1E
100
AcDbEntity
  8
0
  6
Continuous
 62
     3
100
AcDbText
 10
230.5
 20
13.25
 30
0.0
 40
1.5
  1
±１
 41
0.8666666670000001
  7
KANJI3
100
AcDbText
  0
LINE
  5
25A
330
1E
100
AcDbEntity
  8
0
  6
Continuous
 62
     3
100
AcDbLine
 10
215.7
 20
18.89999999999998
 30
0.0
 11
215.7
 21
10.5
 31
0.0
  0
LINE
  5
25B
330
1E
100
AcDbEntity
  8
0
  6
Continuous
 62
     3
100
AcDbLine
 10
241.6999999999999
 20
30.10000258999999
 30
0.0
 11
241.6999999999999
 21
10.5
 31
0.0
  0
LINE
  5
25C
330
1E
100
AcDbEntity
  8
0
  6
Continuous
 62
     3
100
AcDbLine
 10
215.7
 20
18.5
 30
0.0
 11
215.7
 21
14.5
 31
0.0
  0
LINE
  5
25D
330
1E
100
AcDbEntity
  8
0
  6
Continuous
 62
     3
100
AcDbLine
 10
222.0
 20
18.5
 30
0.0
 11
222.0
 21
14.5
 31
0.0
  0
TEXT
  5
25E
330
1E
100
AcDbEntity
  8
0
  6
Continuous
 62
     3
100
AcDbText
 10
216.3
 20
16.5
 30
0.0
 40
2.0
  1
６.３
 41
0.85
  7
KANJI2
100
AcDbText
  0
LINE
  5
25F
330
1E
100
AcDbEntity
  8
0
  6
Continuous
 62
     3
100
AcDbLine
 10
222.0
 20
18.5
 30
0.0
 11
222.0
 21
14.5
 31
0.0
  0
LINE
  5
260
330
1E
100
AcDbEntity
  8
0
  6
Continuous
 62
     3
100
AcDbLine
 10
234.2
 20
20.15
 30
0.0
 11
234.2
 21
14.5
 31
0.0
  0
TEXT
  5
261
330
1E
100
AcDbEntity
  8
0
  6
Continuous
 62
     3
100
AcDbText
 10
224.6999999999999
 20
16.5
 30
0.0
 40
2.0
  1
１２.２
 41
0.85
  7
KANJI2
100
AcDbText
  0
LINE
  5
262
330
1E
100
AcDbEntity
  8
0
  6
Continuous
 62
     3
100
AcDbLine
 10
234.2
 20
20.15
 30
0.0
 11
234.2
 21
14.5
 31
0.0
  0
LINE
  5
263
330
1E
100
AcDbEntity
  8
0
  6
Continuous
 62
     3
100
AcDbLine
 10
241.6999999999999
 20
30.10000258999999
 30
0.0
 11
241.6999999999999
 21
14.5
 31
0.0
  0
TEXT
  5
264
330
1E
100
AcDbEntity
  8
0
  6
Continuous
 62
     3
100
AcDbText
 10
234.2
 20
16.5
 30
0.0
 40
2.0
  1
（７.５）
 41
0.75
  7
KANJI4
100
AcDbText
  0
LINE
  5
265
330
1E
100
AcDbEntity
  8
0
  6
Continuous
 62
     3
100
AcDbLine
 10
222.5
 20
21.941025404
 30
0.0
 11
227.4999999999999
 21
30.60127944099999
 31
0.0
  0
LINE
  5
266
330
1E
100
AcDbEntity
  8
0
  6
Continuous
 62
     3
100
AcDbLine
 10
227.0
 20
29.735254038
 30
0.0
 11
227.51763809
 21
31.66710569
 31
0.0
  0
LINE
  5
267
330
1E
100
AcDbEntity
  8
0
  6
Continuous
 62
     3
100
AcDbLine
 10
227.0
 20
29.735254038
 30
0.0
 11
226.4823619099999
 21
31.66710569
 31
0.0
  0
TEXT
  5
268
330
1E
100
AcDbEntity
  8
0
  6
Continuous
 62
     3
100
AcDbText
 10
226.0
 20
52.910254038
 30
0.0
 40
2.0
  1
４４.８５
 50
90.0
 41
0.85
  7
KANJI2
100
AcDbText
  0
LINE
  5
269
330
1E
100
AcDbEntity
  8
0
  6
Continuous
 62
     3
100
AcDbLine
 10
215.7
 20
68.09999999999999
 30
0.0
 11
215.7
 21
73.5
 31
0.0
  0
LINE
  5
26A
330
1E
100
AcDbEntity
  8
0
  6
Continuous
 62
     3
100
AcDbLine
 10
215.7
 20
72.5
 30
0.0
 11
217.6318516529999
 21
71.98236190999998
 31
0.0
  0
LINE
  5
26B
330
1E
100
AcDbEntity
  8
0
  6
Continuous
 62
     3
100
AcDbLine
 10
215.7
 20
72.5
 30
0.0
 11
217.6318516529999
 21
73.01763809
 31
0.0
  0
LINE
  5
26C
330
1E
100
AcDbEntity
  8
0
  6
Continuous
 62
     3
100
AcDbLine
 10
227.0
 20
74.585254038
 30
0.0
 11
226.4823619099999
 21
72.65340238500002
 31
0.0
  0
LINE
  5
26D
330
1E
100
AcDbEntity
  8
0
  6
Continuous
 62
     3
100
AcDbLine
 10
227.0
 20
74.585254038
 30
0.0
 11
227.51763809
 21
72.65340238500002
 31
0.0
  0
LINE
  5
26E
330
1E
100
AcDbEntity
  8
0
  6
Continuous
 62
     3
100
AcDbLine
 10
222.5
 20
66.79102540399999
 30
0.0
 11
227.4999999999999
 21
75.45127944099998
 31
0.0
  0
LINE
  5
26F
330
1E
100
AcDbEntity
  8
0
  6
Continuous
 62
     3
100
AcDbLine
 10
227.0
 20
29.735254038
 30
0.0
 11
227.0
 21
74.585254038
 31
0.0
  0
TEXT
  5
270
330
1E
100
AcDbEntity
  8
0
  6
Continuous
 62
     3
100
AcDbText
 10
236.2649999999999
 20
74.7
 30
0.0
 40
1.5
  1
±１
 41
0.8666666670000001
  7
KANJI3
100
AcDbText
  0
TEXT
  5
271
330
1E
100
AcDbEntity
  8
0
  6
Continuous
 62
     3
100
AcDbText
 10
229.0399999999999
 20
73.5
 30
0.0
 40
2.0
  1
３４.５
 41
0.85
  7
KANJI2
100
AcDbText
  0
LINE
  5
272
330
1E
100
AcDbEntity
  8
0
  6
Continuous
 62
     3
100
AcDbLine
 10
250.1999999999999
 20
72.5
 30
0.0
 11
248.2681483479999
 21
73.01763809
 31
0.0
  0
LINE
  5
273
330
1E
100
AcDbEntity
  8
0
  6
Continuous
 62
     3
100
AcDbLine
 10
250.1999999999999
 20
72.5
 30
0.0
 11
248.2681483479999
 21
71.98236190999998
 31
0.0
  0
LINE
  5
274
330
1E
100
AcDbEntity
  8
0
  6
Continuous
 62
     3
100
AcDbLine
 10
250.1999999999999
 20
31.0
 30
0.0
 11
250.1999999999999
 21
73.5
 31
0.0
  0
LINE
  5
275
330
1E
100
AcDbEntity
  8
0
  6
Continuous
 62
     3
100
AcDbLine
 10
235.1999999999999
 20
65.84999999999999
 30
0.0
 11
260.1999999999999
 21
65.84999999999999
 31
0.0
  0
LINE
  5
276
330
1E
100
AcDbEntity
  8
0
  6
Continuous
 62
     3
100
AcDbLine
 10
259.2
 20
65.84999999999999
 30
0.0
 11
258.68236191
 21
63.91814834699999
 31
0.0
  0
LINE
  5
277
330
1E
100
AcDbEntity
  8
0
  6
Continuous
 62
     3
100
AcDbLine
 10
259.2
 20
65.84999999999999
 30
0.0
 11
259.7176380899999
 21
63.91814834699999
 31
0.0
  0
LINE
  5
278
330
1E
100
AcDbEntity
  8
0
  6
Continuous
 62
     3
100
AcDbLine
 10
215.7
 20
72.5
 30
0.0
 11
250.1999999999999
 21
72.5
 31
0.0
  0
TEXT
  5
279
330
1E
100
AcDbEntity
  8
0
  6
Continuous
 62
     3
100
AcDbText
 10
258.1999999999999
 20
45.1
 30
0.0
 40
2.0
  1
４４.７
 50
90.0
 41
0.85
  7
KANJI2
100
AcDbText
  0
LINE
  5
27A
330
1E
100
AcDbEntity
  8
0
  6
Continuous
 62
     3
100
AcDbLine
 10
259.2
 20
65.84999999999999
 30
0.0
 11
259.2
 21
21.14999999999997
 31
0.0
  0
LINE
  5
282
330
1E
100
AcDbEntity
  8
0
  6
Continuous
 62
     3
100
AcDbLine
 10
186.0
 20
67.5
 30
0.0
 11
185.48236191
 21
65.568148347
 31
0.0
  0
LINE
  5
283
330
1E
100
AcDbEntity
  8
0
  6
Continuous
 62
     3
100
AcDbLine
 10
186.0
 20
67.5
 30
0.0
 11
186.5176380899999
 21
65.568148347
 31
0.0
  0
LINE
  5
284
330
1E
100
AcDbEntity
  8
0
  6
Continuous
 62
     3
100
AcDbLine
 10
186.0
 20
67.5
 30
0.0
 11
186.0
 21
19.5
 31
0.0
  0
LINE
  5
285
330
1E
100
AcDbEntity
  8
0
  6
Continuous
 62
     3
100
AcDbLine
 10
186.0
 20
19.5
 30
0.0
 11
186.5176380899999
 21
21.43185165299998
 31
0.0
  0
LINE
  5
286
330
1E
100
AcDbEntity
  8
0
  6
Continuous
 62
     3
100
AcDbLine
 10
186.0
 20
19.5
 30
0.0
 11
185.48236191
 21
21.43185165299998
 31
0.0
  0
LINE
  5
287
330
1E
100
AcDbEntity
  8
0
  6
Continuous
 62
     3
100
AcDbLine
 10
169.0
 20
19.5
 30
0.0
 11
187.0
 21
19.5
 31
0.0
  0
LINE
  5
288
330
1E
100
AcDbEntity
  8
0
  6
Continuous
 62
     3
100
AcDbLine
 10
169.0
 20
67.5
 30
0.0
 11
187.0
 21
67.5
 31
0.0
  0
TEXT
  5
289
330
1E
100
AcDbEntity
  8
0
  6
Continuous
 62
     3
100
AcDbText
 10
185.0
 20
44.79999999999999
 30
0.0
 40
2.0
  1
４８
 50
90.0
 41
0.85
  7
KANJI2
100
AcDbText
  0
LINE
  5
28B
330
1E
100
AcDbEntity
  8
0
  6
Continuous
 62
     3
100
AcDbLine
 10
72.0
 20
11.5
 30
0.0
 11
168.0
 21
11.5
 31
0.0
  0
LINE
  5
28C
330
1E
100
AcDbEntity
  8
0
  6
Continuous
 62
     3
100
AcDbLine
 10
168.0
 20
11.5
 30
0.0
 11
166.068148347
 21
12.01763809
 31
0.0
  0
LINE
  5
28D
330
1E
100
AcDbEntity
  8
0
  6
Continuous
 62
     3
100
AcDbLine
 10
168.0
 20
11.5
 30
0.0
 11
166.068148347
 21
10.98236191
 31
0.0
  0
LINE
  5
28E
330
1E
100
AcDbEntity
  8
0
  6
Continuous
 62
     3
100
AcDbLine
 10
168.0
 20
18.5
 30
0.0
 11
168.0
 21
10.5
 31
0.0
  0
LINE
  5
28F
330
1E
100
AcDbEntity
  8
0
  6
Continuous
 62
     3
100
AcDbLine
 10
72.0
 20
18.5
 30
0.0
 11
72.0
 21
10.5
 31
0.0
  0
TEXT
  5
290
330
1E
100
AcDbEntity
  8
0
  6
Continuous
 62
     3
100
AcDbText
 10
121.3
 20
12.5
 30
0.0
 40
2.0
  1
９６
 41
0.85
  7
KANJI2
100
AcDbText
  0
TEXT
  5
2A0
330
1E
100
AcDbEntity
  8
0
  6
Continuous
 62
     3
100
AcDbText
 10
107.089745962
 20
94.0
 30
0.0
 40
2.0
  1
９１.８５
 41
0.85
  7
KANJI2
100
AcDbText
  0
LINE
  5
2A1
330
1E
100
AcDbEntity
  8
0
  6
Continuous
 62
     3
100
AcDbLine
 10
65.414745962
 20
93.0
 30
0.0
 11
67.34659761499999
 21
92.48236191
 31
0.0
  0
LINE
  5
2A2
330
1E
100
AcDbEntity
  8
0
  6
Continuous
 62
     3
100
AcDbLine
 10
65.414745962
 20
93.0
 30
0.0
 11
67.34659761499999
 21
93.51763809000001
 31
0.0
  0
LINE
  5
2A3
330
1E
100
AcDbEntity
  8
0
  6
Continuous
 62
     3
100
AcDbLine
 10
74.075
 20
88.0
 30
0.0
 11
64.548720558
 21
93.49999999999999
 31
0.0
  0
LINE
  5
2A4
330
1E
100
AcDbEntity
  8
0
  6
Continuous
 62
     3
100
AcDbLine
 10
157.264745962
 20
93.0
 30
0.0
 11
155.33289431
 21
93.51763809000001
 31
0.0
  0
LINE
  5
2A5
330
1E
100
AcDbEntity
  8
0
  6
Continuous
 62
     3
100
AcDbLine
 10
157.264745962
 20
93.0
 30
0.0
 11
155.33289431
 21
92.48236191
 31
0.0
  0
LINE
  5
2A6
330
1E
100
AcDbEntity
  8
0
  6
Continuous
 62
     3
100
AcDbLine
 10
165.925
 20
88.0
 30
0.0
 11
156.3987205579999
 21
93.49999999999999
 31
0.0
  0
LINE
  5
2A7
330
1E
100
AcDbEntity
  8
0
  6
Continuous
 62
     3
100
AcDbLine
 10
157.264745962
 20
93.0
 30
0.0
 11
65.414745962
 21
93.0
 31
0.0
  0
TEXT
  5
2A8
330
1E
100
AcDbEntity
  8
0
  6
Continuous
 62
     3
100
AcDbText
 10
121.5999999999999
 20
113.0
 30
0.0
 40
2.0
  1
９１.６
 41
0.85
  7
KANJI2
100
AcDbText
  0
LINE
  5
2A9
330
1E
100
AcDbEntity
  8
0
  6
Continuous
 62
     3
100
AcDbLine
 10
74.2
 20
112.0
 30
0.0
 11
76.131851653
 21
111.48236191
 31
0.0
  0
LINE
  5
2AA
330
1E
100
AcDbEntity
  8
0
  6
Continuous
 62
     3
100
AcDbLine
 10
74.2
 20
112.0
 30
0.0
 11
76.131851653
 21
112.51763809
 31
0.0
  0
LINE
  5
2AB
330
1E
100
AcDbEntity
  8
0
  6
Continuous
 62
     3
100
AcDbLine
 10
74.2
 20
101.0
 30
0.0
 11
74.2
 21
113.0
 31
0.0
  0
LINE
  5
2AC
330
1E
100
AcDbEntity
  8
0
  6
Continuous
 62
     3
100
AcDbLine
 10
165.8
 20
112.0
 30
0.0
 11
163.868148347
 21
112.51763809
 31
0.0
  0
LINE
  5
2AD
330
1E
100
AcDbEntity
  8
0
  6
Continuous
 62
     3
100
AcDbLine
 10
165.8
 20
112.0
 30
0.0
 11
163.868148347
 21
111.48236191
 31
0.0
  0
LINE
  5
2AE
330
1E
100
AcDbEntity
  8
0
  6
Continuous
 62
     3
100
AcDbLine
 10
165.8
 20
101.0
 30
0.0
 11
165.8
 21
113.0
 31
0.0
  0
LINE
  5
2AF
330
1E
100
AcDbEntity
  8
0
  6
Continuous
 62
     3
100
AcDbLine
 10
74.2
 20
112.0
 30
0.0
 11
165.8
 21
112.0
 31
0.0
  0
LINE
  5
2B5
330
1E
100
AcDbEntity
  8
0
  6
Continuous
 62
     3
100
AcDbLine
 10
211.0
 20
153.5
 30
0.0
 11
211.0
 21
158.4999999999999
 31
0.0
  0
LINE
  5
2B6
330
1E
100
AcDbEntity
  8
0
  6
Continuous
 62
     3
100
AcDbLine
 10
211.0
 20
157.5
 30
0.0
 11
212.931851653
 21
156.98236191
 31
0.0
  0
LINE
  5
2B7
330
1E
100
AcDbEntity
  8
0
  6
Continuous
 62
     3
100
AcDbLine
 10
211.0
 20
157.5
 30
0.0
 11
212.931851653
 21
158.01763809
 31
0.0
  0
LINE
  5
2B8
330
1E
100
AcDbEntity
  8
0
  6
Continuous
 62
     3
100
AcDbLine
 10
211.0
 20
157.5
 30
0.0
 11
257.0
 21
157.5
 31
0.0
  0
LINE
  5
2B9
330
1E
100
AcDbEntity
  8
0
  6
Continuous
 62
     3
100
AcDbLine
 10
257.0
 20
157.5
 30
0.0
 11
255.068148348
 21
158.01763809
 31
0.0
  0
LINE
  5
2BA
330
1E
100
AcDbEntity
  8
0
  6
Continuous
 62
     3
100
AcDbLine
 10
257.0
 20
157.5
 30
0.0
 11
255.068148348
 21
156.98236191
 31
0.0
  0
LINE
  5
2BB
330
1E
100
AcDbEntity
  8
0
  6
Continuous
 62
     3
100
AcDbLine
 10
257.0
 20
153.5
 30
0.0
 11
257.0
 21
158.4999999999999
 31
0.0
  0
TEXT
  5
2BC
330
1E
100
AcDbEntity
  8
0
  6
Continuous
 62
     3
100
AcDbText
 10
236.2999999999999
 20
158.4999999999999
 30
0.0
 40
2.0
  1
９２
 41
0.85
  7
KANJI2
100
AcDbText
  0
TEXT
  5
2BD
330
1E
100
AcDbEntity
  8
0
  6
Continuous
 62
     3
100
AcDbText
 10
240.05
 20
160.25
 30
0.0
 40
1.5
  1
＋０.８
 41
0.8666666670000001
  7
KANJI3
100
AcDbText
  0
TEXT
  5
2BE
330
1E
100
AcDbEntity
  8
0
  6
Continuous
 62
     3
100
AcDbText
 10
240.05
 20
158.75
 30
0.0
 40
1.5
  1
－０
 41
0.8666666670000001
  7
KANJI3
100
AcDbText
  0
LINE
  5
2BF
330
1E
100
AcDbEntity
  8
0
  6
Continuous
 62
     3
100
AcDbLine
 10
258.0
 20
152.5
 30
0.0
 11
268.0
 21
152.5
 31
0.0
  0
LINE
  5
2C0
330
1E
100
AcDbEntity
  8
0
  6
Continuous
 62
     3
100
AcDbLine
 10
267.0
 20
152.5
 30
0.0
 11
266.48236191
 21
150.568148347
 31
0.0
  0
LINE
  5
2C1
330
1E
100
AcDbEntity
  8
0
  6
Continuous
 62
     3
100
AcDbLine
 10
267.0
 20
152.5
 30
0.0
 11
267.5176380899999
 21
150.568148347
 31
0.0
  0
LINE
  5
2C2
330
1E
100
AcDbEntity
  8
0
  6
Continuous
 62
     3
100
AcDbLine
 10
267.0
 20
152.5
 30
0.0
 11
267.0
 21
130.0
 31
0.0
  0
LINE
  5
2C3
330
1E
100
AcDbEntity
  8
0
  6
Continuous
 62
     3
100
AcDbLine
 10
267.0
 20
130.0
 30
0.0
 11
267.5176380899999
 21
131.9318516529999
 31
0.0
  0
LINE
  5
2C4
330
1E
100
AcDbEntity
  8
0
  6
Continuous
 62
     3
100
AcDbLine
 10
267.0
 20
130.0
 30
0.0
 11
266.48236191
 21
131.9318516529999
 31
0.0
  0
LINE
  5
2C5
330
1E
100
AcDbEntity
  8
0
  6
Continuous
 62
     3
100
AcDbLine
 10
258.0
 20
130.0
 30
0.0
 11
268.0
 21
130.0
 31
0.0
  0
TEXT
  5
2C6
330
1E
100
AcDbEntity
  8
0
  6
Continuous
 62
     3
100
AcDbText
 10
266.0
 20
141.55
 30
0.0
 40
2.0
  1
４５
 50
90.0
 41
0.85
  7
KANJI2
100
AcDbText
  0
TEXT
  5
2C7
330
1E
100
AcDbEntity
  8
0
  6
Continuous
 62
     3
100
AcDbText
 10
265.75
 20
145.3
 30
0.0
 40
1.5
  1
－０
 50
90.0
 41
0.8666666670000001
  7
KANJI3
100
AcDbText
  0
TEXT
  5
2C8
330
1E
100
AcDbEntity
  8
0
  6
Continuous
 62
     3
100
AcDbText
 10
264.25
 20
145.3
 30
0.0
 40
1.5
  1
＋０.６
 50
90.0
 41
0.8666666670000001
  7
KANJI3
100
AcDbText
  0
LINE
  5
2CE
330
1E
100
AcDbEntity
  8
0
  6
Continuous
 62
     1
100
AcDbLine
 10
222.0
 20
65.9
 30
0.0
 11
222.0
 21
19.5
 31
0.0
  0
VIEWPORT
  5
2D8
330
1A
100
AcDbEntity
 67
     1
  8
0
  6
Continuous
100
AcDbViewport
 10
5.613749947134903
 20
3.902083231708196
 30
0.0
 40
15.40437351691363
 41
8.746133096049151
 68
     1
 69
     1
 12
5.613749947134903
 22
3.902083231708196
 13
0.0
 23
0.0
 14
10.0
 24
10.0
 15
10.0
 25
10.0
 16
0.0
 26
0.0
 36
1.0
 17
0.0
 27
0.0
 37
0.0
 42
50.0
 43
0.0
 44
0.0
 45
8.746133096049151
 50
0.0
 51
0.0
 72
   100
 90
    32800
  1

281
     0
 71
     1
 74
     0
110
0.0
120
0.0
130
0.0
111
1.0
121
0.0
131
0.0
112
0.0
122
1.0
132
0.0
 79
     0
146
0.0
  0
VIEWPORT
  5
2DA
330
1A
100
AcDbEntity
 67
     1
  8
0
  6
Continuous
100
AcDbViewport
 10
5.613749965908018
 20
3.902083250481312
 30
0.0
 40
8.981999945452834
 41
6.243333200770099
 68
     2
 69
     2
 12
189.9729166666666
 22
85.975
 13
0.0
 23
0.0
 14
1.0
 24
1.0
 15
0.0
 25
0.0
 16
0.0
 26
0.0
 36
1.0
 17
0.0
 27
0.0
 37
0.0
 42
50.0
 43
0.0
 44
0.0
 45
180.8687335092345
 50
0.0
 51
0.0
 72
   100
 90
    32800
  1

281
     0
 71
     1
 74
     0
110
0.0
120
0.0
130
0.0
111
1.0
121
0.0
131
0.0
112
0.0
122
1.0
132
0.0
 79
     0
146
0.0
  0
ENDSEC
  0
SECTION
  2
OBJECTS
  0
DICTIONARY
  5
C
330
0
100
AcDbDictionary
281
     1
  3
ACAD_GROUP
350
D
  3
ACAD_PLOTSTYLENAME
350
E
  3
ACAD_MLINESTYLE
350
16
  3
ACAD_PLOTSETTINGS
350
18
  3
ACAD_LAYOUT
350
19
  0
DICTIONARY
  5
D
102
{ACAD_REACTORS
330
C
102
}
330
C
100
AcDbDictionary
281
     1
  0
ACDBDICTIONARYWDFLT
  5
E
102
{ACAD_REACTORS
330
C
102
}
330
C
100
AcDbDictionary
281
     1
  3
Normal
350
F
100
AcDbDictionaryWithDefault
340
F
  0
DICTIONARY
  5
16
102
{ACAD_REACTORS
330
C
102
}
330
C
100
AcDbDictionary
281
     1
  3
Standard
350
17
  0
DICTIONARY
  5
18
102
{ACAD_REACTORS
330
C
102
}
330
C
100
AcDbDictionary
281
     1
  0
DICTIONARY
  5
19
102
{ACAD_REACTORS
330
C
102
}
330
C
100
AcDbDictionary
281
     1
  3
ﾚｲｱｳﾄ1
350
1D
  3
Model
350
21
  0
ACDBPLACEHOLDER
  5
F
102
{ACAD_REACTORS
330
E
102
}
330
E
  0
MLINESTYLE
  5
17
102
{ACAD_REACTORS
330
16
102
}
330
16
100
AcDbMlineStyle
  2
STANDARD
 70
     0
  3

 62
   256
 51
90.0
 52
90.0
 71
     2
 49
0.5
 62
   256
  6
BYLAYER
 49
-0.5
 62
   256
  6
BYLAYER
  0
LAYOUT
  5
1D
102
{ACAD_REACTORS
330
19
102
}
330
19
100
AcDbPlotSettings
  1

  2
Canon LASER SHOT LBP-880
  4
A4
  6

 40
5.873749732971191
 41
5.873747825622557
 42
5.873748779296875
 43
5.873748779296875
 44
209.9733276367186
 45
296.9259948730469
 46
0.0
 47
0.0
 48
0.0
 49
0.0
140
0.0
141
0.0
142
1.0
143
1.0
 70
   688
 72
     0
 73
     1
 74
     5
  7

 75
    16
147
1.0
148
0.0
149
0.0
100
AcDbLayout
  1
ﾚｲｱｳﾄ1
 70
     1
 71
     1
 10
-0.2312499519408218
 20
-0.2312499894870548
 11
11.4587498462106
 21
8.035416452903447
 12
0.0
 22
0.0
 32
0.0
 14
1.122749993181602
 24
0.7804166500962629
 34
0.0
 15
10.10474993863443
 25
7.023749850866361
 35
0.0
146
0.0
 13
0.0
 23
0.0
 33
0.0
 16
1.0
 26
0.0
 36
0.0
 17
0.0
 27
1.0
 37
0.0
 76
     0
330
1A
331
2D8
  0
LAYOUT
  5
21
102
{ACAD_REACTORS
330
19
102
}
330
19
100
AcDbPlotSettings
  1

  2
Canon LBP-880
  4
A4
  6

 40
3.174999952316281
 41
3.174999952316281
 42
3.175003051757812
 43
3.17498779296875
 44
210.0
 45
297.0
 46
0.0
 47
0.0
 48
0.0
 49
0.0
140
0.0
141
0.0
142
1.0
143
1.673803086491474
 70
 11952
 72
     1
 73
     1
 74
     0
  7

 75
     0
147
0.5974418425145453
148
76.40875674401343
149
27.74672055417453
100
AcDbLayout
  1
Model
 70
     1
 71
     0
 10
0.0
 20
0.0
 11
12.0
 21
9.0
 12
0.0
 22
0.0
 32
0.0
 14
0.0
 24
0.0
 34
0.0
 15
0.0
 25
0.0
 35
0.0
146
0.0
 13
0.0
 23
0.0
 33
0.0
 16
1.0
 26
0.0
 36
0.0
 17
0.0
 27
1.0
 37
0.0
 76
     0
330
1E
  0
ENDSEC
  0
EOF
