  0
SECTION
  2
HEADER
  9
$ACADVER
  1
AC1014
  9
$ACADMAINTVER
 70
     9
  9
$DWGCODEPAGE
  3
ANSI_932
  9
$INSBASE
 10
0.0
 20
0.0
 30
0.0
  9
$EXTMIN
 10
53.008720558
 20
80.874999999
 30
0.0
  9
$EXTMAX
 10
252.8661325725869
 20
187.9383493315783
 30
0.5
  9
$LIMMIN
 10
0.0
 20
0.0
  9
$LIMMAX
 10
420.0
 20
297.0
  9
$ORTHOMODE
 70
     0
  9
$REGENMODE
 70
     1
  9
$FILLMODE
 70
     1
  9
$QTEXTMODE
 70
     0
  9
$MIRRTEXT
 70
     1
  9
$DRAGMODE
 70
     2
  9
$LTSCALE
 40
1.0
  9
$OSMODE
 70
    37
  9
$ATTMODE
 70
     1
  9
$TEXTSIZE
 40
0.2
  9
$TRACEWID
 40
0.05
  9
$TEXTSTYLE
  7
STANDARD
  9
$CLAYER
  8
0
  9
$CELTYPE
  6
CONTINUOUS
  9
$CECOLOR
 62
   256
  9
$CELTSCALE
 40
1.0
  9
$DELOBJ
 70
     1
  9
$DISPSILH
 70
     0
  9
$DIMSCALE
 40
1.0
  9
$DIMASZ
 40
0.18
  9
$DIMEXO
 40
0.0625
  9
$DIMDLI
 40
0.38
  9
$DIMRND
 40
0.0
  9
$DIMDLE
 40
0.0
  9
$DIMEXE
 40
0.18
  9
$DIMTP
 40
0.0
  9
$DIMTM
 40
0.0
  9
$DIMTXT
 40
0.18
  9
$DIMCEN
 40
0.09
  9
$DIMTSZ
 40
0.0
  9
$DIMTOL
 70
     0
  9
$DIMLIM
 70
     0
  9
$DIMTIH
 70
     1
  9
$DIMTOH
 70
     1
  9
$DIMSE1
 70
     0
  9
$DIMSE2
 70
     0
  9
$DIMTAD
 70
     0
  9
$DIMZIN
 70
     0
  9
$DIMBLK
  1

  9
$DIMASO
 70
     1
  9
$DIMSHO
 70
     1
  9
$DIMPOST
  1

  9
$DIMAPOST
  1

  9
$DIMALT
 70
     0
  9
$DIMALTD
 70
     2
  9
$DIMALTF
 40
25.4
  9
$DIMLFAC
 40
1.0
  9
$DIMTOFL
 70
     0
  9
$DIMTVP
 40
0.0
  9
$DIMTIX
 70
     0
  9
$DIMSOXD
 70
     0
  9
$DIMSAH
 70
     0
  9
$DIMBLK1
  1

  9
$DIMBLK2
  1

  9
$DIMSTYLE
  2
STANDARD
  9
$DIMCLRD
 70
     0
  9
$DIMCLRE
 70
     0
  9
$DIMCLRT
 70
     0
  9
$DIMTFAC
 40
1.0
  9
$DIMGAP
 40
0.09
  9
$DIMJUST
 70
     0
  9
$DIMSD1
 70
     0
  9
$DIMSD2
 70
     0
  9
$DIMTOLJ
 70
     1
  9
$DIMTZIN
 70
     0
  9
$DIMALTZ
 70
     0
  9
$DIMALTTZ
 70
     0
  9
$DIMFIT
 70
     3
  9
$DIMUPT
 70
     0
  9
$DIMUNIT
 70
     2
  9
$DIMDEC
 70
     4
  9
$DIMTDEC
 70
     4
  9
$DIMALTU
 70
     2
  9
$DIMALTTD
 70
     2
  9
$DIMTXSTY
  7
STANDARD
  9
$DIMAUNIT
 70
     0
  9
$LUNITS
 70
     2
  9
$LUPREC
 70
     4
  9
$SKETCHINC
 40
0.1
  9
$FILLETRAD
 40
0.0
  9
$AUNITS
 70
     0
  9
$AUPREC
 70
     0
  9
$MENU
  1
.
  9
$ELEVATION
 40
0.0
  9
$PELEVATION
 40
0.0
  9
$THICKNESS
 40
0.0
  9
$LIMCHECK
 70
     0
  9
$CHAMFERA
 40
0.0
  9
$CHAMFERB
 40
0.0
  9
$CHAMFERC
 40
0.0
  9
$CHAMFERD
 40
0.0
  9
$SKPOLY
 70
     0
  9
$TDCREATE
 40
2452704.429332963
  9
$TDUPDATE
 40
2452723.712504364
  9
$TDINDWG
 40
0.0458100347
  9
$TDUSRTIMER
 40
0.0457972222
  9
$USRTIMER
 70
     1
  9
$ANGBASE
 50
0.0
  9
$ANGDIR
 70
     0
  9
$PDMODE
 70
     0
  9
$PDSIZE
 40
0.0
  9
$PLINEWID
 40
0.0
  9
$COORDS
 70
     1
  9
$SPLFRAME
 70
     0
  9
$SPLINETYPE
 70
     6
  9
$SPLINESEGS
 70
     8
  9
$ATTDIA
 70
     0
  9
$ATTREQ
 70
     1
  9
$HANDLING
 70
     1
  9
$HANDSEED
  5
484
  9
$SURFTAB1
 70
     6
  9
$SURFTAB2
 70
     6
  9
$SURFTYPE
 70
     6
  9
$SURFU
 70
     6
  9
$SURFV
 70
     6
  9
$UCSNAME
  2

  9
$UCSORG
 10
0.0
 20
0.0
 30
0.0
  9
$UCSXDIR
 10
1.0
 20
0.0
 30
0.0
  9
$UCSYDIR
 10
0.0
 20
1.0
 30
0.0
  9
$PUCSNAME
  2

  9
$PUCSORG
 10
0.0
 20
0.0
 30
0.0
  9
$PUCSXDIR
 10
1.0
 20
0.0
 30
0.0
  9
$PUCSYDIR
 10
0.0
 20
1.0
 30
0.0
  9
$USERI1
 70
     0
  9
$USERI2
 70
     0
  9
$USERI3
 70
     0
  9
$USERI4
 70
     0
  9
$USERI5
 70
     0
  9
$USERR1
 40
0.0
  9
$USERR2
 40
0.0
  9
$USERR3
 40
0.0
  9
$USERR4
 40
0.0
  9
$USERR5
 40
0.0
  9
$WORLDVIEW
 70
     1
  9
$SHADEDGE
 70
     3
  9
$SHADEDIF
 70
    70
  9
$TILEMODE
 70
     1
  9
$MAXACTVP
 70
    64
  9
$PINSBASE
 10
0.0
 20
0.0
 30
0.0
  9
$PLIMCHECK
 70
     0
  9
$PEXTMIN
 10
1.000000000000000E+20
 20
1.000000000000000E+20
 30
1.000000000000000E+20
  9
$PEXTMAX
 10
-1.000000000000000E+20
 20
-1.000000000000000E+20
 30
-1.000000000000000E+20
  9
$PLIMMIN
 10
0.0
 20
0.0
  9
$PLIMMAX
 10
12.0
 20
9.0
  9
$UNITMODE
 70
     0
  9
$VISRETAIN
 70
     1
  9
$PLINEGEN
 70
     0
  9
$PSLTSCALE
 70
     1
  9
$TREEDEPTH
 70
  3020
  9
$PICKSTYLE
 70
     1
  9
$CMLSTYLE
  2
STANDARD
  9
$CMLJUST
 70
     0
  9
$CMLSCALE
 40
1.0
  9
$PROXYGRAPHICS
 70
     1
  9
$MEASUREMENT
 70
     0
  0
ENDSEC
  0
SECTION
  2
CLASSES
  0
CLASS
  1
ACDBDICTIONARYWDFLT
  2
AcDbDictionaryWithDefault
  3
ObjectDBX Classes
 90
        0
280
     0
281
     0
  0
CLASS
  1
ACDBPLACEHOLDER
  2
AcDbPlaceHolder
  3
ObjectDBX Classes
 90
        0
280
     0
281
     0
  0
CLASS
  1
LAYOUT
  2
AcDbLayout
  3
ObjectDBX Classes
 90
        0
280
     0
281
     0
  0
CLASS
  1
DICTIONARYVAR
  2
AcDbDictionaryVar
  3
ObjectDBX Classes
 90
        0
280
     0
281
     0
  0
CLASS
  1
TABLESTYLE
  2
AcDbTableStyle
  3
ObjectDBX Classes
 90
     4095
280
     0
281
     0
  0
CLASS
  1
XRECORD
  2
AcDbXrecord
  3
AutoCAD 2000
 90
        0
280
     0
281
     0
  0
CLASS
  1
LWPOLYLINE
  2
AcDbPolyline
  3
AutoCAD 2000
 90
        0
280
     0
281
     1
  0
CLASS
  1
HATCH
  2
AcDbHatch
  3
AutoCAD 2000
 90
        0
280
     0
281
     1
  0
ENDSEC
  0
SECTION
  2
TABLES
  0
TABLE
  2
VPORT
  5
8
330
0
100
AcDbSymbolTable
 70
     2
  0
VPORT
  5
97
330
8
100
AcDbSymbolTableRecord
100
AcDbViewportTableRecord
  2
*ACTIVE
 70
     0
 10
0.0
 20
0.0
 11
1.0
 21
1.0
 12
162.0880293208242
 22
132.5116245636856
 13
0.0
 23
0.0
 14
1.0
 24
1.0
 15
0.5
 25
0.5
 16
0.0
 26
0.0
 36
1.0
 17
0.0
 27
0.0
 37
0.0
 40
189.2414093224927
 41
2.210374639769452
 42
50.0
 43
0.0
 44
0.0
 50
0.0
 51
0.0
 71
     0
 72
   100
 73
     1
 74
     1
 75
     0
 76
     0
 77
     0
 78
     0
  0
ENDTAB
  0
TABLE
  2
LTYPE
  5
5
330
0
100
AcDbSymbolTable
 70
     1
  0
LTYPE
  5
14
330
5
100
AcDbSymbolTableRecord
100
AcDbLinetypeTableRecord
  2
BYBLOCK
 70
     0
  3

 72
    65
 73
     0
 40
0.0
  0
LTYPE
  5
15
330
5
100
AcDbSymbolTableRecord
100
AcDbLinetypeTableRecord
  2
BYLAYER
 70
     0
  3

 72
    65
 73
     0
 40
0.0
  0
LTYPE
  5
16
330
5
100
AcDbSymbolTableRecord
100
AcDbLinetypeTableRecord
  2
CONTINUOUS
 70
     0
  3
Solid line
 72
    65
 73
     0
 40
0.0
  0
ENDTAB
  0
TABLE
  2
LAYER
  5
2
330
0
100
AcDbSymbolTable
 70
   128
  0
LAYER
  5
10
330
2
100
AcDbSymbolTableRecord
100
AcDbLayerTableRecord
  2
0
 70
     0
 62
     7
  6
CONTINUOUS
  0
LAYER
  5
452
330
2
100
AcDbSymbolTableRecord
100
AcDbLayerTableRecord
  2
1
 70
     0
 62
     7
  6
CONTINUOUS
  0
LAYER
  5
23
330
2
100
AcDbSymbolTableRecord
100
AcDbLayerTableRecord
  2
2
 70
     0
 62
     7
  6
CONTINUOUS
  0
LAYER
  5
24
330
2
100
AcDbSymbolTableRecord
100
AcDbLayerTableRecord
  2
3
 70
     0
 62
     7
  6
CONTINUOUS
  0
LAYER
  5
25
330
2
100
AcDbSymbolTableRecord
100
AcDbLayerTableRecord
  2
4
 70
     0
 62
     7
  6
CONTINUOUS
  0
LAYER
  5
26
330
2
100
AcDbSymbolTableRecord
100
AcDbLayerTableRecord
  2
5
 70
     0
 62
     7
  6
CONTINUOUS
  0
LAYER
  5
453
330
2
100
AcDbSymbolTableRecord
100
AcDbLayerTableRecord
  2
6
 70
     0
 62
     7
  6
CONTINUOUS
  0
LAYER
  5
28
330
2
100
AcDbSymbolTableRecord
100
AcDbLayerTableRecord
  2
7
 70
     0
 62
     7
  6
CONTINUOUS
  0
LAYER
  5
29
330
2
100
AcDbSymbolTableRecord
100
AcDbLayerTableRecord
  2
8
 70
     0
 62
     7
  6
CONTINUOUS
  0
LAYER
  5
2A
330
2
100
AcDbSymbolTableRecord
100
AcDbLayerTableRecord
  2
9
 70
     0
 62
     7
  6
CONTINUOUS
  0
LAYER
  5
2B
330
2
100
AcDbSymbolTableRecord
100
AcDbLayerTableRecord
  2
10
 70
     0
 62
     7
  6
CONTINUOUS
  0
LAYER
  5
2C
330
2
100
AcDbSymbolTableRecord
100
AcDbLayerTableRecord
  2
11
 70
     0
 62
     7
  6
CONTINUOUS
  0
LAYER
  5
2D
330
2
100
AcDbSymbolTableRecord
100
AcDbLayerTableRecord
  2
12
 70
     0
 62
     7
  6
CONTINUOUS
  0
LAYER
  5
2E
330
2
100
AcDbSymbolTableRecord
100
AcDbLayerTableRecord
  2
13
 70
     0
 62
     7
  6
CONTINUOUS
  0
LAYER
  5
2F
330
2
100
AcDbSymbolTableRecord
100
AcDbLayerTableRecord
  2
14
 70
     0
 62
     7
  6
CONTINUOUS
  0
LAYER
  5
30
330
2
100
AcDbSymbolTableRecord
100
AcDbLayerTableRecord
  2
15
 70
     0
 62
     7
  6
CONTINUOUS
  0
LAYER
  5
31
330
2
100
AcDbSymbolTableRecord
100
AcDbLayerTableRecord
  2
16
 70
     0
 62
     7
  6
CONTINUOUS
  0
LAYER
  5
32
330
2
100
AcDbSymbolTableRecord
100
AcDbLayerTableRecord
  2
17
 70
     0
 62
     7
  6
CONTINUOUS
  0
LAYER
  5
33
330
2
100
AcDbSymbolTableRecord
100
AcDbLayerTableRecord
  2
18
 70
     0
 62
     7
  6
CONTINUOUS
  0
LAYER
  5
34
330
2
100
AcDbSymbolTableRecord
100
AcDbLayerTableRecord
  2
19
 70
     0
 62
     7
  6
CONTINUOUS
  0
LAYER
  5
35
330
2
100
AcDbSymbolTableRecord
100
AcDbLayerTableRecord
  2
20
 70
     0
 62
     7
  6
CONTINUOUS
  0
LAYER
  5
36
330
2
100
AcDbSymbolTableRecord
100
AcDbLayerTableRecord
  2
21
 70
     0
 62
     7
  6
CONTINUOUS
  0
LAYER
  5
37
330
2
100
AcDbSymbolTableRecord
100
AcDbLayerTableRecord
  2
22
 70
     0
 62
     7
  6
CONTINUOUS
  0
LAYER
  5
38
330
2
100
AcDbSymbolTableRecord
100
AcDbLayerTableRecord
  2
23
 70
     0
 62
     7
  6
CONTINUOUS
  0
LAYER
  5
39
330
2
100
AcDbSymbolTableRecord
100
AcDbLayerTableRecord
  2
24
 70
     0
 62
     7
  6
CONTINUOUS
  0
LAYER
  5
3A
330
2
100
AcDbSymbolTableRecord
100
AcDbLayerTableRecord
  2
25
 70
     0
 62
     7
  6
CONTINUOUS
  0
LAYER
  5
3B
330
2
100
AcDbSymbolTableRecord
100
AcDbLayerTableRecord
  2
26
 70
     0
 62
     7
  6
CONTINUOUS
  0
LAYER
  5
3C
330
2
100
AcDbSymbolTableRecord
100
AcDbLayerTableRecord
  2
27
 70
     0
 62
     7
  6
CONTINUOUS
  0
LAYER
  5
3D
330
2
100
AcDbSymbolTableRecord
100
AcDbLayerTableRecord
  2
28
 70
     0
 62
     7
  6
CONTINUOUS
  0
LAYER
  5
3E
330
2
100
AcDbSymbolTableRecord
100
AcDbLayerTableRecord
  2
29
 70
     0
 62
     7
  6
CONTINUOUS
  0
LAYER
  5
3F
330
2
100
AcDbSymbolTableRecord
100
AcDbLayerTableRecord
  2
30
 70
     0
 62
     7
  6
CONTINUOUS
  0
LAYER
  5
40
330
2
100
AcDbSymbolTableRecord
100
AcDbLayerTableRecord
  2
31
 70
     0
 62
     7
  6
CONTINUOUS
  0
LAYER
  5
41
330
2
100
AcDbSymbolTableRecord
100
AcDbLayerTableRecord
  2
32
 70
     0
 62
     7
  6
CONTINUOUS
  0
LAYER
  5
42
330
2
100
AcDbSymbolTableRecord
100
AcDbLayerTableRecord
  2
33
 70
     0
 62
     7
  6
CONTINUOUS
  0
LAYER
  5
43
330
2
100
AcDbSymbolTableRecord
100
AcDbLayerTableRecord
  2
34
 70
     0
 62
     7
  6
CONTINUOUS
  0
LAYER
  5
44
330
2
100
AcDbSymbolTableRecord
100
AcDbLayerTableRecord
  2
35
 70
     0
 62
     7
  6
CONTINUOUS
  0
LAYER
  5
45
330
2
100
AcDbSymbolTableRecord
100
AcDbLayerTableRecord
  2
36
 70
     0
 62
     7
  6
CONTINUOUS
  0
LAYER
  5
46
330
2
100
AcDbSymbolTableRecord
100
AcDbLayerTableRecord
  2
37
 70
     0
 62
     7
  6
CONTINUOUS
  0
LAYER
  5
47
330
2
100
AcDbSymbolTableRecord
100
AcDbLayerTableRecord
  2
38
 70
     0
 62
     7
  6
CONTINUOUS
  0
LAYER
  5
48
330
2
100
AcDbSymbolTableRecord
100
AcDbLayerTableRecord
  2
39
 70
     0
 62
     7
  6
CONTINUOUS
  0
LAYER
  5
49
330
2
100
AcDbSymbolTableRecord
100
AcDbLayerTableRecord
  2
40
 70
     0
 62
     7
  6
CONTINUOUS
  0
LAYER
  5
4A
330
2
100
AcDbSymbolTableRecord
100
AcDbLayerTableRecord
  2
41
 70
     0
 62
     7
  6
CONTINUOUS
  0
LAYER
  5
4B
330
2
100
AcDbSymbolTableRecord
100
AcDbLayerTableRecord
  2
42
 70
     0
 62
     7
  6
CONTINUOUS
  0
LAYER
  5
4C
330
2
100
AcDbSymbolTableRecord
100
AcDbLayerTableRecord
  2
43
 70
     0
 62
     7
  6
CONTINUOUS
  0
LAYER
  5
4D
330
2
100
AcDbSymbolTableRecord
100
AcDbLayerTableRecord
  2
44
 70
     0
 62
     7
  6
CONTINUOUS
  0
LAYER
  5
4E
330
2
100
AcDbSymbolTableRecord
100
AcDbLayerTableRecord
  2
45
 70
     0
 62
     7
  6
CONTINUOUS
  0
LAYER
  5
4F
330
2
100
AcDbSymbolTableRecord
100
AcDbLayerTableRecord
  2
46
 70
     0
 62
     7
  6
CONTINUOUS
  0
LAYER
  5
50
330
2
100
AcDbSymbolTableRecord
100
AcDbLayerTableRecord
  2
47
 70
     0
 62
     7
  6
CONTINUOUS
  0
LAYER
  5
51
330
2
100
AcDbSymbolTableRecord
100
AcDbLayerTableRecord
  2
48
 70
     0
 62
     7
  6
CONTINUOUS
  0
LAYER
  5
52
330
2
100
AcDbSymbolTableRecord
100
AcDbLayerTableRecord
  2
49
 70
     0
 62
     7
  6
CONTINUOUS
  0
LAYER
  5
53
330
2
100
AcDbSymbolTableRecord
100
AcDbLayerTableRecord
  2
50
 70
     0
 62
     7
  6
CONTINUOUS
  0
LAYER
  5
54
330
2
100
AcDbSymbolTableRecord
100
AcDbLayerTableRecord
  2
51
 70
     0
 62
     7
  6
CONTINUOUS
  0
LAYER
  5
55
330
2
100
AcDbSymbolTableRecord
100
AcDbLayerTableRecord
  2
52
 70
     0
 62
     7
  6
CONTINUOUS
  0
LAYER
  5
56
330
2
100
AcDbSymbolTableRecord
100
AcDbLayerTableRecord
  2
53
 70
     0
 62
     7
  6
CONTINUOUS
  0
LAYER
  5
57
330
2
100
AcDbSymbolTableRecord
100
AcDbLayerTableRecord
  2
54
 70
     0
 62
     7
  6
CONTINUOUS
  0
LAYER
  5
58
330
2
100
AcDbSymbolTableRecord
100
AcDbLayerTableRecord
  2
55
 70
     0
 62
     7
  6
CONTINUOUS
  0
LAYER
  5
454
330
2
100
AcDbSymbolTableRecord
100
AcDbLayerTableRecord
  2
56
 70
     0
 62
     7
  6
CONTINUOUS
  0
LAYER
  5
455
330
2
100
AcDbSymbolTableRecord
100
AcDbLayerTableRecord
  2
57
 70
     0
 62
     7
  6
CONTINUOUS
  0
LAYER
  5
5B
330
2
100
AcDbSymbolTableRecord
100
AcDbLayerTableRecord
  2
58
 70
     0
 62
     7
  6
CONTINUOUS
  0
LAYER
  5
5C
330
2
100
AcDbSymbolTableRecord
100
AcDbLayerTableRecord
  2
59
 70
     0
 62
     7
  6
CONTINUOUS
  0
LAYER
  5
5D
330
2
100
AcDbSymbolTableRecord
100
AcDbLayerTableRecord
  2
60
 70
     0
 62
     7
  6
CONTINUOUS
  0
LAYER
  5
456
330
2
100
AcDbSymbolTableRecord
100
AcDbLayerTableRecord
  2
61
 70
     0
 62
     7
  6
CONTINUOUS
  0
LAYER
  5
5F
330
2
100
AcDbSymbolTableRecord
100
AcDbLayerTableRecord
  2
62
 70
     0
 62
     7
  6
CONTINUOUS
  0
LAYER
  5
60
330
2
100
AcDbSymbolTableRecord
100
AcDbLayerTableRecord
  2
63
 70
     0
 62
     7
  6
CONTINUOUS
  0
LAYER
  5
61
330
2
100
AcDbSymbolTableRecord
100
AcDbLayerTableRecord
  2
64
 70
     0
 62
     7
  6
CONTINUOUS
  0
LAYER
  5
62
330
2
100
AcDbSymbolTableRecord
100
AcDbLayerTableRecord
  2
65
 70
     0
 62
     7
  6
CONTINUOUS
  0
LAYER
  5
63
330
2
100
AcDbSymbolTableRecord
100
AcDbLayerTableRecord
  2
66
 70
     0
 62
     7
  6
CONTINUOUS
  0
LAYER
  5
64
330
2
100
AcDbSymbolTableRecord
100
AcDbLayerTableRecord
  2
67
 70
     0
 62
     7
  6
CONTINUOUS
  0
LAYER
  5
65
330
2
100
AcDbSymbolTableRecord
100
AcDbLayerTableRecord
  2
68
 70
     0
 62
     7
  6
CONTINUOUS
  0
LAYER
  5
66
330
2
100
AcDbSymbolTableRecord
100
AcDbLayerTableRecord
  2
69
 70
     0
 62
     7
  6
CONTINUOUS
  0
LAYER
  5
67
330
2
100
AcDbSymbolTableRecord
100
AcDbLayerTableRecord
  2
70
 70
     0
 62
     7
  6
CONTINUOUS
  0
LAYER
  5
68
330
2
100
AcDbSymbolTableRecord
100
AcDbLayerTableRecord
  2
71
 70
     0
 62
     7
  6
CONTINUOUS
  0
LAYER
  5
69
330
2
100
AcDbSymbolTableRecord
100
AcDbLayerTableRecord
  2
72
 70
     0
 62
     7
  6
CONTINUOUS
  0
LAYER
  5
6A
330
2
100
AcDbSymbolTableRecord
100
AcDbLayerTableRecord
  2
73
 70
     0
 62
     7
  6
CONTINUOUS
  0
LAYER
  5
457
330
2
100
AcDbSymbolTableRecord
100
AcDbLayerTableRecord
  2
74
 70
     0
 62
     7
  6
CONTINUOUS
  0
LAYER
  5
458
330
2
100
AcDbSymbolTableRecord
100
AcDbLayerTableRecord
  2
75
 70
     0
 62
     7
  6
CONTINUOUS
  0
LAYER
  5
6D
330
2
100
AcDbSymbolTableRecord
100
AcDbLayerTableRecord
  2
76
 70
     0
 62
     7
  6
CONTINUOUS
  0
LAYER
  5
6E
330
2
100
AcDbSymbolTableRecord
100
AcDbLayerTableRecord
  2
77
 70
     0
 62
     7
  6
CONTINUOUS
  0
LAYER
  5
6F
330
2
100
AcDbSymbolTableRecord
100
AcDbLayerTableRecord
  2
78
 70
     0
 62
     7
  6
CONTINUOUS
  0
LAYER
  5
70
330
2
100
AcDbSymbolTableRecord
100
AcDbLayerTableRecord
  2
79
 70
     0
 62
     7
  6
CONTINUOUS
  0
LAYER
  5
71
330
2
100
AcDbSymbolTableRecord
100
AcDbLayerTableRecord
  2
80
 70
     0
 62
     7
  6
CONTINUOUS
  0
LAYER
  5
72
330
2
100
AcDbSymbolTableRecord
100
AcDbLayerTableRecord
  2
81
 70
     0
 62
     7
  6
CONTINUOUS
  0
LAYER
  5
459
330
2
100
AcDbSymbolTableRecord
100
AcDbLayerTableRecord
  2
82
 70
     0
 62
     7
  6
CONTINUOUS
  0
LAYER
  5
45A
330
2
100
AcDbSymbolTableRecord
100
AcDbLayerTableRecord
  2
83
 70
     0
 62
     7
  6
CONTINUOUS
  0
LAYER
  5
45B
330
2
100
AcDbSymbolTableRecord
100
AcDbLayerTableRecord
  2
84
 70
     0
 62
     7
  6
CONTINUOUS
  0
LAYER
  5
45C
330
2
100
AcDbSymbolTableRecord
100
AcDbLayerTableRecord
  2
85
 70
     0
 62
     7
  6
CONTINUOUS
  0
LAYER
  5
77
330
2
100
AcDbSymbolTableRecord
100
AcDbLayerTableRecord
  2
86
 70
     0
 62
     7
  6
CONTINUOUS
  0
LAYER
  5
78
330
2
100
AcDbSymbolTableRecord
100
AcDbLayerTableRecord
  2
87
 70
     0
 62
     7
  6
CONTINUOUS
  0
LAYER
  5
79
330
2
100
AcDbSymbolTableRecord
100
AcDbLayerTableRecord
  2
88
 70
     0
 62
     7
  6
CONTINUOUS
  0
LAYER
  5
7A
330
2
100
AcDbSymbolTableRecord
100
AcDbLayerTableRecord
  2
89
 70
     0
 62
     7
  6
CONTINUOUS
  0
LAYER
  5
7B
330
2
100
AcDbSymbolTableRecord
100
AcDbLayerTableRecord
  2
90
 70
     0
 62
     7
  6
CONTINUOUS
  0
LAYER
  5
7C
330
2
100
AcDbSymbolTableRecord
100
AcDbLayerTableRecord
  2
91
 70
     0
 62
     7
  6
CONTINUOUS
  0
LAYER
  5
7D
330
2
100
AcDbSymbolTableRecord
100
AcDbLayerTableRecord
  2
92
 70
     0
 62
     7
  6
CONTINUOUS
  0
LAYER
  5
7E
330
2
100
AcDbSymbolTableRecord
100
AcDbLayerTableRecord
  2
93
 70
     0
 62
     7
  6
CONTINUOUS
  0
LAYER
  5
7F
330
2
100
AcDbSymbolTableRecord
100
AcDbLayerTableRecord
  2
94
 70
     0
 62
     7
  6
CONTINUOUS
  0
LAYER
  5
80
330
2
100
AcDbSymbolTableRecord
100
AcDbLayerTableRecord
  2
95
 70
     0
 62
     7
  6
CONTINUOUS
  0
LAYER
  5
81
330
2
100
AcDbSymbolTableRecord
100
AcDbLayerTableRecord
  2
96
 70
     0
 62
     7
  6
CONTINUOUS
  0
LAYER
  5
82
330
2
100
AcDbSymbolTableRecord
100
AcDbLayerTableRecord
  2
97
 70
     0
 62
     7
  6
CONTINUOUS
  0
LAYER
  5
83
330
2
100
AcDbSymbolTableRecord
100
AcDbLayerTableRecord
  2
98
 70
     0
 62
     7
  6
CONTINUOUS
  0
LAYER
  5
84
330
2
100
AcDbSymbolTableRecord
100
AcDbLayerTableRecord
  2
99
 70
     0
 62
     7
  6
CONTINUOUS
  0
LAYER
  5
85
330
2
100
AcDbSymbolTableRecord
100
AcDbLayerTableRecord
  2
100
 70
     0
 62
     7
  6
CONTINUOUS
  0
LAYER
  5
86
330
2
100
AcDbSymbolTableRecord
100
AcDbLayerTableRecord
  2
101
 70
     0
 62
     7
  6
CONTINUOUS
  0
LAYER
  5
87
330
2
100
AcDbSymbolTableRecord
100
AcDbLayerTableRecord
  2
102
 70
     0
 62
     7
  6
CONTINUOUS
  0
LAYER
  5
88
330
2
100
AcDbSymbolTableRecord
100
AcDbLayerTableRecord
  2
103
 70
     0
 62
     7
  6
CONTINUOUS
  0
LAYER
  5
89
330
2
100
AcDbSymbolTableRecord
100
AcDbLayerTableRecord
  2
104
 70
     0
 62
     7
  6
CONTINUOUS
  0
LAYER
  5
8A
330
2
100
AcDbSymbolTableRecord
100
AcDbLayerTableRecord
  2
105
 70
     0
 62
     7
  6
CONTINUOUS
  0
LAYER
  5
8B
330
2
100
AcDbSymbolTableRecord
100
AcDbLayerTableRecord
  2
106
 70
     0
 62
     7
  6
CONTINUOUS
  0
LAYER
  5
8C
330
2
100
AcDbSymbolTableRecord
100
AcDbLayerTableRecord
  2
107
 70
     0
 62
     7
  6
CONTINUOUS
  0
LAYER
  5
8D
330
2
100
AcDbSymbolTableRecord
100
AcDbLayerTableRecord
  2
108
 70
     0
 62
     7
  6
CONTINUOUS
  0
LAYER
  5
8E
330
2
100
AcDbSymbolTableRecord
100
AcDbLayerTableRecord
  2
109
 70
     0
 62
     7
  6
CONTINUOUS
  0
LAYER
  5
8F
330
2
100
AcDbSymbolTableRecord
100
AcDbLayerTableRecord
  2
110
 70
     0
 62
     7
  6
CONTINUOUS
  0
LAYER
  5
90
330
2
100
AcDbSymbolTableRecord
100
AcDbLayerTableRecord
  2
111
 70
     0
 62
     7
  6
CONTINUOUS
  0
LAYER
  5
91
330
2
100
AcDbSymbolTableRecord
100
AcDbLayerTableRecord
  2
112
 70
     0
 62
     7
  6
CONTINUOUS
  0
LAYER
  5
45D
330
2
100
AcDbSymbolTableRecord
100
AcDbLayerTableRecord
  2
113
 70
     0
 62
     7
  6
CONTINUOUS
  0
LAYER
  5
45E
330
2
100
AcDbSymbolTableRecord
100
AcDbLayerTableRecord
  2
114
 70
     0
 62
     7
  6
CONTINUOUS
  0
LAYER
  5
94
330
2
100
AcDbSymbolTableRecord
100
AcDbLayerTableRecord
  2
115
 70
     0
 62
     7
  6
CONTINUOUS
  0
LAYER
  5
95
330
2
100
AcDbSymbolTableRecord
100
AcDbLayerTableRecord
  2
116
 70
     0
 62
     7
  6
CONTINUOUS
  0
LAYER
  5
96
330
2
100
AcDbSymbolTableRecord
100
AcDbLayerTableRecord
  2
117
 70
     0
 62
     7
  6
CONTINUOUS
  0
LAYER
  5
45F
330
2
100
AcDbSymbolTableRecord
100
AcDbLayerTableRecord
  2
118
 70
     0
 62
     7
  6
CONTINUOUS
  0
LAYER
  5
460
330
2
100
AcDbSymbolTableRecord
100
AcDbLayerTableRecord
  2
119
 70
     0
 62
     7
  6
CONTINUOUS
  0
LAYER
  5
99
330
2
100
AcDbSymbolTableRecord
100
AcDbLayerTableRecord
  2
120
 70
     0
 62
     7
  6
CONTINUOUS
  0
LAYER
  5
9A
330
2
100
AcDbSymbolTableRecord
100
AcDbLayerTableRecord
  2
121
 70
     0
 62
     7
  6
CONTINUOUS
  0
LAYER
  5
9B
330
2
100
AcDbSymbolTableRecord
100
AcDbLayerTableRecord
  2
122
 70
     0
 62
     7
  6
CONTINUOUS
  0
LAYER
  5
9C
330
2
100
AcDbSymbolTableRecord
100
AcDbLayerTableRecord
  2
123
 70
     0
 62
     7
  6
CONTINUOUS
  0
LAYER
  5
9D
330
2
100
AcDbSymbolTableRecord
100
AcDbLayerTableRecord
  2
124
 70
     0
 62
     7
  6
CONTINUOUS
  0
LAYER
  5
9E
330
2
100
AcDbSymbolTableRecord
100
AcDbLayerTableRecord
  2
125
 70
     0
 62
     7
  6
CONTINUOUS
  0
LAYER
  5
9F
330
2
100
AcDbSymbolTableRecord
100
AcDbLayerTableRecord
  2
126
 70
     0
 62
     7
  6
CONTINUOUS
  0
LAYER
  5
A0
330
2
100
AcDbSymbolTableRecord
100
AcDbLayerTableRecord
  2
127
 70
     0
 62
     7
  6
CONTINUOUS
  0
ENDTAB
  0
TABLE
  2
STYLE
  5
3
330
0
100
AcDbSymbolTable
 70
     7
  0
STYLE
  5
11
330
3
100
AcDbSymbolTableRecord
100
AcDbTextStyleTableRecord
  2
STANDARD
 70
     0
 40
0.0
 41
1.0
 50
0.0
 71
     0
 42
0.2
  3
txt
  4

  0
STYLE
  5
A1
330
3
100
AcDbSymbolTableRecord
100
AcDbTextStyleTableRecord
  2
KANJI0
 70
     0
 40
2.0
 41
0.85
 50
0.0
 71
     0
 42
2.0
  3
SIMPLEX
  4
bigfont
  0
STYLE
  5
A2
330
3
100
AcDbSymbolTableRecord
100
AcDbTextStyleTableRecord
  2
KANJI1
 70
     0
 40
3.0
 41
0.933333333
 50
0.0
 71
     0
 42
3.0
  3
SIMPLEX
  4
bigfont
  0
STYLE
  5
A3
330
3
100
AcDbSymbolTableRecord
100
AcDbTextStyleTableRecord
  2
KANJI2
 70
     0
 40
4.0
 41
0.5
 50
0.0
 71
     0
 42
4.0
  3
SIMPLEX
  4
bigfont
  0
STYLE
  5
A4
330
3
100
AcDbSymbolTableRecord
100
AcDbTextStyleTableRecord
  2
KANJI3
 70
     0
 40
3.5
 41
0.5
 50
0.0
 71
     0
 42
3.5
  3
SIMPLEX
  4
bigfont
  0
STYLE
  5
A5
330
3
100
AcDbSymbolTableRecord
100
AcDbTextStyleTableRecord
  2
KANJI4
 70
     0
 40
2.5
 41
0.8
 50
0.0
 71
     0
 42
2.5
  3
SIMPLEX
  4
bigfont
  0
STYLE
  5
A6
330
3
100
AcDbSymbolTableRecord
100
AcDbTextStyleTableRecord
  2
KANJI5
 70
     0
 40
6.0
 41
0.95
 50
0.0
 71
     0
 42
6.0
  3
SIMPLEX
  4
bigfont
  0
ENDTAB
  0
TABLE
  2
VIEW
  5
6
330
0
100
AcDbSymbolTable
 70
     0
  0
ENDTAB
  0
TABLE
  2
UCS
  5
7
330
0
100
AcDbSymbolTable
 70
     0
  0
ENDTAB
  0
TABLE
  2
APPID
  5
9
330
0
100
AcDbSymbolTable
 70
     1
  0
APPID
  5
12
330
9
100
AcDbSymbolTableRecord
100
AcDbRegAppTableRecord
  2
ACAD
 70
     0
  0
ENDTAB
  0
TABLE
  2
DIMSTYLE
  5
A
330
0
100
AcDbSymbolTable
 70
     1
  0
DIMSTYLE
105
27
330
A
100
AcDbSymbolTableRecord
100
AcDbDimStyleTableRecord
  2
STANDARD
 70
     0
  3

  4

  5

  6

  7

 40
1.0
 41
0.18
 42
0.0625
 43
0.38
 44
0.18
 45
0.0
 46
0.0
 47
0.0
 48
0.0
140
0.18
141
0.09
142
0.0
143
25.4
144
1.0
145
0.0
146
1.0
147
0.09
 71
     0
 72
     0
 73
     1
 74
     1
 75
     0
 76
     0
 77
     0
 78
     0
170
     0
171
     2
172
     0
173
     0
174
     0
175
     0
176
     0
177
     0
178
     0
270
     2
271
     4
272
     4
273
     2
274
     2
340
11
275
     0
280
     0
281
     0
282
     0
283
     1
284
     0
285
     0
286
     0
287
     3
288
     0
  0
ENDTAB
  0
TABLE
  2
BLOCK_RECORD
  5
1
330
0
100
AcDbSymbolTable
 70
     0
  0
BLOCK_RECORD
  5
1F
330
1
100
AcDbSymbolTableRecord
100
AcDbBlockTableRecord
  2
*MODEL_SPACE
  0
BLOCK_RECORD
  5
73
330
1
100
AcDbSymbolTableRecord
100
AcDbBlockTableRecord
  2
*PAPER_SPACE
  0
ENDTAB
  0
ENDSEC
  0
SECTION
  2
BLOCKS
  0
BLOCK
  5
20
330
1F
100
AcDbEntity
  8
0
100
AcDbBlockBegin
  2
*MODEL_SPACE
 70
     0
 71
     0
 10
0.0
 20
0.0
 30
0.0
  3
*MODEL_SPACE
  1

  0
ENDBLK
  5
21
330
1F
100
AcDbEntity
  8
0
100
AcDbBlockEnd
  0
BLOCK
  5
75
330
73
100
AcDbEntity
 67
     1
  8
0
100
AcDbBlockBegin
  2
*PAPER_SPACE
 70
     0
 71
     0
 10
0.0
 20
0.0
 30
0.0
  3
*PAPER_SPACE
  1

  0
ENDBLK
  5
76
330
73
100
AcDbEntity
 67
     1
  8
0
100
AcDbBlockEnd
  0
ENDSEC
  0
SECTION
  2
ENTITIES
  0
LINE
  5
D0
330
1F
100
AcDbEntity
  8
0
  6
CONTINUOUS
 62
     3
100
AcDbLine
 10
176.8327992545869
 20
176.6800159972451
 30
0.0
 11
176.8327992545869
 21
168.880015997245
 31
0.0
  0
LINE
  5
D1
330
1F
100
AcDbEntity
  8
0
  6
CONTINUOUS
 62
     3
100
AcDbLine
 10
176.8327992545869
 20
168.880015997245
 30
0.0
 11
182.8327992545869
 21
168.880015997245
 31
0.0
  0
LINE
  5
D2
330
1F
100
AcDbEntity
  8
0
  6
CONTINUOUS
 62
     3
100
AcDbLine
 10
182.8327992545869
 20
168.880015997245
 30
0.0
 11
182.8327992545869
 21
176.6800159972451
 31
0.0
  0
LINE
  5
D3
330
1F
100
AcDbEntity
  8
0
  6
CONTINUOUS
 62
     3
100
AcDbLine
 10
182.8327992545869
 20
176.6800159972451
 30
0.0
 11
176.8327992545869
 21
176.6800159972451
 31
0.0
  0
LINE
  5
D4
330
1F
100
AcDbEntity
  8
0
  6
CONTINUOUS
 62
     3
100
AcDbLine
 10
178.5827992545869
 20
173.2800159972449
 30
0.0
 11
177.8327992545869
 21
173.2800159972449
 31
0.0
  0
LINE
  5
D5
330
1F
100
AcDbEntity
  8
0
  6
CONTINUOUS
 62
     3
100
AcDbLine
 10
177.8327992545869
 20
173.2800159972449
 30
0.0
 11
177.8327992545869
 21
172.2800159972449
 31
0.0
  0
LINE
  5
D6
330
1F
100
AcDbEntity
  8
0
  6
CONTINUOUS
 62
     3
100
AcDbLine
 10
178.5827992545869
 20
172.2800159972449
 30
0.0
 11
177.8327992545869
 21
172.2800159972449
 31
0.0
  0
LINE
  5
D7
330
1F
100
AcDbEntity
  8
0
  6
CONTINUOUS
 62
     3
100
AcDbLine
 10
179.3327992545869
 20
171.5300159972451
 30
0.0
 11
179.3327992545869
 21
170.7800159972451
 31
0.0
  0
LINE
  5
D8
330
1F
100
AcDbEntity
  8
0
  6
CONTINUOUS
 62
     3
100
AcDbLine
 10
179.3327992545869
 20
170.7800159972451
 30
0.0
 11
180.3327992545869
 21
170.7800159972451
 31
0.0
  0
LINE
  5
D9
330
1F
100
AcDbEntity
  8
0
  6
CONTINUOUS
 62
     3
100
AcDbLine
 10
180.3327992545869
 20
171.5300159972451
 30
0.0
 11
180.3327992545869
 21
170.7800159972451
 31
0.0
  0
LINE
  5
DA
330
1F
100
AcDbEntity
  8
0
  6
CONTINUOUS
 62
     3
100
AcDbLine
 10
181.0827992545869
 20
172.2800159972449
 30
0.0
 11
181.8327992545869
 21
172.2800159972449
 31
0.0
  0
LINE
  5
DB
330
1F
100
AcDbEntity
  8
0
  6
CONTINUOUS
 62
     3
100
AcDbLine
 10
181.8327992545869
 20
172.2800159972449
 30
0.0
 11
181.8327992545869
 21
173.2800159972449
 31
0.0
  0
LINE
  5
DC
330
1F
100
AcDbEntity
  8
0
  6
CONTINUOUS
 62
     3
100
AcDbLine
 10
181.0827992545869
 20
173.2800159972449
 30
0.0
 11
181.8327992545869
 21
173.2800159972449
 31
0.0
  0
LINE
  5
DD
330
1F
100
AcDbEntity
  8
0
  6
CONTINUOUS
 62
     3
100
AcDbLine
 10
180.3327992545869
 20
174.0300159972449
 30
0.0
 11
180.3327992545869
 21
174.7800159972451
 31
0.0
  0
LINE
  5
DE
330
1F
100
AcDbEntity
  8
0
  6
CONTINUOUS
 62
     3
100
AcDbLine
 10
180.3327992545869
 20
174.7800159972451
 30
0.0
 11
179.3327992545869
 21
174.7800159972451
 31
0.0
  0
LINE
  5
DF
330
1F
100
AcDbEntity
  8
0
  6
CONTINUOUS
 62
     3
100
AcDbLine
 10
179.3327992545869
 20
174.0300159972449
 30
0.0
 11
179.3327992545869
 21
174.7800159972451
 31
0.0
  0
LINE
  5
E0
330
1F
100
AcDbEntity
  8
0
  6
CONTINUOUS
 62
     3
100
AcDbLine
 10
180.3327992545869
 20
171.5300159972451
 30
0.0
 11
180.3583492545868
 21
171.7241409972451
 31
0.0
  0
LINE
  5
E1
330
1F
100
AcDbEntity
  8
0
  6
CONTINUOUS
 62
     3
100
AcDbLine
 10
180.3583492545868
 20
171.7241409972451
 30
0.0
 11
180.4332742545869
 21
171.9050159972451
 31
0.0
  0
LINE
  5
E2
330
1F
100
AcDbEntity
  8
0
  6
CONTINUOUS
 62
     3
100
AcDbLine
 10
180.4332742545869
 20
171.9050159972451
 30
0.0
 11
180.5524742545869
 21
172.0603409972451
 31
0.0
  0
LINE
  5
E3
330
1F
100
AcDbEntity
  8
0
  6
CONTINUOUS
 62
     3
100
AcDbLine
 10
180.5524742545869
 20
172.0603409972451
 30
0.0
 11
180.7077992545869
 21
172.1795409972451
 31
0.0
  0
LINE
  5
E4
330
1F
100
AcDbEntity
  8
0
  6
CONTINUOUS
 62
     3
100
AcDbLine
 10
180.7077992545869
 20
172.1795409972451
 30
0.0
 11
180.8886992545868
 21
172.2544659972449
 31
0.0
  0
LINE
  5
E5
330
1F
100
AcDbEntity
  8
0
  6
CONTINUOUS
 62
     3
100
AcDbLine
 10
180.8886992545868
 20
172.2544659972449
 30
0.0
 11
181.0827992545869
 21
172.2800159972449
 31
0.0
  0
LINE
  5
E6
330
1F
100
AcDbEntity
  8
0
  6
CONTINUOUS
 62
     3
100
AcDbLine
 10
178.5827992545869
 20
172.2800159972449
 30
0.0
 11
178.7769242545869
 21
172.2544659972449
 31
0.0
  0
LINE
  5
E7
330
1F
100
AcDbEntity
  8
0
  6
CONTINUOUS
 62
     3
100
AcDbLine
 10
178.7769242545869
 20
172.2544659972449
 30
0.0
 11
178.9577992545869
 21
172.1795409972451
 31
0.0
  0
LINE
  5
E8
330
1F
100
AcDbEntity
  8
0
  6
CONTINUOUS
 62
     3
100
AcDbLine
 10
178.9577992545869
 20
172.1795409972451
 30
0.0
 11
179.1131242545868
 21
172.0603409972451
 31
0.0
  0
LINE
  5
E9
330
1F
100
AcDbEntity
  8
0
  6
CONTINUOUS
 62
     3
100
AcDbLine
 10
179.1131242545868
 20
172.0603409972451
 30
0.0
 11
179.2323242545869
 21
171.9050159972451
 31
0.0
  0
LINE
  5
EA
330
1F
100
AcDbEntity
  8
0
  6
CONTINUOUS
 62
     3
100
AcDbLine
 10
179.2323242545869
 20
171.9050159972451
 30
0.0
 11
179.3072492545869
 21
171.7241409972451
 31
0.0
  0
LINE
  5
EB
330
1F
100
AcDbEntity
  8
0
  6
CONTINUOUS
 62
     3
100
AcDbLine
 10
179.3072492545869
 20
171.7241409972451
 30
0.0
 11
179.3327992545869
 21
171.5300159972451
 31
0.0
  0
LINE
  5
EC
330
1F
100
AcDbEntity
  8
0
  6
CONTINUOUS
 62
     3
100
AcDbLine
 10
179.3327992545869
 20
174.0300159972449
 30
0.0
 11
179.3072492545869
 21
173.8358909972451
 31
0.0
  0
LINE
  5
ED
330
1F
100
AcDbEntity
  8
0
  6
CONTINUOUS
 62
     3
100
AcDbLine
 10
179.3072492545869
 20
173.8358909972451
 30
0.0
 11
179.2323242545869
 21
173.6550159972451
 31
0.0
  0
LINE
  5
EE
330
1F
100
AcDbEntity
  8
0
  6
CONTINUOUS
 62
     3
100
AcDbLine
 10
179.2323242545869
 20
173.6550159972451
 30
0.0
 11
179.1131242545868
 21
173.4996909972449
 31
0.0
  0
LINE
  5
EF
330
1F
100
AcDbEntity
  8
0
  6
CONTINUOUS
 62
     3
100
AcDbLine
 10
179.1131242545868
 20
173.4996909972449
 30
0.0
 11
178.9577992545869
 21
173.3804909972449
 31
0.0
  0
LINE
  5
F0
330
1F
100
AcDbEntity
  8
0
  6
CONTINUOUS
 62
     3
100
AcDbLine
 10
178.9577992545869
 20
173.3804909972449
 30
0.0
 11
178.7769242545869
 21
173.3055659972451
 31
0.0
  0
LINE
  5
F1
330
1F
100
AcDbEntity
  8
0
  6
CONTINUOUS
 62
     3
100
AcDbLine
 10
178.7769242545869
 20
173.3055659972451
 30
0.0
 11
178.5827992545869
 21
173.2800159972449
 31
0.0
  0
LINE
  5
F2
330
1F
100
AcDbEntity
  8
0
  6
CONTINUOUS
 62
     3
100
AcDbLine
 10
181.0827992545869
 20
173.2800159972449
 30
0.0
 11
180.8886992545868
 21
173.3055659972451
 31
0.0
  0
LINE
  5
F3
330
1F
100
AcDbEntity
  8
0
  6
CONTINUOUS
 62
     3
100
AcDbLine
 10
180.8886992545868
 20
173.3055659972451
 30
0.0
 11
180.7077992545869
 21
173.3804909972449
 31
0.0
  0
LINE
  5
F4
330
1F
100
AcDbEntity
  8
0
  6
CONTINUOUS
 62
     3
100
AcDbLine
 10
180.7077992545869
 20
173.3804909972449
 30
0.0
 11
180.5524742545869
 21
173.4996909972449
 31
0.0
  0
LINE
  5
F5
330
1F
100
AcDbEntity
  8
0
  6
CONTINUOUS
 62
     3
100
AcDbLine
 10
180.5524742545869
 20
173.4996909972449
 30
0.0
 11
180.4332742545869
 21
173.6550159972451
 31
0.0
  0
LINE
  5
F6
330
1F
100
AcDbEntity
  8
0
  6
CONTINUOUS
 62
     3
100
AcDbLine
 10
180.4332742545869
 20
173.6550159972451
 30
0.0
 11
180.3583492545868
 21
173.8358909972451
 31
0.0
  0
LINE
  5
F7
330
1F
100
AcDbEntity
  8
0
  6
CONTINUOUS
 62
     3
100
AcDbLine
 10
180.3583492545868
 20
173.8358909972451
 30
0.0
 11
180.3327992545869
 21
174.0300159972449
 31
0.0
  0
LINE
  5
F8
330
1F
100
AcDbEntity
  8
0
  6
CONTINUOUS
 62
     3
100
AcDbLine
 10
182.8327992545869
 20
172.7800159972451
 30
0.0
 11
182.6518742545869
 21
173.8060659972451
 31
0.0
  0
LINE
  5
F9
330
1F
100
AcDbEntity
  8
0
  6
CONTINUOUS
 62
     3
100
AcDbLine
 10
182.6518742545869
 20
173.8060659972451
 30
0.0
 11
182.1309492545869
 21
174.7083659972451
 31
0.0
  0
LINE
  5
FA
330
1F
100
AcDbEntity
  8
0
  6
CONTINUOUS
 62
     3
100
AcDbLine
 10
182.1309492545869
 20
174.7083659972451
 30
0.0
 11
181.3328242545869
 21
175.3780909972451
 31
0.0
  0
LINE
  5
FB
330
1F
100
AcDbEntity
  8
0
  6
CONTINUOUS
 62
     3
100
AcDbLine
 10
181.3328242545869
 20
175.3780909972451
 30
0.0
 11
180.3537742545869
 21
175.7344409972451
 31
0.0
  0
LINE
  5
FC
330
1F
100
AcDbEntity
  8
0
  6
CONTINUOUS
 62
     3
100
AcDbLine
 10
180.3537742545869
 20
175.7344409972451
 30
0.0
 11
179.3118742545869
 21
175.7344409972451
 31
0.0
  0
LINE
  5
FD
330
1F
100
AcDbEntity
  8
0
  6
CONTINUOUS
 62
     3
100
AcDbLine
 10
179.3118742545869
 20
175.7344409972451
 30
0.0
 11
178.3328242545869
 21
175.3781159972449
 31
0.0
  0
LINE
  5
FE
330
1F
100
AcDbEntity
  8
0
  6
CONTINUOUS
 62
     3
100
AcDbLine
 10
178.3328242545869
 20
175.3781159972449
 30
0.0
 11
177.5346992545869
 21
174.7084159972451
 31
0.0
  0
LINE
  5
FF
330
1F
100
AcDbEntity
  8
0
  6
CONTINUOUS
 62
     3
100
AcDbLine
 10
177.5346992545869
 20
174.7084159972451
 30
0.0
 11
177.0137492545869
 21
173.8061159972451
 31
0.0
  0
LINE
  5
100
330
1F
100
AcDbEntity
  8
0
  6
CONTINUOUS
 62
     3
100
AcDbLine
 10
177.0137492545869
 20
173.8061159972451
 30
0.0
 11
176.8327992545869
 21
172.7800659972449
 31
0.0
  0
LINE
  5
101
330
1F
100
AcDbEntity
  8
0
  6
CONTINUOUS
 62
     3
100
AcDbLine
 10
176.8327992545869
 20
172.7800659972449
 30
0.0
 11
177.0136992545868
 21
171.754015997245
 31
0.0
  0
LINE
  5
102
330
1F
100
AcDbEntity
  8
0
  6
CONTINUOUS
 62
     3
100
AcDbLine
 10
177.0136992545868
 20
171.754015997245
 30
0.0
 11
177.5346242545869
 21
170.8516909972451
 31
0.0
  0
LINE
  5
103
330
1F
100
AcDbEntity
  8
0
  6
CONTINUOUS
 62
     3
100
AcDbLine
 10
177.5346242545869
 20
170.8516909972451
 30
0.0
 11
178.3327492545869
 21
170.1819659972451
 31
0.0
  0
LINE
  5
104
330
1F
100
AcDbEntity
  8
0
  6
CONTINUOUS
 62
     3
100
AcDbLine
 10
178.3327492545869
 20
170.1819659972451
 30
0.0
 11
179.311799254587
 21
169.8256159972451
 31
0.0
  0
LINE
  5
105
330
1F
100
AcDbEntity
  8
0
  6
CONTINUOUS
 62
     3
100
AcDbLine
 10
179.311799254587
 20
169.8256159972451
 30
0.0
 11
180.3536742545869
 21
169.8255909972451
 31
0.0
  0
LINE
  5
106
330
1F
100
AcDbEntity
  8
0
  6
CONTINUOUS
 62
     3
100
AcDbLine
 10
180.3536742545869
 20
169.8255909972451
 30
0.0
 11
181.3327242545869
 21
170.181890997245
 31
0.0
  0
LINE
  5
107
330
1F
100
AcDbEntity
  8
0
  6
CONTINUOUS
 62
     3
100
AcDbLine
 10
181.3327242545869
 20
170.181890997245
 30
0.0
 11
182.1308742545868
 21
170.851590997245
 31
0.0
  0
LINE
  5
108
330
1F
100
AcDbEntity
  8
0
  6
CONTINUOUS
 62
     3
100
AcDbLine
 10
182.1308742545868
 20
170.851590997245
 30
0.0
 11
182.6518492545869
 21
171.7538659972451
 31
0.0
  0
LINE
  5
109
330
1F
100
AcDbEntity
  8
0
  6
CONTINUOUS
 62
     3
100
AcDbLine
 10
182.6518492545869
 20
171.7538659972451
 30
0.0
 11
182.8327992545869
 21
172.7799159972449
 31
0.0
  0
LINE
  5
10A
330
1F
100
AcDbEntity
  8
0
  6
CONTINUOUS
 62
     3
100
AcDbLine
 10
187.8327992545869
 20
171.5300159972451
 30
0.0
 11
187.8327992545869
 21
170.7800159972451
 31
0.0
  0
LINE
  5
10B
330
1F
100
AcDbEntity
  8
0
  6
CONTINUOUS
 62
     3
100
AcDbLine
 10
187.0827992545869
 20
172.2800159972449
 30
0.0
 11
187.2769242545869
 21
172.2544659972449
 31
0.0
  0
LINE
  5
10C
330
1F
100
AcDbEntity
  8
0
  6
CONTINUOUS
 62
     3
100
AcDbLine
 10
187.2769242545869
 20
172.2544659972449
 30
0.0
 11
187.4577992545869
 21
172.1795409972451
 31
0.0
  0
LINE
  5
10D
330
1F
100
AcDbEntity
  8
0
  6
CONTINUOUS
 62
     3
100
AcDbLine
 10
187.4577992545869
 20
172.1795409972451
 30
0.0
 11
187.6131242545868
 21
172.0603409972451
 31
0.0
  0
LINE
  5
10E
330
1F
100
AcDbEntity
  8
0
  6
CONTINUOUS
 62
     3
100
AcDbLine
 10
187.6131242545868
 20
172.0603409972451
 30
0.0
 11
187.7323242545869
 21
171.9050159972451
 31
0.0
  0
LINE
  5
10F
330
1F
100
AcDbEntity
  8
0
  6
CONTINUOUS
 62
     3
100
AcDbLine
 10
187.7323242545869
 20
171.9050159972451
 30
0.0
 11
187.8072492545869
 21
171.7241409972451
 31
0.0
  0
LINE
  5
110
330
1F
100
AcDbEntity
  8
0
  6
CONTINUOUS
 62
     3
100
AcDbLine
 10
187.8072492545869
 20
171.7241409972451
 30
0.0
 11
187.8327992545869
 21
171.5300159972451
 31
0.0
  0
LINE
  5
111
330
1F
100
AcDbEntity
  8
0
  6
CONTINUOUS
 62
     3
100
AcDbLine
 10
187.0827992545869
 20
172.2800159972449
 30
0.0
 11
186.3327992545869
 21
172.2800159972449
 31
0.0
  0
LINE
  5
112
330
1F
100
AcDbEntity
  8
0
  6
CONTINUOUS
 62
     3
100
AcDbLine
 10
186.3327992545869
 20
173.2800159972449
 30
0.0
 11
186.3327992545869
 21
172.2800159972449
 31
0.0
  0
LINE
  5
113
330
1F
100
AcDbEntity
  8
0
  6
CONTINUOUS
 62
     3
100
AcDbLine
 10
187.0827992545869
 20
173.2800159972449
 30
0.0
 11
186.3327992545869
 21
173.2800159972449
 31
0.0
  0
LINE
  5
114
330
1F
100
AcDbEntity
  8
0
  6
CONTINUOUS
 62
     3
100
AcDbLine
 10
187.8327992545869
 20
174.0300159972449
 30
0.0
 11
187.8072492545869
 21
173.8358909972451
 31
0.0
  0
LINE
  5
115
330
1F
100
AcDbEntity
  8
0
  6
CONTINUOUS
 62
     3
100
AcDbLine
 10
187.8072492545869
 20
173.8358909972451
 30
0.0
 11
187.7323242545869
 21
173.6550159972451
 31
0.0
  0
LINE
  5
116
330
1F
100
AcDbEntity
  8
0
  6
CONTINUOUS
 62
     3
100
AcDbLine
 10
187.7323242545869
 20
173.6550159972451
 30
0.0
 11
187.6131242545868
 21
173.4996909972449
 31
0.0
  0
LINE
  5
117
330
1F
100
AcDbEntity
  8
0
  6
CONTINUOUS
 62
     3
100
AcDbLine
 10
187.6131242545868
 20
173.4996909972449
 30
0.0
 11
187.4577992545869
 21
173.3804909972449
 31
0.0
  0
LINE
  5
118
330
1F
100
AcDbEntity
  8
0
  6
CONTINUOUS
 62
     3
100
AcDbLine
 10
187.4577992545869
 20
173.3804909972449
 30
0.0
 11
187.2769242545869
 21
173.3055659972451
 31
0.0
  0
LINE
  5
119
330
1F
100
AcDbEntity
  8
0
  6
CONTINUOUS
 62
     3
100
AcDbLine
 10
187.2769242545869
 20
173.3055659972451
 30
0.0
 11
187.0827992545869
 21
173.2800159972449
 31
0.0
  0
LINE
  5
11A
330
1F
100
AcDbEntity
  8
0
  6
CONTINUOUS
 62
     3
100
AcDbLine
 10
187.8327992545869
 20
174.0300159972449
 30
0.0
 11
187.8327992545869
 21
174.7800159972451
 31
0.0
  0
LINE
  5
11B
330
1F
100
AcDbEntity
  8
0
  6
CONTINUOUS
 62
     3
100
AcDbLine
 10
188.8327992545869
 20
174.7800159972451
 30
0.0
 11
187.8327992545869
 21
174.7800159972451
 31
0.0
  0
LINE
  5
11C
330
1F
100
AcDbEntity
  8
0
  6
CONTINUOUS
 62
     3
100
AcDbLine
 10
188.8327992545869
 20
174.0300159972449
 30
0.0
 11
188.8327992545869
 21
174.7800159972451
 31
0.0
  0
LINE
  5
11D
330
1F
100
AcDbEntity
  8
0
  6
CONTINUOUS
 62
     3
100
AcDbLine
 10
189.5827992545869
 20
173.2800159972449
 30
0.0
 11
189.3886992545868
 21
173.3055659972451
 31
0.0
  0
LINE
  5
11E
330
1F
100
AcDbEntity
  8
0
  6
CONTINUOUS
 62
     3
100
AcDbLine
 10
189.3886992545868
 20
173.3055659972451
 30
0.0
 11
189.2077992545869
 21
173.3804909972449
 31
0.0
  0
LINE
  5
11F
330
1F
100
AcDbEntity
  8
0
  6
CONTINUOUS
 62
     3
100
AcDbLine
 10
189.2077992545869
 20
173.3804909972449
 30
0.0
 11
189.0524742545869
 21
173.4996909972449
 31
0.0
  0
LINE
  5
120
330
1F
100
AcDbEntity
  8
0
  6
CONTINUOUS
 62
     3
100
AcDbLine
 10
189.0524742545869
 20
173.4996909972449
 30
0.0
 11
188.9332742545868
 21
173.6550159972451
 31
0.0
  0
LINE
  5
121
330
1F
100
AcDbEntity
  8
0
  6
CONTINUOUS
 62
     3
100
AcDbLine
 10
188.9332742545868
 20
173.6550159972451
 30
0.0
 11
188.8583492545869
 21
173.8358909972451
 31
0.0
  0
LINE
  5
122
330
1F
100
AcDbEntity
  8
0
  6
CONTINUOUS
 62
     3
100
AcDbLine
 10
188.8583492545869
 20
173.8358909972451
 30
0.0
 11
188.8327992545869
 21
174.0300159972449
 31
0.0
  0
LINE
  5
123
330
1F
100
AcDbEntity
  8
0
  6
CONTINUOUS
 62
     3
100
AcDbLine
 10
189.5827992545869
 20
173.2800159972449
 30
0.0
 11
190.3327992545869
 21
173.2800159972449
 31
0.0
  0
LINE
  5
124
330
1F
100
AcDbEntity
  8
0
  6
CONTINUOUS
 62
     3
100
AcDbLine
 10
190.3327992545869
 20
172.2800159972449
 30
0.0
 11
190.3327992545869
 21
173.2800159972449
 31
0.0
  0
LINE
  5
125
330
1F
100
AcDbEntity
  8
0
  6
CONTINUOUS
 62
     3
100
AcDbLine
 10
189.5827992545869
 20
172.2800159972449
 30
0.0
 11
190.3327992545869
 21
172.2800159972449
 31
0.0
  0
LINE
  5
126
330
1F
100
AcDbEntity
  8
0
  6
CONTINUOUS
 62
     3
100
AcDbLine
 10
188.8327992545869
 20
171.5300159972451
 30
0.0
 11
188.8583492545869
 21
171.7241409972451
 31
0.0
  0
LINE
  5
127
330
1F
100
AcDbEntity
  8
0
  6
CONTINUOUS
 62
     3
100
AcDbLine
 10
188.8583492545869
 20
171.7241409972451
 30
0.0
 11
188.9332742545868
 21
171.9050159972451
 31
0.0
  0
LINE
  5
128
330
1F
100
AcDbEntity
  8
0
  6
CONTINUOUS
 62
     3
100
AcDbLine
 10
188.9332742545868
 20
171.9050159972451
 30
0.0
 11
189.0524742545869
 21
172.0603409972451
 31
0.0
  0
LINE
  5
129
330
1F
100
AcDbEntity
  8
0
  6
CONTINUOUS
 62
     3
100
AcDbLine
 10
189.0524742545869
 20
172.0603409972451
 30
0.0
 11
189.2077992545869
 21
172.1795409972451
 31
0.0
  0
LINE
  5
12A
330
1F
100
AcDbEntity
  8
0
  6
CONTINUOUS
 62
     3
100
AcDbLine
 10
189.2077992545869
 20
172.1795409972451
 30
0.0
 11
189.3886992545868
 21
172.2544659972449
 31
0.0
  0
LINE
  5
12B
330
1F
100
AcDbEntity
  8
0
  6
CONTINUOUS
 62
     3
100
AcDbLine
 10
189.3886992545868
 20
172.2544659972449
 30
0.0
 11
189.5827992545869
 21
172.2800159972449
 31
0.0
  0
LINE
  5
12C
330
1F
100
AcDbEntity
  8
0
  6
CONTINUOUS
 62
     3
100
AcDbLine
 10
188.8327992545869
 20
171.5300159972451
 30
0.0
 11
188.8327992545869
 21
170.7800159972451
 31
0.0
  0
LINE
  5
12D
330
1F
100
AcDbEntity
  8
0
  6
CONTINUOUS
 62
     3
100
AcDbLine
 10
187.8327992545869
 20
170.7800159972451
 30
0.0
 11
188.8327992545869
 21
170.7800159972451
 31
0.0
  0
LINE
  5
12E
330
1F
100
AcDbEntity
  8
0
  6
CONTINUOUS
 62
     3
100
AcDbLine
 10
191.3327992545869
 20
172.7800159972451
 30
0.0
 11
191.1518742545869
 21
173.8060659972451
 31
0.0
  0
LINE
  5
12F
330
1F
100
AcDbEntity
  8
0
  6
CONTINUOUS
 62
     3
100
AcDbLine
 10
191.1518742545869
 20
173.8060659972451
 30
0.0
 11
190.6309492545869
 21
174.7083659972451
 31
0.0
  0
LINE
  5
130
330
1F
100
AcDbEntity
  8
0
  6
CONTINUOUS
 62
     3
100
AcDbLine
 10
190.6309492545869
 20
174.7083659972451
 30
0.0
 11
189.8328242545869
 21
175.3780909972451
 31
0.0
  0
LINE
  5
131
330
1F
100
AcDbEntity
  8
0
  6
CONTINUOUS
 62
     3
100
AcDbLine
 10
189.8328242545869
 20
175.3780909972451
 30
0.0
 11
188.8537742545869
 21
175.7344409972451
 31
0.0
  0
LINE
  5
132
330
1F
100
AcDbEntity
  8
0
  6
CONTINUOUS
 62
     3
100
AcDbLine
 10
188.8537742545869
 20
175.7344409972451
 30
0.0
 11
187.8118742545869
 21
175.7344409972451
 31
0.0
  0
LINE
  5
133
330
1F
100
AcDbEntity
  8
0
  6
CONTINUOUS
 62
     3
100
AcDbLine
 10
187.8118742545869
 20
175.7344409972451
 30
0.0
 11
186.8328242545869
 21
175.3781159972449
 31
0.0
  0
LINE
  5
134
330
1F
100
AcDbEntity
  8
0
  6
CONTINUOUS
 62
     3
100
AcDbLine
 10
186.8328242545869
 20
175.3781159972449
 30
0.0
 11
186.0346992545869
 21
174.7084159972451
 31
0.0
  0
LINE
  5
135
330
1F
100
AcDbEntity
  8
0
  6
CONTINUOUS
 62
     3
100
AcDbLine
 10
186.0346992545869
 20
174.7084159972451
 30
0.0
 11
185.5137492545869
 21
173.8061159972451
 31
0.0
  0
LINE
  5
136
330
1F
100
AcDbEntity
  8
0
  6
CONTINUOUS
 62
     3
100
AcDbLine
 10
185.5137492545869
 20
173.8061159972451
 30
0.0
 11
185.3327992545869
 21
172.7800659972449
 31
0.0
  0
LINE
  5
137
330
1F
100
AcDbEntity
  8
0
  6
CONTINUOUS
 62
     3
100
AcDbLine
 10
185.3327992545869
 20
172.7800659972449
 30
0.0
 11
185.5136992545869
 21
171.754015997245
 31
0.0
  0
LINE
  5
138
330
1F
100
AcDbEntity
  8
0
  6
CONTINUOUS
 62
     3
100
AcDbLine
 10
185.5136992545869
 20
171.754015997245
 30
0.0
 11
186.0346242545869
 21
170.8516909972451
 31
0.0
  0
LINE
  5
139
330
1F
100
AcDbEntity
  8
0
  6
CONTINUOUS
 62
     3
100
AcDbLine
 10
186.0346242545869
 20
170.8516909972451
 30
0.0
 11
186.8327492545869
 21
170.1819659972451
 31
0.0
  0
LINE
  5
13A
330
1F
100
AcDbEntity
  8
0
  6
CONTINUOUS
 62
     3
100
AcDbLine
 10
186.8327492545869
 20
170.1819659972451
 30
0.0
 11
187.8117992545869
 21
169.8256159972451
 31
0.0
  0
LINE
  5
13B
330
1F
100
AcDbEntity
  8
0
  6
CONTINUOUS
 62
     3
100
AcDbLine
 10
187.8117992545869
 20
169.8256159972451
 30
0.0
 11
188.8536742545868
 21
169.8255909972451
 31
0.0
  0
LINE
  5
13C
330
1F
100
AcDbEntity
  8
0
  6
CONTINUOUS
 62
     3
100
AcDbLine
 10
188.8536742545868
 20
169.8255909972451
 30
0.0
 11
189.8327242545868
 21
170.181890997245
 31
0.0
  0
LINE
  5
13D
330
1F
100
AcDbEntity
  8
0
  6
CONTINUOUS
 62
     3
100
AcDbLine
 10
189.8327242545868
 20
170.181890997245
 30
0.0
 11
190.6308742545869
 21
170.851590997245
 31
0.0
  0
LINE
  5
13E
330
1F
100
AcDbEntity
  8
0
  6
CONTINUOUS
 62
     3
100
AcDbLine
 10
190.6308742545869
 20
170.851590997245
 30
0.0
 11
191.1518492545869
 21
171.7538659972451
 31
0.0
  0
LINE
  5
13F
330
1F
100
AcDbEntity
  8
0
  6
CONTINUOUS
 62
     3
100
AcDbLine
 10
191.1518492545869
 20
171.7538659972451
 30
0.0
 11
191.3327992545869
 21
172.7799159972449
 31
0.0
  0
LINE
  5
140
330
1F
100
AcDbEntity
  8
0
  6
CONTINUOUS
 62
     3
100
AcDbLine
 10
185.3327992545869
 20
176.6800159972451
 30
0.0
 11
185.3327992545869
 21
168.880015997245
 31
0.0
  0
LINE
  5
141
330
1F
100
AcDbEntity
  8
0
  6
CONTINUOUS
 62
     3
100
AcDbLine
 10
185.3327992545869
 20
168.880015997245
 30
0.0
 11
191.3327992545869
 21
168.880015997245
 31
0.0
  0
LINE
  5
142
330
1F
100
AcDbEntity
  8
0
  6
CONTINUOUS
 62
     3
100
AcDbLine
 10
191.3327992545869
 20
168.880015997245
 30
0.0
 11
191.3327992545869
 21
176.6800159972451
 31
0.0
  0
LINE
  5
143
330
1F
100
AcDbEntity
  8
0
  6
CONTINUOUS
 62
     3
100
AcDbLine
 10
191.3327992545869
 20
176.6800159972451
 30
0.0
 11
185.3327992545869
 21
176.6800159972451
 31
0.0
  0
LINE
  5
144
330
1F
100
AcDbEntity
  8
0
  6
CONTINUOUS
 62
     3
100
AcDbLine
 10
196.3327992545869
 20
171.5300159972451
 30
0.0
 11
196.3327992545869
 21
170.7800159972451
 31
0.0
  0
LINE
  5
145
330
1F
100
AcDbEntity
  8
0
  6
CONTINUOUS
 62
     3
100
AcDbLine
 10
195.5827992545869
 20
172.2800159972449
 30
0.0
 11
195.776924254587
 21
172.2544659972449
 31
0.0
  0
LINE
  5
146
330
1F
100
AcDbEntity
  8
0
  6
CONTINUOUS
 62
     3
100
AcDbLine
 10
195.776924254587
 20
172.2544659972449
 30
0.0
 11
195.9577992545869
 21
172.1795409972451
 31
0.0
  0
LINE
  5
147
330
1F
100
AcDbEntity
  8
0
  6
CONTINUOUS
 62
     3
100
AcDbLine
 10
195.9577992545869
 20
172.1795409972451
 30
0.0
 11
196.1131242545868
 21
172.0603409972451
 31
0.0
  0
LINE
  5
148
330
1F
100
AcDbEntity
  8
0
  6
CONTINUOUS
 62
     3
100
AcDbLine
 10
196.1131242545868
 20
172.0603409972451
 30
0.0
 11
196.2323242545869
 21
171.9050159972451
 31
0.0
  0
LINE
  5
149
330
1F
100
AcDbEntity
  8
0
  6
CONTINUOUS
 62
     3
100
AcDbLine
 10
196.2323242545869
 20
171.9050159972451
 30
0.0
 11
196.3072492545869
 21
171.7241409972451
 31
0.0
  0
LINE
  5
14A
330
1F
100
AcDbEntity
  8
0
  6
CONTINUOUS
 62
     3
100
AcDbLine
 10
196.3072492545869
 20
171.7241409972451
 30
0.0
 11
196.3327992545869
 21
171.5300159972451
 31
0.0
  0
LINE
  5
14B
330
1F
100
AcDbEntity
  8
0
  6
CONTINUOUS
 62
     3
100
AcDbLine
 10
195.5827992545869
 20
172.2800159972449
 30
0.0
 11
194.8327992545869
 21
172.2800159972449
 31
0.0
  0
LINE
  5
14C
330
1F
100
AcDbEntity
  8
0
  6
CONTINUOUS
 62
     3
100
AcDbLine
 10
194.8327992545869
 20
173.2800159972449
 30
0.0
 11
194.8327992545869
 21
172.2800159972449
 31
0.0
  0
LINE
  5
14D
330
1F
100
AcDbEntity
  8
0
  6
CONTINUOUS
 62
     3
100
AcDbLine
 10
195.5827992545869
 20
173.2800159972449
 30
0.0
 11
194.8327992545869
 21
173.2800159972449
 31
0.0
  0
LINE
  5
14E
330
1F
100
AcDbEntity
  8
0
  6
CONTINUOUS
 62
     3
100
AcDbLine
 10
196.3327992545869
 20
174.0300159972449
 30
0.0
 11
196.3072492545869
 21
173.8358909972451
 31
0.0
  0
LINE
  5
14F
330
1F
100
AcDbEntity
  8
0
  6
CONTINUOUS
 62
     3
100
AcDbLine
 10
196.3072492545869
 20
173.8358909972451
 30
0.0
 11
196.2323242545869
 21
173.6550159972451
 31
0.0
  0
LINE
  5
150
330
1F
100
AcDbEntity
  8
0
  6
CONTINUOUS
 62
     3
100
AcDbLine
 10
196.2323242545869
 20
173.6550159972451
 30
0.0
 11
196.1131242545868
 21
173.4996909972449
 31
0.0
  0
LINE
  5
151
330
1F
100
AcDbEntity
  8
0
  6
CONTINUOUS
 62
     3
100
AcDbLine
 10
196.1131242545868
 20
173.4996909972449
 30
0.0
 11
195.9577992545869
 21
173.3804909972449
 31
0.0
  0
LINE
  5
152
330
1F
100
AcDbEntity
  8
0
  6
CONTINUOUS
 62
     3
100
AcDbLine
 10
195.9577992545869
 20
173.3804909972449
 30
0.0
 11
195.776924254587
 21
173.3055659972451
 31
0.0
  0
LINE
  5
153
330
1F
100
AcDbEntity
  8
0
  6
CONTINUOUS
 62
     3
100
AcDbLine
 10
195.776924254587
 20
173.3055659972451
 30
0.0
 11
195.5827992545869
 21
173.2800159972449
 31
0.0
  0
LINE
  5
154
330
1F
100
AcDbEntity
  8
0
  6
CONTINUOUS
 62
     3
100
AcDbLine
 10
196.3327992545869
 20
174.0300159972449
 30
0.0
 11
196.3327992545869
 21
174.7800159972451
 31
0.0
  0
LINE
  5
155
330
1F
100
AcDbEntity
  8
0
  6
CONTINUOUS
 62
     3
100
AcDbLine
 10
197.3327992545869
 20
174.7800159972451
 30
0.0
 11
196.3327992545869
 21
174.7800159972451
 31
0.0
  0
LINE
  5
156
330
1F
100
AcDbEntity
  8
0
  6
CONTINUOUS
 62
     3
100
AcDbLine
 10
197.3327992545869
 20
174.0300159972449
 30
0.0
 11
197.3327992545869
 21
174.7800159972451
 31
0.0
  0
LINE
  5
157
330
1F
100
AcDbEntity
  8
0
  6
CONTINUOUS
 62
     3
100
AcDbLine
 10
198.0827992545869
 20
173.2800159972449
 30
0.0
 11
197.8886992545868
 21
173.3055659972451
 31
0.0
  0
LINE
  5
158
330
1F
100
AcDbEntity
  8
0
  6
CONTINUOUS
 62
     3
100
AcDbLine
 10
197.8886992545868
 20
173.3055659972451
 30
0.0
 11
197.7077992545869
 21
173.3804909972449
 31
0.0
  0
LINE
  5
159
330
1F
100
AcDbEntity
  8
0
  6
CONTINUOUS
 62
     3
100
AcDbLine
 10
197.7077992545869
 20
173.3804909972449
 30
0.0
 11
197.5524742545869
 21
173.4996909972449
 31
0.0
  0
LINE
  5
15A
330
1F
100
AcDbEntity
  8
0
  6
CONTINUOUS
 62
     3
100
AcDbLine
 10
197.5524742545869
 20
173.4996909972449
 30
0.0
 11
197.4332742545868
 21
173.6550159972451
 31
0.0
  0
LINE
  5
15B
330
1F
100
AcDbEntity
  8
0
  6
CONTINUOUS
 62
     3
100
AcDbLine
 10
197.4332742545868
 20
173.6550159972451
 30
0.0
 11
197.358349254587
 21
173.8358909972451
 31
0.0
  0
LINE
  5
15C
330
1F
100
AcDbEntity
  8
0
  6
CONTINUOUS
 62
     3
100
AcDbLine
 10
197.358349254587
 20
173.8358909972451
 30
0.0
 11
197.3327992545869
 21
174.0300159972449
 31
0.0
  0
LINE
  5
15D
330
1F
100
AcDbEntity
  8
0
  6
CONTINUOUS
 62
     3
100
AcDbLine
 10
198.0827992545869
 20
173.2800159972449
 30
0.0
 11
198.8327992545869
 21
173.2800159972449
 31
0.0
  0
LINE
  5
15E
330
1F
100
AcDbEntity
  8
0
  6
CONTINUOUS
 62
     3
100
AcDbLine
 10
198.8327992545869
 20
172.2800159972449
 30
0.0
 11
198.8327992545869
 21
173.2800159972449
 31
0.0
  0
LINE
  5
15F
330
1F
100
AcDbEntity
  8
0
  6
CONTINUOUS
 62
     3
100
AcDbLine
 10
198.0827992545869
 20
172.2800159972449
 30
0.0
 11
198.8327992545869
 21
172.2800159972449
 31
0.0
  0
LINE
  5
160
330
1F
100
AcDbEntity
  8
0
  6
CONTINUOUS
 62
     3
100
AcDbLine
 10
197.3327992545869
 20
171.5300159972451
 30
0.0
 11
197.358349254587
 21
171.7241409972451
 31
0.0
  0
LINE
  5
161
330
1F
100
AcDbEntity
  8
0
  6
CONTINUOUS
 62
     3
100
AcDbLine
 10
197.358349254587
 20
171.7241409972451
 30
0.0
 11
197.4332742545868
 21
171.9050159972451
 31
0.0
  0
LINE
  5
162
330
1F
100
AcDbEntity
  8
0
  6
CONTINUOUS
 62
     3
100
AcDbLine
 10
197.4332742545868
 20
171.9050159972451
 30
0.0
 11
197.5524742545869
 21
172.0603409972451
 31
0.0
  0
LINE
  5
163
330
1F
100
AcDbEntity
  8
0
  6
CONTINUOUS
 62
     3
100
AcDbLine
 10
197.5524742545869
 20
172.0603409972451
 30
0.0
 11
197.7077992545869
 21
172.1795409972451
 31
0.0
  0
LINE
  5
164
330
1F
100
AcDbEntity
  8
0
  6
CONTINUOUS
 62
     3
100
AcDbLine
 10
197.7077992545869
 20
172.1795409972451
 30
0.0
 11
197.8886992545868
 21
172.2544659972449
 31
0.0
  0
LINE
  5
165
330
1F
100
AcDbEntity
  8
0
  6
CONTINUOUS
 62
     3
100
AcDbLine
 10
197.8886992545868
 20
172.2544659972449
 30
0.0
 11
198.0827992545869
 21
172.2800159972449
 31
0.0
  0
LINE
  5
166
330
1F
100
AcDbEntity
  8
0
  6
CONTINUOUS
 62
     3
100
AcDbLine
 10
197.3327992545869
 20
171.5300159972451
 30
0.0
 11
197.3327992545869
 21
170.7800159972451
 31
0.0
  0
LINE
  5
167
330
1F
100
AcDbEntity
  8
0
  6
CONTINUOUS
 62
     3
100
AcDbLine
 10
196.3327992545869
 20
170.7800159972451
 30
0.0
 11
197.3327992545869
 21
170.7800159972451
 31
0.0
  0
LINE
  5
168
330
1F
100
AcDbEntity
  8
0
  6
CONTINUOUS
 62
     3
100
AcDbLine
 10
199.8327992545869
 20
172.7800159972451
 30
0.0
 11
199.6518742545869
 21
173.8060659972451
 31
0.0
  0
LINE
  5
169
330
1F
100
AcDbEntity
  8
0
  6
CONTINUOUS
 62
     3
100
AcDbLine
 10
199.6518742545869
 20
173.8060659972451
 30
0.0
 11
199.1309492545869
 21
174.7083659972451
 31
0.0
  0
LINE
  5
16A
330
1F
100
AcDbEntity
  8
0
  6
CONTINUOUS
 62
     3
100
AcDbLine
 10
199.1309492545869
 20
174.7083659972451
 30
0.0
 11
198.3328242545869
 21
175.3780909972451
 31
0.0
  0
LINE
  5
16B
330
1F
100
AcDbEntity
  8
0
  6
CONTINUOUS
 62
     3
100
AcDbLine
 10
198.3328242545869
 20
175.3780909972451
 30
0.0
 11
197.3537742545869
 21
175.7344409972451
 31
0.0
  0
LINE
  5
16C
330
1F
100
AcDbEntity
  8
0
  6
CONTINUOUS
 62
     3
100
AcDbLine
 10
197.3537742545869
 20
175.7344409972451
 30
0.0
 11
196.3118742545869
 21
175.7344409972451
 31
0.0
  0
LINE
  5
16D
330
1F
100
AcDbEntity
  8
0
  6
CONTINUOUS
 62
     3
100
AcDbLine
 10
196.3118742545869
 20
175.7344409972451
 30
0.0
 11
195.3328242545869
 21
175.3781159972449
 31
0.0
  0
LINE
  5
16E
330
1F
100
AcDbEntity
  8
0
  6
CONTINUOUS
 62
     3
100
AcDbLine
 10
195.3328242545869
 20
175.3781159972449
 30
0.0
 11
194.5346992545869
 21
174.7084159972451
 31
0.0
  0
LINE
  5
16F
330
1F
100
AcDbEntity
  8
0
  6
CONTINUOUS
 62
     3
100
AcDbLine
 10
194.5346992545869
 20
174.7084159972451
 30
0.0
 11
194.0137492545869
 21
173.8061159972451
 31
0.0
  0
LINE
  5
170
330
1F
100
AcDbEntity
  8
0
  6
CONTINUOUS
 62
     3
100
AcDbLine
 10
194.0137492545869
 20
173.8061159972451
 30
0.0
 11
193.8327992545869
 21
172.7800659972449
 31
0.0
  0
LINE
  5
171
330
1F
100
AcDbEntity
  8
0
  6
CONTINUOUS
 62
     3
100
AcDbLine
 10
193.8327992545869
 20
172.7800659972449
 30
0.0
 11
194.0136992545868
 21
171.754015997245
 31
0.0
  0
LINE
  5
172
330
1F
100
AcDbEntity
  8
0
  6
CONTINUOUS
 62
     3
100
AcDbLine
 10
194.0136992545868
 20
171.754015997245
 30
0.0
 11
194.5346242545868
 21
170.8516909972451
 31
0.0
  0
LINE
  5
173
330
1F
100
AcDbEntity
  8
0
  6
CONTINUOUS
 62
     3
100
AcDbLine
 10
194.5346242545868
 20
170.8516909972451
 30
0.0
 11
195.3327492545868
 21
170.1819659972451
 31
0.0
  0
LINE
  5
174
330
1F
100
AcDbEntity
  8
0
  6
CONTINUOUS
 62
     3
100
AcDbLine
 10
195.3327492545868
 20
170.1819659972451
 30
0.0
 11
196.3117992545869
 21
169.8256159972451
 31
0.0
  0
LINE
  5
175
330
1F
100
AcDbEntity
  8
0
  6
CONTINUOUS
 62
     3
100
AcDbLine
 10
196.3117992545869
 20
169.8256159972451
 30
0.0
 11
197.3536742545869
 21
169.8255909972451
 31
0.0
  0
LINE
  5
176
330
1F
100
AcDbEntity
  8
0
  6
CONTINUOUS
 62
     3
100
AcDbLine
 10
197.3536742545869
 20
169.8255909972451
 30
0.0
 11
198.3327242545868
 21
170.181890997245
 31
0.0
  0
LINE
  5
177
330
1F
100
AcDbEntity
  8
0
  6
CONTINUOUS
 62
     3
100
AcDbLine
 10
198.3327242545868
 20
170.181890997245
 30
0.0
 11
199.130874254587
 21
170.851590997245
 31
0.0
  0
LINE
  5
178
330
1F
100
AcDbEntity
  8
0
  6
CONTINUOUS
 62
     3
100
AcDbLine
 10
199.130874254587
 20
170.851590997245
 30
0.0
 11
199.6518492545868
 21
171.7538659972451
 31
0.0
  0
LINE
  5
179
330
1F
100
AcDbEntity
  8
0
  6
CONTINUOUS
 62
     3
100
AcDbLine
 10
199.6518492545868
 20
171.7538659972451
 30
0.0
 11
199.8327992545869
 21
172.7799159972449
 31
0.0
  0
LINE
  5
17A
330
1F
100
AcDbEntity
  8
0
  6
CONTINUOUS
 62
     3
100
AcDbLine
 10
193.8327992545869
 20
176.6800159972451
 30
0.0
 11
193.8327992545869
 21
168.880015997245
 31
0.0
  0
LINE
  5
17B
330
1F
100
AcDbEntity
  8
0
  6
CONTINUOUS
 62
     3
100
AcDbLine
 10
193.8327992545869
 20
168.880015997245
 30
0.0
 11
199.8327992545869
 21
168.880015997245
 31
0.0
  0
LINE
  5
17C
330
1F
100
AcDbEntity
  8
0
  6
CONTINUOUS
 62
     3
100
AcDbLine
 10
199.8327992545869
 20
168.880015997245
 30
0.0
 11
199.8327992545869
 21
176.6800159972451
 31
0.0
  0
LINE
  5
17D
330
1F
100
AcDbEntity
  8
0
  6
CONTINUOUS
 62
     3
100
AcDbLine
 10
199.8327992545869
 20
176.6800159972451
 30
0.0
 11
193.8327992545869
 21
176.6800159972451
 31
0.0
  0
LINE
  5
17E
330
1F
100
AcDbEntity
  8
0
  6
CONTINUOUS
 62
     3
100
AcDbLine
 10
206.5827992545869
 20
171.5300159972451
 30
0.0
 11
206.5827992545869
 21
170.7800159972451
 31
0.0
  0
LINE
  5
17F
330
1F
100
AcDbEntity
  8
0
  6
CONTINUOUS
 62
     3
100
AcDbLine
 10
205.8327992545869
 20
172.2800159972449
 30
0.0
 11
206.0269242545869
 21
172.2544659972449
 31
0.0
  0
LINE
  5
180
330
1F
100
AcDbEntity
  8
0
  6
CONTINUOUS
 62
     3
100
AcDbLine
 10
206.0269242545869
 20
172.2544659972449
 30
0.0
 11
206.2077992545868
 21
172.1795409972451
 31
0.0
  0
LINE
  5
181
330
1F
100
AcDbEntity
  8
0
  6
CONTINUOUS
 62
     3
100
AcDbLine
 10
206.2077992545868
 20
172.1795409972451
 30
0.0
 11
206.3631242545869
 21
172.0603409972451
 31
0.0
  0
LINE
  5
182
330
1F
100
AcDbEntity
  8
0
  6
CONTINUOUS
 62
     3
100
AcDbLine
 10
206.3631242545869
 20
172.0603409972451
 30
0.0
 11
206.4823242545869
 21
171.9050159972451
 31
0.0
  0
LINE
  5
183
330
1F
100
AcDbEntity
  8
0
  6
CONTINUOUS
 62
     3
100
AcDbLine
 10
206.4823242545869
 20
171.9050159972451
 30
0.0
 11
206.5572492545868
 21
171.7241409972451
 31
0.0
  0
LINE
  5
184
330
1F
100
AcDbEntity
  8
0
  6
CONTINUOUS
 62
     3
100
AcDbLine
 10
206.5572492545868
 20
171.7241409972451
 30
0.0
 11
206.5827992545869
 21
171.5300159972451
 31
0.0
  0
LINE
  5
185
330
1F
100
AcDbEntity
  8
0
  6
CONTINUOUS
 62
     3
100
AcDbLine
 10
205.8327992545869
 20
172.2800159972449
 30
0.0
 11
205.0827992545869
 21
172.2800159972449
 31
0.0
  0
LINE
  5
186
330
1F
100
AcDbEntity
  8
0
  6
CONTINUOUS
 62
     3
100
AcDbLine
 10
205.0827992545869
 20
173.2800159972449
 30
0.0
 11
205.0827992545869
 21
172.2800159972449
 31
0.0
  0
LINE
  5
187
330
1F
100
AcDbEntity
  8
0
  6
CONTINUOUS
 62
     3
100
AcDbLine
 10
205.8327992545869
 20
173.2800159972449
 30
0.0
 11
205.0827992545869
 21
173.2800159972449
 31
0.0
  0
LINE
  5
188
330
1F
100
AcDbEntity
  8
0
  6
CONTINUOUS
 62
     3
100
AcDbLine
 10
206.5827992545869
 20
174.0300159972449
 30
0.0
 11
206.5572492545868
 21
173.8358909972451
 31
0.0
  0
LINE
  5
189
330
1F
100
AcDbEntity
  8
0
  6
CONTINUOUS
 62
     3
100
AcDbLine
 10
206.5572492545868
 20
173.8358909972451
 30
0.0
 11
206.4823242545869
 21
173.6550159972451
 31
0.0
  0
LINE
  5
18A
330
1F
100
AcDbEntity
  8
0
  6
CONTINUOUS
 62
     3
100
AcDbLine
 10
206.4823242545869
 20
173.6550159972451
 30
0.0
 11
206.3631242545869
 21
173.4996909972449
 31
0.0
  0
LINE
  5
18B
330
1F
100
AcDbEntity
  8
0
  6
CONTINUOUS
 62
     3
100
AcDbLine
 10
206.3631242545869
 20
173.4996909972449
 30
0.0
 11
206.2077992545868
 21
173.3804909972449
 31
0.0
  0
LINE
  5
18C
330
1F
100
AcDbEntity
  8
0
  6
CONTINUOUS
 62
     3
100
AcDbLine
 10
206.2077992545868
 20
173.3804909972449
 30
0.0
 11
206.0269242545869
 21
173.3055659972451
 31
0.0
  0
LINE
  5
18D
330
1F
100
AcDbEntity
  8
0
  6
CONTINUOUS
 62
     3
100
AcDbLine
 10
206.0269242545869
 20
173.3055659972451
 30
0.0
 11
205.8327992545869
 21
173.2800159972449
 31
0.0
  0
LINE
  5
18E
330
1F
100
AcDbEntity
  8
0
  6
CONTINUOUS
 62
     3
100
AcDbLine
 10
206.5827992545869
 20
174.0300159972449
 30
0.0
 11
206.5827992545869
 21
174.7800159972451
 31
0.0
  0
LINE
  5
18F
330
1F
100
AcDbEntity
  8
0
  6
CONTINUOUS
 62
     3
100
AcDbLine
 10
207.5827992545869
 20
174.7800159972451
 30
0.0
 11
206.5827992545869
 21
174.7800159972451
 31
0.0
  0
LINE
  5
190
330
1F
100
AcDbEntity
  8
0
  6
CONTINUOUS
 62
     3
100
AcDbLine
 10
207.5827992545869
 20
174.0300159972449
 30
0.0
 11
207.5827992545869
 21
174.7800159972451
 31
0.0
  0
LINE
  5
191
330
1F
100
AcDbEntity
  8
0
  6
CONTINUOUS
 62
     3
100
AcDbLine
 10
208.3327992545869
 20
173.2800159972449
 30
0.0
 11
208.1386992545868
 21
173.3055659972451
 31
0.0
  0
LINE
  5
192
330
1F
100
AcDbEntity
  8
0
  6
CONTINUOUS
 62
     3
100
AcDbLine
 10
208.1386992545868
 20
173.3055659972451
 30
0.0
 11
207.9577992545869
 21
173.3804909972449
 31
0.0
  0
LINE
  5
193
330
1F
100
AcDbEntity
  8
0
  6
CONTINUOUS
 62
     3
100
AcDbLine
 10
207.9577992545869
 20
173.3804909972449
 30
0.0
 11
207.8024742545869
 21
173.4996909972449
 31
0.0
  0
LINE
  5
194
330
1F
100
AcDbEntity
  8
0
  6
CONTINUOUS
 62
     3
100
AcDbLine
 10
207.8024742545869
 20
173.4996909972449
 30
0.0
 11
207.6832742545869
 21
173.6550159972451
 31
0.0
  0
LINE
  5
195
330
1F
100
AcDbEntity
  8
0
  6
CONTINUOUS
 62
     3
100
AcDbLine
 10
207.6832742545869
 20
173.6550159972451
 30
0.0
 11
207.6083492545869
 21
173.8358909972451
 31
0.0
  0
LINE
  5
196
330
1F
100
AcDbEntity
  8
0
  6
CONTINUOUS
 62
     3
100
AcDbLine
 10
207.6083492545869
 20
173.8358909972451
 30
0.0
 11
207.5827992545869
 21
174.0300159972449
 31
0.0
  0
LINE
  5
197
330
1F
100
AcDbEntity
  8
0
  6
CONTINUOUS
 62
     3
100
AcDbLine
 10
208.3327992545869
 20
173.2800159972449
 30
0.0
 11
209.0827992545869
 21
173.2800159972449
 31
0.0
  0
LINE
  5
198
330
1F
100
AcDbEntity
  8
0
  6
CONTINUOUS
 62
     3
100
AcDbLine
 10
209.0827992545869
 20
172.2800159972449
 30
0.0
 11
209.0827992545869
 21
173.2800159972449
 31
0.0
  0
LINE
  5
199
330
1F
100
AcDbEntity
  8
0
  6
CONTINUOUS
 62
     3
100
AcDbLine
 10
208.3327992545869
 20
172.2800159972449
 30
0.0
 11
209.0827992545869
 21
172.2800159972449
 31
0.0
  0
LINE
  5
19A
330
1F
100
AcDbEntity
  8
0
  6
CONTINUOUS
 62
     3
100
AcDbLine
 10
207.5827992545869
 20
171.5300159972451
 30
0.0
 11
207.6083492545869
 21
171.7241409972451
 31
0.0
  0
LINE
  5
19B
330
1F
100
AcDbEntity
  8
0
  6
CONTINUOUS
 62
     3
100
AcDbLine
 10
207.6083492545869
 20
171.7241409972451
 30
0.0
 11
207.6832742545869
 21
171.9050159972451
 31
0.0
  0
LINE
  5
19C
330
1F
100
AcDbEntity
  8
0
  6
CONTINUOUS
 62
     3
100
AcDbLine
 10
207.6832742545869
 20
171.9050159972451
 30
0.0
 11
207.8024742545869
 21
172.0603409972451
 31
0.0
  0
LINE
  5
19D
330
1F
100
AcDbEntity
  8
0
  6
CONTINUOUS
 62
     3
100
AcDbLine
 10
207.8024742545869
 20
172.0603409972451
 30
0.0
 11
207.9577992545869
 21
172.1795409972451
 31
0.0
  0
LINE
  5
19E
330
1F
100
AcDbEntity
  8
0
  6
CONTINUOUS
 62
     3
100
AcDbLine
 10
207.9577992545869
 20
172.1795409972451
 30
0.0
 11
208.1386992545868
 21
172.2544659972449
 31
0.0
  0
LINE
  5
19F
330
1F
100
AcDbEntity
  8
0
  6
CONTINUOUS
 62
     3
100
AcDbLine
 10
208.1386992545868
 20
172.2544659972449
 30
0.0
 11
208.3327992545869
 21
172.2800159972449
 31
0.0
  0
LINE
  5
1A0
330
1F
100
AcDbEntity
  8
0
  6
CONTINUOUS
 62
     3
100
AcDbLine
 10
207.5827992545869
 20
171.5300159972451
 30
0.0
 11
207.5827992545869
 21
170.7800159972451
 31
0.0
  0
LINE
  5
1A1
330
1F
100
AcDbEntity
  8
0
  6
CONTINUOUS
 62
     3
100
AcDbLine
 10
206.5827992545869
 20
170.7800159972451
 30
0.0
 11
207.5827992545869
 21
170.7800159972451
 31
0.0
  0
LINE
  5
1A2
330
1F
100
AcDbEntity
  8
0
  6
CONTINUOUS
 62
     3
100
AcDbLine
 10
210.0827992545869
 20
172.7800159972451
 30
0.0
 11
209.9018742545869
 21
173.8060659972451
 31
0.0
  0
LINE
  5
1A3
330
1F
100
AcDbEntity
  8
0
  6
CONTINUOUS
 62
     3
100
AcDbLine
 10
209.9018742545869
 20
173.8060659972451
 30
0.0
 11
209.3809492545869
 21
174.7083659972451
 31
0.0
  0
LINE
  5
1A4
330
1F
100
AcDbEntity
  8
0
  6
CONTINUOUS
 62
     3
100
AcDbLine
 10
209.3809492545869
 20
174.7083659972451
 30
0.0
 11
208.5828242545868
 21
175.3780909972451
 31
0.0
  0
LINE
  5
1A5
330
1F
100
AcDbEntity
  8
0
  6
CONTINUOUS
 62
     3
100
AcDbLine
 10
208.5828242545868
 20
175.3780909972451
 30
0.0
 11
207.6037742545869
 21
175.7344409972451
 31
0.0
  0
LINE
  5
1A6
330
1F
100
AcDbEntity
  8
0
  6
CONTINUOUS
 62
     3
100
AcDbLine
 10
207.6037742545869
 20
175.7344409972451
 30
0.0
 11
206.5618742545868
 21
175.7344409972451
 31
0.0
  0
LINE
  5
1A7
330
1F
100
AcDbEntity
  8
0
  6
CONTINUOUS
 62
     3
100
AcDbLine
 10
206.5618742545868
 20
175.7344409972451
 30
0.0
 11
205.5828242545869
 21
175.3781159972449
 31
0.0
  0
LINE
  5
1A8
330
1F
100
AcDbEntity
  8
0
  6
CONTINUOUS
 62
     3
100
AcDbLine
 10
205.5828242545869
 20
175.3781159972449
 30
0.0
 11
204.7846992545869
 21
174.7084159972451
 31
0.0
  0
LINE
  5
1A9
330
1F
100
AcDbEntity
  8
0
  6
CONTINUOUS
 62
     3
100
AcDbLine
 10
204.7846992545869
 20
174.7084159972451
 30
0.0
 11
204.2637492545869
 21
173.8061159972451
 31
0.0
  0
LINE
  5
1AA
330
1F
100
AcDbEntity
  8
0
  6
CONTINUOUS
 62
     3
100
AcDbLine
 10
204.2637492545869
 20
173.8061159972451
 30
0.0
 11
204.0827992545869
 21
172.7800659972449
 31
0.0
  0
LINE
  5
1AB
330
1F
100
AcDbEntity
  8
0
  6
CONTINUOUS
 62
     3
100
AcDbLine
 10
204.0827992545869
 20
172.7800659972449
 30
0.0
 11
204.2636992545868
 21
171.754015997245
 31
0.0
  0
LINE
  5
1AC
330
1F
100
AcDbEntity
  8
0
  6
CONTINUOUS
 62
     3
100
AcDbLine
 10
204.2636992545868
 20
171.754015997245
 30
0.0
 11
204.7846242545868
 21
170.8516909972451
 31
0.0
  0
LINE
  5
1AD
330
1F
100
AcDbEntity
  8
0
  6
CONTINUOUS
 62
     3
100
AcDbLine
 10
204.7846242545868
 20
170.8516909972451
 30
0.0
 11
205.5827492545868
 21
170.1819659972451
 31
0.0
  0
LINE
  5
1AE
330
1F
100
AcDbEntity
  8
0
  6
CONTINUOUS
 62
     3
100
AcDbLine
 10
205.5827492545868
 20
170.1819659972451
 30
0.0
 11
206.5617992545869
 21
169.8256159972451
 31
0.0
  0
LINE
  5
1AF
330
1F
100
AcDbEntity
  8
0
  6
CONTINUOUS
 62
     3
100
AcDbLine
 10
206.5617992545869
 20
169.8256159972451
 30
0.0
 11
207.6036742545869
 21
169.8255909972451
 31
0.0
  0
LINE
  5
1B0
330
1F
100
AcDbEntity
  8
0
  6
CONTINUOUS
 62
     3
100
AcDbLine
 10
207.6036742545869
 20
169.8255909972451
 30
0.0
 11
208.5827242545869
 21
170.181890997245
 31
0.0
  0
LINE
  5
1B1
330
1F
100
AcDbEntity
  8
0
  6
CONTINUOUS
 62
     3
100
AcDbLine
 10
208.5827242545869
 20
170.181890997245
 30
0.0
 11
209.3808742545868
 21
170.851590997245
 31
0.0
  0
LINE
  5
1B2
330
1F
100
AcDbEntity
  8
0
  6
CONTINUOUS
 62
     3
100
AcDbLine
 10
209.3808742545868
 20
170.851590997245
 30
0.0
 11
209.9018492545869
 21
171.7538659972451
 31
0.0
  0
LINE
  5
1B3
330
1F
100
AcDbEntity
  8
0
  6
CONTINUOUS
 62
     3
100
AcDbLine
 10
209.9018492545869
 20
171.7538659972451
 30
0.0
 11
210.0827992545869
 21
172.7799159972449
 31
0.0
  0
LINE
  5
1B4
330
1F
100
AcDbEntity
  8
0
  6
CONTINUOUS
 62
     3
100
AcDbLine
 10
216.3327992545869
 20
173.2800159972449
 30
0.0
 11
215.5827992545869
 21
173.2800159972449
 31
0.0
  0
LINE
  5
1B5
330
1F
100
AcDbEntity
  8
0
  6
CONTINUOUS
 62
     3
100
AcDbLine
 10
217.0827992545869
 20
174.0300159972449
 30
0.0
 11
217.0572492545868
 21
173.8358909972451
 31
0.0
  0
LINE
  5
1B6
330
1F
100
AcDbEntity
  8
0
  6
CONTINUOUS
 62
     3
100
AcDbLine
 10
217.0572492545868
 20
173.8358909972451
 30
0.0
 11
216.982324254587
 21
173.6550159972451
 31
0.0
  0
LINE
  5
1B7
330
1F
100
AcDbEntity
  8
0
  6
CONTINUOUS
 62
     3
100
AcDbLine
 10
216.982324254587
 20
173.6550159972451
 30
0.0
 11
216.863124254587
 21
173.4996909972449
 31
0.0
  0
LINE
  5
1B8
330
1F
100
AcDbEntity
  8
0
  6
CONTINUOUS
 62
     3
100
AcDbLine
 10
216.863124254587
 20
173.4996909972449
 30
0.0
 11
216.7077992545869
 21
173.3804909972449
 31
0.0
  0
LINE
  5
1B9
330
1F
100
AcDbEntity
  8
0
  6
CONTINUOUS
 62
     3
100
AcDbLine
 10
216.7077992545869
 20
173.3804909972449
 30
0.0
 11
216.5269242545869
 21
173.3055659972451
 31
0.0
  0
LINE
  5
1BA
330
1F
100
AcDbEntity
  8
0
  6
CONTINUOUS
 62
     3
100
AcDbLine
 10
216.5269242545869
 20
173.3055659972451
 30
0.0
 11
216.3327992545869
 21
173.2800159972449
 31
0.0
  0
LINE
  5
1BB
330
1F
100
AcDbEntity
  8
0
  6
CONTINUOUS
 62
     3
100
AcDbLine
 10
217.0827992545869
 20
174.0300159972449
 30
0.0
 11
217.0827992545869
 21
174.7800159972451
 31
0.0
  0
LINE
  5
1BC
330
1F
100
AcDbEntity
  8
0
  6
CONTINUOUS
 62
     3
100
AcDbLine
 10
218.0827992545869
 20
174.7800159972451
 30
0.0
 11
217.0827992545869
 21
174.7800159972451
 31
0.0
  0
LINE
  5
1BD
330
1F
100
AcDbEntity
  8
0
  6
CONTINUOUS
 62
     3
100
AcDbLine
 10
218.0827992545869
 20
174.0300159972449
 30
0.0
 11
218.0827992545869
 21
174.7800159972451
 31
0.0
  0
LINE
  5
1BE
330
1F
100
AcDbEntity
  8
0
  6
CONTINUOUS
 62
     3
100
AcDbLine
 10
218.8327992545869
 20
173.2800159972449
 30
0.0
 11
218.6386992545869
 21
173.3055659972451
 31
0.0
  0
LINE
  5
1BF
330
1F
100
AcDbEntity
  8
0
  6
CONTINUOUS
 62
     3
100
AcDbLine
 10
218.6386992545869
 20
173.3055659972451
 30
0.0
 11
218.4577992545869
 21
173.3804909972449
 31
0.0
  0
LINE
  5
1C0
330
1F
100
AcDbEntity
  8
0
  6
CONTINUOUS
 62
     3
100
AcDbLine
 10
218.4577992545869
 20
173.3804909972449
 30
0.0
 11
218.3024742545869
 21
173.4996909972449
 31
0.0
  0
LINE
  5
1C1
330
1F
100
AcDbEntity
  8
0
  6
CONTINUOUS
 62
     3
100
AcDbLine
 10
218.3024742545869
 20
173.4996909972449
 30
0.0
 11
218.1832742545869
 21
173.6550159972451
 31
0.0
  0
LINE
  5
1C2
330
1F
100
AcDbEntity
  8
0
  6
CONTINUOUS
 62
     3
100
AcDbLine
 10
218.1832742545869
 20
173.6550159972451
 30
0.0
 11
218.1083492545869
 21
173.8358909972451
 31
0.0
  0
LINE
  5
1C3
330
1F
100
AcDbEntity
  8
0
  6
CONTINUOUS
 62
     3
100
AcDbLine
 10
218.1083492545869
 20
173.8358909972451
 30
0.0
 11
218.0827992545869
 21
174.0300159972449
 31
0.0
  0
LINE
  5
1C4
330
1F
100
AcDbEntity
  8
0
  6
CONTINUOUS
 62
     3
100
AcDbLine
 10
218.8327992545869
 20
173.2800159972449
 30
0.0
 11
219.5827992545869
 21
173.2800159972449
 31
0.0
  0
LINE
  5
1C5
330
1F
100
AcDbEntity
  8
0
  6
CONTINUOUS
 62
     3
100
AcDbLine
 10
219.5827992545869
 20
172.2800159972449
 30
0.0
 11
219.5827992545869
 21
173.2800159972449
 31
0.0
  0
LINE
  5
1C6
330
1F
100
AcDbEntity
  8
0
  6
CONTINUOUS
 62
     3
100
AcDbLine
 10
218.8327992545869
 20
172.2800159972449
 30
0.0
 11
219.5827992545869
 21
172.2800159972449
 31
0.0
  0
LINE
  5
1C7
330
1F
100
AcDbEntity
  8
0
  6
CONTINUOUS
 62
     3
100
AcDbLine
 10
218.0827992545869
 20
171.5300159972451
 30
0.0
 11
218.1083492545869
 21
171.7241409972451
 31
0.0
  0
LINE
  5
1C8
330
1F
100
AcDbEntity
  8
0
  6
CONTINUOUS
 62
     3
100
AcDbLine
 10
218.1083492545869
 20
171.7241409972451
 30
0.0
 11
218.1832742545869
 21
171.9050159972451
 31
0.0
  0
LINE
  5
1C9
330
1F
100
AcDbEntity
  8
0
  6
CONTINUOUS
 62
     3
100
AcDbLine
 10
218.1832742545869
 20
171.9050159972451
 30
0.0
 11
218.3024742545869
 21
172.0603409972451
 31
0.0
  0
LINE
  5
1CA
330
1F
100
AcDbEntity
  8
0
  6
CONTINUOUS
 62
     3
100
AcDbLine
 10
218.3024742545869
 20
172.0603409972451
 30
0.0
 11
218.4577992545869
 21
172.1795409972451
 31
0.0
  0
LINE
  5
1CB
330
1F
100
AcDbEntity
  8
0
  6
CONTINUOUS
 62
     3
100
AcDbLine
 10
218.4577992545869
 20
172.1795409972451
 30
0.0
 11
218.6386992545869
 21
172.2544659972449
 31
0.0
  0
LINE
  5
1CC
330
1F
100
AcDbEntity
  8
0
  6
CONTINUOUS
 62
     3
100
AcDbLine
 10
218.6386992545869
 20
172.2544659972449
 30
0.0
 11
218.8327992545869
 21
172.2800159972449
 31
0.0
  0
LINE
  5
1CD
330
1F
100
AcDbEntity
  8
0
  6
CONTINUOUS
 62
     3
100
AcDbLine
 10
218.0827992545869
 20
171.5300159972451
 30
0.0
 11
218.0827992545869
 21
170.7800159972451
 31
0.0
  0
LINE
  5
1CE
330
1F
100
AcDbEntity
  8
0
  6
CONTINUOUS
 62
     3
100
AcDbLine
 10
217.0827992545869
 20
170.7800159972451
 30
0.0
 11
218.0827992545869
 21
170.7800159972451
 31
0.0
  0
LINE
  5
1CF
330
1F
100
AcDbEntity
  8
0
  6
CONTINUOUS
 62
     3
100
AcDbLine
 10
217.0827992545869
 20
171.5300159972451
 30
0.0
 11
217.0827992545869
 21
170.7800159972451
 31
0.0
  0
LINE
  5
1D0
330
1F
100
AcDbEntity
  8
0
  6
CONTINUOUS
 62
     3
100
AcDbLine
 10
216.3327992545869
 20
172.2800159972449
 30
0.0
 11
216.5269242545869
 21
172.2544659972449
 31
0.0
  0
LINE
  5
1D1
330
1F
100
AcDbEntity
  8
0
  6
CONTINUOUS
 62
     3
100
AcDbLine
 10
216.5269242545869
 20
172.2544659972449
 30
0.0
 11
216.7077992545869
 21
172.1795409972451
 31
0.0
  0
LINE
  5
1D2
330
1F
100
AcDbEntity
  8
0
  6
CONTINUOUS
 62
     3
100
AcDbLine
 10
216.7077992545869
 20
172.1795409972451
 30
0.0
 11
216.863124254587
 21
172.0603409972451
 31
0.0
  0
LINE
  5
1D3
330
1F
100
AcDbEntity
  8
0
  6
CONTINUOUS
 62
     3
100
AcDbLine
 10
216.863124254587
 20
172.0603409972451
 30
0.0
 11
216.982324254587
 21
171.9050159972451
 31
0.0
  0
LINE
  5
1D4
330
1F
100
AcDbEntity
  8
0
  6
CONTINUOUS
 62
     3
100
AcDbLine
 10
216.982324254587
 20
171.9050159972451
 30
0.0
 11
217.0572492545868
 21
171.7241409972451
 31
0.0
  0
LINE
  5
1D5
330
1F
100
AcDbEntity
  8
0
  6
CONTINUOUS
 62
     3
100
AcDbLine
 10
217.0572492545868
 20
171.7241409972451
 30
0.0
 11
217.0827992545869
 21
171.5300159972451
 31
0.0
  0
LINE
  5
1D6
330
1F
100
AcDbEntity
  8
0
  6
CONTINUOUS
 62
     3
100
AcDbLine
 10
216.3327992545869
 20
172.2800159972449
 30
0.0
 11
215.5827992545869
 21
172.2800159972449
 31
0.0
  0
LINE
  5
1D7
330
1F
100
AcDbEntity
  8
0
  6
CONTINUOUS
 62
     3
100
AcDbLine
 10
215.5827992545869
 20
173.2800159972449
 30
0.0
 11
215.5827992545869
 21
172.2800159972449
 31
0.0
  0
LINE
  5
1D8
330
1F
100
AcDbEntity
  8
0
  6
CONTINUOUS
 62
     3
100
AcDbLine
 10
220.5827992545869
 20
172.7800159972451
 30
0.0
 11
220.4018742545869
 21
173.8060659972451
 31
0.0
  0
LINE
  5
1D9
330
1F
100
AcDbEntity
  8
0
  6
CONTINUOUS
 62
     3
100
AcDbLine
 10
220.4018742545869
 20
173.8060659972451
 30
0.0
 11
219.8809492545869
 21
174.7083659972451
 31
0.0
  0
LINE
  5
1DA
330
1F
100
AcDbEntity
  8
0
  6
CONTINUOUS
 62
     3
100
AcDbLine
 10
219.8809492545869
 20
174.7083659972451
 30
0.0
 11
219.0828242545868
 21
175.3780909972451
 31
0.0
  0
LINE
  5
1DB
330
1F
100
AcDbEntity
  8
0
  6
CONTINUOUS
 62
     3
100
AcDbLine
 10
219.0828242545868
 20
175.3780909972451
 30
0.0
 11
218.1037742545869
 21
175.7344409972451
 31
0.0
  0
LINE
  5
1DC
330
1F
100
AcDbEntity
  8
0
  6
CONTINUOUS
 62
     3
100
AcDbLine
 10
218.1037742545869
 20
175.7344409972451
 30
0.0
 11
217.0618742545868
 21
175.7344409972451
 31
0.0
  0
LINE
  5
1DD
330
1F
100
AcDbEntity
  8
0
  6
CONTINUOUS
 62
     3
100
AcDbLine
 10
217.0618742545868
 20
175.7344409972451
 30
0.0
 11
216.0828242545869
 21
175.3781159972449
 31
0.0
  0
LINE
  5
1DE
330
1F
100
AcDbEntity
  8
0
  6
CONTINUOUS
 62
     3
100
AcDbLine
 10
216.0828242545869
 20
175.3781159972449
 30
0.0
 11
215.2846992545869
 21
174.7084159972451
 31
0.0
  0
LINE
  5
1DF
330
1F
100
AcDbEntity
  8
0
  6
CONTINUOUS
 62
     3
100
AcDbLine
 10
215.2846992545869
 20
174.7084159972451
 30
0.0
 11
214.7637492545868
 21
173.8061159972451
 31
0.0
  0
LINE
  5
1E0
330
1F
100
AcDbEntity
  8
0
  6
CONTINUOUS
 62
     3
100
AcDbLine
 10
214.7637492545868
 20
173.8061159972451
 30
0.0
 11
214.5827992545869
 21
172.7800659972449
 31
0.0
  0
LINE
  5
1E1
330
1F
100
AcDbEntity
  8
0
  6
CONTINUOUS
 62
     3
100
AcDbLine
 10
214.5827992545869
 20
172.7800659972449
 30
0.0
 11
214.7636992545868
 21
171.754015997245
 31
0.0
  0
LINE
  5
1E2
330
1F
100
AcDbEntity
  8
0
  6
CONTINUOUS
 62
     3
100
AcDbLine
 10
214.7636992545868
 20
171.754015997245
 30
0.0
 11
215.2846242545868
 21
170.8516909972451
 31
0.0
  0
LINE
  5
1E3
330
1F
100
AcDbEntity
  8
0
  6
CONTINUOUS
 62
     3
100
AcDbLine
 10
215.2846242545868
 20
170.8516909972451
 30
0.0
 11
216.0827492545869
 21
170.1819659972451
 31
0.0
  0
LINE
  5
1E4
330
1F
100
AcDbEntity
  8
0
  6
CONTINUOUS
 62
     3
100
AcDbLine
 10
216.0827492545869
 20
170.1819659972451
 30
0.0
 11
217.0617992545869
 21
169.8256159972451
 31
0.0
  0
LINE
  5
1E5
330
1F
100
AcDbEntity
  8
0
  6
CONTINUOUS
 62
     3
100
AcDbLine
 10
217.0617992545869
 20
169.8256159972451
 30
0.0
 11
218.1036742545868
 21
169.8255909972451
 31
0.0
  0
LINE
  5
1E6
330
1F
100
AcDbEntity
  8
0
  6
CONTINUOUS
 62
     3
100
AcDbLine
 10
218.1036742545868
 20
169.8255909972451
 30
0.0
 11
219.0827242545869
 21
170.181890997245
 31
0.0
  0
LINE
  5
1E7
330
1F
100
AcDbEntity
  8
0
  6
CONTINUOUS
 62
     3
100
AcDbLine
 10
219.0827242545869
 20
170.181890997245
 30
0.0
 11
219.8808742545868
 21
170.851590997245
 31
0.0
  0
LINE
  5
1E8
330
1F
100
AcDbEntity
  8
0
  6
CONTINUOUS
 62
     3
100
AcDbLine
 10
219.8808742545868
 20
170.851590997245
 30
0.0
 11
220.4018492545869
 21
171.7538659972451
 31
0.0
  0
LINE
  5
1E9
330
1F
100
AcDbEntity
  8
0
  6
CONTINUOUS
 62
     3
100
AcDbLine
 10
220.4018492545869
 20
171.7538659972451
 30
0.0
 11
220.5827992545869
 21
172.7799159972449
 31
0.0
  0
LINE
  5
1EA
330
1F
100
AcDbEntity
  8
0
  6
CONTINUOUS
 62
     3
100
AcDbLine
 10
221.482799254587
 20
175.7800159972451
 30
0.0
 11
213.6827992545869
 21
175.7800159972451
 31
0.0
  0
LINE
  5
1EB
330
1F
100
AcDbEntity
  8
0
  6
CONTINUOUS
 62
     3
100
AcDbLine
 10
213.6827992545869
 20
175.7800159972451
 30
0.0
 11
213.6827992545869
 21
169.7800159972451
 31
0.0
  0
LINE
  5
1EC
330
1F
100
AcDbEntity
  8
0
  6
CONTINUOUS
 62
     3
100
AcDbLine
 10
213.6827992545869
 20
169.7800159972451
 30
0.0
 11
221.482799254587
 21
169.7800159972451
 31
0.0
  0
LINE
  5
1ED
330
1F
100
AcDbEntity
  8
0
  6
CONTINUOUS
 62
     3
100
AcDbLine
 10
221.482799254587
 20
169.7800159972451
 30
0.0
 11
221.482799254587
 21
175.7800159972451
 31
0.0
  0
LINE
  5
1EE
330
1F
100
AcDbEntity
  8
0
  6
CONTINUOUS
 62
     3
100
AcDbLine
 10
203.1827992545869
 20
175.7800159972451
 30
0.0
 11
203.1827992545869
 21
169.7800159972451
 31
0.0
  0
LINE
  5
1EF
330
1F
100
AcDbEntity
  8
0
  6
CONTINUOUS
 62
     3
100
AcDbLine
 10
210.9827992545869
 20
175.7800159972451
 30
0.0
 11
203.1827992545869
 21
175.7800159972451
 31
0.0
  0
LINE
  5
1F0
330
1F
100
AcDbEntity
  8
0
  6
CONTINUOUS
 62
     3
100
AcDbLine
 10
203.1827992545869
 20
169.7800159972451
 30
0.0
 11
210.9827992545869
 21
169.7800159972451
 31
0.0
  0
LINE
  5
1F1
330
1F
100
AcDbEntity
  8
0
  6
CONTINUOUS
 62
     3
100
AcDbLine
 10
210.9827992545869
 20
169.7800159972451
 30
0.0
 11
210.9827992545869
 21
175.7800159972451
 31
0.0
  0
LINE
  5
1F2
330
1F
100
AcDbEntity
  8
0
  6
CONTINUOUS
 62
     3
100
AcDbLine
 10
179.8327992545869
 20
182.3800159972449
 30
0.0
 11
179.8327992545869
 21
184.1300159972449
 31
0.0
  0
LINE
  5
1F3
330
1F
100
AcDbEntity
  8
0
  6
CONTINUOUS
 62
     3
100
AcDbLine
 10
188.3327992545869
 20
184.1300159972449
 30
0.0
 11
188.3327992545869
 21
182.3800159972449
 31
0.0
  0
LINE
  5
1F4
330
1F
100
AcDbEntity
  8
0
  6
CONTINUOUS
 62
     3
100
AcDbLine
 10
196.8327992545869
 20
182.3800159972449
 30
0.0
 11
196.8327992545869
 21
184.1300159972449
 31
0.0
  0
LINE
  5
1F5
330
1F
100
AcDbEntity
  8
0
  6
CONTINUOUS
 62
     3
100
AcDbLine
 10
196.8327992545869
 20
184.1300159972449
 30
0.0
 11
179.8327992545869
 21
184.1300159972449
 31
0.0
  0
LINE
  5
1F6
330
1F
100
AcDbEntity
  8
0
  6
CONTINUOUS
 62
     3
100
AcDbLine
 10
207.0827992545869
 20
182.3800159972449
 30
0.0
 11
207.0827992545869
 21
184.1300159972449
 31
0.0
  0
LINE
  5
1F7
330
1F
100
AcDbEntity
  8
0
  6
CONTINUOUS
 62
     3
100
AcDbLine
 10
207.0827992545869
 20
184.1300159972449
 30
0.0
 11
217.5827992545869
 21
184.1300159972449
 31
0.0
  0
LINE
  5
1F8
330
1F
100
AcDbEntity
  8
0
  6
CONTINUOUS
 62
     3
100
AcDbLine
 10
217.5827992545869
 20
184.1300159972449
 30
0.0
 11
217.5827992545869
 21
182.3800159972449
 31
0.0
  0
TEXT
  5
1F9
330
1F
100
AcDbEntity
  8
0
  6
CONTINUOUS
 62
     3
100
AcDbText
 10
178.5327992545869
 20
178.1800159972451
 30
0.0
 40
3.0
  1
Ａ
 41
0.933333333
  7
KANJI1
100
AcDbText
  0
TEXT
  5
1FA
330
1F
100
AcDbEntity
  8
0
  6
CONTINUOUS
 62
     3
100
AcDbText
 10
186.8327992545869
 20
178.1800159972451
 30
0.0
 40
3.0
  1
Ｂ
 41
0.933333333
  7
KANJI1
100
AcDbText
  0
TEXT
  5
1FB
330
1F
100
AcDbEntity
  8
0
  6
CONTINUOUS
 62
     3
100
AcDbText
 10
195.3327992545869
 20
178.1800159972451
 30
0.0
 40
3.0
  1
Ｃ
 41
0.933333333
  7
KANJI1
100
AcDbText
  0
TEXT
  5
1FC
330
1F
100
AcDbEntity
  8
0
  6
CONTINUOUS
 62
     3
100
AcDbText
 10
204.3327992545869
 20
178.5800159972451
 30
0.0
 40
3.0
  1
０Ｖ
 41
0.933333333
  7
KANJI1
100
AcDbText
  0
LINE
  5
1FD
330
1F
100
AcDbEntity
  8
0
  6
CONTINUOUS
 62
     1
100
AcDbLine
 10
222.3327992545869
 20
177.9300159972451
 30
0.0
 11
173.3327992545869
 21
177.9300159972451
 31
0.0
  0
LINE
  5
1FE
330
1F
100
AcDbEntity
  8
0
  6
CONTINUOUS
 62
     1
100
AcDbLine
 10
173.3327992545869
 20
177.9300159972451
 30
0.0
 11
173.3327992545869
 21
168.8300159972451
 31
0.0
  0
LINE
  5
1FF
330
1F
100
AcDbEntity
  8
0
  6
CONTINUOUS
 62
     1
100
AcDbLine
 10
173.3327992545869
 20
168.8300159972451
 30
0.0
 11
222.3327992545869
 21
168.8300159972451
 31
0.0
  0
LINE
  5
200
330
1F
100
AcDbEntity
  8
0
  6
CONTINUOUS
 62
     1
100
AcDbLine
 10
222.3327992545869
 20
168.8300159972451
 30
0.0
 11
222.3327992545869
 21
177.9300159972451
 31
0.0
  0
LWPOLYLINE
  5
201
330
1F
100
AcDbEntity
  8
0
  6
CONTINUOUS
 62
     3
100
AcDbPolyline
 90
       16
 70
     1
 43
0.0
 10
191.7627992555868
 20
164.1750159982449
 42
0.330276383
 10
191.1865673165869
 20
164.787309490245
 42
0.070309816
 10
189.5455975895869
 20
165.3063868482449
 42
0.031461807
 10
187.0897128385869
 20
165.6532232502451
 42
0.022013963
 10
184.1927992555867
 20
165.7750159982449
 42
0.021206479
 10
181.2958856725868
 20
165.6532232502451
 42
0.027808365
 10
178.8400009215869
 20
165.3063868482449
 42
0.054351967
 10
177.1990311945868
 20
164.787309490245
 42
0.210196463
 10
176.6227992555869
 20
164.1750159982449
 42
0.330276383
 10
177.1990311945868
 20
163.5627225062451
 42
0.070309816
 10
178.8400009215869
 20
163.0436451482449
 42
0.031461807
 10
181.2958856725868
 20
162.6968087462451
 42
0.022013963
 10
184.1927992555867
 20
162.5750159982449
 42
0.021206479
 10
187.0897128385869
 20
162.6968087462451
 42
0.027808365
 10
189.5455975895869
 20
163.0436451482449
 42
0.054351967
 10
191.1865673165869
 20
163.5627225062451
 42
0.210196463
  0
LINE
  5
213
330
1F
100
AcDbEntity
  8
0
  6
CONTINUOUS
 62
     1
100
AcDbLine
 10
188.3627992555868
 20
168.315015998245
 30
0.0
 11
188.3627992555868
 21
162.3050159982449
 31
0.0
  0
LINE
  5
214
330
1F
100
AcDbEntity
  8
0
  6
CONTINUOUS
 62
     1
100
AcDbLine
 10
179.7627992555868
 20
168.315015998245
 30
0.0
 11
179.7627992555868
 21
162.3050159982449
 31
0.0
  0
LINE
  5
215
330
1F
100
AcDbEntity
  8
0
  6
CONTINUOUS
 62
     1
100
AcDbLine
 10
179.7627992555868
 20
162.3050159982449
 30
0.0
 11
184.1727992555868
 21
158.8050159982451
 31
0.0
  0
LINE
  5
216
330
1F
100
AcDbEntity
  8
0
  6
CONTINUOUS
 62
     1
100
AcDbLine
 10
188.3627992555868
 20
162.3050159982449
 30
0.0
 11
184.1727992555868
 21
158.8050159982451
 31
0.0
  0
CIRCLE
  5
217
330
1F
100
AcDbEntity
  8
0
  6
CONTINUOUS
 62
     1
100
AcDbCircle
 10
184.1327992555869
 20
158.855015998245
 30
0.0
 40
0.4
  0
CIRCLE
  5
218
330
1F
100
AcDbEntity
  8
0
  6
CONTINUOUS
 62
     1
100
AcDbCircle
 10
184.1327992555869
 20
158.855015998245
 30
0.0
 40
0.3
  0
CIRCLE
  5
219
330
1F
100
AcDbEntity
  8
0
  6
CONTINUOUS
 62
     1
100
AcDbCircle
 10
184.1327992555869
 20
158.855015998245
 30
0.0
 40
0.2
  0
CIRCLE
  5
21A
330
1F
100
AcDbEntity
  8
0
  6
CONTINUOUS
 62
     1
100
AcDbCircle
 10
184.1327992555869
 20
158.855015998245
 30
0.0
 40
0.1
  0
LINE
  5
21B
330
1F
100
AcDbEntity
  8
0
  6
CONTINUOUS
 62
     1
100
AcDbLine
 10
191.7027992555868
 20
164.1450159982451
 30
0.0
 11
196.8827992555868
 21
164.1450159982451
 31
0.0
  0
LINE
  5
21C
330
1F
100
AcDbEntity
  8
0
  6
CONTINUOUS
 62
     1
100
AcDbLine
 10
196.8827992555868
 20
164.1450159982451
 30
0.0
 11
196.8627992555868
 21
168.315015998245
 31
0.0
  0
LINE
  5
21D
330
1F
100
AcDbEntity
  8
0
  6
CONTINUOUS
 62
     3
100
AcDbLine
 10
187.3627992555868
 20
155.1350159982449
 30
0.0
 11
187.3627992555868
 21
157.135015998245
 31
0.0
  0
LINE
  5
21E
330
1F
100
AcDbEntity
  8
0
  6
CONTINUOUS
 62
     3
100
AcDbLine
 10
180.7627992555868
 20
157.135015998245
 30
0.0
 11
180.7627992555868
 21
155.1350159982449
 31
0.0
  0
LINE
  5
21F
330
1F
100
AcDbEntity
  8
0
  6
CONTINUOUS
 62
     3
100
AcDbLine
 10
187.3627992555868
 20
157.135015998245
 30
0.0
 11
180.7627992555868
 21
157.135015998245
 31
0.0
  0
LINE
  5
220
330
1F
100
AcDbEntity
  8
0
  6
CONTINUOUS
 62
     3
100
AcDbLine
 10
180.7627992555868
 20
155.1350159982449
 30
0.0
 11
187.3627992555868
 21
155.1350159982449
 31
0.0
  0
LINE
  5
221
330
1F
100
AcDbEntity
  8
0
  6
CONTINUOUS
 62
     1
100
AcDbLine
 10
180.7627992555868
 20
156.1350159982449
 30
0.0
 11
179.7627992555868
 21
156.1350159982449
 31
0.0
  0
LINE
  5
222
330
1F
100
AcDbEntity
  8
0
  6
CONTINUOUS
 62
     1
100
AcDbLine
 10
179.7627992555868
 20
156.1350159982449
 30
0.0
 11
179.7627992555868
 21
158.8050159982451
 31
0.0
  0
LINE
  5
223
330
1F
100
AcDbEntity
  8
0
  6
CONTINUOUS
 62
     1
100
AcDbLine
 10
187.3627992555868
 20
156.1350159982449
 30
0.0
 11
196.8627992555868
 21
156.1350159982449
 31
0.0
  0
LINE
  5
224
330
1F
100
AcDbEntity
  8
0
  6
CONTINUOUS
 62
     1
100
AcDbLine
 10
196.8627992555868
 20
156.1350159982449
 30
0.0
 11
196.8627992555868
 21
158.8050159982451
 31
0.0
  0
LINE
  5
225
330
1F
100
AcDbEntity
  8
0
  6
CONTINUOUS
 62
     1
100
AcDbLine
 10
188.3627992555868
 20
156.1350159982449
 30
0.0
 11
188.3627992555868
 21
158.8050159982451
 31
0.0
  0
TEXT
  5
226
330
1F
100
AcDbEntity
  8
0
  6
CONTINUOUS
 62
     3
100
AcDbText
 10
168.2627992555869
 20
154.3050159982451
 30
0.0
 40
4.0
  1
ＲＴＤ
 41
0.5
  7
KANJI2
100
AcDbText
  0
TEXT
  5
227
330
1F
100
AcDbEntity
  8
0
  6
CONTINUOUS
 62
     3
100
AcDbText
 10
170.0627992555869
 20
161.6050159982449
 30
0.0
 40
4.0
  1
ＴＣ
 41
0.5
  7
KANJI2
100
AcDbText
  0
TEXT
  5
228
330
1F
100
AcDbEntity
  8
0
  6
CONTINUOUS
 62
     3
100
AcDbText
 10
183.5627992555868
 20
184.305015998245
 30
0.5
 40
3.5
  1
ＩＮＰＵＴ
 41
0.5
  7
KANJI3
100
AcDbText
  0
TEXT
  5
229
330
1F
100
AcDbEntity
  8
0
  6
CONTINUOUS
 62
     3
100
AcDbText
 10
204.1627992555869
 20
184.205015998245
 30
0.0
 40
4.0
  1
ＤＣ　ＰＯＷＥＲ
 41
0.5
  7
KANJI2
100
AcDbText
  0
TEXT
  5
22A
330
1F
100
AcDbEntity
  8
0
  6
CONTINUOUS
 62
     3
100
AcDbText
 10
209.9327992545869
 20
178.5800159972451
 30
0.0
 40
3.0
  1
＋１２Ｖ～＋２４Ｖ±１０％
 41
0.933333333
  7
KANJI1
100
AcDbText
  0
LINE
  5
22B
330
1F
100
AcDbEntity
  8
0
  6
CONTINUOUS
 62
     1
100
AcDbLine
 10
156.4599999989999
 20
137.8749999989999
 30
0.0
 11
60.459999999
 21
137.8749999989999
 31
0.0
  0
LINE
  5
22C
330
1F
100
AcDbEntity
  8
0
  6
CONTINUOUS
 62
     1
100
AcDbLine
 10
60.459999999
 20
137.8749999989999
 30
0.0
 11
60.459999999
 21
89.874999999
 31
0.0
  0
LINE
  5
22D
330
1F
100
AcDbEntity
  8
0
  6
CONTINUOUS
 62
     1
100
AcDbLine
 10
60.459999999
 20
89.874999999
 30
0.0
 11
156.4599999989999
 21
89.874999999
 31
0.0
  0
LINE
  5
22E
330
1F
100
AcDbEntity
  8
0
  6
CONTINUOUS
 62
     1
100
AcDbLine
 10
156.4599999989999
 20
89.874999999
 30
0.0
 11
156.4599999989999
 21
137.8749999989999
 31
0.0
  0
LINE
  5
22F
330
1F
100
AcDbEntity
  8
0
  6
CONTINUOUS
 62
     1
100
AcDbLine
 10
156.4599999989999
 20
137.3749999989998
 30
0.0
 11
60.459999999
 21
137.3749999989998
 31
0.0
  0
LINE
  5
230
330
1F
100
AcDbEntity
  8
0
  6
CONTINUOUS
 62
     1
100
AcDbLine
 10
60.459999999
 20
90.374999999
 30
0.0
 11
156.4599999989999
 21
90.374999999
 31
0.0
  0
LINE
  5
231
330
1F
100
AcDbEntity
  8
0
  6
CONTINUOUS
 62
     1
100
AcDbLine
 10
108.459999999
 20
129.3749999989999
 30
0.0
 11
63.459999999
 21
129.3749999989999
 31
0.0
  0
LINE
  5
232
330
1F
100
AcDbEntity
  8
0
  6
CONTINUOUS
 62
     1
100
AcDbLine
 10
108.459999999
 20
129.3749999989999
 30
0.0
 11
153.459999999
 21
129.3749999989999
 31
0.0
  0
LINE
  5
233
330
1F
100
AcDbEntity
  8
0
  6
CONTINUOUS
 62
     1
100
AcDbLine
 10
153.459999999
 20
98.374999999
 30
0.0
 11
63.459999999
 21
98.374999999
 31
0.0
  0
LINE
  5
234
330
1F
100
AcDbEntity
  8
0
  6
CONTINUOUS
 62
     1
100
AcDbLine
 10
63.459999999
 20
127.874999999
 30
0.0
 11
153.459999999
 21
127.874999999
 31
0.0
  0
LINE
  5
235
330
1F
100
AcDbEntity
  8
0
  6
CONTINUOUS
 62
     1
100
AcDbLine
 10
153.459999999
 20
99.874999999
 30
0.0
 11
63.459999999
 21
99.874999999
 31
0.0
  0
POINT
  5
236
330
1F
100
AcDbEntity
  8
0
  6
CONTINUOUS
 62
     1
100
AcDbPoint
 10
63.459999999
 20
99.874999999
 30
0.0
  0
LINE
  5
237
330
1F
100
AcDbEntity
  8
0
  6
CONTINUOUS
 62
     1
100
AcDbLine
 10
153.459999999
 20
127.3749999989999
 30
0.0
 11
63.459999999
 21
127.3749999989999
 31
0.0
  0
LINE
  5
238
330
1F
100
AcDbEntity
  8
0
  6
CONTINUOUS
 62
     1
100
AcDbLine
 10
153.459999999
 20
98.374999999
 30
0.0
 11
153.459999999
 21
129.3749999989999
 31
0.0
  0
LINE
  5
239
330
1F
100
AcDbEntity
  8
0
  6
CONTINUOUS
 62
     1
100
AcDbLine
 10
63.459999999
 20
129.3749999989999
 30
0.0
 11
63.459999999
 21
98.374999999
 31
0.0
  0
LINE
  5
23A
330
1F
100
AcDbEntity
  8
0
  6
CONTINUOUS
 62
     1
100
AcDbLine
 10
153.459999999
 20
100.3749999989999
 30
0.0
 11
63.459999999
 21
100.3749999989999
 31
0.0
  0
LINE
  5
23B
330
1F
100
AcDbEntity
  8
0
  6
CONTINUOUS
 62
     1
100
AcDbLine
 10
59.534999999
 20
107.874999999
 30
0.0
 11
59.534999999
 21
119.8749999989999
 31
0.0
  0
LINE
  5
23C
330
1F
100
AcDbEntity
  8
0
  6
CONTINUOUS
 62
     1
100
AcDbLine
 10
157.4249999989999
 20
107.874999999
 30
0.0
 11
157.4249999989999
 21
119.8749999989999
 31
0.0
  0
LINE
  5
23D
330
1F
100
AcDbEntity
  8
0
  6
CONTINUOUS
 62
     1
100
AcDbLine
 10
157.4249999989999
 20
107.874999999
 30
0.0
 11
156.4599999989999
 21
107.874999999
 31
0.0
  0
LINE
  5
23E
330
1F
100
AcDbEntity
  8
0
  6
CONTINUOUS
 62
     1
100
AcDbLine
 10
157.4249999989999
 20
119.8749999989999
 30
0.0
 11
156.4599999989999
 21
119.8749999989999
 31
0.0
  0
LINE
  5
23F
330
1F
100
AcDbEntity
  8
0
  6
CONTINUOUS
 62
     1
100
AcDbLine
 10
59.534999999
 20
107.874999999
 30
0.0
 11
60.459999999
 21
107.874999999
 31
0.0
  0
LINE
  5
240
330
1F
100
AcDbEntity
  8
0
  6
CONTINUOUS
 62
     1
100
AcDbLine
 10
59.534999999
 20
119.8749999989999
 30
0.0
 11
60.459999999
 21
119.8749999989999
 31
0.0
  0
LINE
  5
241
330
1F
100
AcDbEntity
  8
0
  6
CONTINUOUS
 62
     1
100
AcDbLine
 10
60.459999999
 20
156.8749999989998
 30
0.0
 11
156.4599999989999
 21
156.8749999989998
 31
0.0
  0
LINE
  5
242
330
1F
100
AcDbEntity
  8
0
  6
CONTINUOUS
 62
     1
100
AcDbLine
 10
156.4599999989999
 20
156.8749999989998
 30
0.0
 11
156.4599999989999
 21
158.3749999989999
 31
0.0
  0
LINE
  5
243
330
1F
100
AcDbEntity
  8
0
  6
CONTINUOUS
 62
     1
100
AcDbLine
 10
156.4599999989999
 20
158.3749999989999
 30
0.0
 11
60.459999999
 21
158.3749999989999
 31
0.0
  0
LINE
  5
244
330
1F
100
AcDbEntity
  8
0
  6
CONTINUOUS
 62
     1
100
AcDbLine
 10
60.459999999
 20
158.3749999989999
 30
0.0
 11
60.459999999
 21
156.8749999989998
 31
0.0
  0
LINE
  5
245
330
1F
100
AcDbEntity
  8
0
  6
CONTINUOUS
 62
     1
100
AcDbLine
 10
60.459999999
 20
151.8749999989998
 30
0.0
 11
156.4599999989999
 21
151.8749999989998
 31
0.0
  0
LINE
  5
246
330
1F
100
AcDbEntity
  8
0
  6
CONTINUOUS
 62
     1
100
AcDbLine
 10
156.4599999989999
 20
151.8749999989998
 30
0.0
 11
156.4599999989999
 21
156.8749999989998
 31
0.0
  0
LINE
  5
247
330
1F
100
AcDbEntity
  8
0
  6
CONTINUOUS
 62
     1
100
AcDbLine
 10
156.4599999989999
 20
156.8749999989998
 30
0.0
 11
60.459999999
 21
156.8749999989998
 31
0.0
  0
LINE
  5
248
330
1F
100
AcDbEntity
  8
0
  6
CONTINUOUS
 62
     1
100
AcDbLine
 10
60.459999999
 20
156.8749999989998
 30
0.0
 11
60.459999999
 21
151.8749999989998
 31
0.0
  0
LINE
  5
249
330
1F
100
AcDbEntity
  8
0
  6
CONTINUOUS
 62
     1
100
AcDbLine
 10
156.4599999989999
 20
156.8749999989998
 30
0.0
 11
60.459999999
 21
156.8749999989998
 31
0.0
  0
LINE
  5
24A
330
1F
100
AcDbEntity
  8
0
  6
CONTINUOUS
 62
     1
100
AcDbLine
 10
60.459999999
 20
158.3749999989999
 30
0.0
 11
156.4599999989999
 21
158.3749999989999
 31
0.0
  0
LINE
  5
24B
330
1F
100
AcDbEntity
  8
0
  6
CONTINUOUS
 62
     1
100
AcDbLine
 10
60.459999999
 20
156.8749999989998
 30
0.0
 11
156.4599999989999
 21
156.8749999989998
 31
0.0
  0
LINE
  5
24C
330
1F
100
AcDbEntity
  8
0
  6
CONTINUOUS
 62
     1
100
AcDbLine
 10
154.3849999989998
 20
158.3749999989999
 30
0.0
 11
154.3849999989998
 21
167.0874999989998
 31
0.0
  0
LINE
  5
24D
330
1F
100
AcDbEntity
  8
0
  6
CONTINUOUS
 62
     1
100
AcDbLine
 10
62.659999999
 20
170.3749999989998
 30
0.0
 11
62.53499999899999
 21
158.3749999989999
 31
0.0
  0
LINE
  5
24E
330
1F
100
AcDbEntity
  8
0
  6
CONTINUOUS
 62
     1
100
AcDbLine
 10
154.259999999
 20
170.3749999989998
 30
0.0
 11
154.3849999989998
 21
158.3749999989999
 31
0.0
  0
LINE
  5
24F
330
1F
100
AcDbEntity
  8
0
  6
CONTINUOUS
 62
     1
100
AcDbLine
 10
154.259999999
 20
170.3749999989998
 30
0.0
 11
62.659999999
 21
170.3749999989998
 31
0.0
  0
ARC
  5
250
330
1F
100
AcDbEntity
  8
0
  6
CONTINUOUS
 62
     1
100
AcDbCircle
 10
48.10046535899999
 20
173.3833169259999
 30
0.0
 40
15.0
100
AcDbArc
 50
319.667586953
 51
346.080732555
  0
LINE
  5
251
330
1F
100
AcDbEntity
  8
0
  6
CONTINUOUS
 62
     1
100
AcDbLine
 10
61.73499999899999
 20
158.8749999989999
 30
0.0
 11
61.33499999899999
 21
158.8749999989999
 31
0.0
  0
LINE
  5
252
330
1F
100
AcDbEntity
  8
0
  6
CONTINUOUS
 62
     1
100
AcDbLine
 10
61.33499999899999
 20
158.8749999989999
 30
0.0
 11
61.33499999899999
 21
159.174999999
 31
0.0
  0
LINE
  5
253
330
1F
100
AcDbEntity
  8
0
  6
CONTINUOUS
 62
     1
100
AcDbLine
 10
61.33499999899999
 20
159.174999999
 30
0.0
 11
61.134999999
 21
159.174999999
 31
0.0
  0
LINE
  5
254
330
1F
100
AcDbEntity
  8
0
  6
CONTINUOUS
 62
     1
100
AcDbLine
 10
61.134999999
 20
159.174999999
 30
0.0
 11
61.134999999
 21
159.6749999989999
 31
0.0
  0
LINE
  5
255
330
1F
100
AcDbEntity
  8
0
  6
CONTINUOUS
 62
     1
100
AcDbLine
 10
61.134999999
 20
159.6749999989999
 30
0.0
 11
60.934999999
 21
159.6749999989999
 31
0.0
  0
LINE
  5
256
330
1F
100
AcDbEntity
  8
0
  6
CONTINUOUS
 62
     1
100
AcDbLine
 10
60.934999999
 20
159.6749999989999
 30
0.0
 11
60.934999999
 21
160.174999999
 31
0.0
  0
LINE
  5
257
330
1F
100
AcDbEntity
  8
0
  6
CONTINUOUS
 62
     1
100
AcDbLine
 10
60.934999999
 20
160.174999999
 30
0.0
 11
60.734999999
 21
160.174999999
 31
0.0
  0
LINE
  5
258
330
1F
100
AcDbEntity
  8
0
  6
CONTINUOUS
 62
     1
100
AcDbLine
 10
60.734999999
 20
160.174999999
 30
0.0
 11
60.734999999
 21
160.6749999989999
 31
0.0
  0
LINE
  5
259
330
1F
100
AcDbEntity
  8
0
  6
CONTINUOUS
 62
     1
100
AcDbLine
 10
60.734999999
 20
160.6749999989999
 30
0.0
 11
60.53499999899999
 21
160.6749999989999
 31
0.0
  0
LINE
  5
25A
330
1F
100
AcDbEntity
  8
0
  6
CONTINUOUS
 62
     1
100
AcDbLine
 10
60.53499999899999
 20
160.6749999989999
 30
0.0
 11
60.53499999899999
 21
161.1749999989999
 31
0.0
  0
LINE
  5
25B
330
1F
100
AcDbEntity
  8
0
  6
CONTINUOUS
 62
     1
100
AcDbLine
 10
60.53499999899999
 20
161.1749999989999
 30
0.0
 11
60.334999999
 21
161.1749999989999
 31
0.0
  0
LINE
  5
25C
330
1F
100
AcDbEntity
  8
0
  6
CONTINUOUS
 62
     1
100
AcDbLine
 10
60.334999999
 20
161.1749999989999
 30
0.0
 11
60.334999999
 21
161.6749999989997
 31
0.0
  0
LINE
  5
25D
330
1F
100
AcDbEntity
  8
0
  6
CONTINUOUS
 62
     1
100
AcDbLine
 10
60.334999999
 20
161.6749999989997
 30
0.0
 11
60.13499999899999
 21
161.6749999989997
 31
0.0
  0
LINE
  5
25E
330
1F
100
AcDbEntity
  8
0
  6
CONTINUOUS
 62
     1
100
AcDbLine
 10
60.13499999899999
 20
161.6749999989997
 30
0.0
 11
60.13499999899999
 21
162.174999999
 31
0.0
  0
LINE
  5
25F
330
1F
100
AcDbEntity
  8
0
  6
CONTINUOUS
 62
     1
100
AcDbLine
 10
60.13499999899999
 20
162.174999999
 30
0.0
 11
59.934999999
 21
162.174999999
 31
0.0
  0
LINE
  5
260
330
1F
100
AcDbEntity
  8
0
  6
CONTINUOUS
 62
     1
100
AcDbLine
 10
59.934999999
 20
162.174999999
 30
0.0
 11
59.934999999
 21
162.6749999989999
 31
0.0
  0
LINE
  5
261
330
1F
100
AcDbEntity
  8
0
  6
CONTINUOUS
 62
     1
100
AcDbLine
 10
59.934999999
 20
162.6749999989999
 30
0.0
 11
59.73499999899999
 21
162.6749999989999
 31
0.0
  0
LINE
  5
262
330
1F
100
AcDbEntity
  8
0
  6
CONTINUOUS
 62
     1
100
AcDbLine
 10
59.73499999899999
 20
162.6749999989999
 30
0.0
 11
59.73499999899999
 21
163.174999999
 31
0.0
  0
LINE
  5
263
330
1F
100
AcDbEntity
  8
0
  6
CONTINUOUS
 62
     1
100
AcDbLine
 10
59.73499999899999
 20
163.174999999
 30
0.0
 11
59.534999999
 21
163.174999999
 31
0.0
  0
LINE
  5
264
330
1F
100
AcDbEntity
  8
0
  6
CONTINUOUS
 62
     1
100
AcDbLine
 10
59.534999999
 20
163.174999999
 30
0.0
 11
59.534999999
 21
163.6749999989999
 31
0.0
  0
LINE
  5
265
330
1F
100
AcDbEntity
  8
0
  6
CONTINUOUS
 62
     1
100
AcDbLine
 10
62.569374999
 20
161.6749999989997
 30
0.0
 11
61.73499999899999
 21
158.8749999989999
 31
0.0
  0
LINE
  5
266
330
1F
100
AcDbEntity
  8
0
  6
CONTINUOUS
 62
     1
100
AcDbLine
 10
61.369374999
 20
163.6749999989999
 30
0.0
 11
62.569374999
 21
161.6749999989997
 31
0.0
  0
ARC
  5
267
330
1F
100
AcDbEntity
  8
0
  6
CONTINUOUS
 62
     1
100
AcDbCircle
 10
48.88796564199999
 20
171.994520445
 30
0.0
 40
15.0
100
AcDbArc
 50
326.3144427359998
 51
336.214113149
  0
ARC
  5
268
330
1F
100
AcDbEntity
  8
0
  6
CONTINUOUS
 62
     1
100
AcDbCircle
 10
168.81953464
 20
173.3833169259999
 30
0.0
 40
15.0
100
AcDbArc
 50
193.919267445
 51
220.332413047
  0
LINE
  5
269
330
1F
100
AcDbEntity
  8
0
  6
CONTINUOUS
 62
     1
100
AcDbLine
 10
155.1849999989999
 20
158.8749999989999
 30
0.0
 11
155.5849999989999
 21
158.8749999989999
 31
0.0
  0
LINE
  5
26A
330
1F
100
AcDbEntity
  8
0
  6
CONTINUOUS
 62
     1
100
AcDbLine
 10
155.5849999989999
 20
158.8749999989999
 30
0.0
 11
155.5849999989999
 21
159.174999999
 31
0.0
  0
LINE
  5
26B
330
1F
100
AcDbEntity
  8
0
  6
CONTINUOUS
 62
     1
100
AcDbLine
 10
155.5849999989999
 20
159.174999999
 30
0.0
 11
155.784999999
 21
159.174999999
 31
0.0
  0
LINE
  5
26C
330
1F
100
AcDbEntity
  8
0
  6
CONTINUOUS
 62
     1
100
AcDbLine
 10
155.784999999
 20
159.174999999
 30
0.0
 11
155.784999999
 21
159.6749999989999
 31
0.0
  0
LINE
  5
26D
330
1F
100
AcDbEntity
  8
0
  6
CONTINUOUS
 62
     1
100
AcDbLine
 10
155.784999999
 20
159.6749999989999
 30
0.0
 11
155.9849999989999
 21
159.6749999989999
 31
0.0
  0
LINE
  5
26E
330
1F
100
AcDbEntity
  8
0
  6
CONTINUOUS
 62
     1
100
AcDbLine
 10
155.9849999989999
 20
159.6749999989999
 30
0.0
 11
155.9849999989999
 21
160.174999999
 31
0.0
  0
LINE
  5
26F
330
1F
100
AcDbEntity
  8
0
  6
CONTINUOUS
 62
     1
100
AcDbLine
 10
155.9849999989999
 20
160.174999999
 30
0.0
 11
156.1849999989999
 21
160.174999999
 31
0.0
  0
LINE
  5
270
330
1F
100
AcDbEntity
  8
0
  6
CONTINUOUS
 62
     1
100
AcDbLine
 10
156.1849999989999
 20
160.174999999
 30
0.0
 11
156.1849999989999
 21
160.6749999989999
 31
0.0
  0
LINE
  5
271
330
1F
100
AcDbEntity
  8
0
  6
CONTINUOUS
 62
     1
100
AcDbLine
 10
156.1849999989999
 20
160.6749999989999
 30
0.0
 11
156.3849999989997
 21
160.6749999989999
 31
0.0
  0
LINE
  5
272
330
1F
100
AcDbEntity
  8
0
  6
CONTINUOUS
 62
     1
100
AcDbLine
 10
156.3849999989997
 20
160.6749999989999
 30
0.0
 11
156.3849999989997
 21
161.1749999989999
 31
0.0
  0
LINE
  5
273
330
1F
100
AcDbEntity
  8
0
  6
CONTINUOUS
 62
     1
100
AcDbLine
 10
156.3849999989997
 20
161.1749999989999
 30
0.0
 11
156.584999999
 21
161.1749999989999
 31
0.0
  0
LINE
  5
274
330
1F
100
AcDbEntity
  8
0
  6
CONTINUOUS
 62
     1
100
AcDbLine
 10
156.584999999
 20
161.1749999989999
 30
0.0
 11
156.584999999
 21
161.6749999989997
 31
0.0
  0
LINE
  5
275
330
1F
100
AcDbEntity
  8
0
  6
CONTINUOUS
 62
     1
100
AcDbLine
 10
156.584999999
 20
161.6749999989997
 30
0.0
 11
156.784999999
 21
161.6749999989997
 31
0.0
  0
LINE
  5
276
330
1F
100
AcDbEntity
  8
0
  6
CONTINUOUS
 62
     1
100
AcDbLine
 10
156.784999999
 20
161.6749999989997
 30
0.0
 11
156.784999999
 21
162.174999999
 31
0.0
  0
LINE
  5
277
330
1F
100
AcDbEntity
  8
0
  6
CONTINUOUS
 62
     1
100
AcDbLine
 10
156.784999999
 20
162.174999999
 30
0.0
 11
156.9849999989999
 21
162.174999999
 31
0.0
  0
LINE
  5
278
330
1F
100
AcDbEntity
  8
0
  6
CONTINUOUS
 62
     1
100
AcDbLine
 10
156.9849999989999
 20
162.174999999
 30
0.0
 11
156.9849999989999
 21
162.6749999989999
 31
0.0
  0
LINE
  5
279
330
1F
100
AcDbEntity
  8
0
  6
CONTINUOUS
 62
     1
100
AcDbLine
 10
156.9849999989999
 20
162.6749999989999
 30
0.0
 11
157.1849999989999
 21
162.6749999989999
 31
0.0
  0
LINE
  5
27A
330
1F
100
AcDbEntity
  8
0
  6
CONTINUOUS
 62
     1
100
AcDbLine
 10
157.1849999989999
 20
162.6749999989999
 30
0.0
 11
157.1849999989999
 21
163.174999999
 31
0.0
  0
LINE
  5
27B
330
1F
100
AcDbEntity
  8
0
  6
CONTINUOUS
 62
     1
100
AcDbLine
 10
157.1849999989999
 20
163.174999999
 30
0.0
 11
157.384999999
 21
163.174999999
 31
0.0
  0
LINE
  5
27C
330
1F
100
AcDbEntity
  8
0
  6
CONTINUOUS
 62
     1
100
AcDbLine
 10
157.384999999
 20
163.174999999
 30
0.0
 11
157.384999999
 21
163.6749999989999
 31
0.0
  0
LINE
  5
27D
330
1F
100
AcDbEntity
  8
0
  6
CONTINUOUS
 62
     1
100
AcDbLine
 10
154.3506249989999
 20
161.6749999989997
 30
0.0
 11
155.1849999989999
 21
158.8749999989999
 31
0.0
  0
LINE
  5
27E
330
1F
100
AcDbEntity
  8
0
  6
CONTINUOUS
 62
     1
100
AcDbLine
 10
155.550624999
 20
163.6749999989999
 30
0.0
 11
154.3506249989999
 21
161.6749999989997
 31
0.0
  0
ARC
  5
27F
330
1F
100
AcDbEntity
  8
0
  6
CONTINUOUS
 62
     1
100
AcDbCircle
 10
168.032034357
 20
171.994520445
 30
0.0
 40
15.0
100
AcDbArc
 50
203.7858868509998
 51
213.685557264
  0
LINE
  5
282
330
1F
100
AcDbEntity
  8
0
  6
CONTINUOUS
 62
     1
100
AcDbLine
 10
114.594028244
 20
114.544402823
 30
0.0
 11
112.2630709779999
 21
114.544402823
 31
0.0
  0
LINE
  5
283
330
1F
100
AcDbEntity
  8
0
  6
CONTINUOUS
 62
     1
100
AcDbLine
 10
112.1617250099999
 20
113.024213302
 30
0.0
 11
117.2290234139998
 21
113.024213302
 31
0.0
  0
LINE
  5
284
330
1F
100
AcDbEntity
  8
0
  6
CONTINUOUS
 62
     1
100
AcDbLine
 10
117.2290234139998
 20
114.74709476
 30
0.0
 11
118.546520999
 21
113.733635079
 31
0.0
  0
LINE
  5
285
330
1F
100
AcDbEntity
  8
0
  6
CONTINUOUS
 62
     1
100
AcDbLine
 10
117.127677446
 20
114.443056855
 30
0.0
 11
118.445175031
 21
113.429597175
 31
0.0
  0
LINE
  5
286
330
1F
100
AcDbEntity
  8
0
  6
CONTINUOUS
 62
     1
100
AcDbLine
 10
118.445175031
 20
113.429597175
 30
0.0
 11
117.0263314779999
 21
113.024213302
 31
0.0
  0
LINE
  5
287
330
1F
100
AcDbEntity
  8
0
  6
CONTINUOUS
 62
     1
100
AcDbLine
 10
117.0263314779999
 20
112.7201753979997
 30
0.0
 11
118.546520999
 21
113.12555927
 31
0.0
  0
LINE
  5
288
330
1F
100
AcDbEntity
  8
0
  6
CONTINUOUS
 62
     1
100
AcDbLine
 10
112.1617250099999
 20
114.544402823
 30
0.0
 11
110.8442274249999
 21
113.936327015
 31
0.0
  0
LINE
  5
289
330
1F
100
AcDbEntity
  8
0
  6
CONTINUOUS
 62
     1
100
AcDbLine
 10
110.8442274249999
 20
113.936327015
 30
0.0
 11
112.060379042
 21
113.024213302
 31
0.0
  0
LINE
  5
28A
330
1F
100
AcDbEntity
  8
0
  6
CONTINUOUS
 62
     1
100
AcDbLine
 10
111.8576871059999
 20
112.821521366
 30
0.0
 11
110.5401895209999
 21
113.733635079
 31
0.0
  0
LINE
  5
28B
330
1F
100
AcDbEntity
  8
0
  6
CONTINUOUS
 62
     1
100
AcDbLine
 10
110.6415354889999
 20
114.139018951
 30
0.0
 11
112.1617250099999
 21
114.949786696
 31
0.0
  0
LINE
  5
28C
330
1F
100
AcDbEntity
  8
0
  6
CONTINUOUS
 62
     1
100
AcDbLine
 10
117.0263314779999
 20
114.544402823
 30
0.0
 11
114.695374212
 21
114.544402823
 31
0.0
  0
POINT
  5
28D
330
1F
100
AcDbEntity
  8
0
  6
CONTINUOUS
 62
     1
100
AcDbPoint
 10
118.141137127
 20
120.929198812
 30
0.0
  0
LINE
  5
28E
330
1F
100
AcDbEntity
  8
0
  6
CONTINUOUS
 62
     1
100
AcDbLine
 10
117.837099222
 20
119.409009291
 30
0.0
 11
118.850558903
 21
120.6251609079999
 31
0.0
  0
LINE
  5
28F
330
1F
100
AcDbEntity
  8
0
  6
CONTINUOUS
 62
     1
100
AcDbLine
 10
119.255942776
 20
120.5238149399999
 30
0.0
 11
118.0397911589998
 21
119.003625419
 31
0.0
  0
LINE
  5
290
330
1F
100
AcDbEntity
  8
0
  6
CONTINUOUS
 62
     1
100
AcDbLine
 10
113.0738387229998
 20
119.510355259
 30
0.0
 11
112.1617250099999
 21
120.6251609079999
 31
0.0
  0
LINE
  5
291
330
1F
100
AcDbEntity
  8
0
  6
CONTINUOUS
 62
     1
100
AcDbLine
 10
112.871146786
 20
119.104971387
 30
0.0
 11
111.8576871059999
 21
120.4224689719999
 31
0.0
  0
LINE
  5
292
330
1F
100
AcDbEntity
  8
0
  6
CONTINUOUS
 62
     1
100
AcDbLine
 10
112.2218991779998
 20
115.12714214
 30
0.0
 11
112.8426432329998
 21
119.0796348949999
 31
0.0
  0
LINE
  5
293
330
1F
100
AcDbEntity
  8
0
  6
CONTINUOUS
 62
     1
100
AcDbLine
 10
111.7563411379999
 20
120.393512981
 30
0.0
 11
111.5536492009999
 21
120.219777036
 31
0.0
  0
LINE
  5
294
330
1F
100
AcDbEntity
  8
0
  6
CONTINUOUS
 62
     1
100
AcDbLine
 10
112.2630709779999
 20
120.8278528439999
 30
0.0
 11
112.1617250099999
 21
120.740984872
 31
0.0
  0
LINE
  5
295
330
1F
100
AcDbEntity
  8
0
  6
CONTINUOUS
 62
     1
100
AcDbLine
 10
110.575027197
 20
114.1136824589999
 30
0.0
 11
111.449136172
 21
120.0930945759999
 31
0.0
  0
LINE
  5
296
330
1F
100
AcDbEntity
  8
0
  6
CONTINUOUS
 62
     1
100
AcDbLine
 10
113.175184691
 20
119.409009291
 30
0.0
 11
117.93844519
 21
119.409009291
 31
0.0
  0
LINE
  5
297
330
1F
100
AcDbEntity
  8
0
  6
CONTINUOUS
 62
     1
100
AcDbLine
 10
117.8846051449999
 20
118.8769429589999
 30
0.0
 11
117.2385245979999
 21
114.7217582679999
 31
0.0
  0
LINE
  5
298
330
1F
100
AcDbEntity
  8
0
  6
CONTINUOUS
 62
     1
100
AcDbLine
 10
119.357288744
 20
120.538292936
 30
0.0
 11
119.5599806799999
 21
120.4224689719999
 31
0.0
  0
LINE
  5
299
330
1F
100
AcDbEntity
  8
0
  6
CONTINUOUS
 62
     1
100
AcDbLine
 10
118.850558903
 20
120.8278528439999
 30
0.0
 11
118.951904871
 21
120.7699408629999
 31
0.0
  0
LINE
  5
29A
330
1F
100
AcDbEntity
  8
0
  6
CONTINUOUS
 62
     1
100
AcDbLine
 10
112.364416946
 20
120.929198812
 30
0.0
 11
118.749212935
 21
120.929198812
 31
0.0
  0
LINE
  5
29B
330
1F
100
AcDbEntity
  8
0
  6
CONTINUOUS
 62
     1
100
AcDbLine
 10
119.594818356
 20
120.3971324799999
 30
0.0
 11
118.63203166
 21
113.708298587
 31
0.0
  0
POINT
  5
29C
330
1F
100
AcDbEntity
  8
0
  6
CONTINUOUS
 62
     1
100
AcDbPoint
 10
111.046919361
 20
106.7407632809999
 30
0.0
  0
LINE
  5
29D
330
1F
100
AcDbEntity
  8
0
  6
CONTINUOUS
 62
     1
100
AcDbLine
 10
116.3169097009999
 20
108.463644739
 30
0.0
 11
117.43171535
 21
107.3488390899999
 31
0.0
  0
LINE
  5
29E
330
1F
100
AcDbEntity
  8
0
  6
CONTINUOUS
 62
     1
100
AcDbLine
 10
116.114217765
 20
108.260952802
 30
0.0
 11
117.2290234139998
 21
107.1461471539999
 31
0.0
  0
LINE
  5
29F
330
1F
100
AcDbEntity
  8
0
  6
CONTINUOUS
 62
     1
100
AcDbLine
 10
111.2496112969999
 20
108.463644739
 30
0.0
 11
109.830767744
 21
107.4501850579999
 31
0.0
  0
LINE
  5
2A0
330
1F
100
AcDbEntity
  8
0
  6
CONTINUOUS
 62
     1
100
AcDbLine
 10
110.03345968
 20
107.247493122
 30
0.0
 11
111.2496112969999
 21
108.159606834
 31
0.0
  0
LINE
  5
2A1
330
1F
100
AcDbEntity
  8
0
  6
CONTINUOUS
 62
     1
100
AcDbLine
 10
109.6407440539999
 20
107.6528769939999
 30
0.0
 11
110.5401895209999
 21
113.834981047
 31
0.0
  0
LINE
  5
2A2
330
1F
100
AcDbEntity
  8
0
  6
CONTINUOUS
 62
     1
100
AcDbLine
 10
109.965895702
 20
107.1461471539999
 30
0.0
 11
110.2361516159999
 21
106.7407632809999
 31
0.0
  0
LINE
  5
2A3
330
1F
100
AcDbEntity
  8
0
  6
CONTINUOUS
 62
     1
100
AcDbLine
 10
109.628075808
 20
107.6528769939999
 30
0.0
 11
109.830767744
 21
107.3488390899999
 31
0.0
  0
LINE
  5
2A4
330
1F
100
AcDbEntity
  8
0
  6
CONTINUOUS
 62
     1
100
AcDbLine
 10
116.114217765
 20
108.260952802
 30
0.0
 11
111.2496112969999
 21
108.260952802
 31
0.0
  0
LINE
  5
2A5
330
1F
100
AcDbEntity
  8
0
  6
CONTINUOUS
 62
     1
100
AcDbLine
 10
117.43171535
 20
107.2925357739999
 30
0.0
 11
117.634407286
 21
107.4501850579999
 31
0.0
  0
LINE
  5
2A6
330
1F
100
AcDbEntity
  8
0
  6
CONTINUOUS
 62
     1
100
AcDbLine
 10
116.7222935739999
 20
106.7407632809999
 30
0.0
 11
117.2290234139998
 21
107.13488649
 31
0.0
  0
LINE
  5
2A7
330
1F
100
AcDbEntity
  8
0
  6
CONTINUOUS
 62
     1
100
AcDbLine
 10
116.7222935739999
 20
106.7407632809999
 30
0.0
 11
110.134805648
 21
106.7407632809999
 31
0.0
  0
LINE
  5
2A8
330
1F
100
AcDbEntity
  8
0
  6
CONTINUOUS
 62
     1
100
AcDbLine
 10
118.556022183
 20
113.1002227779999
 30
0.0
 11
117.719917947
 21
107.424848566
 31
0.0
  0
LINE
  5
2A9
330
1F
100
AcDbEntity
  8
0
  6
CONTINUOUS
 62
     1
100
AcDbLine
 10
116.874312526
 20
112.568156446
 30
0.0
 11
116.367582685
 21
108.5143177229997
 31
0.0
  0
LINE
  5
2AA
330
1F
100
AcDbEntity
  8
0
  6
CONTINUOUS
 62
     1
100
AcDbLine
 10
111.300284281
 20
108.5143177229997
 30
0.0
 11
111.807014122
 21
112.568156446
 31
0.0
  0
LINE
  5
2AB
330
1F
100
AcDbEntity
  8
0
  6
CONTINUOUS
 62
     1
100
AcDbLine
 10
126.862084733
 20
114.544402823
 30
0.0
 11
124.531127467
 21
114.544402823
 31
0.0
  0
LINE
  5
2AC
330
1F
100
AcDbEntity
  8
0
  6
CONTINUOUS
 62
     1
100
AcDbLine
 10
124.429781499
 20
113.024213302
 30
0.0
 11
129.4970799029999
 21
113.024213302
 31
0.0
  0
LINE
  5
2AD
330
1F
100
AcDbEntity
  8
0
  6
CONTINUOUS
 62
     1
100
AcDbLine
 10
129.4970799029999
 20
114.74709476
 30
0.0
 11
130.814577488
 21
113.733635079
 31
0.0
  0
LINE
  5
2AE
330
1F
100
AcDbEntity
  8
0
  6
CONTINUOUS
 62
     1
100
AcDbLine
 10
129.395733935
 20
114.443056855
 30
0.0
 11
130.71323152
 21
113.429597175
 31
0.0
  0
LINE
  5
2AF
330
1F
100
AcDbEntity
  8
0
  6
CONTINUOUS
 62
     1
100
AcDbLine
 10
130.71323152
 20
113.429597175
 30
0.0
 11
129.294387967
 21
113.024213302
 31
0.0
  0
LINE
  5
2B0
330
1F
100
AcDbEntity
  8
0
  6
CONTINUOUS
 62
     1
100
AcDbLine
 10
129.294387967
 20
112.7201753979997
 30
0.0
 11
130.814577488
 21
113.12555927
 31
0.0
  0
LINE
  5
2B1
330
1F
100
AcDbEntity
  8
0
  6
CONTINUOUS
 62
     1
100
AcDbLine
 10
124.429781499
 20
114.544402823
 30
0.0
 11
123.1122839139999
 21
113.936327015
 31
0.0
  0
LINE
  5
2B2
330
1F
100
AcDbEntity
  8
0
  6
CONTINUOUS
 62
     1
100
AcDbLine
 10
123.1122839139999
 20
113.936327015
 30
0.0
 11
124.328435531
 21
113.024213302
 31
0.0
  0
LINE
  5
2B3
330
1F
100
AcDbEntity
  8
0
  6
CONTINUOUS
 62
     1
100
AcDbLine
 10
124.1257435939999
 20
112.821521366
 30
0.0
 11
122.8082460089999
 21
113.733635079
 31
0.0
  0
LINE
  5
2B4
330
1F
100
AcDbEntity
  8
0
  6
CONTINUOUS
 62
     1
100
AcDbLine
 10
122.9095919779997
 20
114.139018951
 30
0.0
 11
124.429781499
 21
114.949786696
 31
0.0
  0
LINE
  5
2B5
330
1F
100
AcDbEntity
  8
0
  6
CONTINUOUS
 62
     1
100
AcDbLine
 10
129.294387967
 20
114.544402823
 30
0.0
 11
126.963430701
 21
114.544402823
 31
0.0
  0
POINT
  5
2B6
330
1F
100
AcDbEntity
  8
0
  6
CONTINUOUS
 62
     1
100
AcDbPoint
 10
130.4091936149999
 20
120.929198812
 30
0.0
  0
LINE
  5
2B7
330
1F
100
AcDbEntity
  8
0
  6
CONTINUOUS
 62
     1
100
AcDbLine
 10
131.523999264
 20
120.5238149399999
 30
0.0
 11
130.307847647
 21
119.003625419
 31
0.0
  0
LINE
  5
2B8
330
1F
100
AcDbEntity
  8
0
  6
CONTINUOUS
 62
     1
100
AcDbLine
 10
125.139203275
 20
119.104971387
 30
0.0
 11
124.1257435939999
 21
120.4224689719999
 31
0.0
  0
LINE
  5
2B9
330
1F
100
AcDbEntity
  8
0
  6
CONTINUOUS
 62
     1
100
AcDbLine
 10
124.489955667
 20
115.12714214
 30
0.0
 11
125.110699722
 21
119.0796348949999
 31
0.0
  0
LINE
  5
2BA
330
1F
100
AcDbEntity
  8
0
  6
CONTINUOUS
 62
     1
100
AcDbLine
 10
124.024397626
 20
120.393512981
 30
0.0
 11
123.8217056899999
 21
120.219777036
 31
0.0
  0
LINE
  5
2BB
330
1F
100
AcDbEntity
  8
0
  6
CONTINUOUS
 62
     1
100
AcDbLine
 10
124.531127467
 20
120.8278528439999
 30
0.0
 11
124.429781499
 21
120.740984872
 31
0.0
  0
LINE
  5
2BC
330
1F
100
AcDbEntity
  8
0
  6
CONTINUOUS
 62
     1
100
AcDbLine
 10
122.843083686
 20
114.1136824589999
 30
0.0
 11
123.717192661
 21
120.0930945759999
 31
0.0
  0
LINE
  5
2BD
330
1F
100
AcDbEntity
  8
0
  6
CONTINUOUS
 62
     1
100
AcDbLine
 10
130.152661634
 20
118.8769429589999
 30
0.0
 11
129.5065810869999
 21
114.7217582679999
 31
0.0
  0
LINE
  5
2BE
330
1F
100
AcDbEntity
  8
0
  6
CONTINUOUS
 62
     1
100
AcDbLine
 10
131.625345232
 20
120.538292936
 30
0.0
 11
131.828037169
 21
120.4224689719999
 31
0.0
  0
LINE
  5
2BF
330
1F
100
AcDbEntity
  8
0
  6
CONTINUOUS
 62
     1
100
AcDbLine
 10
124.6324734349999
 20
120.929198812
 30
0.0
 11
131.017269424
 21
120.929198812
 31
0.0
  0
LINE
  5
2C0
330
1F
100
AcDbEntity
  8
0
  6
CONTINUOUS
 62
     1
100
AcDbLine
 10
131.8628748449997
 20
120.3971324799999
 30
0.0
 11
130.9000881479998
 21
113.708298587
 31
0.0
  0
POINT
  5
2C1
330
1F
100
AcDbEntity
  8
0
  6
CONTINUOUS
 62
     1
100
AcDbPoint
 10
123.3149758499999
 20
106.7407632809999
 30
0.0
  0
LINE
  5
2C2
330
1F
100
AcDbEntity
  8
0
  6
CONTINUOUS
 62
     1
100
AcDbLine
 10
128.5849661899999
 20
108.463644739
 30
0.0
 11
129.6997718389999
 21
107.3488390899999
 31
0.0
  0
LINE
  5
2C3
330
1F
100
AcDbEntity
  8
0
  6
CONTINUOUS
 62
     1
100
AcDbLine
 10
128.382274254
 20
108.260952802
 30
0.0
 11
129.4970799029999
 21
107.1461471539999
 31
0.0
  0
LINE
  5
2C4
330
1F
100
AcDbEntity
  8
0
  6
CONTINUOUS
 62
     1
100
AcDbLine
 10
123.5176677859999
 20
108.463644739
 30
0.0
 11
122.0988242329999
 21
107.4501850579999
 31
0.0
  0
LINE
  5
2C5
330
1F
100
AcDbEntity
  8
0
  6
CONTINUOUS
 62
     1
100
AcDbLine
 10
122.301516169
 20
107.247493122
 30
0.0
 11
123.5176677859999
 21
108.159606834
 31
0.0
  0
LINE
  5
2C6
330
1F
100
AcDbEntity
  8
0
  6
CONTINUOUS
 62
     1
100
AcDbLine
 10
121.9088005429999
 20
107.6528769939999
 30
0.0
 11
122.8082460089999
 21
113.834981047
 31
0.0
  0
LINE
  5
2C7
330
1F
100
AcDbEntity
  8
0
  6
CONTINUOUS
 62
     1
100
AcDbLine
 10
122.2339521899999
 20
107.1461471539999
 30
0.0
 11
122.504208105
 21
106.7407632809999
 31
0.0
  0
LINE
  5
2C8
330
1F
100
AcDbEntity
  8
0
  6
CONTINUOUS
 62
     1
100
AcDbLine
 10
121.896132297
 20
107.6528769939999
 30
0.0
 11
122.0988242329999
 21
107.3488390899999
 31
0.0
  0
LINE
  5
2C9
330
1F
100
AcDbEntity
  8
0
  6
CONTINUOUS
 62
     1
100
AcDbLine
 10
128.382274254
 20
108.260952802
 30
0.0
 11
123.5176677859999
 21
108.260952802
 31
0.0
  0
LINE
  5
2CA
330
1F
100
AcDbEntity
  8
0
  6
CONTINUOUS
 62
     1
100
AcDbLine
 10
129.6997718389999
 20
107.2925357739999
 30
0.0
 11
129.902463775
 21
107.4501850579999
 31
0.0
  0
LINE
  5
2CB
330
1F
100
AcDbEntity
  8
0
  6
CONTINUOUS
 62
     1
100
AcDbLine
 10
128.990350062
 20
106.7407632809999
 30
0.0
 11
129.4970799029999
 21
107.13488649
 31
0.0
  0
LINE
  5
2CC
330
1F
100
AcDbEntity
  8
0
  6
CONTINUOUS
 62
     1
100
AcDbLine
 10
128.990350062
 20
106.7407632809999
 30
0.0
 11
122.402862137
 21
106.7407632809999
 31
0.0
  0
LINE
  5
2CD
330
1F
100
AcDbEntity
  8
0
  6
CONTINUOUS
 62
     1
100
AcDbLine
 10
130.824078672
 20
113.1002227779999
 30
0.0
 11
129.987974436
 21
107.424848566
 31
0.0
  0
LINE
  5
2CE
330
1F
100
AcDbEntity
  8
0
  6
CONTINUOUS
 62
     1
100
AcDbLine
 10
129.142369014
 20
112.568156446
 30
0.0
 11
128.635639174
 21
108.5143177229997
 31
0.0
  0
LINE
  5
2CF
330
1F
100
AcDbEntity
  8
0
  6
CONTINUOUS
 62
     1
100
AcDbLine
 10
124.07507061
 20
112.821521366
 30
0.0
 11
123.56834077
 21
108.7676826429998
 31
0.0
  0
LINE
  5
2D0
330
1F
100
AcDbEntity
  8
0
  6
CONTINUOUS
 62
     1
100
AcDbLine
 10
125.44324118
 20
119.409009291
 30
0.0
 11
130.105155711
 21
119.409009291
 31
0.0
  0
LINE
  5
2D1
330
1F
100
AcDbEntity
  8
0
  6
CONTINUOUS
 62
     1
100
AcDbLine
 10
125.4248146399999
 20
119.409009291
 30
0.0
 11
124.429781499
 21
120.6251609079999
 31
0.0
  0
LINE
  5
2D2
330
1F
100
AcDbEntity
  8
0
  6
CONTINUOUS
 62
     1
100
AcDbLine
 10
130.105155711
 20
119.409009291
 30
0.0
 11
131.203070365
 21
120.7265068759999
 31
0.0
  0
LINE
  5
2D3
330
1F
100
AcDbEntity
  8
0
  6
CONTINUOUS
 62
     1
100
AcDbLine
 10
131.017269424
 20
120.8857648259999
 30
0.0
 11
131.21996136
 21
120.7699408629999
 31
0.0
  0
LINE
  5
2D4
330
1F
100
AcDbEntity
  8
0
  6
CONTINUOUS
 62
     1
100
AcDbLine
 10
102.325971755
 20
114.544402823
 30
0.0
 11
99.995014489
 21
114.544402823
 31
0.0
  0
LINE
  5
2D5
330
1F
100
AcDbEntity
  8
0
  6
CONTINUOUS
 62
     1
100
AcDbLine
 10
99.89366852100001
 20
113.024213302
 30
0.0
 11
104.9609669249999
 21
113.024213302
 31
0.0
  0
LINE
  5
2D6
330
1F
100
AcDbEntity
  8
0
  6
CONTINUOUS
 62
     1
100
AcDbLine
 10
104.9609669249999
 20
114.74709476
 30
0.0
 11
106.27846451
 21
113.733635079
 31
0.0
  0
LINE
  5
2D7
330
1F
100
AcDbEntity
  8
0
  6
CONTINUOUS
 62
     1
100
AcDbLine
 10
104.859620957
 20
114.443056855
 30
0.0
 11
106.177118542
 21
113.429597175
 31
0.0
  0
LINE
  5
2D8
330
1F
100
AcDbEntity
  8
0
  6
CONTINUOUS
 62
     1
100
AcDbLine
 10
106.177118542
 20
113.429597175
 30
0.0
 11
104.758274989
 21
113.024213302
 31
0.0
  0
LINE
  5
2D9
330
1F
100
AcDbEntity
  8
0
  6
CONTINUOUS
 62
     1
100
AcDbLine
 10
104.758274989
 20
112.7201753979997
 30
0.0
 11
106.27846451
 21
113.12555927
 31
0.0
  0
LINE
  5
2DA
330
1F
100
AcDbEntity
  8
0
  6
CONTINUOUS
 62
     1
100
AcDbLine
 10
99.89366852100001
 20
114.544402823
 30
0.0
 11
98.576170936
 21
113.936327015
 31
0.0
  0
LINE
  5
2DB
330
1F
100
AcDbEntity
  8
0
  6
CONTINUOUS
 62
     1
100
AcDbLine
 10
98.576170936
 20
113.936327015
 30
0.0
 11
99.79232255299999
 21
113.024213302
 31
0.0
  0
LINE
  5
2DC
330
1F
100
AcDbEntity
  8
0
  6
CONTINUOUS
 62
     1
100
AcDbLine
 10
99.58963061700003
 20
112.821521366
 30
0.0
 11
98.27213303200001
 21
113.733635079
 31
0.0
  0
LINE
  5
2DD
330
1F
100
AcDbEntity
  8
0
  6
CONTINUOUS
 62
     1
100
AcDbLine
 10
98.373479
 20
114.139018951
 30
0.0
 11
99.89366852100001
 21
114.949786696
 31
0.0
  0
LINE
  5
2DE
330
1F
100
AcDbEntity
  8
0
  6
CONTINUOUS
 62
     1
100
AcDbLine
 10
104.758274989
 20
114.544402823
 30
0.0
 11
102.4273177229999
 21
114.544402823
 31
0.0
  0
POINT
  5
2DF
330
1F
100
AcDbEntity
  8
0
  6
CONTINUOUS
 62
     1
100
AcDbPoint
 10
105.8730806379998
 20
120.929198812
 30
0.0
  0
LINE
  5
2E0
330
1F
100
AcDbEntity
  8
0
  6
CONTINUOUS
 62
     1
100
AcDbLine
 10
105.5690427339999
 20
119.409009291
 30
0.0
 11
106.582502414
 21
120.6251609079999
 31
0.0
  0
LINE
  5
2E1
330
1F
100
AcDbEntity
  8
0
  6
CONTINUOUS
 62
     1
100
AcDbLine
 10
106.987886287
 20
120.5238149399999
 30
0.0
 11
105.77173467
 21
119.003625419
 31
0.0
  0
LINE
  5
2E2
330
1F
100
AcDbEntity
  8
0
  6
CONTINUOUS
 62
     1
100
AcDbLine
 10
100.8057822339999
 20
119.510355259
 30
0.0
 11
99.89366852100001
 21
120.6251609079999
 31
0.0
  0
LINE
  5
2E3
330
1F
100
AcDbEntity
  8
0
  6
CONTINUOUS
 62
     1
100
AcDbLine
 10
100.603090298
 20
119.104971387
 30
0.0
 11
99.58963061700003
 21
120.4224689719999
 31
0.0
  0
LINE
  5
2E4
330
1F
100
AcDbEntity
  8
0
  6
CONTINUOUS
 62
     1
100
AcDbLine
 10
99.95384269
 20
115.12714214
 30
0.0
 11
100.5745867439999
 21
119.0796348949999
 31
0.0
  0
LINE
  5
2E5
330
1F
100
AcDbEntity
  8
0
  6
CONTINUOUS
 62
     1
100
AcDbLine
 10
99.488284649
 20
120.393512981
 30
0.0
 11
99.28559271299999
 21
120.219777036
 31
0.0
  0
LINE
  5
2E6
330
1F
100
AcDbEntity
  8
0
  6
CONTINUOUS
 62
     1
100
AcDbLine
 10
99.995014489
 20
120.8278528439999
 30
0.0
 11
99.89366852100001
 21
120.740984872
 31
0.0
  0
LINE
  5
2E7
330
1F
100
AcDbEntity
  8
0
  6
CONTINUOUS
 62
     1
100
AcDbLine
 10
98.306970708
 20
114.1136824589999
 30
0.0
 11
99.181079683
 21
120.0930945759999
 31
0.0
  0
LINE
  5
2E8
330
1F
100
AcDbEntity
  8
0
  6
CONTINUOUS
 62
     1
100
AcDbLine
 10
100.907128202
 20
119.409009291
 30
0.0
 11
105.670388702
 21
119.409009291
 31
0.0
  0
LINE
  5
2E9
330
1F
100
AcDbEntity
  8
0
  6
CONTINUOUS
 62
     1
100
AcDbLine
 10
105.616548656
 20
118.8769429589999
 30
0.0
 11
104.9704681099999
 21
114.7217582679999
 31
0.0
  0
LINE
  5
2EA
330
1F
100
AcDbEntity
  8
0
  6
CONTINUOUS
 62
     1
100
AcDbLine
 10
107.0892322549999
 20
120.538292936
 30
0.0
 11
107.2919241909999
 21
120.4224689719999
 31
0.0
  0
LINE
  5
2EB
330
1F
100
AcDbEntity
  8
0
  6
CONTINUOUS
 62
     1
100
AcDbLine
 10
106.582502414
 20
120.8278528439999
 30
0.0
 11
106.683848382
 21
120.7699408629999
 31
0.0
  0
LINE
  5
2EC
330
1F
100
AcDbEntity
  8
0
  6
CONTINUOUS
 62
     1
100
AcDbLine
 10
100.096360457
 20
120.929198812
 30
0.0
 11
106.481156446
 21
120.929198812
 31
0.0
  0
LINE
  5
2ED
330
1F
100
AcDbEntity
  8
0
  6
CONTINUOUS
 62
     1
100
AcDbLine
 10
107.326761867
 20
120.3971324799999
 30
0.0
 11
106.363975171
 21
113.708298587
 31
0.0
  0
POINT
  5
2EE
330
1F
100
AcDbEntity
  8
0
  6
CONTINUOUS
 62
     1
100
AcDbPoint
 10
98.778862872
 20
106.7407632809999
 30
0.0
  0
LINE
  5
2EF
330
1F
100
AcDbEntity
  8
0
  6
CONTINUOUS
 62
     1
100
AcDbLine
 10
104.048853212
 20
108.463644739
 30
0.0
 11
105.163658861
 21
107.3488390899999
 31
0.0
  0
LINE
  5
2F0
330
1F
100
AcDbEntity
  8
0
  6
CONTINUOUS
 62
     1
100
AcDbLine
 10
103.846161276
 20
108.260952802
 30
0.0
 11
104.9609669249999
 21
107.1461471539999
 31
0.0
  0
LINE
  5
2F1
330
1F
100
AcDbEntity
  8
0
  6
CONTINUOUS
 62
     1
100
AcDbLine
 10
98.98155480799998
 20
108.463644739
 30
0.0
 11
97.562711255
 21
107.4501850579999
 31
0.0
  0
LINE
  5
2F2
330
1F
100
AcDbEntity
  8
0
  6
CONTINUOUS
 62
     1
100
AcDbLine
 10
97.765403191
 20
107.247493122
 30
0.0
 11
98.98155480799998
 21
108.159606834
 31
0.0
  0
LINE
  5
2F3
330
1F
100
AcDbEntity
  8
0
  6
CONTINUOUS
 62
     1
100
AcDbLine
 10
97.372687565
 20
107.6528769939999
 30
0.0
 11
98.27213303200001
 21
113.834981047
 31
0.0
  0
LINE
  5
2F4
330
1F
100
AcDbEntity
  8
0
  6
CONTINUOUS
 62
     1
100
AcDbLine
 10
97.697839213
 20
107.1461471539999
 30
0.0
 11
97.96809512799999
 21
106.7407632809999
 31
0.0
  0
LINE
  5
2F5
330
1F
100
AcDbEntity
  8
0
  6
CONTINUOUS
 62
     1
100
AcDbLine
 10
97.360019319
 20
107.6528769939999
 30
0.0
 11
97.562711255
 21
107.3488390899999
 31
0.0
  0
LINE
  5
2F6
330
1F
100
AcDbEntity
  8
0
  6
CONTINUOUS
 62
     1
100
AcDbLine
 10
103.846161276
 20
108.260952802
 30
0.0
 11
98.98155480799998
 21
108.260952802
 31
0.0
  0
LINE
  5
2F7
330
1F
100
AcDbEntity
  8
0
  6
CONTINUOUS
 62
     1
100
AcDbLine
 10
105.163658861
 20
107.2925357739999
 30
0.0
 11
105.366350797
 21
107.4501850579999
 31
0.0
  0
LINE
  5
2F8
330
1F
100
AcDbEntity
  8
0
  6
CONTINUOUS
 62
     1
100
AcDbLine
 10
104.454237085
 20
106.7407632809999
 30
0.0
 11
104.9609669249999
 21
107.13488649
 31
0.0
  0
LINE
  5
2F9
330
1F
100
AcDbEntity
  8
0
  6
CONTINUOUS
 62
     1
100
AcDbLine
 10
104.454237085
 20
106.7407632809999
 30
0.0
 11
97.86674916
 21
106.7407632809999
 31
0.0
  0
LINE
  5
2FA
330
1F
100
AcDbEntity
  8
0
  6
CONTINUOUS
 62
     1
100
AcDbLine
 10
106.287965695
 20
113.1002227779999
 30
0.0
 11
105.451861458
 21
107.424848566
 31
0.0
  0
LINE
  5
2FB
330
1F
100
AcDbEntity
  8
0
  6
CONTINUOUS
 62
     1
100
AcDbLine
 10
99.03222779200001
 20
108.5143177229997
 30
0.0
 11
99.538957633
 21
112.568156446
 31
0.0
  0
LINE
  5
2FC
330
1F
100
AcDbEntity
  8
0
  6
CONTINUOUS
 62
     1
100
AcDbLine
 10
104.099526196
 20
108.5143177229997
 30
0.0
 11
104.606256037
 21
112.568156446
 31
0.0
  0
LINE
  5
2FD
330
1F
100
AcDbEntity
  8
0
  6
CONTINUOUS
 62
     1
100
AcDbLine
 10
90.061971755
 20
114.544402823
 30
0.0
 11
87.731014489
 21
114.544402823
 31
0.0
  0
LINE
  5
2FE
330
1F
100
AcDbEntity
  8
0
  6
CONTINUOUS
 62
     1
100
AcDbLine
 10
87.62966852099999
 20
113.024213302
 30
0.0
 11
92.696966925
 21
113.024213302
 31
0.0
  0
LINE
  5
2FF
330
1F
100
AcDbEntity
  8
0
  6
CONTINUOUS
 62
     1
100
AcDbLine
 10
92.696966925
 20
114.74709476
 30
0.0
 11
94.01446451
 21
113.733635079
 31
0.0
  0
LINE
  5
300
330
1F
100
AcDbEntity
  8
0
  6
CONTINUOUS
 62
     1
100
AcDbLine
 10
92.59562095700001
 20
114.443056855
 30
0.0
 11
93.913118542
 21
113.429597175
 31
0.0
  0
LINE
  5
301
330
1F
100
AcDbEntity
  8
0
  6
CONTINUOUS
 62
     1
100
AcDbLine
 10
93.913118542
 20
113.429597175
 30
0.0
 11
92.49427498899999
 21
113.024213302
 31
0.0
  0
LINE
  5
302
330
1F
100
AcDbEntity
  8
0
  6
CONTINUOUS
 62
     1
100
AcDbLine
 10
92.49427498899999
 20
112.7201753979997
 30
0.0
 11
94.01446451
 21
113.12555927
 31
0.0
  0
LINE
  5
303
330
1F
100
AcDbEntity
  8
0
  6
CONTINUOUS
 62
     1
100
AcDbLine
 10
87.62966852099999
 20
114.544402823
 30
0.0
 11
86.312170936
 21
113.936327015
 31
0.0
  0
LINE
  5
304
330
1F
100
AcDbEntity
  8
0
  6
CONTINUOUS
 62
     1
100
AcDbLine
 10
86.312170936
 20
113.936327015
 30
0.0
 11
87.528322553
 21
113.024213302
 31
0.0
  0
LINE
  5
305
330
1F
100
AcDbEntity
  8
0
  6
CONTINUOUS
 62
     1
100
AcDbLine
 10
87.325630617
 20
112.821521366
 30
0.0
 11
86.008133032
 21
113.733635079
 31
0.0
  0
LINE
  5
306
330
1F
100
AcDbEntity
  8
0
  6
CONTINUOUS
 62
     1
100
AcDbLine
 10
86.10947900000002
 20
114.139018951
 30
0.0
 11
87.62966852099999
 21
114.949786696
 31
0.0
  0
LINE
  5
307
330
1F
100
AcDbEntity
  8
0
  6
CONTINUOUS
 62
     1
100
AcDbLine
 10
92.49427498899999
 20
114.544402823
 30
0.0
 11
90.16331772299999
 21
114.544402823
 31
0.0
  0
POINT
  5
308
330
1F
100
AcDbEntity
  8
0
  6
CONTINUOUS
 62
     1
100
AcDbPoint
 10
93.609080638
 20
120.929198812
 30
0.0
  0
LINE
  5
309
330
1F
100
AcDbEntity
  8
0
  6
CONTINUOUS
 62
     1
100
AcDbLine
 10
93.305042734
 20
119.409009291
 30
0.0
 11
94.318502414
 21
120.6251609079999
 31
0.0
  0
LINE
  5
30A
330
1F
100
AcDbEntity
  8
0
  6
CONTINUOUS
 62
     1
100
AcDbLine
 10
94.723886287
 20
120.5238149399999
 30
0.0
 11
93.50773467
 21
119.003625419
 31
0.0
  0
LINE
  5
30B
330
1F
100
AcDbEntity
  8
0
  6
CONTINUOUS
 62
     1
100
AcDbLine
 10
88.54178223399998
 20
119.510355259
 30
0.0
 11
87.62966852099999
 21
120.6251609079999
 31
0.0
  0
LINE
  5
30C
330
1F
100
AcDbEntity
  8
0
  6
CONTINUOUS
 62
     1
100
AcDbLine
 10
88.33909029799999
 20
119.104971387
 30
0.0
 11
87.325630617
 21
120.4224689719999
 31
0.0
  0
LINE
  5
30D
330
1F
100
AcDbEntity
  8
0
  6
CONTINUOUS
 62
     1
100
AcDbLine
 10
87.68984269
 20
115.12714214
 30
0.0
 11
88.31058674399998
 21
119.0796348949999
 31
0.0
  0
LINE
  5
30E
330
1F
100
AcDbEntity
  8
0
  6
CONTINUOUS
 62
     1
100
AcDbLine
 10
87.224284649
 20
120.393512981
 30
0.0
 11
87.02159271299999
 21
120.219777036
 31
0.0
  0
LINE
  5
30F
330
1F
100
AcDbEntity
  8
0
  6
CONTINUOUS
 62
     1
100
AcDbLine
 10
87.731014489
 20
120.8278528439999
 30
0.0
 11
87.62966852099999
 21
120.740984872
 31
0.0
  0
LINE
  5
310
330
1F
100
AcDbEntity
  8
0
  6
CONTINUOUS
 62
     1
100
AcDbLine
 10
86.04297070799998
 20
114.1136824589999
 30
0.0
 11
86.91707968299998
 21
120.0930945759999
 31
0.0
  0
LINE
  5
311
330
1F
100
AcDbEntity
  8
0
  6
CONTINUOUS
 62
     1
100
AcDbLine
 10
88.64312820200001
 20
119.409009291
 30
0.0
 11
93.40638870200002
 21
119.409009291
 31
0.0
  0
LINE
  5
312
330
1F
100
AcDbEntity
  8
0
  6
CONTINUOUS
 62
     1
100
AcDbLine
 10
93.35254865600001
 20
118.8769429589999
 30
0.0
 11
92.70646811
 21
114.7217582679999
 31
0.0
  0
LINE
  5
313
330
1F
100
AcDbEntity
  8
0
  6
CONTINUOUS
 62
     1
100
AcDbLine
 10
94.825232255
 20
120.538292936
 30
0.0
 11
95.027924191
 21
120.4224689719999
 31
0.0
  0
LINE
  5
314
330
1F
100
AcDbEntity
  8
0
  6
CONTINUOUS
 62
     1
100
AcDbLine
 10
94.318502414
 20
120.8278528439999
 30
0.0
 11
94.41984838200001
 21
120.7699408629999
 31
0.0
  0
LINE
  5
315
330
1F
100
AcDbEntity
  8
0
  6
CONTINUOUS
 62
     1
100
AcDbLine
 10
87.832360457
 20
120.929198812
 30
0.0
 11
94.217156446
 21
120.929198812
 31
0.0
  0
LINE
  5
316
330
1F
100
AcDbEntity
  8
0
  6
CONTINUOUS
 62
     1
100
AcDbLine
 10
95.062761867
 20
120.3971324799999
 30
0.0
 11
94.099975171
 21
113.708298587
 31
0.0
  0
POINT
  5
317
330
1F
100
AcDbEntity
  8
0
  6
CONTINUOUS
 62
     1
100
AcDbPoint
 10
86.514862872
 20
106.7407632809999
 30
0.0
  0
LINE
  5
318
330
1F
100
AcDbEntity
  8
0
  6
CONTINUOUS
 62
     1
100
AcDbLine
 10
91.784853212
 20
108.463644739
 30
0.0
 11
92.899658861
 21
107.3488390899999
 31
0.0
  0
LINE
  5
319
330
1F
100
AcDbEntity
  8
0
  6
CONTINUOUS
 62
     1
100
AcDbLine
 10
91.58216127600001
 20
108.260952802
 30
0.0
 11
92.696966925
 21
107.1461471539999
 31
0.0
  0
LINE
  5
31A
330
1F
100
AcDbEntity
  8
0
  6
CONTINUOUS
 62
     1
100
AcDbLine
 10
86.71755480799999
 20
108.463644739
 30
0.0
 11
85.29871125499999
 21
107.4501850579999
 31
0.0
  0
LINE
  5
31B
330
1F
100
AcDbEntity
  8
0
  6
CONTINUOUS
 62
     1
100
AcDbLine
 10
85.501403191
 20
107.247493122
 30
0.0
 11
86.71755480799999
 21
108.159606834
 31
0.0
  0
LINE
  5
31C
330
1F
100
AcDbEntity
  8
0
  6
CONTINUOUS
 62
     1
100
AcDbLine
 10
85.108687565
 20
107.6528769939999
 30
0.0
 11
86.008133032
 21
113.834981047
 31
0.0
  0
LINE
  5
31D
330
1F
100
AcDbEntity
  8
0
  6
CONTINUOUS
 62
     1
100
AcDbLine
 10
85.433839213
 20
107.1461471539999
 30
0.0
 11
85.704095128
 21
106.7407632809999
 31
0.0
  0
LINE
  5
31E
330
1F
100
AcDbEntity
  8
0
  6
CONTINUOUS
 62
     1
100
AcDbLine
 10
85.09601931899998
 20
107.6528769939999
 30
0.0
 11
85.29871125499999
 21
107.3488390899999
 31
0.0
  0
LINE
  5
31F
330
1F
100
AcDbEntity
  8
0
  6
CONTINUOUS
 62
     1
100
AcDbLine
 10
91.58216127600001
 20
108.260952802
 30
0.0
 11
86.71755480799999
 21
108.260952802
 31
0.0
  0
LINE
  5
320
330
1F
100
AcDbEntity
  8
0
  6
CONTINUOUS
 62
     1
100
AcDbLine
 10
92.899658861
 20
107.2925357739999
 30
0.0
 11
93.10235079700001
 21
107.4501850579999
 31
0.0
  0
LINE
  5
321
330
1F
100
AcDbEntity
  8
0
  6
CONTINUOUS
 62
     1
100
AcDbLine
 10
92.190237085
 20
106.7407632809999
 30
0.0
 11
92.696966925
 21
107.13488649
 31
0.0
  0
LINE
  5
322
330
1F
100
AcDbEntity
  8
0
  6
CONTINUOUS
 62
     1
100
AcDbLine
 10
92.190237085
 20
106.7407632809999
 30
0.0
 11
85.60274916
 21
106.7407632809999
 31
0.0
  0
LINE
  5
323
330
1F
100
AcDbEntity
  8
0
  6
CONTINUOUS
 62
     1
100
AcDbLine
 10
94.023965695
 20
113.1002227779999
 30
0.0
 11
93.18786145799999
 21
107.424848566
 31
0.0
  0
LINE
  5
324
330
1F
100
AcDbEntity
  8
0
  6
CONTINUOUS
 62
     1
100
AcDbLine
 10
86.768227792
 20
108.5143177229997
 30
0.0
 11
87.27495763299999
 21
112.568156446
 31
0.0
  0
LINE
  5
325
330
1F
100
AcDbEntity
  8
0
  6
CONTINUOUS
 62
     1
100
AcDbLine
 10
91.835526196
 20
108.5143177229997
 30
0.0
 11
92.34225603700003
 21
112.568156446
 31
0.0
  0
LINE
  5
326
330
1F
100
AcDbEntity
  8
0
  6
CONTINUOUS
 62
     3
100
AcDbLine
 10
81.95999999899999
 20
122.624999999
 30
0.0
 11
134.9599999989999
 21
122.624999999
 31
0.0
  0
LINE
  5
327
330
1F
100
AcDbEntity
  8
0
  6
CONTINUOUS
 62
     3
100
AcDbLine
 10
134.9599999989999
 20
122.624999999
 30
0.0
 11
134.9599999989999
 21
105.124999999
 31
0.0
  0
LINE
  5
328
330
1F
100
AcDbEntity
  8
0
  6
CONTINUOUS
 62
     3
100
AcDbLine
 10
134.9599999989999
 20
105.124999999
 30
0.0
 11
81.95999999899999
 21
105.124999999
 31
0.0
  0
LINE
  5
329
330
1F
100
AcDbEntity
  8
0
  6
CONTINUOUS
 62
     3
100
AcDbLine
 10
81.95999999899999
 20
105.124999999
 30
0.0
 11
81.95999999899999
 21
122.624999999
 31
0.0
  0
LINE
  5
32A
330
1F
100
AcDbEntity
  8
0
  6
CONTINUOUS
 62
     4
100
AcDbLine
 10
154.259999999
 20
182.374999999
 30
0.0
 11
152.3281483469999
 21
182.8926380889998
 31
0.0
  0
LINE
  5
32B
330
1F
100
AcDbEntity
  8
0
  6
CONTINUOUS
 62
     4
100
AcDbLine
 10
154.259999999
 20
182.374999999
 30
0.0
 11
152.3281483469999
 21
181.857361909
 31
0.0
  0
LINE
  5
32C
330
1F
100
AcDbEntity
  8
0
  6
CONTINUOUS
 62
     4
100
AcDbLine
 10
154.259999999
 20
171.3749999989999
 30
0.0
 11
154.259999999
 21
183.374999999
 31
0.0
  0
LINE
  5
32D
330
1F
100
AcDbEntity
  8
0
  6
CONTINUOUS
 62
     4
100
AcDbLine
 10
62.659999999
 20
182.374999999
 30
0.0
 11
64.591851652
 21
181.857361909
 31
0.0
  0
LINE
  5
32E
330
1F
100
AcDbEntity
  8
0
  6
CONTINUOUS
 62
     4
100
AcDbLine
 10
62.659999999
 20
182.374999999
 30
0.0
 11
64.591851652
 21
182.8926380889998
 31
0.0
  0
LINE
  5
32F
330
1F
100
AcDbEntity
  8
0
  6
CONTINUOUS
 62
     4
100
AcDbLine
 10
62.659999999
 20
171.3749999989999
 30
0.0
 11
62.659999999
 21
183.374999999
 31
0.0
  0
LINE
  5
330
330
1F
100
AcDbEntity
  8
0
  6
CONTINUOUS
 62
     4
100
AcDbLine
 10
62.659999999
 20
182.374999999
 30
0.0
 11
154.259999999
 21
182.374999999
 31
0.0
  0
LINE
  5
331
330
1F
100
AcDbEntity
  8
0
  6
CONTINUOUS
 62
     4
100
AcDbLine
 10
145.724745962
 20
163.3749999989998
 30
0.0
 11
143.792894309
 21
163.892638089
 31
0.0
  0
LINE
  5
332
330
1F
100
AcDbEntity
  8
0
  6
CONTINUOUS
 62
     4
100
AcDbLine
 10
145.724745962
 20
163.3749999989998
 30
0.0
 11
143.792894309
 21
162.8573619089999
 31
0.0
  0
LINE
  5
333
330
1F
100
AcDbEntity
  8
0
  6
CONTINUOUS
 62
     4
100
AcDbLine
 10
154.3849999989998
 20
158.3749999989999
 30
0.0
 11
144.8587205579999
 21
163.8749999989999
 31
0.0
  0
LINE
  5
334
330
1F
100
AcDbEntity
  8
0
  6
CONTINUOUS
 62
     4
100
AcDbLine
 10
53.874745962
 20
163.3749999989998
 30
0.0
 11
55.80659761399999
 21
162.8573619089999
 31
0.0
  0
LINE
  5
335
330
1F
100
AcDbEntity
  8
0
  6
CONTINUOUS
 62
     4
100
AcDbLine
 10
53.874745962
 20
163.3749999989998
 30
0.0
 11
55.80659761399999
 21
163.892638089
 31
0.0
  0
LINE
  5
336
330
1F
100
AcDbEntity
  8
0
  6
CONTINUOUS
 62
     4
100
AcDbLine
 10
62.53499999899999
 20
158.3749999989999
 30
0.0
 11
53.008720558
 21
163.8749999989999
 31
0.0
  0
LINE
  5
337
330
1F
100
AcDbEntity
  8
0
  6
CONTINUOUS
 62
     4
100
AcDbLine
 10
145.724745962
 20
163.3749999989998
 30
0.0
 11
53.874745962
 21
163.3749999989998
 31
0.0
  0
LINE
  5
349
330
1F
100
AcDbEntity
  8
0
  6
CONTINUOUS
 62
     4
100
AcDbLine
 10
174.459999999
 20
89.874999999
 30
0.0
 11
174.97763809
 21
91.806851652
 31
0.0
  0
LINE
  5
34A
330
1F
100
AcDbEntity
  8
0
  6
CONTINUOUS
 62
     4
100
AcDbLine
 10
174.459999999
 20
89.874999999
 30
0.0
 11
173.942361909
 21
91.806851652
 31
0.0
  0
LINE
  5
34B
330
1F
100
AcDbEntity
  8
0
  6
CONTINUOUS
 62
     4
100
AcDbLine
 10
157.459999999
 20
89.874999999
 30
0.0
 11
175.459999999
 21
89.874999999
 31
0.0
  0
LINE
  5
34C
330
1F
100
AcDbEntity
  8
0
  6
CONTINUOUS
 62
     4
100
AcDbLine
 10
174.459999999
 20
137.8749999989999
 30
0.0
 11
173.942361909
 21
135.943148346
 31
0.0
  0
LINE
  5
34D
330
1F
100
AcDbEntity
  8
0
  6
CONTINUOUS
 62
     4
100
AcDbLine
 10
174.459999999
 20
137.8749999989999
 30
0.0
 11
174.97763809
 21
135.943148346
 31
0.0
  0
LINE
  5
34E
330
1F
100
AcDbEntity
  8
0
  6
CONTINUOUS
 62
     4
100
AcDbLine
 10
157.459999999
 20
137.8749999989999
 30
0.0
 11
175.459999999
 21
137.8749999989999
 31
0.0
  0
LINE
  5
34F
330
1F
100
AcDbEntity
  8
0
  6
CONTINUOUS
 62
     4
100
AcDbLine
 10
174.459999999
 20
137.8749999989999
 30
0.0
 11
174.459999999
 21
89.874999999
 31
0.0
  0
LINE
  5
350
330
1F
100
AcDbEntity
  8
0
  6
CONTINUOUS
 62
     4
100
AcDbLine
 10
156.4599999989999
 20
81.87499999899998
 30
0.0
 11
154.528148347
 21
82.392638089
 31
0.0
  0
LINE
  5
351
330
1F
100
AcDbEntity
  8
0
  6
CONTINUOUS
 62
     4
100
AcDbLine
 10
156.4599999989999
 20
81.87499999899998
 30
0.0
 11
154.528148347
 21
81.35736190899999
 31
0.0
  0
LINE
  5
352
330
1F
100
AcDbEntity
  8
0
  6
CONTINUOUS
 62
     4
100
AcDbLine
 10
156.4599999989999
 20
88.874999999
 30
0.0
 11
156.4599999989999
 21
80.874999999
 31
0.0
  0
LINE
  5
353
330
1F
100
AcDbEntity
  8
0
  6
CONTINUOUS
 62
     4
100
AcDbLine
 10
60.459999999
 20
81.87499999899998
 30
0.0
 11
62.391851652
 21
81.35736190899999
 31
0.0
  0
LINE
  5
354
330
1F
100
AcDbEntity
  8
0
  6
CONTINUOUS
 62
     4
100
AcDbLine
 10
60.459999999
 20
81.87499999899998
 30
0.0
 11
62.391851652
 21
82.392638089
 31
0.0
  0
LINE
  5
355
330
1F
100
AcDbEntity
  8
0
  6
CONTINUOUS
 62
     4
100
AcDbLine
 10
60.459999999
 20
88.874999999
 30
0.0
 11
60.459999999
 21
80.874999999
 31
0.0
  0
LINE
  5
356
330
1F
100
AcDbEntity
  8
0
  6
CONTINUOUS
 62
     4
100
AcDbLine
 10
60.459999999
 20
81.87499999899998
 30
0.0
 11
156.4599999989999
 21
81.87499999899998
 31
0.0
  0
LINE
  5
358
330
1F
100
AcDbEntity
  8
0
  6
CONTINUOUS
 62
     1
100
AcDbLine
 10
84.80999999899998
 20
170.3749999989998
 30
0.0
 11
84.80999999899998
 21
171.2749999989999
 31
0.0
  0
ARC
  5
359
330
1F
100
AcDbEntity
  8
0
  6
CONTINUOUS
 62
     1
100
AcDbCircle
 10
85.109999999
 20
171.2749999989999
 30
0.0
 40
0.3
100
AcDbArc
 50
90.0
 51
180.0
  0
ARC
  5
35A
330
1F
100
AcDbEntity
  8
0
  6
CONTINUOUS
 62
     1
100
AcDbCircle
 10
86.15999999899996
 20
173.724999999
 30
0.0
 40
0.5
100
AcDbArc
 50
90.0
 51
180.0
  0
LINE
  5
35B
330
1F
100
AcDbEntity
  8
0
  6
CONTINUOUS
 62
     1
100
AcDbLine
 10
86.15999999899996
 20
174.224999999
 30
0.0
 11
90.959999999
 21
174.224999999
 31
0.0
  0
LINE
  5
35C
330
1F
100
AcDbEntity
  8
0
  6
CONTINUOUS
 62
     1
100
AcDbLine
 10
85.65999999899998
 20
171.974999999
 30
0.0
 11
85.65999999899998
 21
173.724999999
 31
0.0
  0
ARC
  5
35D
330
1F
100
AcDbEntity
  8
0
  6
CONTINUOUS
 62
     1
100
AcDbCircle
 10
85.959999999
 20
171.974999999
 30
0.0
 40
0.3
100
AcDbArc
 50
180.0
 51
270.0
  0
ARC
  5
35E
330
1F
100
AcDbEntity
  8
0
  6
CONTINUOUS
 62
     1
100
AcDbCircle
 10
92.009999999
 20
171.2749999989999
 30
0.0
 40
0.3
100
AcDbArc
 50
0.0
 51
90.0
  0
ARC
  5
35F
330
1F
100
AcDbEntity
  8
0
  6
CONTINUOUS
 62
     1
100
AcDbCircle
 10
90.959999999
 20
173.724999999
 30
0.0
 40
0.5
100
AcDbArc
 50
0.0
 51
90.0
  0
LINE
  5
360
330
1F
100
AcDbEntity
  8
0
  6
CONTINUOUS
 62
     1
100
AcDbLine
 10
91.45999999899999
 20
173.724999999
 30
0.0
 11
91.45999999899999
 21
171.974999999
 31
0.0
  0
ARC
  5
361
330
1F
100
AcDbEntity
  8
0
  6
CONTINUOUS
 62
     1
100
AcDbCircle
 10
91.159999999
 20
171.974999999
 30
0.0
 40
0.3
100
AcDbArc
 50
270.0
 51
0.0
  0
LINE
  5
362
330
1F
100
AcDbEntity
  8
0
  6
CONTINUOUS
 62
     1
100
AcDbLine
 10
85.109999999
 20
171.574999999
 30
0.0
 11
92.009999999
 21
171.574999999
 31
0.0
  0
LINE
  5
363
330
1F
100
AcDbEntity
  8
0
  6
CONTINUOUS
 62
     1
100
AcDbLine
 10
91.159999999
 20
171.674999999
 30
0.0
 11
85.959999999
 21
171.674999999
 31
0.0
  0
LINE
  5
364
330
1F
100
AcDbEntity
  8
0
  6
CONTINUOUS
 62
     1
100
AcDbLine
 10
92.30999999899998
 20
171.2749999989999
 30
0.0
 11
92.30999999899998
 21
170.3749999989998
 31
0.0
  0
LINE
  5
365
330
1F
100
AcDbEntity
  8
0
  6
CONTINUOUS
 62
     1
100
AcDbLine
 10
95.309999999
 20
170.3749999989998
 30
0.0
 11
95.309999999
 21
171.2749999989999
 31
0.0
  0
ARC
  5
366
330
1F
100
AcDbEntity
  8
0
  6
CONTINUOUS
 62
     1
100
AcDbCircle
 10
95.609999999
 20
171.2749999989999
 30
0.0
 40
0.3
100
AcDbArc
 50
90.0
 51
180.0
  0
ARC
  5
367
330
1F
100
AcDbEntity
  8
0
  6
CONTINUOUS
 62
     1
100
AcDbCircle
 10
96.659999999
 20
173.724999999
 30
0.0
 40
0.5
100
AcDbArc
 50
90.0
 51
180.0
  0
LINE
  5
368
330
1F
100
AcDbEntity
  8
0
  6
CONTINUOUS
 62
     1
100
AcDbLine
 10
96.659999999
 20
174.224999999
 30
0.0
 11
101.4599999989999
 21
174.224999999
 31
0.0
  0
LINE
  5
369
330
1F
100
AcDbEntity
  8
0
  6
CONTINUOUS
 62
     1
100
AcDbLine
 10
96.159999999
 20
171.974999999
 30
0.0
 11
96.159999999
 21
173.724999999
 31
0.0
  0
ARC
  5
36A
330
1F
100
AcDbEntity
  8
0
  6
CONTINUOUS
 62
     1
100
AcDbCircle
 10
96.45999999899999
 20
171.974999999
 30
0.0
 40
0.3
100
AcDbArc
 50
180.0
 51
270.0
  0
ARC
  5
36B
330
1F
100
AcDbEntity
  8
0
  6
CONTINUOUS
 62
     1
100
AcDbCircle
 10
102.509999999
 20
171.2749999989999
 30
0.0
 40
0.3
100
AcDbArc
 50
0.0
 51
90.0
  0
ARC
  5
36C
330
1F
100
AcDbEntity
  8
0
  6
CONTINUOUS
 62
     1
100
AcDbCircle
 10
101.4599999989999
 20
173.724999999
 30
0.0
 40
0.5
100
AcDbArc
 50
0.0
 51
90.0
  0
LINE
  5
36D
330
1F
100
AcDbEntity
  8
0
  6
CONTINUOUS
 62
     1
100
AcDbLine
 10
101.9599999989999
 20
173.724999999
 30
0.0
 11
101.9599999989999
 21
171.974999999
 31
0.0
  0
ARC
  5
36E
330
1F
100
AcDbEntity
  8
0
  6
CONTINUOUS
 62
     1
100
AcDbCircle
 10
101.6599999989999
 20
171.974999999
 30
0.0
 40
0.3
100
AcDbArc
 50
270.0
 51
0.0
  0
LINE
  5
36F
330
1F
100
AcDbEntity
  8
0
  6
CONTINUOUS
 62
     1
100
AcDbLine
 10
95.609999999
 20
171.574999999
 30
0.0
 11
102.509999999
 21
171.574999999
 31
0.0
  0
LINE
  5
370
330
1F
100
AcDbEntity
  8
0
  6
CONTINUOUS
 62
     1
100
AcDbLine
 10
101.6599999989999
 20
171.674999999
 30
0.0
 11
96.45999999899999
 21
171.674999999
 31
0.0
  0
LINE
  5
371
330
1F
100
AcDbEntity
  8
0
  6
CONTINUOUS
 62
     1
100
AcDbLine
 10
102.809999999
 20
171.2749999989999
 30
0.0
 11
102.809999999
 21
170.3749999989998
 31
0.0
  0
ARC
  5
372
330
1F
100
AcDbEntity
  8
0
  6
CONTINUOUS
 62
     1
100
AcDbCircle
 10
124.109999999
 20
173.724999999
 30
0.0
 40
0.5
100
AcDbArc
 50
90.0
 51
180.0
  0
LINE
  5
373
330
1F
100
AcDbEntity
  8
0
  6
CONTINUOUS
 62
     1
100
AcDbLine
 10
124.109999999
 20
174.224999999
 30
0.0
 11
128.909999999
 21
174.224999999
 31
0.0
  0
LINE
  5
374
330
1F
100
AcDbEntity
  8
0
  6
CONTINUOUS
 62
     1
100
AcDbLine
 10
123.6099999989999
 20
171.974999999
 30
0.0
 11
123.6099999989999
 21
173.724999999
 31
0.0
  0
ARC
  5
375
330
1F
100
AcDbEntity
  8
0
  6
CONTINUOUS
 62
     1
100
AcDbCircle
 10
123.9099999989999
 20
171.974999999
 30
0.0
 40
0.3
100
AcDbArc
 50
180.0
 51
270.0
  0
ARC
  5
376
330
1F
100
AcDbEntity
  8
0
  6
CONTINUOUS
 62
     1
100
AcDbCircle
 10
128.909999999
 20
173.724999999
 30
0.0
 40
0.5
100
AcDbArc
 50
0.0
 51
90.0
  0
LINE
  5
377
330
1F
100
AcDbEntity
  8
0
  6
CONTINUOUS
 62
     1
100
AcDbLine
 10
129.409999999
 20
173.724999999
 30
0.0
 11
129.409999999
 21
171.974999999
 31
0.0
  0
ARC
  5
378
330
1F
100
AcDbEntity
  8
0
  6
CONTINUOUS
 62
     1
100
AcDbCircle
 10
129.1099999989999
 20
171.974999999
 30
0.0
 40
0.3
100
AcDbArc
 50
270.0
 51
0.0
  0
LINE
  5
379
330
1F
100
AcDbEntity
  8
0
  6
CONTINUOUS
 62
     1
100
AcDbLine
 10
129.1099999989999
 20
171.674999999
 30
0.0
 11
123.9099999989999
 21
171.674999999
 31
0.0
  0
ARC
  5
37A
330
1F
100
AcDbEntity
  8
0
  6
CONTINUOUS
 62
     1
100
AcDbCircle
 10
129.159999999
 20
171.2749999989999
 30
0.0
 40
0.3
100
AcDbArc
 50
0.0
 51
90.0
  0
LINE
  5
37B
330
1F
100
AcDbEntity
  8
0
  6
CONTINUOUS
 62
     1
100
AcDbLine
 10
129.4599999989999
 20
171.2749999989999
 30
0.0
 11
129.4599999989999
 21
170.3749999989998
 31
0.0
  0
LINE
  5
37C
330
1F
100
AcDbEntity
  8
0
  6
CONTINUOUS
 62
     1
100
AcDbLine
 10
123.4599999989999
 20
170.3749999989998
 30
0.0
 11
123.4599999989999
 21
171.2749999989999
 31
0.0
  0
ARC
  5
37D
330
1F
100
AcDbEntity
  8
0
  6
CONTINUOUS
 62
     1
100
AcDbCircle
 10
123.759999999
 20
171.2749999989999
 30
0.0
 40
0.3
100
AcDbArc
 50
90.0
 51
180.0
  0
LINE
  5
37E
330
1F
100
AcDbEntity
  8
0
  6
CONTINUOUS
 62
     1
100
AcDbLine
 10
123.760001907
 20
171.574999999
 30
0.0
 11
129.1100019069999
 21
171.574999999
 31
0.0
  0
ARC
  5
37F
330
1F
100
AcDbEntity
  8
0
  6
CONTINUOUS
 62
     1
100
AcDbCircle
 10
115.6099999989999
 20
173.724999999
 30
0.0
 40
0.5
100
AcDbArc
 50
90.0
 51
180.0
  0
LINE
  5
380
330
1F
100
AcDbEntity
  8
0
  6
CONTINUOUS
 62
     1
100
AcDbLine
 10
115.6099999989999
 20
174.224999999
 30
0.0
 11
120.4099999989999
 21
174.224999999
 31
0.0
  0
LINE
  5
381
330
1F
100
AcDbEntity
  8
0
  6
CONTINUOUS
 62
     1
100
AcDbLine
 10
115.109999999
 20
171.974999999
 30
0.0
 11
115.109999999
 21
173.724999999
 31
0.0
  0
ARC
  5
382
330
1F
100
AcDbEntity
  8
0
  6
CONTINUOUS
 62
     1
100
AcDbCircle
 10
115.4099999989999
 20
171.974999999
 30
0.0
 40
0.3
100
AcDbArc
 50
180.0
 51
270.0
  0
ARC
  5
383
330
1F
100
AcDbEntity
  8
0
  6
CONTINUOUS
 62
     1
100
AcDbCircle
 10
120.4099999989999
 20
173.724999999
 30
0.0
 40
0.5
100
AcDbArc
 50
0.0
 51
90.0
  0
LINE
  5
384
330
1F
100
AcDbEntity
  8
0
  6
CONTINUOUS
 62
     1
100
AcDbLine
 10
120.909999999
 20
173.724999999
 30
0.0
 11
120.909999999
 21
171.974999999
 31
0.0
  0
ARC
  5
385
330
1F
100
AcDbEntity
  8
0
  6
CONTINUOUS
 62
     1
100
AcDbCircle
 10
120.6099999989999
 20
171.974999999
 30
0.0
 40
0.3
100
AcDbArc
 50
270.0
 51
0.0
  0
LINE
  5
386
330
1F
100
AcDbEntity
  8
0
  6
CONTINUOUS
 62
     1
100
AcDbLine
 10
120.6099999989999
 20
171.674999999
 30
0.0
 11
115.4099999989999
 21
171.674999999
 31
0.0
  0
ARC
  5
387
330
1F
100
AcDbEntity
  8
0
  6
CONTINUOUS
 62
     1
100
AcDbCircle
 10
120.6599999989999
 20
171.2749999989999
 30
0.0
 40
0.3
100
AcDbArc
 50
0.0
 51
90.0
  0
LINE
  5
388
330
1F
100
AcDbEntity
  8
0
  6
CONTINUOUS
 62
     1
100
AcDbLine
 10
120.959999999
 20
171.2749999989999
 30
0.0
 11
120.959999999
 21
170.3749999989998
 31
0.0
  0
LINE
  5
389
330
1F
100
AcDbEntity
  8
0
  6
CONTINUOUS
 62
     1
100
AcDbLine
 10
114.9599999989999
 20
170.3749999989998
 30
0.0
 11
114.9599999989999
 21
171.2749999989999
 31
0.0
  0
ARC
  5
38A
330
1F
100
AcDbEntity
  8
0
  6
CONTINUOUS
 62
     1
100
AcDbCircle
 10
115.259999999
 20
171.2749999989999
 30
0.0
 40
0.3
100
AcDbArc
 50
90.0
 51
180.0
  0
LINE
  5
38B
330
1F
100
AcDbEntity
  8
0
  6
CONTINUOUS
 62
     1
100
AcDbLine
 10
115.260001907
 20
171.574999999
 30
0.0
 11
120.610001907
 21
171.574999999
 31
0.0
  0
ARC
  5
38C
330
1F
100
AcDbEntity
  8
0
  6
CONTINUOUS
 62
     1
100
AcDbCircle
 10
107.1099999989999
 20
173.724999999
 30
0.0
 40
0.5
100
AcDbArc
 50
90.0
 51
180.0
  0
LINE
  5
38D
330
1F
100
AcDbEntity
  8
0
  6
CONTINUOUS
 62
     1
100
AcDbLine
 10
107.1099999989999
 20
174.224999999
 30
0.0
 11
111.9099999989999
 21
174.224999999
 31
0.0
  0
LINE
  5
38E
330
1F
100
AcDbEntity
  8
0
  6
CONTINUOUS
 62
     1
100
AcDbLine
 10
106.609999999
 20
171.974999999
 30
0.0
 11
106.609999999
 21
173.724999999
 31
0.0
  0
ARC
  5
38F
330
1F
100
AcDbEntity
  8
0
  6
CONTINUOUS
 62
     1
100
AcDbCircle
 10
106.9099999989999
 20
171.974999999
 30
0.0
 40
0.3
100
AcDbArc
 50
180.0
 51
270.0
  0
ARC
  5
390
330
1F
100
AcDbEntity
  8
0
  6
CONTINUOUS
 62
     1
100
AcDbCircle
 10
111.9099999989999
 20
173.724999999
 30
0.0
 40
0.5
100
AcDbArc
 50
0.0
 51
90.0
  0
LINE
  5
391
330
1F
100
AcDbEntity
  8
0
  6
CONTINUOUS
 62
     1
100
AcDbLine
 10
112.4099999989999
 20
173.724999999
 30
0.0
 11
112.4099999989999
 21
171.974999999
 31
0.0
  0
ARC
  5
392
330
1F
100
AcDbEntity
  8
0
  6
CONTINUOUS
 62
     1
100
AcDbCircle
 10
112.1099999989999
 20
171.974999999
 30
0.0
 40
0.3
100
AcDbArc
 50
270.0
 51
0.0
  0
LINE
  5
393
330
1F
100
AcDbEntity
  8
0
  6
CONTINUOUS
 62
     1
100
AcDbLine
 10
112.1099999989999
 20
171.674999999
 30
0.0
 11
106.9099999989999
 21
171.674999999
 31
0.0
  0
ARC
  5
394
330
1F
100
AcDbEntity
  8
0
  6
CONTINUOUS
 62
     1
100
AcDbCircle
 10
112.1599999989999
 20
171.2749999989999
 30
0.0
 40
0.3
100
AcDbArc
 50
0.0
 51
90.0
  0
LINE
  5
395
330
1F
100
AcDbEntity
  8
0
  6
CONTINUOUS
 62
     1
100
AcDbLine
 10
112.4599999989999
 20
171.2749999989999
 30
0.0
 11
112.4599999989999
 21
170.3749999989998
 31
0.0
  0
LINE
  5
396
330
1F
100
AcDbEntity
  8
0
  6
CONTINUOUS
 62
     1
100
AcDbLine
 10
106.4599999989999
 20
170.3749999989998
 30
0.0
 11
106.4599999989999
 21
171.2749999989999
 31
0.0
  0
ARC
  5
397
330
1F
100
AcDbEntity
  8
0
  6
CONTINUOUS
 62
     1
100
AcDbCircle
 10
106.759999999
 20
171.2749999989999
 30
0.0
 40
0.3
100
AcDbArc
 50
90.0
 51
180.0
  0
LINE
  5
398
330
1F
100
AcDbEntity
  8
0
  6
CONTINUOUS
 62
     1
100
AcDbLine
 10
106.760001907
 20
171.574999999
 30
0.0
 11
112.110001907
 21
171.574999999
 31
0.0
  0
TEXT
  5
399
330
1F
100
AcDbEntity
  8
0
  6
CONTINUOUS
 62
     1
100
AcDbText
 10
136.3599999989999
 20
104.6249999989999
 30
0.0
 40
6.0
  1
℃
 41
0.95
  7
KANJI5
100
AcDbText
  0
TEXT
  5
39D
330
1F
100
AcDbEntity
  8
0
  6
CONTINUOUS
 62
     4
100
AcDbText
 10
173.459999999
 20
115.174999999
 30
0.0
 40
2.5
  1
４８
 50
90.0
 41
0.8
  7
KANJI4
100
AcDbText
  0
TEXT
  5
39E
330
1F
100
AcDbEntity
  8
0
  6
CONTINUOUS
 62
     4
100
AcDbText
 10
109.759999999
 20
82.87499999899997
 30
0.0
 40
2.5
  1
９６
 41
0.8
  7
KANJI4
100
AcDbText
  0
LINE
  5
3A1
330
1F
100
AcDbEntity
  8
0
  6
CONTINUOUS
 62
     1
100
AcDbLine
 10
209.66
 20
91.52499999899999
 30
0.0
 11
197.46
 21
91.44999999899998
 31
0.0
  0
LINE
  5
3A2
330
1F
100
AcDbEntity
  8
0
  6
CONTINUOUS
 62
     1
100
AcDbLine
 10
209.66
 20
136.224999999
 30
0.0
 11
197.46
 21
136.2999999989999
 31
0.0
  0
LINE
  5
3A3
330
1F
100
AcDbEntity
  8
0
  6
CONTINUOUS
 62
     1
100
AcDbLine
 10
209.66
 20
91.52499999899999
 30
0.0
 11
209.66
 21
136.224999999
 31
0.0
  0
LINE
  5
3A4
330
1F
100
AcDbEntity
  8
0
  6
CONTINUOUS
 62
     1
100
AcDbLine
 10
197.959999999
 20
119.8749999989999
 30
0.0
 11
197.959999999
 21
107.874999999
 31
0.0
  0
LINE
  5
3A5
330
1F
100
AcDbEntity
  8
0
  6
CONTINUOUS
 62
     1
100
AcDbLine
 10
202.759999999
 20
119.8749999989999
 30
0.0
 11
202.759999999
 21
107.874999999
 31
0.0
  0
LINE
  5
3A6
330
1F
100
AcDbEntity
  8
0
  6
CONTINUOUS
 62
     1
100
AcDbLine
 10
202.259999999
 20
119.8749999989999
 30
0.0
 11
202.259999999
 21
107.874999999
 31
0.0
  0
LINE
  5
3A7
330
1F
100
AcDbEntity
  8
0
  6
CONTINUOUS
 62
     1
100
AcDbLine
 10
201.7599999989998
 20
119.8749999989999
 30
0.0
 11
201.7599999989998
 21
107.874999999
 31
0.0
  0
LINE
  5
3A8
330
1F
100
AcDbEntity
  8
0
  6
CONTINUOUS
 62
     1
100
AcDbLine
 10
201.2599999989999
 20
119.8749999989999
 30
0.0
 11
201.2599999989999
 21
107.874999999
 31
0.0
  0
LINE
  5
3A9
330
1F
100
AcDbEntity
  8
0
  6
CONTINUOUS
 62
     1
100
AcDbLine
 10
200.759999999
 20
119.8749999989999
 30
0.0
 11
200.759999999
 21
107.874999999
 31
0.0
  0
LINE
  5
3AA
330
1F
100
AcDbEntity
  8
0
  6
CONTINUOUS
 62
     1
100
AcDbLine
 10
200.259999999
 20
119.8749999989999
 30
0.0
 11
200.259999999
 21
107.874999999
 31
0.0
  0
LINE
  5
3AB
330
1F
100
AcDbEntity
  8
0
  6
CONTINUOUS
 62
     1
100
AcDbLine
 10
199.759999999
 20
119.8749999989999
 30
0.0
 11
199.759999999
 21
107.874999999
 31
0.0
  0
LINE
  5
3AC
330
1F
100
AcDbEntity
  8
0
  6
CONTINUOUS
 62
     1
100
AcDbLine
 10
199.259999999
 20
119.8749999989999
 30
0.0
 11
199.259999999
 21
107.874999999
 31
0.0
  0
LINE
  5
3AD
330
1F
100
AcDbEntity
  8
0
  6
CONTINUOUS
 62
     1
100
AcDbLine
 10
198.7599999989998
 20
119.8749999989999
 30
0.0
 11
198.7599999989998
 21
107.874999999
 31
0.0
  0
LINE
  5
3AE
330
1F
100
AcDbEntity
  8
0
  6
CONTINUOUS
 62
     1
100
AcDbLine
 10
198.259999999
 20
119.8749999989999
 30
0.0
 11
198.259999999
 21
107.874999999
 31
0.0
  0
LINE
  5
3AF
330
1F
100
AcDbEntity
  8
0
  6
CONTINUOUS
 62
     1
100
AcDbLine
 10
209.16
 20
119.8749999989999
 30
0.0
 11
209.16
 21
107.874999999
 31
0.0
  0
LINE
  5
3B0
330
1F
100
AcDbEntity
  8
0
  6
CONTINUOUS
 62
     1
100
AcDbLine
 10
209.16
 20
119.8749999989999
 30
0.0
 11
197.959999999
 21
119.8749999989999
 31
0.0
  0
LINE
  5
3B1
330
1F
100
AcDbEntity
  8
0
  6
CONTINUOUS
 62
     1
100
AcDbLine
 10
209.16
 20
107.874999999
 30
0.0
 11
197.959999999
 21
107.874999999
 31
0.0
  0
LINE
  5
3B2
330
1F
100
AcDbEntity
  8
0
  6
CONTINUOUS
 62
     1
100
AcDbLine
 10
209.66
 20
106.874999999
 30
0.0
 11
197.459999999
 21
106.874999999
 31
0.0
  0
LINE
  5
3B3
330
1F
100
AcDbEntity
  8
0
  6
CONTINUOUS
 62
     1
100
AcDbLine
 10
209.66
 20
120.8749999989999
 30
0.0
 11
197.459999999
 21
120.8749999989999
 31
0.0
  0
LINE
  5
3B4
330
1F
100
AcDbEntity
  8
0
  6
CONTINUOUS
 62
     1
100
AcDbLine
 10
208.1599999999999
 20
119.8749999989999
 30
0.0
 11
208.1599999999999
 21
120.8749999989999
 31
0.0
  0
LINE
  5
3B5
330
1F
100
AcDbEntity
  8
0
  6
CONTINUOUS
 62
     1
100
AcDbLine
 10
208.1599999999999
 20
106.874999999
 30
0.0
 11
208.1599999999999
 21
107.874999999
 31
0.0
  0
LINE
  5
3B6
330
1F
100
AcDbEntity
  8
0
  6
CONTINUOUS
 62
     1
100
AcDbLine
 10
195.959999999
 20
137.8749999989999
 30
0.0
 11
197.459999999
 21
137.8749999989999
 31
0.0
  0
POINT
  5
3B7
330
1F
100
AcDbEntity
  8
0
  6
CONTINUOUS
 62
     1
100
AcDbPoint
 10
197.459999999
 20
137.8749999989999
 30
0.0
  0
LINE
  5
3B8
330
1F
100
AcDbEntity
  8
0
  6
CONTINUOUS
 62
     1
100
AcDbLine
 10
197.459999999
 20
137.8749999989999
 30
0.0
 11
197.459999999
 21
136.2749999989999
 31
0.0
  0
POINT
  5
3B9
330
1F
100
AcDbEntity
  8
0
  6
CONTINUOUS
 62
     1
100
AcDbPoint
 10
197.459999999
 20
136.2749999989999
 30
0.0
  0
LINE
  5
3BA
330
1F
100
AcDbEntity
  8
0
  6
CONTINUOUS
 62
     1
100
AcDbLine
 10
191.5099999999999
 20
136.1249999989998
 30
0.0
 11
191.1599999999999
 21
136.1249999989998
 31
0.0
  0
LINE
  5
3BB
330
1F
100
AcDbEntity
  8
0
  6
CONTINUOUS
 62
     1
100
AcDbLine
 10
191.5599999999999
 20
137.8749999989999
 30
0.0
 11
195.959999999
 21
137.8749999989999
 31
0.0
  0
LINE
  5
3BC
330
1F
100
AcDbEntity
  8
0
  6
CONTINUOUS
 62
     1
100
AcDbLine
 10
191.1599999999999
 20
137.474999999
 30
0.0
 11
191.1599999999999
 21
136.1249999989998
 31
0.0
  0
LINE
  5
3BD
330
1F
100
AcDbEntity
  8
0
  6
CONTINUOUS
 62
     1
100
AcDbLine
 10
191.5599999999999
 20
137.8749999989999
 30
0.0
 11
191.1599999999999
 21
137.474999999
 31
0.0
  0
LINE
  5
3BE
330
1F
100
AcDbEntity
  8
0
  6
CONTINUOUS
 62
     1
100
AcDbLine
 10
195.96
 20
89.874999999
 30
0.0
 11
197.46
 21
89.874999999
 31
0.0
  0
POINT
  5
3BF
330
1F
100
AcDbEntity
  8
0
  6
CONTINUOUS
 62
     1
100
AcDbPoint
 10
197.46
 20
89.874999999
 30
0.0
  0
LINE
  5
3C0
330
1F
100
AcDbEntity
  8
0
  6
CONTINUOUS
 62
     1
100
AcDbLine
 10
197.46
 20
89.874999999
 30
0.0
 11
197.46
 21
91.47499999899999
 31
0.0
  0
POINT
  5
3C1
330
1F
100
AcDbEntity
  8
0
  6
CONTINUOUS
 62
     1
100
AcDbPoint
 10
197.46
 20
91.47499999899999
 30
0.0
  0
LINE
  5
3C2
330
1F
100
AcDbEntity
  8
0
  6
CONTINUOUS
 62
     1
100
AcDbLine
 10
191.5099999999999
 20
91.624999999
 30
0.0
 11
191.1599999999999
 21
91.624999999
 31
0.0
  0
LINE
  5
3C3
330
1F
100
AcDbEntity
  8
0
  6
CONTINUOUS
 62
     1
100
AcDbLine
 10
191.1599999999999
 20
90.27499999899999
 30
0.0
 11
191.1599999999999
 21
91.624999999
 31
0.0
  0
LINE
  5
3C4
330
1F
100
AcDbEntity
  8
0
  6
CONTINUOUS
 62
     1
100
AcDbLine
 10
191.5599999999999
 20
89.874999999
 30
0.0
 11
195.96
 21
89.874999999
 31
0.0
  0
LINE
  5
3C5
330
1F
100
AcDbEntity
  8
0
  6
CONTINUOUS
 62
     1
100
AcDbLine
 10
191.1599999999999
 20
90.27499999899999
 30
0.0
 11
191.5599999999999
 21
89.874999999
 31
0.0
  0
LINE
  5
3C6
330
1F
100
AcDbEntity
  8
0
  6
CONTINUOUS
 62
     1
100
AcDbLine
 10
191.5099999999999
 20
136.1249999989998
 30
0.0
 11
191.5099999999999
 21
91.624999999
 31
0.0
  0
LINE
  5
3C7
330
1F
100
AcDbEntity
  8
0
  6
CONTINUOUS
 62
     1
100
AcDbLine
 10
196.1599999989998
 20
135.1249999989998
 30
0.0
 11
195.659999999
 21
135.1249999989998
 31
0.0
  0
LINE
  5
3C8
330
1F
100
AcDbEntity
  8
0
  6
CONTINUOUS
 62
     1
100
AcDbLine
 10
196.1599999989998
 20
135.1249999989998
 30
0.0
 11
196.1599999989998
 21
137.8749999989999
 31
0.0
  0
LINE
  5
3C9
330
1F
100
AcDbEntity
  8
0
  6
CONTINUOUS
 62
     1
100
AcDbLine
 10
196.1599999989998
 20
92.624999999
 30
0.0
 11
195.659999999
 21
92.624999999
 31
0.0
  0
LINE
  5
3CA
330
1F
100
AcDbEntity
  8
0
  6
CONTINUOUS
 62
     1
100
AcDbLine
 10
196.1599999989998
 20
92.624999999
 30
0.0
 11
196.1599999989998
 21
89.874999999
 31
0.0
  0
LINE
  5
3CB
330
1F
100
AcDbEntity
  8
0
  6
CONTINUOUS
 62
     1
100
AcDbLine
 10
197.459999999
 20
136.2749999989999
 30
0.0
 11
197.46
 21
89.874999999
 31
0.0
  0
LINE
  5
3CC
330
1F
100
AcDbEntity
  8
0
  6
CONTINUOUS
 62
     1
100
AcDbLine
 10
195.66
 20
92.624999999
 30
0.0
 11
195.659999999
 21
135.1249999989998
 31
0.0
  0
LINE
  5
3CD
330
1F
100
AcDbEntity
  8
0
  6
CONTINUOUS
 62
     1
100
AcDbLine
 10
197.459999999
 20
136.2749999989999
 30
0.0
 11
197.46
 21
89.874999999
 31
0.0
  0
LINE
  5
3CE
330
1F
100
AcDbEntity
  8
0
  6
CONTINUOUS
 62
     4
100
AcDbLine
 10
202.459999999
 20
144.9602540369999
 30
0.0
 11
201.942361909
 21
143.028402384
 31
0.0
  0
LINE
  5
3CF
330
1F
100
AcDbEntity
  8
0
  6
CONTINUOUS
 62
     4
100
AcDbLine
 10
202.459999999
 20
144.9602540369999
 30
0.0
 11
202.977638089
 21
143.028402384
 31
0.0
  0
LINE
  5
3D0
330
1F
100
AcDbEntity
  8
0
  6
CONTINUOUS
 62
     4
100
AcDbLine
 10
197.959999999
 20
137.166025403
 30
0.0
 11
202.959999999
 21
145.82627944
 31
0.0
  0
LINE
  5
3D1
330
1F
100
AcDbEntity
  8
0
  6
CONTINUOUS
 62
     4
100
AcDbLine
 10
197.9599999999999
 20
92.316025403
 30
0.0
 11
202.96
 21
100.97627944
 31
0.0
  0
LINE
  5
3D2
330
1F
100
AcDbEntity
  8
0
  6
CONTINUOUS
 62
     4
100
AcDbLine
 10
202.4599999999999
 20
100.110254037
 30
0.0
 11
202.97763809
 21
102.042105689
 31
0.0
  0
LINE
  5
3D3
330
1F
100
AcDbEntity
  8
0
  6
CONTINUOUS
 62
     4
100
AcDbLine
 10
202.4599999999999
 20
100.110254037
 30
0.0
 11
201.942361909
 21
102.042105689
 31
0.0
  0
LINE
  5
3D4
330
1F
100
AcDbEntity
  8
0
  6
CONTINUOUS
 62
     4
100
AcDbLine
 10
209.66
 20
85.874999999
 30
0.0
 11
207.728148347
 21
86.392638089
 31
0.0
  0
LINE
  5
3D5
330
1F
100
AcDbEntity
  8
0
  6
CONTINUOUS
 62
     4
100
AcDbLine
 10
209.66
 20
85.874999999
 30
0.0
 11
207.728148347
 21
85.35736190899999
 31
0.0
  0
LINE
  5
3D6
330
1F
100
AcDbEntity
  8
0
  6
CONTINUOUS
 62
     4
100
AcDbLine
 10
209.66
 20
90.524999999
 30
0.0
 11
209.66
 21
84.874999999
 31
0.0
  0
LINE
  5
3D7
330
1F
100
AcDbEntity
  8
0
  6
CONTINUOUS
 62
     4
100
AcDbLine
 10
209.66
 20
90.524999999
 30
0.0
 11
209.66
 21
84.874999999
 31
0.0
  0
LINE
  5
3D8
330
1F
100
AcDbEntity
  8
0
  6
CONTINUOUS
 62
     4
100
AcDbLine
 10
213.5099999999999
 20
81.87499999899998
 30
0.0
 11
211.578148347
 21
82.392638089
 31
0.0
  0
LINE
  5
3D9
330
1F
100
AcDbEntity
  8
0
  6
CONTINUOUS
 62
     4
100
AcDbLine
 10
213.5099999999999
 20
81.87499999899998
 30
0.0
 11
211.578148347
 21
81.35736190899999
 31
0.0
  0
LINE
  5
3DA
330
1F
100
AcDbEntity
  8
0
  6
CONTINUOUS
 62
     4
100
AcDbLine
 10
213.5099999999999
 20
100.4750025889999
 30
0.0
 11
213.5099999999999
 21
80.874999999
 31
0.0
  0
LINE
  5
3DB
330
1F
100
AcDbEntity
  8
0
  6
CONTINUOUS
 62
     4
100
AcDbLine
 10
213.5099999999999
 20
100.4750025889999
 30
0.0
 11
213.5099999999999
 21
84.874999999
 31
0.0
  0
LINE
  5
3DC
330
1F
100
AcDbEntity
  8
0
  6
CONTINUOUS
 62
     4
100
AcDbLine
 10
197.46
 20
85.874999999
 30
0.0
 11
195.528148347
 21
86.392638089
 31
0.0
  0
LINE
  5
3DD
330
1F
100
AcDbEntity
  8
0
  6
CONTINUOUS
 62
     4
100
AcDbLine
 10
197.46
 20
85.874999999
 30
0.0
 11
195.528148347
 21
85.35736190899999
 31
0.0
  0
LINE
  5
3DE
330
1F
100
AcDbEntity
  8
0
  6
CONTINUOUS
 62
     4
100
AcDbLine
 10
197.46
 20
85.874999999
 30
0.0
 11
199.391851652
 21
85.35736190899999
 31
0.0
  0
LINE
  5
3DF
330
1F
100
AcDbEntity
  8
0
  6
CONTINUOUS
 62
     4
100
AcDbLine
 10
197.46
 20
85.874999999
 30
0.0
 11
199.391851652
 21
86.392638089
 31
0.0
  0
LINE
  5
3E0
330
1F
100
AcDbEntity
  8
0
  6
CONTINUOUS
 62
     4
100
AcDbLine
 10
191.1599999999999
 20
81.87499999899998
 30
0.0
 11
193.091851652
 21
81.35736190899999
 31
0.0
  0
LINE
  5
3E1
330
1F
100
AcDbEntity
  8
0
  6
CONTINUOUS
 62
     4
100
AcDbLine
 10
191.1599999999999
 20
81.87499999899998
 30
0.0
 11
193.091851652
 21
82.392638089
 31
0.0
  0
LINE
  5
3E2
330
1F
100
AcDbEntity
  8
0
  6
CONTINUOUS
 62
     4
100
AcDbLine
 10
191.1599999999999
 20
85.874999999
 30
0.0
 11
193.091851652
 21
85.35736190899999
 31
0.0
  0
LINE
  5
3E3
330
1F
100
AcDbEntity
  8
0
  6
CONTINUOUS
 62
     4
100
AcDbLine
 10
191.1599999999999
 20
85.874999999
 30
0.0
 11
193.091851652
 21
86.392638089
 31
0.0
  0
LINE
  5
3E4
330
1F
100
AcDbEntity
  8
0
  6
CONTINUOUS
 62
     4
100
AcDbLine
 10
191.1599999999999
 20
89.274999999
 30
0.0
 11
191.1599999999999
 21
80.874999999
 31
0.0
  0
LINE
  5
3E5
330
1F
100
AcDbEntity
  8
0
  6
CONTINUOUS
 62
     4
100
AcDbLine
 10
191.1599999999999
 20
88.874999999
 30
0.0
 11
191.1599999999999
 21
84.874999999
 31
0.0
  0
LINE
  5
3E6
330
1F
100
AcDbEntity
  8
0
  6
CONTINUOUS
 62
     4
100
AcDbLine
 10
191.1599999999999
 20
85.874999999
 30
0.0
 11
197.46
 21
85.874999999
 31
0.0
  0
LINE
  5
3E7
330
1F
100
AcDbEntity
  8
0
  6
CONTINUOUS
 62
     1
100
AcDbLine
 10
209.66
 20
104.1749999989999
 30
0.0
 11
210.5599999999999
 21
104.1749999989999
 31
0.0
  0
ARC
  5
3E8
330
1F
100
AcDbEntity
  8
0
  6
CONTINUOUS
 62
     1
100
AcDbCircle
 10
210.5599999999999
 20
103.874999999
 30
0.0
 40
0.3
100
AcDbArc
 50
0.0
 51
90.0
  0
ARC
  5
3E9
330
1F
100
AcDbEntity
  8
0
  6
CONTINUOUS
 62
     1
100
AcDbCircle
 10
213.01
 20
102.824999999
 30
0.0
 40
0.5
100
AcDbArc
 50
0.0
 51
90.0
  0
LINE
  5
3EA
330
1F
100
AcDbEntity
  8
0
  6
CONTINUOUS
 62
     1
100
AcDbLine
 10
213.5099999999999
 20
102.824999999
 30
0.0
 11
213.5099999999999
 21
98.024999999
 31
0.0
  0
LINE
  5
3EB
330
1F
100
AcDbEntity
  8
0
  6
CONTINUOUS
 62
     1
100
AcDbLine
 10
211.26
 20
103.324999999
 30
0.0
 11
213.01
 21
103.324999999
 31
0.0
  0
ARC
  5
3EC
330
1F
100
AcDbEntity
  8
0
  6
CONTINUOUS
 62
     1
100
AcDbCircle
 10
211.26
 20
103.024999999
 30
0.0
 40
0.3
100
AcDbArc
 50
90.0
 51
180.0
  0
ARC
  5
3ED
330
1F
100
AcDbEntity
  8
0
  6
CONTINUOUS
 62
     1
100
AcDbCircle
 10
210.5599999999999
 20
96.97499999899999
 30
0.0
 40
0.3
100
AcDbArc
 50
270.0
 51
0.0
  0
ARC
  5
3EE
330
1F
100
AcDbEntity
  8
0
  6
CONTINUOUS
 62
     1
100
AcDbCircle
 10
213.01
 20
98.024999999
 30
0.0
 40
0.5
100
AcDbArc
 50
270.0
 51
0.0
  0
LINE
  5
3EF
330
1F
100
AcDbEntity
  8
0
  6
CONTINUOUS
 62
     1
100
AcDbLine
 10
213.01
 20
97.52499999900002
 30
0.0
 11
211.26
 21
97.52499999900002
 31
0.0
  0
ARC
  5
3F0
330
1F
100
AcDbEntity
  8
0
  6
CONTINUOUS
 62
     1
100
AcDbCircle
 10
211.26
 20
97.824999999
 30
0.0
 40
0.3
100
AcDbArc
 50
180.0
 51
270.0
  0
LINE
  5
3F1
330
1F
100
AcDbEntity
  8
0
  6
CONTINUOUS
 62
     1
100
AcDbLine
 10
210.86
 20
103.874999999
 30
0.0
 11
210.86
 21
96.97499999899999
 31
0.0
  0
LINE
  5
3F2
330
1F
100
AcDbEntity
  8
0
  6
CONTINUOUS
 62
     1
100
AcDbLine
 10
210.9599999999999
 20
97.824999999
 30
0.0
 11
210.9599999999999
 21
103.024999999
 31
0.0
  0
LINE
  5
3F3
330
1F
100
AcDbEntity
  8
0
  6
CONTINUOUS
 62
     1
100
AcDbLine
 10
210.5599999999999
 20
96.674999999
 30
0.0
 11
209.66
 21
96.674999999
 31
0.0
  0
LINE
  5
3F4
330
1F
100
AcDbEntity
  8
0
  6
CONTINUOUS
 62
     4
100
AcDbLine
 10
218.6599999999998
 20
91.52499999899999
 30
0.0
 11
219.1776380899999
 21
93.456851652
 31
0.0
  0
LINE
  5
3F5
330
1F
100
AcDbEntity
  8
0
  6
CONTINUOUS
 62
     4
100
AcDbLine
 10
218.6599999999998
 20
91.52499999899999
 30
0.0
 11
218.142361909
 21
93.456851652
 31
0.0
  0
LINE
  5
3F6
330
1F
100
AcDbEntity
  8
0
  6
CONTINUOUS
 62
     4
100
AcDbLine
 10
218.6599999999998
 20
136.224999999
 30
0.0
 11
218.142361909
 21
134.293148346
 31
0.0
  0
LINE
  5
3F7
330
1F
100
AcDbEntity
  8
0
  6
CONTINUOUS
 62
     4
100
AcDbLine
 10
218.6599999999998
 20
136.224999999
 30
0.0
 11
219.1776380899999
 21
134.293148346
 31
0.0
  0
LINE
  5
3F8
330
1F
100
AcDbEntity
  8
0
  6
CONTINUOUS
 62
     4
100
AcDbLine
 10
210.6599999999999
 20
136.224999999
 30
0.0
 11
221.609999999
 21
136.224999999
 31
0.0
  0
LINE
  5
3F9
330
1F
100
AcDbEntity
  8
0
  6
CONTINUOUS
 62
     4
100
AcDbLine
 10
210.6599999999999
 20
91.52499999899999
 30
0.0
 11
221.309999999
 21
91.52499999899999
 31
0.0
  0
LINE
  5
3FA
330
1F
100
AcDbEntity
  8
0
  6
CONTINUOUS
 62
     4
100
AcDbLine
 10
202.4599999999999
 20
100.110254037
 30
0.0
 11
202.459999999
 21
144.9602540369999
 31
0.0
  0
LINE
  5
3FC
330
1F
100
AcDbEntity
  8
0
  6
CONTINUOUS
 62
     4
100
AcDbLine
 10
218.6599999999998
 20
136.224999999
 30
0.0
 11
218.6599999999998
 21
91.52499999899999
 31
0.0
  0
LINE
  5
3FE
330
1F
100
AcDbEntity
  8
0
  6
CONTINUOUS
 62
     4
100
AcDbLine
 10
197.46
 20
85.874999999
 30
0.0
 11
209.66
 21
85.874999999
 31
0.0
  0
TEXT
  5
401
330
1F
100
AcDbEntity
  8
0
  6
CONTINUOUS
 62
     4
100
AcDbText
 10
200.36
 20
82.374999999
 30
0.0
 40
2.5
  1
２２
 41
0.8
  7
KANJI4
100
AcDbText
  0
LINE
  5
403
330
1F
100
AcDbEntity
  8
0
  6
CONTINUOUS
 62
     4
100
AcDbLine
 10
197.46
 20
88.874999999
 30
0.0
 11
197.46
 21
84.874999999
 31
0.0
  0
LINE
  5
404
330
1F
100
AcDbEntity
  8
0
  6
CONTINUOUS
 62
     4
100
AcDbLine
 10
197.46
 20
88.874999999
 30
0.0
 11
197.46
 21
84.874999999
 31
0.0
  0
MTEXT
  5
40D
330
1F
100
AcDbEntity
  8
0
  6
CONTINUOUS
 62
     4
100
AcDbMText
 10
191.9617182986296
 20
89.0727716499232
 30
0.0
 40
2.5
 41
5.498281701370292
 71
     1
 72
     5
  1
６.３
  7
KANJI4
  0
MTEXT
  5
40F
330
1F
100
AcDbEntity
  8
0
  6
CONTINUOUS
 62
     4
100
AcDbMText
 10
199.391851652
 20
89.1230294931428
 30
0.0
 40
2.5
 41
11.36989999999999
 71
     1
 72
     5
  1
１２.２
  7
KANJI4
  0
MTEXT
  5
410
330
1F
100
AcDbEntity
  8
0
  6
CONTINUOUS
 62
     4
100
AcDbMText
 10
215.6587099962055
 20
115.3551473089862
 30
0.0
 40
2.5
 41
20.8894
 71
     1
 72
     5
  1
４４．７
  7
KANJI4
 11
1.000000000000000E-16
 21
1.0
 31
0.0
  0
MTEXT
  5
411
330
1F
100
AcDbEntity
  8
0
  6
CONTINUOUS
 62
     4
100
AcDbMText
 10
199.0878042215913
 20
123.4777096891422
 30
0.0
 40
2.5
 41
20.8894
 71
     1
 72
     5
  1
４４．８５
  7
KANJI4
 11
1.000000000000000E-16
 21
1.0
 31
0.0
  0
MTEXT
  5
412
330
1F
100
AcDbEntity
  8
0
  6
CONTINUOUS
 62
     4
100
AcDbMText
 10
95.98058984571276
 20
166.5390644066864
 30
0.0
 40
2.5
 41
10.64559999999999
 71
     1
 72
     5
  1
９１.８５
  7
KANJI4
  0
MTEXT
  5
413
330
1F
100
AcDbEntity
  8
0
  6
CONTINUOUS
 62
     4
100
AcDbMText
 10
111.045049367234
 20
185.4917108823936
 30
0.0
 40
2.5
 41
10.64559999999999
 71
     1
 72
     5
  1
９１.６
  7
KANJI4
  0
LINE
  5
43A
330
1F
100
AcDbEntity
  8
0
  6
CONTINUOUS
 62
     4
100
AcDbLine
 10
191.1599999999999
 20
81.87499999899998
 30
0.0
 11
213.5099999999999
 21
81.87499999899998
 31
0.0
  0
ENDSEC
  0
SECTION
  2
OBJECTS
  0
DICTIONARY
  5
C
330
0
100
AcDbDictionary
  3
ACAD_COLOR
350
6C
  3
ACAD_GROUP
350
D
  3
ACAD_LAYOUT
350
1A
  3
ACAD_MATERIAL
350
6B
  3
ACAD_MLINESTYLE
350
17
  3
ACAD_PLOTSETTINGS
350
19
  3
ACAD_TABLESTYLE
350
92
  3
ACDBHEADERROUNDTRIPXREC
350
461
  3
ACDBVARIABLEDICTIONARY
350
59
  3
DWGPROPS
350
483
  0
DICTIONARY
  5
6C
102
{ACAD_REACTORS
330
C
102
}
330
C
100
AcDbDictionary
  0
DICTIONARY
  5
D
102
{ACAD_REACTORS
330
C
102
}
330
C
100
AcDbDictionary
  0
DICTIONARY
  5
1A
102
{ACAD_REACTORS
330
C
102
}
330
C
100
AcDbDictionary
  0
DICTIONARY
  5
6B
102
{ACAD_REACTORS
330
C
102
}
330
C
100
AcDbDictionary
  0
DICTIONARY
  5
17
102
{ACAD_REACTORS
330
C
102
}
330
C
100
AcDbDictionary
  3
STANDARD
350
18
  0
DICTIONARY
  5
19
102
{ACAD_REACTORS
330
C
102
}
330
C
100
AcDbDictionary
  0
DICTIONARY
  5
92
102
{ACAD_REACTORS
330
C
102
}
330
C
100
AcDbDictionary
  0
DICTIONARY
  5
461
102
{ACAD_REACTORS
330
C
102
}
330
C
100
AcDbDictionary
  3
CEPSNTYPE
350
46A
  3
COLORDICT
350
481
  3
DIMSTYLEDATA
350
480
  3
FINGERPRINTGUID
350
46B
  3
HYPERLINKBASE
350
464
  3
INSUNITS
350
469
  3
LAYOUTDICT
350
466
  3
LWETCUNION
350
468
  3
MATERIALDICT
350
482
  3
PLOTSETDICT
350
467
  3
PSVPSCALE
350
46D
  3
PUCSBASE
350
470
  3
PUCSORGBACK
350
476
  3
PUCSORGBOTTOM
350
472
  3
PUCSORGFRONT
350
475
  3
PUCSORGLEFT
350
473
  3
PUCSORGRIGHT
350
474
  3
PUCSORGTOP
350
471
  3
PUCSORTHOREF
350
46E
  3
PUCSORTHOVIEW
350
46F
  3
STYLESHEET
350
465
  3
TSTACKALIGN
350
462
  3
TSTACKSIZE
350
463
  3
UCSBASE
350
479
  3
UCSORGBACK
350
47F
  3
UCSORGBOTTOM
350
47B
  3
UCSORGFRONT
350
47E
  3
UCSORGLEFT
350
47C
  3
UCSORGRIGHT
350
47D
  3
UCSORGTOP
350
47A
  3
UCSORTHOREF
350
477
  3
UCSORTHOVIEW
350
478
  3
VERSIONGUID
350
46C
  0
DICTIONARY
  5
59
102
{ACAD_REACTORS
330
C
102
}
330
C
100
AcDbDictionary
  3
CTABLESTYLE
350
98
  3
DIMASSOC
350
5A
  3
HIDETEXT
350
5E
  0
XRECORD
  5
483
102
{ACAD_REACTORS
330
C
102
}
330
C
100
AcDbXrecord
  1
DWGPROPS COOKIE
  2

  3

  4

  6

  7

  8
fottrem
  9

300
=
301
=
302
=
303
=
304
=
305
=
306
=
307
=
308
=
309
=
 40
0.0
 41
2452704.054332963
 42
2452723.337504364
  1

 90
        0
  0
MLINESTYLE
  5
18
102
{ACAD_REACTORS
330
17
102
}
330
17
100
AcDbMlineStyle
  2
STANDARD
 70
     0
  3

 62
   256
 51
90.0
 52
90.0
 71
     2
 49
0.5
 62
   256
  6
BYLAYER
 49
-0.5
 62
   256
  6
BYLAYER
  0
XRECORD
  5
46A
102
{ACAD_REACTORS
330
461
102
}
330
461
100
AcDbXrecord
 90
        0
  0
XRECORD
  5
481
102
{ACAD_REACTORS
330
461
102
}
330
461
100
AcDbXrecord
340
6C
  0
XRECORD
  5
480
102
{ACAD_REACTORS
330
461
102
}
330
461
100
AcDbXrecord
1000
DSTYLE
1002
{
1070
   340
340
11
1002
}
  0
XRECORD
  5
46B
102
{ACAD_REACTORS
330
461
102
}
330
461
100
AcDbXrecord
  1
{C5D355A0-4EF3-11D7-9C19-0040267F10D4}
  0
XRECORD
  5
464
102
{ACAD_REACTORS
330
461
102
}
330
461
100
AcDbXrecord
  1

  0
XRECORD
  5
469
102
{ACAD_REACTORS
330
461
102
}
330
461
100
AcDbXrecord
 90
        0
  0
XRECORD
  5
466
102
{ACAD_REACTORS
330
461
102
}
330
461
100
AcDbXrecord
340
1A
  0
XRECORD
  5
468
102
{ACAD_REACTORS
330
461
102
}
330
461
100
AcDbXrecord
 90
    10781
  0
XRECORD
  5
482
102
{ACAD_REACTORS
330
461
102
}
330
461
100
AcDbXrecord
340
6B
  0
XRECORD
  5
467
102
{ACAD_REACTORS
330
461
102
}
330
461
100
AcDbXrecord
340
19
  0
XRECORD
  5
46D
102
{ACAD_REACTORS
330
461
102
}
330
461
100
AcDbXrecord
 40
0.0
  0
XRECORD
  5
470
102
{ACAD_REACTORS
330
461
102
}
330
461
100
AcDbXrecord
340
0
  0
XRECORD
  5
476
102
{ACAD_REACTORS
330
461
102
}
330
461
100
AcDbXrecord
 10
0.0
 20
0.0
 30
0.0
  0
XRECORD
  5
472
102
{ACAD_REACTORS
330
461
102
}
330
461
100
AcDbXrecord
 10
0.0
 20
0.0
 30
0.0
  0
XRECORD
  5
475
102
{ACAD_REACTORS
330
461
102
}
330
461
100
AcDbXrecord
 10
0.0
 20
0.0
 30
0.0
  0
XRECORD
  5
473
102
{ACAD_REACTORS
330
461
102
}
330
461
100
AcDbXrecord
 10
0.0
 20
0.0
 30
0.0
  0
XRECORD
  5
474
102
{ACAD_REACTORS
330
461
102
}
330
461
100
AcDbXrecord
 10
0.0
 20
0.0
 30
0.0
  0
XRECORD
  5
471
102
{ACAD_REACTORS
330
461
102
}
330
461
100
AcDbXrecord
 10
0.0
 20
0.0
 30
0.0
  0
XRECORD
  5
46E
102
{ACAD_REACTORS
330
461
102
}
330
461
100
AcDbXrecord
340
0
  0
XRECORD
  5
46F
102
{ACAD_REACTORS
330
461
102
}
330
461
100
AcDbXrecord
 70
     0
  0
XRECORD
  5
465
102
{ACAD_REACTORS
330
461
102
}
330
461
100
AcDbXrecord
  1

  0
XRECORD
  5
462
102
{ACAD_REACTORS
330
461
102
}
330
461
100
AcDbXrecord
 90
        1
  0
XRECORD
  5
463
102
{ACAD_REACTORS
330
461
102
}
330
461
100
AcDbXrecord
 90
       70
  0
XRECORD
  5
479
102
{ACAD_REACTORS
330
461
102
}
330
461
100
AcDbXrecord
340
0
  0
XRECORD
  5
47F
102
{ACAD_REACTORS
330
461
102
}
330
461
100
AcDbXrecord
 10
0.0
 20
0.0
 30
0.0
  0
XRECORD
  5
47B
102
{ACAD_REACTORS
330
461
102
}
330
461
100
AcDbXrecord
 10
0.0
 20
0.0
 30
0.0
  0
XRECORD
  5
47E
102
{ACAD_REACTORS
330
461
102
}
330
461
100
AcDbXrecord
 10
0.0
 20
0.0
 30
0.0
  0
XRECORD
  5
47C
102
{ACAD_REACTORS
330
461
102
}
330
461
100
AcDbXrecord
 10
0.0
 20
0.0
 30
0.0
  0
XRECORD
  5
47D
102
{ACAD_REACTORS
330
461
102
}
330
461
100
AcDbXrecord
 10
0.0
 20
0.0
 30
0.0
  0
XRECORD
  5
47A
102
{ACAD_REACTORS
330
461
102
}
330
461
100
AcDbXrecord
 10
0.0
 20
0.0
 30
0.0
  0
XRECORD
  5
477
102
{ACAD_REACTORS
330
461
102
}
330
461
100
AcDbXrecord
340
0
  0
XRECORD
  5
478
102
{ACAD_REACTORS
330
461
102
}
330
461
100
AcDbXrecord
 70
     0
  0
XRECORD
  5
46C
102
{ACAD_REACTORS
330
461
102
}
330
461
100
AcDbXrecord
  1
{DCFEE219-5E13-11D7-9C19-0040267F10D4}
  0
DICTIONARYVAR
  5
98
102
{ACAD_REACTORS
330
59
102
}
330
59
100
DictionaryVariables
280
     0
  1
Standard
  0
DICTIONARYVAR
  5
5A
102
{ACAD_REACTORS
330
59
102
}
330
59
100
DictionaryVariables
280
     0
  1
2
  0
DICTIONARYVAR
  5
5E
102
{ACAD_REACTORS
330
59
102
}
330
59
100
DictionaryVariables
280
     0
  1
1
  0
ENDSEC
  0
EOF
