  0
SECTION
  2
HEADER
  9
$EXTMIN
 10
0.0
 20
0.0
 30
0.0
  9
$EXTMAX
 10
420.0
 20
297.0
 30
0.0
  9
$LIMMIN
 10
0.0
 20
0.0
  9
$LIMMAX
 10
420.0
 20
297.0
  9
$LTSCALE
 40
1.0
  9
$PDMODE
 70
     0
  0
ENDSEC
  0
SECTION
  2
TABLES
  0
TABLE
  2
LTYPE
 70
     3
  0
LTYPE
  2
CONTINUOUS
 70
    64
  3
Solid line
 72
    65
 73
     0
 40
0.0
  0
LTYPE
  2
LTYPE1
 70
    64
  3
CENTER
 72
    65
 73
     4
 40
15.0
 49
10.5
 49
-1.5
 49
1.5
 49
-1.5
  0
LTYPE
  2
LTYPE2
 70
    64
  3
HIDDEN
 72
    65
 73
     2
 40
1.5
 49
0.9
 49
-0.6
  0
ENDTAB
  0
TABLE
  2
LAYER
 70
   128
  0
LAYER
  2
0
 70
     0
 62
     7
  6
CONTINUOUS
  0
LAYER
  2
1
 70
     0
 62
     7
  6
CONTINUOUS
  0
LAYER
  2
2
 70
     0
 62
     7
  6
CONTINUOUS
  0
LAYER
  2
3
 70
     0
 62
     7
  6
CONTINUOUS
  0
LAYER
  2
4
 70
     0
 62
     7
  6
CONTINUOUS
  0
LAYER
  2
5
 70
     0
 62
     7
  6
CONTINUOUS
  0
LAYER
  2
6
 70
     0
 62
     7
  6
CONTINUOUS
  0
LAYER
  2
7
 70
     0
 62
     7
  6
CONTINUOUS
  0
LAYER
  2
8
 70
     0
 62
     7
  6
CONTINUOUS
  0
LAYER
  2
9
 70
     0
 62
     7
  6
CONTINUOUS
  0
LAYER
  2
10
 70
     0
 62
     7
  6
CONTINUOUS
  0
LAYER
  2
11
 70
     0
 62
     7
  6
CONTINUOUS
  0
LAYER
  2
12
 70
     0
 62
     7
  6
CONTINUOUS
  0
LAYER
  2
13
 70
     0
 62
     7
  6
CONTINUOUS
  0
LAYER
  2
14
 70
     0
 62
     7
  6
CONTINUOUS
  0
LAYER
  2
15
 70
     0
 62
     7
  6
CONTINUOUS
  0
LAYER
  2
16
 70
     0
 62
     7
  6
CONTINUOUS
  0
LAYER
  2
17
 70
     0
 62
     7
  6
CONTINUOUS
  0
LAYER
  2
18
 70
     0
 62
     7
  6
CONTINUOUS
  0
LAYER
  2
19
 70
     0
 62
     7
  6
CONTINUOUS
  0
LAYER
  2
20
 70
     0
 62
     7
  6
CONTINUOUS
  0
LAYER
  2
21
 70
     0
 62
     7
  6
CONTINUOUS
  0
LAYER
  2
22
 70
     0
 62
     7
  6
CONTINUOUS
  0
LAYER
  2
23
 70
     0
 62
     7
  6
CONTINUOUS
  0
LAYER
  2
24
 70
     0
 62
     7
  6
CONTINUOUS
  0
LAYER
  2
25
 70
     0
 62
     7
  6
CONTINUOUS
  0
LAYER
  2
26
 70
     0
 62
     7
  6
CONTINUOUS
  0
LAYER
  2
27
 70
     0
 62
     7
  6
CONTINUOUS
  0
LAYER
  2
28
 70
     0
 62
     7
  6
CONTINUOUS
  0
LAYER
  2
29
 70
     0
 62
     7
  6
CONTINUOUS
  0
LAYER
  2
30
 70
     0
 62
     7
  6
CONTINUOUS
  0
LAYER
  2
31
 70
     0
 62
     7
  6
CONTINUOUS
  0
LAYER
  2
32
 70
     0
 62
     7
  6
CONTINUOUS
  0
LAYER
  2
33
 70
     0
 62
     7
  6
CONTINUOUS
  0
LAYER
  2
34
 70
     0
 62
     7
  6
CONTINUOUS
  0
LAYER
  2
35
 70
     0
 62
     7
  6
CONTINUOUS
  0
LAYER
  2
36
 70
     0
 62
     7
  6
CONTINUOUS
  0
LAYER
  2
37
 70
     0
 62
     7
  6
CONTINUOUS
  0
LAYER
  2
38
 70
     0
 62
     7
  6
CONTINUOUS
  0
LAYER
  2
39
 70
     0
 62
     7
  6
CONTINUOUS
  0
LAYER
  2
40
 70
     0
 62
     7
  6
CONTINUOUS
  0
LAYER
  2
41
 70
     0
 62
     7
  6
CONTINUOUS
  0
LAYER
  2
42
 70
     0
 62
     7
  6
CONTINUOUS
  0
LAYER
  2
43
 70
     0
 62
     7
  6
CONTINUOUS
  0
LAYER
  2
44
 70
     0
 62
     7
  6
CONTINUOUS
  0
LAYER
  2
45
 70
     0
 62
     7
  6
CONTINUOUS
  0
LAYER
  2
46
 70
     0
 62
     7
  6
CONTINUOUS
  0
LAYER
  2
47
 70
     0
 62
     7
  6
CONTINUOUS
  0
LAYER
  2
48
 70
     0
 62
     7
  6
CONTINUOUS
  0
LAYER
  2
49
 70
     0
 62
     7
  6
CONTINUOUS
  0
LAYER
  2
50
 70
     0
 62
     7
  6
CONTINUOUS
  0
LAYER
  2
51
 70
     0
 62
     7
  6
CONTINUOUS
  0
LAYER
  2
52
 70
     0
 62
     7
  6
CONTINUOUS
  0
LAYER
  2
53
 70
     0
 62
     7
  6
CONTINUOUS
  0
LAYER
  2
54
 70
     0
 62
     7
  6
CONTINUOUS
  0
LAYER
  2
55
 70
     0
 62
     7
  6
CONTINUOUS
  0
LAYER
  2
56
 70
     0
 62
     7
  6
CONTINUOUS
  0
LAYER
  2
57
 70
     0
 62
     7
  6
CONTINUOUS
  0
LAYER
  2
58
 70
     0
 62
     7
  6
CONTINUOUS
  0
LAYER
  2
59
 70
     0
 62
     7
  6
CONTINUOUS
  0
LAYER
  2
60
 70
     0
 62
     7
  6
CONTINUOUS
  0
LAYER
  2
61
 70
     0
 62
     7
  6
CONTINUOUS
  0
LAYER
  2
62
 70
     0
 62
     7
  6
CONTINUOUS
  0
LAYER
  2
63
 70
     0
 62
     7
  6
CONTINUOUS
  0
LAYER
  2
64
 70
     0
 62
     7
  6
CONTINUOUS
  0
LAYER
  2
65
 70
     0
 62
     7
  6
CONTINUOUS
  0
LAYER
  2
66
 70
     0
 62
     7
  6
CONTINUOUS
  0
LAYER
  2
67
 70
     0
 62
     7
  6
CONTINUOUS
  0
LAYER
  2
68
 70
     0
 62
     7
  6
CONTINUOUS
  0
LAYER
  2
69
 70
     0
 62
     7
  6
CONTINUOUS
  0
LAYER
  2
70
 70
     0
 62
     7
  6
CONTINUOUS
  0
LAYER
  2
71
 70
     0
 62
     7
  6
CONTINUOUS
  0
LAYER
  2
72
 70
     0
 62
     7
  6
CONTINUOUS
  0
LAYER
  2
73
 70
     0
 62
     7
  6
CONTINUOUS
  0
LAYER
  2
74
 70
     0
 62
     7
  6
CONTINUOUS
  0
LAYER
  2
75
 70
     0
 62
     7
  6
CONTINUOUS
  0
LAYER
  2
76
 70
     0
 62
     7
  6
CONTINUOUS
  0
LAYER
  2
77
 70
     0
 62
     7
  6
CONTINUOUS
  0
LAYER
  2
78
 70
     0
 62
     7
  6
CONTINUOUS
  0
LAYER
  2
79
 70
     0
 62
     7
  6
CONTINUOUS
  0
LAYER
  2
80
 70
     0
 62
     7
  6
CONTINUOUS
  0
LAYER
  2
81
 70
     0
 62
     7
  6
CONTINUOUS
  0
LAYER
  2
82
 70
     0
 62
     7
  6
CONTINUOUS
  0
LAYER
  2
83
 70
     0
 62
     7
  6
CONTINUOUS
  0
LAYER
  2
84
 70
     0
 62
     7
  6
CONTINUOUS
  0
LAYER
  2
85
 70
     0
 62
     7
  6
CONTINUOUS
  0
LAYER
  2
86
 70
     0
 62
     7
  6
CONTINUOUS
  0
LAYER
  2
87
 70
     0
 62
     7
  6
CONTINUOUS
  0
LAYER
  2
88
 70
     0
 62
     7
  6
CONTINUOUS
  0
LAYER
  2
89
 70
     0
 62
     7
  6
CONTINUOUS
  0
LAYER
  2
90
 70
     0
 62
     7
  6
CONTINUOUS
  0
LAYER
  2
91
 70
     0
 62
     7
  6
CONTINUOUS
  0
LAYER
  2
92
 70
     0
 62
     7
  6
CONTINUOUS
  0
LAYER
  2
93
 70
     0
 62
     7
  6
CONTINUOUS
  0
LAYER
  2
94
 70
     0
 62
     7
  6
CONTINUOUS
  0
LAYER
  2
95
 70
     0
 62
     7
  6
CONTINUOUS
  0
LAYER
  2
96
 70
     0
 62
     7
  6
CONTINUOUS
  0
LAYER
  2
97
 70
     0
 62
     7
  6
CONTINUOUS
  0
LAYER
  2
98
 70
     0
 62
     7
  6
CONTINUOUS
  0
LAYER
  2
99
 70
     0
 62
     7
  6
CONTINUOUS
  0
LAYER
  2
100
 70
     0
 62
     7
  6
CONTINUOUS
  0
LAYER
  2
101
 70
     0
 62
     7
  6
CONTINUOUS
  0
LAYER
  2
102
 70
     0
 62
     7
  6
CONTINUOUS
  0
LAYER
  2
103
 70
     0
 62
     7
  6
CONTINUOUS
  0
LAYER
  2
104
 70
     0
 62
     7
  6
CONTINUOUS
  0
LAYER
  2
105
 70
     0
 62
     7
  6
CONTINUOUS
  0
LAYER
  2
106
 70
     0
 62
     7
  6
CONTINUOUS
  0
LAYER
  2
107
 70
     0
 62
     7
  6
CONTINUOUS
  0
LAYER
  2
108
 70
     0
 62
     7
  6
CONTINUOUS
  0
LAYER
  2
109
 70
     0
 62
     7
  6
CONTINUOUS
  0
LAYER
  2
110
 70
     0
 62
     7
  6
CONTINUOUS
  0
LAYER
  2
111
 70
     0
 62
     7
  6
CONTINUOUS
  0
LAYER
  2
112
 70
     0
 62
     7
  6
CONTINUOUS
  0
LAYER
  2
113
 70
     0
 62
     7
  6
CONTINUOUS
  0
LAYER
  2
114
 70
     0
 62
     7
  6
CONTINUOUS
  0
LAYER
  2
115
 70
     0
 62
     7
  6
CONTINUOUS
  0
LAYER
  2
116
 70
     0
 62
     7
  6
CONTINUOUS
  0
LAYER
  2
117
 70
     0
 62
     7
  6
CONTINUOUS
  0
LAYER
  2
118
 70
     0
 62
     7
  6
CONTINUOUS
  0
LAYER
  2
119
 70
     0
 62
     7
  6
CONTINUOUS
  0
LAYER
  2
120
 70
     0
 62
     7
  6
CONTINUOUS
  0
LAYER
  2
121
 70
     0
 62
     7
  6
CONTINUOUS
  0
LAYER
  2
122
 70
     0
 62
     7
  6
CONTINUOUS
  0
LAYER
  2
123
 70
     0
 62
     7
  6
CONTINUOUS
  0
LAYER
  2
124
 70
     0
 62
     7
  6
CONTINUOUS
  0
LAYER
  2
125
 70
     0
 62
     7
  6
CONTINUOUS
  0
LAYER
  2
126
 70
     0
 62
     7
  6
CONTINUOUS
  0
LAYER
  2
127
 70
     0
 62
     7
  6
CONTINUOUS
  0
ENDTAB
  0
TABLE
  2
STYLE
 70
     9
  0
STYLE
  2
STANDARD
 70
     0
 40
0.0
 41
1.0
 50
0.0
 71
     0
 42
0.2
  3
txt
  4

  0
STYLE
  2
KANJI0
 70
     0
 40
2.5
 41
0.8
 50
0.0
 71
     0
 42
2.5
  3

  4
bigfont
  0
STYLE
  2
KANJI1
 70
     0
 40
4.512
 41
0.875
 50
0.0
 71
     0
 42
4.512
  3

  4
bigfont
  0
STYLE
  2
KANJI2
 70
     0
 40
4.935
 41
0.86
 50
0.0
 71
     0
 42
4.935
  3

  4
bigfont
  0
STYLE
  2
KANJI3
 70
     0
 40
2.961
 41
0.375
 50
0.0
 71
     0
 42
2.961
  3

  4
bigfont
  0
STYLE
  2
KANJI4
 70
     0
 40
2.961
 41
0.533333333
 50
0.0
 71
     0
 42
2.961
  3

  4
bigfont
  0
STYLE
  2
KANJI5
 70
     0
 40
1.5
 41
0.8
 50
0.0
 71
     0
 42
1.5
  3

  4
bigfont
  0
STYLE
  2
KANJI6
 70
     0
 40
2.961
 41
0.75
 50
0.0
 71
     0
 42
2.961
  3

  4
bigfont
  0
STYLE
  2
KANJI7
 70
     0
 40
2.961
 41
1.066666667
 50
0.0
 71
     0
 42
2.961
  3

  4
bigfont
  0
ENDTAB
  0
TABLE
  2
VIEW
 70
     0
  0
ENDTAB
  0
ENDSEC
  0
SECTION
  2
BLOCKS
  0
ENDSEC
  0
SECTION
  2
ENTITIES
  0
POLYLINE
  8
0
  6
CONTINUOUS
 62
     1
 66
     1
  0
VERTEX
  8
0
  6
CONTINUOUS
 62
     1
 10
33299822104983522000000000000000000000000000000000000000000000000000000000000000000000000000000000000000000000000000000000000000000000000000000000000000000000000000000000000000000000000000000000000000000000000000000000000000.0
 20
126926390563329640000000000000000000000000000000000000000000000000000000000000000000000000000000000000000000000000000000000000000000000000000000000000000000000000000000000000000000000000000000000000000000000000000000000000000000000000.0
  0
VERTEX
  8
0
  6
CONTINUOUS
 62
     1
 10
33299822104983522000000000000000000000000000000000000000000000000000000000000000000000000000000000000000000000000000000000000000000000000000000000000000000000000000000000000000000000000000000000000000000000000000000000000000.0
 20
126926390563329640000000000000000000000000000000000000000000000000000000000000000000000000000000000000000000000000000000000000000000000000000000000000000000000000000000000000000000000000000000000000000000000000000000000000000000000000.0
  0
VERTEX
  8
0
  6
CONTINUOUS
 62
     1
 10
33299822104983522000000000000000000000000000000000000000000000000000000000000000000000000000000000000000000000000000000000000000000000000000000000000000000000000000000000000000000000000000000000000000000000000000000000000000.0
 20
126926390563329640000000000000000000000000000000000000000000000000000000000000000000000000000000000000000000000000000000000000000000000000000000000000000000000000000000000000000000000000000000000000000000000000000000000000000000000000.0
  0
SEQEND
  0
POINT
  8
0
  6
CONTINUOUS
 62
     1
 10
-15588150533312390000000000000000000000000000000000000000000000000.0
 20
-59416163741459895000000000000000000000000000000000000000000000000000000000.0
  0
POINT
  8
0
  6
CONTINUOUS
 62
     1
 10
-15588150533312390000000000000000000000000000000000000000000000000.0
 20
-59416163741459895000000000000000000000000000000000000000000000000000000000.0
  0
POINT
  8
0
  6
CONTINUOUS
 62
     1
 10
33299822104983522000000000000000000000000000000000000000000000000000000000000000000000000000000000000000000000000000000000000000000000000000000000000000000000000000000000000000000000000000000000000000000000000000000000000000.0
 20
126926390563329640000000000000000000000000000000000000000000000000000000000000000000000000000000000000000000000000000000000000000000000000000000000000000000000000000000000000000000000000000000000000000000000000000000000000000000000000.0
  0
POINT
  8
0
  6
CONTINUOUS
 62
     1
 10
33299822104983522000000000000000000000000000000000000000000000000000000000000000000000000000000000000000000000000000000000000000000000000000000000000000000000000000000000000000000000000000000000000000000000000000000000000000.0
 20
126926390563329640000000000000000000000000000000000000000000000000000000000000000000000000000000000000000000000000000000000000000000000000000000000000000000000000000000000000000000000000000000000000000000000000000000000000000000000000.0
  0
POINT
  8
0
  6
CONTINUOUS
 62
     1
 10
-15588150533312390000000000000000000000000000000000000000000000000.0
 20
-59416163741459895000000000000000000000000000000000000000000000000000000000.0
  0
POINT
  8
0
  6
CONTINUOUS
 62
     1
 10
-15588150533312390000000000000000000000000000000000000000000000000.0
 20
-59416163741459895000000000000000000000000000000000000000000000000000000000.0
  0
POINT
  8
0
  6
CONTINUOUS
 62
     1
 10
33299822104983522000000000000000000000000000000000000000000000000000000000000000000000000000000000000000000000000000000000000000000000000000000000000000000000000000000000000000000000000000000000000000000000000000000000000000.0
 20
126926390563329640000000000000000000000000000000000000000000000000000000000000000000000000000000000000000000000000000000000000000000000000000000000000000000000000000000000000000000000000000000000000000000000000000000000000000000000000.0
  0
POINT
  8
0
  6
CONTINUOUS
 62
     1
 10
33299822104983522000000000000000000000000000000000000000000000000000000000000000000000000000000000000000000000000000000000000000000000000000000000000000000000000000000000000000000000000000000000000000000000000000000000000000.0
 20
126926390563329640000000000000000000000000000000000000000000000000000000000000000000000000000000000000000000000000000000000000000000000000000000000000000000000000000000000000000000000000000000000000000000000000000000000000000000000000.0
  0
POINT
  8
0
  6
CONTINUOUS
 62
     1
 10
-15588150533312390000000000000000000000000000000000000000000000000.0
 20
-59416163741459895000000000000000000000000000000000000000000000000000000000.0
  0
POINT
  8
0
  6
CONTINUOUS
 62
     1
 10
-15588150533312390000000000000000000000000000000000000000000000000.0
 20
-59416163741459895000000000000000000000000000000000000000000000000000000000.0
  0
POINT
  8
0
  6
CONTINUOUS
 62
     1
 10
33299822104983522000000000000000000000000000000000000000000000000000000000000000000000000000000000000000000000000000000000000000000000000000000000000000000000000000000000000000000000000000000000000000000000000000000000000000.0
 20
126926390563329640000000000000000000000000000000000000000000000000000000000000000000000000000000000000000000000000000000000000000000000000000000000000000000000000000000000000000000000000000000000000000000000000000000000000000000000000.0
  0
POINT
  8
0
  6
CONTINUOUS
 62
     1
 10
33299822104983522000000000000000000000000000000000000000000000000000000000000000000000000000000000000000000000000000000000000000000000000000000000000000000000000000000000000000000000000000000000000000000000000000000000000000.0
 20
126926390563329640000000000000000000000000000000000000000000000000000000000000000000000000000000000000000000000000000000000000000000000000000000000000000000000000000000000000000000000000000000000000000000000000000000000000000000000000.0
  0
POINT
  8
0
  6
CONTINUOUS
 62
     1
 10
-15588150533312390000000000000000000000000000000000000000000000000.0
 20
-59416163741459895000000000000000000000000000000000000000000000000000000000.0
  0
POINT
  8
0
  6
CONTINUOUS
 62
     1
 10
-15588150533312390000000000000000000000000000000000000000000000000.0
 20
-59416163741459895000000000000000000000000000000000000000000000000000000000.0
  0
LINE
  8
0
  6
LTYPE1
 62
     3
 10
113.227118643
 20
167.527118607
 11
113.227118634
 21
133.650000001
  0
LINE
  8
0
  6
CONTINUOUS
 62
     4
 10
125.906791006
 20
90.267726239
 11
125.920791006
 21
90.256230304
  0
POINT
  8
0
  6
CONTINUOUS
 62
     3
 10
55.727118609
 20
125.327118622
  0
LINE
  8
0
  6
CONTINUOUS
 62
     3
 10
61.727118608
 20
129.577118623
 11
61.727118608
 21
129.827118623
  0
LINE
  8
0
  6
LTYPE1
 62
     3
 10
55.727118602
 20
150.9135593
 11
55.727118598
 21
166.877118623
  0
LINE
  8
0
  6
LTYPE1
 62
     3
 10
55.727118605
 20
139.7635593
 11
55.727118603
 21
149.1385593
  0
LINE
  8
0
  6
LTYPE1
 62
     3
 10
55.72711861
 20
120.427118622
 11
55.727118606
 21
137.5135593
  0
LINE
  8
0
  6
LTYPE1
 62
     3
 10
113.227118644
 20
197.977118605
 11
113.227118644
 21
200.227118605
  0
LINE
  8
2
  6
LTYPE1
 62
     3
 10
102.577118647
 20
213.299999971
 11
103.132118655
 21
213.299999971
  0
LINE
  8
0
  6
LTYPE1
 62
     3
 10
171.77288139
 20
120.0
 11
171.772881397
 21
149.1385593
  0
LINE
  8
0
  6
LTYPE1
 62
     3
 10
113.227118642
 20
165.177118607
 11
113.227118648
 21
197.9
  0
LINE
  8
0
  6
CONTINUOUS
 62
     3
 10
88.2
 20
91.98
 11
71.2
 21
91.98
  0
LINE
  8
0
  6
CONTINUOUS
 62
     3
 10
72.2
 20
91.98
 11
71.68236191
 21
90.048148347
  0
LINE
  8
0
  6
CONTINUOUS
 62
     3
 10
72.2
 20
91.98
 11
72.71763809
 21
90.048148347
  0
LINE
  8
0
  6
CONTINUOUS
 62
     3
 10
72.2
 20
91.98
 11
72.2
 21
67.98
  0
LINE
  8
0
  6
CONTINUOUS
 62
     3
 10
72.2
 20
67.98
 11
72.71763809
 21
69.911851653
  0
LINE
  8
0
  6
CONTINUOUS
 62
     3
 10
72.2
 20
67.98
 11
71.68236191
 21
69.911851653
  0
LINE
  8
0
  6
CONTINUOUS
 62
     3
 10
88.2
 20
67.98
 11
71.2
 21
67.98
  0
TEXT
  8
0
  6
CONTINUOUS
 62
     3
 10
71.2
 20
77.83
 30
0.3
 40
2.5
  1
２４
 50
90.0
 41
0.8
 51
0.0
  7
KANJI0
  0
LINE
  8
0
  6
LTYPE1
 62
     3
 10
82.4
 20
79.98
 11
146.8
 21
79.98
  0
LINE
  8
0
  6
LTYPE1
 62
     3
 10
113.227118633
 20
131.125000001
 11
113.227118613
 21
53.05
  0
LINE
  8
0
  6
CONTINUOUS
 62
     3
 10
89.18
 20
92.9
 11
89.18
 21
104.0
  0
LINE
  8
0
  6
CONTINUOUS
 62
     3
 10
89.18
 20
103.0
 11
91.111851653
 21
102.48236191
  0
LINE
  8
0
  6
CONTINUOUS
 62
     3
 10
89.18
 20
103.0
 11
91.111851653
 21
103.51763809
  0
LINE
  8
0
  6
CONTINUOUS
 62
     3
 10
89.18
 20
103.0
 11
137.18
 21
103.0
  0
LINE
  8
0
  6
CONTINUOUS
 62
     3
 10
137.18
 20
103.0
 11
135.248148347
 21
103.51763809
  0
LINE
  8
0
  6
CONTINUOUS
 62
     3
 10
137.18
 20
103.0
 11
135.248148347
 21
102.48236191
  0
LINE
  8
0
  6
CONTINUOUS
 62
     3
 10
137.18
 20
92.9
 11
137.18
 21
104.0
  0
TEXT
  8
0
  6
CONTINUOUS
 62
     3
 10
111.03
 20
104.0
 30
0.3
 40
2.5
  1
４８
 50
0.0
 41
0.8
 51
0.0
  7
KANJI0
  0
LINE
  8
0
  6
CONTINUOUS
 62
     3
 10
130.127118641
 20
159.327118602
 11
131.577118641
 21
159.327118602
  0
LINE
  8
0
  6
CONTINUOUS
 62
     3
 10
130.727118641
 20
160.327118602
 11
130.72711864
 21
158.327118602
  0
LINE
  8
0
  6
CONTINUOUS
 62
     3
 10
125.027118641
 20
159.327118604
 11
126.477118641
 21
159.327118603
  0
LINE
  8
0
  6
CONTINUOUS
 62
     3
 10
125.727118641
 20
160.327118603
 11
125.72711864
 21
158.327118603
  0
LINE
  8
0
  6
CONTINUOUS
 62
     3
 10
120.127118641
 20
159.327118605
 11
121.577118641
 21
159.327118604
  0
LINE
  8
0
  6
CONTINUOUS
 62
     3
 10
120.827118641
 20
160.327118605
 11
120.82711864
 21
158.327118605
  0
LINE
  8
0
  6
CONTINUOUS
 62
     3
 10
115.027118641
 20
159.327118606
 11
116.477118641
 21
159.327118606
  0
LINE
  8
0
  6
CONTINUOUS
 62
     3
 10
115.727118641
 20
160.327118606
 11
115.72711864
 21
158.327118606
  0
LINE
  8
0
  6
CONTINUOUS
 62
     3
 10
110.027118641
 20
159.327118607
 11
111.477118641
 21
159.327118607
  0
LINE
  8
0
  6
CONTINUOUS
 62
     3
 10
110.727118641
 20
160.327118607
 11
110.72711864
 21
158.327118607
  0
LINE
  8
0
  6
CONTINUOUS
 62
     3
 10
110.73
 20
160.55
 11
110.73
 21
169.8
  0
LINE
  8
0
  6
CONTINUOUS
 62
     3
 10
110.73
 20
168.8
 11
108.798148347
 21
169.31763809
  0
LINE
  8
0
  6
CONTINUOUS
 62
     3
 10
110.73
 20
168.8
 11
108.798148347
 21
168.28236191
  0
LINE
  8
0
  6
CONTINUOUS
 62
     3
 10
107.73
 20
168.8
 11
110.73
 21
168.8
  0
LINE
  8
0
  6
CONTINUOUS
 62
     3
 10
110.73
 20
168.8
 11
113.23
 21
168.8
  0
LINE
  8
0
  6
CONTINUOUS
 62
     3
 10
113.23
 20
168.8
 11
122.83
 21
168.8
  0
LINE
  8
0
  6
CONTINUOUS
 62
     3
 10
113.23
 20
168.8
 11
115.161851653
 21
168.28236191
  0
LINE
  8
0
  6
CONTINUOUS
 62
     3
 10
113.23
 20
168.8
 11
115.161851653
 21
169.31763809
  0
TEXT
  8
0
  6
CONTINUOUS
 62
     3
 10
116.23
 20
169.8
 30
0.3
 40
2.5
  1
２．５
 50
0.0
 41
0.8
 51
0.0
  7
KANJI0
  0
LINE
  8
0
  6
CONTINUOUS
 62
     3
 10
130.73
 20
160.35
 11
130.73
 21
175.35
  0
LINE
  8
0
  6
CONTINUOUS
 62
     3
 10
130.73
 20
174.35
 11
128.798148347
 21
174.86763809
  0
LINE
  8
0
  6
CONTINUOUS
 62
     3
 10
130.73
 20
174.35
 11
128.798148347
 21
173.83236191
  0
LINE
  8
0
  6
CONTINUOUS
 62
     3
 10
130.73
 20
174.35
 11
110.73
 21
174.35
  0
LINE
  8
0
  6
CONTINUOUS
 62
     3
 10
110.73
 20
174.35
 11
112.661851653
 21
173.83236191
  0
LINE
  8
0
  6
CONTINUOUS
 62
     3
 10
110.73
 20
174.35
 11
112.661851653
 21
174.86763809
  0
LINE
  8
0
  6
CONTINUOUS
 62
     3
 10
110.73
 20
169.85
 11
110.73
 21
175.35
  0
TEXT
  8
0
  6
CONTINUOUS
 62
     3
 10
114.08
 20
175.35
 30
0.3
 40
2.5
  1
５×４＝２０
 50
0.0
 41
0.8
 51
0.0
  7
KANJI0
  0
LINE
  8
0
  6
CONTINUOUS
 62
     3
 10
131.83
 20
159.3
 11
144.33
 21
159.3
  0
LINE
  8
0
  6
CONTINUOUS
 62
     3
 10
143.33
 20
159.3
 11
142.81236191
 21
157.368148347
  0
LINE
  8
0
  6
CONTINUOUS
 62
     3
 10
143.33
 20
159.3
 11
143.84763809
 21
157.368148347
  0
LINE
  8
0
  6
CONTINUOUS
 62
     3
 10
143.33
 20
156.3
 11
143.33
 21
159.3
  0
LINE
  8
0
  6
CONTINUOUS
 62
     3
 10
143.33
 20
159.3
 11
143.33
 21
164.5
  0
LINE
  8
0
  6
CONTINUOUS
 62
     3
 10
143.33
 20
164.5
 11
143.33
 21
174.1
  0
LINE
  8
0
  6
CONTINUOUS
 62
     3
 10
143.33
 20
164.5
 11
143.84763809
 21
166.431851653
  0
LINE
  8
0
  6
CONTINUOUS
 62
     3
 10
143.33
 20
164.5
 11
142.81236191
 21
166.431851653
  0
LINE
  8
0
  6
CONTINUOUS
 62
     3
 10
135.83
 20
164.5
 11
144.33
 21
164.5
  0
TEXT
  8
0
  6
CONTINUOUS
 62
     3
 10
142.33
 20
167.5
 30
0.3
 40
2.5
  1
５．２
 50
90.0
 41
0.8
 51
0.0
  7
KANJI0
  0
LINE
  8
0
  6
CONTINUOUS
 62
     3
 10
91.13
 20
165.5
 11
91.13
 21
180.65
  0
LINE
  8
0
  6
CONTINUOUS
 62
     3
 10
91.13
 20
179.65
 11
93.061851653
 21
179.13236191
  0
LINE
  8
0
  6
CONTINUOUS
 62
     3
 10
91.13
 20
179.65
 11
93.061851653
 21
180.16763809
  0
LINE
  8
0
  6
CONTINUOUS
 62
     3
 10
91.13
 20
179.65
 11
135.23
 21
179.65
  0
LINE
  8
0
  6
CONTINUOUS
 62
     3
 10
135.23
 20
179.65
 11
133.298148347
 21
180.16763809
  0
LINE
  8
0
  6
CONTINUOUS
 62
     3
 10
135.23
 20
179.65
 11
133.298148347
 21
179.13236191
  0
LINE
  8
0
  6
CONTINUOUS
 62
     3
 10
135.23
 20
165.5
 11
135.23
 21
180.65
  0
TEXT
  8
0
  6
CONTINUOUS
 62
     3
 10
111.03
 20
180.65
 30
0.3
 40
2.5
  1
４４
 50
0.0
 41
0.8
 51
0.0
  7
KANJI0
  0
LINE
  8
0
  6
CONTINUOUS
 62
     3
 10
96.627118655
 20
214.099999973
 11
98.227118655
 21
214.099999973
  0
LINE
  8
0
  6
CONTINUOUS
 62
     3
 10
97.227118655
 20
215.299999973
 11
97.227118655
 21
212.899999973
  0
LINE
  8
0
  6
CONTINUOUS
 62
     3
 10
110.727118656
 20
216.49999997
 11
110.727118655
 21
214.69999997
  0
LINE
  8
0
  6
CONTINUOUS
 62
     3
 10
110.087118655
 20
215.69999997
 11
111.467118655
 21
215.699999969
  0
LINE
  8
0
  6
CONTINUOUS
 62
     3
 10
115.727118656
 20
216.499999968
 11
115.727118655
 21
214.699999968
  0
LINE
  8
0
  6
CONTINUOUS
 62
     3
 10
115.087118655
 20
215.699999968
 11
116.467118655
 21
215.699999968
  0
LINE
  8
0
  6
CONTINUOUS
 62
     3
 10
120.087118655
 20
215.699999967
 11
121.467118655
 21
215.699999967
  0
LINE
  8
0
  6
CONTINUOUS
 62
     3
 10
120.727118656
 20
216.7
 11
120.727118655
 21
214.699999967
  0
LINE
  8
0
  6
CONTINUOUS
 62
     3
 10
125.727118656
 20
216.499999966
 11
125.727118655
 21
214.699999966
  0
LINE
  8
0
  6
CONTINUOUS
 62
     3
 10
125.087118655
 20
215.699999966
 11
126.467118655
 21
215.699999965
  0
LINE
  8
0
  6
CONTINUOUS
 62
     3
 10
130.727118656
 20
216.499999964
 11
130.727118655
 21
214.699999964
  0
LINE
  8
0
  6
CONTINUOUS
 62
     3
 10
130.087118655
 20
215.699999964
 11
131.467118655
 21
215.699999964
  0
LINE
  8
0
  6
CONTINUOUS
 62
     3
 10
143.58
 20
213.3
 11
143.06236191
 21
211.368148347
  0
LINE
  8
0
  6
CONTINUOUS
 62
     3
 10
143.58
 20
213.3
 11
144.09763809
 21
211.368148347
  0
LINE
  8
0
  6
CONTINUOUS
 62
     3
 10
143.58
 20
210.3
 11
143.58
 21
213.3
  0
LINE
  8
0
  6
CONTINUOUS
 62
     3
 10
143.58
 20
213.3
 11
143.58
 21
215.7
  0
LINE
  8
0
  6
CONTINUOUS
 62
     3
 10
143.58
 20
215.7
 11
143.58
 21
225.3
  0
LINE
  8
0
  6
CONTINUOUS
 62
     3
 10
143.58
 20
215.7
 11
144.09763809
 21
217.631851653
  0
LINE
  8
0
  6
CONTINUOUS
 62
     3
 10
143.58
 20
215.7
 11
143.06236191
 21
217.631851653
  0
LINE
  8
0
  6
CONTINUOUS
 62
     3
 10
131.58
 20
215.7
 11
144.58
 21
215.7
  0
TEXT
  8
0
  6
CONTINUOUS
 62
     3
 10
142.58
 20
218.7
 30
0.3
 40
2.5
  1
２．３
 50
90.0
 41
0.8
 51
0.0
  7
KANJI0
  0
LINE
  8
0
  6
LTYPE1
 62
     3
 10
145.03
 20
213.299999962
 11
80.98
 21
213.299999976
  0
LINE
  8
0
  6
CONTINUOUS
 62
     3
 10
83.23
 20
213.3
 11
82.71236191
 21
211.368148347
  0
LINE
  8
0
  6
CONTINUOUS
 62
     3
 10
83.23
 20
213.3
 11
83.74763809
 21
211.368148347
  0
LINE
  8
0
  6
CONTINUOUS
 62
     3
 10
83.23
 20
210.3
 11
83.23
 21
213.3
  0
LINE
  8
0
  6
CONTINUOUS
 62
     3
 10
83.23
 20
213.3
 11
83.23
 21
214.1
  0
LINE
  8
0
  6
CONTINUOUS
 62
     3
 10
83.23
 20
214.1
 11
83.23
 21
223.7
  0
LINE
  8
0
  6
CONTINUOUS
 62
     3
 10
83.23
 20
214.1
 11
83.74763809
 21
216.031851653
  0
LINE
  8
0
  6
CONTINUOUS
 62
     3
 10
83.23
 20
214.1
 11
82.71236191
 21
216.031851653
  0
LINE
  8
0
  6
CONTINUOUS
 62
     3
 10
96.73
 20
214.1
 11
82.23
 21
214.1
  0
TEXT
  8
0
  6
CONTINUOUS
 62
     3
 10
82.23
 20
217.1
 30
0.3
 40
2.5
  1
０．８
 50
90.0
 41
0.8
 51
0.0
  7
KANJI0
  0
LINE
  8
0
  6
CONTINUOUS
 62
     3
 10
113.23
 20
229.75
 11
115.161851653
 21
229.23236191
  0
LINE
  8
0
  6
CONTINUOUS
 62
     3
 10
113.23
 20
229.75
 11
115.161851653
 21
230.26763809
  0
LINE
  8
0
  6
CONTINUOUS
 62
     3
 10
122.83
 20
229.75
 11
113.23
 21
229.75
  0
LINE
  8
0
  6
CONTINUOUS
 62
     3
 10
113.23
 20
229.75
 11
110.73
 21
229.75
  0
LINE
  8
0
  6
CONTINUOUS
 62
     3
 10
110.73
 20
229.75
 11
107.73
 21
229.75
  0
LINE
  8
0
  6
CONTINUOUS
 62
     3
 10
110.73
 20
229.75
 11
108.798148347
 21
230.26763809
  0
LINE
  8
0
  6
CONTINUOUS
 62
     3
 10
110.73
 20
229.75
 11
108.798148347
 21
229.23236191
  0
LINE
  8
0
  6
CONTINUOUS
 62
     3
 10
110.73
 20
216.75
 11
110.73
 21
230.75
  0
TEXT
  8
0
  6
CONTINUOUS
 62
     3
 10
116.23
 20
230.75
 30
0.3
 40
2.5
  1
２．５
 50
0.0
 41
0.8
 51
0.0
  7
KANJI0
  0
LINE
  8
0
  6
CONTINUOUS
 62
     3
 10
110.73
 20
230.75
 11
110.73
 21
235.4
  0
LINE
  8
0
  6
CONTINUOUS
 62
     3
 10
110.73
 20
234.4
 11
112.661851653
 21
233.88236191
  0
LINE
  8
0
  6
CONTINUOUS
 62
     3
 10
110.73
 20
234.4
 11
112.661851653
 21
234.91763809
  0
LINE
  8
0
  6
CONTINUOUS
 62
     3
 10
110.73
 20
234.4
 11
130.73
 21
234.4
  0
LINE
  8
0
  6
CONTINUOUS
 62
     3
 10
130.73
 20
234.4
 11
128.798148347
 21
234.91763809
  0
LINE
  8
0
  6
CONTINUOUS
 62
     3
 10
130.73
 20
234.4
 11
128.798148347
 21
233.88236191
  0
LINE
  8
0
  6
CONTINUOUS
 62
     3
 10
130.73
 20
216.7
 11
130.73
 21
235.4
  0
TEXT
  8
0
  6
CONTINUOUS
 62
     3
 10
113.78
 20
235.4
 30
0.3
 40
2.5
  1
５×４＝２０
 50
0.0
 41
0.8
 51
0.0
  7
KANJI0
  0
LINE
  8
0
  6
LTYPE1
 62
     3
 10
113.227118653
 20
199.527118619
 11
113.22711866
 21
241.9
  0
LINE
  8
0
  6
CONTINUOUS
 62
     3
 10
97.23
 20
214.95
 11
97.23
 21
240.0
  0
LINE
  8
0
  6
CONTINUOUS
 62
     3
 10
97.23
 20
239.0
 11
99.161851653
 21
238.48236191
  0
LINE
  8
0
  6
CONTINUOUS
 62
     3
 10
97.23
 20
239.0
 11
99.161851653
 21
239.51763809
  0
LINE
  8
0
  6
CONTINUOUS
 62
     3
 10
97.23
 20
239.0
 11
113.23
 21
239.0
  0
LINE
  8
0
  6
CONTINUOUS
 62
     3
 10
113.23
 20
239.0
 11
111.298148347
 21
239.51763809
  0
LINE
  8
0
  6
CONTINUOUS
 62
     3
 10
113.23
 20
239.0
 11
111.298148347
 21
238.48236191
  0
LINE
  8
0
  6
CONTINUOUS
 62
     3
 10
113.23
 20
238.0
 11
113.23
 21
238.0
  0
TEXT
  8
0
  6
CONTINUOUS
 62
     3
 10
103.08
 20
240.0
 30
0.3
 40
2.5
  1
１６
 50
0.0
 41
0.8
 51
0.0
  7
KANJI0
  0
LINE
  8
0
  6
CONTINUOUS
 62
     3
 10
88.73
 20
125.3
 11
83.53
 21
125.3
  0
LINE
  8
0
  6
CONTINUOUS
 62
     3
 10
84.53
 20
125.3
 11
85.04763809
 21
127.231851653
  0
LINE
  8
0
  6
CONTINUOUS
 62
     3
 10
84.53
 20
125.3
 11
84.01236191
 21
127.231851653
  0
LINE
  8
0
  6
CONTINUOUS
 62
     3
 10
84.53
 20
125.3
 11
84.53
 21
164.52
  0
LINE
  8
0
  6
CONTINUOUS
 62
     3
 10
84.53
 20
164.52
 11
84.01236191
 21
162.588148347
  0
LINE
  8
0
  6
CONTINUOUS
 62
     3
 10
84.53
 20
164.52
 11
85.04763809
 21
162.588148347
  0
LINE
  8
0
  6
CONTINUOUS
 62
     3
 10
90.53
 20
164.52
 11
83.53
 21
164.52
  0
TEXT
  8
0
  6
CONTINUOUS
 62
     3
 10
83.53
 20
140.46
 30
0.3
 40
2.5
  1
３９．２
 50
90.0
 41
0.8
 51
0.0
  7
KANJI0
  0
LINE
  8
0
  6
CONTINUOUS
 62
     3
 10
84.53
 20
125.3
 11
85.04763809
 21
127.231851653
  0
LINE
  8
0
  6
CONTINUOUS
 62
     3
 10
84.53
 20
125.3
 11
84.01236191
 21
127.231851653
  0
LINE
  8
0
  6
CONTINUOUS
 62
     3
 10
84.53
 20
128.3
 11
84.53
 21
125.3
  0
LINE
  8
0
  6
CONTINUOUS
 62
     3
 10
84.53
 20
125.3
 11
84.53
 21
124.85
  0
LINE
  8
0
  6
CONTINUOUS
 62
     3
 10
84.53
 20
124.85
 11
84.53
 21
115.25
  0
LINE
  8
0
  6
CONTINUOUS
 62
     3
 10
84.53
 20
124.85
 11
84.01236191
 21
122.918148347
  0
LINE
  8
0
  6
CONTINUOUS
 62
     3
 10
84.53
 20
124.85
 11
85.04763809
 21
122.918148347
  0
LINE
  8
0
  6
CONTINUOUS
 62
     3
 10
88.98
 20
124.85
 11
83.53
 21
124.85
  0
TEXT
  8
0
  6
CONTINUOUS
 62
     3
 10
83.53
 20
115.25
 30
0.3
 40
2.5
  1
０．５
 50
90.0
 41
0.8
 51
0.0
  7
KANJI0
  0
LINE
  8
0
  6
CONTINUOUS
 62
     3
 10
161.13
 20
172.75
 11
163.061851653
 21
172.23236191
  0
LINE
  8
0
  6
CONTINUOUS
 62
     3
 10
161.13
 20
172.75
 11
163.061851653
 21
173.26763809
  0
LINE
  8
0
  6
CONTINUOUS
 62
     3
 10
161.13
 20
172.75
 11
182.28
 21
172.75
  0
LINE
  8
0
  6
CONTINUOUS
 62
     3
 10
182.28
 20
172.75
 11
180.348148347
 21
173.26763809
  0
LINE
  8
0
  6
CONTINUOUS
 62
     3
 10
182.28
 20
172.75
 11
180.348148347
 21
172.23236191
  0
TEXT
  8
0
  6
CONTINUOUS
 62
     3
 10
167.255
 20
173.75
 30
0.3
 40
2.5
  1
２１．２
 50
0.0
 41
0.8
 51
0.0
  7
KANJI0
  0
LINE
  8
0
  6
CONTINUOUS
 62
     3
 10
161.13
 20
158.05
 11
161.13
 21
173.75
  0
LINE
  8
0
  6
CONTINUOUS
 62
     3
 10
182.28
 20
165.45
 11
182.28
 21
173.75
  0
LINE
  8
0
  6
LTYPE1
 62
     3
 10
171.772881398
 20
150.9135593
 11
171.772881403
 21
169.9
  0
LINE
  8
0
  6
CONTINUOUS
 62
     3
 10
171.78
 20
167.4
 11
173.711851653
 21
166.88236191
  0
LINE
  8
0
  6
CONTINUOUS
 62
     3
 10
171.78
 20
167.4
 11
173.711851653
 21
167.91763809
  0
LINE
  8
0
  6
CONTINUOUS
 62
     3
 10
181.38
 20
167.4
 11
171.78
 21
167.4
  0
LINE
  8
0
  6
CONTINUOUS
 62
     3
 10
171.78
 20
167.4
 11
165.48
 21
167.4
  0
LINE
  8
0
  6
CONTINUOUS
 62
     3
 10
165.48
 20
167.4
 11
162.48
 21
167.4
  0
LINE
  8
0
  6
CONTINUOUS
 62
     3
 10
165.48
 20
167.4
 11
163.548148347
 21
167.91763809
  0
LINE
  8
0
  6
CONTINUOUS
 62
     3
 10
165.48
 20
167.4
 11
163.548148347
 21
166.88236191
  0
LINE
  8
0
  6
CONTINUOUS
 62
     3
 10
165.48
 20
165.4
 11
165.48
 21
168.4
  0
TEXT
  8
0
  6
CONTINUOUS
 62
     3
 10
174.78
 20
168.4
 30
0.3
 40
2.5
  1
６．３
 50
0.0
 41
0.8
 51
0.0
  7
KANJI0
  0
LINE
  8
0
  6
CONTINUOUS
 62
     3
 10
164.63
 20
164.52
 11
154.93
 21
164.52
  0
LINE
  8
0
  6
CONTINUOUS
 62
     3
 10
155.93
 20
164.52
 11
156.44763809
 21
166.451851653
  0
LINE
  8
0
  6
CONTINUOUS
 62
     3
 10
155.93
 20
164.52
 11
155.41236191
 21
166.451851653
  0
LINE
  8
0
  6
CONTINUOUS
 62
     3
 10
155.93
 20
167.52
 11
155.93
 21
164.52
  0
LINE
  8
0
  6
CONTINUOUS
 62
     3
 10
155.93
 20
164.52
 11
155.93
 21
156.82
  0
LINE
  8
0
  6
CONTINUOUS
 62
     3
 10
155.93
 20
156.82
 11
155.41236191
 21
154.888148347
  0
LINE
  8
0
  6
CONTINUOUS
 62
     3
 10
155.93
 20
156.82
 11
156.44763809
 21
154.888148347
  0
LINE
  8
0
  6
CONTINUOUS
 62
     3
 10
160.13
 20
156.82
 11
154.93
 21
156.82
  0
TEXT
  8
0
  6
CONTINUOUS
 62
     3
 10
154.93
 20
157.22
 30
0.3
 40
2.5
  1
７．７
 50
90.0
 41
0.8
 51
0.0
  7
KANJI0
  0
LINE
  8
0
  6
CONTINUOUS
 62
     3
 10
155.93
 20
156.82
 11
155.93
 21
154.02
  0
LINE
  8
0
  6
CONTINUOUS
 62
     3
 10
155.93
 20
156.82
 11
155.41236191
 21
154.888148347
  0
LINE
  8
0
  6
CONTINUOUS
 62
     3
 10
155.93
 20
156.82
 11
156.44763809
 21
154.888148347
  0
LINE
  8
0
  6
CONTINUOUS
 62
     3
 10
155.93
 20
156.82
 11
155.93
 21
129.82
  0
LINE
  8
0
  6
CONTINUOUS
 62
     3
 10
155.93
 20
129.82
 11
156.44763809
 21
131.751851653
  0
LINE
  8
0
  6
CONTINUOUS
 62
     3
 10
155.93
 20
129.82
 11
155.41236191
 21
131.751851653
  0
LINE
  8
0
  6
CONTINUOUS
 62
     3
 10
158.83
 20
129.82
 11
154.93
 21
129.82
  0
TEXT
  8
0
  6
CONTINUOUS
 62
     3
 10
154.93
 20
141.17
 30
0.3
 40
2.5
  1
２７
 50
90.0
 41
0.8
 51
0.0
  7
KANJI0
  0
LINE
  8
0
  6
CONTINUOUS
 62
     3
 10
132.23
 20
158.02
 11
132.887275803
 21
156.131088006
  0
LINE
  8
0
  6
CONTINUOUS
 62
     3
 10
132.23
 20
158.02
 11
133.743673539
 21
156.712792129
  0
LINE
  8
0
  6
CONTINUOUS
 62
     3
 10
132.23
 20
158.02
 11
139.43
 21
147.42
  0
LINE
  8
0
  6
CONTINUOUS
 62
     3
 10
139.43
 20
147.42
 11
148.33
 21
147.42
  0
TEXT
  8
0
  6
CONTINUOUS
 62
     3
 10
139.43
 20
148.42
 30
0.3
 40
2.5
  1
５－Φ４
 50
0.0
 41
0.8
 51
0.0
  7
KANJI0
  0
LINE
  8
0
  6
CONTINUOUS
 62
     3
 10
95.53
 20
215.42
 11
94.712509475
 21
217.245297028
  0
LINE
  8
0
  6
CONTINUOUS
 62
     3
 10
95.53
 20
215.42
 11
93.909383924
 21
216.592008334
  0
LINE
  8
0
  6
CONTINUOUS
 62
     3
 10
95.53
 20
215.42
 11
84.63
 21
228.82
  0
LINE
  8
0
  6
CONTINUOUS
 62
     3
 10
84.63
 20
228.82
 11
75.73
 21
228.82
  0
TEXT
  8
0
  6
CONTINUOUS
 62
     3
 10
75.73
 20
229.82
 30
0.3
 40
2.5
  1
Φ４．５
 50
0.0
 41
0.8
 51
0.0
  7
KANJI0
  0
LINE
  8
0
  6
CONTINUOUS
 62
     3
 10
126.63
 20
217.42
 11
128.20916873
 21
218.647284043
  0
LINE
  8
0
  6
CONTINUOUS
 62
     3
 10
126.63
 20
217.42
 11
127.383958215
 21
219.272443524
  0
LINE
  8
0
  6
CONTINUOUS
 62
     3
 10
126.63
 20
217.42
 11
136.63
 21
230.62
  0
LINE
  8
0
  6
CONTINUOUS
 62
     3
 10
136.63
 20
230.62
 11
145.53
 21
230.62
  0
TEXT
  8
0
  6
CONTINUOUS
 62
     3
 10
136.63
 20
231.62
 30
0.3
 40
2.5
  1
５－Φ４
 50
0.0
 41
0.8
 51
0.0
  7
KANJI0
  0
LINE
  8
0
  6
CONTINUOUS
 62
     3
 10
229.352118646
 20
129.827118602
 11
221.352118646
 21
129.827118604
  0
LINE
  8
0
  6
LTYPE1
 62
     3
 10
225.372881357
 20
167.527118607
 11
225.37288137
 21
120.0
  0
TEXT
  8
1
  6
CONTINUOUS
 62
     3
 10
267.4021
 20
244.2894
 30
0.0
 40
4.512
  1
■ＰＡＮＥＬ　ＣＵＴ
 50
0.0
 41
0.875
 51
0.0
  7
KANJI1
  0
LINE
  8
0
  6
LTYPE1
 62
     3
 10
266.13
 20
181.87
 11
394.63
 21
181.87
  0
LINE
  8
0
  6
LTYPE1
 62
     3
 10
368.13
 20
160.87
 11
368.13
 21
234.87
  0
LINE
  8
0
  6
LTYPE1
 62
     3
 10
303.13
 20
231.37
 11
303.13
 21
161.37
  0
LINE
  8
0
  6
CONTINUOUS
 62
     1
 10
280.63
 20
205.87
 11
325.63
 21
205.87
  0
LINE
  8
0
  6
CONTINUOUS
 62
     1
 10
345.63
 20
205.87
 11
390.63
 21
205.87
  0
LINE
  8
0
  6
CONTINUOUS
 62
     1
 10
345.63
 20
227.87
 11
345.63
 21
205.87
  0
LINE
  8
0
  6
CONTINUOUS
 62
     1
 10
325.63
 20
170.87
 11
325.63
 21
192.87
  0
LINE
  8
0
  6
CONTINUOUS
 62
     1
 10
325.63
 20
192.87
 11
280.63
 21
192.87
  0
LINE
  8
0
  6
CONTINUOUS
 62
     1
 10
390.63
 20
192.87
 11
345.63
 21
192.87
  0
LINE
  8
0
  6
CONTINUOUS
 62
     1
 10
345.63
 20
192.87
 11
345.63
 21
170.87
  0
LINE
  8
0
  6
CONTINUOUS
 62
     1
 10
325.63
 20
205.87
 11
325.63
 21
227.87
  0
LINE
  8
0
  6
CONTINUOUS
 62
     1
 10
390.63
 20
205.87
 11
390.63
 21
227.87
  0
LINE
  8
0
  6
CONTINUOUS
 62
     1
 10
390.63
 20
227.87
 11
345.63
 21
227.87
  0
LINE
  8
0
  6
CONTINUOUS
 62
     1
 10
390.63
 20
170.87
 11
390.63
 21
192.87
  0
LINE
  8
0
  6
CONTINUOUS
 62
     1
 10
345.63
 20
170.87
 11
390.63
 21
170.87
  0
LINE
  8
0
  6
CONTINUOUS
 62
     1
 10
280.63
 20
170.87
 11
325.63
 21
170.87
  0
LINE
  8
0
  6
CONTINUOUS
 62
     1
 10
280.63
 20
192.87
 11
280.63
 21
170.87
  0
LINE
  8
0
  6
CONTINUOUS
 62
     1
 10
325.63
 20
227.87
 11
280.63
 21
227.87
  0
LINE
  8
0
  6
CONTINUOUS
 62
     1
 10
280.63
 20
227.87
 11
280.63
 21
205.87
  0
TEXT
  8
1
  6
CONTINUOUS
 62
     3
 10
269.3021
 20
141.5894
 30
0.0
 40
4.512
  1
■コネクタ接続図
 50
0.0
 41
0.875
 51
0.0
  7
KANJI1
  0
CIRCLE
  8
1
  6
CONTINUOUS
 62
     3
 10
277.07417
 20
118.8127
 40
2.71425
  0
CIRCLE
  8
1
  6
CONTINUOUS
 62
     3
 10
284.59511
 20
118.8127
 40
2.71425
  0
CIRCLE
  8
1
  6
CONTINUOUS
 62
     3
 10
292.11605
 20
118.8127
 40
2.71425
  0
CIRCLE
  8
1
  6
CONTINUOUS
 62
     3
 10
299.63699
 20
118.8127
 40
2.71425
  0
CIRCLE
  8
1
  6
CONTINUOUS
 62
     3
 10
307.15793
 20
118.8127
 40
2.71425
  0
TEXT
  8
1
  6
CONTINUOUS
 62
     3
 10
274.94225
 20
116.74
 30
0.0
 40
4.935
  1
１
 50
0.0
 41
0.86
 51
0.0
  7
KANJI2
  0
TEXT
  8
1
  6
CONTINUOUS
 62
     3
 10
282.44345
 20
116.4439
 30
0.0
 40
4.935
  1
２
 50
0.0
 41
0.86
 51
0.0
  7
KANJI2
  0
TEXT
  8
1
  6
CONTINUOUS
 62
     3
 10
289.94465
 20
116.4439
 30
0.0
 40
4.935
  1
３
 50
0.0
 41
0.86
 51
0.0
  7
KANJI2
  0
TEXT
  8
1
  6
CONTINUOUS
 62
     3
 10
297.44585
 20
116.4439
 30
0.0
 40
4.935
  1
４
 50
0.0
 41
0.86
 51
0.0
  7
KANJI2
  0
TEXT
  8
1
  6
CONTINUOUS
 62
     3
 10
305.04575
 20
116.4439
 30
0.0
 40
4.935
  1
５
 50
0.0
 41
0.86
 51
0.0
  7
KANJI2
  0
LINE
  8
1
  6
CONTINUOUS
 62
     1
 10
273.215
 20
123.2542
 11
273.215
 21
113.8777
  0
LINE
  8
0
  6
CONTINUOUS
 62
     1
 10
310.63
 20
123.27
 11
310.63
 21
113.87
  0
LINE
  8
1
  6
CONTINUOUS
 62
     1
 10
273.215
 20
113.8777
 11
310.63
 21
113.8777
  0
LINE
  8
1
  6
CONTINUOUS
 62
     1
 10
310.63
 20
123.2542
 11
273.215
 21
123.2542
  0
LINE
  8
1
  6
CONTINUOUS
 62
     3
 10
299.8751
 20
128.1892
 11
299.8751
 21
129.6697
  0
LINE
  8
1
  6
CONTINUOUS
 62
     3
 10
299.8751
 20
129.6697
 11
307.2776
 21
129.6697
  0
LINE
  8
1
  6
CONTINUOUS
 62
     3
 10
307.2776
 20
129.6697
 11
307.2776
 21
128.1892
  0
TEXT
  8
1
  6
CONTINUOUS
 62
     3
 10
298.592
 20
124.4386
 30
0.0
 40
2.961
  1
０Ｖ
 50
0.0
 41
0.375
 51
0.0
  7
KANJI3
  0
TEXT
  8
1
  6
CONTINUOUS
 62
     3
 10
297.605
 20
130.3606
 30
0.0
 40
2.961
  1
ＤＣ　ＰＯＷＥＲ
 50
0.0
 41
0.533333333
 51
0.0
  7
KANJI4
  0
TEXT
  8
1
  6
CONTINUOUS
 62
     3
 10
275.563
 20
124.3606
 30
0.0
 40
2.961
  1
ＨＩ
 50
0.0
 41
0.533333333
 51
0.0
  7
KANJI4
  0
TEXT
  8
1
  6
CONTINUOUS
 62
     3
 10
282.763
 20
124.3606
 30
0.0
 40
2.961
  1
ＬＯ
 50
0.0
 41
0.533333333
 51
0.0
  7
KANJI4
  0
TEXT
  8
1
  6
CONTINUOUS
 62
     3
 10
288.868
 20
124.4606
 30
0.0
 40
2.961
  1
ＨＯＬＤ
 50
0.0
 41
0.533333333
 51
0.0
  7
KANJI4
  0
LINE
  8
1
  6
CONTINUOUS
 62
     3
 10
276.8751
 20
128.1892
 11
276.8751
 21
129.6697
  0
LINE
  8
1
  6
CONTINUOUS
 62
     3
 10
276.8751
 20
129.6697
 11
284.2776
 21
129.6697
  0
LINE
  8
1
  6
CONTINUOUS
 62
     3
 10
284.2776
 20
129.6697
 11
284.2776
 21
128.1892
  0
TEXT
  8
1
  6
CONTINUOUS
 62
     3
 10
276.805
 20
130.3606
 30
0.0
 40
2.961
  1
ＩＮＰＵＴ
 50
0.0
 41
0.533333333
 51
0.0
  7
KANJI4
  0
ARC
  8
0
  6
CONTINUOUS
 62
     1
 10
45.720086606
 20
164.027118622
 40
0.5
 50
90.0
 51
179.188499316
  0
ARC
  8
0
  6
CONTINUOUS
 62
     1
 10
61.552418429
 20
164.027118624
 40
0.5
 50
2.973731082
 51
90.0
  0
LINE
  8
0
  6
CONTINUOUS
 62
     1
 10
61.552418429
 20
164.527118624
 11
45.720086606
 21
164.527118622
  0
LINE
  8
0
  6
CONTINUOUS
 62
     1
 10
62.051745142
 20
164.053057674
 11
62.427118599
 21
156.827118624
  0
ARC
  8
0
  6
CONTINUOUS
 62
     1
 10
65.84321576
 20
156.327118624
 40
0.5
 50
0.811500686
 51
90.0
  0
LINE
  8
0
  6
CONTINUOUS
 62
     1
 10
65.84321576
 20
156.827118624
 11
62.427118599
 21
156.827118624
  0
LINE
  8
0
  6
CONTINUOUS
 62
     1
 10
60.727118608
 20
130.127118623
 11
60.727118604
 21
147.327118623
  0
ARC
  8
0
  6
CONTINUOUS
 62
     1
 10
61.227118604
 20
147.327118623
 40
0.5
 50
0.0
 51
180.0
  0
LINE
  8
0
  6
CONTINUOUS
 62
     1
 10
61.727118604
 20
147.327118623
 11
61.727118608
 21
129.827118623
  0
LINE
  8
0
  6
CONTINUOUS
 62
     1
 10
50.727118608
 20
130.12711862
 11
50.727118604
 21
147.32711862
  0
ARC
  8
0
  6
CONTINUOUS
 62
     1
 10
50.227118604
 20
147.32711862
 40
0.5
 50
0.0
 51
180.0
  0
LINE
  8
0
  6
CONTINUOUS
 62
     1
 10
49.727118604
 20
147.32711862
 11
49.727118608
 21
129.577118621
  0
LINE
  8
0
  6
CONTINUOUS
 62
     1
 10
44.450111842
 20
125.327118619
 11
45.227118609
 21
125.327118619
  0
ARC
  8
0
  6
CONTINUOUS
 62
     1
 10
44.450111842
 20
125.827118619
 40
0.5
 50
183.17983012
 51
269.999999999
  0
LINE
  8
0
  6
CONTINUOUS
 62
     1
 10
45.227118609
 20
126.927118619
 11
45.227118609
 21
127.327118619
  0
LINE
  8
0
  6
CONTINUOUS
 62
     1
 10
45.227118609
 20
127.327118619
 11
46.102118609
 21
127.327118619
  0
LINE
  8
0
  6
CONTINUOUS
 62
     1
 10
43.727118608
 20
129.827118618
 11
44.734063052
 21
129.827118619
  0
LINE
  8
0
  6
CONTINUOUS
 62
     1
 10
45.227118609
 20
125.327118619
 11
45.227118609
 21
127.327118619
  0
LINE
  8
0
  6
CONTINUOUS
 62
     1
 10
43.727118608
 20
129.827118618
 11
43.950881665
 21
125.799383609
  0
LINE
  8
0
  6
CONTINUOUS
 62
     1
 10
49.727118608
 20
129.82711862
 11
44.734063052
 21
129.827118619
  0
LINE
  8
0
  6
CONTINUOUS
 62
     1
 10
45.220136755
 20
164.034200065
 11
44.735617191
 21
129.827118619
  0
LINE
  8
0
  6
CONTINUOUS
 62
     1
 10
67.727118608
 20
129.827118625
 11
67.503355553
 21
125.799383615
  0
ARC
  8
0
  6
CONTINUOUS
 62
     1
 10
67.004125376
 20
125.827118625
 40
0.5
 50
269.999999999
 51
356.82016988
  0
LINE
  8
0
  6
CONTINUOUS
 62
     1
 10
66.227118609
 20
126.927118624
 11
66.227118609
 21
127.327118624
  0
LINE
  8
0
  6
CONTINUOUS
 62
     1
 10
66.227118609
 20
125.327118624
 11
66.227118609
 21
127.327118624
  0
LINE
  8
0
  6
CONTINUOUS
 62
     1
 10
67.727118608
 20
129.827118625
 11
61.727118608
 21
129.827118623
  0
LINE
  8
0
  6
CONTINUOUS
 62
     1
 10
66.225
 20
125.327118624
 11
67.004125376
 21
125.327118625
  0
LINE
  8
0
  6
CONTINUOUS
 62
     1
 10
66.34316561
 20
156.334200067
 11
66.718620024
 21
129.827118623
  0
LINE
  8
0
  6
CONTINUOUS
 62
     1
 10
66.227118609
 20
127.327118624
 11
45.677118609
 21
127.32711862
  0
ARC
  8
0
  6
CONTINUOUS
 62
     1
 10
55.449323478
 20
241.109139313
 40
116.259595471
 50
264.954667232
 51
275.318169297
  0
LINE
  8
0
  6
CONTINUOUS
 62
     1
 10
61.727118608
 20
129.577118623
 11
49.727118608
 21
129.577118621
  0
LINE
  8
0
  6
CONTINUOUS
 62
     1
 10
55.727118608
 20
130.127118622
 11
60.727118608
 21
130.127118623
  0
LINE
  8
0
  6
CONTINUOUS
 62
     1
 10
60.727118608
 20
130.377118623
 11
55.727118608
 21
130.377118622
  0
LINE
  8
0
  6
CONTINUOUS
 62
     1
 10
55.727118608
 20
130.877118622
 11
60.727118608
 21
130.877118623
  0
LINE
  8
0
  6
CONTINUOUS
 62
     1
 10
60.727118608
 20
131.377118623
 11
55.727118608
 21
131.377118622
  0
LINE
  8
0
  6
CONTINUOUS
 62
     1
 10
55.727118608
 20
131.877118622
 11
60.727118608
 21
131.877118623
  0
LINE
  8
0
  6
CONTINUOUS
 62
     1
 10
60.727118608
 20
132.377118623
 11
55.727118608
 21
132.377118622
  0
LINE
  8
0
  6
CONTINUOUS
 62
     1
 10
55.727118607
 20
132.877118622
 11
60.727118607
 21
132.877118623
  0
LINE
  8
0
  6
CONTINUOUS
 62
     1
 10
60.727118607
 20
133.377118623
 11
55.727118607
 21
133.377118622
  0
LINE
  8
0
  6
CONTINUOUS
 62
     1
 10
55.727118607
 20
133.877118622
 11
60.727118607
 21
133.877118623
  0
LINE
  8
0
  6
CONTINUOUS
 62
     1
 10
60.727118607
 20
134.377118623
 11
55.727118607
 21
134.377118622
  0
LINE
  8
0
  6
CONTINUOUS
 62
     1
 10
55.727118607
 20
134.877118622
 11
60.727118607
 21
134.877118623
  0
LINE
  8
0
  6
CONTINUOUS
 62
     1
 10
55.727118608
 20
130.127118622
 11
50.727118608
 21
130.12711862
  0
LINE
  8
0
  6
CONTINUOUS
 62
     1
 10
50.727118608
 20
130.37711862
 11
55.727118608
 21
130.377118622
  0
LINE
  8
0
  6
CONTINUOUS
 62
     1
 10
55.727118608
 20
130.877118622
 11
50.727118608
 21
130.87711862
  0
LINE
  8
0
  6
CONTINUOUS
 62
     1
 10
50.727118608
 20
131.37711862
 11
55.727118608
 21
131.377118622
  0
LINE
  8
0
  6
CONTINUOUS
 62
     1
 10
55.727118608
 20
131.877118622
 11
50.727118608
 21
131.87711862
  0
LINE
  8
0
  6
CONTINUOUS
 62
     1
 10
50.727118608
 20
132.37711862
 11
55.727118608
 21
132.377118622
  0
LINE
  8
0
  6
CONTINUOUS
 62
     1
 10
55.727118607
 20
132.877118622
 11
50.727118607
 21
132.87711862
  0
LINE
  8
0
  6
CONTINUOUS
 62
     1
 10
50.727118607
 20
133.37711862
 11
55.727118607
 21
133.377118622
  0
LINE
  8
0
  6
CONTINUOUS
 62
     1
 10
55.727118607
 20
133.877118622
 11
50.727118607
 21
133.87711862
  0
LINE
  8
0
  6
CONTINUOUS
 62
     1
 10
50.727118607
 20
134.37711862
 11
55.727118607
 21
134.377118622
  0
LINE
  8
0
  6
CONTINUOUS
 62
     1
 10
55.727118607
 20
134.877118622
 11
50.727118607
 21
134.87711862
  0
LINE
  8
0
  6
CONTINUOUS
 62
     1
 10
89.227118632
 20
129.827118624
 11
113.227118632
 21
129.827118617
  0
LINE
  8
0
  6
CONTINUOUS
 62
     1
 10
89.837118633
 20
130.127118624
 11
89.837118633
 21
130.377118624
  0
LINE
  8
0
  6
CONTINUOUS
 62
     1
 10
90.027118633
 20
130.127118624
 11
89.837118633
 21
130.127118624
  0
LINE
  8
0
  6
CONTINUOUS
 62
     1
 10
89.837118633
 20
130.377118624
 11
89.647118633
 21
130.377118624
  0
LINE
  8
0
  6
CONTINUOUS
 62
     1
 10
89.647118633
 20
130.377118624
 11
89.647118633
 21
130.877118624
  0
LINE
  8
0
  6
CONTINUOUS
 62
     1
 10
89.647118633
 20
130.877118624
 11
89.457118633
 21
130.877118624
  0
LINE
  8
0
  6
CONTINUOUS
 62
     1
 10
88.507118633
 20
133.377118624
 11
88.507118634
 21
133.877118624
  0
LINE
  8
0
  6
CONTINUOUS
 62
     1
 10
88.507118634
 20
133.877118624
 11
88.317118634
 21
133.877118624
  0
LINE
  8
0
  6
CONTINUOUS
 62
     1
 10
88.317118634
 20
133.877118624
 11
88.317118634
 21
134.377118624
  0
LINE
  8
0
  6
CONTINUOUS
 62
     1
 10
88.317118634
 20
134.377118624
 11
88.127118634
 21
134.377118624
  0
LINE
  8
0
  6
CONTINUOUS
 62
     1
 10
88.127118634
 20
134.377118624
 11
88.127118634
 21
134.877118624
  0
LINE
  8
0
  6
CONTINUOUS
 62
     1
 10
89.457118633
 20
130.877118624
 11
89.457118633
 21
131.377118624
  0
LINE
  8
0
  6
CONTINUOUS
 62
     1
 10
89.457118633
 20
131.377118624
 11
89.267118633
 21
131.377118624
  0
LINE
  8
0
  6
CONTINUOUS
 62
     1
 10
89.267118633
 20
131.377118624
 11
89.267118633
 21
131.877118624
  0
LINE
  8
0
  6
CONTINUOUS
 62
     1
 10
89.267118633
 20
131.877118624
 11
89.077118633
 21
131.877118624
  0
LINE
  8
0
  6
CONTINUOUS
 62
     1
 10
89.077118633
 20
131.877118624
 11
89.077118633
 21
132.377118624
  0
LINE
  8
0
  6
CONTINUOUS
 62
     1
 10
89.077118633
 20
132.377118624
 11
88.887118633
 21
132.377118624
  0
LINE
  8
0
  6
CONTINUOUS
 62
     1
 10
88.887118633
 20
132.377118624
 11
88.887118633
 21
132.877118624
  0
LINE
  8
0
  6
CONTINUOUS
 62
     1
 10
88.887118633
 20
132.877118624
 11
88.697118633
 21
132.877118624
  0
LINE
  8
0
  6
CONTINUOUS
 62
     1
 10
88.697118633
 20
132.877118624
 11
88.697118633
 21
133.377118624
  0
LINE
  8
0
  6
CONTINUOUS
 62
     1
 10
88.697118633
 20
133.377118624
 11
88.507118633
 21
133.377118624
  0
LINE
  8
0
  6
CONTINUOUS
 62
     1
 10
90.027118633
 20
130.127118624
 11
90.627118634
 21
134.127118623
  0
LINE
  8
0
  6
CONTINUOUS
 62
     1
 10
90.627118634
 20
134.127118623
 11
90.427118634
 21
134.877118623
  0
ARC
  8
0
  6
CONTINUOUS
 62
     1
 10
67.227118636
 20
144.191623716
 40
25.0
 50
338.125166713
 51
341.192418184
  0
LINE
  8
0
  6
CONTINUOUS
 62
     1
 10
90.827118644
 20
129.82711862
 11
90.996013913
 21
144.54211884
  0
ARC
  8
0
  6
CONTINUOUS
 62
     1
 10
92.977118639
 20
134.827118608
 40
0.5
 50
179.999654417
 51
270.00025629
  0
ARC
  8
0
  6
CONTINUOUS
 62
     1
 10
66.034224413
 20
146.577718181
 40
25.0
 50
332.093894917
 51
1.423668565
  0
LINE
  8
0
  6
CONTINUOUS
 62
     1
 10
89.227118632
 20
129.827118624
 11
89.450881688
 21
125.799383614
  0
LINE
  8
0
  6
CONTINUOUS
 62
     1
 10
89.975
 20
124.85
 11
89.975
 21
125.35
  0
ARC
  8
0
  6
CONTINUOUS
 62
     1
 10
89.950111865
 20
125.827118624
 40
0.5
 50
183.17983012
 51
269.999999989
  0
LINE
  8
0
  6
CONTINUOUS
 62
     1
 10
89.950111865
 20
125.327118624
 11
113.227118631
 21
125.327118617
  0
LINE
  8
0
  6
CONTINUOUS
 62
     1
 10
136.617118633
 20
130.127118611
 11
136.617118633
 21
130.377118611
  0
LINE
  8
0
  6
CONTINUOUS
 62
     1
 10
136.427118633
 20
130.127118611
 11
136.617118633
 21
130.127118611
  0
LINE
  8
0
  6
CONTINUOUS
 62
     1
 10
136.617118633
 20
130.377118611
 11
136.807118633
 21
130.377118611
  0
LINE
  8
0
  6
CONTINUOUS
 62
     1
 10
136.807118633
 20
130.377118611
 11
136.807118633
 21
130.877118611
  0
LINE
  8
0
  6
CONTINUOUS
 62
     1
 10
136.807118633
 20
130.877118611
 11
136.997118633
 21
130.877118611
  0
LINE
  8
0
  6
CONTINUOUS
 62
     1
 10
136.997118633
 20
130.877118611
 11
136.997118633
 21
131.377118611
  0
LINE
  8
0
  6
CONTINUOUS
 62
     1
 10
136.997118633
 20
131.377118611
 11
137.187118633
 21
131.377118611
  0
LINE
  8
0
  6
CONTINUOUS
 62
     1
 10
137.187118633
 20
131.377118611
 11
137.187118633
 21
131.877118611
  0
LINE
  8
0
  6
CONTINUOUS
 62
     1
 10
137.187118633
 20
131.877118611
 11
137.377118633
 21
131.877118611
  0
LINE
  8
0
  6
CONTINUOUS
 62
     1
 10
137.377118633
 20
131.877118611
 11
137.377118633
 21
132.377118611
  0
LINE
  8
0
  6
CONTINUOUS
 62
     1
 10
137.377118633
 20
132.377118611
 11
137.567118633
 21
132.377118611
  0
LINE
  8
0
  6
CONTINUOUS
 62
     1
 10
137.567118633
 20
132.377118611
 11
137.567118633
 21
132.877118611
  0
LINE
  8
0
  6
CONTINUOUS
 62
     1
 10
137.567118633
 20
132.877118611
 11
137.757118633
 21
132.877118611
  0
LINE
  8
0
  6
CONTINUOUS
 62
     1
 10
137.757118633
 20
132.877118611
 11
137.757118633
 21
133.377118611
  0
LINE
  8
0
  6
CONTINUOUS
 62
     1
 10
137.757118633
 20
133.377118611
 11
137.947118633
 21
133.377118611
  0
LINE
  8
0
  6
CONTINUOUS
 62
     1
 10
137.947118633
 20
133.377118611
 11
137.947118634
 21
133.877118611
  0
LINE
  8
0
  6
CONTINUOUS
 62
     1
 10
137.947118634
 20
133.877118611
 11
138.137118634
 21
133.877118611
  0
LINE
  8
0
  6
CONTINUOUS
 62
     1
 10
138.137118634
 20
133.877118611
 11
138.137118634
 21
134.377118611
  0
LINE
  8
0
  6
CONTINUOUS
 62
     1
 10
138.137118634
 20
134.377118611
 11
138.327118634
 21
134.377118611
  0
LINE
  8
0
  6
CONTINUOUS
 62
     1
 10
138.327118634
 20
134.377118611
 11
138.327118634
 21
134.877118611
  0
LINE
  8
0
  6
CONTINUOUS
 62
     1
 10
136.427118633
 20
130.127118611
 11
135.827118634
 21
134.127118612
  0
LINE
  8
0
  6
CONTINUOUS
 62
     1
 10
135.827118634
 20
134.127118612
 11
136.027118634
 21
134.877118611
  0
ARC
  8
0
  6
CONTINUOUS
 62
     1
 10
159.227118636
 20
144.191623692
 40
25.0
 50
198.807581816
 51
201.874833287
  0
LINE
  8
0
  6
CONTINUOUS
 62
     1
 10
135.627118633
 20
129.827118615
 11
135.45466526
 21
144.852118836
  0
LINE
  8
0
  6
CONTINUOUS
 62
     1
 10
137.227118633
 20
129.827118616
 11
137.003355576
 21
125.799383602
  0
ARC
  8
0
  6
CONTINUOUS
 62
     1
 10
136.5041254
 20
125.827118611
 40
0.5
 50
269.999999989
 51
356.82016988
  0
ARC
  8
0
  6
CONTINUOUS
 62
     1
 10
133.477118639
 20
134.827118607
 40
0.5
 50
270.000289135
 51
0.000327848
  0
LINE
  8
0
  6
CONTINUOUS
 62
     1
 10
136.475
 20
125.35
 11
136.475
 21
124.85
  0
LINE
  8
0
  6
CONTINUOUS
 62
     1
 10
92.977120876
 20
134.327118608
 11
133.477121163
 21
134.327118607
  0
LINE
  8
0
  6
CONTINUOUS
 62
     1
 10
137.227118632
 20
129.827118611
 11
113.227118632
 21
129.827118617
  0
LINE
  8
0
  6
CONTINUOUS
 62
     1
 10
136.504125399
 20
125.327118611
 11
113.227118631
 21
125.327118617
  0
LINE
  8
0
  6
CONTINUOUS
 62
     1
 10
136.475
 20
124.85
 11
89.975
 21
124.85
  0
ARC
  8
0
  6
CONTINUOUS
 62
     1
 10
160.420012861
 20
146.577718157
 40
25.0
 50
178.576331032
 51
207.906105083
  0
LINE
  8
0
  6
CONTINUOUS
 62
     1
 10
133.977118639
 20
134.827121468
 11
133.97711864
 21
154.327118607
  0
LINE
  8
0
  6
CONTINUOUS
 62
     1
 10
134.734546248
 20
164.527118601
 11
113.227118642
 21
164.527118607
  0
ARC
  8
0
  6
CONTINUOUS
 62
     1
 10
134.734546248
 20
164.027118601
 40
0.5
 50
0.657598435
 51
89.999999991
  0
ARC
  8
0
  6
CONTINUOUS
 62
     1
 10
134.817219066
 20
156.327118606
 40
0.5
 50
0.0
 51
90.0
  0
LINE
  8
0
  6
CONTINUOUS
 62
     1
 10
135.427730073
 20
147.198847013
 11
135.234513316
 21
164.032857104
  0
ARC
  8
0
  6
CONTINUOUS
 62
     1
 10
133.47711864
 20
154.327118607
 40
0.5
 50
0.0
 51
89.999621431
  0
CIRCLE
  8
0
  6
CONTINUOUS
 62
     1
 10
130.827118641
 20
159.327118602
 40
2.0
  0
CIRCLE
  8
0
  6
CONTINUOUS
 62
     1
 10
125.727118641
 20
159.327118603
 40
2.0
  0
CIRCLE
  8
0
  6
CONTINUOUS
 62
     1
 10
115.727118641
 20
159.327118606
 40
2.0
  0
CIRCLE
  8
0
  6
CONTINUOUS
 62
     1
 10
120.827118641
 20
159.327118605
 40
2.0
  0
CIRCLE
  8
0
  6
CONTINUOUS
 62
     1
 10
103.827118641
 20
159.927118608
 40
1.75
  0
CIRCLE
  8
0
  6
CONTINUOUS
 62
     1
 10
99.327118641
 20
159.927118608
 40
1.75
  0
CIRCLE
  8
0
  6
CONTINUOUS
 62
     1
 10
110.727118641
 20
159.327118607
 40
2.0
  0
ARC
  8
0
  6
CONTINUOUS
 62
     1
 10
91.719691036
 20
164.027118612
 40
0.5
 50
89.999999991
 51
179.342401565
  0
LINE
  8
0
  6
CONTINUOUS
 62
     1
 10
91.719691036
 20
164.527118612
 11
113.227118642
 21
164.527118607
  0
ARC
  8
0
  6
CONTINUOUS
 62
     1
 10
91.637018216
 20
156.327118611
 40
0.5
 50
90.0
 51
180.0
  0
ARC
  8
0
  6
CONTINUOUS
 62
     1
 10
92.97711864
 20
154.327118608
 40
0.5
 50
90.0
 51
180.000000001
  0
LINE
  8
0
  6
CONTINUOUS
 62
     1
 10
92.47711864
 20
154.327118608
 11
92.477118639
 21
134.827121623
  0
LINE
  8
0
  6
CONTINUOUS
 62
     1
 10
134.817219066
 20
156.827118606
 11
91.537018216
 21
156.827118608
  0
LINE
  8
0
  6
CONTINUOUS
 62
     1
 10
133.477121943
 20
154.827118607
 11
92.97711864
 21
154.827118608
  0
LINE
  8
0
  6
CONTINUOUS
 62
     1
 10
91.026507205
 20
147.198846857
 11
91.219723967
 21
164.032857115
  0
ARC
  8
0
  6
CONTINUOUS
 62
     1
 10
89.677118625
 20
91.477118624
 40
0.5
 50
90.0
 51
180.0
  0
ARC
  8
0
  6
CONTINUOUS
 62
     1
 10
89.677118625
 20
91.477118624
 40
0.25
 50
90.0
 51
180.0
  0
LINE
  8
0
  6
CONTINUOUS
 62
     1
 10
89.427118625
 20
91.477118624
 11
89.427118625
 21
90.477118624
  0
LINE
  8
0
  6
CONTINUOUS
 62
     1
 10
113.177118625
 20
90.477118617
 11
89.177118625
 21
90.477118624
  0
LINE
  8
0
  6
CONTINUOUS
 62
     1
 10
88.077118624
 20
84.977118624
 11
89.157118624
 21
84.977118624
  0
LINE
  8
0
  6
CONTINUOUS
 62
     1
 10
88.077118624
 20
84.977118624
 11
88.077118622
 21
79.977118624
  0
LINE
  8
0
  6
CONTINUOUS
 62
     1
 10
88.277118624
 20
84.977118624
 11
88.277118622
 21
79.977118624
  0
LINE
  8
0
  6
CONTINUOUS
 62
     1
 10
88.477118624
 20
84.977118624
 11
88.477118622
 21
79.977118624
  0
LINE
  8
0
  6
CONTINUOUS
 62
     1
 10
88.677118624
 20
84.977118624
 11
88.677118622
 21
79.977118624
  0
LINE
  8
0
  6
CONTINUOUS
 62
     1
 10
88.877118624
 20
84.977118624
 11
88.877118622
 21
79.977118624
  0
LINE
  8
0
  6
CONTINUOUS
 62
     1
 10
88.077118621
 20
74.977118624
 11
89.157118621
 21
74.977118624
  0
LINE
  8
0
  6
CONTINUOUS
 62
     1
 10
88.077118621
 20
74.977118624
 11
88.077118622
 21
79.977118624
  0
LINE
  8
0
  6
CONTINUOUS
 62
     1
 10
88.277118621
 20
74.977118624
 11
88.277118622
 21
79.977118624
  0
LINE
  8
0
  6
CONTINUOUS
 62
     1
 10
88.477118621
 20
74.977118624
 11
88.477118622
 21
79.977118624
  0
LINE
  8
0
  6
CONTINUOUS
 62
     1
 10
88.677118621
 20
74.977118624
 11
88.677118622
 21
79.977118624
  0
LINE
  8
0
  6
CONTINUOUS
 62
     1
 10
88.877118621
 20
74.977118624
 11
88.877118622
 21
79.977118624
  0
ARC
  8
0
  6
CONTINUOUS
 62
     1
 10
89.677118619
 20
68.477118624
 40
0.25
 50
180.0
 51
270.0
  0
LINE
  8
0
  6
CONTINUOUS
 62
     1
 10
89.42711862
 20
69.477118624
 11
89.427118619
 21
68.477118624
  0
ARC
  8
0
  6
CONTINUOUS
 62
     1
 10
89.677118619
 20
68.477118624
 40
0.5
 50
180.000000001
 51
270.0
  0
LINE
  8
0
  6
CONTINUOUS
 62
     1
 10
89.177118625
 20
91.477118624
 11
89.177118619
 21
68.477118624
  0
LINE
  8
0
  6
CONTINUOUS
 62
     1
 10
138.277118621
 20
74.977118611
 11
137.197118621
 21
74.977118611
  0
LINE
  8
0
  6
CONTINUOUS
 62
     1
 10
138.277118621
 20
74.977118611
 11
138.277118622
 21
79.977118611
  0
LINE
  8
0
  6
CONTINUOUS
 62
     1
 10
138.077118621
 20
74.977118611
 11
138.077118622
 21
79.977118611
  0
LINE
  8
0
  6
CONTINUOUS
 62
     1
 10
137.877118621
 20
74.977118611
 11
137.877118622
 21
79.977118611
  0
LINE
  8
0
  6
CONTINUOUS
 62
     1
 10
137.677118621
 20
74.977118611
 11
137.677118622
 21
79.977118611
  0
LINE
  8
0
  6
CONTINUOUS
 62
     1
 10
137.477118621
 20
74.977118611
 11
137.477118622
 21
79.977118611
  0
ARC
  8
0
  6
CONTINUOUS
 62
     1
 10
136.677118619
 20
68.477118611
 40
0.25
 50
270.0
 51
0.0
  0
LINE
  8
0
  6
CONTINUOUS
 62
     1
 10
136.927118619
 20
68.477118611
 11
136.92711862
 21
69.477118611
  0
ARC
  8
0
  6
CONTINUOUS
 62
     1
 10
136.677118619
 20
68.477118611
 40
0.5
 50
270.0
 51
0.000066922
  0
LINE
  8
0
  6
CONTINUOUS
 62
     1
 10
89.677118619
 20
67.977118624
 11
136.677118619
 21
67.977118611
  0
LINE
  8
0
  6
CONTINUOUS
 62
     1
 10
89.677118619
 20
68.227118624
 11
136.677118619
 21
68.227118611
  0
LINE
  8
0
  6
CONTINUOUS
 62
     1
 10
89.42
 20
69.477118624
 11
137.17711862
 21
69.477118611
  0
LINE
  8
0
  6
CONTINUOUS
 62
     1
 10
138.277118624
 20
84.977118611
 11
137.197118624
 21
84.977118611
  0
LINE
  8
0
  6
CONTINUOUS
 62
     1
 10
138.277118624
 20
84.977118611
 11
138.277118622
 21
79.977118611
  0
LINE
  8
0
  6
CONTINUOUS
 62
     1
 10
138.077118624
 20
84.977118611
 11
138.077118622
 21
79.977118611
  0
LINE
  8
0
  6
CONTINUOUS
 62
     1
 10
137.877118624
 20
84.977118611
 11
137.877118622
 21
79.977118611
  0
LINE
  8
0
  6
CONTINUOUS
 62
     1
 10
137.677118624
 20
84.977118611
 11
137.677118622
 21
79.977118611
  0
LINE
  8
0
  6
CONTINUOUS
 62
     1
 10
137.477118624
 20
84.977118611
 11
137.477118622
 21
79.977118611
  0
ARC
  8
0
  6
CONTINUOUS
 62
     1
 10
136.677118625
 20
91.477118611
 40
0.5
 50
0.0
 51
90.0
  0
ARC
  8
0
  6
CONTINUOUS
 62
     1
 10
136.677118625
 20
91.477118611
 40
0.25
 50
0.0
 51
90.0
  0
LINE
  8
0
  6
CONTINUOUS
 62
     1
 10
136.927118625
 20
90.477118611
 11
136.927118625
 21
91.477118611
  0
LINE
  8
0
  6
CONTINUOUS
 62
     1
 10
113.177118625
 20
90.477118617
 11
137.177118625
 21
90.477118611
  0
LINE
  8
0
  6
CONTINUOUS
 62
     1
 10
136.677118626
 20
91.977118611
 11
89.677118626
 21
91.977118624
  0
LINE
  8
0
  6
CONTINUOUS
 62
     1
 10
136.677118625
 20
91.727118611
 11
89.677118625
 21
91.727118624
  0
LINE
  8
0
  6
CONTINUOUS
 62
     1
 10
137.177118619
 20
68.477119195
 11
137.177118625
 21
91.477118611
  0
LINE
  8
0
  6
CONTINUOUS
 62
     1
 10
130.58
 20
86.075
 11
127.03
 21
86.075
  0
LINE
  8
0
  6
CONTINUOUS
 62
     1
 10
130.58
 20
86.075
 11
130.98
 21
85.575
  0
LINE
  8
0
  6
CONTINUOUS
 62
     1
 10
130.98
 20
85.575
 11
130.38
 21
85.075
  0
LINE
  8
0
  6
CONTINUOUS
 62
     1
 10
130.38
 20
84.975
 11
130.98
 21
85.475
  0
LINE
  8
0
  6
CONTINUOUS
 62
     1
 10
130.98
 20
85.475
 11
131.38
 21
85.075
  0
LINE
  8
0
  6
CONTINUOUS
 62
     1
 10
131.38
 20
85.075
 11
130.78
 21
81.475
  0
LINE
  8
0
  6
CONTINUOUS
 62
     1
 10
125.23
 20
75.875
 11
124.78
 21
76.375
  0
LINE
  8
0
  6
CONTINUOUS
 62
     1
 10
124.78
 20
76.375
 11
125.43
 21
76.875
  0
LINE
  8
0
  6
CONTINUOUS
 62
     1
 10
125.38
 20
76.975
 11
125.98
 21
80.375
  0
LINE
  8
0
  6
CONTINUOUS
 62
     1
 10
125.38
 20
76.975
 11
124.78
 21
76.475
  0
LINE
  8
0
  6
CONTINUOUS
 62
     1
 10
124.78
 20
76.475
 11
124.33
 21
76.875
  0
LINE
  8
0
  6
CONTINUOUS
 62
     1
 10
128.98
 20
76.875
 11
129.38
 21
76.375
  0
LINE
  8
0
  6
CONTINUOUS
 62
     1
 10
129.38
 20
76.375
 11
128.78
 21
75.875
  0
LINE
  8
0
  6
CONTINUOUS
 62
     1
 10
130.58
 20
80.475
 11
129.98
 21
76.875
  0
LINE
  8
0
  6
CONTINUOUS
 62
     1
 10
129.98
 20
76.875
 11
129.43
 21
76.475
  0
LINE
  8
0
  6
CONTINUOUS
 62
     1
 10
129.43
 20
76.475
 11
128.98
 21
76.975
  0
LINE
  8
0
  6
CONTINUOUS
 62
     1
 10
128.98
 20
76.975
 11
129.58
 21
80.375
  0
LINE
  8
0
  6
CONTINUOUS
 62
     1
 10
128.98
 20
76.875
 11
125.43
 21
76.875
  0
LINE
  8
0
  6
CONTINUOUS
 62
     1
 10
125.23
 20
75.875
 11
128.78
 21
75.875
  0
LINE
  8
0
  6
CONTINUOUS
 62
     1
 10
129.78
 20
81.475
 11
130.18
 21
80.975
  0
LINE
  8
0
  6
CONTINUOUS
 62
     1
 10
130.18
 20
80.975
 11
129.58
 21
80.475
  0
LINE
  8
0
  6
CONTINUOUS
 62
     1
 10
130.78
 20
81.475
 11
130.23
 21
81.075
  0
LINE
  8
0
  6
CONTINUOUS
 62
     1
 10
130.23
 20
81.075
 11
129.78
 21
81.575
  0
LINE
  8
0
  6
CONTINUOUS
 62
     1
 10
129.58
 20
80.375
 11
130.18
 21
80.875
  0
LINE
  8
0
  6
CONTINUOUS
 62
     1
 10
130.18
 20
80.875
 11
130.58
 21
80.475
  0
LINE
  8
0
  6
CONTINUOUS
 62
     1
 10
129.78
 20
81.575
 11
130.38
 21
84.975
  0
LINE
  8
0
  6
CONTINUOUS
 62
     1
 10
126.03
 20
80.475
 11
129.58
 21
80.475
  0
LINE
  8
0
  6
CONTINUOUS
 62
     1
 10
126.03
 20
80.475
 11
125.58
 21
80.975
  0
LINE
  8
0
  6
CONTINUOUS
 62
     1
 10
125.58
 20
80.975
 11
126.23
 21
81.475
  0
LINE
  8
0
  6
CONTINUOUS
 62
     1
 10
125.98
 20
80.375
 11
125.53
 21
80.875
  0
LINE
  8
0
  6
CONTINUOUS
 62
     1
 10
125.53
 20
80.875
 11
124.98
 21
80.475
  0
LINE
  8
0
  6
CONTINUOUS
 62
     1
 10
126.18
 20
81.575
 11
125.58
 21
81.075
  0
LINE
  8
0
  6
CONTINUOUS
 62
     1
 10
125.58
 20
81.075
 11
125.13
 21
81.475
  0
LINE
  8
0
  6
CONTINUOUS
 62
     1
 10
124.33
 20
76.875
 11
124.98
 21
80.475
  0
LINE
  8
0
  6
CONTINUOUS
 62
     1
 10
129.78
 20
81.475
 11
126.23
 21
81.475
  0
LINE
  8
0
  6
CONTINUOUS
 62
     1
 10
126.83
 20
85.075
 11
126.38
 21
85.575
  0
LINE
  8
0
  6
CONTINUOUS
 62
     1
 10
126.38
 20
85.575
 11
127.03
 21
86.075
  0
LINE
  8
0
  6
CONTINUOUS
 62
     1
 10
126.78
 20
84.975
 11
126.33
 21
85.475
  0
LINE
  8
0
  6
CONTINUOUS
 62
     1
 10
126.33
 20
85.475
 11
125.78
 21
85.075
  0
LINE
  8
0
  6
CONTINUOUS
 62
     1
 10
126.83
 20
85.075
 11
130.38
 21
85.075
  0
LINE
  8
0
  6
CONTINUOUS
 62
     1
 10
125.13
 20
81.475
 11
125.78
 21
85.075
  0
LINE
  8
0
  6
CONTINUOUS
 62
     1
 10
126.18
 20
81.575
 11
126.78
 21
84.975
  0
LINE
  8
0
  6
CONTINUOUS
 62
     1
 10
201.372881368
 20
129.827118611
 11
225.372881368
 21
129.827118617
  0
LINE
  8
0
  6
CONTINUOUS
 62
     1
 10
201.982881367
 20
130.127118611
 11
201.982881367
 21
130.377118611
  0
LINE
  8
0
  6
CONTINUOUS
 62
     1
 10
202.172881367
 20
130.127118611
 11
201.982881367
 21
130.127118611
  0
LINE
  8
0
  6
CONTINUOUS
 62
     1
 10
201.982881367
 20
130.377118611
 11
201.792881367
 21
130.377118611
  0
LINE
  8
0
  6
CONTINUOUS
 62
     1
 10
201.792881367
 20
130.377118611
 11
201.792881367
 21
130.877118611
  0
LINE
  8
0
  6
CONTINUOUS
 62
     1
 10
201.792881367
 20
130.877118611
 11
201.602881367
 21
130.877118611
  0
LINE
  8
0
  6
CONTINUOUS
 62
     1
 10
201.602881367
 20
130.877118611
 11
201.602881367
 21
131.377118611
  0
LINE
  8
0
  6
CONTINUOUS
 62
     1
 10
201.602881367
 20
131.377118611
 11
201.412881367
 21
131.377118611
  0
LINE
  8
0
  6
CONTINUOUS
 62
     1
 10
201.412881367
 20
131.377118611
 11
201.412881367
 21
131.877118611
  0
LINE
  8
0
  6
CONTINUOUS
 62
     1
 10
201.412881367
 20
131.877118611
 11
201.222881367
 21
131.877118611
  0
LINE
  8
0
  6
CONTINUOUS
 62
     1
 10
201.222881367
 20
131.877118611
 11
201.222881367
 21
132.377118611
  0
LINE
  8
0
  6
CONTINUOUS
 62
     1
 10
201.222881367
 20
132.377118611
 11
201.032881367
 21
132.377118611
  0
LINE
  8
0
  6
CONTINUOUS
 62
     1
 10
201.032881367
 20
132.377118611
 11
201.032881367
 21
132.877118611
  0
LINE
  8
0
  6
CONTINUOUS
 62
     1
 10
201.032881367
 20
132.877118611
 11
200.842881367
 21
132.877118611
  0
LINE
  8
0
  6
CONTINUOUS
 62
     1
 10
200.842881367
 20
132.877118611
 11
200.842881367
 21
133.377118611
  0
LINE
  8
0
  6
CONTINUOUS
 62
     1
 10
200.842881367
 20
133.377118611
 11
200.652881367
 21
133.377118611
  0
LINE
  8
0
  6
CONTINUOUS
 62
     1
 10
200.652881367
 20
133.377118611
 11
200.652881366
 21
133.877118611
  0
LINE
  8
0
  6
CONTINUOUS
 62
     1
 10
200.652881366
 20
133.877118611
 11
200.462881366
 21
133.877118611
  0
LINE
  8
0
  6
CONTINUOUS
 62
     1
 10
200.462881366
 20
133.877118611
 11
200.462881366
 21
134.377118611
  0
LINE
  8
0
  6
CONTINUOUS
 62
     1
 10
200.462881366
 20
134.377118611
 11
200.272881366
 21
134.377118611
  0
LINE
  8
0
  6
CONTINUOUS
 62
     1
 10
200.272881366
 20
134.377118611
 11
200.272881366
 21
134.877118611
  0
LINE
  8
0
  6
CONTINUOUS
 62
     1
 10
202.172881367
 20
130.127118611
 11
202.772881366
 21
134.127118612
  0
LINE
  8
0
  6
CONTINUOUS
 62
     1
 10
202.772881366
 20
134.127118612
 11
202.572881366
 21
134.877118611
  0
ARC
  8
0
  6
CONTINUOUS
 62
     1
 10
179.372881364
 20
144.191623692
 40
25.0
 50
338.125166713
 51
341.192418184
  0
ARC
  8
0
  6
CONTINUOUS
 62
     1
 10
178.179987139
 20
146.577718157
 40
25.0
 50
332.093894917
 51
1.423668968
  0
LINE
  8
0
  6
CONTINUOUS
 62
     1
 10
202.972881367
 20
129.827118615
 11
203.14533474
 21
144.852118836
  0
LINE
  8
0
  6
CONTINUOUS
 62
     1
 10
203.865453752
 20
164.527118601
 11
225.372881358
 21
164.527118607
  0
LINE
  8
0
  6
CONTINUOUS
 62
     1
 10
203.172269927
 20
147.198847013
 11
203.365486684
 21
164.032857104
  0
ARC
  8
0
  6
CONTINUOUS
 62
     1
 10
203.865453752
 20
164.027118601
 40
0.5
 50
90.000000009
 51
179.342401565
  0
LINE
  8
0
  6
CONTINUOUS
 62
     1
 10
201.372881367
 20
129.827118616
 11
201.596644424
 21
125.799383602
  0
LINE
  8
0
  6
CONTINUOUS
 62
     1
 10
202.095874601
 20
125.327118611
 11
225.372881369
 21
125.327118617
  0
ARC
  8
0
  6
CONTINUOUS
 62
     1
 10
202.0958746
 20
125.827118611
 40
0.5
 50
183.17983012
 51
270.000000011
  0
LINE
  8
0
  6
CONTINUOUS
 62
     1
 10
202.125
 20
125.3
 11
202.125
 21
124.8
  0
LINE
  8
0
  6
CONTINUOUS
 62
     1
 10
249.372881368
 20
129.827118624
 11
225.372881368
 21
129.827118617
  0
LINE
  8
0
  6
CONTINUOUS
 62
     1
 10
248.762881367
 20
130.127118624
 11
248.762881367
 21
130.377118624
  0
LINE
  8
0
  6
CONTINUOUS
 62
     1
 10
248.572881367
 20
130.127118624
 11
248.762881367
 21
130.127118624
  0
LINE
  8
0
  6
CONTINUOUS
 62
     1
 10
248.762881367
 20
130.377118624
 11
248.952881367
 21
130.377118624
  0
LINE
  8
0
  6
CONTINUOUS
 62
     1
 10
248.952881367
 20
130.377118624
 11
248.952881367
 21
130.877118624
  0
LINE
  8
0
  6
CONTINUOUS
 62
     1
 10
248.952881367
 20
130.877118624
 11
249.142881367
 21
130.877118624
  0
LINE
  8
0
  6
CONTINUOUS
 62
     1
 10
249.142881367
 20
130.877118624
 11
249.142881367
 21
131.377118624
  0
LINE
  8
0
  6
CONTINUOUS
 62
     1
 10
249.142881367
 20
131.377118624
 11
249.332881367
 21
131.377118624
  0
LINE
  8
0
  6
CONTINUOUS
 62
     1
 10
249.332881367
 20
131.377118624
 11
249.332881367
 21
131.877118624
  0
LINE
  8
0
  6
CONTINUOUS
 62
     1
 10
249.332881367
 20
131.877118624
 11
249.522881367
 21
131.877118624
  0
LINE
  8
0
  6
CONTINUOUS
 62
     1
 10
249.522881367
 20
131.877118624
 11
249.522881367
 21
132.377118624
  0
LINE
  8
0
  6
CONTINUOUS
 62
     1
 10
249.522881367
 20
132.377118624
 11
249.712881367
 21
132.377118624
  0
LINE
  8
0
  6
CONTINUOUS
 62
     1
 10
249.712881367
 20
132.377118624
 11
249.712881367
 21
132.877118624
  0
LINE
  8
0
  6
CONTINUOUS
 62
     1
 10
249.712881367
 20
132.877118624
 11
249.902881367
 21
132.877118624
  0
LINE
  8
0
  6
CONTINUOUS
 62
     1
 10
249.902881367
 20
132.877118624
 11
249.902881367
 21
133.377118624
  0
LINE
  8
0
  6
CONTINUOUS
 62
     1
 10
249.902881367
 20
133.377118624
 11
250.092881367
 21
133.377118624
  0
LINE
  8
0
  6
CONTINUOUS
 62
     1
 10
250.092881367
 20
133.377118624
 11
250.092881366
 21
133.877118624
  0
LINE
  8
0
  6
CONTINUOUS
 62
     1
 10
250.092881366
 20
133.877118624
 11
250.282881366
 21
133.877118624
  0
LINE
  8
0
  6
CONTINUOUS
 62
     1
 10
250.282881366
 20
133.877118624
 11
250.282881366
 21
134.377118624
  0
LINE
  8
0
  6
CONTINUOUS
 62
     1
 10
250.282881366
 20
134.377118624
 11
250.472881366
 21
134.377118624
  0
LINE
  8
0
  6
CONTINUOUS
 62
     1
 10
250.472881366
 20
134.377118624
 11
250.472881366
 21
134.877118624
  0
LINE
  8
0
  6
CONTINUOUS
 62
     1
 10
248.572881367
 20
130.127118624
 11
247.972881366
 21
134.127118623
  0
LINE
  8
0
  6
CONTINUOUS
 62
     1
 10
247.972881366
 20
134.127118623
 11
248.172881366
 21
134.877118623
  0
ARC
  8
0
  6
CONTINUOUS
 62
     1
 10
271.372881364
 20
144.191623716
 40
25.0
 50
198.807581816
 51
201.874833287
  0
ARC
  8
0
  6
CONTINUOUS
 62
     1
 10
272.565775587
 20
146.577718181
 40
25.0
 50
178.576331435
 51
207.906105083
  0
LINE
  8
0
  6
CONTINUOUS
 62
     1
 10
247.772881356
 20
129.82711862
 11
247.603986087
 21
144.54211884
  0
LINE
  8
0
  6
CONTINUOUS
 62
     1
 10
246.880308964
 20
164.527118612
 11
225.372881358
 21
164.527118607
  0
LINE
  8
0
  6
CONTINUOUS
 62
     1
 10
247.573492795
 20
147.198846857
 11
247.380276033
 21
164.032857115
  0
ARC
  8
0
  6
CONTINUOUS
 62
     1
 10
246.880308964
 20
164.027118612
 40
0.5
 50
0.657598435
 51
90.000000009
  0
LINE
  8
0
  6
CONTINUOUS
 62
     1
 10
248.649888135
 20
125.327118624
 11
225.372881369
 21
125.327118617
  0
LINE
  8
0
  6
CONTINUOUS
 62
     1
 10
249.372881368
 20
129.827118624
 11
249.149118312
 21
125.799383614
  0
ARC
  8
0
  6
CONTINUOUS
 62
     1
 10
248.649888135
 20
125.827118624
 40
0.5
 50
270.000000011
 51
356.82016988
  0
LINE
  8
0
  6
CONTINUOUS
 62
     1
 10
248.625
 20
124.8
 11
248.625
 21
125.3
  0
LINE
  8
0
  6
CONTINUOUS
 62
     1
 10
202.125
 20
124.8
 11
248.625
 21
124.8
  0
LINE
  8
0
  6
CONTINUOUS
 62
     1
 10
222.352118646
 20
128.527118604
 11
222.352118645
 21
127.327118602
  0
LINE
  8
0
  6
CONTINUOUS
 62
     1
 10
222.352118645
 20
127.327118602
 11
228.352118645
 21
127.327118602
  0
LINE
  8
0
  6
CONTINUOUS
 62
     1
 10
228.375
 20
128.525
 11
222.325
 21
128.525
  0
LINE
  8
0
  6
CONTINUOUS
 62
     1
 10
228.352118645
 20
127.327118602
 11
228.352118646
 21
128.527118603
  0
LINE
  8
0
  6
CONTINUOUS
 62
     1
 10
221.352118647
 20
135.027118604
 11
229.352118647
 21
135.027118603
  0
LINE
  8
0
  6
CONTINUOUS
 62
     1
 10
229.352118647
 20
135.027118603
 11
229.352118647
 21
133.227118603
  0
LINE
  8
0
  6
CONTINUOUS
 62
     1
 10
229.352118647
 20
133.227118603
 11
225.352118647
 21
133.227118603
  0
LINE
  8
0
  6
CONTINUOUS
 62
     1
 10
225.352118647
 20
133.227118603
 11
221.352118647
 21
133.227118604
  0
LINE
  8
0
  6
CONTINUOUS
 62
     1
 10
221.352118647
 20
133.227118604
 11
221.352118647
 21
135.027118604
  0
ARC
  8
0
  6
CONTINUOUS
 62
     1
 10
181.779913394
 20
164.027118622
 40
0.5
 50
0.811500684
 51
90.0
  0
LINE
  8
0
  6
CONTINUOUS
 62
     1
 10
183.049888158
 20
125.327118619
 11
182.272881391
 21
125.327118619
  0
ARC
  8
0
  6
CONTINUOUS
 62
     1
 10
183.049888158
 20
125.827118619
 40
0.5
 50
270.000000001
 51
356.82016988
  0
LINE
  8
0
  6
CONTINUOUS
 62
     1
 10
182.272881391
 20
126.927118619
 11
182.272881391
 21
127.327118619
  0
LINE
  8
0
  6
CONTINUOUS
 62
     1
 10
182.272881391
 20
127.327118619
 11
181.397881391
 21
127.327118619
  0
LINE
  8
0
  6
CONTINUOUS
 62
     1
 10
183.772881392
 20
129.827118618
 11
182.765936948
 21
129.827118619
  0
LINE
  8
0
  6
CONTINUOUS
 62
     1
 10
182.272881391
 20
125.327118619
 11
182.272881391
 21
127.327118619
  0
LINE
  8
0
  6
CONTINUOUS
 62
     1
 10
183.772881392
 20
129.827118618
 11
183.549118335
 21
125.799383609
  0
LINE
  8
0
  6
CONTINUOUS
 62
     1
 10
182.279863245
 20
164.034200065
 11
182.764382809
 21
129.827118619
  0
LINE
  8
0
  6
CONTINUOUS
 62
     1
 10
159.772881392
 20
129.827118625
 11
159.996644447
 21
125.799383615
  0
ARC
  8
0
  6
CONTINUOUS
 62
     1
 10
160.495874624
 20
125.827118625
 40
0.5
 50
183.17983012
 51
270.000000001
  0
LINE
  8
0
  6
CONTINUOUS
 62
     1
 10
161.272881391
 20
126.927118624
 11
161.272881391
 21
127.327118624
  0
LINE
  8
0
  6
CONTINUOUS
 62
     1
 10
161.272881391
 20
125.327118624
 11
161.272881391
 21
127.327118624
  0
LINE
  8
0
  6
CONTINUOUS
 62
     1
 10
161.275
 20
125.327118624
 11
160.495874624
 21
125.327118625
  0
LINE
  8
0
  6
CONTINUOUS
 62
     1
 10
161.272881391
 20
127.327118624
 11
181.822881391
 21
127.32711862
  0
ARC
  8
0
  6
CONTINUOUS
 62
     1
 10
171.775
 20
235.35
 40
110.5
 50
264.547378012
 51
275.452621988
  0
LINE
  8
0
  6
CONTINUOUS
 62
     1
 10
171.772881392
 20
130.127118622
 11
166.772881392
 21
130.127118623
  0
LINE
  8
0
  6
CONTINUOUS
 62
     1
 10
166.772881392
 20
130.127118623
 11
166.772881396
 21
147.327118623
  0
ARC
  8
0
  6
CONTINUOUS
 62
     1
 10
166.272881396
 20
147.327118623
 40
0.5
 50
0.0
 51
180.0
  0
LINE
  8
0
  6
CONTINUOUS
 62
     1
 10
166.772881392
 20
130.377118623
 11
171.772881392
 21
130.377118622
  0
LINE
  8
0
  6
CONTINUOUS
 62
     1
 10
171.772881392
 20
130.877118622
 11
166.772881392
 21
130.877118623
  0
LINE
  8
0
  6
CONTINUOUS
 62
     1
 10
166.772881392
 20
131.377118623
 11
171.772881392
 21
131.377118622
  0
LINE
  8
0
  6
CONTINUOUS
 62
     1
 10
171.772881392
 20
131.877118622
 11
166.772881392
 21
131.877118623
  0
LINE
  8
0
  6
CONTINUOUS
 62
     1
 10
166.772881392
 20
132.377118623
 11
171.772881392
 21
132.377118622
  0
LINE
  8
0
  6
CONTINUOUS
 62
     1
 10
171.772881393
 20
132.877118622
 11
166.772881393
 21
132.877118623
  0
LINE
  8
0
  6
CONTINUOUS
 62
     1
 10
166.772881393
 20
133.377118623
 11
171.772881393
 21
133.377118622
  0
LINE
  8
0
  6
CONTINUOUS
 62
     1
 10
171.772881393
 20
133.877118622
 11
166.772881393
 21
133.877118623
  0
LINE
  8
0
  6
CONTINUOUS
 62
     1
 10
166.772881393
 20
134.377118623
 11
171.772881393
 21
134.377118622
  0
LINE
  8
0
  6
CONTINUOUS
 62
     1
 10
171.772881393
 20
134.877118622
 11
166.772881393
 21
134.877118623
  0
LINE
  8
0
  6
CONTINUOUS
 62
     1
 10
165.772881392
 20
129.577118623
 11
165.772881392
 21
129.827118623
  0
LINE
  8
0
  6
CONTINUOUS
 62
     1
 10
165.772881396
 20
147.327118623
 11
165.772881392
 21
129.827118623
  0
LINE
  8
0
  6
CONTINUOUS
 62
     1
 10
159.772881392
 20
129.827118625
 11
165.772881392
 21
129.827118623
  0
LINE
  8
0
  6
CONTINUOUS
 62
     1
 10
171.772881392
 20
130.127118622
 11
176.772881392
 21
130.12711862
  0
LINE
  8
0
  6
CONTINUOUS
 62
     1
 10
176.772881392
 20
130.12711862
 11
176.772881396
 21
147.32711862
  0
ARC
  8
0
  6
CONTINUOUS
 62
     1
 10
177.272881396
 20
147.32711862
 40
0.5
 50
0.0
 51
180.0
  0
LINE
  8
0
  6
CONTINUOUS
 62
     1
 10
176.772881392
 20
130.37711862
 11
171.772881392
 21
130.377118622
  0
LINE
  8
0
  6
CONTINUOUS
 62
     1
 10
171.772881392
 20
130.877118622
 11
176.772881392
 21
130.87711862
  0
LINE
  8
0
  6
CONTINUOUS
 62
     1
 10
176.772881392
 20
131.37711862
 11
171.772881392
 21
131.377118622
  0
LINE
  8
0
  6
CONTINUOUS
 62
     1
 10
171.772881392
 20
131.877118622
 11
176.772881392
 21
131.87711862
  0
LINE
  8
0
  6
CONTINUOUS
 62
     1
 10
176.772881392
 20
132.37711862
 11
171.772881392
 21
132.377118622
  0
LINE
  8
0
  6
CONTINUOUS
 62
     1
 10
171.772881393
 20
132.877118622
 11
176.772881393
 21
132.87711862
  0
LINE
  8
0
  6
CONTINUOUS
 62
     1
 10
176.772881393
 20
133.37711862
 11
171.772881393
 21
133.377118622
  0
LINE
  8
0
  6
CONTINUOUS
 62
     1
 10
171.772881393
 20
133.877118622
 11
176.772881393
 21
133.87711862
  0
LINE
  8
0
  6
CONTINUOUS
 62
     1
 10
176.772881393
 20
134.37711862
 11
171.772881393
 21
134.377118622
  0
LINE
  8
0
  6
CONTINUOUS
 62
     1
 10
171.772881393
 20
134.877118622
 11
176.772881393
 21
134.87711862
  0
LINE
  8
0
  6
CONTINUOUS
 62
     1
 10
177.772881396
 20
147.32711862
 11
177.772881392
 21
129.577118621
  0
LINE
  8
0
  6
CONTINUOUS
 62
     1
 10
177.772881392
 20
129.82711862
 11
182.765936948
 21
129.827118619
  0
LINE
  8
0
  6
CONTINUOUS
 62
     1
 10
165.772881392
 20
129.577118623
 11
177.772881392
 21
129.577118621
  0
ARC
  8
0
  6
CONTINUOUS
 62
     1
 10
161.65678424
 20
156.327118624
 40
0.5
 50
90.0
 51
179.188499314
  0
LINE
  8
0
  6
CONTINUOUS
 62
     1
 10
161.15683439
 20
156.334200067
 11
160.781379976
 21
129.827118623
  0
LINE
  8
0
  6
CONTINUOUS
 62
     1
 10
161.65678424
 20
156.827118624
 11
165.072881401
 21
156.827118624
  0
ARC
  8
0
  6
CONTINUOUS
 62
     1
 10
165.947581571
 20
164.027118624
 40
0.5
 50
90.0
 51
177.026268918
  0
LINE
  8
0
  6
CONTINUOUS
 62
     1
 10
165.947581571
 20
164.527118624
 11
181.779913394
 21
164.527118622
  0
LINE
  8
0
  6
CONTINUOUS
 62
     1
 10
165.448254858
 20
164.053057674
 11
165.072881401
 21
156.827118624
  0
LINE
  8
0
  6
CONTINUOUS
 62
     1
 10
94.727118652
 20
202.799999974
 11
115.977118652
 21
202.799999969
  0
ARC
  8
0
  6
CONTINUOUS
 62
     1
 10
91.727118652
 20
203.299999975
 40
0.5
 50
180.0
 51
270.0
  0
ARC
  8
0
  6
CONTINUOUS
 62
     1
 10
91.027118653
 20
202.499999974
 40
0.3
 50
180.0
 51
270.0
  0
ARC
  8
0
  6
CONTINUOUS
 62
     1
 10
89.727118653
 20
201.799999974
 40
0.5
 50
180.0
 51
270.0
  0
LINE
  8
0
  6
CONTINUOUS
 62
     1
 10
88.127118663
 20
208.299999972
 11
88.127118663
 21
213.299999972
  0
LINE
  8
0
  6
CONTINUOUS
 62
     1
 10
88.127118663
 20
208.299999972
 11
90.627118662
 21
208.299999971
  0
LINE
  8
0
  6
CONTINUOUS
 62
     1
 10
91.227118657
 20
223.299999975
 11
91.227118653
 21
207.499999971
  0
ARC
  8
0
  6
CONTINUOUS
 62
     1
 10
91.727118653
 20
207.499999971
 40
0.5
 50
180.000000001
 51
270.0
  0
LINE
  8
0
  6
CONTINUOUS
 62
     1
 10
89.227118654
 20
208.199999974
 11
89.227118653
 21
201.799999974
  0
LINE
  8
0
  6
CONTINUOUS
 62
     1
 10
91.227118653
 20
207.447118609
 11
91.227118652
 21
203.299999975
  0
CIRCLE
  8
0
  6
CONTINUOUS
 62
     1
 10
97.227118655
 20
214.099999973
 40
2.25
  0
LINE
  8
0
  6
CONTINUOUS
 62
     1
 10
109.727118655
 20
211.699999969
 11
107.227118655
 21
211.69999997
  0
LINE
  8
0
  6
CONTINUOUS
 62
     1
 10
109.727118655
 20
211.699999969
 11
109.727118655
 21
210.699999969
  0
LINE
  8
0
  6
CONTINUOUS
 62
     1
 10
110.727118655
 20
210.699999969
 11
110.727118655
 21
211.699999969
  0
LINE
  8
0
  6
CONTINUOUS
 62
     1
 10
106.727118655
 20
210.69999997
 11
109.727118655
 21
210.699999969
  0
ARC
  8
0
  6
CONTINUOUS
 62
     1
 10
106.727118655
 20
211.19999997
 40
0.5
 50
180.000000001
 51
270.0
  0
LINE
  8
0
  6
CONTINUOUS
 62
     1
 10
129.727118655
 20
211.699999967
 11
129.727118654
 21
210.699999967
  0
LINE
  8
0
  6
CONTINUOUS
 62
     1
 10
133.227118655
 20
211.699999967
 11
130.727118655
 21
211.699999967
  0
LINE
  8
0
  6
CONTINUOUS
 62
     1
 10
130.727118654
 20
210.699999967
 11
130.727118655
 21
211.699999967
  0
LINE
  8
0
  6
CONTINUOUS
 62
     1
 10
130.727118654
 20
210.699999967
 11
133.727118654
 21
210.699999967
  0
ARC
  8
0
  6
CONTINUOUS
 62
     1
 10
133.727118654
 20
211.199999967
 40
0.5
 50
270.0
 51
0.0
  0
LINE
  8
0
  6
CONTINUOUS
 62
     1
 10
129.727118655
 20
211.699999967
 11
110.727118655
 21
211.699999969
  0
LINE
  8
0
  6
CONTINUOUS
 62
     1
 10
110.727118655
 20
210.699999969
 11
129.727118654
 21
210.699999967
  0
ARC
  8
0
  6
CONTINUOUS
 62
     1
 10
134.727118652
 20
203.299999963
 40
0.5
 50
270.0
 51
0.0
  0
ARC
  8
0
  6
CONTINUOUS
 62
     1
 10
135.427118653
 20
202.499999964
 40
0.3
 50
270.0
 51
0.0
  0
ARC
  8
0
  6
CONTINUOUS
 62
     1
 10
136.727118653
 20
201.799999964
 40
0.5
 50
270.0
 51
0.0
  0
LINE
  8
0
  6
CONTINUOUS
 62
     1
 10
138.327118646
 20
208.299999962
 11
138.327118647
 21
213.299999962
  0
LINE
  8
0
  6
CONTINUOUS
 62
     1
 10
135.227118653
 20
207.499999967
 11
135.227118654
 21
209.099999967
  0
LINE
  8
0
  6
CONTINUOUS
 62
     1
 10
137.227118653
 20
201.799999964
 11
137.227118654
 21
206.499999966
  0
LINE
  8
0
  6
CONTINUOUS
 62
     1
 10
138.327118646
 20
208.299999962
 11
135.73
 21
208.299999963
  0
LINE
  8
0
  6
CONTINUOUS
 62
     1
 10
137.227118654
 20
206.4
 11
137.227118654
 21
208.199999964
  0
LINE
  8
0
  6
CONTINUOUS
 62
     1
 10
91.727118652
 20
202.799999975
 11
134.727118652
 21
202.799999963
  0
LINE
  8
0
  6
CONTINUOUS
 62
     1
 10
91.027118653
 20
202.199999974
 11
135.427118653
 21
202.199999964
  0
LINE
  8
0
  6
CONTINUOUS
 62
     1
 10
89.727118652
 20
201.299999974
 11
136.727118652
 21
201.299999964
  0
LINE
  8
0
  6
CONTINUOUS
 62
     1
 10
135.227118652
 20
203.299999963
 11
135.227118653
 21
207.532118605
  0
ARC
  8
0
  6
CONTINUOUS
 62
     1
 10
134.727118653
 20
207.499999967
 40
0.5
 50
270.0
 51
0.0
  0
LINE
  8
0
  6
CONTINUOUS
 62
     1
 10
135.727118653
 20
202.499999964
 11
135.727118654
 21
208.299999967
  0
LINE
  8
0
  6
CONTINUOUS
 62
     1
 10
91.727118653
 20
206.999999971
 11
134.727118653
 21
206.999999967
  0
LINE
  8
0
  6
CONTINUOUS
 62
     1
 10
138.327118648
 20
218.299999962
 11
138.327118647
 21
213.299999962
  0
LINE
  8
0
  6
CONTINUOUS
 62
     1
 10
138.327118648
 20
218.299999962
 11
135.827118648
 21
218.299999963
  0
CIRCLE
  8
0
  6
CONTINUOUS
 62
     1
 10
130.727118655
 20
215.699999964
 40
2.0
  0
CIRCLE
  8
0
  6
CONTINUOUS
 62
     1
 10
125.727118655
 20
215.699999966
 40
2.0
  0
CIRCLE
  8
0
  6
CONTINUOUS
 62
     1
 10
120.727118655
 20
215.699999967
 40
2.0
  0
CIRCLE
  8
0
  6
CONTINUOUS
 62
     1
 10
115.727118655
 20
215.699999968
 40
2.0
  0
CIRCLE
  8
0
  6
CONTINUOUS
 62
     1
 10
110.727118655
 20
215.69999997
 40
2.0
  0
LINE
  8
0
  6
CONTINUOUS
 62
     1
 10
118.727118656
 20
221.799999968
 11
118.727118656
 21
222.799999968
  0
LINE
  8
0
  6
CONTINUOUS
 62
     1
 10
122.727118656
 20
222.799999968
 11
122.727118656
 21
221.799999968
  0
LINE
  8
0
  6
CONTINUOUS
 62
     1
 10
118.727118656
 20
222.799999968
 11
122.727118656
 21
222.799999968
  0
LINE
  8
0
  6
CONTINUOUS
 62
     1
 10
122.727118656
 20
221.799999968
 11
118.727118656
 21
221.799999968
  0
ARC
  8
0
  6
CONTINUOUS
 62
     1
 10
133.727118656
 20
222.299999967
 40
0.5
 50
0.0
 51
90.0
  0
LINE
  8
0
  6
CONTINUOUS
 62
     1
 10
133.227118656
 20
221.799999967
 11
131.727118656
 21
221.799999967
  0
LINE
  8
0
  6
CONTINUOUS
 62
     1
 10
131.727118656
 20
222.799999967
 11
133.727118656
 21
222.799999967
  0
LINE
  8
0
  6
CONTINUOUS
 62
     1
 10
131.727118656
 20
221.799999967
 11
131.727118656
 21
222.799999967
  0
LINE
  8
0
  6
CONTINUOUS
 62
     1
 10
133.227118656
 20
221.799999967
 11
133.227118655
 21
211.699999967
  0
LINE
  8
0
  6
CONTINUOUS
 62
     1
 10
134.227118654
 20
211.199999967
 11
134.227118656
 21
222.299999967
  0
ARC
  8
0
  6
CONTINUOUS
 62
     1
 10
134.727118657
 20
223.299999963
 40
0.5
 50
0.0
 51
90.0
  0
ARC
  8
0
  6
CONTINUOUS
 62
     1
 10
135.427118658
 20
224.099999964
 40
0.3
 50
0.0
 51
90.0
  0
ARC
  8
0
  6
CONTINUOUS
 62
     1
 10
136.727118658
 20
224.799999964
 40
0.5
 50
0.0
 51
90.0
  0
LINE
  8
0
  6
CONTINUOUS
 62
     1
 10
135.227118654
 20
209.0
 11
135.227118657
 21
223.299999963
  0
LINE
  8
0
  6
CONTINUOUS
 62
     1
 10
135.727118654
 20
208.1
 11
135.727118658
 21
224.099999964
  0
LINE
  8
0
  6
CONTINUOUS
 62
     1
 10
137.227118656
 20
218.299999963
 11
137.227118658
 21
224.799999964
  0
ARC
  8
0
  6
CONTINUOUS
 62
     1
 10
106.727118656
 20
222.29999997
 40
0.5
 50
90.0
 51
180.000000001
  0
LINE
  8
0
  6
CONTINUOUS
 62
     1
 10
106.727118656
 20
222.79999997
 11
108.727118656
 21
222.799999969
  0
LINE
  8
0
  6
CONTINUOUS
 62
     1
 10
108.727118656
 20
221.799999969
 11
108.727118656
 21
222.799999969
  0
LINE
  8
0
  6
CONTINUOUS
 62
     1
 10
108.727118656
 20
221.799999969
 11
107.227118656
 21
221.79999997
  0
LINE
  8
0
  6
CONTINUOUS
 62
     1
 10
107.227118656
 20
221.79999997
 11
107.227118655
 21
211.69999997
  0
LINE
  8
0
  6
CONTINUOUS
 62
     1
 10
106.227118655
 20
211.19999997
 11
106.227118656
 21
222.29999997
  0
ARC
  8
0
  6
CONTINUOUS
 62
     1
 10
91.727118657
 20
223.299999975
 40
0.5
 50
90.0
 51
180.0
  0
ARC
  8
0
  6
CONTINUOUS
 62
     1
 10
91.027118658
 20
224.099999974
 40
0.3
 50
90.0
 51
180.0
  0
ARC
  8
0
  6
CONTINUOUS
 62
     1
 10
89.727118658
 20
224.799999974
 40
0.5
 50
90.0
 51
180.0
  0
LINE
  8
0
  6
CONTINUOUS
 62
     1
 10
90.727118658
 20
224.099999974
 11
90.727118653
 21
202.499999974
  0
LINE
  8
0
  6
CONTINUOUS
 62
     1
 10
134.727118657
 20
223.799999963
 11
91.727118657
 21
223.799999975
  0
LINE
  8
0
  6
CONTINUOUS
 62
     1
 10
135.427118658
 20
224.399999964
 11
91.027118658
 21
224.399999974
  0
LINE
  8
0
  6
CONTINUOUS
 62
     1
 10
136.727118658
 20
225.299999964
 11
89.727118658
 21
225.299999974
  0
LINE
  8
0
  6
CONTINUOUS
 62
     1
 10
89.227118658
 20
224.799999974
 11
89.227118656
 21
218.299999971
  0
LINE
  8
0
  6
CONTINUOUS
 62
     1
 10
88.127118664
 20
218.299999972
 11
90.727118656
 21
218.299999971
  0
LINE
  8
0
  6
CONTINUOUS
 62
     1
 10
88.127118664
 20
218.299999972
 11
88.127118663
 21
213.299999972
  0
LINE
  8
0
  6
CONTINUOUS
 62
     3
 10
108.727118656
 20
221.899999969
 11
118.727118656
 21
221.899999968
  0
LINE
  8
0
  6
CONTINUOUS
 62
     3
 10
108.727118656
 20
222.299999969
 11
118.727118656
 21
222.299999969
  0
LINE
  8
0
  6
CONTINUOUS
 62
     3
 10
118.727118656
 20
222.699999968
 11
108.727118656
 21
222.699999969
  0
LINE
  8
0
  6
CONTINUOUS
 62
     3
 10
131.727118656
 20
222.699999967
 11
122.727118656
 21
222.699999968
  0
LINE
  8
0
  6
CONTINUOUS
 62
     3
 10
122.727118656
 20
221.899999968
 11
131.727118656
 21
221.899999967
  0
LINE
  8
0
  6
CONTINUOUS
 62
     3
 10
122.727118656
 20
222.299999968
 11
131.727118656
 21
222.299999968
  0
LINE
  8
0
  6
CONTINUOUS
 62
     3
 10
268.0
 20
181.87
 11
268.51763809
 21
183.801851653
  0
LINE
  8
0
  6
CONTINUOUS
 62
     3
 10
268.0
 20
181.87
 11
267.48236191
 21
183.801851653
  0
LINE
  8
0
  6
CONTINUOUS
 62
     3
 10
268.0
 20
181.87
 11
268.0
 21
216.87
  0
LINE
  8
0
  6
CONTINUOUS
 62
     3
 10
268.0
 20
216.87
 11
267.48236191
 21
214.938148347
  0
LINE
  8
0
  6
CONTINUOUS
 62
     3
 10
268.0
 20
216.87
 11
268.51763809
 21
214.938148347
  0
TEXT
  8
0
  6
CONTINUOUS
 62
     3
 10
267.0
 20
195.22
 30
0.3
 40
2.5
  1
ＭＩＮ　３５
 50
90.0
 41
0.8
 51
0.0
  7
KANJI0
  0
LINE
  8
0
  6
CONTINUOUS
 62
     3
 10
279.6
 20
227.87
 11
274.0
 21
227.87
  0
LINE
  8
0
  6
CONTINUOUS
 62
     3
 10
275.0
 20
227.87
 11
274.48236191
 21
225.938148347
  0
LINE
  8
0
  6
CONTINUOUS
 62
     3
 10
275.0
 20
227.87
 11
275.51763809
 21
225.938148347
  0
LINE
  8
0
  6
CONTINUOUS
 62
     3
 10
275.0
 20
227.87
 11
275.0
 21
205.87
  0
LINE
  8
0
  6
CONTINUOUS
 62
     3
 10
275.0
 20
205.87
 11
275.51763809
 21
207.801851653
  0
LINE
  8
0
  6
CONTINUOUS
 62
     3
 10
275.0
 20
205.87
 11
274.48236191
 21
207.801851653
  0
LINE
  8
0
  6
CONTINUOUS
 62
     3
 10
279.6
 20
205.87
 11
274.0
 21
205.87
  0
TEXT
  8
0
  6
CONTINUOUS
 62
     3
 10
274.0
 20
212.05
 30
0.3
 40
2.5
  1
２２
 50
90.0
 41
0.8
 51
0.0
  7
KANJI0
  0
TEXT
  8
0
  6
CONTINUOUS
 62
     3
 10
274.0
 20
216.85
 30
0.18
 40
1.5
  1
－０
 50
90.0
 41
0.8
 51
0.0
  7
KANJI5
  0
TEXT
  8
0
  6
CONTINUOUS
 62
     3
 10
272.5
 20
216.85
 30
0.18
 40
1.5
  1
＋０．３
 50
90.0
 41
0.8
 51
0.0
  7
KANJI5
  0
LINE
  8
0
  6
CONTINUOUS
 62
     3
 10
280.63
 20
228.89
 11
280.63
 21
233.97
  0
LINE
  8
0
  6
CONTINUOUS
 62
     3
 10
280.63
 20
232.97
 11
282.561851653
 21
232.45236191
  0
LINE
  8
0
  6
CONTINUOUS
 62
     3
 10
280.63
 20
232.97
 11
282.561851653
 21
233.48763809
  0
LINE
  8
0
  6
CONTINUOUS
 62
     3
 10
280.63
 20
232.97
 11
325.62
 21
232.97
  0
LINE
  8
0
  6
CONTINUOUS
 62
     3
 10
325.62
 20
232.97
 11
323.688148347
 21
233.48763809
  0
LINE
  8
0
  6
CONTINUOUS
 62
     3
 10
325.62
 20
232.97
 11
323.688148347
 21
232.45236191
  0
LINE
  8
0
  6
CONTINUOUS
 62
     3
 10
325.62
 20
228.89
 11
325.62
 21
233.97
  0
TEXT
  8
0
  6
CONTINUOUS
 62
     3
 10
298.305
 20
233.97
 30
0.3
 40
2.5
  1
４５
 50
0.0
 41
0.8
 51
0.0
  7
KANJI0
  0
TEXT
  8
0
  6
CONTINUOUS
 62
     3
 10
303.105
 20
233.97
 30
0.18
 40
1.5
  1
－０
 50
0.0
 41
0.8
 51
0.0
  7
KANJI5
  0
TEXT
  8
0
  6
CONTINUOUS
 62
     3
 10
303.105
 20
235.47
 30
0.18
 40
1.5
  1
＋０．６
 50
0.0
 41
0.8
 51
0.0
  7
KANJI5
  0
LINE
  8
0
  6
CONTINUOUS
 62
     3
 10
368.13
 20
164.01
 11
366.198148347
 21
164.52763809
  0
LINE
  8
0
  6
CONTINUOUS
 62
     3
 10
368.13
 20
164.01
 11
366.198148347
 21
163.49236191
  0
LINE
  8
0
  6
CONTINUOUS
 62
     3
 10
368.13
 20
164.01
 11
303.13
 21
164.01
  0
LINE
  8
0
  6
CONTINUOUS
 62
     3
 10
303.13
 20
164.01
 11
305.061851653
 21
163.49236191
  0
LINE
  8
0
  6
CONTINUOUS
 62
     3
 10
303.13
 20
164.01
 11
305.061851653
 21
164.52763809
  0
TEXT
  8
0
  6
CONTINUOUS
 62
     3
 10
330.98
 20
165.01
 30
0.3
 40
2.5
  1
ＭＩＮ　６５
 50
0.0
 41
0.8
 51
0.0
  7
KANJI0
  0
LINE
  8
0
  6
LTYPE1
 62
     3
 10
276.13
 20
216.87
 11
394.13
 21
216.87
  0
LINE
  8
0
  6
LTYPE1
 62
     3
 10
266.63
 20
216.87
 11
270.13
 21
216.87
  0
CIRCLE
  8
1
  6
CONTINUOUS
 62
     3
 10
277.07417
 20
85.6127
 40
2.71425
  0
CIRCLE
  8
1
  6
CONTINUOUS
 62
     3
 10
284.59511
 20
85.6127
 40
2.71425
  0
CIRCLE
  8
1
  6
CONTINUOUS
 62
     3
 10
292.11605
 20
85.6127
 40
2.71425
  0
CIRCLE
  8
1
  6
CONTINUOUS
 62
     3
 10
299.63699
 20
85.6127
 40
2.71425
  0
CIRCLE
  8
1
  6
CONTINUOUS
 62
     3
 10
307.15793
 20
85.6127
 40
2.71425
  0
TEXT
  8
1
  6
CONTINUOUS
 62
     3
 10
274.94225
 20
83.54
 30
0.0
 40
4.935
  1
１
 50
0.0
 41
0.86
 51
0.0
  7
KANJI2
  0
TEXT
  8
1
  6
CONTINUOUS
 62
     3
 10
282.44345
 20
83.2439
 30
0.0
 40
4.935
  1
２
 50
0.0
 41
0.86
 51
0.0
  7
KANJI2
  0
TEXT
  8
1
  6
CONTINUOUS
 62
     3
 10
289.94465
 20
83.2439
 30
0.0
 40
4.935
  1
３
 50
0.0
 41
0.86
 51
0.0
  7
KANJI2
  0
TEXT
  8
1
  6
CONTINUOUS
 62
     3
 10
297.44585
 20
83.2439
 30
0.0
 40
4.935
  1
４
 50
0.0
 41
0.86
 51
0.0
  7
KANJI2
  0
TEXT
  8
1
  6
CONTINUOUS
 62
     3
 10
305.04575
 20
83.2439
 30
0.0
 40
4.935
  1
５
 50
0.0
 41
0.86
 51
0.0
  7
KANJI2
  0
LINE
  8
1
  6
CONTINUOUS
 62
     1
 10
273.215
 20
90.0542
 11
273.215
 21
80.6777
  0
LINE
  8
0
  6
CONTINUOUS
 62
     1
 10
310.63
 20
90.07
 11
310.63
 21
80.67
  0
LINE
  8
1
  6
CONTINUOUS
 62
     1
 10
273.215
 20
80.6777
 11
310.63
 21
80.6777
  0
LINE
  8
1
  6
CONTINUOUS
 62
     1
 10
310.63
 20
90.0542
 11
273.215
 21
90.0542
  0
LINE
  8
1
  6
CONTINUOUS
 62
     3
 10
299.8751
 20
94.9892
 11
299.8751
 21
96.4697
  0
LINE
  8
1
  6
CONTINUOUS
 62
     3
 10
299.8751
 20
96.4697
 11
307.2776
 21
96.4697
  0
LINE
  8
1
  6
CONTINUOUS
 62
     3
 10
307.2776
 20
96.4697
 11
307.2776
 21
94.9892
  0
TEXT
  8
1
  6
CONTINUOUS
 62
     3
 10
298.592
 20
91.2386
 30
0.0
 40
2.961
  1
０Ｖ
 50
0.0
 41
0.375
 51
0.0
  7
KANJI3
  0
TEXT
  8
1
  6
CONTINUOUS
 62
     3
 10
297.605
 20
97.1606
 30
0.0
 40
2.961
  1
ＤＣ　ＰＯＷＥＲ
 50
0.0
 41
0.533333333
 51
0.0
  7
KANJI4
  0
TEXT
  8
1
  6
CONTINUOUS
 62
     3
 10
305.0075
 20
91.2386
 30
0.0
 40
2.961
  1
＋５Ｖ
 50
0.0
 41
0.375
 51
0.0
  7
KANJI3
  0
TEXT
  8
1
  6
CONTINUOUS
 62
     3
 10
275.563
 20
91.1606
 30
0.0
 40
2.961
  1
ＨＩ
 50
0.0
 41
0.533333333
 51
0.0
  7
KANJI4
  0
TEXT
  8
1
  6
CONTINUOUS
 62
     3
 10
282.763
 20
91.1606
 30
0.0
 40
2.961
  1
ＬＯ
 50
0.0
 41
0.533333333
 51
0.0
  7
KANJI4
  0
TEXT
  8
1
  6
CONTINUOUS
 62
     3
 10
288.868
 20
91.2606
 30
0.0
 40
2.961
  1
ＨＯＬＤ
 50
0.0
 41
0.533333333
 51
0.0
  7
KANJI4
  0
LINE
  8
1
  6
CONTINUOUS
 62
     3
 10
276.8751
 20
94.9892
 11
276.8751
 21
96.4697
  0
LINE
  8
1
  6
CONTINUOUS
 62
     3
 10
276.8751
 20
96.4697
 11
284.2776
 21
96.4697
  0
LINE
  8
1
  6
CONTINUOUS
 62
     3
 10
284.2776
 20
96.4697
 11
284.2776
 21
94.9892
  0
TEXT
  8
1
  6
CONTINUOUS
 62
     3
 10
276.805
 20
97.1606
 30
0.0
 40
2.961
  1
ＩＮＰＵＴ
 50
0.0
 41
0.533333333
 51
0.0
  7
KANJI4
  0
LINE
  8
0
  6
LTYPE2
 62
     3
 10
284.6
 20
82.9
 11
284.6
 21
81.9
  0
LINE
  8
0
  6
LTYPE2
 62
     3
 10
284.6
 20
81.9
 11
299.6
 21
81.9
  0
LINE
  8
0
  6
LTYPE2
 62
     3
 10
299.6
 20
81.9
 11
299.6
 21
82.9
  0
TEXT
  8
1
  6
CONTINUOUS
 62
     3
 10
277.3021
 20
134.6894
 30
0.0
 40
4.512
  1
＜絶縁タイプ＞
 50
0.0
 41
0.875
 51
0.0
  7
KANJI1
  0
TEXT
  8
1
  6
CONTINUOUS
 62
     3
 10
277.3021
 20
101.4894
 30
0.0
 40
4.512
  1
＜非絶縁タイプ＞
 50
0.0
 41
0.875
 51
0.0
  7
KANJI1
  0
TEXT
  8
1
  6
CONTINUOUS
 62
     3
 10
303.1
 20
124.4
 30
0.0
 40
2.961
  1
＋５Ｖ～２４Ｖ
 50
0.0
 41
0.75
 51
0.0
  7
KANJI6
  0
TEXT
  8
1
  6
CONTINUOUS
 62
     3
 10
265.3
 20
75.5
 30
0.0
 40
2.961
  1
電源０Ｖ－入力ＬＯは内部で接続されています
 50
0.0
 41
1.066666667
 51
0.0
  7
KANJI7
  0
POLYLINE
  8
0
  6
CONTINUOUS
 62
     1
 66
     1
  0
VERTEX
  8
0
  6
CONTINUOUS
 62
     1
 10
122.28
 20
86.075
  0
VERTEX
  8
0
  6
CONTINUOUS
 62
     1
 10
122.68
 20
85.575
  0
VERTEX
  8
0
  6
CONTINUOUS
 62
     1
 10
122.08
 20
85.075
  0
SEQEND
  0
LINE
  8
0
  6
CONTINUOUS
 62
     1
 10
122.08
 20
84.975
 11
122.68
 21
85.475
  0
LINE
  8
0
  6
CONTINUOUS
 62
     1
 10
122.68
 20
85.475
 11
123.08
 21
85.075
  0
LINE
  8
0
  6
CONTINUOUS
 62
     1
 10
121.48
 20
81.475
 11
121.88
 21
80.975
  0
LINE
  8
0
  6
CONTINUOUS
 62
     1
 10
121.88
 20
80.975
 11
121.28
 21
80.475
  0
LINE
  8
0
  6
CONTINUOUS
 62
     1
 10
122.48
 20
81.475
 11
121.93
 21
81.075
  0
LINE
  8
0
  6
CONTINUOUS
 62
     1
 10
121.93
 20
81.075
 11
121.48
 21
81.575
  0
LINE
  8
0
  6
CONTINUOUS
 62
     1
 10
121.28
 20
80.375
 11
121.88
 21
80.875
  0
LINE
  8
0
  6
CONTINUOUS
 62
     1
 10
121.88
 20
80.875
 11
122.28
 21
80.475
  0
LINE
  8
0
  6
CONTINUOUS
 62
     1
 10
123.08
 20
85.075
 11
122.48
 21
81.475
  0
LINE
  8
0
  6
CONTINUOUS
 62
     1
 10
121.48
 20
81.575
 11
122.08
 21
84.975
  0
LINE
  8
0
  6
CONTINUOUS
 62
     1
 10
120.68
 20
76.875
 11
121.08
 21
76.375
  0
LINE
  8
0
  6
CONTINUOUS
 62
     1
 10
121.08
 20
76.375
 11
120.48
 21
75.875
  0
LINE
  8
0
  6
CONTINUOUS
 62
     1
 10
121.68
 20
76.875
 11
121.13
 21
76.475
  0
LINE
  8
0
  6
CONTINUOUS
 62
     1
 10
121.13
 20
76.475
 11
120.68
 21
76.975
  0
CIRCLE
  8
0
  6
CONTINUOUS
 62
     1
 10
123.175
 20
76.375
 40
0.5
  0
LINE
  8
0
  6
CONTINUOUS
 62
     1
 10
122.28
 20
80.475
 11
121.68
 21
76.875
  0
LINE
  8
0
  6
CONTINUOUS
 62
     1
 10
120.68
 20
76.975
 11
121.28
 21
80.375
  0
LINE
  8
0
  6
CONTINUOUS
 62
     1
 10
116.93
 20
75.875
 11
116.48
 21
76.375
  0
LINE
  8
0
  6
CONTINUOUS
 62
     1
 10
116.48
 20
76.375
 11
117.13
 21
76.875
  0
LINE
  8
0
  6
CONTINUOUS
 62
     1
 10
117.08
 20
76.975
 11
116.48
 21
76.475
  0
LINE
  8
0
  6
CONTINUOUS
 62
     1
 10
116.48
 20
76.475
 11
116.03
 21
76.875
  0
LINE
  8
0
  6
CONTINUOUS
 62
     1
 10
120.68
 20
76.875
 11
117.13
 21
76.875
  0
LINE
  8
0
  6
CONTINUOUS
 62
     1
 10
116.93
 20
75.875
 11
120.48
 21
75.875
  0
LINE
  8
0
  6
CONTINUOUS
 62
     1
 10
117.73
 20
80.475
 11
117.28
 21
80.975
  0
LINE
  8
0
  6
CONTINUOUS
 62
     1
 10
117.28
 20
80.975
 11
117.93
 21
81.475
  0
LINE
  8
0
  6
CONTINUOUS
 62
     1
 10
117.68
 20
80.375
 11
117.23
 21
80.875
  0
LINE
  8
0
  6
CONTINUOUS
 62
     1
 10
117.23
 20
80.875
 11
116.68
 21
80.475
  0
LINE
  8
0
  6
CONTINUOUS
 62
     1
 10
117.88
 20
81.575
 11
117.28
 21
81.075
  0
LINE
  8
0
  6
CONTINUOUS
 62
     1
 10
117.28
 20
81.075
 11
116.83
 21
81.475
  0
LINE
  8
0
  6
CONTINUOUS
 62
     1
 10
121.48
 20
81.475
 11
117.93
 21
81.475
  0
LINE
  8
0
  6
CONTINUOUS
 62
     1
 10
117.73
 20
80.475
 11
121.28
 21
80.475
  0
LINE
  8
0
  6
CONTINUOUS
 62
     1
 10
116.03
 20
76.875
 11
116.68
 21
80.475
  0
LINE
  8
0
  6
CONTINUOUS
 62
     1
 10
117.08
 20
76.975
 11
117.68
 21
80.375
  0
LINE
  8
0
  6
CONTINUOUS
 62
     1
 10
118.53
 20
85.075
 11
118.08
 21
85.575
  0
LINE
  8
0
  6
CONTINUOUS
 62
     1
 10
118.08
 20
85.575
 11
118.73
 21
86.075
  0
LINE
  8
0
  6
CONTINUOUS
 62
     1
 10
118.48
 20
84.975
 11
118.03
 21
85.475
  0
LINE
  8
0
  6
CONTINUOUS
 62
     1
 10
118.03
 20
85.475
 11
117.48
 21
85.075
  0
LINE
  8
0
  6
CONTINUOUS
 62
     1
 10
122.28
 20
86.075
 11
118.73
 21
86.075
  0
LINE
  8
0
  6
CONTINUOUS
 62
     1
 10
118.53
 20
85.075
 11
122.08
 21
85.075
  0
LINE
  8
0
  6
CONTINUOUS
 62
     1
 10
116.83
 20
81.475
 11
117.48
 21
85.075
  0
LINE
  8
0
  6
CONTINUOUS
 62
     1
 10
117.88
 20
81.575
 11
118.48
 21
84.975
  0
POLYLINE
  8
0
  6
CONTINUOUS
 62
     1
 66
     1
  0
VERTEX
  8
0
  6
CONTINUOUS
 62
     1
 10
113.98
 20
86.075
  0
VERTEX
  8
0
  6
CONTINUOUS
 62
     1
 10
114.38
 20
85.575
  0
VERTEX
  8
0
  6
CONTINUOUS
 62
     1
 10
113.78
 20
85.075
  0
SEQEND
  0
LINE
  8
0
  6
CONTINUOUS
 62
     1
 10
113.78
 20
84.975
 11
114.38
 21
85.475
  0
LINE
  8
0
  6
CONTINUOUS
 62
     1
 10
114.38
 20
85.475
 11
114.78
 21
85.075
  0
LINE
  8
0
  6
CONTINUOUS
 62
     1
 10
109.43
 20
80.475
 11
112.98
 21
80.475
  0
LINE
  8
0
  6
CONTINUOUS
 62
     1
 10
113.18
 20
81.475
 11
113.58
 21
80.975
  0
LINE
  8
0
  6
CONTINUOUS
 62
     1
 10
113.58
 20
80.975
 11
112.98
 21
80.475
  0
LINE
  8
0
  6
CONTINUOUS
 62
     1
 10
114.18
 20
81.475
 11
113.63
 21
81.075
  0
LINE
  8
0
  6
CONTINUOUS
 62
     1
 10
113.63
 20
81.075
 11
113.18
 21
81.575
  0
LINE
  8
0
  6
CONTINUOUS
 62
     1
 10
112.98
 20
80.375
 11
113.58
 21
80.875
  0
LINE
  8
0
  6
CONTINUOUS
 62
     1
 10
113.58
 20
80.875
 11
113.98
 21
80.475
  0
LINE
  8
0
  6
CONTINUOUS
 62
     1
 10
114.78
 20
85.075
 11
114.18
 21
81.475
  0
LINE
  8
0
  6
CONTINUOUS
 62
     1
 10
113.18
 20
81.575
 11
113.78
 21
84.975
  0
LINE
  8
0
  6
CONTINUOUS
 62
     1
 10
112.38
 20
76.875
 11
112.78
 21
76.375
  0
LINE
  8
0
  6
CONTINUOUS
 62
     1
 10
112.78
 20
76.375
 11
112.18
 21
75.875
  0
LINE
  8
0
  6
CONTINUOUS
 62
     1
 10
113.38
 20
76.875
 11
112.83
 21
76.475
  0
LINE
  8
0
  6
CONTINUOUS
 62
     1
 10
112.83
 20
76.475
 11
112.38
 21
76.975
  0
CIRCLE
  8
0
  6
CONTINUOUS
 62
     1
 10
114.875
 20
76.375
 40
0.5
  0
LINE
  8
0
  6
CONTINUOUS
 62
     1
 10
113.98
 20
80.475
 11
113.38
 21
76.875
  0
LINE
  8
0
  6
CONTINUOUS
 62
     1
 10
112.38
 20
76.975
 11
112.98
 21
80.375
  0
LINE
  8
0
  6
CONTINUOUS
 62
     1
 10
108.63
 20
75.875
 11
112.18
 21
75.875
  0
LINE
  8
0
  6
CONTINUOUS
 62
     1
 10
108.63
 20
75.875
 11
108.18
 21
76.375
  0
LINE
  8
0
  6
CONTINUOUS
 62
     1
 10
108.18
 20
76.375
 11
108.83
 21
76.875
  0
LINE
  8
0
  6
CONTINUOUS
 62
     1
 10
107.73
 20
76.875
 11
108.38
 21
80.475
  0
LINE
  8
0
  6
CONTINUOUS
 62
     1
 10
108.78
 20
76.975
 11
109.38
 21
80.375
  0
LINE
  8
0
  6
CONTINUOUS
 62
     1
 10
108.78
 20
76.975
 11
108.18
 21
76.475
  0
LINE
  8
0
  6
CONTINUOUS
 62
     1
 10
108.18
 20
76.475
 11
107.73
 21
76.875
  0
LINE
  8
0
  6
CONTINUOUS
 62
     1
 10
112.38
 20
76.875
 11
108.83
 21
76.875
  0
LINE
  8
0
  6
CONTINUOUS
 62
     1
 10
109.43
 20
80.475
 11
108.98
 21
80.975
  0
LINE
  8
0
  6
CONTINUOUS
 62
     1
 10
108.98
 20
80.975
 11
109.63
 21
81.475
  0
LINE
  8
0
  6
CONTINUOUS
 62
     1
 10
109.38
 20
80.375
 11
108.93
 21
80.875
  0
LINE
  8
0
  6
CONTINUOUS
 62
     1
 10
108.93
 20
80.875
 11
108.38
 21
80.475
  0
LINE
  8
0
  6
CONTINUOUS
 62
     1
 10
109.58
 20
81.575
 11
108.98
 21
81.075
  0
LINE
  8
0
  6
CONTINUOUS
 62
     1
 10
108.98
 20
81.075
 11
108.53
 21
81.475
  0
LINE
  8
0
  6
CONTINUOUS
 62
     1
 10
113.18
 20
81.475
 11
109.63
 21
81.475
  0
LINE
  8
0
  6
CONTINUOUS
 62
     1
 10
110.23
 20
85.075
 11
109.78
 21
85.575
  0
LINE
  8
0
  6
CONTINUOUS
 62
     1
 10
109.78
 20
85.575
 11
110.43
 21
86.075
  0
LINE
  8
0
  6
CONTINUOUS
 62
     1
 10
110.18
 20
84.975
 11
109.73
 21
85.475
  0
LINE
  8
0
  6
CONTINUOUS
 62
     1
 10
109.73
 20
85.475
 11
109.18
 21
85.075
  0
LINE
  8
0
  6
CONTINUOUS
 62
     1
 10
113.98
 20
86.075
 11
110.43
 21
86.075
  0
LINE
  8
0
  6
CONTINUOUS
 62
     1
 10
110.23
 20
85.075
 11
113.78
 21
85.075
  0
LINE
  8
0
  6
CONTINUOUS
 62
     1
 10
108.53
 20
81.475
 11
109.18
 21
85.075
  0
LINE
  8
0
  6
CONTINUOUS
 62
     1
 10
109.58
 20
81.575
 11
110.18
 21
84.975
  0
POLYLINE
  8
0
  6
CONTINUOUS
 62
     1
 66
     1
  0
VERTEX
  8
0
  6
CONTINUOUS
 62
     1
 10
101.93
 20
85.075
  0
VERTEX
  8
0
  6
CONTINUOUS
 62
     1
 10
101.48
 20
85.575
  0
VERTEX
  8
0
  6
CONTINUOUS
 62
     1
 10
102.13
 20
86.075
  0
SEQEND
  0
LINE
  8
0
  6
CONTINUOUS
 62
     1
 10
101.88
 20
84.975
 11
101.43
 21
85.475
  0
LINE
  8
0
  6
CONTINUOUS
 62
     1
 10
101.43
 20
85.475
 11
100.88
 21
85.075
  0
LINE
  8
0
  6
CONTINUOUS
 62
     1
 10
100.33
 20
75.875
 11
99.88
 21
76.375
  0
LINE
  8
0
  6
CONTINUOUS
 62
     1
 10
99.88
 20
76.375
 11
100.53
 21
76.875
  0
LINE
  8
0
  6
CONTINUOUS
 62
     1
 10
100.48
 20
76.975
 11
99.88
 21
76.475
  0
LINE
  8
0
  6
CONTINUOUS
 62
     1
 10
99.88
 20
76.475
 11
99.43
 21
76.875
  0
LINE
  8
0
  6
CONTINUOUS
 62
     1
 10
104.08
 20
76.875
 11
104.48
 21
76.375
  0
LINE
  8
0
  6
CONTINUOUS
 62
     1
 10
104.48
 20
76.375
 11
103.88
 21
75.875
  0
LINE
  8
0
  6
CONTINUOUS
 62
     1
 10
105.08
 20
76.875
 11
104.53
 21
76.475
  0
LINE
  8
0
  6
CONTINUOUS
 62
     1
 10
104.53
 20
76.475
 11
104.08
 21
76.975
  0
LINE
  8
0
  6
CONTINUOUS
 62
     1
 10
104.08
 20
76.975
 11
104.68
 21
80.375
  0
CIRCLE
  8
0
  6
CONTINUOUS
 62
     1
 10
106.575
 20
76.375
 40
0.5
  0
LINE
  8
0
  6
CONTINUOUS
 62
     1
 10
104.08
 20
76.875
 11
100.53
 21
76.875
  0
LINE
  8
0
  6
CONTINUOUS
 62
     1
 10
100.33
 20
75.875
 11
103.88
 21
75.875
  0
LINE
  8
0
  6
CONTINUOUS
 62
     1
 10
104.88
 20
81.475
 11
105.28
 21
80.975
  0
LINE
  8
0
  6
CONTINUOUS
 62
     1
 10
105.28
 20
80.975
 11
104.68
 21
80.475
  0
LINE
  8
0
  6
CONTINUOUS
 62
     1
 10
105.88
 20
81.475
 11
105.33
 21
81.075
  0
LINE
  8
0
  6
CONTINUOUS
 62
     1
 10
105.33
 20
81.075
 11
104.88
 21
81.575
  0
LINE
  8
0
  6
CONTINUOUS
 62
     1
 10
104.68
 20
80.375
 11
105.28
 21
80.875
  0
LINE
  8
0
  6
CONTINUOUS
 62
     1
 10
105.28
 20
80.875
 11
105.68
 21
80.475
  0
LINE
  8
0
  6
CONTINUOUS
 62
     1
 10
105.68
 20
80.475
 11
105.08
 21
76.875
  0
LINE
  8
0
  6
CONTINUOUS
 62
     1
 10
105.68
 20
86.075
 11
102.13
 21
86.075
  0
LINE
  8
0
  6
CONTINUOUS
 62
     1
 10
105.68
 20
86.075
 11
106.08
 21
85.575
  0
LINE
  8
0
  6
CONTINUOUS
 62
     1
 10
106.08
 20
85.575
 11
105.48
 21
85.075
  0
LINE
  8
0
  6
CONTINUOUS
 62
     1
 10
105.48
 20
84.975
 11
106.08
 21
85.475
  0
LINE
  8
0
  6
CONTINUOUS
 62
     1
 10
106.08
 20
85.475
 11
106.48
 21
85.075
  0
LINE
  8
0
  6
CONTINUOUS
 62
     1
 10
101.93
 20
85.075
 11
105.48
 21
85.075
  0
LINE
  8
0
  6
CONTINUOUS
 62
     1
 10
106.48
 20
85.075
 11
105.88
 21
81.475
  0
LINE
  8
0
  6
CONTINUOUS
 62
     1
 10
104.88
 20
81.575
 11
105.48
 21
84.975
  0
LINE
  8
0
  6
CONTINUOUS
 62
     1
 10
101.13
 20
80.475
 11
104.68
 21
80.475
  0
LINE
  8
0
  6
CONTINUOUS
 62
     1
 10
101.13
 20
80.475
 11
100.68
 21
80.975
  0
LINE
  8
0
  6
CONTINUOUS
 62
     1
 10
100.68
 20
80.975
 11
101.33
 21
81.475
  0
LINE
  8
0
  6
CONTINUOUS
 62
     1
 10
101.08
 20
80.375
 11
100.63
 21
80.875
  0
LINE
  8
0
  6
CONTINUOUS
 62
     1
 10
100.63
 20
80.875
 11
100.08
 21
80.475
  0
LINE
  8
0
  6
CONTINUOUS
 62
     1
 10
101.28
 20
81.575
 11
100.68
 21
81.075
  0
LINE
  8
0
  6
CONTINUOUS
 62
     1
 10
100.68
 20
81.075
 11
100.23
 21
81.475
  0
LINE
  8
0
  6
CONTINUOUS
 62
     1
 10
101.28
 20
81.575
 11
101.88
 21
84.975
  0
LINE
  8
0
  6
CONTINUOUS
 62
     1
 10
100.23
 20
81.475
 11
100.88
 21
85.075
  0
LINE
  8
0
  6
CONTINUOUS
 62
     1
 10
99.43
 20
76.875
 11
100.08
 21
80.475
  0
LINE
  8
0
  6
CONTINUOUS
 62
     1
 10
100.48
 20
76.975
 11
101.08
 21
80.375
  0
LINE
  8
0
  6
CONTINUOUS
 62
     1
 10
104.88
 20
81.475
 11
101.33
 21
81.475
  0
LINE
  8
0
  6
CONTINUOUS
 62
     1
 10
95.38
 20
76.875
 11
95.78
 21
76.375
  0
LINE
  8
0
  6
CONTINUOUS
 62
     1
 10
96.38
 20
76.875
 11
95.83
 21
76.475
  0
LINE
  8
0
  6
CONTINUOUS
 62
     1
 10
95.83
 20
76.475
 11
95.38
 21
76.975
  0
LINE
  8
0
  6
CONTINUOUS
 62
     1
 10
95.38
 20
76.975
 11
95.98
 21
80.375
  0
CIRCLE
  8
0
  6
CONTINUOUS
 62
     1
 10
97.875
 20
76.375
 40
0.5
  0
LINE
  8
0
  6
CONTINUOUS
 62
     1
 10
96.18
 20
81.475
 11
96.58
 21
80.975
  0
LINE
  8
0
  6
CONTINUOUS
 62
     1
 10
96.58
 20
80.975
 11
95.98
 21
80.475
  0
LINE
  8
0
  6
CONTINUOUS
 62
     1
 10
97.18
 20
81.475
 11
96.63
 21
81.075
  0
LINE
  8
0
  6
CONTINUOUS
 62
     1
 10
96.63
 20
81.075
 11
96.18
 21
81.575
  0
LINE
  8
0
  6
CONTINUOUS
 62
     1
 10
95.98
 20
80.375
 11
96.58
 21
80.875
  0
LINE
  8
0
  6
CONTINUOUS
 62
     1
 10
96.58
 20
80.875
 11
96.98
 21
80.475
  0
LINE
  8
0
  6
CONTINUOUS
 62
     1
 10
96.98
 20
80.475
 11
96.38
 21
76.875
  0
LINE
  8
0
  6
CONTINUOUS
 62
     1
 10
97.38
 20
85.575
 11
96.78
 21
85.075
  0
LINE
  8
0
  6
CONTINUOUS
 62
     1
 10
96.78
 20
84.975
 11
97.38
 21
85.475
  0
LINE
  8
0
  6
CONTINUOUS
 62
     1
 10
97.38
 20
85.475
 11
97.78
 21
85.075
  0
LINE
  8
0
  6
CONTINUOUS
 62
     1
 10
97.78
 20
85.075
 11
97.18
 21
81.475
  0
LINE
  8
0
  6
CONTINUOUS
 62
     1
 10
96.18
 20
81.575
 11
96.78
 21
84.975
  0
LINE
  8
0
  6
CONTINUOUS
 62
     1
 10
92.43
 20
80.475
 11
95.98
 21
80.475
  0
LINE
  8
0
  6
CONTINUOUS
 62
     1
 10
92.43
 20
80.475
 11
91.98
 21
80.975
  0
LINE
  8
0
  6
CONTINUOUS
 62
     1
 10
91.98
 20
80.975
 11
92.63
 21
81.475
  0
LINE
  8
0
  6
CONTINUOUS
 62
     1
 10
92.38
 20
80.375
 11
91.93
 21
80.875
  0
LINE
  8
0
  6
CONTINUOUS
 62
     1
 10
92.58
 20
81.575
 11
91.98
 21
81.075
  0
LINE
  8
0
  6
CONTINUOUS
 62
     1
 10
96.18
 20
81.475
 11
92.63
 21
81.475
  0
ENDSEC
  0
EOF
