  0
SECTION
  2
HEADER
  9
$ACADVER
  1
AC1015
  9
$ACADMAINTVER
 70
     6
  9
$DWGCODEPAGE
  3
ANSI_932
  9
$INSBASE
 10
0.0
 20
0.0
 30
0.0
  9
$EXTMIN
 10
47.57144660940363
 20
61.69644660940672
 30
0.0
  9
$EXTMAX
 10
212.875
 20
283.2666666666666
 30
0.0
  9
$LIMMIN
 10
0.0
 20
0.0
  9
$LIMMAX
 10
420.0
 20
297.0
  9
$ORTHOMODE
 70
     0
  9
$REGENMODE
 70
     1
  9
$FILLMODE
 70
     1
  9
$QTEXTMODE
 70
     0
  9
$MIRRTEXT
 70
     1
  9
$LTSCALE
 40
1.0
  9
$ATTMODE
 70
     1
  9
$TEXTSIZE
 40
0.2
  9
$TRACEWID
 40
0.05
  9
$TEXTSTYLE
  7
STANDARD
  9
$CLAYER
  8
0
  9
$CELTYPE
  6
CONTINUOUS
  9
$CECOLOR
 62
   256
  9
$CELTSCALE
 40
1.0
  9
$DISPSILH
 70
     0
  9
$DIMSCALE
 40
1.0
  9
$DIMASZ
 40
0.18
  9
$DIMEXO
 40
0.0625
  9
$DIMDLI
 40
0.38
  9
$DIMRND
 40
0.0
  9
$DIMDLE
 40
0.0
  9
$DIMEXE
 40
0.18
  9
$DIMTP
 40
0.0
  9
$DIMTM
 40
0.0
  9
$DIMTXT
 40
0.18
  9
$DIMCEN
 40
0.09
  9
$DIMTSZ
 40
0.0
  9
$DIMTOL
 70
     0
  9
$DIMLIM
 70
     0
  9
$DIMTIH
 70
     1
  9
$DIMTOH
 70
     1
  9
$DIMSE1
 70
     0
  9
$DIMSE2
 70
     0
  9
$DIMTAD
 70
     0
  9
$DIMZIN
 70
     0
  9
$DIMBLK
  1

  9
$DIMASO
 70
     1
  9
$DIMSHO
 70
     1
  9
$DIMPOST
  1

  9
$DIMAPOST
  1

  9
$DIMALT
 70
     0
  9
$DIMALTD
 70
     2
  9
$DIMALTF
 40
25.4
  9
$DIMLFAC
 40
1.0
  9
$DIMTOFL
 70
     0
  9
$DIMTVP
 40
0.0
  9
$DIMTIX
 70
     0
  9
$DIMSOXD
 70
     0
  9
$DIMSAH
 70
     0
  9
$DIMBLK1
  1

  9
$DIMBLK2
  1

  9
$DIMSTYLE
  2
Standard
  9
$DIMCLRD
 70
     0
  9
$DIMCLRE
 70
     0
  9
$DIMCLRT
 70
     0
  9
$DIMTFAC
 40
1.0
  9
$DIMGAP
 40
0.09
  9
$DIMJUST
 70
     0
  9
$DIMSD1
 70
     0
  9
$DIMSD2
 70
     0
  9
$DIMTOLJ
 70
     1
  9
$DIMTZIN
 70
     0
  9
$DIMALTZ
 70
     0
  9
$DIMALTTZ
 70
     0
  9
$DIMUPT
 70
     0
  9
$DIMDEC
 70
     4
  9
$DIMTDEC
 70
     4
  9
$DIMALTU
 70
     2
  9
$DIMALTTD
 70
     2
  9
$DIMTXSTY
  7
STANDARD
  9
$DIMAUNIT
 70
     0
  9
$DIMADEC
 70
     0
  9
$DIMALTRND
 40
0.0
  9
$DIMAZIN
 70
     0
  9
$DIMDSEP
 70
    46
  9
$DIMATFIT
 70
     3
  9
$DIMFRAC
 70
     0
  9
$DIMLDRBLK
  1

  9
$DIMLUNIT
 70
     2
  9
$DIMLWD
 70
    -2
  9
$DIMLWE
 70
    -2
  9
$DIMTMOVE
 70
     0
  9
$LUNITS
 70
     2
  9
$LUPREC
 70
     4
  9
$SKETCHINC
 40
0.1
  9
$FILLETRAD
 40
0.0
  9
$AUNITS
 70
     0
  9
$AUPREC
 70
     0
  9
$MENU
  1
.
  9
$ELEVATION
 40
0.0
  9
$PELEVATION
 40
0.0
  9
$THICKNESS
 40
0.0
  9
$LIMCHECK
 70
     0
  9
$CHAMFERA
 40
0.0
  9
$CHAMFERB
 40
0.0
  9
$CHAMFERC
 40
0.0
  9
$CHAMFERD
 40
0.0
  9
$SKPOLY
 70
     0
  9
$TDCREATE
 40
2452699.520104282
  9
$TDUCREATE
 40
2452699.145104282
  9
$TDUPDATE
 40
2452716.679048148
  9
$TDUUPDATE
 40
2452716.304048148
  9
$TDINDWG
 40
0.0271722222
  9
$TDUSRTIMER
 40
0.0271685185
  9
$USRTIMER
 70
     1
  9
$ANGBASE
 50
0.0
  9
$ANGDIR
 70
     0
  9
$PDMODE
 70
     0
  9
$PDSIZE
 40
0.0
  9
$PLINEWID
 40
0.0
  9
$SPLFRAME
 70
     0
  9
$SPLINETYPE
 70
     6
  9
$SPLINESEGS
 70
     8
  9
$HANDSEED
  5
824
  9
$SURFTAB1
 70
     6
  9
$SURFTAB2
 70
     6
  9
$SURFTYPE
 70
     6
  9
$SURFU
 70
     6
  9
$SURFV
 70
     6
  9
$UCSBASE
  2

  9
$UCSNAME
  2

  9
$UCSORG
 10
0.0
 20
0.0
 30
0.0
  9
$UCSXDIR
 10
1.0
 20
0.0
 30
0.0
  9
$UCSYDIR
 10
0.0
 20
1.0
 30
0.0
  9
$UCSORTHOREF
  2

  9
$UCSORTHOVIEW
 70
     0
  9
$UCSORGTOP
 10
0.0
 20
0.0
 30
0.0
  9
$UCSORGBOTTOM
 10
0.0
 20
0.0
 30
0.0
  9
$UCSORGLEFT
 10
0.0
 20
0.0
 30
0.0
  9
$UCSORGRIGHT
 10
0.0
 20
0.0
 30
0.0
  9
$UCSORGFRONT
 10
0.0
 20
0.0
 30
0.0
  9
$UCSORGBACK
 10
0.0
 20
0.0
 30
0.0
  9
$PUCSBASE
  2

  9
$PUCSNAME
  2

  9
$PUCSORG
 10
0.0
 20
0.0
 30
0.0
  9
$PUCSXDIR
 10
1.0
 20
0.0
 30
0.0
  9
$PUCSYDIR
 10
0.0
 20
1.0
 30
0.0
  9
$PUCSORTHOREF
  2

  9
$PUCSORTHOVIEW
 70
     0
  9
$PUCSORGTOP
 10
0.0
 20
0.0
 30
0.0
  9
$PUCSORGBOTTOM
 10
0.0
 20
0.0
 30
0.0
  9
$PUCSORGLEFT
 10
0.0
 20
0.0
 30
0.0
  9
$PUCSORGRIGHT
 10
0.0
 20
0.0
 30
0.0
  9
$PUCSORGFRONT
 10
0.0
 20
0.0
 30
0.0
  9
$PUCSORGBACK
 10
0.0
 20
0.0
 30
0.0
  9
$USERI1
 70
     0
  9
$USERI2
 70
     0
  9
$USERI3
 70
     0
  9
$USERI4
 70
     0
  9
$USERI5
 70
     0
  9
$USERR1
 40
0.0
  9
$USERR2
 40
0.0
  9
$USERR3
 40
0.0
  9
$USERR4
 40
0.0
  9
$USERR5
 40
0.0
  9
$WORLDVIEW
 70
     1
  9
$SHADEDGE
 70
     3
  9
$SHADEDIF
 70
    70
  9
$TILEMODE
 70
     1
  9
$MAXACTVP
 70
    64
  9
$PINSBASE
 10
0.0
 20
0.0
 30
0.0
  9
$PLIMCHECK
 70
     0
  9
$PEXTMIN
 10
1.122749993181602
 20
0.7804166500962633
 30
0.0
  9
$PEXTMAX
 10
10.10474993863443
 20
7.023749850866361
 30
0.0
  9
$PLIMMIN
 10
-0.2312499519408218
 20
-0.2312499894870548
  9
$PLIMMAX
 10
11.4587498462106
 20
8.03874995764785
  9
$UNITMODE
 70
     0
  9
$VISRETAIN
 70
     1
  9
$PLINEGEN
 70
     0
  9
$PSLTSCALE
 70
     1
  9
$TREEDEPTH
 70
  3020
  9
$CMLSTYLE
  2
Standard
  9
$CMLJUST
 70
     0
  9
$CMLSCALE
 40
1.0
  9
$PROXYGRAPHICS
 70
     1
  9
$MEASUREMENT
 70
     0
  9
$CELWEIGHT
370
    -1
  9
$ENDCAPS
280
     0
  9
$JOINSTYLE
280
     0
  9
$LWDISPLAY
290
     0
  9
$INSUNITS
 70
     0
  9
$HYPERLINKBASE
  1

  9
$STYLESHEET
  1

  9
$XEDIT
290
     1
  9
$CEPSNTYPE
380
     0
  9
$PSTYLEMODE
290
     1
  9
$FINGERPRINTGUID
  2
{62342564-4B15-11D7-9C19-0040267F10D4}
  9
$VERSIONGUID
  2
{6DCA5DFA-5891-11D7-9C19-0040267F10D4}
  9
$EXTNAMES
290
     1
  9
$PSVPSCALE
 40
0.0
  9
$OLESTARTUP
290
     0
  0
ENDSEC
  0
SECTION
  2
CLASSES
  0
CLASS
  1
ACDBDICTIONARYWDFLT
  2
AcDbDictionaryWithDefault
  3
AutoCAD 2000
 90
        0
280
     0
281
     0
  0
CLASS
  1
ACDBPLACEHOLDER
  2
AcDbPlaceHolder
  3
AutoCAD 2000
 90
        0
280
     0
281
     0
  0
CLASS
  1
LAYOUT
  2
AcDbLayout
  3
AutoCAD 2000
 90
        0
280
     0
281
     0
  0
ENDSEC
  0
SECTION
  2
TABLES
  0
TABLE
  2
VPORT
  5
8
330
0
100
AcDbSymbolTable
 70
     3
  0
VPORT
  5
823
330
8
100
AcDbSymbolTableRecord
100
AcDbViewportTableRecord
  2
*Active
 70
     0
 10
0.0
 20
0.0
 11
1.0
 21
1.0
 12
131.3703212103566
 22
184.0173227586223
 13
0.0
 23
0.0
 14
1.0
 24
1.0
 15
0.0
 25
0.0
 16
0.0
 26
0.0
 36
1.0
 17
0.0
 27
0.0
 37
0.0
 40
298.8521677758953
 41
2.210374639769452
 42
50.0
 43
0.0
 44
0.0
 50
0.0
 51
0.0
 71
     0
 72
   100
 73
     1
 74
     1
 75
     0
 76
     0
 77
     0
 78
     0
281
     0
 65
     1
110
0.0
120
0.0
130
0.0
111
1.0
121
0.0
131
0.0
112
0.0
122
1.0
132
0.0
 79
     0
146
0.0
  0
ENDTAB
  0
TABLE
  2
LTYPE
  5
5
330
0
100
AcDbSymbolTable
 70
     3
  0
LTYPE
  5
13
330
5
100
AcDbSymbolTableRecord
100
AcDbLinetypeTableRecord
  2
ByBlock
 70
     0
  3

 72
    65
 73
     0
 40
0.0
  0
LTYPE
  5
14
330
5
100
AcDbSymbolTableRecord
100
AcDbLinetypeTableRecord
  2
ByLayer
 70
     0
  3

 72
    65
 73
     0
 40
0.0
  0
LTYPE
  5
15
330
5
100
AcDbSymbolTableRecord
100
AcDbLinetypeTableRecord
  2
CONTINUOUS
 70
     0
  3
Solid line
 72
    65
 73
     0
 40
0.0
  0
LTYPE
  5
22
330
5
100
AcDbSymbolTableRecord
100
AcDbLinetypeTableRecord
  2
LTYPE1
 70
     0
  3
HIDDEN
 72
    65
 73
     2
 40
3.0
 49
1.8
 74
     0
 49
-1.199999999999999
 74
     0
  0
LTYPE
  5
23
330
5
100
AcDbSymbolTableRecord
100
AcDbLinetypeTableRecord
  2
LTYPE2
 70
     0
  3
HIDDEN
 72
    65
 73
     2
 40
1.0
 49
0.6
 74
     0
 49
-0.4
 74
     0
  0
ENDTAB
  0
TABLE
  2
LAYER
  5
2
330
0
100
AcDbSymbolTable
 70
   128
  0
LAYER
  5
10
330
2
100
AcDbSymbolTableRecord
100
AcDbLayerTableRecord
  2
0
 70
     0
 62
     7
  6
CONTINUOUS
370
    -3
390
F
  0
LAYER
  5
24
330
2
100
AcDbSymbolTableRecord
100
AcDbLayerTableRecord
  2
1
 70
     0
 62
     7
  6
CONTINUOUS
370
    -3
390
F
  0
LAYER
  5
25
330
2
100
AcDbSymbolTableRecord
100
AcDbLayerTableRecord
  2
2
 70
     0
 62
     7
  6
CONTINUOUS
370
    -3
390
F
  0
LAYER
  5
26
330
2
100
AcDbSymbolTableRecord
100
AcDbLayerTableRecord
  2
3
 70
     0
 62
     7
  6
CONTINUOUS
370
    -3
390
F
  0
LAYER
  5
27
330
2
100
AcDbSymbolTableRecord
100
AcDbLayerTableRecord
  2
4
 70
     0
 62
     7
  6
CONTINUOUS
370
    -3
390
F
  0
LAYER
  5
28
330
2
100
AcDbSymbolTableRecord
100
AcDbLayerTableRecord
  2
5
 70
     0
 62
     7
  6
CONTINUOUS
370
    -3
390
F
  0
LAYER
  5
29
330
2
100
AcDbSymbolTableRecord
100
AcDbLayerTableRecord
  2
6
 70
     0
 62
     7
  6
CONTINUOUS
370
    -3
390
F
  0
LAYER
  5
2A
330
2
100
AcDbSymbolTableRecord
100
AcDbLayerTableRecord
  2
7
 70
     0
 62
     7
  6
CONTINUOUS
370
    -3
390
F
  0
LAYER
  5
2B
330
2
100
AcDbSymbolTableRecord
100
AcDbLayerTableRecord
  2
8
 70
     0
 62
     7
  6
CONTINUOUS
370
    -3
390
F
  0
LAYER
  5
2C
330
2
100
AcDbSymbolTableRecord
100
AcDbLayerTableRecord
  2
9
 70
     0
 62
     7
  6
CONTINUOUS
370
    -3
390
F
  0
LAYER
  5
2D
330
2
100
AcDbSymbolTableRecord
100
AcDbLayerTableRecord
  2
10
 70
     0
 62
     7
  6
CONTINUOUS
370
    -3
390
F
  0
LAYER
  5
2E
330
2
100
AcDbSymbolTableRecord
100
AcDbLayerTableRecord
  2
11
 70
     0
 62
     7
  6
CONTINUOUS
370
    -3
390
F
  0
LAYER
  5
2F
330
2
100
AcDbSymbolTableRecord
100
AcDbLayerTableRecord
  2
12
 70
     0
 62
     7
  6
CONTINUOUS
370
    -3
390
F
  0
LAYER
  5
30
330
2
100
AcDbSymbolTableRecord
100
AcDbLayerTableRecord
  2
13
 70
     0
 62
     7
  6
CONTINUOUS
370
    -3
390
F
  0
LAYER
  5
31
330
2
100
AcDbSymbolTableRecord
100
AcDbLayerTableRecord
  2
14
 70
     0
 62
     7
  6
CONTINUOUS
370
    -3
390
F
  0
LAYER
  5
32
330
2
100
AcDbSymbolTableRecord
100
AcDbLayerTableRecord
  2
15
 70
     0
 62
     7
  6
CONTINUOUS
370
    -3
390
F
  0
LAYER
  5
33
330
2
100
AcDbSymbolTableRecord
100
AcDbLayerTableRecord
  2
16
 70
     0
 62
     7
  6
CONTINUOUS
370
    -3
390
F
  0
LAYER
  5
34
330
2
100
AcDbSymbolTableRecord
100
AcDbLayerTableRecord
  2
17
 70
     0
 62
     7
  6
CONTINUOUS
370
    -3
390
F
  0
LAYER
  5
35
330
2
100
AcDbSymbolTableRecord
100
AcDbLayerTableRecord
  2
18
 70
     0
 62
     7
  6
CONTINUOUS
370
    -3
390
F
  0
LAYER
  5
36
330
2
100
AcDbSymbolTableRecord
100
AcDbLayerTableRecord
  2
19
 70
     0
 62
     7
  6
CONTINUOUS
370
    -3
390
F
  0
LAYER
  5
37
330
2
100
AcDbSymbolTableRecord
100
AcDbLayerTableRecord
  2
20
 70
     0
 62
     7
  6
CONTINUOUS
370
    -3
390
F
  0
LAYER
  5
38
330
2
100
AcDbSymbolTableRecord
100
AcDbLayerTableRecord
  2
21
 70
     0
 62
     7
  6
CONTINUOUS
370
    -3
390
F
  0
LAYER
  5
39
330
2
100
AcDbSymbolTableRecord
100
AcDbLayerTableRecord
  2
22
 70
     0
 62
     7
  6
CONTINUOUS
370
    -3
390
F
  0
LAYER
  5
3A
330
2
100
AcDbSymbolTableRecord
100
AcDbLayerTableRecord
  2
23
 70
     0
 62
     7
  6
CONTINUOUS
370
    -3
390
F
  0
LAYER
  5
3B
330
2
100
AcDbSymbolTableRecord
100
AcDbLayerTableRecord
  2
24
 70
     0
 62
     7
  6
CONTINUOUS
370
    -3
390
F
  0
LAYER
  5
3C
330
2
100
AcDbSymbolTableRecord
100
AcDbLayerTableRecord
  2
25
 70
     0
 62
     7
  6
CONTINUOUS
370
    -3
390
F
  0
LAYER
  5
3D
330
2
100
AcDbSymbolTableRecord
100
AcDbLayerTableRecord
  2
26
 70
     0
 62
     7
  6
CONTINUOUS
370
    -3
390
F
  0
LAYER
  5
3E
330
2
100
AcDbSymbolTableRecord
100
AcDbLayerTableRecord
  2
27
 70
     0
 62
     7
  6
CONTINUOUS
370
    -3
390
F
  0
LAYER
  5
3F
330
2
100
AcDbSymbolTableRecord
100
AcDbLayerTableRecord
  2
28
 70
     0
 62
     7
  6
CONTINUOUS
370
    -3
390
F
  0
LAYER
  5
40
330
2
100
AcDbSymbolTableRecord
100
AcDbLayerTableRecord
  2
29
 70
     0
 62
     7
  6
CONTINUOUS
370
    -3
390
F
  0
LAYER
  5
41
330
2
100
AcDbSymbolTableRecord
100
AcDbLayerTableRecord
  2
30
 70
     0
 62
     7
  6
CONTINUOUS
370
    -3
390
F
  0
LAYER
  5
42
330
2
100
AcDbSymbolTableRecord
100
AcDbLayerTableRecord
  2
31
 70
     0
 62
     7
  6
CONTINUOUS
370
    -3
390
F
  0
LAYER
  5
43
330
2
100
AcDbSymbolTableRecord
100
AcDbLayerTableRecord
  2
32
 70
     0
 62
     7
  6
CONTINUOUS
370
    -3
390
F
  0
LAYER
  5
44
330
2
100
AcDbSymbolTableRecord
100
AcDbLayerTableRecord
  2
33
 70
     0
 62
     7
  6
CONTINUOUS
370
    -3
390
F
  0
LAYER
  5
45
330
2
100
AcDbSymbolTableRecord
100
AcDbLayerTableRecord
  2
34
 70
     0
 62
     7
  6
CONTINUOUS
370
    -3
390
F
  0
LAYER
  5
46
330
2
100
AcDbSymbolTableRecord
100
AcDbLayerTableRecord
  2
35
 70
     0
 62
     7
  6
CONTINUOUS
370
    -3
390
F
  0
LAYER
  5
47
330
2
100
AcDbSymbolTableRecord
100
AcDbLayerTableRecord
  2
36
 70
     0
 62
     7
  6
CONTINUOUS
370
    -3
390
F
  0
LAYER
  5
48
330
2
100
AcDbSymbolTableRecord
100
AcDbLayerTableRecord
  2
37
 70
     0
 62
     7
  6
CONTINUOUS
370
    -3
390
F
  0
LAYER
  5
49
330
2
100
AcDbSymbolTableRecord
100
AcDbLayerTableRecord
  2
38
 70
     0
 62
     7
  6
CONTINUOUS
370
    -3
390
F
  0
LAYER
  5
4A
330
2
100
AcDbSymbolTableRecord
100
AcDbLayerTableRecord
  2
39
 70
     0
 62
     7
  6
CONTINUOUS
370
    -3
390
F
  0
LAYER
  5
4B
330
2
100
AcDbSymbolTableRecord
100
AcDbLayerTableRecord
  2
40
 70
     0
 62
     7
  6
CONTINUOUS
370
    -3
390
F
  0
LAYER
  5
4C
330
2
100
AcDbSymbolTableRecord
100
AcDbLayerTableRecord
  2
41
 70
     0
 62
     7
  6
CONTINUOUS
370
    -3
390
F
  0
LAYER
  5
4D
330
2
100
AcDbSymbolTableRecord
100
AcDbLayerTableRecord
  2
42
 70
     0
 62
     7
  6
CONTINUOUS
370
    -3
390
F
  0
LAYER
  5
4E
330
2
100
AcDbSymbolTableRecord
100
AcDbLayerTableRecord
  2
43
 70
     0
 62
     7
  6
CONTINUOUS
370
    -3
390
F
  0
LAYER
  5
4F
330
2
100
AcDbSymbolTableRecord
100
AcDbLayerTableRecord
  2
44
 70
     0
 62
     7
  6
CONTINUOUS
370
    -3
390
F
  0
LAYER
  5
50
330
2
100
AcDbSymbolTableRecord
100
AcDbLayerTableRecord
  2
45
 70
     0
 62
     7
  6
CONTINUOUS
370
    -3
390
F
  0
LAYER
  5
51
330
2
100
AcDbSymbolTableRecord
100
AcDbLayerTableRecord
  2
46
 70
     0
 62
     7
  6
CONTINUOUS
370
    -3
390
F
  0
LAYER
  5
52
330
2
100
AcDbSymbolTableRecord
100
AcDbLayerTableRecord
  2
47
 70
     0
 62
     7
  6
CONTINUOUS
370
    -3
390
F
  0
LAYER
  5
53
330
2
100
AcDbSymbolTableRecord
100
AcDbLayerTableRecord
  2
48
 70
     0
 62
     7
  6
CONTINUOUS
370
    -3
390
F
  0
LAYER
  5
54
330
2
100
AcDbSymbolTableRecord
100
AcDbLayerTableRecord
  2
49
 70
     0
 62
     7
  6
CONTINUOUS
370
    -3
390
F
  0
LAYER
  5
55
330
2
100
AcDbSymbolTableRecord
100
AcDbLayerTableRecord
  2
50
 70
     0
 62
     7
  6
CONTINUOUS
370
    -3
390
F
  0
LAYER
  5
56
330
2
100
AcDbSymbolTableRecord
100
AcDbLayerTableRecord
  2
51
 70
     0
 62
     7
  6
CONTINUOUS
370
    -3
390
F
  0
LAYER
  5
57
330
2
100
AcDbSymbolTableRecord
100
AcDbLayerTableRecord
  2
52
 70
     0
 62
     7
  6
CONTINUOUS
370
    -3
390
F
  0
LAYER
  5
58
330
2
100
AcDbSymbolTableRecord
100
AcDbLayerTableRecord
  2
53
 70
     0
 62
     7
  6
CONTINUOUS
370
    -3
390
F
  0
LAYER
  5
59
330
2
100
AcDbSymbolTableRecord
100
AcDbLayerTableRecord
  2
54
 70
     0
 62
     7
  6
CONTINUOUS
370
    -3
390
F
  0
LAYER
  5
5A
330
2
100
AcDbSymbolTableRecord
100
AcDbLayerTableRecord
  2
55
 70
     0
 62
     7
  6
CONTINUOUS
370
    -3
390
F
  0
LAYER
  5
5B
330
2
100
AcDbSymbolTableRecord
100
AcDbLayerTableRecord
  2
56
 70
     0
 62
     7
  6
CONTINUOUS
370
    -3
390
F
  0
LAYER
  5
5C
330
2
100
AcDbSymbolTableRecord
100
AcDbLayerTableRecord
  2
57
 70
     0
 62
     7
  6
CONTINUOUS
370
    -3
390
F
  0
LAYER
  5
5D
330
2
100
AcDbSymbolTableRecord
100
AcDbLayerTableRecord
  2
58
 70
     0
 62
     7
  6
CONTINUOUS
370
    -3
390
F
  0
LAYER
  5
5E
330
2
100
AcDbSymbolTableRecord
100
AcDbLayerTableRecord
  2
59
 70
     0
 62
     7
  6
CONTINUOUS
370
    -3
390
F
  0
LAYER
  5
5F
330
2
100
AcDbSymbolTableRecord
100
AcDbLayerTableRecord
  2
60
 70
     0
 62
     7
  6
CONTINUOUS
370
    -3
390
F
  0
LAYER
  5
60
330
2
100
AcDbSymbolTableRecord
100
AcDbLayerTableRecord
  2
61
 70
     0
 62
     7
  6
CONTINUOUS
370
    -3
390
F
  0
LAYER
  5
61
330
2
100
AcDbSymbolTableRecord
100
AcDbLayerTableRecord
  2
62
 70
     0
 62
     7
  6
CONTINUOUS
370
    -3
390
F
  0
LAYER
  5
62
330
2
100
AcDbSymbolTableRecord
100
AcDbLayerTableRecord
  2
63
 70
     0
 62
     7
  6
CONTINUOUS
370
    -3
390
F
  0
LAYER
  5
63
330
2
100
AcDbSymbolTableRecord
100
AcDbLayerTableRecord
  2
64
 70
     0
 62
     7
  6
CONTINUOUS
370
    -3
390
F
  0
LAYER
  5
64
330
2
100
AcDbSymbolTableRecord
100
AcDbLayerTableRecord
  2
65
 70
     0
 62
     7
  6
CONTINUOUS
370
    -3
390
F
  0
LAYER
  5
65
330
2
100
AcDbSymbolTableRecord
100
AcDbLayerTableRecord
  2
66
 70
     0
 62
     7
  6
CONTINUOUS
370
    -3
390
F
  0
LAYER
  5
66
330
2
100
AcDbSymbolTableRecord
100
AcDbLayerTableRecord
  2
67
 70
     0
 62
     7
  6
CONTINUOUS
370
    -3
390
F
  0
LAYER
  5
67
330
2
100
AcDbSymbolTableRecord
100
AcDbLayerTableRecord
  2
68
 70
     0
 62
     7
  6
CONTINUOUS
370
    -3
390
F
  0
LAYER
  5
68
330
2
100
AcDbSymbolTableRecord
100
AcDbLayerTableRecord
  2
69
 70
     0
 62
     7
  6
CONTINUOUS
370
    -3
390
F
  0
LAYER
  5
69
330
2
100
AcDbSymbolTableRecord
100
AcDbLayerTableRecord
  2
70
 70
     0
 62
     7
  6
CONTINUOUS
370
    -3
390
F
  0
LAYER
  5
6A
330
2
100
AcDbSymbolTableRecord
100
AcDbLayerTableRecord
  2
71
 70
     0
 62
     7
  6
CONTINUOUS
370
    -3
390
F
  0
LAYER
  5
6B
330
2
100
AcDbSymbolTableRecord
100
AcDbLayerTableRecord
  2
72
 70
     0
 62
     7
  6
CONTINUOUS
370
    -3
390
F
  0
LAYER
  5
6C
330
2
100
AcDbSymbolTableRecord
100
AcDbLayerTableRecord
  2
73
 70
     0
 62
     7
  6
CONTINUOUS
370
    -3
390
F
  0
LAYER
  5
6D
330
2
100
AcDbSymbolTableRecord
100
AcDbLayerTableRecord
  2
74
 70
     0
 62
     7
  6
CONTINUOUS
370
    -3
390
F
  0
LAYER
  5
6E
330
2
100
AcDbSymbolTableRecord
100
AcDbLayerTableRecord
  2
75
 70
     0
 62
     7
  6
CONTINUOUS
370
    -3
390
F
  0
LAYER
  5
6F
330
2
100
AcDbSymbolTableRecord
100
AcDbLayerTableRecord
  2
76
 70
     0
 62
     7
  6
CONTINUOUS
370
    -3
390
F
  0
LAYER
  5
70
330
2
100
AcDbSymbolTableRecord
100
AcDbLayerTableRecord
  2
77
 70
     0
 62
     7
  6
CONTINUOUS
370
    -3
390
F
  0
LAYER
  5
71
330
2
100
AcDbSymbolTableRecord
100
AcDbLayerTableRecord
  2
78
 70
     0
 62
     7
  6
CONTINUOUS
370
    -3
390
F
  0
LAYER
  5
72
330
2
100
AcDbSymbolTableRecord
100
AcDbLayerTableRecord
  2
79
 70
     0
 62
     7
  6
CONTINUOUS
370
    -3
390
F
  0
LAYER
  5
73
330
2
100
AcDbSymbolTableRecord
100
AcDbLayerTableRecord
  2
80
 70
     0
 62
     7
  6
CONTINUOUS
370
    -3
390
F
  0
LAYER
  5
74
330
2
100
AcDbSymbolTableRecord
100
AcDbLayerTableRecord
  2
81
 70
     0
 62
     7
  6
CONTINUOUS
370
    -3
390
F
  0
LAYER
  5
75
330
2
100
AcDbSymbolTableRecord
100
AcDbLayerTableRecord
  2
82
 70
     0
 62
     7
  6
CONTINUOUS
370
    -3
390
F
  0
LAYER
  5
76
330
2
100
AcDbSymbolTableRecord
100
AcDbLayerTableRecord
  2
83
 70
     0
 62
     7
  6
CONTINUOUS
370
    -3
390
F
  0
LAYER
  5
77
330
2
100
AcDbSymbolTableRecord
100
AcDbLayerTableRecord
  2
84
 70
     0
 62
     7
  6
CONTINUOUS
370
    -3
390
F
  0
LAYER
  5
78
330
2
100
AcDbSymbolTableRecord
100
AcDbLayerTableRecord
  2
85
 70
     0
 62
     7
  6
CONTINUOUS
370
    -3
390
F
  0
LAYER
  5
79
330
2
100
AcDbSymbolTableRecord
100
AcDbLayerTableRecord
  2
86
 70
     0
 62
     7
  6
CONTINUOUS
370
    -3
390
F
  0
LAYER
  5
7A
330
2
100
AcDbSymbolTableRecord
100
AcDbLayerTableRecord
  2
87
 70
     0
 62
     7
  6
CONTINUOUS
370
    -3
390
F
  0
LAYER
  5
7B
330
2
100
AcDbSymbolTableRecord
100
AcDbLayerTableRecord
  2
88
 70
     0
 62
     7
  6
CONTINUOUS
370
    -3
390
F
  0
LAYER
  5
7C
330
2
100
AcDbSymbolTableRecord
100
AcDbLayerTableRecord
  2
89
 70
     0
 62
     7
  6
CONTINUOUS
370
    -3
390
F
  0
LAYER
  5
7D
330
2
100
AcDbSymbolTableRecord
100
AcDbLayerTableRecord
  2
90
 70
     0
 62
     7
  6
CONTINUOUS
370
    -3
390
F
  0
LAYER
  5
7E
330
2
100
AcDbSymbolTableRecord
100
AcDbLayerTableRecord
  2
91
 70
     0
 62
     7
  6
CONTINUOUS
370
    -3
390
F
  0
LAYER
  5
7F
330
2
100
AcDbSymbolTableRecord
100
AcDbLayerTableRecord
  2
92
 70
     0
 62
     7
  6
CONTINUOUS
370
    -3
390
F
  0
LAYER
  5
80
330
2
100
AcDbSymbolTableRecord
100
AcDbLayerTableRecord
  2
93
 70
     0
 62
     7
  6
CONTINUOUS
370
    -3
390
F
  0
LAYER
  5
81
330
2
100
AcDbSymbolTableRecord
100
AcDbLayerTableRecord
  2
94
 70
     0
 62
     7
  6
CONTINUOUS
370
    -3
390
F
  0
LAYER
  5
82
330
2
100
AcDbSymbolTableRecord
100
AcDbLayerTableRecord
  2
95
 70
     0
 62
     7
  6
CONTINUOUS
370
    -3
390
F
  0
LAYER
  5
83
330
2
100
AcDbSymbolTableRecord
100
AcDbLayerTableRecord
  2
96
 70
     0
 62
     7
  6
CONTINUOUS
370
    -3
390
F
  0
LAYER
  5
84
330
2
100
AcDbSymbolTableRecord
100
AcDbLayerTableRecord
  2
97
 70
     0
 62
     7
  6
CONTINUOUS
370
    -3
390
F
  0
LAYER
  5
85
330
2
100
AcDbSymbolTableRecord
100
AcDbLayerTableRecord
  2
98
 70
     0
 62
     7
  6
CONTINUOUS
370
    -3
390
F
  0
LAYER
  5
86
330
2
100
AcDbSymbolTableRecord
100
AcDbLayerTableRecord
  2
99
 70
     0
 62
     7
  6
CONTINUOUS
370
    -3
390
F
  0
LAYER
  5
87
330
2
100
AcDbSymbolTableRecord
100
AcDbLayerTableRecord
  2
100
 70
     0
 62
     7
  6
CONTINUOUS
370
    -3
390
F
  0
LAYER
  5
88
330
2
100
AcDbSymbolTableRecord
100
AcDbLayerTableRecord
  2
101
 70
     0
 62
     7
  6
CONTINUOUS
370
    -3
390
F
  0
LAYER
  5
89
330
2
100
AcDbSymbolTableRecord
100
AcDbLayerTableRecord
  2
102
 70
     0
 62
     7
  6
CONTINUOUS
370
    -3
390
F
  0
LAYER
  5
8A
330
2
100
AcDbSymbolTableRecord
100
AcDbLayerTableRecord
  2
103
 70
     0
 62
     7
  6
CONTINUOUS
370
    -3
390
F
  0
LAYER
  5
8B
330
2
100
AcDbSymbolTableRecord
100
AcDbLayerTableRecord
  2
104
 70
     0
 62
     7
  6
CONTINUOUS
370
    -3
390
F
  0
LAYER
  5
8C
330
2
100
AcDbSymbolTableRecord
100
AcDbLayerTableRecord
  2
105
 70
     0
 62
     7
  6
CONTINUOUS
370
    -3
390
F
  0
LAYER
  5
8D
330
2
100
AcDbSymbolTableRecord
100
AcDbLayerTableRecord
  2
106
 70
     0
 62
     7
  6
CONTINUOUS
370
    -3
390
F
  0
LAYER
  5
8E
330
2
100
AcDbSymbolTableRecord
100
AcDbLayerTableRecord
  2
107
 70
     0
 62
     7
  6
CONTINUOUS
370
    -3
390
F
  0
LAYER
  5
8F
330
2
100
AcDbSymbolTableRecord
100
AcDbLayerTableRecord
  2
108
 70
     0
 62
     7
  6
CONTINUOUS
370
    -3
390
F
  0
LAYER
  5
90
330
2
100
AcDbSymbolTableRecord
100
AcDbLayerTableRecord
  2
109
 70
     0
 62
     7
  6
CONTINUOUS
370
    -3
390
F
  0
LAYER
  5
91
330
2
100
AcDbSymbolTableRecord
100
AcDbLayerTableRecord
  2
110
 70
     0
 62
     7
  6
CONTINUOUS
370
    -3
390
F
  0
LAYER
  5
92
330
2
100
AcDbSymbolTableRecord
100
AcDbLayerTableRecord
  2
111
 70
     0
 62
     7
  6
CONTINUOUS
370
    -3
390
F
  0
LAYER
  5
93
330
2
100
AcDbSymbolTableRecord
100
AcDbLayerTableRecord
  2
112
 70
     0
 62
     7
  6
CONTINUOUS
370
    -3
390
F
  0
LAYER
  5
94
330
2
100
AcDbSymbolTableRecord
100
AcDbLayerTableRecord
  2
113
 70
     0
 62
     7
  6
CONTINUOUS
370
    -3
390
F
  0
LAYER
  5
95
330
2
100
AcDbSymbolTableRecord
100
AcDbLayerTableRecord
  2
114
 70
     0
 62
     7
  6
CONTINUOUS
370
    -3
390
F
  0
LAYER
  5
96
330
2
100
AcDbSymbolTableRecord
100
AcDbLayerTableRecord
  2
115
 70
     0
 62
     7
  6
CONTINUOUS
370
    -3
390
F
  0
LAYER
  5
97
330
2
100
AcDbSymbolTableRecord
100
AcDbLayerTableRecord
  2
116
 70
     0
 62
     7
  6
CONTINUOUS
370
    -3
390
F
  0
LAYER
  5
98
330
2
100
AcDbSymbolTableRecord
100
AcDbLayerTableRecord
  2
117
 70
     0
 62
     7
  6
CONTINUOUS
370
    -3
390
F
  0
LAYER
  5
99
330
2
100
AcDbSymbolTableRecord
100
AcDbLayerTableRecord
  2
118
 70
     0
 62
     7
  6
CONTINUOUS
370
    -3
390
F
  0
LAYER
  5
9A
330
2
100
AcDbSymbolTableRecord
100
AcDbLayerTableRecord
  2
119
 70
     0
 62
     7
  6
CONTINUOUS
370
    -3
390
F
  0
LAYER
  5
9B
330
2
100
AcDbSymbolTableRecord
100
AcDbLayerTableRecord
  2
120
 70
     0
 62
     7
  6
CONTINUOUS
370
    -3
390
F
  0
LAYER
  5
9C
330
2
100
AcDbSymbolTableRecord
100
AcDbLayerTableRecord
  2
121
 70
     0
 62
     7
  6
CONTINUOUS
370
    -3
390
F
  0
LAYER
  5
9D
330
2
100
AcDbSymbolTableRecord
100
AcDbLayerTableRecord
  2
122
 70
     0
 62
     7
  6
CONTINUOUS
370
    -3
390
F
  0
LAYER
  5
9E
330
2
100
AcDbSymbolTableRecord
100
AcDbLayerTableRecord
  2
123
 70
     0
 62
     7
  6
CONTINUOUS
370
    -3
390
F
  0
LAYER
  5
9F
330
2
100
AcDbSymbolTableRecord
100
AcDbLayerTableRecord
  2
124
 70
     0
 62
     7
  6
CONTINUOUS
370
    -3
390
F
  0
LAYER
  5
A0
330
2
100
AcDbSymbolTableRecord
100
AcDbLayerTableRecord
  2
125
 70
     0
 62
     7
  6
CONTINUOUS
370
    -3
390
F
  0
LAYER
  5
A1
330
2
100
AcDbSymbolTableRecord
100
AcDbLayerTableRecord
  2
126
 70
     0
 62
     7
  6
CONTINUOUS
370
    -3
390
F
  0
LAYER
  5
A2
330
2
100
AcDbSymbolTableRecord
100
AcDbLayerTableRecord
  2
127
 70
     0
 62
     7
  6
CONTINUOUS
370
    -3
390
F
  0
ENDTAB
  0
TABLE
  2
STYLE
  5
3
330
0
100
AcDbSymbolTable
 70
     5
  0
STYLE
  5
11
330
3
100
AcDbSymbolTableRecord
100
AcDbTextStyleTableRecord
  2
STANDARD
 70
     0
 40
0.0
 41
1.0
 50
0.0
 71
     0
 42
0.2
  3
txt
  4

  0
STYLE
  5
A3
330
3
100
AcDbSymbolTableRecord
100
AcDbTextStyleTableRecord
  2
KANJI0
 70
     0
 40
3.0
 41
0.88
 50
0.0
 71
     0
 42
3.0
  3

  4
bigfont
  0
STYLE
  5
A4
330
3
100
AcDbSymbolTableRecord
100
AcDbTextStyleTableRecord
  2
KANJI1
 70
     0
 40
2.0
 41
0.9
 50
0.0
 71
     0
 42
2.0
  3

  4
bigfont
  0
STYLE
  5
A5
330
3
100
AcDbSymbolTableRecord
100
AcDbTextStyleTableRecord
  2
KANJI2
 70
     0
 40
1.7
 41
0.9
 50
0.0
 71
     0
 42
1.7
  3

  4
bigfont
  0
STYLE
  5
A6
330
3
100
AcDbSymbolTableRecord
100
AcDbTextStyleTableRecord
  2
KANJI3
 70
     0
 40
5.0
 41
1.0
 50
0.0
 71
     0
 42
5.0
  3

  4
bigfont
  0
ENDTAB
  0
TABLE
  2
VIEW
  5
6
330
0
100
AcDbSymbolTable
 70
     0
  0
ENDTAB
  0
TABLE
  2
UCS
  5
7
330
0
100
AcDbSymbolTable
 70
     0
  0
ENDTAB
  0
TABLE
  2
APPID
  5
9
330
0
100
AcDbSymbolTable
 70
     1
  0
APPID
  5
12
330
9
100
AcDbSymbolTableRecord
100
AcDbRegAppTableRecord
  2
ACAD
 70
     0
  0
ENDTAB
  0
TABLE
  2
DIMSTYLE
  5
A
330
0
100
AcDbSymbolTable
 70
     1
100
AcDbDimStyleTable
 71
     0
  0
DIMSTYLE
105
7EC
330
A
100
AcDbSymbolTableRecord
100
AcDbDimStyleTableRecord
  2
Standard
 70
     0
340
11
  0
ENDTAB
  0
TABLE
  2
BLOCK_RECORD
  5
1
330
0
100
AcDbSymbolTable
 70
     0
  0
BLOCK_RECORD
  5
1E
330
1
100
AcDbSymbolTableRecord
100
AcDbBlockTableRecord
  2
*Model_Space
340
21
  0
BLOCK_RECORD
  5
1A
330
1
100
AcDbSymbolTableRecord
100
AcDbBlockTableRecord
  2
*Paper_Space
340
1D
  0
ENDTAB
  0
ENDSEC
  0
SECTION
  2
BLOCKS
  0
BLOCK
  5
1F
330
1E
100
AcDbEntity
  8
0
100
AcDbBlockBegin
  2
*Model_Space
 70
     0
 10
0.0
 20
0.0
 30
0.0
  3
*Model_Space
  1

  0
ENDBLK
  5
20
330
1E
100
AcDbEntity
  8
0
100
AcDbBlockEnd
  0
BLOCK
  5
1B
330
1A
100
AcDbEntity
 67
     1
  8
0
100
AcDbBlockBegin
  2
*Paper_Space
 70
     0
 10
0.0
 20
0.0
 30
0.0
  3
*Paper_Space
  1

  0
ENDBLK
  5
1C
330
1A
100
AcDbEntity
 67
     1
  8
0
100
AcDbBlockEnd
  0
ENDSEC
  0
SECTION
  2
ENTITIES
  0
LINE
  5
AA
330
1E
100
AcDbEntity
  8
0
  6
Continuous
 62
     3
100
AcDbLine
 10
47.675
 20
133.9
 30
0.0
 11
47.675
 21
135.4
 31
0.0
  0
LINE
  5
AB
330
1E
100
AcDbEntity
  8
0
  6
Continuous
 62
     3
100
AcDbLine
 10
49.675
 20
254.4
 30
0.0
 11
49.675
 21
135.4
 31
0.0
  0
LINE
  5
AC
330
1E
100
AcDbEntity
  8
0
  6
Continuous
 62
     3
100
AcDbLine
 10
47.675
 20
135.4
 30
0.0
 11
49.675
 21
135.4
 31
0.0
  0
LINE
  5
AD
330
1E
100
AcDbEntity
  8
0
  6
Continuous
 62
     3
100
AcDbLine
 10
141.675
 20
254.4
 30
0.0
 11
141.675
 21
135.4
 31
0.0
  0
LINE
  5
AE
330
1E
100
AcDbEntity
  8
0
  6
Continuous
 62
     3
100
AcDbLine
 10
132.925
 20
255.4
 30
0.0
 11
132.925
 21
254.4
 31
0.0
  0
LINE
  5
AF
330
1E
100
AcDbEntity
  8
0
  6
Continuous
 62
     3
100
AcDbLine
 10
47.675
 20
133.9
 30
0.0
 11
47.675
 21
133.4
 31
0.0
  0
LINE
  5
B0
330
1E
100
AcDbEntity
  8
0
  6
Continuous
 62
     3
100
AcDbLine
 10
143.675
 20
133.4
 30
0.0
 11
143.675
 21
135.4
 31
0.0
  0
LINE
  5
B1
330
1E
100
AcDbEntity
  8
0
  6
Continuous
 62
     3
100
AcDbLine
 10
143.675
 20
133.9
 30
0.0
 11
95.675
 21
133.9
 31
0.0
  0
POINT
  5
B2
330
1E
100
AcDbEntity
  8
0
  6
Continuous
 62
     3
100
AcDbPoint
 10
57.675
 20
133.9
 30
0.0
  0
POINT
  5
B3
330
1E
100
AcDbEntity
  8
0
  6
Continuous
 62
     3
100
AcDbPoint
 10
133.675
 20
133.9
 30
0.0
  0
LINE
  5
B4
330
1E
100
AcDbEntity
  8
0
  6
Continuous
 62
     3
100
AcDbLine
 10
58.17499999999999
 20
254.4
 30
0.0
 11
58.17499999999999
 21
255.4
 31
0.0
  0
LINE
  5
B5
330
1E
100
AcDbEntity
  8
0
  6
Continuous
 62
     3
100
AcDbLine
 10
49.675
 20
254.4
 30
0.0
 11
58.17499999999999
 21
254.4
 31
0.0
  0
POINT
  5
B6
330
1E
100
AcDbEntity
  8
0
  6
Continuous
 62
     3
100
AcDbPoint
 10
143.675
 20
133.9
 30
0.0
  0
LINE
  5
B7
330
1E
100
AcDbEntity
  8
0
  6
Continuous
 62
     3
100
AcDbLine
 10
141.525
 20
254.4
 30
0.0
 11
132.925
 21
254.4
 31
0.0
  0
ARC
  5
B8
330
1E
100
AcDbEntity
  8
0
  6
Continuous
 62
     3
100
AcDbCircle
 10
65.425
 20
142.4
 30
0.0
 40
0.5
100
AcDbArc
 50
180.0000000009999
 51
270.0
  0
LINE
  5
B9
330
1E
100
AcDbEntity
  8
0
  6
Continuous
 62
     3
100
AcDbLine
 10
125.9249999999999
 20
141.9
 30
0.0
 11
65.425
 21
141.9
 31
0.0
  0
ARC
  5
BA
330
1E
100
AcDbEntity
  8
0
  6
Continuous
 62
     3
100
AcDbCircle
 10
125.9249999999999
 20
142.4
 30
0.0
 40
0.5
100
AcDbArc
 50
270.0
 51
0.0
  0
LINE
  5
BB
330
1E
100
AcDbEntity
  8
0
  6
Continuous
 62
     3
100
AcDbLine
 10
64.92499999999999
 20
142.3499999999999
 30
0.0
 11
64.92499999999999
 21
158.4
 31
0.0
  0
ARC
  5
BC
330
1E
100
AcDbEntity
  8
0
  6
Continuous
 62
     3
100
AcDbCircle
 10
65.425
 20
158.4
 30
0.0
 40
0.5
100
AcDbArc
 50
90.0
 51
180.0000000009999
  0
LINE
  5
BD
330
1E
100
AcDbEntity
  8
0
  6
Continuous
 62
     3
100
AcDbLine
 10
65.425
 20
158.9
 30
0.0
 11
125.9249999999999
 21
158.9
 31
0.0
  0
ARC
  5
BE
330
1E
100
AcDbEntity
  8
0
  6
Continuous
 62
     3
100
AcDbCircle
 10
125.9249999999999
 20
158.4
 30
0.0
 40
0.5
100
AcDbArc
 50
0.0
 51
90.0
  0
ARC
  5
BF
330
1E
100
AcDbEntity
  8
0
  6
Continuous
 62
     3
100
AcDbCircle
 10
130.675
 20
160.4
 30
0.0
 40
0.5
100
AcDbArc
 50
270.0
 51
0.0
  0
LINE
  5
C0
330
1E
100
AcDbEntity
  8
0
  6
Continuous
 62
     3
100
AcDbLine
 10
130.675
 20
159.9
 30
0.0
 11
126.425
 21
159.9
 31
0.0
  0
ARC
  5
C1
330
1E
100
AcDbEntity
  8
0
  6
Continuous
 62
     3
100
AcDbCircle
 10
130.675
 20
207.65
 30
0.0
 40
0.5
100
AcDbArc
 50
270.0
 51
0.0
  0
LINE
  5
C2
330
1E
100
AcDbEntity
  8
0
  6
Continuous
 62
     3
100
AcDbLine
 10
131.175
 20
160.4
 30
0.0
 11
131.175
 21
205.65
 31
0.0
  0
ARC
  5
C3
330
1E
100
AcDbEntity
  8
0
  6
Continuous
 62
     3
100
AcDbCircle
 10
130.675
 20
205.65
 30
0.0
 40
0.5
100
AcDbArc
 50
0.0
 51
90.0
  0
ARC
  5
C4
330
1E
100
AcDbEntity
  8
0
  6
Continuous
 62
     3
100
AcDbCircle
 10
130.675
 20
252.8999999999999
 30
0.0
 40
0.5
100
AcDbArc
 50
0.0
 51
90.0
  0
LINE
  5
C5
330
1E
100
AcDbEntity
  8
0
  6
Continuous
 62
     3
100
AcDbLine
 10
130.675
 20
253.4
 30
0.0
 11
60.67499999999999
 21
253.4
 31
0.0
  0
ARC
  5
C6
330
1E
100
AcDbEntity
  8
0
  6
Continuous
 62
     3
100
AcDbCircle
 10
60.67499999999999
 20
252.8999999999999
 30
0.0
 40
0.5
100
AcDbArc
 50
90.0
 51
180.0000000009999
  0
LINE
  5
C7
330
1E
100
AcDbEntity
  8
0
  6
Continuous
 62
     3
100
AcDbLine
 10
126.425
 20
158.4
 30
0.0
 11
126.425
 21
142.4
 31
0.0
  0
LINE
  5
C8
330
1E
100
AcDbEntity
  8
0
  6
Continuous
 62
     3
100
AcDbLine
 10
60.175
 20
252.8999999999999
 30
0.0
 11
60.175
 21
207.65
 31
0.0
  0
LINE
  5
C9
330
1E
100
AcDbEntity
  8
0
  6
Continuous
 62
     3
100
AcDbLine
 10
130.675
 20
207.1499999999999
 30
0.0
 11
60.67499999999999
 21
207.1499999999999
 31
0.0
  0
ARC
  5
CA
330
1E
100
AcDbEntity
  8
0
  6
Continuous
 62
     3
100
AcDbCircle
 10
60.67499999999999
 20
207.65
 30
0.0
 40
0.5
100
AcDbArc
 50
180.0000000009999
 51
270.0
  0
LINE
  5
CB
330
1E
100
AcDbEntity
  8
0
  6
Continuous
 62
     3
100
AcDbLine
 10
60.67499999999999
 20
206.15
 30
0.0
 11
130.675
 21
206.15
 31
0.0
  0
ARC
  5
CC
330
1E
100
AcDbEntity
  8
0
  6
Continuous
 62
     3
100
AcDbCircle
 10
60.67499999999999
 20
205.65
 30
0.0
 40
0.5
100
AcDbArc
 50
90.0
 51
180.0000000009999
  0
LINE
  5
CD
330
1E
100
AcDbEntity
  8
0
  6
Continuous
 62
     3
100
AcDbLine
 10
126.9749999999999
 20
159.9
 30
0.0
 11
60.67499999999999
 21
159.9
 31
0.0
  0
LINE
  5
CE
330
1E
100
AcDbEntity
  8
0
  6
Continuous
 62
     3
100
AcDbLine
 10
60.175
 20
205.65
 30
0.0
 11
60.175
 21
160.4
 31
0.0
  0
ARC
  5
CF
330
1E
100
AcDbEntity
  8
0
  6
Continuous
 62
     3
100
AcDbCircle
 10
60.67499999999999
 20
160.4
 30
0.0
 40
0.5
100
AcDbArc
 50
180.0000000009999
 51
270.0
  0
LINE
  5
D0
330
1E
100
AcDbEntity
  8
0
  6
Continuous
 62
     3
100
AcDbLine
 10
143.675
 20
135.4
 30
0.0
 11
49.675
 21
135.4
 31
0.0
  0
LINE
  5
D1
330
1E
100
AcDbEntity
  8
0
  6
Continuous
 62
     3
100
AcDbLine
 10
95.675
 20
133.9
 30
0.0
 11
47.675
 21
133.9
 31
0.0
  0
LINE
  5
D2
330
1E
100
AcDbEntity
  8
0
  6
Continuous
 62
     3
100
AcDbLine
 10
141.8
 20
135.525
 30
0.0
 11
143.4
 21
135.525
 31
0.0
  0
LINE
  5
D3
330
1E
100
AcDbEntity
  8
0
  6
Continuous
 62
     3
100
AcDbLine
 10
141.8
 20
255.525
 30
0.0
 11
141.8
 21
173.525
 31
0.0
  0
LINE
  5
D4
330
1E
100
AcDbEntity
  8
0
  6
Continuous
 62
     3
100
AcDbLine
 10
141.8
 20
158.925
 30
0.0
 11
143.4
 21
158.925
 31
0.0
  0
ARC
  5
D5
330
1E
100
AcDbEntity
  8
0
  6
Continuous
 62
     3
100
AcDbCircle
 10
141.8
 20
255.525
 30
0.0
 40
1.6
100
AcDbArc
 50
0.0
 51
90.0
  0
LINE
  5
D6
330
1E
100
AcDbEntity
  8
0
  6
Continuous
 62
     3
100
AcDbLine
 10
141.8
 20
173.525
 30
0.0
 11
141.8
 21
135.525
 31
0.0
  0
LINE
  5
D7
330
1E
100
AcDbEntity
  8
0
  6
Continuous
 62
     3
100
AcDbLine
 10
143.4
 20
135.525
 30
0.0
 11
143.4
 21
255.525
 31
0.0
  0
ARC
  5
D8
330
1E
100
AcDbEntity
  8
0
  6
Continuous
 62
     3
100
AcDbCircle
 10
49.55
 20
255.525
 30
0.0
 40
1.6
100
AcDbArc
 50
90.0
 51
180.0
  0
LINE
  5
D9
330
1E
100
AcDbEntity
  8
0
  6
Continuous
 62
     3
100
AcDbLine
 10
47.95
 20
135.525
 30
0.0
 11
47.95
 21
255.525
 31
0.0
  0
LINE
  5
DA
330
1E
100
AcDbEntity
  8
0
  6
Continuous
 62
     3
100
AcDbLine
 10
49.55
 20
255.525
 30
0.0
 11
49.55
 21
135.4
 31
0.0
  0
LINE
  5
DC
330
1E
100
AcDbEntity
  8
0
  6
Continuous
 62
     3
100
AcDbLine
 10
58.17499999999999
 20
255.4
 30
0.0
 11
132.925
 21
255.4
 31
0.0
  0
LINE
  5
DE
330
1E
100
AcDbEntity
  8
0
  6
Continuous
 62
     3
100
AcDbLine
 10
209.375
 20
133.4
 30
0.0
 11
209.8749999999999
 21
133.4
 31
0.0
  0
LINE
  5
DF
330
1E
100
AcDbEntity
  8
0
  6
Continuous
 62
     3
100
AcDbLine
 10
212.875
 20
133.9
 30
0.0
 11
212.875
 21
135.4
 31
0.0
  0
LINE
  5
E0
330
1E
100
AcDbEntity
  8
0
  6
Continuous
 62
     3
100
AcDbLine
 10
212.875
 20
135.4
 30
0.0
 11
211.375
 21
135.4
 31
0.0
  0
LINE
  5
E1
330
1E
100
AcDbEntity
  8
0
  6
Continuous
 62
     3
100
AcDbLine
 10
204.875
 20
135.4
 30
0.0
 11
204.875
 21
138.4
 31
0.0
  0
LINE
  5
E2
330
1E
100
AcDbEntity
  8
0
  6
Continuous
 62
     3
100
AcDbLine
 10
204.875
 20
138.4
 30
0.0
 11
200.875
 21
138.4
 31
0.0
  0
LINE
  5
E3
330
1E
100
AcDbEntity
  8
0
  6
Continuous
 62
     3
100
AcDbLine
 10
200.875
 20
138.4
 30
0.0
 11
200.875
 21
135.4
 31
0.0
  0
LINE
  5
E4
330
1E
100
AcDbEntity
  8
0
  6
Continuous
 62
     3
100
AcDbLine
 10
168.375
 20
133.4
 30
0.0
 11
167.8749999999999
 21
133.4
 31
0.0
  0
LINE
  5
E5
330
1E
100
AcDbEntity
  8
0
  6
Continuous
 62
     3
100
AcDbLine
 10
164.8749999999999
 20
133.9
 30
0.0
 11
164.8749999999999
 21
135.4
 31
0.0
  0
LINE
  5
E6
330
1E
100
AcDbEntity
  8
0
  6
Continuous
 62
     3
100
AcDbLine
 10
166.375
 20
135.4
 30
0.0
 11
166.375
 21
255.4
 31
0.0
  0
LINE
  5
E7
330
1E
100
AcDbEntity
  8
0
  6
Continuous
 62
     3
100
AcDbLine
 10
172.8749999999999
 20
135.4
 30
0.0
 11
172.8749999999999
 21
138.4
 31
0.0
  0
LINE
  5
E8
330
1E
100
AcDbEntity
  8
0
  6
Continuous
 62
     3
100
AcDbLine
 10
172.8749999999999
 20
138.4
 30
0.0
 11
176.875
 21
138.4
 31
0.0
  0
LINE
  5
E9
330
1E
100
AcDbEntity
  8
0
  6
Continuous
 62
     3
100
AcDbLine
 10
176.875
 20
138.4
 30
0.0
 11
176.875
 21
135.4
 31
0.0
  0
LINE
  5
EA
330
1E
100
AcDbEntity
  8
0
  6
Continuous
 62
     3
100
AcDbLine
 10
183.375
 20
255.4
 30
0.0
 11
183.375
 21
254.4
 31
0.0
  0
LINE
  5
EB
330
1E
100
AcDbEntity
  8
0
  6
Continuous
 62
     3
100
AcDbLine
 10
201.3749999999999
 20
152.9
 30
0.0
 11
201.3749999999999
 21
145.9
 31
0.0
  0
LINE
  5
EC
330
1E
100
AcDbEntity
  8
0
  6
Continuous
 62
     3
100
AcDbLine
 10
209.8749999999999
 20
133.9
 30
0.0
 11
212.875
 21
133.9
 31
0.0
  0
LINE
  5
ED
330
1E
100
AcDbEntity
  8
0
  6
Continuous
 62
     3
100
AcDbLine
 10
188.8749999999999
 20
133.4
 30
0.0
 11
209.8749999999999
 21
133.4
 31
0.0
  0
LINE
  5
EE
330
1E
100
AcDbEntity
  8
0
  6
Continuous
 62
     3
100
AcDbLine
 10
167.8749999999999
 20
133.9
 30
0.0
 11
164.8749999999999
 21
133.9
 31
0.0
  0
LINE
  5
EF
330
1E
100
AcDbEntity
  8
0
  6
Continuous
 62
     3
100
AcDbLine
 10
188.8749999999999
 20
133.4
 30
0.0
 11
167.8749999999999
 21
133.4
 31
0.0
  0
LINE
  5
F0
330
1E
100
AcDbEntity
  8
0
  6
Continuous
 62
     3
100
AcDbLine
 10
164.8749999999999
 20
135.4
 30
0.0
 11
172.8749999999999
 21
135.4
 31
0.0
  0
LINE
  5
F1
330
1E
100
AcDbEntity
  8
0
  6
Continuous
 62
     3
100
AcDbLine
 10
200.625
 20
135.4
 30
0.0
 11
172.8749999999999
 21
135.4
 31
0.0
  0
LINE
  5
F2
330
1E
100
AcDbEntity
  8
0
  6
Continuous
 62
     3
100
AcDbLine
 10
200.875
 20
135.4
 30
0.0
 11
211.8749999999999
 21
135.4
 31
0.0
  0
LINE
  5
F3
330
1E
100
AcDbEntity
  8
0
  6
Continuous
 62
     3
100
AcDbLine
 10
195.125
 20
185.4
 30
0.0
 11
200.125
 21
185.4
 31
0.0
  0
LINE
  5
F4
330
1E
100
AcDbEntity
  8
0
  6
Continuous
 62
     3
100
AcDbLine
 10
200.125
 20
157.4
 30
0.0
 11
195.125
 21
157.4
 31
0.0
  0
LINE
  5
F5
330
1E
100
AcDbEntity
  8
0
  6
Continuous
 62
     3
100
AcDbLine
 10
169.375
 20
166.9
 30
0.0
 11
171.1249999999999
 21
166.9
 31
0.0
  0
LINE
  5
F6
330
1E
100
AcDbEntity
  8
0
  6
Continuous
 62
     3
100
AcDbLine
 10
172.375
 20
166.9
 30
0.0
 11
174.1249999999999
 21
166.9
 31
0.0
  0
LINE
  5
F7
330
1E
100
AcDbEntity
  8
0
  6
Continuous
 62
     3
100
AcDbLine
 10
208.375
 20
166.9
 30
0.0
 11
206.625
 21
166.9
 31
0.0
  0
LINE
  5
F8
330
1E
100
AcDbEntity
  8
0
  6
Continuous
 62
     3
100
AcDbLine
 10
205.3749999999999
 20
166.9
 30
0.0
 11
203.6249999999999
 21
166.9
 31
0.0
  0
LINE
  5
F9
330
1E
100
AcDbEntity
  8
0
  6
Continuous
 62
     3
100
AcDbLine
 10
170.375
 20
252.4
 30
0.0
 11
168.375
 21
252.4
 31
0.0
  0
LINE
  5
FA
330
1E
100
AcDbEntity
  8
0
  6
Continuous
 62
     3
100
AcDbLine
 10
176.3749999999999
 20
244.9
 30
0.0
 11
178.125
 21
244.9
 31
0.0
  0
LINE
  5
FB
330
1E
100
AcDbEntity
  8
0
  6
Continuous
 62
     3
100
AcDbLine
 10
176.3749999999999
 20
227.4
 30
0.0
 11
176.3749999999999
 21
244.9
 31
0.0
  0
LINE
  5
FC
330
1E
100
AcDbEntity
  8
0
  6
Continuous
 62
     3
100
AcDbLine
 10
178.125
 20
244.9
 30
0.0
 11
178.125
 21
227.15
 31
0.0
  0
LINE
  5
FD
330
1E
100
AcDbEntity
  8
0
  6
Continuous
 62
     3
100
AcDbLine
 10
176.3749999999999
 20
209.65
 30
0.0
 11
176.3749999999999
 21
227.4
 31
0.0
  0
LINE
  5
FE
330
1E
100
AcDbEntity
  8
0
  6
Continuous
 62
     3
100
AcDbLine
 10
178.125
 20
227.4
 30
0.0
 11
178.125
 21
209.9
 31
0.0
  0
LINE
  5
FF
330
1E
100
AcDbEntity
  8
0
  6
Continuous
 62
     3
100
AcDbLine
 10
178.125
 20
229.8999999999999
 30
0.0
 11
176.3749999999999
 21
229.8999999999999
 31
0.0
  0
LINE
  5
100
330
1E
100
AcDbEntity
  8
0
  6
Continuous
 62
     3
100
AcDbLine
 10
176.3749999999999
 20
224.9
 30
0.0
 11
178.125
 21
224.9
 31
0.0
  0
LINE
  5
101
330
1E
100
AcDbEntity
  8
0
  6
Continuous
 62
     3
100
AcDbLine
 10
178.125
 20
209.9
 30
0.0
 11
176.3749999999999
 21
209.9
 31
0.0
  0
LINE
  5
102
330
1E
100
AcDbEntity
  8
0
  6
Continuous
 62
     3
100
AcDbLine
 10
178.125
 20
204.8999999999999
 30
0.0
 11
176.3749999999999
 21
204.8999999999999
 31
0.0
  0
LINE
  5
103
330
1E
100
AcDbEntity
  8
0
  6
Continuous
 62
     3
100
AcDbLine
 10
176.3749999999999
 20
189.9
 30
0.0
 11
178.125
 21
189.9
 31
0.0
  0
LINE
  5
104
330
1E
100
AcDbEntity
  8
0
  6
Continuous
 62
     3
100
AcDbLine
 10
176.3749999999999
 20
209.9
 30
0.0
 11
176.3749999999999
 21
189.9
 31
0.0
  0
LINE
  5
105
330
1E
100
AcDbEntity
  8
0
  6
Continuous
 62
     3
100
AcDbLine
 10
178.125
 20
189.9
 30
0.0
 11
178.125
 21
209.9
 31
0.0
  0
LINE
  5
106
330
1E
100
AcDbEntity
  8
0
  6
Continuous
 62
     3
100
AcDbLine
 10
179.375
 20
244.9
 30
0.0
 11
181.125
 21
244.9
 31
0.0
  0
LINE
  5
107
330
1E
100
AcDbEntity
  8
0
  6
Continuous
 62
     3
100
AcDbLine
 10
179.375
 20
227.4
 30
0.0
 11
179.375
 21
244.9
 31
0.0
  0
LINE
  5
108
330
1E
100
AcDbEntity
  8
0
  6
Continuous
 62
     3
100
AcDbLine
 10
181.125
 20
244.9
 30
0.0
 11
181.125
 21
227.15
 31
0.0
  0
LINE
  5
109
330
1E
100
AcDbEntity
  8
0
  6
Continuous
 62
     3
100
AcDbLine
 10
179.375
 20
209.65
 30
0.0
 11
179.375
 21
227.4
 31
0.0
  0
LINE
  5
10A
330
1E
100
AcDbEntity
  8
0
  6
Continuous
 62
     3
100
AcDbLine
 10
181.125
 20
227.4
 30
0.0
 11
181.125
 21
209.9
 31
0.0
  0
LINE
  5
10B
330
1E
100
AcDbEntity
  8
0
  6
Continuous
 62
     3
100
AcDbLine
 10
181.125
 20
229.8999999999999
 30
0.0
 11
179.375
 21
229.8999999999999
 31
0.0
  0
LINE
  5
10C
330
1E
100
AcDbEntity
  8
0
  6
Continuous
 62
     3
100
AcDbLine
 10
179.375
 20
224.9
 30
0.0
 11
181.125
 21
224.9
 31
0.0
  0
LINE
  5
10D
330
1E
100
AcDbEntity
  8
0
  6
Continuous
 62
     3
100
AcDbLine
 10
181.125
 20
209.9
 30
0.0
 11
179.375
 21
209.9
 31
0.0
  0
LINE
  5
10E
330
1E
100
AcDbEntity
  8
0
  6
Continuous
 62
     3
100
AcDbLine
 10
181.125
 20
204.8999999999999
 30
0.0
 11
179.375
 21
204.8999999999999
 31
0.0
  0
LINE
  5
10F
330
1E
100
AcDbEntity
  8
0
  6
Continuous
 62
     3
100
AcDbLine
 10
179.375
 20
189.9
 30
0.0
 11
181.125
 21
189.9
 31
0.0
  0
LINE
  5
110
330
1E
100
AcDbEntity
  8
0
  6
Continuous
 62
     3
100
AcDbLine
 10
179.375
 20
209.9
 30
0.0
 11
179.375
 21
189.9
 31
0.0
  0
LINE
  5
111
330
1E
100
AcDbEntity
  8
0
  6
Continuous
 62
     3
100
AcDbLine
 10
181.125
 20
189.9
 30
0.0
 11
181.125
 21
209.9
 31
0.0
  0
LINE
  5
112
330
1E
100
AcDbEntity
  8
0
  6
Continuous
 62
     3
100
AcDbLine
 10
182.375
 20
227.4
 30
0.0
 11
182.375
 21
244.9
 31
0.0
  0
LINE
  5
113
330
1E
100
AcDbEntity
  8
0
  6
Continuous
 62
     3
100
AcDbLine
 10
182.375
 20
209.65
 30
0.0
 11
182.375
 21
227.4
 31
0.0
  0
LINE
  5
114
330
1E
100
AcDbEntity
  8
0
  6
Continuous
 62
     3
100
AcDbLine
 10
182.375
 20
209.9
 30
0.0
 11
182.375
 21
189.9
 31
0.0
  0
LINE
  5
115
330
1E
100
AcDbEntity
  8
0
  6
Continuous
 62
     3
100
AcDbLine
 10
168.375
 20
229.8999999999999
 30
0.0
 11
170.375
 21
229.8999999999999
 31
0.0
  0
LINE
  5
116
330
1E
100
AcDbEntity
  8
0
  6
Continuous
 62
     3
100
AcDbLine
 10
170.375
 20
228.15
 30
0.0
 11
168.375
 21
228.15
 31
0.0
  0
LINE
  5
117
330
1E
100
AcDbEntity
  8
0
  6
Continuous
 62
     3
100
AcDbLine
 10
168.375
 20
252.4
 30
0.0
 11
168.375
 21
229.8999999999999
 31
0.0
  0
LINE
  5
118
330
1E
100
AcDbEntity
  8
0
  6
Continuous
 62
     3
100
AcDbLine
 10
170.375
 20
229.8999999999999
 30
0.0
 11
170.375
 21
252.4
 31
0.0
  0
LINE
  5
119
330
1E
100
AcDbEntity
  8
0
  6
Continuous
 62
     3
100
AcDbLine
 10
168.375
 20
228.15
 30
0.0
 11
168.375
 21
225.4
 31
0.0
  0
LINE
  5
11A
330
1E
100
AcDbEntity
  8
0
  6
Continuous
 62
     3
100
AcDbLine
 10
170.375
 20
225.4
 30
0.0
 11
170.375
 21
228.15
 31
0.0
  0
LINE
  5
11B
330
1E
100
AcDbEntity
  8
0
  6
Continuous
 62
     3
100
AcDbLine
 10
170.375
 20
206.65
 30
0.0
 11
168.375
 21
206.65
 31
0.0
  0
LINE
  5
11C
330
1E
100
AcDbEntity
  8
0
  6
Continuous
 62
     3
100
AcDbLine
 10
168.375
 20
204.8999999999999
 30
0.0
 11
170.375
 21
204.8999999999999
 31
0.0
  0
LINE
  5
11D
330
1E
100
AcDbEntity
  8
0
  6
Continuous
 62
     3
100
AcDbLine
 10
168.375
 20
206.65
 30
0.0
 11
168.375
 21
225.4
 31
0.0
  0
LINE
  5
11E
330
1E
100
AcDbEntity
  8
0
  6
Continuous
 62
     3
100
AcDbLine
 10
170.375
 20
225.4
 30
0.0
 11
170.375
 21
206.65
 31
0.0
  0
LINE
  5
11F
330
1E
100
AcDbEntity
  8
0
  6
Continuous
 62
     3
100
AcDbLine
 10
170.375
 20
200.6499999999999
 30
0.0
 11
170.375
 21
181.4
 31
0.0
  0
LINE
  5
120
330
1E
100
AcDbEntity
  8
0
  6
Continuous
 62
     3
100
AcDbLine
 10
170.375
 20
181.4
 30
0.0
 11
168.375
 21
181.4
 31
0.0
  0
LINE
  5
121
330
1E
100
AcDbEntity
  8
0
  6
Continuous
 62
     3
100
AcDbLine
 10
168.375
 20
181.4
 30
0.0
 11
168.375
 21
200.6499999999999
 31
0.0
  0
LINE
  5
122
330
1E
100
AcDbEntity
  8
0
  6
Continuous
 62
     3
100
AcDbLine
 10
168.375
 20
200.6499999999999
 30
0.0
 11
168.375
 21
204.8999999999999
 31
0.0
  0
LINE
  5
123
330
1E
100
AcDbEntity
  8
0
  6
Continuous
 62
     3
100
AcDbLine
 10
170.375
 20
204.8999999999999
 30
0.0
 11
170.375
 21
200.15
 31
0.0
  0
LINE
  5
124
330
1E
100
AcDbEntity
  8
0
  6
Continuous
 62
     3
100
AcDbLine
 10
207.3749999999999
 20
252.4
 30
0.0
 11
209.375
 21
252.4
 31
0.0
  0
LINE
  5
125
330
1E
100
AcDbEntity
  8
0
  6
Continuous
 62
     3
100
AcDbLine
 10
201.3749999999999
 20
244.9
 30
0.0
 11
199.625
 21
244.9
 31
0.0
  0
LINE
  5
126
330
1E
100
AcDbEntity
  8
0
  6
Continuous
 62
     3
100
AcDbLine
 10
201.3749999999999
 20
227.4
 30
0.0
 11
201.3749999999999
 21
244.9
 31
0.0
  0
LINE
  5
127
330
1E
100
AcDbEntity
  8
0
  6
Continuous
 62
     3
100
AcDbLine
 10
199.625
 20
244.9
 30
0.0
 11
199.625
 21
227.15
 31
0.0
  0
LINE
  5
128
330
1E
100
AcDbEntity
  8
0
  6
Continuous
 62
     3
100
AcDbLine
 10
201.3749999999999
 20
209.65
 30
0.0
 11
201.3749999999999
 21
227.4
 31
0.0
  0
LINE
  5
129
330
1E
100
AcDbEntity
  8
0
  6
Continuous
 62
     3
100
AcDbLine
 10
199.625
 20
227.4
 30
0.0
 11
199.625
 21
209.9
 31
0.0
  0
LINE
  5
12A
330
1E
100
AcDbEntity
  8
0
  6
Continuous
 62
     3
100
AcDbLine
 10
199.625
 20
229.8999999999999
 30
0.0
 11
201.3749999999999
 21
229.8999999999999
 31
0.0
  0
LINE
  5
12B
330
1E
100
AcDbEntity
  8
0
  6
Continuous
 62
     3
100
AcDbLine
 10
201.3749999999999
 20
224.9
 30
0.0
 11
199.625
 21
224.9
 31
0.0
  0
LINE
  5
12C
330
1E
100
AcDbEntity
  8
0
  6
Continuous
 62
     3
100
AcDbLine
 10
199.625
 20
209.9
 30
0.0
 11
201.3749999999999
 21
209.9
 31
0.0
  0
LINE
  5
12D
330
1E
100
AcDbEntity
  8
0
  6
Continuous
 62
     3
100
AcDbLine
 10
199.625
 20
204.8999999999999
 30
0.0
 11
201.3749999999999
 21
204.8999999999999
 31
0.0
  0
LINE
  5
12E
330
1E
100
AcDbEntity
  8
0
  6
Continuous
 62
     3
100
AcDbLine
 10
201.3749999999999
 20
189.9
 30
0.0
 11
199.625
 21
189.9
 31
0.0
  0
LINE
  5
12F
330
1E
100
AcDbEntity
  8
0
  6
Continuous
 62
     3
100
AcDbLine
 10
201.3749999999999
 20
209.9
 30
0.0
 11
201.3749999999999
 21
189.9
 31
0.0
  0
LINE
  5
130
330
1E
100
AcDbEntity
  8
0
  6
Continuous
 62
     3
100
AcDbLine
 10
199.625
 20
189.9
 30
0.0
 11
199.625
 21
209.9
 31
0.0
  0
LINE
  5
131
330
1E
100
AcDbEntity
  8
0
  6
Continuous
 62
     3
100
AcDbLine
 10
198.375
 20
244.9
 30
0.0
 11
196.625
 21
244.9
 31
0.0
  0
LINE
  5
132
330
1E
100
AcDbEntity
  8
0
  6
Continuous
 62
     3
100
AcDbLine
 10
198.375
 20
227.4
 30
0.0
 11
198.375
 21
244.9
 31
0.0
  0
LINE
  5
133
330
1E
100
AcDbEntity
  8
0
  6
Continuous
 62
     3
100
AcDbLine
 10
196.625
 20
244.9
 30
0.0
 11
196.625
 21
227.15
 31
0.0
  0
LINE
  5
134
330
1E
100
AcDbEntity
  8
0
  6
Continuous
 62
     3
100
AcDbLine
 10
198.375
 20
209.65
 30
0.0
 11
198.375
 21
227.4
 31
0.0
  0
LINE
  5
135
330
1E
100
AcDbEntity
  8
0
  6
Continuous
 62
     3
100
AcDbLine
 10
196.625
 20
227.4
 30
0.0
 11
196.625
 21
209.9
 31
0.0
  0
LINE
  5
136
330
1E
100
AcDbEntity
  8
0
  6
Continuous
 62
     3
100
AcDbLine
 10
196.625
 20
229.8999999999999
 30
0.0
 11
198.375
 21
229.8999999999999
 31
0.0
  0
LINE
  5
137
330
1E
100
AcDbEntity
  8
0
  6
Continuous
 62
     3
100
AcDbLine
 10
198.375
 20
224.9
 30
0.0
 11
196.625
 21
224.9
 31
0.0
  0
LINE
  5
138
330
1E
100
AcDbEntity
  8
0
  6
Continuous
 62
     3
100
AcDbLine
 10
196.625
 20
209.9
 30
0.0
 11
198.375
 21
209.9
 31
0.0
  0
LINE
  5
139
330
1E
100
AcDbEntity
  8
0
  6
Continuous
 62
     3
100
AcDbLine
 10
196.625
 20
204.8999999999999
 30
0.0
 11
198.375
 21
204.8999999999999
 31
0.0
  0
LINE
  5
13A
330
1E
100
AcDbEntity
  8
0
  6
Continuous
 62
     3
100
AcDbLine
 10
198.375
 20
189.9
 30
0.0
 11
196.625
 21
189.9
 31
0.0
  0
LINE
  5
13B
330
1E
100
AcDbEntity
  8
0
  6
Continuous
 62
     3
100
AcDbLine
 10
198.375
 20
209.9
 30
0.0
 11
198.375
 21
189.9
 31
0.0
  0
LINE
  5
13C
330
1E
100
AcDbEntity
  8
0
  6
Continuous
 62
     3
100
AcDbLine
 10
196.625
 20
189.9
 30
0.0
 11
196.625
 21
209.9
 31
0.0
  0
LINE
  5
13D
330
1E
100
AcDbEntity
  8
0
  6
Continuous
 62
     3
100
AcDbLine
 10
195.375
 20
227.4
 30
0.0
 11
195.375
 21
244.9
 31
0.0
  0
LINE
  5
13E
330
1E
100
AcDbEntity
  8
0
  6
Continuous
 62
     3
100
AcDbLine
 10
195.375
 20
209.65
 30
0.0
 11
195.375
 21
227.4
 31
0.0
  0
LINE
  5
13F
330
1E
100
AcDbEntity
  8
0
  6
Continuous
 62
     3
100
AcDbLine
 10
195.375
 20
209.9
 30
0.0
 11
195.375
 21
189.9
 31
0.0
  0
LINE
  5
140
330
1E
100
AcDbEntity
  8
0
  6
Continuous
 62
     3
100
AcDbLine
 10
209.375
 20
229.8999999999999
 30
0.0
 11
207.3749999999999
 21
229.8999999999999
 31
0.0
  0
LINE
  5
141
330
1E
100
AcDbEntity
  8
0
  6
Continuous
 62
     3
100
AcDbLine
 10
207.3749999999999
 20
228.15
 30
0.0
 11
209.375
 21
228.15
 31
0.0
  0
LINE
  5
142
330
1E
100
AcDbEntity
  8
0
  6
Continuous
 62
     3
100
AcDbLine
 10
209.375
 20
252.4
 30
0.0
 11
209.375
 21
229.8999999999999
 31
0.0
  0
LINE
  5
143
330
1E
100
AcDbEntity
  8
0
  6
Continuous
 62
     3
100
AcDbLine
 10
207.3749999999999
 20
229.8999999999999
 30
0.0
 11
207.3749999999999
 21
252.4
 31
0.0
  0
LINE
  5
144
330
1E
100
AcDbEntity
  8
0
  6
Continuous
 62
     3
100
AcDbLine
 10
209.375
 20
228.15
 30
0.0
 11
209.375
 21
225.4
 31
0.0
  0
LINE
  5
145
330
1E
100
AcDbEntity
  8
0
  6
Continuous
 62
     3
100
AcDbLine
 10
207.3749999999999
 20
225.4
 30
0.0
 11
207.3749999999999
 21
228.15
 31
0.0
  0
LINE
  5
146
330
1E
100
AcDbEntity
  8
0
  6
Continuous
 62
     3
100
AcDbLine
 10
207.3749999999999
 20
206.65
 30
0.0
 11
209.375
 21
206.65
 31
0.0
  0
LINE
  5
147
330
1E
100
AcDbEntity
  8
0
  6
Continuous
 62
     3
100
AcDbLine
 10
209.375
 20
204.8999999999999
 30
0.0
 11
207.3749999999999
 21
204.8999999999999
 31
0.0
  0
LINE
  5
148
330
1E
100
AcDbEntity
  8
0
  6
Continuous
 62
     3
100
AcDbLine
 10
209.375
 20
206.65
 30
0.0
 11
209.375
 21
225.4
 31
0.0
  0
LINE
  5
149
330
1E
100
AcDbEntity
  8
0
  6
Continuous
 62
     3
100
AcDbLine
 10
207.3749999999999
 20
225.4
 30
0.0
 11
207.3749999999999
 21
206.65
 31
0.0
  0
LINE
  5
14A
330
1E
100
AcDbEntity
  8
0
  6
Continuous
 62
     3
100
AcDbLine
 10
207.3749999999999
 20
200.6499999999999
 30
0.0
 11
207.3749999999999
 21
181.4
 31
0.0
  0
LINE
  5
14B
330
1E
100
AcDbEntity
  8
0
  6
Continuous
 62
     3
100
AcDbLine
 10
207.3749999999999
 20
181.4
 30
0.0
 11
209.375
 21
181.4
 31
0.0
  0
LINE
  5
14C
330
1E
100
AcDbEntity
  8
0
  6
Continuous
 62
     3
100
AcDbLine
 10
209.375
 20
181.4
 30
0.0
 11
209.375
 21
200.6499999999999
 31
0.0
  0
LINE
  5
14D
330
1E
100
AcDbEntity
  8
0
  6
Continuous
 62
     3
100
AcDbLine
 10
209.375
 20
200.6499999999999
 30
0.0
 11
209.375
 21
204.8999999999999
 31
0.0
  0
LINE
  5
14E
330
1E
100
AcDbEntity
  8
0
  6
Continuous
 62
     3
100
AcDbLine
 10
207.3749999999999
 20
204.8999999999999
 30
0.0
 11
207.3749999999999
 21
200.15
 31
0.0
  0
LINE
  5
14F
330
1E
100
AcDbEntity
  8
0
  6
Continuous
 62
     3
100
AcDbLine
 10
176.3749999999999
 20
166.9
 30
0.0
 11
178.125
 21
166.9
 31
0.0
  0
LINE
  5
150
330
1E
100
AcDbEntity
  8
0
  6
Continuous
 62
     3
100
AcDbLine
 10
179.375
 20
166.9
 30
0.0
 11
181.125
 21
166.9
 31
0.0
  0
LINE
  5
151
330
1E
100
AcDbEntity
  8
0
  6
Continuous
 62
     3
100
AcDbLine
 10
171.1249999999999
 20
141.9
 30
0.0
 11
169.375
 21
141.9
 31
0.0
  0
LINE
  5
152
330
1E
100
AcDbEntity
  8
0
  6
Continuous
 62
     3
100
AcDbLine
 10
174.1249999999999
 20
141.9
 30
0.0
 11
172.375
 21
141.9
 31
0.0
  0
LINE
  5
153
330
1E
100
AcDbEntity
  8
0
  6
Continuous
 62
     3
100
AcDbLine
 10
178.125
 20
141.9
 30
0.0
 11
176.3749999999999
 21
141.9
 31
0.0
  0
LINE
  5
154
330
1E
100
AcDbEntity
  8
0
  6
Continuous
 62
     3
100
AcDbLine
 10
181.125
 20
141.9
 30
0.0
 11
179.375
 21
141.9
 31
0.0
  0
LINE
  5
155
330
1E
100
AcDbEntity
  8
0
  6
Continuous
 62
     3
100
AcDbLine
 10
174.1249999999999
 20
156.9
 30
0.0
 11
172.375
 21
156.9
 31
0.0
  0
LINE
  5
156
330
1E
100
AcDbEntity
  8
0
  6
Continuous
 62
     3
100
AcDbLine
 10
169.375
 20
156.9
 30
0.0
 11
171.1249999999999
 21
156.9
 31
0.0
  0
LINE
  5
157
330
1E
100
AcDbEntity
  8
0
  6
Continuous
 62
     3
100
AcDbLine
 10
181.125
 20
156.9
 30
0.0
 11
179.375
 21
156.9
 31
0.0
  0
LINE
  5
158
330
1E
100
AcDbEntity
  8
0
  6
Continuous
 62
     3
100
AcDbLine
 10
176.3749999999999
 20
156.9
 30
0.0
 11
178.125
 21
156.9
 31
0.0
  0
LINE
  5
159
330
1E
100
AcDbEntity
  8
0
  6
Continuous
 62
     3
100
AcDbLine
 10
172.375
 20
151.9
 30
0.0
 11
174.1249999999999
 21
151.9
 31
0.0
  0
LINE
  5
15A
330
1E
100
AcDbEntity
  8
0
  6
Continuous
 62
     3
100
AcDbLine
 10
171.1249999999999
 20
151.9
 30
0.0
 11
169.375
 21
151.9
 31
0.0
  0
LINE
  5
15B
330
1E
100
AcDbEntity
  8
0
  6
Continuous
 62
     3
100
AcDbLine
 10
179.375
 20
151.9
 30
0.0
 11
181.125
 21
151.9
 31
0.0
  0
LINE
  5
15C
330
1E
100
AcDbEntity
  8
0
  6
Continuous
 62
     3
100
AcDbLine
 10
178.125
 20
151.9
 30
0.0
 11
176.3749999999999
 21
151.9
 31
0.0
  0
LINE
  5
15D
330
1E
100
AcDbEntity
  8
0
  6
Continuous
 62
     3
100
AcDbLine
 10
203.6249999999999
 20
156.9
 30
0.0
 11
205.3749999999999
 21
156.9
 31
0.0
  0
LINE
  5
15E
330
1E
100
AcDbEntity
  8
0
  6
Continuous
 62
     3
100
AcDbLine
 10
208.375
 20
156.9
 30
0.0
 11
206.625
 21
156.9
 31
0.0
  0
LINE
  5
15F
330
1E
100
AcDbEntity
  8
0
  6
Continuous
 62
     3
100
AcDbLine
 10
205.3749999999999
 20
151.9
 30
0.0
 11
203.6249999999999
 21
151.9
 31
0.0
  0
LINE
  5
160
330
1E
100
AcDbEntity
  8
0
  6
Continuous
 62
     3
100
AcDbLine
 10
206.625
 20
151.9
 30
0.0
 11
208.375
 21
151.9
 31
0.0
  0
LINE
  5
161
330
1E
100
AcDbEntity
  8
0
  6
Continuous
 62
     3
100
AcDbLine
 10
206.625
 20
141.9
 30
0.0
 11
208.375
 21
141.9
 31
0.0
  0
LINE
  5
162
330
1E
100
AcDbEntity
  8
0
  6
Continuous
 62
     3
100
AcDbLine
 10
203.6249999999999
 20
141.9
 30
0.0
 11
205.3749999999999
 21
141.9
 31
0.0
  0
LINE
  5
163
330
1E
100
AcDbEntity
  8
0
  6
Continuous
 62
     3
100
AcDbLine
 10
182.375
 20
141.9
 30
0.0
 11
182.375
 21
166.9
 31
0.0
  0
LINE
  5
164
330
1E
100
AcDbEntity
  8
0
  6
Continuous
 62
     3
100
AcDbLine
 10
181.125
 20
166.9
 30
0.0
 11
181.125
 21
141.9
 31
0.0
  0
LINE
  5
165
330
1E
100
AcDbEntity
  8
0
  6
Continuous
 62
     3
100
AcDbLine
 10
179.375
 20
141.9
 30
0.0
 11
179.375
 21
166.9
 31
0.0
  0
LINE
  5
166
330
1E
100
AcDbEntity
  8
0
  6
Continuous
 62
     3
100
AcDbLine
 10
178.125
 20
166.9
 30
0.0
 11
178.125
 21
141.9
 31
0.0
  0
LINE
  5
167
330
1E
100
AcDbEntity
  8
0
  6
Continuous
 62
     3
100
AcDbLine
 10
176.3749999999999
 20
141.9
 30
0.0
 11
176.3749999999999
 21
166.9
 31
0.0
  0
LINE
  5
168
330
1E
100
AcDbEntity
  8
0
  6
Continuous
 62
     3
100
AcDbLine
 10
174.1249999999999
 20
166.9
 30
0.0
 11
174.1249999999999
 21
141.9
 31
0.0
  0
LINE
  5
169
330
1E
100
AcDbEntity
  8
0
  6
Continuous
 62
     3
100
AcDbLine
 10
172.375
 20
141.9
 30
0.0
 11
172.375
 21
166.9
 31
0.0
  0
LINE
  5
16A
330
1E
100
AcDbEntity
  8
0
  6
Continuous
 62
     3
100
AcDbLine
 10
171.1249999999999
 20
166.9
 30
0.0
 11
171.1249999999999
 21
141.9
 31
0.0
  0
LINE
  5
16B
330
1E
100
AcDbEntity
  8
0
  6
Continuous
 62
     3
100
AcDbLine
 10
169.375
 20
141.9
 30
0.0
 11
169.375
 21
166.9
 31
0.0
  0
LINE
  5
16C
330
1E
100
AcDbEntity
  8
0
  6
Continuous
 62
     3
100
AcDbLine
 10
164.8749999999999
 20
133.9
 30
0.0
 11
165.125
 21
128.4
 31
0.0
  0
LINE
  5
16D
330
1E
100
AcDbEntity
  8
0
  6
Continuous
 62
     3
100
AcDbLine
 10
165.125
 20
128.4
 30
0.0
 11
212.625
 21
128.4
 31
0.0
  0
LINE
  5
16E
330
1E
100
AcDbEntity
  8
0
  6
Continuous
 62
     3
100
AcDbLine
 10
212.625
 20
128.4
 30
0.0
 11
212.875
 21
133.9
 31
0.0
  0
LINE
  5
16F
330
1E
100
AcDbEntity
  8
0
  6
Continuous
 62
     3
100
AcDbLine
 10
209.8749999999999
 20
133.9
 30
0.0
 11
209.8749999999999
 21
133.4
 31
0.0
  0
LINE
  5
170
330
1E
100
AcDbEntity
  8
0
  6
Continuous
 62
     3
100
AcDbLine
 10
167.8749999999999
 20
133.4
 30
0.0
 11
167.8749999999999
 21
133.9
 31
0.0
  0
LINE
  5
171
330
1E
100
AcDbEntity
  8
0
  6
Continuous
 62
     3
100
AcDbLine
 10
195.125
 20
135.4
 30
0.0
 11
184.125
 21
135.4
 31
0.0
  0
LINE
  5
172
330
1E
100
AcDbEntity
  8
0
  6
Continuous
 62
     3
100
AcDbLine
 10
182.375
 20
244.9
 30
0.0
 11
183.375
 21
244.9
 31
0.0
  0
LINE
  5
173
330
1E
100
AcDbEntity
  8
0
  6
Continuous
 62
     3
100
AcDbLine
 10
183.375
 20
229.8999999999999
 30
0.0
 11
182.375
 21
229.8999999999999
 31
0.0
  0
LINE
  5
174
330
1E
100
AcDbEntity
  8
0
  6
Continuous
 62
     3
100
AcDbLine
 10
195.375
 20
244.9
 30
0.0
 11
194.375
 21
244.9
 31
0.0
  0
LINE
  5
175
330
1E
100
AcDbEntity
  8
0
  6
Continuous
 62
     3
100
AcDbLine
 10
194.375
 20
229.8999999999999
 30
0.0
 11
195.375
 21
229.8999999999999
 31
0.0
  0
LINE
  5
176
330
1E
100
AcDbEntity
  8
0
  6
Continuous
 62
     3
100
AcDbLine
 10
195.375
 20
224.9
 30
0.0
 11
194.375
 21
224.9
 31
0.0
  0
LINE
  5
177
330
1E
100
AcDbEntity
  8
0
  6
Continuous
 62
     3
100
AcDbLine
 10
182.375
 20
224.9
 30
0.0
 11
183.375
 21
224.9
 31
0.0
  0
LINE
  5
178
330
1E
100
AcDbEntity
  8
0
  6
Continuous
 62
     3
100
AcDbLine
 10
194.375
 20
209.9
 30
0.0
 11
195.375
 21
209.9
 31
0.0
  0
LINE
  5
179
330
1E
100
AcDbEntity
  8
0
  6
Continuous
 62
     3
100
AcDbLine
 10
194.375
 20
204.8999999999999
 30
0.0
 11
195.375
 21
204.8999999999999
 31
0.0
  0
LINE
  5
17A
330
1E
100
AcDbEntity
  8
0
  6
Continuous
 62
     3
100
AcDbLine
 10
183.375
 20
209.9
 30
0.0
 11
182.375
 21
209.9
 31
0.0
  0
LINE
  5
17B
330
1E
100
AcDbEntity
  8
0
  6
Continuous
 62
     3
100
AcDbLine
 10
183.375
 20
204.8999999999999
 30
0.0
 11
182.375
 21
204.8999999999999
 31
0.0
  0
LINE
  5
17C
330
1E
100
AcDbEntity
  8
0
  6
Continuous
 62
     3
100
AcDbLine
 10
182.375
 20
189.9
 30
0.0
 11
183.375
 21
189.9
 31
0.0
  0
LINE
  5
17D
330
1E
100
AcDbEntity
  8
0
  6
Continuous
 62
     3
100
AcDbLine
 10
195.375
 20
189.9
 30
0.0
 11
194.375
 21
189.9
 31
0.0
  0
LINE
  5
17E
330
1E
100
AcDbEntity
  8
0
  6
Continuous
 62
     3
100
AcDbLine
 10
182.375
 20
166.9
 30
0.0
 11
183.375
 21
166.9
 31
0.0
  0
LINE
  5
17F
330
1E
100
AcDbEntity
  8
0
  6
Continuous
 62
     3
100
AcDbLine
 10
183.375
 20
156.9
 30
0.0
 11
182.375
 21
156.9
 31
0.0
  0
LINE
  5
180
330
1E
100
AcDbEntity
  8
0
  6
Continuous
 62
     3
100
AcDbLine
 10
182.375
 20
151.9
 30
0.0
 11
183.375
 21
151.9
 31
0.0
  0
LINE
  5
181
330
1E
100
AcDbEntity
  8
0
  6
Continuous
 62
     3
100
AcDbLine
 10
183.375
 20
141.9
 30
0.0
 11
182.375
 21
141.9
 31
0.0
  0
LINE
  5
182
330
1E
100
AcDbEntity
  8
0
  6
Continuous
 62
     3
100
AcDbLine
 10
188.8749999999999
 20
173.3999999999999
 30
0.0
 11
186.875
 21
173.3999999999999
 31
0.0
  0
LINE
  5
183
330
1E
100
AcDbEntity
  8
0
  6
Continuous
 62
     3
100
AcDbLine
 10
190.8749999999999
 20
173.3999999999999
 30
0.0
 11
188.8749999999999
 21
173.3999999999999
 31
0.0
  0
LINE
  5
184
330
1E
100
AcDbEntity
  8
0
  6
Continuous
 62
     3
100
AcDbLine
 10
188.8749999999999
 20
171.9
 30
0.0
 11
190.8749999999999
 21
171.9
 31
0.0
  0
LINE
  5
185
330
1E
100
AcDbEntity
  8
0
  6
Continuous
 62
     3
100
AcDbLine
 10
188.8749999999999
 20
171.9
 30
0.0
 11
186.875
 21
171.9
 31
0.0
  0
LINE
  5
186
330
1E
100
AcDbEntity
  8
0
  6
Continuous
 62
     3
100
AcDbLine
 10
183.375
 20
184.4
 30
0.0
 11
183.375
 21
255.4
 31
0.0
  0
LINE
  5
187
330
1E
100
AcDbEntity
  8
0
  6
Continuous
 62
     3
100
AcDbLine
 10
194.375
 20
152.9
 30
0.0
 11
201.3749999999999
 21
152.9
 31
0.0
  0
LINE
  5
188
330
1E
100
AcDbEntity
  8
0
  6
Continuous
 62
     3
100
AcDbLine
 10
201.3749999999999
 20
145.9
 30
0.0
 11
194.375
 21
145.9
 31
0.0
  0
LINE
  5
18A
330
1E
100
AcDbEntity
  8
0
  6
Continuous
 62
     3
100
AcDbLine
 10
183.375
 20
135.7499999999999
 30
0.0
 11
194.375
 21
135.7499999999999
 31
0.0
  0
LINE
  5
18B
330
1E
100
AcDbEntity
  8
0
  6
Continuous
 62
     3
100
AcDbLine
 10
166.375
 20
254.4
 30
0.0
 11
183.375
 21
254.4
 31
0.0
  0
LINE
  5
18C
330
1E
100
AcDbEntity
  8
0
  6
Continuous
 62
     3
100
AcDbLine
 10
211.2499999999999
 20
254.4
 30
0.0
 11
194.375
 21
254.4
 31
0.0
  0
LINE
  5
18D
330
1E
100
AcDbEntity
  8
0
  6
Continuous
 62
     3
100
AcDbLine
 10
49.92499999999999
 20
254.4
 30
0.0
 11
49.92499999999999
 21
256.3999999999999
 31
0.0
  0
LINE
  5
18E
330
1E
100
AcDbEntity
  8
0
  6
Continuous
 62
     3
100
AcDbLine
 10
53.67499999999999
 20
254.4
 30
0.0
 11
49.92499999999999
 21
254.4
 31
0.0
  0
LINE
  5
18F
330
1E
100
AcDbEntity
  8
0
  6
Continuous
 62
     3
100
AcDbLine
 10
141.425
 20
256.3999999999999
 30
0.0
 11
95.675
 21
256.3999999999999
 31
0.0
  0
LINE
  5
190
330
1E
100
AcDbEntity
  8
0
  6
Continuous
 62
     3
100
AcDbLine
 10
49.92499999999999
 20
256.3999999999999
 30
0.0
 11
95.675
 21
256.3999999999999
 31
0.0
  0
LINE
  5
191
330
1E
100
AcDbEntity
  8
0
  6
Continuous
 62
     3
100
AcDbLine
 10
141.425
 20
254.4
 30
0.0
 11
141.425
 21
256.3999999999999
 31
0.0
  0
LINE
  5
192
330
1E
100
AcDbEntity
  8
0
  6
Continuous
 62
     3
100
AcDbLine
 10
137.675
 20
254.4
 30
0.0
 11
141.425
 21
254.4
 31
0.0
  0
LINE
  5
193
330
1E
100
AcDbEntity
  8
0
  6
Continuous
 62
     3
100
AcDbLine
 10
53.67499999999999
 20
254.4
 30
0.0
 11
95.675
 21
254.4
 31
0.0
  0
LINE
  5
194
330
1E
100
AcDbEntity
  8
0
  6
Continuous
 62
     3
100
AcDbLine
 10
138.4749999999999
 20
254.4
 30
0.0
 11
95.675
 21
254.4
 31
0.0
  0
LINE
  5
195
330
1E
100
AcDbEntity
  8
0
  6
Continuous
 62
     3
100
AcDbLine
 10
57.675
 20
255.4
 30
0.0
 11
57.675
 21
254.4
 31
0.0
  0
LINE
  5
196
330
1E
100
AcDbEntity
  8
0
  6
Continuous
 62
     3
100
AcDbLine
 10
133.675
 20
255.4
 30
0.0
 11
133.675
 21
254.4
 31
0.0
  0
LINE
  5
197
330
1E
100
AcDbEntity
  8
0
  6
Continuous
 62
     3
100
AcDbLine
 10
133.675
 20
255.4
 30
0.0
 11
57.675
 21
255.4
 31
0.0
  0
LINE
  5
198
330
1E
100
AcDbEntity
  8
0
  6
Continuous
 62
     3
100
AcDbLine
 10
182.675
 20
261.3999999999999
 30
0.0
 11
182.675
 21
274.8999999999999
 31
0.0
  0
LINE
  5
199
330
1E
100
AcDbEntity
  8
0
  6
Continuous
 62
     3
100
AcDbLine
 10
183.675
 20
261.3999999999999
 30
0.0
 11
182.675
 21
261.3999999999999
 31
0.0
  0
LINE
  5
19A
330
1E
100
AcDbEntity
  8
0
  6
Continuous
 62
     3
100
AcDbLine
 10
182.675
 20
274.8999999999999
 30
0.0
 11
173.675
 21
274.8999999999999
 31
0.0
  0
LINE
  5
19B
330
1E
100
AcDbEntity
  8
0
  6
Continuous
 62
     3
100
AcDbLine
 10
173.675
 20
274.8999999999999
 30
0.0
 11
173.675
 21
272.8999999999999
 31
0.0
  0
LINE
  5
19C
330
1E
100
AcDbEntity
  8
0
  6
Continuous
 62
     3
100
AcDbLine
 10
173.675
 20
272.8999999999999
 30
0.0
 11
172.175
 21
268.8999999999999
 31
0.0
  0
LINE
  5
19D
330
1E
100
AcDbEntity
  8
0
  6
Continuous
 62
     3
100
AcDbLine
 10
172.175
 20
261.3999999999999
 30
0.0
 11
172.175
 21
268.8999999999999
 31
0.0
  0
LINE
  5
19E
330
1E
100
AcDbEntity
  8
0
  6
Continuous
 62
     3
100
AcDbLine
 10
171.175
 20
261.3999999999999
 30
0.0
 11
172.175
 21
261.3999999999999
 31
0.0
  0
LINE
  5
19F
330
1E
100
AcDbEntity
  8
0
  6
Continuous
 62
     3
100
AcDbLine
 10
195.075
 20
261.3999999999999
 30
0.0
 11
195.075
 21
274.8999999999999
 31
0.0
  0
LINE
  5
1A0
330
1E
100
AcDbEntity
  8
0
  6
Continuous
 62
     3
100
AcDbLine
 10
194.0749999999999
 20
261.3999999999999
 30
0.0
 11
195.075
 21
261.3999999999999
 31
0.0
  0
LINE
  5
1A1
330
1E
100
AcDbEntity
  8
0
  6
Continuous
 62
     3
100
AcDbLine
 10
195.075
 20
274.8999999999999
 30
0.0
 11
204.075
 21
274.8999999999999
 31
0.0
  0
LINE
  5
1A2
330
1E
100
AcDbEntity
  8
0
  6
Continuous
 62
     3
100
AcDbLine
 10
204.075
 20
274.8999999999999
 30
0.0
 11
204.075
 21
272.8999999999999
 31
0.0
  0
LINE
  5
1A3
330
1E
100
AcDbEntity
  8
0
  6
Continuous
 62
     3
100
AcDbLine
 10
204.075
 20
272.8999999999999
 30
0.0
 11
205.5749999999999
 21
268.8999999999999
 31
0.0
  0
LINE
  5
1A4
330
1E
100
AcDbEntity
  8
0
  6
Continuous
 62
     3
100
AcDbLine
 10
205.5749999999999
 20
261.3999999999999
 30
0.0
 11
205.5749999999999
 21
268.8999999999999
 31
0.0
  0
LINE
  5
1A5
330
1E
100
AcDbEntity
  8
0
  6
Continuous
 62
     3
100
AcDbLine
 10
206.5749999999999
 20
261.3999999999999
 30
0.0
 11
205.5749999999999
 21
261.3999999999999
 31
0.0
  0
LINE
  5
1A6
330
1E
100
AcDbEntity
  8
0
  6
Continuous
 62
     3
100
AcDbLine
 10
183.375
 20
257.0
 30
0.0
 11
184.355
 21
257.0
 31
0.0
  0
LINE
  5
1A7
330
1E
100
AcDbEntity
  8
0
  6
Continuous
 62
     3
100
AcDbLine
 10
184.355
 20
257.0
 30
0.0
 11
188.8749999999999
 21
257.0
 31
0.0
  0
LINE
  5
1A8
330
1E
100
AcDbEntity
  8
0
  6
Continuous
 62
     3
100
AcDbLine
 10
183.375
 20
255.4
 30
0.0
 11
183.375
 21
256.845
 31
0.0
  0
LINE
  5
1A9
330
1E
100
AcDbEntity
  8
0
  6
Continuous
 62
     3
100
AcDbLine
 10
183.375
 20
256.845
 30
0.0
 11
183.375
 21
257.0
 31
0.0
  0
LINE
  5
1AA
330
1E
100
AcDbEntity
  8
0
  6
Continuous
 62
     3
100
AcDbLine
 10
171.175
 20
258.6549999999999
 30
0.0
 11
171.175
 21
261.3999999999999
 31
0.0
  0
LINE
  5
1AB
330
1E
100
AcDbEntity
  8
0
  6
Continuous
 62
     3
100
AcDbLine
 10
183.675
 20
257.3999999999999
 30
0.0
 11
183.675
 21
258.19
 31
0.0
  0
LINE
  5
1AC
330
1E
100
AcDbEntity
  8
0
  6
Continuous
 62
     3
100
AcDbLine
 10
183.675
 20
258.19
 30
0.0
 11
183.675
 21
258.6549999999999
 31
0.0
  0
LINE
  5
1AD
330
1E
100
AcDbEntity
  8
0
  6
Continuous
 62
     3
100
AcDbLine
 10
183.675
 20
258.6549999999999
 30
0.0
 11
183.675
 21
261.3999999999999
 31
0.0
  0
LINE
  5
1AE
330
1E
100
AcDbEntity
  8
0
  6
Continuous
 62
     3
100
AcDbLine
 10
166.375
 20
255.4
 30
0.0
 11
166.375
 21
256.3999999999999
 31
0.0
  0
LINE
  5
1AF
330
1E
100
AcDbEntity
  8
0
  6
Continuous
 62
     3
100
AcDbLine
 10
211.375
 20
255.4
 30
0.0
 11
211.3449999999999
 21
256.3999999999999
 31
0.0
  0
LINE
  5
1B0
330
1E
100
AcDbEntity
  8
0
  6
Continuous
 62
     3
100
AcDbLine
 10
182.275
 20
257.3999999999999
 30
0.0
 11
182.275
 21
256.845
 31
0.0
  0
LINE
  5
1B1
330
1E
100
AcDbEntity
  8
0
  6
Continuous
 62
     3
100
AcDbLine
 10
182.275
 20
256.845
 30
0.0
 11
182.275
 21
256.3999999999999
 31
0.0
  0
LINE
  5
1B2
330
1E
100
AcDbEntity
  8
0
  6
Continuous
 62
     3
100
AcDbLine
 10
183.675
 20
257.3999999999999
 30
0.0
 11
182.955
 21
257.3999999999999
 31
0.0
  0
LINE
  5
1B3
330
1E
100
AcDbEntity
  8
0
  6
Continuous
 62
     3
100
AcDbLine
 10
183.375
 20
256.3999999999999
 30
0.0
 11
182.955
 21
256.3999999999999
 31
0.0
  0
LINE
  5
1B4
330
1E
100
AcDbEntity
  8
0
  6
Continuous
 62
     3
100
AcDbLine
 10
182.955
 20
256.3999999999999
 30
0.0
 11
172.585
 21
256.3999999999999
 31
0.0
  0
LINE
  5
1B5
330
1E
100
AcDbEntity
  8
0
  6
Continuous
 62
     3
100
AcDbLine
 10
172.585
 20
256.3999999999999
 30
0.0
 11
166.375
 21
256.3999999999999
 31
0.0
  0
LINE
  5
1B6
330
1E
100
AcDbEntity
  8
0
  6
Continuous
 62
     3
100
AcDbLine
 10
188.8749999999999
 20
257.0
 30
0.0
 11
193.125
 21
257.0
 31
0.0
  0
LINE
  5
1B7
330
1E
100
AcDbEntity
  8
0
  6
Continuous
 62
     3
100
AcDbLine
 10
193.125
 20
257.0
 30
0.0
 11
194.375
 21
257.0
 31
0.0
  0
LINE
  5
1B8
330
1E
100
AcDbEntity
  8
0
  6
Continuous
 62
     3
100
AcDbLine
 10
194.375
 20
257.0
 30
0.0
 11
194.375
 21
255.88
 31
0.0
  0
LINE
  5
1B9
330
1E
100
AcDbEntity
  8
0
  6
Continuous
 62
     3
100
AcDbLine
 10
194.0749999999999
 20
257.3999999999999
 30
0.0
 11
194.0749999999999
 21
257.7699999999999
 31
0.0
  0
LINE
  5
1BA
330
1E
100
AcDbEntity
  8
0
  6
Continuous
 62
     3
100
AcDbLine
 10
194.0749999999999
 20
257.7699999999999
 30
0.0
 11
194.0749999999999
 21
258.1499999999999
 31
0.0
  0
LINE
  5
1BB
330
1E
100
AcDbEntity
  8
0
  6
Continuous
 62
     3
100
AcDbLine
 10
194.0749999999999
 20
258.1499999999999
 30
0.0
 11
194.0749999999999
 21
261.3999999999999
 31
0.0
  0
LINE
  5
1BC
330
1E
100
AcDbEntity
  8
0
  6
Continuous
 62
     3
100
AcDbLine
 10
195.4749999999999
 20
257.3999999999999
 30
0.0
 11
195.4749999999999
 21
256.935
 31
0.0
  0
LINE
  5
1BD
330
1E
100
AcDbEntity
  8
0
  6
Continuous
 62
     3
100
AcDbLine
 10
195.4749999999999
 20
256.935
 30
0.0
 11
195.4749999999999
 21
256.3999999999999
 31
0.0
  0
LINE
  5
1BE
330
1E
100
AcDbEntity
  8
0
  6
Continuous
 62
     3
100
AcDbLine
 10
195.075
 20
257.3999999999999
 30
0.0
 11
194.0749999999999
 21
257.3999999999999
 31
0.0
  0
LINE
  5
1BF
330
1E
100
AcDbEntity
  8
0
  6
Continuous
 62
     3
100
AcDbLine
 10
194.375
 20
256.3999999999999
 30
0.0
 11
205.705
 21
256.3999999999999
 31
0.0
  0
LINE
  5
1C0
330
1E
100
AcDbEntity
  8
0
  6
Continuous
 62
     3
100
AcDbLine
 10
205.705
 20
256.3999999999999
 30
0.0
 11
211.3449999999999
 21
256.3999999999999
 31
0.0
  0
LINE
  5
1C1
330
1E
100
AcDbEntity
  8
0
  6
Continuous
 62
     3
100
AcDbLine
 10
186.275
 20
257.5
 30
0.0
 11
186.275
 21
257.0
 31
0.0
  0
LINE
  5
1C2
330
1E
100
AcDbEntity
  8
0
  6
Continuous
 62
     3
100
AcDbLine
 10
191.4749999999999
 20
257.5
 30
0.0
 11
191.4749999999999
 21
257.0
 31
0.0
  0
LINE
  5
1C3
330
1E
100
AcDbEntity
  8
0
  6
Continuous
 62
     3
100
AcDbLine
 10
188.8749999999999
 20
257.5
 30
0.0
 11
185.875
 21
257.5
 31
0.0
  0
LINE
  5
1C4
330
1E
100
AcDbEntity
  8
0
  6
Continuous
 62
     3
100
AcDbLine
 10
185.875
 20
258.4999999999999
 30
0.0
 11
185.875
 21
257.5
 31
0.0
  0
ARC
  5
1C5
330
1E
100
AcDbEntity
  8
0
  6
Continuous
 62
     3
100
AcDbCircle
 10
186.875
 20
258.4999999999999
 30
0.0
 40
1.0
100
AcDbArc
 50
90.0
 51
180.0
  0
LINE
  5
1C6
330
1E
100
AcDbEntity
  8
0
  6
Continuous
 62
     3
100
AcDbLine
 10
190.8749999999999
 20
259.5
 30
0.0
 11
186.875
 21
259.5
 31
0.0
  0
ARC
  5
1C7
330
1E
100
AcDbEntity
  8
0
  6
Continuous
 62
     3
100
AcDbCircle
 10
190.8749999999999
 20
258.4999999999999
 30
0.0
 40
1.0
100
AcDbArc
 50
0.0
 51
90.0
  0
LINE
  5
1C8
330
1E
100
AcDbEntity
  8
0
  6
Continuous
 62
     3
100
AcDbLine
 10
188.8749999999999
 20
257.5
 30
0.0
 11
191.875
 21
257.5
 31
0.0
  0
LINE
  5
1C9
330
1E
100
AcDbEntity
  8
0
  6
Continuous
 62
     3
100
AcDbLine
 10
191.875
 20
258.4999999999999
 30
0.0
 11
191.875
 21
257.5
 31
0.0
  0
LINE
  5
1CA
330
1E
100
AcDbEntity
  8
0
  6
Continuous
 62
     2
100
AcDbLine
 10
76.075
 20
256.8999999999999
 30
0.0
 11
81.17499999999997
 21
256.8999999999999
 31
0.0
  0
LINE
  5
1CB
330
1E
100
AcDbEntity
  8
0
  6
Continuous
 62
     2
100
AcDbLine
 10
86.27500000000003
 20
256.8999999999999
 30
0.0
 11
81.17499999999997
 21
256.8999999999999
 31
0.0
  0
LINE
  5
1CC
330
1E
100
AcDbEntity
  8
0
  6
Continuous
 62
     3
100
AcDbLine
 10
129.175
 20
257.3999999999999
 30
0.0
 11
129.175
 21
274.8999999999999
 31
0.0
  0
LINE
  5
1CD
330
1E
100
AcDbEntity
  8
0
  6
Continuous
 62
     2
100
AcDbLine
 10
129.175
 20
256.3999999999999
 30
0.0
 11
129.175
 21
257.3999999999999
 31
0.0
  0
LINE
  5
1CE
330
1E
100
AcDbEntity
  8
0
  6
Continuous
 62
     2
100
AcDbLine
 10
73.08499999999998
 20
257.3999999999999
 30
0.0
 11
73.08499999999998
 21
256.3999999999999
 31
0.0
  0
LINE
  5
1CF
330
1E
100
AcDbEntity
  8
0
  6
Continuous
 62
     2
100
AcDbLine
 10
86.27500000000003
 20
256.3999999999999
 30
0.0
 11
86.27500000000003
 21
256.8999999999999
 31
0.0
  0
LINE
  5
1D0
330
1E
100
AcDbEntity
  8
0
  6
Continuous
 62
     2
100
AcDbLine
 10
76.075
 20
256.3999999999999
 30
0.0
 11
76.075
 21
256.8999999999999
 31
0.0
  0
LINE
  5
1D1
330
1E
100
AcDbEntity
  8
0
  6
Continuous
 62
     3
100
AcDbLine
 10
73.08499999999998
 20
257.3999999999999
 30
0.0
 11
73.08499999999998
 21
269.8999999999999
 31
0.0
  0
LINE
  5
1D2
330
1E
100
AcDbEntity
  8
0
  6
Continuous
 62
     3
100
AcDbLine
 10
73.08499999999998
 20
269.8999999999999
 30
0.0
 11
60.265
 21
269.8999999999999
 31
0.0
  0
LINE
  5
1D3
330
1E
100
AcDbEntity
  8
0
  6
Continuous
 62
     3
100
AcDbLine
 10
60.265
 20
257.3999999999999
 30
0.0
 11
60.265
 21
269.8999999999999
 31
0.0
  0
LINE
  5
1D4
330
1E
100
AcDbEntity
  8
0
  6
Continuous
 62
     3
100
AcDbLine
 10
66.675
 20
268.8999999999999
 30
0.0
 11
65.175
 21
268.8999999999999
 31
0.0
  0
LINE
  5
1D5
330
1E
100
AcDbEntity
  8
0
  6
Continuous
 62
     3
100
AcDbLine
 10
65.175
 20
268.8999999999999
 30
0.0
 11
65.175
 21
259.6
 31
0.0
  0
LINE
  5
1D6
330
1E
100
AcDbEntity
  8
0
  6
Continuous
 62
     3
100
AcDbLine
 10
66.675
 20
259.6
 30
0.0
 11
65.175
 21
259.6
 31
0.0
  0
LINE
  5
1D7
330
1E
100
AcDbEntity
  8
0
  6
Continuous
 62
     3
100
AcDbLine
 10
66.675
 20
268.8999999999999
 30
0.0
 11
68.17499999999999
 21
268.8999999999999
 31
0.0
  0
LINE
  5
1D8
330
1E
100
AcDbEntity
  8
0
  6
Continuous
 62
     3
100
AcDbLine
 10
68.17499999999999
 20
268.8999999999999
 30
0.0
 11
68.17499999999999
 21
259.6
 31
0.0
  0
LINE
  5
1D9
330
1E
100
AcDbEntity
  8
0
  6
Continuous
 62
     3
100
AcDbLine
 10
66.675
 20
259.6
 30
0.0
 11
68.17499999999999
 21
259.6
 31
0.0
  0
LINE
  5
1DA
330
1E
100
AcDbEntity
  8
0
  6
Continuous
 62
     3
100
AcDbLine
 10
70.485
 20
268.8999999999999
 30
0.0
 11
68.985
 21
268.8999999999999
 31
0.0
  0
LINE
  5
1DB
330
1E
100
AcDbEntity
  8
0
  6
Continuous
 62
     3
100
AcDbLine
 10
68.985
 20
268.8999999999999
 30
0.0
 11
68.985
 21
259.6
 31
0.0
  0
LINE
  5
1DC
330
1E
100
AcDbEntity
  8
0
  6
Continuous
 62
     3
100
AcDbLine
 10
70.485
 20
259.6
 30
0.0
 11
68.985
 21
259.6
 31
0.0
  0
LINE
  5
1DD
330
1E
100
AcDbEntity
  8
0
  6
Continuous
 62
     3
100
AcDbLine
 10
70.485
 20
268.8999999999999
 30
0.0
 11
71.985
 21
268.8999999999999
 31
0.0
  0
LINE
  5
1DE
330
1E
100
AcDbEntity
  8
0
  6
Continuous
 62
     3
100
AcDbLine
 10
71.985
 20
268.8999999999999
 30
0.0
 11
71.985
 21
259.6
 31
0.0
  0
LINE
  5
1DF
330
1E
100
AcDbEntity
  8
0
  6
Continuous
 62
     3
100
AcDbLine
 10
70.485
 20
259.6
 30
0.0
 11
71.985
 21
259.6
 31
0.0
  0
LINE
  5
1E0
330
1E
100
AcDbEntity
  8
0
  6
Continuous
 62
     3
100
AcDbLine
 10
62.865
 20
268.8999999999999
 30
0.0
 11
64.36499999999999
 21
268.8999999999999
 31
0.0
  0
LINE
  5
1E1
330
1E
100
AcDbEntity
  8
0
  6
Continuous
 62
     3
100
AcDbLine
 10
64.36499999999999
 20
268.8999999999999
 30
0.0
 11
64.36499999999999
 21
259.6
 31
0.0
  0
LINE
  5
1E2
330
1E
100
AcDbEntity
  8
0
  6
Continuous
 62
     3
100
AcDbLine
 10
62.865
 20
259.6
 30
0.0
 11
64.36499999999999
 21
259.6
 31
0.0
  0
LINE
  5
1E3
330
1E
100
AcDbEntity
  8
0
  6
Continuous
 62
     3
100
AcDbLine
 10
62.865
 20
268.8999999999999
 30
0.0
 11
61.365
 21
268.8999999999999
 31
0.0
  0
LINE
  5
1E4
330
1E
100
AcDbEntity
  8
0
  6
Continuous
 62
     3
100
AcDbLine
 10
61.365
 20
268.8999999999999
 30
0.0
 11
61.365
 21
259.6
 31
0.0
  0
LINE
  5
1E5
330
1E
100
AcDbEntity
  8
0
  6
Continuous
 62
     3
100
AcDbLine
 10
62.865
 20
259.6
 30
0.0
 11
61.365
 21
259.6
 31
0.0
  0
LINE
  5
1E6
330
1E
100
AcDbEntity
  8
0
  6
Continuous
 62
     3
100
AcDbLine
 10
60.265
 20
257.3999999999999
 30
0.0
 11
73.08499999999998
 21
257.3999999999999
 31
0.0
  0
LINE
  5
1E7
330
1E
100
AcDbEntity
  8
0
  6
Continuous
 62
     3
100
AcDbLine
 10
60.265
 20
256.3999999999999
 30
0.0
 11
60.265
 21
257.3999999999999
 31
0.0
  0
LINE
  5
1E8
330
1E
100
AcDbEntity
  8
0
  6
Continuous
 62
     3
100
AcDbLine
 10
124.675
 20
262.3999999999999
 30
0.0
 11
124.675
 21
267.8999999999999
 31
0.0
  0
LINE
  5
1E9
330
1E
100
AcDbEntity
  8
0
  6
Continuous
 62
     3
100
AcDbLine
 10
124.675
 20
267.8999999999999
 30
0.0
 11
128.675
 21
267.8999999999999
 31
0.0
  0
LINE
  5
1EA
330
1E
100
AcDbEntity
  8
0
  6
Continuous
 62
     3
100
AcDbLine
 10
125.075
 20
266.12
 30
0.0
 11
125.075
 21
263.12
 31
0.0
  0
LINE
  5
1EB
330
1E
100
AcDbEntity
  8
0
  6
Continuous
 62
     3
100
AcDbLine
 10
125.075
 20
263.12
 30
0.0
 11
128.275
 21
263.12
 31
0.0
  0
LINE
  5
1EC
330
1E
100
AcDbEntity
  8
0
  6
Continuous
 62
     3
100
AcDbLine
 10
128.275
 20
263.12
 30
0.0
 11
128.275
 21
266.12
 31
0.0
  0
LINE
  5
1ED
330
1E
100
AcDbEntity
  8
0
  6
Continuous
 62
     3
100
AcDbLine
 10
124.675
 20
267.8999999999999
 30
0.0
 11
125.075
 21
266.12
 31
0.0
  0
LINE
  5
1EE
330
1E
100
AcDbEntity
  8
0
  6
Continuous
 62
     3
100
AcDbLine
 10
128.675
 20
267.8999999999999
 30
0.0
 11
128.275
 21
266.12
 31
0.0
  0
LINE
  5
1EF
330
1E
100
AcDbEntity
  8
0
  6
Continuous
 62
     3
100
AcDbLine
 10
125.075
 20
263.12
 30
0.0
 11
124.675
 21
262.3999999999999
 31
0.0
  0
LINE
  5
1F0
330
1E
100
AcDbEntity
  8
0
  6
Continuous
 62
     3
100
AcDbLine
 10
128.275
 20
263.12
 30
0.0
 11
128.675
 21
262.3999999999999
 31
0.0
  0
LINE
  5
1F1
330
1E
100
AcDbEntity
  8
0
  6
Continuous
 62
     3
100
AcDbLine
 10
128.675
 20
262.3999999999999
 30
0.0
 11
124.675
 21
262.3999999999999
 31
0.0
  0
LINE
  5
1F2
330
1E
100
AcDbEntity
  8
0
  6
Continuous
 62
     3
100
AcDbLine
 10
128.675
 20
267.8999999999999
 30
0.0
 11
128.675
 21
262.3999999999999
 31
0.0
  0
LINE
  5
1F3
330
1E
100
AcDbEntity
  8
0
  6
Continuous
 62
     3
100
AcDbLine
 10
125.075
 20
266.12
 30
0.0
 11
128.275
 21
266.12
 31
0.0
  0
LINE
  5
1F4
330
1E
100
AcDbEntity
  8
0
  6
Continuous
 62
     3
100
AcDbLine
 10
119.6749999999999
 20
262.3999999999999
 30
0.0
 11
119.6749999999999
 21
267.8999999999999
 31
0.0
  0
LINE
  5
1F5
330
1E
100
AcDbEntity
  8
0
  6
Continuous
 62
     3
100
AcDbLine
 10
119.6749999999999
 20
267.8999999999999
 30
0.0
 11
123.675
 21
267.8999999999999
 31
0.0
  0
LINE
  5
1F6
330
1E
100
AcDbEntity
  8
0
  6
Continuous
 62
     3
100
AcDbLine
 10
120.0749999999999
 20
266.12
 30
0.0
 11
120.0749999999999
 21
263.12
 31
0.0
  0
LINE
  5
1F7
330
1E
100
AcDbEntity
  8
0
  6
Continuous
 62
     3
100
AcDbLine
 10
120.0749999999999
 20
263.12
 30
0.0
 11
123.275
 21
263.12
 31
0.0
  0
LINE
  5
1F8
330
1E
100
AcDbEntity
  8
0
  6
Continuous
 62
     3
100
AcDbLine
 10
123.275
 20
263.12
 30
0.0
 11
123.275
 21
266.12
 31
0.0
  0
LINE
  5
1F9
330
1E
100
AcDbEntity
  8
0
  6
Continuous
 62
     3
100
AcDbLine
 10
119.6749999999999
 20
267.8999999999999
 30
0.0
 11
120.0749999999999
 21
266.12
 31
0.0
  0
LINE
  5
1FA
330
1E
100
AcDbEntity
  8
0
  6
Continuous
 62
     3
100
AcDbLine
 10
123.675
 20
267.8999999999999
 30
0.0
 11
123.275
 21
266.12
 31
0.0
  0
LINE
  5
1FB
330
1E
100
AcDbEntity
  8
0
  6
Continuous
 62
     3
100
AcDbLine
 10
120.0749999999999
 20
263.12
 30
0.0
 11
119.6749999999999
 21
262.3999999999999
 31
0.0
  0
LINE
  5
1FC
330
1E
100
AcDbEntity
  8
0
  6
Continuous
 62
     3
100
AcDbLine
 10
123.275
 20
263.12
 30
0.0
 11
123.675
 21
262.3999999999999
 31
0.0
  0
LINE
  5
1FD
330
1E
100
AcDbEntity
  8
0
  6
Continuous
 62
     3
100
AcDbLine
 10
123.675
 20
262.3999999999999
 30
0.0
 11
119.6749999999999
 21
262.3999999999999
 31
0.0
  0
LINE
  5
1FE
330
1E
100
AcDbEntity
  8
0
  6
Continuous
 62
     3
100
AcDbLine
 10
123.675
 20
267.8999999999999
 30
0.0
 11
123.675
 21
262.3999999999999
 31
0.0
  0
LINE
  5
1FF
330
1E
100
AcDbEntity
  8
0
  6
Continuous
 62
     3
100
AcDbLine
 10
120.0749999999999
 20
266.12
 30
0.0
 11
123.275
 21
266.12
 31
0.0
  0
LINE
  5
200
330
1E
100
AcDbEntity
  8
0
  6
Continuous
 62
     3
100
AcDbLine
 10
114.6749999999999
 20
262.3999999999999
 30
0.0
 11
114.6749999999999
 21
267.8999999999999
 31
0.0
  0
LINE
  5
201
330
1E
100
AcDbEntity
  8
0
  6
Continuous
 62
     3
100
AcDbLine
 10
114.6749999999999
 20
267.8999999999999
 30
0.0
 11
118.6749999999999
 21
267.8999999999999
 31
0.0
  0
LINE
  5
202
330
1E
100
AcDbEntity
  8
0
  6
Continuous
 62
     3
100
AcDbLine
 10
115.075
 20
266.12
 30
0.0
 11
115.075
 21
263.12
 31
0.0
  0
LINE
  5
203
330
1E
100
AcDbEntity
  8
0
  6
Continuous
 62
     3
100
AcDbLine
 10
115.075
 20
263.12
 30
0.0
 11
118.275
 21
263.12
 31
0.0
  0
LINE
  5
204
330
1E
100
AcDbEntity
  8
0
  6
Continuous
 62
     3
100
AcDbLine
 10
118.275
 20
263.12
 30
0.0
 11
118.275
 21
266.12
 31
0.0
  0
LINE
  5
205
330
1E
100
AcDbEntity
  8
0
  6
Continuous
 62
     3
100
AcDbLine
 10
114.6749999999999
 20
267.8999999999999
 30
0.0
 11
115.075
 21
266.12
 31
0.0
  0
LINE
  5
206
330
1E
100
AcDbEntity
  8
0
  6
Continuous
 62
     3
100
AcDbLine
 10
118.6749999999999
 20
267.8999999999999
 30
0.0
 11
118.275
 21
266.12
 31
0.0
  0
LINE
  5
207
330
1E
100
AcDbEntity
  8
0
  6
Continuous
 62
     3
100
AcDbLine
 10
115.075
 20
263.12
 30
0.0
 11
114.6749999999999
 21
262.3999999999999
 31
0.0
  0
LINE
  5
208
330
1E
100
AcDbEntity
  8
0
  6
Continuous
 62
     3
100
AcDbLine
 10
118.275
 20
263.12
 30
0.0
 11
118.6749999999999
 21
262.3999999999999
 31
0.0
  0
LINE
  5
209
330
1E
100
AcDbEntity
  8
0
  6
Continuous
 62
     3
100
AcDbLine
 10
118.6749999999999
 20
262.3999999999999
 30
0.0
 11
114.6749999999999
 21
262.3999999999999
 31
0.0
  0
LINE
  5
20A
330
1E
100
AcDbEntity
  8
0
  6
Continuous
 62
     3
100
AcDbLine
 10
118.6749999999999
 20
267.8999999999999
 30
0.0
 11
118.6749999999999
 21
262.3999999999999
 31
0.0
  0
LINE
  5
20B
330
1E
100
AcDbEntity
  8
0
  6
Continuous
 62
     3
100
AcDbLine
 10
115.075
 20
266.12
 30
0.0
 11
118.275
 21
266.12
 31
0.0
  0
LINE
  5
20C
330
1E
100
AcDbEntity
  8
0
  6
Continuous
 62
     3
100
AcDbLine
 10
109.6749999999999
 20
262.3999999999999
 30
0.0
 11
109.6749999999999
 21
267.8999999999999
 31
0.0
  0
LINE
  5
20D
330
1E
100
AcDbEntity
  8
0
  6
Continuous
 62
     3
100
AcDbLine
 10
109.6749999999999
 20
267.8999999999999
 30
0.0
 11
113.6749999999999
 21
267.8999999999999
 31
0.0
  0
LINE
  5
20E
330
1E
100
AcDbEntity
  8
0
  6
Continuous
 62
     3
100
AcDbLine
 10
110.075
 20
266.12
 30
0.0
 11
110.075
 21
263.12
 31
0.0
  0
LINE
  5
20F
330
1E
100
AcDbEntity
  8
0
  6
Continuous
 62
     3
100
AcDbLine
 10
110.075
 20
263.12
 30
0.0
 11
113.275
 21
263.12
 31
0.0
  0
LINE
  5
210
330
1E
100
AcDbEntity
  8
0
  6
Continuous
 62
     3
100
AcDbLine
 10
113.275
 20
263.12
 30
0.0
 11
113.275
 21
266.12
 31
0.0
  0
LINE
  5
211
330
1E
100
AcDbEntity
  8
0
  6
Continuous
 62
     3
100
AcDbLine
 10
109.6749999999999
 20
267.8999999999999
 30
0.0
 11
110.075
 21
266.12
 31
0.0
  0
LINE
  5
212
330
1E
100
AcDbEntity
  8
0
  6
Continuous
 62
     3
100
AcDbLine
 10
113.6749999999999
 20
267.8999999999999
 30
0.0
 11
113.275
 21
266.12
 31
0.0
  0
LINE
  5
213
330
1E
100
AcDbEntity
  8
0
  6
Continuous
 62
     3
100
AcDbLine
 10
110.075
 20
263.12
 30
0.0
 11
109.6749999999999
 21
262.3999999999999
 31
0.0
  0
LINE
  5
214
330
1E
100
AcDbEntity
  8
0
  6
Continuous
 62
     3
100
AcDbLine
 10
113.275
 20
263.12
 30
0.0
 11
113.6749999999999
 21
262.3999999999999
 31
0.0
  0
LINE
  5
215
330
1E
100
AcDbEntity
  8
0
  6
Continuous
 62
     3
100
AcDbLine
 10
113.6749999999999
 20
262.3999999999999
 30
0.0
 11
109.6749999999999
 21
262.3999999999999
 31
0.0
  0
LINE
  5
216
330
1E
100
AcDbEntity
  8
0
  6
Continuous
 62
     3
100
AcDbLine
 10
113.6749999999999
 20
267.8999999999999
 30
0.0
 11
113.6749999999999
 21
262.3999999999999
 31
0.0
  0
LINE
  5
217
330
1E
100
AcDbEntity
  8
0
  6
Continuous
 62
     3
100
AcDbLine
 10
110.075
 20
266.12
 30
0.0
 11
113.275
 21
266.12
 31
0.0
  0
LINE
  5
218
330
1E
100
AcDbEntity
  8
0
  6
Continuous
 62
     3
100
AcDbLine
 10
104.675
 20
262.3999999999999
 30
0.0
 11
104.675
 21
267.8999999999999
 31
0.0
  0
LINE
  5
219
330
1E
100
AcDbEntity
  8
0
  6
Continuous
 62
     3
100
AcDbLine
 10
104.675
 20
267.8999999999999
 30
0.0
 11
108.675
 21
267.8999999999999
 31
0.0
  0
LINE
  5
21A
330
1E
100
AcDbEntity
  8
0
  6
Continuous
 62
     3
100
AcDbLine
 10
105.075
 20
266.12
 30
0.0
 11
105.075
 21
263.12
 31
0.0
  0
LINE
  5
21B
330
1E
100
AcDbEntity
  8
0
  6
Continuous
 62
     3
100
AcDbLine
 10
105.075
 20
263.12
 30
0.0
 11
108.275
 21
263.12
 31
0.0
  0
LINE
  5
21C
330
1E
100
AcDbEntity
  8
0
  6
Continuous
 62
     3
100
AcDbLine
 10
108.275
 20
263.12
 30
0.0
 11
108.275
 21
266.12
 31
0.0
  0
LINE
  5
21D
330
1E
100
AcDbEntity
  8
0
  6
Continuous
 62
     3
100
AcDbLine
 10
104.675
 20
267.8999999999999
 30
0.0
 11
105.075
 21
266.12
 31
0.0
  0
LINE
  5
21E
330
1E
100
AcDbEntity
  8
0
  6
Continuous
 62
     3
100
AcDbLine
 10
108.675
 20
267.8999999999999
 30
0.0
 11
108.275
 21
266.12
 31
0.0
  0
LINE
  5
21F
330
1E
100
AcDbEntity
  8
0
  6
Continuous
 62
     3
100
AcDbLine
 10
105.075
 20
263.12
 30
0.0
 11
104.675
 21
262.3999999999999
 31
0.0
  0
LINE
  5
220
330
1E
100
AcDbEntity
  8
0
  6
Continuous
 62
     3
100
AcDbLine
 10
108.275
 20
263.12
 30
0.0
 11
108.675
 21
262.3999999999999
 31
0.0
  0
LINE
  5
221
330
1E
100
AcDbEntity
  8
0
  6
Continuous
 62
     3
100
AcDbLine
 10
108.675
 20
262.3999999999999
 30
0.0
 11
104.675
 21
262.3999999999999
 31
0.0
  0
LINE
  5
222
330
1E
100
AcDbEntity
  8
0
  6
Continuous
 62
     3
100
AcDbLine
 10
108.675
 20
267.8999999999999
 30
0.0
 11
108.675
 21
262.3999999999999
 31
0.0
  0
LINE
  5
223
330
1E
100
AcDbEntity
  8
0
  6
Continuous
 62
     3
100
AcDbLine
 10
105.075
 20
266.12
 30
0.0
 11
108.275
 21
266.12
 31
0.0
  0
LINE
  5
224
330
1E
100
AcDbEntity
  8
0
  6
Continuous
 62
     3
100
AcDbLine
 10
102.435
 20
274.8299999999999
 30
0.0
 11
102.5158641979998
 21
274.35691358
 31
0.0
  0
LINE
  5
225
330
1E
100
AcDbEntity
  8
0
  6
Continuous
 62
     3
100
AcDbLine
 10
102.5158641979998
 20
274.35691358
 30
0.0
 11
102.5985802469999
 21
273.888641975
 31
0.0
  0
LINE
  5
226
330
1E
100
AcDbEntity
  8
0
  6
Continuous
 62
     3
100
AcDbLine
 10
102.5985802469999
 20
273.888641975
 30
0.0
 11
102.685
 21
273.43
 31
0.0
  0
LINE
  5
227
330
1E
100
AcDbEntity
  8
0
  6
Continuous
 62
     3
100
AcDbLine
 10
102.685
 20
273.43
 30
0.0
 11
102.786851852
 21
273.015432099
 31
0.0
  0
LINE
  5
228
330
1E
100
AcDbEntity
  8
0
  6
Continuous
 62
     3
100
AcDbLine
 10
102.786851852
 20
273.015432099
 30
0.0
 11
102.888703704
 21
272.5979012349999
 31
0.0
  0
LINE
  5
229
330
1E
100
AcDbEntity
  8
0
  6
Continuous
 62
     3
100
AcDbLine
 10
102.888703704
 20
272.5979012349999
 30
0.0
 11
102.9849999999999
 21
272.16
 31
0.0
  0
LINE
  5
22A
330
1E
100
AcDbEntity
  8
0
  6
Continuous
 62
     3
100
AcDbLine
 10
102.9849999999999
 20
272.16
 30
0.0
 11
103.0548765429998
 21
271.634444444
 31
0.0
  0
LINE
  5
22B
330
1E
100
AcDbEntity
  8
0
  6
Continuous
 62
     3
100
AcDbLine
 10
103.0548765429998
 20
271.634444444
 30
0.0
 11
103.119567901
 21
271.0911111109999
 31
0.0
  0
LINE
  5
22C
330
1E
100
AcDbEntity
  8
0
  6
Continuous
 62
     3
100
AcDbLine
 10
103.119567901
 20
271.0911111109999
 30
0.0
 11
103.1849999999999
 21
270.55
 31
0.0
  0
LINE
  5
22D
330
1E
100
AcDbEntity
  8
0
  6
Continuous
 62
     3
100
AcDbLine
 10
103.1849999999999
 20
270.55
 30
0.0
 11
103.270925926
 21
270.0577777779999
 31
0.0
  0
LINE
  5
22E
330
1E
100
AcDbEntity
  8
0
  6
Continuous
 62
     3
100
AcDbLine
 10
103.270925926
 20
270.0577777779999
 30
0.0
 11
103.359074074
 21
269.5877777779999
 31
0.0
  0
LINE
  5
22F
330
1E
100
AcDbEntity
  8
0
  6
Continuous
 62
     3
100
AcDbLine
 10
103.359074074
 20
269.5877777779999
 30
0.0
 11
103.4449999999999
 21
269.1399999999999
 31
0.0
  0
LINE
  5
230
330
1E
100
AcDbEntity
  8
0
  6
Continuous
 62
     3
100
AcDbLine
 10
103.4449999999999
 20
269.1399999999999
 30
0.0
 11
103.51537037
 21
268.724320988
 31
0.0
  0
LINE
  5
231
330
1E
100
AcDbEntity
  8
0
  6
Continuous
 62
     3
100
AcDbLine
 10
103.51537037
 20
268.724320988
 30
0.0
 11
103.581296296
 21
268.32345679
 31
0.0
  0
LINE
  5
232
330
1E
100
AcDbEntity
  8
0
  6
Continuous
 62
     3
100
AcDbLine
 10
103.581296296
 20
268.32345679
 30
0.0
 11
103.6449999999999
 21
267.93
 31
0.0
  0
LINE
  5
233
330
1E
100
AcDbEntity
  8
0
  6
Continuous
 62
     3
100
AcDbLine
 10
103.6449999999999
 20
267.93
 30
0.0
 11
103.72154321
 21
267.531604938
 31
0.0
  0
LINE
  5
234
330
1E
100
AcDbEntity
  8
0
  6
Continuous
 62
     3
100
AcDbLine
 10
103.72154321
 20
267.531604938
 30
0.0
 11
103.790679012
 21
267.1295061729999
 31
0.0
  0
LINE
  5
235
330
1E
100
AcDbEntity
  8
0
  6
Continuous
 62
     3
100
AcDbLine
 10
103.790679012
 20
267.1295061729999
 30
0.0
 11
103.845
 21
266.72
 31
0.0
  0
LINE
  5
236
330
1E
100
AcDbEntity
  8
0
  6
Continuous
 62
     3
100
AcDbLine
 10
103.845
 20
266.72
 30
0.0
 11
103.864753086
 21
266.271728395
 31
0.0
  0
LINE
  5
237
330
1E
100
AcDbEntity
  8
0
  6
Continuous
 62
     3
100
AcDbLine
 10
103.864753086
 20
266.271728395
 30
0.0
 11
103.864135802
 21
265.829382716
 31
0.0
  0
LINE
  5
238
330
1E
100
AcDbEntity
  8
0
  6
Continuous
 62
     3
100
AcDbLine
 10
103.864135802
 20
265.829382716
 30
0.0
 11
103.845
 21
265.41
 31
0.0
  0
LINE
  5
239
330
1E
100
AcDbEntity
  8
0
  6
Continuous
 62
     3
100
AcDbLine
 10
103.845
 20
265.41
 30
0.0
 11
103.8121604939999
 21
265.083950617
 31
0.0
  0
LINE
  5
23A
330
1E
100
AcDbEntity
  8
0
  6
Continuous
 62
     3
100
AcDbLine
 10
103.8121604939999
 20
265.083950617
 30
0.0
 11
103.762283951
 21
264.7749382719998
 31
0.0
  0
LINE
  5
23B
330
1E
100
AcDbEntity
  8
0
  6
Continuous
 62
     3
100
AcDbLine
 10
103.762283951
 20
264.7749382719998
 30
0.0
 11
103.695
 21
264.46
 31
0.0
  0
LINE
  5
23C
330
1E
100
AcDbEntity
  8
0
  6
Continuous
 62
     3
100
AcDbLine
 10
103.695
 20
264.46
 30
0.0
 11
103.6035185189999
 21
264.045555556
 31
0.0
  0
LINE
  5
23D
330
1E
100
AcDbEntity
  8
0
  6
Continuous
 62
     3
100
AcDbLine
 10
103.6035185189999
 20
264.045555556
 30
0.0
 11
103.498703704
 21
263.632222222
 31
0.0
  0
LINE
  5
23E
330
1E
100
AcDbEntity
  8
0
  6
Continuous
 62
     3
100
AcDbLine
 10
103.498703704
 20
263.632222222
 30
0.0
 11
103.385
 21
263.2499999999999
 31
0.0
  0
LINE
  5
23F
330
1E
100
AcDbEntity
  8
0
  6
Continuous
 62
     3
100
AcDbLine
 10
103.385
 20
263.2499999999999
 30
0.0
 11
103.3108024689999
 21
263.0128395059999
 31
0.0
  0
LINE
  5
240
330
1E
100
AcDbEntity
  8
0
  6
Continuous
 62
     3
100
AcDbLine
 10
103.3108024689999
 20
263.0128395059999
 30
0.0
 11
103.203641975
 21
262.80382716
 31
0.0
  0
LINE
  5
241
330
1E
100
AcDbEntity
  8
0
  6
Continuous
 62
     3
100
AcDbLine
 10
103.203641975
 20
262.80382716
 30
0.0
 11
103.0349999999999
 21
262.5899999999999
 31
0.0
  0
LINE
  5
242
330
1E
100
AcDbEntity
  8
0
  6
Continuous
 62
     3
100
AcDbLine
 10
103.0349999999999
 20
262.5899999999999
 30
0.0
 11
102.641049383
 21
262.28308642
 31
0.0
  0
LINE
  5
243
330
1E
100
AcDbEntity
  8
0
  6
Continuous
 62
     3
100
AcDbLine
 10
102.641049383
 20
262.28308642
 30
0.0
 11
102.2300617279997
 21
261.94691358
 31
0.0
  0
LINE
  5
244
330
1E
100
AcDbEntity
  8
0
  6
Continuous
 62
     3
100
AcDbLine
 10
102.2300617279997
 20
261.94691358
 30
0.0
 11
101.875
 21
261.5899999999999
 31
0.0
  0
LINE
  5
245
330
1E
100
AcDbEntity
  8
0
  6
Continuous
 62
     3
100
AcDbLine
 10
101.875
 20
261.5899999999999
 30
0.0
 11
101.8132716049997
 21
261.271234568
 31
0.0
  0
LINE
  5
246
330
1E
100
AcDbEntity
  8
0
  6
Continuous
 62
     3
100
AcDbLine
 10
101.8132716049997
 20
261.271234568
 30
0.0
 11
101.8300617279997
 21
260.9109876539998
 31
0.0
  0
LINE
  5
247
330
1E
100
AcDbEntity
  8
0
  6
Continuous
 62
     3
100
AcDbLine
 10
101.8300617279997
 20
260.9109876539998
 30
0.0
 11
101.875
 21
260.48
 31
0.0
  0
LINE
  5
248
330
1E
100
AcDbEntity
  8
0
  6
Continuous
 62
     3
100
AcDbLine
 10
101.875
 20
260.48
 30
0.0
 11
101.7757407409999
 21
259.8186419749999
 31
0.0
  0
LINE
  5
249
330
1E
100
AcDbEntity
  8
0
  6
Continuous
 62
     3
100
AcDbLine
 10
101.7757407409999
 20
259.8186419749999
 30
0.0
 11
101.69537037
 21
259.125802469
 31
0.0
  0
LINE
  5
24A
330
1E
100
AcDbEntity
  8
0
  6
Continuous
 62
     3
100
AcDbLine
 10
101.69537037
 20
259.125802469
 30
0.0
 11
101.675
 21
258.47
 31
0.0
  0
LINE
  5
24B
330
1E
100
AcDbEntity
  8
0
  6
Continuous
 62
     3
100
AcDbLine
 10
101.675
 20
258.47
 30
0.0
 11
101.855493827
 21
258.0580246909998
 31
0.0
  0
LINE
  5
24C
330
1E
100
AcDbEntity
  8
0
  6
Continuous
 62
     3
100
AcDbLine
 10
101.855493827
 20
258.0580246909998
 30
0.0
 11
102.103395062
 21
257.7164197529999
 31
0.0
  0
LINE
  5
24D
330
1E
100
AcDbEntity
  8
0
  6
Continuous
 62
     3
100
AcDbLine
 10
129.175
 20
272.8999999999999
 30
0.0
 11
102.786851852
 21
272.8999999999999
 31
0.0
  0
LINE
  5
24E
330
1E
100
AcDbEntity
  8
0
  6
Continuous
 62
     3
100
AcDbLine
 10
129.175
 20
268.8999999999999
 30
0.0
 11
103.4449999999999
 21
268.8999999999999
 31
0.0
  0
LINE
  5
24F
330
1E
100
AcDbEntity
  8
0
  6
Continuous
 62
     3
100
AcDbLine
 10
98.175
 20
274.8999999999999
 30
0.0
 11
98.175
 21
256.3999999999999
 31
0.0
  0
LINE
  5
250
330
1E
100
AcDbEntity
  8
0
  6
Continuous
 62
     3
100
AcDbLine
 10
102.435
 20
274.8999999999999
 30
0.0
 11
129.175
 21
274.8999999999999
 31
0.0
  0
LINE
  5
251
330
1E
100
AcDbEntity
  8
0
  6
Continuous
 62
     3
100
AcDbLine
 10
129.175
 20
261.3999999999999
 30
0.0
 11
101.875
 21
261.3999999999999
 31
0.0
  0
LINE
  5
252
330
1E
100
AcDbEntity
  8
0
  6
Continuous
 62
     3
100
AcDbLine
 10
129.175
 20
258.19
 30
0.0
 11
101.675
 21
258.19
 31
0.0
  0
LINE
  5
253
330
1E
100
AcDbEntity
  8
0
  6
Continuous
 62
     2
100
AcDbLine
 10
102.385
 20
257.3999999999999
 30
0.0
 11
129.175
 21
257.3999999999999
 31
0.0
  0
LINE
  5
254
330
1E
100
AcDbEntity
  8
0
  6
Continuous
 62
     3
100
AcDbLine
 10
78.17499999999999
 20
274.8999999999999
 30
0.0
 11
98.175
 21
274.8999999999999
 31
0.0
  0
LINE
  5
255
330
1E
100
AcDbEntity
  8
0
  6
Continuous
 62
     3
100
AcDbLine
 10
98.175
 20
261.3999999999999
 30
0.0
 11
78.17499999999999
 21
261.3999999999999
 31
0.0
  0
LINE
  5
256
330
1E
100
AcDbEntity
  8
0
  6
Continuous
 62
     3
100
AcDbLine
 10
98.175
 20
258.19
 30
0.0
 11
78.17499999999999
 21
258.19
 31
0.0
  0
LINE
  5
257
330
1E
100
AcDbEntity
  8
0
  6
Continuous
 62
     2
100
AcDbLine
 10
78.17499999999999
 20
257.3999999999999
 30
0.0
 11
98.175
 21
257.3999999999999
 31
0.0
  0
LINE
  5
258
330
1E
100
AcDbEntity
  8
0
  6
Continuous
 62
     3
100
AcDbLine
 10
78.17499999999999
 20
274.8999999999999
 30
0.0
 11
78.17499999999999
 21
257.3999999999999
 31
0.0
  0
LINE
  5
259
330
1E
100
AcDbEntity
  8
0
  6
Continuous
 62
     3
100
AcDbLine
 10
102.103395062
 20
257.7164197529999
 30
0.0
 11
103.2672562449999
 21
256.4499999999999
 31
0.0
  0
LINE
  5
25A
330
1E
100
AcDbEntity
  8
0
  6
Continuous
 62
     3
100
AcDbLine
 10
73.17499999999999
 20
274.8999999999999
 30
0.0
 11
63.17499999999999
 21
274.8999999999999
 31
0.0
  0
LINE
  5
25B
330
1E
100
AcDbEntity
  8
0
  6
Continuous
 62
     3
100
AcDbLine
 10
63.17499999999999
 20
274.8999999999999
 30
0.0
 11
63.17499999999999
 21
269.8999999999999
 31
0.0
  0
LINE
  5
25C
330
1E
100
AcDbEntity
  8
0
  6
Continuous
 62
     3
100
AcDbLine
 10
73.17499999999999
 20
274.8999999999999
 30
0.0
 11
73.17499999999999
 21
256.3999999999999
 31
0.0
  0
LINE
  5
25D
330
1E
100
AcDbEntity
  8
0
  6
Continuous
 62
     3
100
AcDbLine
 10
63.17499999999999
 20
274.3
 30
0.0
 11
73.17499999999999
 21
274.3
 31
0.0
  0
LINE
  5
25E
330
1E
100
AcDbEntity
  8
0
  6
Continuous
 62
     3
100
AcDbLine
 10
78.17499999999999
 20
274.3
 30
0.0
 11
98.175
 21
274.3
 31
0.0
  0
LINE
  5
25F
330
1E
100
AcDbEntity
  8
0
  6
Continuous
 62
     3
100
AcDbLine
 10
143.675
 20
133.4
 30
0.0
 11
143.425
 21
128.4
 31
0.0
  0
LINE
  5
260
330
1E
100
AcDbEntity
  8
0
  6
Continuous
 62
     3
100
AcDbLine
 10
143.425
 20
128.4
 30
0.0
 11
47.92499999999999
 21
128.4
 31
0.0
  0
LINE
  5
261
330
1E
100
AcDbEntity
  8
0
  6
Continuous
 62
     3
100
AcDbLine
 10
47.92499999999999
 20
128.4
 30
0.0
 11
47.675
 21
133.4
 31
0.0
  0
LINE
  5
262
330
1E
100
AcDbEntity
  8
0
  6
Continuous
 62
     3
100
AcDbLine
 10
49.55
 20
255.525
 30
0.0
 11
50.0
 21
255.525
 31
0.0
  0
LINE
  5
263
330
1E
100
AcDbEntity
  8
0
  6
Continuous
 62
     3
100
AcDbLine
 10
141.8
 20
255.525
 30
0.0
 11
141.4
 21
255.525
 31
0.0
  0
LINE
  5
264
330
1E
100
AcDbEntity
  8
0
  6
Continuous
 62
     3
100
AcDbLine
 10
131.875
 20
257.6249999999999
 30
0.0
 11
131.875
 21
257.125
 31
0.0
  0
LINE
  5
265
330
1E
100
AcDbEntity
  8
0
  6
Continuous
 62
     3
100
AcDbLine
 10
134.4749999999999
 20
257.6249999999999
 30
0.0
 11
131.4749999999999
 21
257.6249999999999
 31
0.0
  0
LINE
  5
266
330
1E
100
AcDbEntity
  8
0
  6
Continuous
 62
     3
100
AcDbLine
 10
131.4749999999999
 20
258.625
 30
0.0
 11
131.4749999999999
 21
257.6249999999999
 31
0.0
  0
ARC
  5
267
330
1E
100
AcDbEntity
  8
0
  6
Continuous
 62
     3
100
AcDbCircle
 10
132.4749999999999
 20
258.625
 30
0.0
 40
1.0
100
AcDbArc
 50
90.0
 51
180.0
  0
LINE
  5
268
330
1E
100
AcDbEntity
  8
0
  6
Continuous
 62
     3
100
AcDbLine
 10
136.4749999999999
 20
259.6249999999999
 30
0.0
 11
132.4749999999999
 21
259.6249999999999
 31
0.0
  0
ARC
  5
269
330
1E
100
AcDbEntity
  8
0
  6
Continuous
 62
     3
100
AcDbCircle
 10
136.4749999999999
 20
258.625
 30
0.0
 40
1.0
100
AcDbArc
 50
0.0
 51
90.0
  0
LINE
  5
26A
330
1E
100
AcDbEntity
  8
0
  6
Continuous
 62
     3
100
AcDbLine
 10
59.475
 20
257.6249999999999
 30
0.0
 11
59.475
 21
257.125
 31
0.0
  0
LINE
  5
26B
330
1E
100
AcDbEntity
  8
0
  6
Continuous
 62
     3
100
AcDbLine
 10
58.875
 20
259.6249999999999
 30
0.0
 11
54.875
 21
259.6249999999999
 31
0.0
  0
ARC
  5
26C
330
1E
100
AcDbEntity
  8
0
  6
Continuous
 62
     3
100
AcDbCircle
 10
58.875
 20
258.625
 30
0.0
 40
1.0
100
AcDbArc
 50
0.0
 51
90.0
  0
LINE
  5
26D
330
1E
100
AcDbEntity
  8
0
  6
Continuous
 62
     3
100
AcDbLine
 10
56.875
 20
257.6249999999999
 30
0.0
 11
59.875
 21
257.6249999999999
 31
0.0
  0
LINE
  5
26E
330
1E
100
AcDbEntity
  8
0
  6
Continuous
 62
     3
100
AcDbLine
 10
59.875
 20
258.625
 30
0.0
 11
59.875
 21
257.6249999999999
 31
0.0
  0
LINE
  5
26F
330
1E
100
AcDbEntity
  8
0
  6
Continuous
 62
     3
100
AcDbLine
 10
53.67499999999999
 20
256.3999999999999
 30
0.0
 11
50.67499999999999
 21
256.3999999999999
 31
0.0
  0
LINE
  5
270
330
1E
100
AcDbEntity
  8
0
  6
Continuous
 62
     3
100
AcDbLine
 10
50.67499999999999
 20
257.3999999999999
 30
0.0
 11
50.67499999999999
 21
256.3999999999999
 31
0.0
  0
ARC
  5
271
330
1E
100
AcDbEntity
  8
0
  6
Continuous
 62
     3
100
AcDbCircle
 10
51.675
 20
257.3999999999999
 30
0.0
 40
1.0
100
AcDbArc
 50
90.0
 51
180.0
  0
LINE
  5
272
330
1E
100
AcDbEntity
  8
0
  6
Continuous
 62
     3
100
AcDbLine
 10
55.67499999999999
 20
258.3999999999999
 30
0.0
 11
51.675
 21
258.3999999999999
 31
0.0
  0
ARC
  5
273
330
1E
100
AcDbEntity
  8
0
  6
Continuous
 62
     3
100
AcDbCircle
 10
55.67499999999999
 20
257.3999999999999
 30
0.0
 40
1.0
100
AcDbArc
 50
0.0
 51
90.0
  0
LINE
  5
274
330
1E
100
AcDbEntity
  8
0
  6
Continuous
 62
     3
100
AcDbLine
 10
53.67499999999999
 20
256.3999999999999
 30
0.0
 11
56.675
 21
256.3999999999999
 31
0.0
  0
LINE
  5
275
330
1E
100
AcDbEntity
  8
0
  6
Continuous
 62
     3
100
AcDbLine
 10
56.675
 20
257.3999999999999
 30
0.0
 11
56.675
 21
256.3999999999999
 31
0.0
  0
LINE
  5
276
330
1E
100
AcDbEntity
  8
0
  6
Continuous
 62
     3
100
AcDbLine
 10
56.875
 20
256.3999999999999
 30
0.0
 11
53.875
 21
256.3999999999999
 31
0.0
  0
ARC
  5
277
330
1E
100
AcDbEntity
  8
0
  6
Continuous
 62
     3
100
AcDbCircle
 10
54.875
 20
258.625
 30
0.0
 40
1.0
100
AcDbArc
 50
90.0
 51
180.0
  0
LINE
  5
278
330
1E
100
AcDbEntity
  8
0
  6
Continuous
 62
     3
100
AcDbLine
 10
53.875
 20
258.625
 30
0.0
 11
53.875
 21
258.3999999999999
 31
0.0
  0
LINE
  5
279
330
1E
100
AcDbEntity
  8
0
  6
Continuous
 62
     3
100
AcDbLine
 10
137.675
 20
256.3999999999999
 30
0.0
 11
140.675
 21
256.3999999999999
 31
0.0
  0
LINE
  5
27A
330
1E
100
AcDbEntity
  8
0
  6
Continuous
 62
     3
100
AcDbLine
 10
140.675
 20
257.3999999999999
 30
0.0
 11
140.675
 21
256.3999999999999
 31
0.0
  0
ARC
  5
27B
330
1E
100
AcDbEntity
  8
0
  6
Continuous
 62
     3
100
AcDbCircle
 10
139.675
 20
257.3999999999999
 30
0.0
 40
1.0
100
AcDbArc
 50
0.0
 51
90.0
  0
LINE
  5
27C
330
1E
100
AcDbEntity
  8
0
  6
Continuous
 62
     3
100
AcDbLine
 10
135.675
 20
258.3999999999999
 30
0.0
 11
139.675
 21
258.3999999999999
 31
0.0
  0
ARC
  5
27D
330
1E
100
AcDbEntity
  8
0
  6
Continuous
 62
     3
100
AcDbCircle
 10
135.675
 20
257.3999999999999
 30
0.0
 40
1.0
100
AcDbArc
 50
90.0
 51
180.0
  0
LINE
  5
27E
330
1E
100
AcDbEntity
  8
0
  6
Continuous
 62
     3
100
AcDbLine
 10
137.675
 20
256.3999999999999
 30
0.0
 11
134.675
 21
256.3999999999999
 31
0.0
  0
LINE
  5
27F
330
1E
100
AcDbEntity
  8
0
  6
Continuous
 62
     3
100
AcDbLine
 10
134.675
 20
257.3999999999999
 30
0.0
 11
134.675
 21
256.3999999999999
 31
0.0
  0
LINE
  5
280
330
1E
100
AcDbEntity
  8
0
  6
Continuous
 62
     3
100
AcDbLine
 10
134.4749999999999
 20
256.3999999999999
 30
0.0
 11
137.4749999999999
 21
256.3999999999999
 31
0.0
  0
LINE
  5
281
330
1E
100
AcDbEntity
  8
0
  6
Continuous
 62
     3
100
AcDbLine
 10
56.675
 20
257.125
 30
0.0
 11
60.04999999999999
 21
257.125
 31
0.0
  0
LINE
  5
282
330
1E
100
AcDbEntity
  8
0
  6
Continuous
 62
     3
100
AcDbLine
 10
49.55
 20
257.125
 30
0.0
 11
50.67499999999999
 21
257.125
 31
0.0
  0
LINE
  5
283
330
1E
100
AcDbEntity
  8
0
  6
Continuous
 62
     3
100
AcDbLine
 10
134.4749999999999
 20
257.6249999999999
 30
0.0
 11
134.700641237
 21
257.6249999999999
 31
0.0
  0
LINE
  5
284
330
1E
100
AcDbEntity
  8
0
  6
Continuous
 62
     3
100
AcDbLine
 10
137.4749999999999
 20
258.625
 30
0.0
 11
137.4749999999999
 21
258.3999999999999
 31
0.0
  0
LINE
  5
285
330
1E
100
AcDbEntity
  8
0
  6
Continuous
 62
     3
100
AcDbLine
 10
134.675
 20
257.125
 30
0.0
 11
129.3
 21
257.125
 31
0.0
  0
LINE
  5
286
330
1E
100
AcDbEntity
  8
0
  6
Continuous
 62
     3
100
AcDbLine
 10
141.8
 20
257.125
 30
0.0
 11
140.675
 21
257.125
 31
0.0
  0
LINE
  5
287
330
1E
100
AcDbEntity
  8
0
  6
Continuous
 62
     3
100
AcDbLine
 10
131.175
 20
207.65
 30
0.0
 11
131.175
 21
252.8999999999999
 31
0.0
  0
LINE
  5
288
330
1E
100
AcDbEntity
  8
0
  6
Continuous
 62
     3
100
AcDbLine
 10
172.8749999999999
 20
256.3999999999999
 30
0.0
 11
169.8749999999999
 21
256.3999999999999
 31
0.0
  0
LINE
  5
289
330
1E
100
AcDbEntity
  8
0
  6
Continuous
 62
     3
100
AcDbLine
 10
169.8749999999999
 20
257.3999999999999
 30
0.0
 11
169.8749999999999
 21
256.3999999999999
 31
0.0
  0
ARC
  5
28A
330
1E
100
AcDbEntity
  8
0
  6
Continuous
 62
     3
100
AcDbCircle
 10
170.875
 20
257.3999999999999
 30
0.0
 40
1.0
100
AcDbArc
 50
90.0
 51
180.0
  0
LINE
  5
28B
330
1E
100
AcDbEntity
  8
0
  6
Continuous
 62
     3
100
AcDbLine
 10
174.875
 20
258.3999999999999
 30
0.0
 11
170.875
 21
258.3999999999999
 31
0.0
  0
ARC
  5
28C
330
1E
100
AcDbEntity
  8
0
  6
Continuous
 62
     3
100
AcDbCircle
 10
174.875
 20
257.3999999999999
 30
0.0
 40
1.0
100
AcDbArc
 50
0.0
 51
90.0
  0
LINE
  5
28D
330
1E
100
AcDbEntity
  8
0
  6
Continuous
 62
     3
100
AcDbLine
 10
172.8749999999999
 20
256.3999999999999
 30
0.0
 11
175.875
 21
256.3999999999999
 31
0.0
  0
LINE
  5
28E
330
1E
100
AcDbEntity
  8
0
  6
Continuous
 62
     3
100
AcDbLine
 10
175.875
 20
257.3999999999999
 30
0.0
 11
175.875
 21
256.3999999999999
 31
0.0
  0
LINE
  5
28F
330
1E
100
AcDbEntity
  8
0
  6
Continuous
 62
     3
100
AcDbLine
 10
182.955
 20
257.3999999999999
 30
0.0
 11
175.875
 21
257.3999999999999
 31
0.0
  0
LINE
  5
290
330
1E
100
AcDbEntity
  8
0
  6
Continuous
 62
     3
100
AcDbLine
 10
171.175
 20
258.3999999999999
 30
0.0
 11
171.175
 21
258.6549999999999
 31
0.0
  0
LINE
  5
291
330
1E
100
AcDbEntity
  8
0
  6
Continuous
 62
     3
100
AcDbLine
 10
204.875
 20
256.3999999999999
 30
0.0
 11
207.8749999999998
 21
256.3999999999999
 31
0.0
  0
LINE
  5
292
330
1E
100
AcDbEntity
  8
0
  6
Continuous
 62
     3
100
AcDbLine
 10
207.8749999999998
 20
257.3999999999999
 30
0.0
 11
207.8749999999998
 21
256.3999999999999
 31
0.0
  0
ARC
  5
293
330
1E
100
AcDbEntity
  8
0
  6
Continuous
 62
     3
100
AcDbCircle
 10
206.875
 20
257.3999999999999
 30
0.0
 40
1.0
100
AcDbArc
 50
0.0
 51
90.0
  0
LINE
  5
294
330
1E
100
AcDbEntity
  8
0
  6
Continuous
 62
     3
100
AcDbLine
 10
202.875
 20
258.3999999999999
 30
0.0
 11
206.875
 21
258.3999999999999
 31
0.0
  0
ARC
  5
295
330
1E
100
AcDbEntity
  8
0
  6
Continuous
 62
     3
100
AcDbCircle
 10
202.875
 20
257.3999999999999
 30
0.0
 40
1.0
100
AcDbArc
 50
90.0
 51
180.0
  0
LINE
  5
296
330
1E
100
AcDbEntity
  8
0
  6
Continuous
 62
     3
100
AcDbLine
 10
204.875
 20
256.3999999999999
 30
0.0
 11
201.8749999999999
 21
256.3999999999999
 31
0.0
  0
LINE
  5
297
330
1E
100
AcDbEntity
  8
0
  6
Continuous
 62
     3
100
AcDbLine
 10
201.8749999999999
 20
257.3999999999999
 30
0.0
 11
201.8749999999999
 21
256.3999999999999
 31
0.0
  0
LINE
  5
298
330
1E
100
AcDbEntity
  8
0
  6
Continuous
 62
     3
100
AcDbLine
 10
206.5749999999999
 20
258.3999999999999
 30
0.0
 11
206.5749999999999
 21
258.6549999999999
 31
0.0
  0
LINE
  5
299
330
1E
100
AcDbEntity
  8
0
  6
Continuous
 62
     3
100
AcDbLine
 10
182.375
 20
255.525
 30
0.0
 11
183.375
 21
255.525
 31
0.0
  0
LINE
  5
29A
330
1E
100
AcDbEntity
  8
0
  6
Continuous
 62
     3
100
AcDbLine
 10
182.375
 20
256.3999999999999
 30
0.0
 11
182.375
 21
254.4
 31
0.0
  0
LINE
  5
29B
330
1E
100
AcDbEntity
  8
0
  6
Continuous
 62
     3
100
AcDbLine
 10
194.375
 20
255.4
 30
0.0
 11
194.375
 21
254.4
 31
0.0
  0
LINE
  5
29C
330
1E
100
AcDbEntity
  8
0
  6
Continuous
 62
     3
100
AcDbLine
 10
194.375
 20
256.3999999999999
 30
0.0
 11
194.7949999999999
 21
256.3999999999999
 31
0.0
  0
LINE
  5
29D
330
1E
100
AcDbEntity
  8
0
  6
Continuous
 62
     3
100
AcDbLine
 10
195.375
 20
255.525
 30
0.0
 11
194.375
 21
255.525
 31
0.0
  0
LINE
  5
29E
330
1E
100
AcDbEntity
  8
0
  6
Continuous
 62
     3
100
AcDbLine
 10
195.375
 20
256.3999999999999
 30
0.0
 11
195.375
 21
254.4
 31
0.0
  0
LINE
  5
29F
330
1E
100
AcDbEntity
  8
0
  6
Continuous
 62
     3
100
AcDbLine
 10
201.8749999999999
 20
257.3999999999999
 30
0.0
 11
195.075
 21
257.3999999999999
 31
0.0
  0
LINE
  5
2A0
330
1E
100
AcDbEntity
  8
0
  6
Continuous
 62
     3
100
AcDbLine
 10
206.5749999999999
 20
258.3999999999999
 30
0.0
 11
206.5749999999999
 21
261.3999999999999
 31
0.0
  0
CIRCLE
  5
2A1
330
1E
100
AcDbEntity
  8
0
  6
Continuous
 62
     3
100
AcDbCircle
 10
178.1749749999999
 20
173.8499999999999
 30
0.0
 40
3.2
  0
CIRCLE
  5
2A2
330
1E
100
AcDbEntity
  8
0
  6
Continuous
 62
     3
100
AcDbCircle
 10
178.1749749999999
 20
173.8499999999999
 30
0.0
 40
3.0
  0
LINE
  5
2A3
330
1E
100
AcDbEntity
  8
0
  6
Continuous
 62
     3
100
AcDbLine
 10
177.674975
 20
175.8499999999999
 30
0.0
 11
177.674975
 21
174.35
 31
0.0
  0
LINE
  5
2A4
330
1E
100
AcDbEntity
  8
0
  6
Continuous
 62
     3
100
AcDbLine
 10
177.674975
 20
174.35
 30
0.0
 11
176.1749749999999
 21
174.35
 31
0.0
  0
LINE
  5
2A5
330
1E
100
AcDbEntity
  8
0
  6
Continuous
 62
     3
100
AcDbLine
 10
176.1749749999999
 20
174.35
 30
0.0
 11
176.1749749999999
 21
173.35
 31
0.0
  0
LINE
  5
2A6
330
1E
100
AcDbEntity
  8
0
  6
Continuous
 62
     3
100
AcDbLine
 10
176.1749749999999
 20
173.35
 30
0.0
 11
177.674975
 21
173.35
 31
0.0
  0
LINE
  5
2A7
330
1E
100
AcDbEntity
  8
0
  6
Continuous
 62
     3
100
AcDbLine
 10
177.674975
 20
173.35
 30
0.0
 11
177.674975
 21
171.8499999999999
 31
0.0
  0
LINE
  5
2A8
330
1E
100
AcDbEntity
  8
0
  6
Continuous
 62
     3
100
AcDbLine
 10
177.674975
 20
171.8499999999999
 30
0.0
 11
178.674975
 21
171.8499999999999
 31
0.0
  0
LINE
  5
2A9
330
1E
100
AcDbEntity
  8
0
  6
Continuous
 62
     3
100
AcDbLine
 10
178.674975
 20
171.8499999999999
 30
0.0
 11
178.674975
 21
173.35
 31
0.0
  0
LINE
  5
2AA
330
1E
100
AcDbEntity
  8
0
  6
Continuous
 62
     3
100
AcDbLine
 10
178.674975
 20
173.35
 30
0.0
 11
180.1749749999999
 21
173.35
 31
0.0
  0
LINE
  5
2AB
330
1E
100
AcDbEntity
  8
0
  6
Continuous
 62
     3
100
AcDbLine
 10
180.1749749999999
 20
173.35
 30
0.0
 11
180.1749749999999
 21
174.35
 31
0.0
  0
LINE
  5
2AC
330
1E
100
AcDbEntity
  8
0
  6
Continuous
 62
     3
100
AcDbLine
 10
180.1749749999999
 20
174.35
 30
0.0
 11
178.674975
 21
174.35
 31
0.0
  0
LINE
  5
2AD
330
1E
100
AcDbEntity
  8
0
  6
Continuous
 62
     3
100
AcDbLine
 10
178.674975
 20
174.35
 30
0.0
 11
178.674975
 21
175.8499999999999
 31
0.0
  0
LINE
  5
2AE
330
1E
100
AcDbEntity
  8
0
  6
Continuous
 62
     3
100
AcDbLine
 10
178.674975
 20
175.8499999999999
 30
0.0
 11
177.674975
 21
175.8499999999999
 31
0.0
  0
ARC
  5
2AF
330
1E
100
AcDbEntity
  8
0
  6
Continuous
 62
     3
100
AcDbCircle
 10
178.1749749999999
 20
173.8499999999999
 30
0.0
 40
6.0
100
AcDbArc
 50
29.925956334
 51
330.0740436659998
  0
LINE
  5
2B0
330
1E
100
AcDbEntity
  8
0
  6
Continuous
 62
     3
100
AcDbLine
 10
48.67499999999999
 20
108.8
 30
0.0
 11
48.67499999999999
 21
62.8
 31
0.0
  0
POINT
  5
2B1
330
1E
100
AcDbEntity
  8
0
  6
Continuous
 62
     3
100
AcDbPoint
 10
48.67499999999999
 20
62.8
 30
0.0
  0
LINE
  5
2B2
330
1E
100
AcDbEntity
  8
0
  6
Continuous
 62
     3
100
AcDbLine
 10
48.67499999999999
 20
62.8
 30
0.0
 11
142.675
 21
62.8
 31
0.0
  0
POINT
  5
2B3
330
1E
100
AcDbEntity
  8
0
  6
Continuous
 62
     3
100
AcDbPoint
 10
142.675
 20
62.8
 30
0.0
  0
LINE
  5
2B4
330
1E
100
AcDbEntity
  8
0
  6
Continuous
 62
     3
100
AcDbLine
 10
142.675
 20
62.8
 30
0.0
 11
142.675
 21
108.8
 31
0.0
  0
POINT
  5
2B5
330
1E
100
AcDbEntity
  8
0
  6
Continuous
 62
     3
100
AcDbPoint
 10
142.675
 20
108.8
 30
0.0
  0
LINE
  5
2B6
330
1E
100
AcDbEntity
  8
0
  6
Continuous
 62
     3
100
AcDbLine
 10
122.1749999999999
 20
108.8
 30
0.0
 11
116.175
 21
108.8
 31
0.0
  0
LINE
  5
2B7
330
1E
100
AcDbEntity
  8
0
  6
Continuous
 62
     3
100
AcDbLine
 10
142.675
 20
108.8
 30
0.0
 11
124.425
 21
108.8
 31
0.0
  0
LINE
  5
2B8
330
1E
100
AcDbEntity
  8
0
  6
Continuous
 62
     3
100
AcDbLine
 10
143.175
 20
61.79999999999999
 30
0.0
 11
95.675
 21
61.79999999999999
 31
0.0
  0
ARC
  5
2B9
330
1E
100
AcDbEntity
  8
0
  6
Continuous
 62
     3
100
AcDbCircle
 10
143.175
 20
62.3
 30
0.0
 40
0.5
100
AcDbArc
 50
270.0
 51
0.0
  0
LINE
  5
2BA
330
1E
100
AcDbEntity
  8
0
  6
Continuous
 62
     3
100
AcDbLine
 10
143.675
 20
109.2999999999999
 30
0.0
 11
143.675
 21
62.3
 31
0.0
  0
LINE
  5
2BB
330
1E
100
AcDbEntity
  8
0
  6
Continuous
 62
     3
100
AcDbLine
 10
123.1749999999999
 20
109.8
 30
0.0
 11
143.175
 21
109.8
 31
0.0
  0
ARC
  5
2BC
330
1E
100
AcDbEntity
  8
0
  6
Continuous
 62
     3
100
AcDbCircle
 10
143.175
 20
109.2999999999999
 30
0.0
 40
0.5
100
AcDbArc
 50
0.0
 51
90.0
  0
LINE
  5
2BD
330
1E
100
AcDbEntity
  8
0
  6
Continuous
 62
     3
100
AcDbLine
 10
95.675
 20
109.8
 30
0.0
 11
48.17499999999999
 21
109.8
 31
0.0
  0
ARC
  5
2BE
330
1E
100
AcDbEntity
  8
0
  6
Continuous
 62
     3
100
AcDbCircle
 10
48.17499999999999
 20
109.2999999999999
 30
0.0
 40
0.5
100
AcDbArc
 50
90.0
 51
180.0000000009999
  0
LINE
  5
2BF
330
1E
100
AcDbEntity
  8
0
  6
Continuous
 62
     3
100
AcDbLine
 10
48.17499999999999
 20
61.79999999999999
 30
0.0
 11
95.675
 21
61.79999999999999
 31
0.0
  0
LINE
  5
2C0
330
1E
100
AcDbEntity
  8
0
  6
Continuous
 62
     3
100
AcDbLine
 10
47.675
 20
109.2999999999999
 30
0.0
 11
47.675
 21
62.3
 31
0.0
  0
ARC
  5
2C1
330
1E
100
AcDbEntity
  8
0
  6
Continuous
 62
     3
100
AcDbCircle
 10
48.17499999999999
 20
62.3
 30
0.0
 40
0.5
100
AcDbArc
 50
180.0000000009999
 51
270.0
  0
LINE
  5
2C2
330
1E
100
AcDbEntity
  8
0
  6
Continuous
 62
     3
100
AcDbLine
 10
124.675
 20
108.8
 30
0.0
 11
48.67499999999999
 21
108.8
 31
0.0
  0
LINE
  5
2C3
330
1E
100
AcDbEntity
  8
0
  6
Continuous
 62
     3
100
AcDbLine
 10
95.675
 20
109.8
 30
0.0
 11
123.425
 21
109.8
 31
0.0
  0
POINT
  5
2C4
330
1E
100
AcDbEntity
  8
0
  6
Continuous
 62
     3
100
AcDbPoint
 10
77.863181818
 20
87.5
 30
0.0
  0
LINE
  5
2C5
330
1E
100
AcDbEntity
  8
0
  6
Continuous
 62
     3
100
AcDbLine
 10
77.150454545
 20
82.59999999999998
 30
0.0
 11
77.834090909
 21
87.3
 31
0.0
  0
LINE
  5
2C6
330
1E
100
AcDbEntity
  8
0
  6
Continuous
 62
     3
100
AcDbLine
 10
77.175
 20
82.55
 30
0.0
 11
77.97499999999998
 21
81.34999999999998
 31
0.0
  0
LINE
  5
2C7
330
1E
100
AcDbEntity
  8
0
  6
Continuous
 62
     3
100
AcDbLine
 10
77.675
 20
81.05
 30
0.0
 11
77.825
 21
81.17
 31
0.0
  0
LINE
  5
2C8
330
1E
100
AcDbEntity
  8
0
  6
Continuous
 62
     3
100
AcDbLine
 10
77.97499999999998
 20
81.29000000000003
 30
0.0
 11
78.17499999999999
 21
81.45000000000001
 31
0.0
  0
LINE
  5
2C9
330
1E
100
AcDbEntity
  8
0
  6
Continuous
 62
     3
100
AcDbLine
 10
77.675
 20
81.05
 30
0.0
 11
70.67499999999999
 21
81.05
 31
0.0
  0
LINE
  5
2CA
330
1E
100
AcDbEntity
  8
0
  6
Continuous
 62
     3
100
AcDbLine
 10
78.925
 20
87.9
 30
0.0
 11
79.125
 21
87.79999999999999
 31
0.0
  0
LINE
  5
2CB
330
1E
100
AcDbEntity
  8
0
  6
Continuous
 62
     3
100
AcDbLine
 10
78.97499999999998
 20
88.2
 30
0.0
 11
79.27500000000001
 21
88.40000000000001
 31
0.0
  0
LINE
  5
2CC
330
1E
100
AcDbEntity
  8
0
  6
Continuous
 62
     3
100
AcDbLine
 10
71.525
 20
88.15000000000003
 30
0.0
 11
71.27500000000002
 21
88.40000000000001
 31
0.0
  0
LINE
  5
2CD
330
1E
100
AcDbEntity
  8
0
  6
Continuous
 62
     3
100
AcDbLine
 10
72.47499999999998
 20
88.59999999999997
 30
0.0
 11
71.525
 21
88.21296296299999
 31
0.0
  0
LINE
  5
2CE
330
1E
100
AcDbEntity
  8
0
  6
Continuous
 62
     3
100
AcDbLine
 10
77.625
 20
88.55
 30
0.0
 11
78.575
 21
88.04999999999997
 31
0.0
  0
LINE
  5
2CF
330
1E
100
AcDbEntity
  8
0
  6
Continuous
 62
     3
100
AcDbLine
 10
78.575
 20
88.04999999999997
 30
0.0
 11
77.375
 21
87.4
 31
0.0
  0
LINE
  5
2D0
330
1E
100
AcDbEntity
  8
0
  6
Continuous
 62
     3
100
AcDbLine
 10
72.97499999999998
 20
88.59999999999997
 30
0.0
 11
71.77500000000001
 21
88.0
 31
0.0
  0
LINE
  5
2D1
330
1E
100
AcDbEntity
  8
0
  6
Continuous
 62
     3
100
AcDbLine
 10
72.575
 20
87.45
 30
0.0
 11
71.825
 21
87.9
 31
0.0
  0
LINE
  5
2D2
330
1E
100
AcDbEntity
  8
0
  6
Continuous
 62
     3
100
AcDbLine
 10
79.14954545499998
 20
87.75
 30
0.0
 11
78.24045454500001
 21
81.5
 31
0.0
  0
LINE
  5
2D3
330
1E
100
AcDbEntity
  8
0
  6
Continuous
 62
     3
100
AcDbLine
 10
78.97499999999998
 20
88.131818182
 30
0.0
 11
78.02500000000001
 21
88.65
 31
0.0
  0
LINE
  5
2D4
330
1E
100
AcDbEntity
  8
0
  6
Continuous
 62
     3
100
AcDbLine
 10
77.825
 20
87.34999999999997
 30
0.0
 11
78.925
 21
87.92200000000002
 31
0.0
  0
LINE
  5
2D5
330
1E
100
AcDbEntity
  8
0
  6
Continuous
 62
     3
100
AcDbLine
 10
76.97499999999998
 20
82.3
 30
0.0
 11
72.025
 21
82.3
 31
0.0
  0
LINE
  5
2D6
330
1E
100
AcDbEntity
  8
0
  6
Continuous
 62
     3
100
AcDbLine
 10
76.97499999999998
 20
82.34999999999997
 30
0.0
 11
77.775
 21
81.09999999999997
 31
0.0
  0
LINE
  5
2D7
330
1E
100
AcDbEntity
  8
0
  6
Continuous
 62
     3
100
AcDbLine
 10
72.025
 20
82.3
 30
0.0
 11
70.67499999999999
 21
81.09999999999997
 31
0.0
  0
LINE
  5
2D8
330
1E
100
AcDbEntity
  8
0
  6
Continuous
 62
     3
100
AcDbLine
 10
70.67499999999999
 20
81.05
 30
0.0
 11
70.67499999999999
 21
81.05
 31
0.0
  0
LINE
  5
2D9
330
1E
100
AcDbEntity
  8
0
  6
Continuous
 62
     3
100
AcDbLine
 10
72.625
 20
87.4
 30
0.0
 11
77.375
 21
87.4
 31
0.0
  0
LINE
  5
2DA
330
1E
100
AcDbEntity
  8
0
  6
Continuous
 62
     3
100
AcDbLine
 10
77.575
 20
88.65
 30
0.0
 11
73.02500000000001
 21
88.65
 31
0.0
  0
LINE
  5
2DB
330
1E
100
AcDbEntity
  8
0
  6
Continuous
 62
     3
100
AcDbLine
 10
73.475
 20
93.8
 30
0.0
 11
72.625
 21
94.8
 31
0.0
  0
LINE
  5
2DC
330
1E
100
AcDbEntity
  8
0
  6
Continuous
 62
     3
100
AcDbLine
 10
73.22499999999998
 20
93.75
 30
0.0
 11
72.42499999999998
 21
94.65000000000001
 31
0.0
  0
LINE
  5
2DD
330
1E
100
AcDbEntity
  8
0
  6
Continuous
 62
     3
100
AcDbLine
 10
78.525
 20
93.84999999999999
 30
0.0
 11
79.725
 21
94.84999999999999
 31
0.0
  0
LINE
  5
2DE
330
1E
100
AcDbEntity
  8
0
  6
Continuous
 62
     3
100
AcDbLine
 10
79.875
 20
94.65000000000001
 30
0.0
 11
78.72499999999998
 21
93.65
 31
0.0
  0
LINE
  5
2DF
330
1E
100
AcDbEntity
  8
0
  6
Continuous
 62
     3
100
AcDbLine
 10
80.087727273
 20
94.45
 30
0.0
 11
79.23681818199999
 21
88.34999999999999
 31
0.0
  0
LINE
  5
2E0
330
1E
100
AcDbEntity
  8
0
  6
Continuous
 62
     3
100
AcDbLine
 10
79.99318181799998
 20
94.59999999999999
 30
0.0
 11
80.075
 21
94.50000000000001
 31
0.0
  0
LINE
  5
2E1
330
1E
100
AcDbEntity
  8
0
  6
Continuous
 62
     3
100
AcDbLine
 10
79.625
 20
95.05
 30
0.0
 11
79.829545455
 21
94.8
 31
0.0
  0
LINE
  5
2E2
330
1E
100
AcDbEntity
  8
0
  6
Continuous
 62
     3
100
AcDbLine
 10
78.01590909099998
 20
88.55
 30
0.0
 11
78.72136363600001
 21
93.65
 31
0.0
  0
LINE
  5
2E3
330
1E
100
AcDbEntity
  8
0
  6
Continuous
 62
     3
100
AcDbLine
 10
73.24318181799998
 20
93.8
 30
0.0
 11
72.508636364
 21
88.49999999999999
 31
0.0
  0
LINE
  5
2E4
330
1E
100
AcDbEntity
  8
0
  6
Continuous
 62
     3
100
AcDbLine
 10
78.475
 20
93.8
 30
0.0
 11
73.375
 21
93.8
 31
0.0
  0
LINE
  5
2E5
330
1E
100
AcDbEntity
  8
0
  6
Continuous
 62
     3
100
AcDbLine
 10
71.26071428600001
 20
88.40000000000001
 30
0.0
 11
72.103571429
 21
94.55
 31
0.0
  0
LINE
  5
2E6
330
1E
100
AcDbEntity
  8
0
  6
Continuous
 62
     3
100
AcDbLine
 10
72.72499999999998
 20
95.05
 30
0.0
 11
79.675
 21
95.05
 31
0.0
  0
LINE
  5
2E7
330
1E
100
AcDbEntity
  8
0
  6
Continuous
 62
     3
100
AcDbLine
 10
72.72499999999998
 20
95.0
 30
0.0
 11
72.675
 21
94.965384615
 31
0.0
  0
LINE
  5
2E8
330
1E
100
AcDbEntity
  8
0
  6
Continuous
 62
     3
100
AcDbLine
 10
72.375
 20
94.75769230799999
 30
0.0
 11
72.075
 21
94.55
 31
0.0
  0
LINE
  5
2E9
330
1E
100
AcDbEntity
  8
0
  6
Continuous
 62
     3
100
AcDbLine
 10
72.625
 20
94.8
 30
0.0
 11
72.575
 21
94.84999999999999
 31
0.0
  0
LINE
  5
2EA
330
1E
100
AcDbEntity
  8
0
  6
Continuous
 62
     3
100
AcDbLine
 10
72.575
 20
94.84999999999999
 30
0.0
 11
72.675
 21
94.95
 31
0.0
  0
LINE
  5
2EB
330
1E
100
AcDbEntity
  8
0
  6
Continuous
 62
     3
100
AcDbLine
 10
72.42499999999998
 20
94.65000000000001
 30
0.0
 11
72.375
 21
94.74999999999999
 31
0.0
  0
POINT
  5
2EC
330
1E
100
AcDbEntity
  8
0
  6
Continuous
 62
     3
100
AcDbPoint
 10
65.363181818
 20
87.5
 30
0.0
  0
LINE
  5
2ED
330
1E
100
AcDbEntity
  8
0
  6
Continuous
 62
     3
100
AcDbLine
 10
64.650454545
 20
82.59999999999998
 30
0.0
 11
65.334090909
 21
87.3
 31
0.0
  0
LINE
  5
2EE
330
1E
100
AcDbEntity
  8
0
  6
Continuous
 62
     3
100
AcDbLine
 10
64.675
 20
82.55
 30
0.0
 11
65.47499999999999
 21
81.34999999999998
 31
0.0
  0
LINE
  5
2EF
330
1E
100
AcDbEntity
  8
0
  6
Continuous
 62
     3
100
AcDbLine
 10
65.175
 20
81.05
 30
0.0
 11
65.325
 21
81.17
 31
0.0
  0
LINE
  5
2F0
330
1E
100
AcDbEntity
  8
0
  6
Continuous
 62
     3
100
AcDbLine
 10
65.47499999999999
 20
81.29000000000003
 30
0.0
 11
65.67499999999999
 21
81.45000000000001
 31
0.0
  0
LINE
  5
2F1
330
1E
100
AcDbEntity
  8
0
  6
Continuous
 62
     3
100
AcDbLine
 10
66.425
 20
87.9
 30
0.0
 11
66.625
 21
87.79999999999999
 31
0.0
  0
LINE
  5
2F2
330
1E
100
AcDbEntity
  8
0
  6
Continuous
 62
     3
100
AcDbLine
 10
66.47499999999999
 20
88.2
 30
0.0
 11
66.77500000000001
 21
88.40000000000001
 31
0.0
  0
LINE
  5
2F3
330
1E
100
AcDbEntity
  8
0
  6
Continuous
 62
     3
100
AcDbLine
 10
59.02499999999999
 20
88.15000000000003
 30
0.0
 11
58.775
 21
88.40000000000001
 31
0.0
  0
LINE
  5
2F4
330
1E
100
AcDbEntity
  8
0
  6
Continuous
 62
     3
100
AcDbLine
 10
59.975
 20
88.59999999999997
 30
0.0
 11
59.02499999999999
 21
88.21296296299999
 31
0.0
  0
LINE
  5
2F5
330
1E
100
AcDbEntity
  8
0
  6
Continuous
 62
     3
100
AcDbLine
 10
65.125
 20
88.55
 30
0.0
 11
66.075
 21
88.04999999999997
 31
0.0
  0
LINE
  5
2F6
330
1E
100
AcDbEntity
  8
0
  6
Continuous
 62
     3
100
AcDbLine
 10
66.075
 20
88.04999999999997
 30
0.0
 11
64.875
 21
87.4
 31
0.0
  0
LINE
  5
2F7
330
1E
100
AcDbEntity
  8
0
  6
Continuous
 62
     3
100
AcDbLine
 10
60.475
 20
88.59999999999997
 30
0.0
 11
59.275
 21
88.0
 31
0.0
  0
LINE
  5
2F8
330
1E
100
AcDbEntity
  8
0
  6
Continuous
 62
     3
100
AcDbLine
 10
60.075
 20
87.45
 30
0.0
 11
59.325
 21
87.9
 31
0.0
  0
LINE
  5
2F9
330
1E
100
AcDbEntity
  8
0
  6
Continuous
 62
     3
100
AcDbLine
 10
66.64954545499999
 20
87.75
 30
0.0
 11
65.74045454500001
 21
81.5
 31
0.0
  0
LINE
  5
2FA
330
1E
100
AcDbEntity
  8
0
  6
Continuous
 62
     3
100
AcDbLine
 10
66.47499999999999
 20
88.131818182
 30
0.0
 11
65.52500000000001
 21
88.65
 31
0.0
  0
LINE
  5
2FB
330
1E
100
AcDbEntity
  8
0
  6
Continuous
 62
     3
100
AcDbLine
 10
65.325
 20
87.34999999999997
 30
0.0
 11
66.425
 21
87.92200000000002
 31
0.0
  0
LINE
  5
2FC
330
1E
100
AcDbEntity
  8
0
  6
Continuous
 62
     3
100
AcDbLine
 10
64.47499999999999
 20
82.3
 30
0.0
 11
59.525
 21
82.3
 31
0.0
  0
LINE
  5
2FD
330
1E
100
AcDbEntity
  8
0
  6
Continuous
 62
     3
100
AcDbLine
 10
64.47499999999999
 20
82.34999999999997
 30
0.0
 11
65.275
 21
81.09999999999997
 31
0.0
  0
LINE
  5
2FE
330
1E
100
AcDbEntity
  8
0
  6
Continuous
 62
     3
100
AcDbLine
 10
60.125
 20
87.4
 30
0.0
 11
64.875
 21
87.4
 31
0.0
  0
LINE
  5
2FF
330
1E
100
AcDbEntity
  8
0
  6
Continuous
 62
     3
100
AcDbLine
 10
65.075
 20
88.65
 30
0.0
 11
60.525
 21
88.65
 31
0.0
  0
LINE
  5
300
330
1E
100
AcDbEntity
  8
0
  6
Continuous
 62
     3
100
AcDbLine
 10
66.025
 20
93.84999999999999
 30
0.0
 11
67.225
 21
94.84999999999999
 31
0.0
  0
LINE
  5
301
330
1E
100
AcDbEntity
  8
0
  6
Continuous
 62
     3
100
AcDbLine
 10
67.375
 20
94.65000000000001
 30
0.0
 11
66.22499999999999
 21
93.65
 31
0.0
  0
LINE
  5
302
330
1E
100
AcDbEntity
  8
0
  6
Continuous
 62
     3
100
AcDbLine
 10
67.587727273
 20
94.45
 30
0.0
 11
66.73681818199999
 21
88.34999999999999
 31
0.0
  0
LINE
  5
303
330
1E
100
AcDbEntity
  8
0
  6
Continuous
 62
     3
100
AcDbLine
 10
67.49318181799999
 20
94.59999999999999
 30
0.0
 11
67.575
 21
94.50000000000001
 31
0.0
  0
LINE
  5
304
330
1E
100
AcDbEntity
  8
0
  6
Continuous
 62
     3
100
AcDbLine
 10
67.125
 20
95.05
 30
0.0
 11
67.329545455
 21
94.8
 31
0.0
  0
LINE
  5
305
330
1E
100
AcDbEntity
  8
0
  6
Continuous
 62
     3
100
AcDbLine
 10
65.51590909099999
 20
88.55
 30
0.0
 11
66.22136363600001
 21
93.65
 31
0.0
  0
LINE
  5
306
330
1E
100
AcDbEntity
  8
0
  6
Continuous
 62
     3
100
AcDbLine
 10
58.760714286
 20
88.40000000000001
 30
0.0
 11
59.603571429
 21
94.55
 31
0.0
  0
LINE
  5
307
330
1E
100
AcDbEntity
  8
0
  6
Continuous
 62
     3
100
AcDbLine
 10
65.975
 20
93.8
 30
0.0
 11
60.925
 21
93.8
 31
0.0
  0
LINE
  5
308
330
1E
100
AcDbEntity
  8
0
  6
Continuous
 62
     3
100
AcDbLine
 10
60.925
 20
93.8
 30
0.0
 11
59.92499999999999
 21
94.8
 31
0.0
  0
LINE
  5
309
330
1E
100
AcDbEntity
  8
0
  6
Continuous
 62
     3
100
AcDbLine
 10
60.67499999999999
 20
93.55
 30
0.0
 11
59.675
 21
94.55
 31
0.0
  0
LINE
  5
30A
330
1E
100
AcDbEntity
  8
0
  6
Continuous
 62
     3
100
AcDbLine
 10
60.708533448
 20
93.55
 30
0.0
 11
60.008636364
 21
88.49999999999999
 31
0.0
  0
LINE
  5
30B
330
1E
100
AcDbEntity
  8
0
  6
Continuous
 62
     3
100
AcDbLine
 10
60.175
 20
95.05
 30
0.0
 11
67.175
 21
95.05
 31
0.0
  0
LINE
  5
30C
330
1E
100
AcDbEntity
  8
0
  6
Continuous
 62
     3
100
AcDbLine
 10
59.92499999999999
 20
94.8
 30
0.0
 11
60.175
 21
95.05
 31
0.0
  0
LINE
  5
30D
330
1E
100
AcDbEntity
  8
0
  6
Continuous
 62
     3
100
AcDbLine
 10
59.55
 20
94.425
 30
0.0
 11
59.675
 21
94.55
 31
0.0
  0
LINE
  5
30E
330
1E
100
AcDbEntity
  8
0
  6
Continuous
 62
     3
100
AcDbLine
 10
65.175
 20
81.05
 30
0.0
 11
58.17499999999999
 21
81.05
 31
0.0
  0
LINE
  5
30F
330
1E
100
AcDbEntity
  8
0
  6
Continuous
 62
     3
100
AcDbLine
 10
59.525
 20
82.3
 30
0.0
 11
58.17499999999999
 21
81.09999999999997
 31
0.0
  0
POINT
  5
310
330
1E
100
AcDbEntity
  8
0
  6
Continuous
 62
     3
100
AcDbPoint
 10
102.8631818179998
 20
87.5
 30
0.0
  0
LINE
  5
311
330
1E
100
AcDbEntity
  8
0
  6
Continuous
 62
     3
100
AcDbLine
 10
102.150454545
 20
82.59999999999998
 30
0.0
 11
102.8340909089999
 21
87.3
 31
0.0
  0
LINE
  5
312
330
1E
100
AcDbEntity
  8
0
  6
Continuous
 62
     3
100
AcDbLine
 10
102.1749999999999
 20
82.55
 30
0.0
 11
102.9749999999999
 21
81.34999999999998
 31
0.0
  0
LINE
  5
313
330
1E
100
AcDbEntity
  8
0
  6
Continuous
 62
     3
100
AcDbLine
 10
102.675
 20
81.05
 30
0.0
 11
102.825
 21
81.17
 31
0.0
  0
LINE
  5
314
330
1E
100
AcDbEntity
  8
0
  6
Continuous
 62
     3
100
AcDbLine
 10
102.9749999999999
 20
81.29000000000003
 30
0.0
 11
103.1749999999999
 21
81.45000000000001
 31
0.0
  0
LINE
  5
315
330
1E
100
AcDbEntity
  8
0
  6
Continuous
 62
     3
100
AcDbLine
 10
102.675
 20
81.05
 30
0.0
 11
95.675
 21
81.05
 31
0.0
  0
LINE
  5
316
330
1E
100
AcDbEntity
  8
0
  6
Continuous
 62
     3
100
AcDbLine
 10
103.925
 20
87.9
 30
0.0
 11
104.125
 21
87.79999999999999
 31
0.0
  0
LINE
  5
317
330
1E
100
AcDbEntity
  8
0
  6
Continuous
 62
     3
100
AcDbLine
 10
103.9749999999999
 20
88.2
 30
0.0
 11
104.275
 21
88.40000000000001
 31
0.0
  0
LINE
  5
318
330
1E
100
AcDbEntity
  8
0
  6
Continuous
 62
     3
100
AcDbLine
 10
96.52500000000001
 20
88.15000000000003
 30
0.0
 11
96.27500000000001
 21
88.40000000000001
 31
0.0
  0
LINE
  5
319
330
1E
100
AcDbEntity
  8
0
  6
Continuous
 62
     3
100
AcDbLine
 10
97.475
 20
88.59999999999997
 30
0.0
 11
96.52500000000001
 21
88.21296296299999
 31
0.0
  0
LINE
  5
31A
330
1E
100
AcDbEntity
  8
0
  6
Continuous
 62
     3
100
AcDbLine
 10
102.625
 20
88.55
 30
0.0
 11
103.5749999999999
 21
88.04999999999997
 31
0.0
  0
LINE
  5
31B
330
1E
100
AcDbEntity
  8
0
  6
Continuous
 62
     3
100
AcDbLine
 10
103.5749999999999
 20
88.04999999999997
 30
0.0
 11
102.3749999999999
 21
87.4
 31
0.0
  0
LINE
  5
31C
330
1E
100
AcDbEntity
  8
0
  6
Continuous
 62
     3
100
AcDbLine
 10
97.97499999999999
 20
88.59999999999997
 30
0.0
 11
96.77500000000001
 21
88.0
 31
0.0
  0
LINE
  5
31D
330
1E
100
AcDbEntity
  8
0
  6
Continuous
 62
     3
100
AcDbLine
 10
97.575
 20
87.45
 30
0.0
 11
96.825
 21
87.9
 31
0.0
  0
LINE
  5
31E
330
1E
100
AcDbEntity
  8
0
  6
Continuous
 62
     3
100
AcDbLine
 10
104.1495454549999
 20
87.75
 30
0.0
 11
103.240454545
 21
81.5
 31
0.0
  0
LINE
  5
31F
330
1E
100
AcDbEntity
  8
0
  6
Continuous
 62
     3
100
AcDbLine
 10
103.9749999999999
 20
88.131818182
 30
0.0
 11
103.025
 21
88.65
 31
0.0
  0
LINE
  5
320
330
1E
100
AcDbEntity
  8
0
  6
Continuous
 62
     3
100
AcDbLine
 10
102.825
 20
87.34999999999997
 30
0.0
 11
103.925
 21
87.92200000000002
 31
0.0
  0
LINE
  5
321
330
1E
100
AcDbEntity
  8
0
  6
Continuous
 62
     3
100
AcDbLine
 10
101.9749999999999
 20
82.3
 30
0.0
 11
97.025
 21
82.3
 31
0.0
  0
LINE
  5
322
330
1E
100
AcDbEntity
  8
0
  6
Continuous
 62
     3
100
AcDbLine
 10
101.9749999999999
 20
82.34999999999997
 30
0.0
 11
102.775
 21
81.09999999999997
 31
0.0
  0
LINE
  5
323
330
1E
100
AcDbEntity
  8
0
  6
Continuous
 62
     3
100
AcDbLine
 10
97.025
 20
82.3
 30
0.0
 11
95.675
 21
81.09999999999997
 31
0.0
  0
LINE
  5
324
330
1E
100
AcDbEntity
  8
0
  6
Continuous
 62
     3
100
AcDbLine
 10
95.675
 20
81.05
 30
0.0
 11
95.675
 21
81.05
 31
0.0
  0
LINE
  5
325
330
1E
100
AcDbEntity
  8
0
  6
Continuous
 62
     3
100
AcDbLine
 10
97.62500000000001
 20
87.4
 30
0.0
 11
102.3749999999999
 21
87.4
 31
0.0
  0
LINE
  5
326
330
1E
100
AcDbEntity
  8
0
  6
Continuous
 62
     3
100
AcDbLine
 10
102.5749999999999
 20
88.65
 30
0.0
 11
98.02500000000001
 21
88.65
 31
0.0
  0
POINT
  5
327
330
1E
100
AcDbEntity
  8
0
  6
Continuous
 62
     3
100
AcDbPoint
 10
90.36318181799998
 20
87.5
 30
0.0
  0
LINE
  5
328
330
1E
100
AcDbEntity
  8
0
  6
Continuous
 62
     3
100
AcDbLine
 10
89.650454545
 20
82.59999999999998
 30
0.0
 11
90.33409090899999
 21
87.3
 31
0.0
  0
LINE
  5
329
330
1E
100
AcDbEntity
  8
0
  6
Continuous
 62
     3
100
AcDbLine
 10
89.67499999999999
 20
82.55
 30
0.0
 11
90.47499999999999
 21
81.34999999999998
 31
0.0
  0
LINE
  5
32A
330
1E
100
AcDbEntity
  8
0
  6
Continuous
 62
     3
100
AcDbLine
 10
90.175
 20
81.05
 30
0.0
 11
90.325
 21
81.17
 31
0.0
  0
LINE
  5
32B
330
1E
100
AcDbEntity
  8
0
  6
Continuous
 62
     3
100
AcDbLine
 10
90.47499999999999
 20
81.29000000000003
 30
0.0
 11
90.675
 21
81.45000000000001
 31
0.0
  0
LINE
  5
32C
330
1E
100
AcDbEntity
  8
0
  6
Continuous
 62
     3
100
AcDbLine
 10
90.175
 20
81.05
 30
0.0
 11
83.175
 21
81.05
 31
0.0
  0
LINE
  5
32D
330
1E
100
AcDbEntity
  8
0
  6
Continuous
 62
     3
100
AcDbLine
 10
91.425
 20
87.9
 30
0.0
 11
91.62499999999999
 21
87.79999999999999
 31
0.0
  0
LINE
  5
32E
330
1E
100
AcDbEntity
  8
0
  6
Continuous
 62
     3
100
AcDbLine
 10
91.47499999999999
 20
88.2
 30
0.0
 11
91.775
 21
88.40000000000001
 31
0.0
  0
LINE
  5
32F
330
1E
100
AcDbEntity
  8
0
  6
Continuous
 62
     3
100
AcDbLine
 10
84.02500000000001
 20
88.15000000000003
 30
0.0
 11
83.77500000000003
 21
88.40000000000001
 31
0.0
  0
LINE
  5
330
330
1E
100
AcDbEntity
  8
0
  6
Continuous
 62
     3
100
AcDbLine
 10
84.975
 20
88.59999999999997
 30
0.0
 11
84.02500000000001
 21
88.21296296299999
 31
0.0
  0
LINE
  5
331
330
1E
100
AcDbEntity
  8
0
  6
Continuous
 62
     3
100
AcDbLine
 10
90.12500000000001
 20
88.55
 30
0.0
 11
91.07499999999999
 21
88.04999999999997
 31
0.0
  0
LINE
  5
332
330
1E
100
AcDbEntity
  8
0
  6
Continuous
 62
     3
100
AcDbLine
 10
91.07499999999999
 20
88.04999999999997
 30
0.0
 11
89.875
 21
87.4
 31
0.0
  0
LINE
  5
333
330
1E
100
AcDbEntity
  8
0
  6
Continuous
 62
     3
100
AcDbLine
 10
85.47499999999997
 20
88.59999999999997
 30
0.0
 11
84.275
 21
88.0
 31
0.0
  0
LINE
  5
334
330
1E
100
AcDbEntity
  8
0
  6
Continuous
 62
     3
100
AcDbLine
 10
85.075
 20
87.45
 30
0.0
 11
84.325
 21
87.9
 31
0.0
  0
LINE
  5
335
330
1E
100
AcDbEntity
  8
0
  6
Continuous
 62
     3
100
AcDbLine
 10
91.649545455
 20
87.75
 30
0.0
 11
90.740454545
 21
81.5
 31
0.0
  0
LINE
  5
336
330
1E
100
AcDbEntity
  8
0
  6
Continuous
 62
     3
100
AcDbLine
 10
91.47499999999999
 20
88.131818182
 30
0.0
 11
90.525
 21
88.65
 31
0.0
  0
LINE
  5
337
330
1E
100
AcDbEntity
  8
0
  6
Continuous
 62
     3
100
AcDbLine
 10
90.325
 20
87.34999999999997
 30
0.0
 11
91.425
 21
87.92200000000002
 31
0.0
  0
LINE
  5
338
330
1E
100
AcDbEntity
  8
0
  6
Continuous
 62
     3
100
AcDbLine
 10
89.47499999999998
 20
82.3
 30
0.0
 11
84.525
 21
82.3
 31
0.0
  0
LINE
  5
339
330
1E
100
AcDbEntity
  8
0
  6
Continuous
 62
     3
100
AcDbLine
 10
89.47499999999998
 20
82.34999999999997
 30
0.0
 11
90.27500000000001
 21
81.09999999999997
 31
0.0
  0
LINE
  5
33A
330
1E
100
AcDbEntity
  8
0
  6
Continuous
 62
     3
100
AcDbLine
 10
84.525
 20
82.3
 30
0.0
 11
83.175
 21
81.09999999999997
 31
0.0
  0
LINE
  5
33B
330
1E
100
AcDbEntity
  8
0
  6
Continuous
 62
     3
100
AcDbLine
 10
83.175
 20
81.05
 30
0.0
 11
83.175
 21
81.05
 31
0.0
  0
LINE
  5
33C
330
1E
100
AcDbEntity
  8
0
  6
Continuous
 62
     3
100
AcDbLine
 10
85.12500000000001
 20
87.4
 30
0.0
 11
89.875
 21
87.4
 31
0.0
  0
LINE
  5
33D
330
1E
100
AcDbEntity
  8
0
  6
Continuous
 62
     3
100
AcDbLine
 10
90.075
 20
88.65
 30
0.0
 11
85.525
 21
88.65
 31
0.0
  0
LINE
  5
33E
330
1E
100
AcDbEntity
  8
0
  6
Continuous
 62
     3
100
AcDbLine
 10
98.475
 20
93.8
 30
0.0
 11
97.62500000000001
 21
94.8
 31
0.0
  0
LINE
  5
33F
330
1E
100
AcDbEntity
  8
0
  6
Continuous
 62
     3
100
AcDbLine
 10
98.22499999999999
 20
93.75
 30
0.0
 11
97.42499999999999
 21
94.65000000000001
 31
0.0
  0
LINE
  5
340
330
1E
100
AcDbEntity
  8
0
  6
Continuous
 62
     3
100
AcDbLine
 10
103.525
 20
93.84999999999999
 30
0.0
 11
104.725
 21
94.84999999999999
 31
0.0
  0
LINE
  5
341
330
1E
100
AcDbEntity
  8
0
  6
Continuous
 62
     3
100
AcDbLine
 10
104.875
 20
94.65000000000001
 30
0.0
 11
103.725
 21
93.65
 31
0.0
  0
LINE
  5
342
330
1E
100
AcDbEntity
  8
0
  6
Continuous
 62
     3
100
AcDbLine
 10
105.0877272729999
 20
94.45
 30
0.0
 11
104.236818182
 21
88.34999999999999
 31
0.0
  0
LINE
  5
343
330
1E
100
AcDbEntity
  8
0
  6
Continuous
 62
     3
100
AcDbLine
 10
104.9931818179999
 20
94.59999999999999
 30
0.0
 11
105.075
 21
94.50000000000001
 31
0.0
  0
LINE
  5
344
330
1E
100
AcDbEntity
  8
0
  6
Continuous
 62
     3
100
AcDbLine
 10
104.625
 20
95.05
 30
0.0
 11
104.829545455
 21
94.8
 31
0.0
  0
LINE
  5
345
330
1E
100
AcDbEntity
  8
0
  6
Continuous
 62
     3
100
AcDbLine
 10
103.015909091
 20
88.55
 30
0.0
 11
103.721363636
 21
93.65
 31
0.0
  0
LINE
  5
346
330
1E
100
AcDbEntity
  8
0
  6
Continuous
 62
     3
100
AcDbLine
 10
98.243181818
 20
93.8
 30
0.0
 11
97.508636364
 21
88.49999999999999
 31
0.0
  0
LINE
  5
347
330
1E
100
AcDbEntity
  8
0
  6
Continuous
 62
     3
100
AcDbLine
 10
103.475
 20
93.8
 30
0.0
 11
98.375
 21
93.8
 31
0.0
  0
LINE
  5
348
330
1E
100
AcDbEntity
  8
0
  6
Continuous
 62
     3
100
AcDbLine
 10
96.26071428600001
 20
88.40000000000001
 30
0.0
 11
97.10357142900001
 21
94.55
 31
0.0
  0
LINE
  5
349
330
1E
100
AcDbEntity
  8
0
  6
Continuous
 62
     3
100
AcDbLine
 10
97.725
 20
95.05
 30
0.0
 11
104.675
 21
95.05
 31
0.0
  0
LINE
  5
34A
330
1E
100
AcDbEntity
  8
0
  6
Continuous
 62
     3
100
AcDbLine
 10
97.725
 20
95.0
 30
0.0
 11
97.675
 21
94.965384615
 31
0.0
  0
LINE
  5
34B
330
1E
100
AcDbEntity
  8
0
  6
Continuous
 62
     3
100
AcDbLine
 10
97.375
 20
94.75769230799999
 30
0.0
 11
97.07500000000001
 21
94.55
 31
0.0
  0
LINE
  5
34C
330
1E
100
AcDbEntity
  8
0
  6
Continuous
 62
     3
100
AcDbLine
 10
97.62500000000001
 20
94.8
 30
0.0
 11
97.575
 21
94.84999999999999
 31
0.0
  0
LINE
  5
34D
330
1E
100
AcDbEntity
  8
0
  6
Continuous
 62
     3
100
AcDbLine
 10
97.575
 20
94.84999999999999
 30
0.0
 11
97.675
 21
94.95
 31
0.0
  0
LINE
  5
34E
330
1E
100
AcDbEntity
  8
0
  6
Continuous
 62
     3
100
AcDbLine
 10
97.42499999999999
 20
94.65000000000001
 30
0.0
 11
97.375
 21
94.74999999999999
 31
0.0
  0
LINE
  5
34F
330
1E
100
AcDbEntity
  8
0
  6
Continuous
 62
     3
100
AcDbLine
 10
85.975
 20
93.8
 30
0.0
 11
85.12500000000001
 21
94.8
 31
0.0
  0
LINE
  5
350
330
1E
100
AcDbEntity
  8
0
  6
Continuous
 62
     3
100
AcDbLine
 10
85.72499999999998
 20
93.75
 30
0.0
 11
84.92499999999997
 21
94.65000000000001
 31
0.0
  0
LINE
  5
351
330
1E
100
AcDbEntity
  8
0
  6
Continuous
 62
     3
100
AcDbLine
 10
91.025
 20
93.84999999999999
 30
0.0
 11
92.225
 21
94.84999999999999
 31
0.0
  0
LINE
  5
352
330
1E
100
AcDbEntity
  8
0
  6
Continuous
 62
     3
100
AcDbLine
 10
92.375
 20
94.65000000000001
 30
0.0
 11
91.225
 21
93.65
 31
0.0
  0
LINE
  5
353
330
1E
100
AcDbEntity
  8
0
  6
Continuous
 62
     3
100
AcDbLine
 10
92.587727273
 20
94.45
 30
0.0
 11
91.736818182
 21
88.34999999999999
 31
0.0
  0
LINE
  5
354
330
1E
100
AcDbEntity
  8
0
  6
Continuous
 62
     3
100
AcDbLine
 10
92.49318181799999
 20
94.59999999999999
 30
0.0
 11
92.575
 21
94.50000000000001
 31
0.0
  0
LINE
  5
355
330
1E
100
AcDbEntity
  8
0
  6
Continuous
 62
     3
100
AcDbLine
 10
92.125
 20
95.05
 30
0.0
 11
92.329545455
 21
94.8
 31
0.0
  0
LINE
  5
356
330
1E
100
AcDbEntity
  8
0
  6
Continuous
 62
     3
100
AcDbLine
 10
90.51590909099999
 20
88.55
 30
0.0
 11
91.22136363600001
 21
93.65
 31
0.0
  0
LINE
  5
357
330
1E
100
AcDbEntity
  8
0
  6
Continuous
 62
     3
100
AcDbLine
 10
85.743181818
 20
93.8
 30
0.0
 11
85.008636364
 21
88.49999999999999
 31
0.0
  0
LINE
  5
358
330
1E
100
AcDbEntity
  8
0
  6
Continuous
 62
     3
100
AcDbLine
 10
90.975
 20
93.8
 30
0.0
 11
85.875
 21
93.8
 31
0.0
  0
LINE
  5
359
330
1E
100
AcDbEntity
  8
0
  6
Continuous
 62
     3
100
AcDbLine
 10
83.76071428600001
 20
88.40000000000001
 30
0.0
 11
84.60357142899999
 21
94.55
 31
0.0
  0
LINE
  5
35A
330
1E
100
AcDbEntity
  8
0
  6
Continuous
 62
     3
100
AcDbLine
 10
85.22499999999999
 20
95.05
 30
0.0
 11
92.17499999999999
 21
95.05
 31
0.0
  0
LINE
  5
35B
330
1E
100
AcDbEntity
  8
0
  6
Continuous
 62
     3
100
AcDbLine
 10
85.22499999999999
 20
95.0
 30
0.0
 11
85.175
 21
94.965384615
 31
0.0
  0
LINE
  5
35C
330
1E
100
AcDbEntity
  8
0
  6
Continuous
 62
     3
100
AcDbLine
 10
84.875
 20
94.75769230799999
 30
0.0
 11
84.57500000000001
 21
94.55
 31
0.0
  0
LINE
  5
35D
330
1E
100
AcDbEntity
  8
0
  6
Continuous
 62
     3
100
AcDbLine
 10
85.12500000000001
 20
94.8
 30
0.0
 11
85.075
 21
94.84999999999999
 31
0.0
  0
LINE
  5
35E
330
1E
100
AcDbEntity
  8
0
  6
Continuous
 62
     3
100
AcDbLine
 10
85.075
 20
94.84999999999999
 30
0.0
 11
85.175
 21
94.95
 31
0.0
  0
LINE
  5
35F
330
1E
100
AcDbEntity
  8
0
  6
Continuous
 62
     3
100
AcDbLine
 10
84.92499999999997
 20
94.65000000000001
 30
0.0
 11
84.875
 21
94.74999999999999
 31
0.0
  0
POINT
  5
360
330
1E
100
AcDbEntity
  8
0
  6
Continuous
 62
     3
100
AcDbPoint
 10
110.975
 20
92.05
 30
0.0
  0
POINT
  5
361
330
1E
100
AcDbEntity
  8
0
  6
Continuous
 62
     3
100
AcDbPoint
 10
114.4749999999999
 20
100.0499999999999
 30
0.0
  0
LINE
  5
362
330
1E
100
AcDbEntity
  8
0
  6
Continuous
 62
     3
100
AcDbLine
 10
112.7249999999999
 20
96.4
 30
0.0
 11
111.575
 21
96.4
 31
0.0
  0
LINE
  5
363
330
1E
100
AcDbEntity
  8
0
  6
Continuous
 62
     3
100
AcDbLine
 10
111.525
 20
95.65000000000001
 30
0.0
 11
114.0249999999999
 21
95.65000000000001
 31
0.0
  0
LINE
  5
364
330
1E
100
AcDbEntity
  8
0
  6
Continuous
 62
     3
100
AcDbLine
 10
114.325
 20
99.29999999999999
 30
0.0
 11
114.8249999999999
 21
99.90000000000001
 31
0.0
  0
LINE
  5
365
330
1E
100
AcDbEntity
  8
0
  6
Continuous
 62
     3
100
AcDbLine
 10
115.0249999999999
 20
99.84999999999999
 30
0.0
 11
114.4249999999999
 21
99.1
 31
0.0
  0
LINE
  5
366
330
1E
100
AcDbEntity
  8
0
  6
Continuous
 62
     3
100
AcDbLine
 10
111.975
 20
99.35
 30
0.0
 11
111.525
 21
99.90000000000001
 31
0.0
  0
LINE
  5
367
330
1E
100
AcDbEntity
  8
0
  6
Continuous
 62
     3
100
AcDbLine
 10
111.875
 20
99.15
 30
0.0
 11
111.375
 21
99.8
 31
0.0
  0
LINE
  5
368
330
1E
100
AcDbEntity
  8
0
  6
Continuous
 62
     3
100
AcDbLine
 10
114.0249999999999
 20
96.5
 30
0.0
 11
114.6749999999999
 21
96.0
 31
0.0
  0
LINE
  5
369
330
1E
100
AcDbEntity
  8
0
  6
Continuous
 62
     3
100
AcDbLine
 10
113.975
 20
96.34999999999999
 30
0.0
 11
114.6249999999999
 21
95.84999999999999
 31
0.0
  0
LINE
  5
36A
330
1E
100
AcDbEntity
  8
0
  6
Continuous
 62
     3
100
AcDbLine
 10
114.6249999999999
 20
95.84999999999999
 30
0.0
 11
113.925
 21
95.65000000000001
 31
0.0
  0
LINE
  5
36B
330
1E
100
AcDbEntity
  8
0
  6
Continuous
 62
     3
100
AcDbLine
 10
113.925
 20
95.5
 30
0.0
 11
114.6749999999999
 21
95.7
 31
0.0
  0
LINE
  5
36C
330
1E
100
AcDbEntity
  8
0
  6
Continuous
 62
     3
100
AcDbLine
 10
111.525
 20
96.4
 30
0.0
 11
110.875
 21
96.09999999999999
 31
0.0
  0
LINE
  5
36D
330
1E
100
AcDbEntity
  8
0
  6
Continuous
 62
     3
100
AcDbLine
 10
110.875
 20
96.09999999999999
 30
0.0
 11
111.4749999999999
 21
95.65000000000001
 31
0.0
  0
LINE
  5
36E
330
1E
100
AcDbEntity
  8
0
  6
Continuous
 62
     3
100
AcDbLine
 10
110.775
 20
96.2
 30
0.0
 11
111.525
 21
96.6
 31
0.0
  0
LINE
  5
36F
330
1E
100
AcDbEntity
  8
0
  6
Continuous
 62
     3
100
AcDbLine
 10
113.575
 20
92.9
 30
0.0
 11
114.125
 21
92.34999999999999
 31
0.0
  0
LINE
  5
370
330
1E
100
AcDbEntity
  8
0
  6
Continuous
 62
     3
100
AcDbLine
 10
113.4749999999999
 20
92.79999999999999
 30
0.0
 11
114.0249999999999
 21
92.24999999999999
 31
0.0
  0
LINE
  5
371
330
1E
100
AcDbEntity
  8
0
  6
Continuous
 62
     3
100
AcDbLine
 10
110.441666667
 20
92.24999999999999
 30
0.0
 11
110.575
 21
92.05
 31
0.0
  0
LINE
  5
372
330
1E
100
AcDbEntity
  8
0
  6
Continuous
 62
     3
100
AcDbLine
 10
113.4749999999999
 20
92.79999999999999
 30
0.0
 11
111.075
 21
92.79999999999999
 31
0.0
  0
LINE
  5
373
330
1E
100
AcDbEntity
  8
0
  6
Continuous
 62
     3
100
AcDbLine
 10
114.125
 20
92.322222222
 30
0.0
 11
114.2249999999999
 21
92.4
 31
0.0
  0
LINE
  5
374
330
1E
100
AcDbEntity
  8
0
  6
Continuous
 62
     3
100
AcDbLine
 10
113.775
 20
92.05
 30
0.0
 11
114.0249999999999
 21
92.24444444399999
 31
0.0
  0
LINE
  5
375
330
1E
100
AcDbEntity
  8
0
  6
Continuous
 62
     3
100
AcDbLine
 10
113.775
 20
92.05
 30
0.0
 11
110.525
 21
92.05
 31
0.0
  0
LINE
  5
376
330
1E
100
AcDbEntity
  8
0
  6
Continuous
 62
     3
100
AcDbLine
 10
114.6796874999999
 20
95.68749999999999
 30
0.0
 11
114.2671875
 21
92.38750000000001
 31
0.0
  0
LINE
  5
377
330
1E
100
AcDbEntity
  8
0
  6
Continuous
 62
     3
100
AcDbLine
 10
113.8984374999999
 20
95.43750000000001
 30
0.0
 11
113.5859375
 21
92.93750000000001
 31
0.0
  0
LINE
  5
378
330
1E
100
AcDbEntity
  8
0
  6
Continuous
 62
     3
100
AcDbLine
 10
113.925
 20
96.4
 30
0.0
 11
112.775
 21
96.4
 31
0.0
  0
LINE
  5
379
330
1E
100
AcDbEntity
  8
0
  6
Continuous
 62
     3
100
AcDbLine
 10
111.5546874999999
 20
96.68750000000001
 30
0.0
 11
111.8609375
 21
99.1375
 31
0.0
  0
LINE
  5
37A
330
1E
100
AcDbEntity
  8
0
  6
Continuous
 62
     3
100
AcDbLine
 10
111.325
 20
99.785714286
 30
0.0
 11
111.2249999999999
 21
99.7
 31
0.0
  0
LINE
  5
37B
330
1E
100
AcDbEntity
  8
0
  6
Continuous
 62
     3
100
AcDbLine
 10
111.575
 20
100.0
 30
0.0
 11
111.525
 21
99.95714285700001
 31
0.0
  0
LINE
  5
37C
330
1E
100
AcDbEntity
  8
0
  6
Continuous
 62
     3
100
AcDbLine
 10
110.7421875
 20
96.1875
 30
0.0
 11
111.1734375
 21
99.6375
 31
0.0
  0
LINE
  5
37D
330
1E
100
AcDbEntity
  8
0
  6
Continuous
 62
     3
100
AcDbLine
 10
112.025
 20
99.29999999999999
 30
0.0
 11
114.375
 21
99.29999999999999
 31
0.0
  0
LINE
  5
37E
330
1E
100
AcDbEntity
  8
0
  6
Continuous
 62
     3
100
AcDbLine
 10
114.3484375
 20
99.0375
 30
0.0
 11
114.0296874999999
 21
96.48749999999999
 31
0.0
  0
LINE
  5
37F
330
1E
100
AcDbEntity
  8
0
  6
Continuous
 62
     3
100
AcDbLine
 10
115.075
 20
99.85714285700002
 30
0.0
 11
115.175
 21
99.8
 31
0.0
  0
LINE
  5
380
330
1E
100
AcDbEntity
  8
0
  6
Continuous
 62
     3
100
AcDbLine
 10
114.8249999999999
 20
100.0
 30
0.0
 11
114.8749999999999
 21
99.97142857100001
 31
0.0
  0
LINE
  5
381
330
1E
100
AcDbEntity
  8
0
  6
Continuous
 62
     3
100
AcDbLine
 10
111.6249999999999
 20
100.0499999999999
 30
0.0
 11
114.775
 21
100.0499999999999
 31
0.0
  0
LINE
  5
382
330
1E
100
AcDbEntity
  8
0
  6
Continuous
 62
     3
100
AcDbLine
 10
115.2249999999999
 20
99.8
 30
0.0
 11
114.7249999999999
 21
96.05
 31
0.0
  0
POINT
  5
383
330
1E
100
AcDbEntity
  8
0
  6
Continuous
 62
     3
100
AcDbPoint
 10
118.1
 20
92.05
 30
0.0
  0
POINT
  5
384
330
1E
100
AcDbEntity
  8
0
  6
Continuous
 62
     3
100
AcDbPoint
 10
121.5999999999999
 20
100.0499999999999
 30
0.0
  0
LINE
  5
385
330
1E
100
AcDbEntity
  8
0
  6
Continuous
 62
     3
100
AcDbLine
 10
119.8499999999999
 20
96.4
 30
0.0
 11
118.7
 21
96.4
 31
0.0
  0
LINE
  5
386
330
1E
100
AcDbEntity
  8
0
  6
Continuous
 62
     3
100
AcDbLine
 10
118.65
 20
95.65000000000001
 30
0.0
 11
121.15
 21
95.65000000000001
 31
0.0
  0
LINE
  5
387
330
1E
100
AcDbEntity
  8
0
  6
Continuous
 62
     3
100
AcDbLine
 10
121.45
 20
99.29999999999999
 30
0.0
 11
121.95
 21
99.90000000000001
 31
0.0
  0
LINE
  5
388
330
1E
100
AcDbEntity
  8
0
  6
Continuous
 62
     3
100
AcDbLine
 10
122.15
 20
99.84999999999999
 30
0.0
 11
121.55
 21
99.1
 31
0.0
  0
LINE
  5
389
330
1E
100
AcDbEntity
  8
0
  6
Continuous
 62
     3
100
AcDbLine
 10
119.1
 20
99.35
 30
0.0
 11
118.65
 21
99.90000000000001
 31
0.0
  0
LINE
  5
38A
330
1E
100
AcDbEntity
  8
0
  6
Continuous
 62
     3
100
AcDbLine
 10
119.0
 20
99.15
 30
0.0
 11
118.5
 21
99.8
 31
0.0
  0
LINE
  5
38B
330
1E
100
AcDbEntity
  8
0
  6
Continuous
 62
     3
100
AcDbLine
 10
121.15
 20
96.5
 30
0.0
 11
121.7999999999999
 21
96.0
 31
0.0
  0
LINE
  5
38C
330
1E
100
AcDbEntity
  8
0
  6
Continuous
 62
     3
100
AcDbLine
 10
121.1
 20
96.34999999999999
 30
0.0
 11
121.75
 21
95.84999999999999
 31
0.0
  0
LINE
  5
38D
330
1E
100
AcDbEntity
  8
0
  6
Continuous
 62
     3
100
AcDbLine
 10
121.75
 20
95.84999999999999
 30
0.0
 11
121.0499999999999
 21
95.65000000000001
 31
0.0
  0
LINE
  5
38E
330
1E
100
AcDbEntity
  8
0
  6
Continuous
 62
     3
100
AcDbLine
 10
121.0499999999999
 20
95.5
 30
0.0
 11
121.7999999999999
 21
95.7
 31
0.0
  0
LINE
  5
38F
330
1E
100
AcDbEntity
  8
0
  6
Continuous
 62
     3
100
AcDbLine
 10
118.65
 20
96.4
 30
0.0
 11
118.0
 21
96.09999999999999
 31
0.0
  0
LINE
  5
390
330
1E
100
AcDbEntity
  8
0
  6
Continuous
 62
     3
100
AcDbLine
 10
118.0
 20
96.09999999999999
 30
0.0
 11
118.5999999999999
 21
95.65000000000001
 31
0.0
  0
LINE
  5
391
330
1E
100
AcDbEntity
  8
0
  6
Continuous
 62
     3
100
AcDbLine
 10
117.9
 20
96.2
 30
0.0
 11
118.65
 21
96.6
 31
0.0
  0
LINE
  5
392
330
1E
100
AcDbEntity
  8
0
  6
Continuous
 62
     3
100
AcDbLine
 10
120.7
 20
92.9
 30
0.0
 11
121.25
 21
92.34999999999999
 31
0.0
  0
LINE
  5
393
330
1E
100
AcDbEntity
  8
0
  6
Continuous
 62
     3
100
AcDbLine
 10
120.5999999999999
 20
92.79999999999999
 30
0.0
 11
121.15
 21
92.24999999999999
 31
0.0
  0
LINE
  5
394
330
1E
100
AcDbEntity
  8
0
  6
Continuous
 62
     3
100
AcDbLine
 10
117.5999999999999
 20
92.3
 30
0.0
 11
118.2
 21
92.75
 31
0.0
  0
LINE
  5
395
330
1E
100
AcDbEntity
  8
0
  6
Continuous
 62
     3
100
AcDbLine
 10
117.566666667
 20
92.24999999999999
 30
0.0
 11
117.7
 21
92.05
 31
0.0
  0
LINE
  5
396
330
1E
100
AcDbEntity
  8
0
  6
Continuous
 62
     3
100
AcDbLine
 10
120.5999999999999
 20
92.79999999999999
 30
0.0
 11
118.2
 21
92.79999999999999
 31
0.0
  0
LINE
  5
397
330
1E
100
AcDbEntity
  8
0
  6
Continuous
 62
     3
100
AcDbLine
 10
121.25
 20
92.322222222
 30
0.0
 11
121.35
 21
92.4
 31
0.0
  0
LINE
  5
398
330
1E
100
AcDbEntity
  8
0
  6
Continuous
 62
     3
100
AcDbLine
 10
120.9
 20
92.05
 30
0.0
 11
121.15
 21
92.24444444399999
 31
0.0
  0
LINE
  5
399
330
1E
100
AcDbEntity
  8
0
  6
Continuous
 62
     3
100
AcDbLine
 10
120.9
 20
92.05
 30
0.0
 11
117.65
 21
92.05
 31
0.0
  0
LINE
  5
39A
330
1E
100
AcDbEntity
  8
0
  6
Continuous
 62
     3
100
AcDbLine
 10
121.8046874999999
 20
95.68749999999999
 30
0.0
 11
121.3921875
 21
92.38750000000001
 31
0.0
  0
LINE
  5
39B
330
1E
100
AcDbEntity
  8
0
  6
Continuous
 62
     3
100
AcDbLine
 10
121.0234374999999
 20
95.43750000000001
 30
0.0
 11
120.7109374999999
 21
92.93750000000001
 31
0.0
  0
LINE
  5
39C
330
1E
100
AcDbEntity
  8
0
  6
Continuous
 62
     3
100
AcDbLine
 10
121.0499999999999
 20
96.4
 30
0.0
 11
119.9
 21
96.4
 31
0.0
  0
LINE
  5
39D
330
1E
100
AcDbEntity
  8
0
  6
Continuous
 62
     3
100
AcDbLine
 10
118.6796874999999
 20
96.68750000000001
 30
0.0
 11
118.9859375
 21
99.1375
 31
0.0
  0
LINE
  5
39E
330
1E
100
AcDbEntity
  8
0
  6
Continuous
 62
     3
100
AcDbLine
 10
118.45
 20
99.785714286
 30
0.0
 11
118.3499999999999
 21
99.7
 31
0.0
  0
LINE
  5
39F
330
1E
100
AcDbEntity
  8
0
  6
Continuous
 62
     3
100
AcDbLine
 10
118.7
 20
100.0
 30
0.0
 11
118.65
 21
99.95714285700001
 31
0.0
  0
LINE
  5
3A0
330
1E
100
AcDbEntity
  8
0
  6
Continuous
 62
     3
100
AcDbLine
 10
117.8671875
 20
96.1875
 30
0.0
 11
118.2984374999999
 21
99.6375
 31
0.0
  0
LINE
  5
3A1
330
1E
100
AcDbEntity
  8
0
  6
Continuous
 62
     3
100
AcDbLine
 10
119.15
 20
99.29999999999999
 30
0.0
 11
121.5
 21
99.29999999999999
 31
0.0
  0
LINE
  5
3A2
330
1E
100
AcDbEntity
  8
0
  6
Continuous
 62
     3
100
AcDbLine
 10
121.4734375
 20
99.0375
 30
0.0
 11
121.1546875
 21
96.48749999999999
 31
0.0
  0
LINE
  5
3A3
330
1E
100
AcDbEntity
  8
0
  6
Continuous
 62
     3
100
AcDbLine
 10
122.1999999999999
 20
99.85714285700002
 30
0.0
 11
122.3
 21
99.8
 31
0.0
  0
LINE
  5
3A4
330
1E
100
AcDbEntity
  8
0
  6
Continuous
 62
     3
100
AcDbLine
 10
121.95
 20
100.0
 30
0.0
 11
122.0
 21
99.97142857100001
 31
0.0
  0
LINE
  5
3A5
330
1E
100
AcDbEntity
  8
0
  6
Continuous
 62
     3
100
AcDbLine
 10
118.75
 20
100.0499999999999
 30
0.0
 11
121.9
 21
100.0499999999999
 31
0.0
  0
LINE
  5
3A6
330
1E
100
AcDbEntity
  8
0
  6
Continuous
 62
     3
100
AcDbLine
 10
122.3171875
 20
99.78749999999999
 30
0.0
 11
121.8421874999999
 21
95.9875
 31
0.0
  0
POINT
  5
3A7
330
1E
100
AcDbEntity
  8
0
  6
Continuous
 62
     3
100
AcDbPoint
 10
125.2249999999999
 20
92.05
 30
0.0
  0
POINT
  5
3A8
330
1E
100
AcDbEntity
  8
0
  6
Continuous
 62
     3
100
AcDbPoint
 10
128.725
 20
100.0499999999999
 30
0.0
  0
LINE
  5
3A9
330
1E
100
AcDbEntity
  8
0
  6
Continuous
 62
     3
100
AcDbLine
 10
126.9749999999999
 20
96.4
 30
0.0
 11
125.825
 21
96.4
 31
0.0
  0
LINE
  5
3AA
330
1E
100
AcDbEntity
  8
0
  6
Continuous
 62
     3
100
AcDbLine
 10
125.775
 20
95.65000000000001
 30
0.0
 11
128.275
 21
95.65000000000001
 31
0.0
  0
LINE
  5
3AB
330
1E
100
AcDbEntity
  8
0
  6
Continuous
 62
     3
100
AcDbLine
 10
128.5749999999999
 20
99.29999999999999
 30
0.0
 11
129.0749999999997
 21
99.90000000000001
 31
0.0
  0
LINE
  5
3AC
330
1E
100
AcDbEntity
  8
0
  6
Continuous
 62
     3
100
AcDbLine
 10
129.275
 20
99.84999999999999
 30
0.0
 11
128.675
 21
99.1
 31
0.0
  0
LINE
  5
3AD
330
1E
100
AcDbEntity
  8
0
  6
Continuous
 62
     3
100
AcDbLine
 10
126.2249999999999
 20
99.35
 30
0.0
 11
125.775
 21
99.90000000000001
 31
0.0
  0
LINE
  5
3AE
330
1E
100
AcDbEntity
  8
0
  6
Continuous
 62
     3
100
AcDbLine
 10
126.1249999999999
 20
99.15
 30
0.0
 11
125.625
 21
99.8
 31
0.0
  0
LINE
  5
3AF
330
1E
100
AcDbEntity
  8
0
  6
Continuous
 62
     3
100
AcDbLine
 10
128.275
 20
96.5
 30
0.0
 11
128.925
 21
96.0
 31
0.0
  0
LINE
  5
3B0
330
1E
100
AcDbEntity
  8
0
  6
Continuous
 62
     3
100
AcDbLine
 10
128.2249999999999
 20
96.34999999999999
 30
0.0
 11
128.875
 21
95.84999999999999
 31
0.0
  0
LINE
  5
3B1
330
1E
100
AcDbEntity
  8
0
  6
Continuous
 62
     3
100
AcDbLine
 10
128.875
 20
95.84999999999999
 30
0.0
 11
128.175
 21
95.65000000000001
 31
0.0
  0
LINE
  5
3B2
330
1E
100
AcDbEntity
  8
0
  6
Continuous
 62
     3
100
AcDbLine
 10
128.175
 20
95.5
 30
0.0
 11
128.925
 21
95.7
 31
0.0
  0
LINE
  5
3B3
330
1E
100
AcDbEntity
  8
0
  6
Continuous
 62
     3
100
AcDbLine
 10
125.775
 20
96.4
 30
0.0
 11
125.1249999999999
 21
96.09999999999999
 31
0.0
  0
LINE
  5
3B4
330
1E
100
AcDbEntity
  8
0
  6
Continuous
 62
     3
100
AcDbLine
 10
125.025
 20
96.2
 30
0.0
 11
125.775
 21
96.6
 31
0.0
  0
LINE
  5
3B5
330
1E
100
AcDbEntity
  8
0
  6
Continuous
 62
     3
100
AcDbLine
 10
127.825
 20
92.9
 30
0.0
 11
128.3749999999999
 21
92.34999999999999
 31
0.0
  0
LINE
  5
3B6
330
1E
100
AcDbEntity
  8
0
  6
Continuous
 62
     3
100
AcDbLine
 10
127.7249999999999
 20
92.79999999999999
 30
0.0
 11
128.275
 21
92.24999999999999
 31
0.0
  0
LINE
  5
3B7
330
1E
100
AcDbEntity
  8
0
  6
Continuous
 62
     3
100
AcDbLine
 10
124.7249999999999
 20
92.3
 30
0.0
 11
125.3249999999999
 21
92.75
 31
0.0
  0
LINE
  5
3B8
330
1E
100
AcDbEntity
  8
0
  6
Continuous
 62
     3
100
AcDbLine
 10
124.691666667
 20
92.24999999999999
 30
0.0
 11
124.825
 21
92.05
 31
0.0
  0
LINE
  5
3B9
330
1E
100
AcDbEntity
  8
0
  6
Continuous
 62
     3
100
AcDbLine
 10
127.7249999999999
 20
92.79999999999999
 30
0.0
 11
125.3249999999999
 21
92.79999999999999
 31
0.0
  0
LINE
  5
3BA
330
1E
100
AcDbEntity
  8
0
  6
Continuous
 62
     3
100
AcDbLine
 10
128.3749999999999
 20
92.322222222
 30
0.0
 11
128.475
 21
92.4
 31
0.0
  0
LINE
  5
3BB
330
1E
100
AcDbEntity
  8
0
  6
Continuous
 62
     3
100
AcDbLine
 10
128.025
 20
92.05
 30
0.0
 11
128.275
 21
92.24444444399999
 31
0.0
  0
LINE
  5
3BC
330
1E
100
AcDbEntity
  8
0
  6
Continuous
 62
     3
100
AcDbLine
 10
128.025
 20
92.05
 30
0.0
 11
124.775
 21
92.05
 31
0.0
  0
LINE
  5
3BD
330
1E
100
AcDbEntity
  8
0
  6
Continuous
 62
     3
100
AcDbLine
 10
128.9296875
 20
95.68749999999999
 30
0.0
 11
128.5171875
 21
92.38750000000001
 31
0.0
  0
LINE
  5
3BE
330
1E
100
AcDbEntity
  8
0
  6
Continuous
 62
     3
100
AcDbLine
 10
128.1484375
 20
95.43750000000001
 30
0.0
 11
127.8359374999999
 21
92.93750000000001
 31
0.0
  0
LINE
  5
3BF
330
1E
100
AcDbEntity
  8
0
  6
Continuous
 62
     3
100
AcDbLine
 10
128.175
 20
96.4
 30
0.0
 11
127.025
 21
96.4
 31
0.0
  0
LINE
  5
3C0
330
1E
100
AcDbEntity
  8
0
  6
Continuous
 62
     3
100
AcDbLine
 10
125.8046875
 20
96.68750000000001
 30
0.0
 11
126.1109374999999
 21
99.1375
 31
0.0
  0
LINE
  5
3C1
330
1E
100
AcDbEntity
  8
0
  6
Continuous
 62
     3
100
AcDbLine
 10
125.575
 20
99.785714286
 30
0.0
 11
125.475
 21
99.7
 31
0.0
  0
LINE
  5
3C2
330
1E
100
AcDbEntity
  8
0
  6
Continuous
 62
     3
100
AcDbLine
 10
125.825
 20
100.0
 30
0.0
 11
125.775
 21
99.95714285700001
 31
0.0
  0
LINE
  5
3C3
330
1E
100
AcDbEntity
  8
0
  6
Continuous
 62
     3
100
AcDbLine
 10
124.9921875
 20
96.1875
 30
0.0
 11
125.4234375
 21
99.6375
 31
0.0
  0
LINE
  5
3C4
330
1E
100
AcDbEntity
  8
0
  6
Continuous
 62
     3
100
AcDbLine
 10
126.275
 20
99.29999999999999
 30
0.0
 11
128.625
 21
99.29999999999999
 31
0.0
  0
LINE
  5
3C5
330
1E
100
AcDbEntity
  8
0
  6
Continuous
 62
     3
100
AcDbLine
 10
128.5984374999999
 20
99.0375
 30
0.0
 11
128.2796875
 21
96.48749999999999
 31
0.0
  0
LINE
  5
3C6
330
1E
100
AcDbEntity
  8
0
  6
Continuous
 62
     3
100
AcDbLine
 10
129.325
 20
99.85714285700002
 30
0.0
 11
129.425
 21
99.8
 31
0.0
  0
LINE
  5
3C7
330
1E
100
AcDbEntity
  8
0
  6
Continuous
 62
     3
100
AcDbLine
 10
129.0749999999997
 20
100.0
 30
0.0
 11
129.125
 21
99.97142857100001
 31
0.0
  0
LINE
  5
3C8
330
1E
100
AcDbEntity
  8
0
  6
Continuous
 62
     3
100
AcDbLine
 10
125.875
 20
100.0499999999999
 30
0.0
 11
129.025
 21
100.0499999999999
 31
0.0
  0
LINE
  5
3C9
330
1E
100
AcDbEntity
  8
0
  6
Continuous
 62
     3
100
AcDbLine
 10
129.475
 20
99.8
 30
0.0
 11
128.9749999999999
 21
96.05
 31
0.0
  0
POINT
  5
3CA
330
1E
100
AcDbEntity
  8
0
  6
Continuous
 62
     3
100
AcDbPoint
 10
132.3499999999999
 20
92.05
 30
0.0
  0
POINT
  5
3CB
330
1E
100
AcDbEntity
  8
0
  6
Continuous
 62
     3
100
AcDbPoint
 10
135.85
 20
100.0499999999999
 30
0.0
  0
LINE
  5
3CC
330
1E
100
AcDbEntity
  8
0
  6
Continuous
 62
     3
100
AcDbLine
 10
134.0999999999999
 20
96.4
 30
0.0
 11
132.9499999999999
 21
96.4
 31
0.0
  0
LINE
  5
3CD
330
1E
100
AcDbEntity
  8
0
  6
Continuous
 62
     3
100
AcDbLine
 10
132.9
 20
95.65000000000001
 30
0.0
 11
135.4
 21
95.65000000000001
 31
0.0
  0
LINE
  5
3CE
330
1E
100
AcDbEntity
  8
0
  6
Continuous
 62
     3
100
AcDbLine
 10
135.6999999999999
 20
99.29999999999999
 30
0.0
 11
136.1999999999996
 21
99.90000000000001
 31
0.0
  0
LINE
  5
3CF
330
1E
100
AcDbEntity
  8
0
  6
Continuous
 62
     3
100
AcDbLine
 10
136.4
 20
99.84999999999999
 30
0.0
 11
135.8
 21
99.1
 31
0.0
  0
LINE
  5
3D0
330
1E
100
AcDbEntity
  8
0
  6
Continuous
 62
     3
100
AcDbLine
 10
133.3499999999999
 20
99.35
 30
0.0
 11
132.9
 21
99.90000000000001
 31
0.0
  0
LINE
  5
3D1
330
1E
100
AcDbEntity
  8
0
  6
Continuous
 62
     3
100
AcDbLine
 10
133.25
 20
99.15
 30
0.0
 11
132.75
 21
99.8
 31
0.0
  0
LINE
  5
3D2
330
1E
100
AcDbEntity
  8
0
  6
Continuous
 62
     3
100
AcDbLine
 10
135.4
 20
96.5
 30
0.0
 11
136.05
 21
96.0
 31
0.0
  0
LINE
  5
3D3
330
1E
100
AcDbEntity
  8
0
  6
Continuous
 62
     3
100
AcDbLine
 10
135.3499999999999
 20
96.34999999999999
 30
0.0
 11
136.0
 21
95.84999999999999
 31
0.0
  0
LINE
  5
3D4
330
1E
100
AcDbEntity
  8
0
  6
Continuous
 62
     3
100
AcDbLine
 10
136.0
 20
95.84999999999999
 30
0.0
 11
135.3
 21
95.65000000000001
 31
0.0
  0
LINE
  5
3D5
330
1E
100
AcDbEntity
  8
0
  6
Continuous
 62
     3
100
AcDbLine
 10
135.3
 20
95.5
 30
0.0
 11
136.05
 21
95.7
 31
0.0
  0
LINE
  5
3D6
330
1E
100
AcDbEntity
  8
0
  6
Continuous
 62
     3
100
AcDbLine
 10
132.9
 20
96.4
 30
0.0
 11
132.25
 21
96.09999999999999
 31
0.0
  0
LINE
  5
3D7
330
1E
100
AcDbEntity
  8
0
  6
Continuous
 62
     3
100
AcDbLine
 10
132.25
 20
96.09999999999999
 30
0.0
 11
132.85
 21
95.65000000000001
 31
0.0
  0
LINE
  5
3D8
330
1E
100
AcDbEntity
  8
0
  6
Continuous
 62
     3
100
AcDbLine
 10
132.15
 20
96.2
 30
0.0
 11
132.9
 21
96.6
 31
0.0
  0
LINE
  5
3D9
330
1E
100
AcDbEntity
  8
0
  6
Continuous
 62
     3
100
AcDbLine
 10
134.9499999999999
 20
92.9
 30
0.0
 11
135.4999999999999
 21
92.34999999999999
 31
0.0
  0
LINE
  5
3DA
330
1E
100
AcDbEntity
  8
0
  6
Continuous
 62
     3
100
AcDbLine
 10
134.85
 20
92.79999999999999
 30
0.0
 11
135.4
 21
92.24999999999999
 31
0.0
  0
LINE
  5
3DB
330
1E
100
AcDbEntity
  8
0
  6
Continuous
 62
     3
100
AcDbLine
 10
131.85
 20
92.3
 30
0.0
 11
132.45
 21
92.75
 31
0.0
  0
LINE
  5
3DC
330
1E
100
AcDbEntity
  8
0
  6
Continuous
 62
     3
100
AcDbLine
 10
131.816666667
 20
92.24999999999999
 30
0.0
 11
131.9499999999999
 21
92.05
 31
0.0
  0
LINE
  5
3DD
330
1E
100
AcDbEntity
  8
0
  6
Continuous
 62
     3
100
AcDbLine
 10
134.85
 20
92.79999999999999
 30
0.0
 11
132.45
 21
92.79999999999999
 31
0.0
  0
LINE
  5
3DE
330
1E
100
AcDbEntity
  8
0
  6
Continuous
 62
     3
100
AcDbLine
 10
135.4999999999999
 20
92.322222222
 30
0.0
 11
135.5999999999999
 21
92.4
 31
0.0
  0
LINE
  5
3DF
330
1E
100
AcDbEntity
  8
0
  6
Continuous
 62
     3
100
AcDbLine
 10
135.15
 20
92.05
 30
0.0
 11
135.4
 21
92.24444444399999
 31
0.0
  0
LINE
  5
3E0
330
1E
100
AcDbEntity
  8
0
  6
Continuous
 62
     3
100
AcDbLine
 10
135.15
 20
92.05
 30
0.0
 11
131.9
 21
92.05
 31
0.0
  0
LINE
  5
3E1
330
1E
100
AcDbEntity
  8
0
  6
Continuous
 62
     3
100
AcDbLine
 10
136.0546875
 20
95.68749999999999
 30
0.0
 11
135.6421875
 21
92.38750000000001
 31
0.0
  0
LINE
  5
3E2
330
1E
100
AcDbEntity
  8
0
  6
Continuous
 62
     3
100
AcDbLine
 10
135.2734375
 20
95.43750000000001
 30
0.0
 11
134.9609375
 21
92.93750000000001
 31
0.0
  0
LINE
  5
3E3
330
1E
100
AcDbEntity
  8
0
  6
Continuous
 62
     3
100
AcDbLine
 10
135.3
 20
96.4
 30
0.0
 11
134.15
 21
96.4
 31
0.0
  0
LINE
  5
3E4
330
1E
100
AcDbEntity
  8
0
  6
Continuous
 62
     3
100
AcDbLine
 10
132.9296875
 20
96.68750000000001
 30
0.0
 11
133.2359375
 21
99.1375
 31
0.0
  0
LINE
  5
3E5
330
1E
100
AcDbEntity
  8
0
  6
Continuous
 62
     3
100
AcDbLine
 10
132.6999999999999
 20
99.785714286
 30
0.0
 11
132.6
 21
99.7
 31
0.0
  0
LINE
  5
3E6
330
1E
100
AcDbEntity
  8
0
  6
Continuous
 62
     3
100
AcDbLine
 10
132.9499999999999
 20
100.0
 30
0.0
 11
132.9
 21
99.95714285700001
 31
0.0
  0
LINE
  5
3E7
330
1E
100
AcDbEntity
  8
0
  6
Continuous
 62
     3
100
AcDbLine
 10
132.1171875
 20
96.1875
 30
0.0
 11
132.5484375
 21
99.6375
 31
0.0
  0
LINE
  5
3E8
330
1E
100
AcDbEntity
  8
0
  6
Continuous
 62
     3
100
AcDbLine
 10
133.4
 20
99.29999999999999
 30
0.0
 11
135.7499999999999
 21
99.29999999999999
 31
0.0
  0
LINE
  5
3E9
330
1E
100
AcDbEntity
  8
0
  6
Continuous
 62
     3
100
AcDbLine
 10
135.7234374999999
 20
99.0375
 30
0.0
 11
135.4046874999999
 21
96.48749999999999
 31
0.0
  0
LINE
  5
3EA
330
1E
100
AcDbEntity
  8
0
  6
Continuous
 62
     3
100
AcDbLine
 10
136.1999999999996
 20
100.0
 30
0.0
 11
136.25
 21
99.97142857100001
 31
0.0
  0
LINE
  5
3EB
330
1E
100
AcDbEntity
  8
0
  6
Continuous
 62
     3
100
AcDbLine
 10
133.0
 20
100.0499999999999
 30
0.0
 11
136.15
 21
100.0499999999999
 31
0.0
  0
LINE
  5
3EC
330
1E
100
AcDbEntity
  8
0
  6
Continuous
 62
     3
100
AcDbLine
 10
136.5671874999996
 20
99.78749999999999
 30
0.0
 11
136.0921875
 21
95.9875
 31
0.0
  0
POINT
  5
3ED
330
1E
100
AcDbEntity
  8
0
  6
Continuous
 62
     3
100
AcDbPoint
 10
114.7249999999999
 20
80.54999999999997
 30
0.0
  0
POINT
  5
3EE
330
1E
100
AcDbEntity
  8
0
  6
Continuous
 62
     3
100
AcDbPoint
 10
114.7249999999999
 20
80.54999999999997
 30
0.0
  0
POINT
  5
3EF
330
1E
100
AcDbEntity
  8
0
  6
Continuous
 62
     3
100
AcDbPoint
 10
110.975
 20
80.54999999999997
 30
0.0
  0
POINT
  5
3F0
330
1E
100
AcDbEntity
  8
0
  6
Continuous
 62
     3
100
AcDbPoint
 10
114.4749999999999
 20
88.55
 30
0.0
  0
LINE
  5
3F1
330
1E
100
AcDbEntity
  8
0
  6
Continuous
 62
     3
100
AcDbLine
 10
112.7249999999999
 20
84.9
 30
0.0
 11
111.575
 21
84.9
 31
0.0
  0
LINE
  5
3F2
330
1E
100
AcDbEntity
  8
0
  6
Continuous
 62
     3
100
AcDbLine
 10
111.525
 20
84.15
 30
0.0
 11
114.0249999999999
 21
84.15
 31
0.0
  0
LINE
  5
3F3
330
1E
100
AcDbEntity
  8
0
  6
Continuous
 62
     3
100
AcDbLine
 10
114.325
 20
87.79999999999999
 30
0.0
 11
114.8249999999999
 21
88.40000000000001
 31
0.0
  0
LINE
  5
3F4
330
1E
100
AcDbEntity
  8
0
  6
Continuous
 62
     3
100
AcDbLine
 10
115.0249999999999
 20
88.34999999999999
 30
0.0
 11
114.4249999999999
 21
87.59999999999998
 31
0.0
  0
LINE
  5
3F5
330
1E
100
AcDbEntity
  8
0
  6
Continuous
 62
     3
100
AcDbLine
 10
111.975
 20
87.85
 30
0.0
 11
111.525
 21
88.40000000000001
 31
0.0
  0
LINE
  5
3F6
330
1E
100
AcDbEntity
  8
0
  6
Continuous
 62
     3
100
AcDbLine
 10
111.875
 20
87.65
 30
0.0
 11
111.375
 21
88.3
 31
0.0
  0
LINE
  5
3F7
330
1E
100
AcDbEntity
  8
0
  6
Continuous
 62
     3
100
AcDbLine
 10
114.0249999999999
 20
85.0
 30
0.0
 11
114.6749999999999
 21
84.50000000000001
 31
0.0
  0
LINE
  5
3F8
330
1E
100
AcDbEntity
  8
0
  6
Continuous
 62
     3
100
AcDbLine
 10
113.975
 20
84.84999999999997
 30
0.0
 11
114.6249999999999
 21
84.35
 31
0.0
  0
LINE
  5
3F9
330
1E
100
AcDbEntity
  8
0
  6
Continuous
 62
     3
100
AcDbLine
 10
114.6249999999999
 20
84.35
 30
0.0
 11
113.925
 21
84.15
 31
0.0
  0
LINE
  5
3FA
330
1E
100
AcDbEntity
  8
0
  6
Continuous
 62
     3
100
AcDbLine
 10
113.925
 20
84.0
 30
0.0
 11
114.6749999999999
 21
84.19999999999998
 31
0.0
  0
LINE
  5
3FB
330
1E
100
AcDbEntity
  8
0
  6
Continuous
 62
     3
100
AcDbLine
 10
111.525
 20
84.9
 30
0.0
 11
110.875
 21
84.59999999999999
 31
0.0
  0
LINE
  5
3FC
330
1E
100
AcDbEntity
  8
0
  6
Continuous
 62
     3
100
AcDbLine
 10
110.775
 20
84.7
 30
0.0
 11
111.525
 21
85.09999999999998
 31
0.0
  0
LINE
  5
3FD
330
1E
100
AcDbEntity
  8
0
  6
Continuous
 62
     3
100
AcDbLine
 10
113.575
 20
81.4
 30
0.0
 11
114.125
 21
80.84999999999999
 31
0.0
  0
LINE
  5
3FE
330
1E
100
AcDbEntity
  8
0
  6
Continuous
 62
     3
100
AcDbLine
 10
113.4749999999999
 20
81.3
 30
0.0
 11
114.0249999999999
 21
80.75000000000001
 31
0.0
  0
LINE
  5
3FF
330
1E
100
AcDbEntity
  8
0
  6
Continuous
 62
     3
100
AcDbLine
 10
110.4749999999999
 20
80.8
 30
0.0
 11
111.075
 21
81.25
 31
0.0
  0
LINE
  5
400
330
1E
100
AcDbEntity
  8
0
  6
Continuous
 62
     3
100
AcDbLine
 10
110.441666667
 20
80.75000000000001
 30
0.0
 11
110.575
 21
80.54999999999997
 31
0.0
  0
LINE
  5
401
330
1E
100
AcDbEntity
  8
0
  6
Continuous
 62
     3
100
AcDbLine
 10
113.4749999999999
 20
81.3
 30
0.0
 11
111.075
 21
81.3
 31
0.0
  0
LINE
  5
402
330
1E
100
AcDbEntity
  8
0
  6
Continuous
 62
     3
100
AcDbLine
 10
114.125
 20
80.822222222
 30
0.0
 11
114.2249999999999
 21
80.90000000000001
 31
0.0
  0
LINE
  5
403
330
1E
100
AcDbEntity
  8
0
  6
Continuous
 62
     3
100
AcDbLine
 10
113.775
 20
80.54999999999997
 30
0.0
 11
114.0249999999999
 21
80.74444444399999
 31
0.0
  0
LINE
  5
404
330
1E
100
AcDbEntity
  8
0
  6
Continuous
 62
     3
100
AcDbLine
 10
113.775
 20
80.54999999999997
 30
0.0
 11
110.525
 21
80.54999999999997
 31
0.0
  0
LINE
  5
405
330
1E
100
AcDbEntity
  8
0
  6
Continuous
 62
     3
100
AcDbLine
 10
114.6796874999999
 20
84.18750000000001
 30
0.0
 11
114.2671875
 21
80.8875
 31
0.0
  0
LINE
  5
406
330
1E
100
AcDbEntity
  8
0
  6
Continuous
 62
     3
100
AcDbLine
 10
113.8984374999999
 20
83.9375
 30
0.0
 11
113.5859375
 21
81.4375
 31
0.0
  0
LINE
  5
407
330
1E
100
AcDbEntity
  8
0
  6
Continuous
 62
     3
100
AcDbLine
 10
113.925
 20
84.9
 30
0.0
 11
112.775
 21
84.9
 31
0.0
  0
LINE
  5
408
330
1E
100
AcDbEntity
  8
0
  6
Continuous
 62
     3
100
AcDbLine
 10
111.5546874999999
 20
85.1875
 30
0.0
 11
111.8609375
 21
87.63749999999998
 31
0.0
  0
LINE
  5
409
330
1E
100
AcDbEntity
  8
0
  6
Continuous
 62
     3
100
AcDbLine
 10
111.325
 20
88.285714286
 30
0.0
 11
111.2249999999999
 21
88.2
 31
0.0
  0
LINE
  5
40A
330
1E
100
AcDbEntity
  8
0
  6
Continuous
 62
     3
100
AcDbLine
 10
111.575
 20
88.49999999999999
 30
0.0
 11
111.525
 21
88.45714285700001
 31
0.0
  0
LINE
  5
40B
330
1E
100
AcDbEntity
  8
0
  6
Continuous
 62
     3
100
AcDbLine
 10
110.7421875
 20
84.6875
 30
0.0
 11
111.1734375
 21
88.1375
 31
0.0
  0
LINE
  5
40C
330
1E
100
AcDbEntity
  8
0
  6
Continuous
 62
     3
100
AcDbLine
 10
112.025
 20
87.79999999999999
 30
0.0
 11
114.375
 21
87.79999999999999
 31
0.0
  0
LINE
  5
40D
330
1E
100
AcDbEntity
  8
0
  6
Continuous
 62
     3
100
AcDbLine
 10
114.3484375
 20
87.5375
 30
0.0
 11
114.0296874999999
 21
84.98749999999999
 31
0.0
  0
LINE
  5
40E
330
1E
100
AcDbEntity
  8
0
  6
Continuous
 62
     3
100
AcDbLine
 10
115.075
 20
88.35714285700001
 30
0.0
 11
115.175
 21
88.3
 31
0.0
  0
LINE
  5
40F
330
1E
100
AcDbEntity
  8
0
  6
Continuous
 62
     3
100
AcDbLine
 10
114.8249999999999
 20
88.49999999999999
 30
0.0
 11
114.8749999999999
 21
88.47142857100001
 31
0.0
  0
LINE
  5
410
330
1E
100
AcDbEntity
  8
0
  6
Continuous
 62
     3
100
AcDbLine
 10
111.6249999999999
 20
88.55
 30
0.0
 11
114.775
 21
88.55
 31
0.0
  0
LINE
  5
411
330
1E
100
AcDbEntity
  8
0
  6
Continuous
 62
     3
100
AcDbLine
 10
115.2249999999999
 20
88.3
 30
0.0
 11
114.7249999999999
 21
84.55
 31
0.0
  0
POINT
  5
412
330
1E
100
AcDbEntity
  8
0
  6
Continuous
 62
     3
100
AcDbPoint
 10
118.1
 20
80.54999999999997
 30
0.0
  0
POINT
  5
413
330
1E
100
AcDbEntity
  8
0
  6
Continuous
 62
     3
100
AcDbPoint
 10
121.5999999999999
 20
88.55
 30
0.0
  0
LINE
  5
414
330
1E
100
AcDbEntity
  8
0
  6
Continuous
 62
     3
100
AcDbLine
 10
119.8499999999999
 20
84.9
 30
0.0
 11
118.7
 21
84.9
 31
0.0
  0
LINE
  5
415
330
1E
100
AcDbEntity
  8
0
  6
Continuous
 62
     3
100
AcDbLine
 10
118.65
 20
84.15
 30
0.0
 11
121.15
 21
84.15
 31
0.0
  0
LINE
  5
416
330
1E
100
AcDbEntity
  8
0
  6
Continuous
 62
     3
100
AcDbLine
 10
121.45
 20
87.79999999999999
 30
0.0
 11
121.95
 21
88.40000000000001
 31
0.0
  0
LINE
  5
417
330
1E
100
AcDbEntity
  8
0
  6
Continuous
 62
     3
100
AcDbLine
 10
122.15
 20
88.34999999999999
 30
0.0
 11
121.55
 21
87.59999999999998
 31
0.0
  0
LINE
  5
418
330
1E
100
AcDbEntity
  8
0
  6
Continuous
 62
     3
100
AcDbLine
 10
119.1
 20
87.85
 30
0.0
 11
118.65
 21
88.40000000000001
 31
0.0
  0
LINE
  5
419
330
1E
100
AcDbEntity
  8
0
  6
Continuous
 62
     3
100
AcDbLine
 10
119.0
 20
87.65
 30
0.0
 11
118.5
 21
88.3
 31
0.0
  0
LINE
  5
41A
330
1E
100
AcDbEntity
  8
0
  6
Continuous
 62
     3
100
AcDbLine
 10
121.15
 20
85.0
 30
0.0
 11
121.7999999999999
 21
84.50000000000001
 31
0.0
  0
LINE
  5
41B
330
1E
100
AcDbEntity
  8
0
  6
Continuous
 62
     3
100
AcDbLine
 10
121.1
 20
84.84999999999997
 30
0.0
 11
121.75
 21
84.35
 31
0.0
  0
LINE
  5
41C
330
1E
100
AcDbEntity
  8
0
  6
Continuous
 62
     3
100
AcDbLine
 10
121.75
 20
84.35
 30
0.0
 11
121.0499999999999
 21
84.15
 31
0.0
  0
LINE
  5
41D
330
1E
100
AcDbEntity
  8
0
  6
Continuous
 62
     3
100
AcDbLine
 10
121.0499999999999
 20
84.0
 30
0.0
 11
121.7999999999999
 21
84.19999999999998
 31
0.0
  0
LINE
  5
41E
330
1E
100
AcDbEntity
  8
0
  6
Continuous
 62
     3
100
AcDbLine
 10
118.65
 20
84.9
 30
0.0
 11
118.0
 21
84.59999999999999
 31
0.0
  0
LINE
  5
41F
330
1E
100
AcDbEntity
  8
0
  6
Continuous
 62
     3
100
AcDbLine
 10
118.0
 20
84.59999999999999
 30
0.0
 11
118.5999999999999
 21
84.15
 31
0.0
  0
LINE
  5
420
330
1E
100
AcDbEntity
  8
0
  6
Continuous
 62
     3
100
AcDbLine
 10
117.9
 20
84.7
 30
0.0
 11
118.65
 21
85.09999999999998
 31
0.0
  0
LINE
  5
421
330
1E
100
AcDbEntity
  8
0
  6
Continuous
 62
     3
100
AcDbLine
 10
120.7
 20
81.4
 30
0.0
 11
121.25
 21
80.84999999999999
 31
0.0
  0
LINE
  5
422
330
1E
100
AcDbEntity
  8
0
  6
Continuous
 62
     3
100
AcDbLine
 10
120.5999999999999
 20
81.3
 30
0.0
 11
121.15
 21
80.75000000000001
 31
0.0
  0
LINE
  5
423
330
1E
100
AcDbEntity
  8
0
  6
Continuous
 62
     3
100
AcDbLine
 10
117.5999999999999
 20
80.8
 30
0.0
 11
118.2
 21
81.25
 31
0.0
  0
LINE
  5
424
330
1E
100
AcDbEntity
  8
0
  6
Continuous
 62
     3
100
AcDbLine
 10
117.566666667
 20
80.75000000000001
 30
0.0
 11
117.7
 21
80.54999999999997
 31
0.0
  0
LINE
  5
425
330
1E
100
AcDbEntity
  8
0
  6
Continuous
 62
     3
100
AcDbLine
 10
120.5999999999999
 20
81.3
 30
0.0
 11
118.2
 21
81.3
 31
0.0
  0
LINE
  5
426
330
1E
100
AcDbEntity
  8
0
  6
Continuous
 62
     3
100
AcDbLine
 10
121.25
 20
80.822222222
 30
0.0
 11
121.35
 21
80.90000000000001
 31
0.0
  0
LINE
  5
427
330
1E
100
AcDbEntity
  8
0
  6
Continuous
 62
     3
100
AcDbLine
 10
120.9
 20
80.54999999999997
 30
0.0
 11
121.15
 21
80.74444444399999
 31
0.0
  0
LINE
  5
428
330
1E
100
AcDbEntity
  8
0
  6
Continuous
 62
     3
100
AcDbLine
 10
120.9
 20
80.54999999999997
 30
0.0
 11
117.65
 21
80.54999999999997
 31
0.0
  0
LINE
  5
429
330
1E
100
AcDbEntity
  8
0
  6
Continuous
 62
     3
100
AcDbLine
 10
121.8046874999999
 20
84.18750000000001
 30
0.0
 11
121.3921875
 21
80.8875
 31
0.0
  0
LINE
  5
42A
330
1E
100
AcDbEntity
  8
0
  6
Continuous
 62
     3
100
AcDbLine
 10
121.0234374999999
 20
83.9375
 30
0.0
 11
120.7109374999999
 21
81.4375
 31
0.0
  0
LINE
  5
42B
330
1E
100
AcDbEntity
  8
0
  6
Continuous
 62
     3
100
AcDbLine
 10
121.0499999999999
 20
84.9
 30
0.0
 11
119.9
 21
84.9
 31
0.0
  0
LINE
  5
42C
330
1E
100
AcDbEntity
  8
0
  6
Continuous
 62
     3
100
AcDbLine
 10
118.6796874999999
 20
85.1875
 30
0.0
 11
118.9859375
 21
87.63749999999998
 31
0.0
  0
LINE
  5
42D
330
1E
100
AcDbEntity
  8
0
  6
Continuous
 62
     3
100
AcDbLine
 10
118.45
 20
88.285714286
 30
0.0
 11
118.3499999999999
 21
88.2
 31
0.0
  0
LINE
  5
42E
330
1E
100
AcDbEntity
  8
0
  6
Continuous
 62
     3
100
AcDbLine
 10
118.7
 20
88.49999999999999
 30
0.0
 11
118.65
 21
88.45714285700001
 31
0.0
  0
LINE
  5
42F
330
1E
100
AcDbEntity
  8
0
  6
Continuous
 62
     3
100
AcDbLine
 10
117.8671875
 20
84.6875
 30
0.0
 11
118.2984374999999
 21
88.1375
 31
0.0
  0
LINE
  5
430
330
1E
100
AcDbEntity
  8
0
  6
Continuous
 62
     3
100
AcDbLine
 10
119.15
 20
87.79999999999999
 30
0.0
 11
121.5
 21
87.79999999999999
 31
0.0
  0
LINE
  5
431
330
1E
100
AcDbEntity
  8
0
  6
Continuous
 62
     3
100
AcDbLine
 10
121.4734375
 20
87.5375
 30
0.0
 11
121.1546875
 21
84.98749999999999
 31
0.0
  0
LINE
  5
432
330
1E
100
AcDbEntity
  8
0
  6
Continuous
 62
     3
100
AcDbLine
 10
122.1999999999999
 20
88.35714285700001
 30
0.0
 11
122.3
 21
88.3
 31
0.0
  0
LINE
  5
433
330
1E
100
AcDbEntity
  8
0
  6
Continuous
 62
     3
100
AcDbLine
 10
121.95
 20
88.49999999999999
 30
0.0
 11
122.0
 21
88.47142857100001
 31
0.0
  0
LINE
  5
434
330
1E
100
AcDbEntity
  8
0
  6
Continuous
 62
     3
100
AcDbLine
 10
118.75
 20
88.55
 30
0.0
 11
121.9
 21
88.55
 31
0.0
  0
LINE
  5
435
330
1E
100
AcDbEntity
  8
0
  6
Continuous
 62
     3
100
AcDbLine
 10
122.3171875
 20
88.28749999999997
 30
0.0
 11
121.8421874999999
 21
84.4875
 31
0.0
  0
POINT
  5
436
330
1E
100
AcDbEntity
  8
0
  6
Continuous
 62
     3
100
AcDbPoint
 10
125.2249999999999
 20
80.54999999999997
 30
0.0
  0
POINT
  5
437
330
1E
100
AcDbEntity
  8
0
  6
Continuous
 62
     3
100
AcDbPoint
 10
128.725
 20
88.55
 30
0.0
  0
LINE
  5
438
330
1E
100
AcDbEntity
  8
0
  6
Continuous
 62
     3
100
AcDbLine
 10
126.9749999999999
 20
84.9
 30
0.0
 11
125.825
 21
84.9
 31
0.0
  0
LINE
  5
439
330
1E
100
AcDbEntity
  8
0
  6
Continuous
 62
     3
100
AcDbLine
 10
125.775
 20
84.15
 30
0.0
 11
128.275
 21
84.15
 31
0.0
  0
LINE
  5
43A
330
1E
100
AcDbEntity
  8
0
  6
Continuous
 62
     3
100
AcDbLine
 10
128.5749999999999
 20
87.79999999999999
 30
0.0
 11
129.0749999999997
 21
88.40000000000001
 31
0.0
  0
LINE
  5
43B
330
1E
100
AcDbEntity
  8
0
  6
Continuous
 62
     3
100
AcDbLine
 10
129.275
 20
88.34999999999999
 30
0.0
 11
128.675
 21
87.59999999999998
 31
0.0
  0
LINE
  5
43C
330
1E
100
AcDbEntity
  8
0
  6
Continuous
 62
     3
100
AcDbLine
 10
126.2249999999999
 20
87.85
 30
0.0
 11
125.775
 21
88.40000000000001
 31
0.0
  0
LINE
  5
43D
330
1E
100
AcDbEntity
  8
0
  6
Continuous
 62
     3
100
AcDbLine
 10
126.1249999999999
 20
87.65
 30
0.0
 11
125.625
 21
88.3
 31
0.0
  0
LINE
  5
43E
330
1E
100
AcDbEntity
  8
0
  6
Continuous
 62
     3
100
AcDbLine
 10
128.275
 20
85.0
 30
0.0
 11
128.925
 21
84.50000000000001
 31
0.0
  0
LINE
  5
43F
330
1E
100
AcDbEntity
  8
0
  6
Continuous
 62
     3
100
AcDbLine
 10
128.2249999999999
 20
84.84999999999997
 30
0.0
 11
128.875
 21
84.35
 31
0.0
  0
LINE
  5
440
330
1E
100
AcDbEntity
  8
0
  6
Continuous
 62
     3
100
AcDbLine
 10
128.875
 20
84.35
 30
0.0
 11
128.175
 21
84.15
 31
0.0
  0
LINE
  5
441
330
1E
100
AcDbEntity
  8
0
  6
Continuous
 62
     3
100
AcDbLine
 10
128.175
 20
84.0
 30
0.0
 11
128.925
 21
84.19999999999998
 31
0.0
  0
LINE
  5
442
330
1E
100
AcDbEntity
  8
0
  6
Continuous
 62
     3
100
AcDbLine
 10
125.775
 20
84.9
 30
0.0
 11
125.1249999999999
 21
84.59999999999999
 31
0.0
  0
LINE
  5
443
330
1E
100
AcDbEntity
  8
0
  6
Continuous
 62
     3
100
AcDbLine
 10
125.1249999999999
 20
84.59999999999999
 30
0.0
 11
125.7249999999999
 21
84.15
 31
0.0
  0
LINE
  5
444
330
1E
100
AcDbEntity
  8
0
  6
Continuous
 62
     3
100
AcDbLine
 10
125.025
 20
84.7
 30
0.0
 11
125.775
 21
85.09999999999998
 31
0.0
  0
LINE
  5
445
330
1E
100
AcDbEntity
  8
0
  6
Continuous
 62
     3
100
AcDbLine
 10
127.825
 20
81.4
 30
0.0
 11
128.3749999999999
 21
80.84999999999999
 31
0.0
  0
LINE
  5
446
330
1E
100
AcDbEntity
  8
0
  6
Continuous
 62
     3
100
AcDbLine
 10
127.7249999999999
 20
81.3
 30
0.0
 11
128.275
 21
80.75000000000001
 31
0.0
  0
LINE
  5
447
330
1E
100
AcDbEntity
  8
0
  6
Continuous
 62
     3
100
AcDbLine
 10
124.7249999999999
 20
80.8
 30
0.0
 11
125.3249999999999
 21
81.25
 31
0.0
  0
LINE
  5
448
330
1E
100
AcDbEntity
  8
0
  6
Continuous
 62
     3
100
AcDbLine
 10
124.691666667
 20
80.75000000000001
 30
0.0
 11
124.825
 21
80.54999999999997
 31
0.0
  0
LINE
  5
449
330
1E
100
AcDbEntity
  8
0
  6
Continuous
 62
     3
100
AcDbLine
 10
127.7249999999999
 20
81.3
 30
0.0
 11
125.3249999999999
 21
81.3
 31
0.0
  0
LINE
  5
44A
330
1E
100
AcDbEntity
  8
0
  6
Continuous
 62
     3
100
AcDbLine
 10
128.3749999999999
 20
80.822222222
 30
0.0
 11
128.475
 21
80.90000000000001
 31
0.0
  0
LINE
  5
44B
330
1E
100
AcDbEntity
  8
0
  6
Continuous
 62
     3
100
AcDbLine
 10
128.025
 20
80.54999999999997
 30
0.0
 11
128.275
 21
80.74444444399999
 31
0.0
  0
LINE
  5
44C
330
1E
100
AcDbEntity
  8
0
  6
Continuous
 62
     3
100
AcDbLine
 10
128.025
 20
80.54999999999997
 30
0.0
 11
124.775
 21
80.54999999999997
 31
0.0
  0
LINE
  5
44D
330
1E
100
AcDbEntity
  8
0
  6
Continuous
 62
     3
100
AcDbLine
 10
128.9296875
 20
84.18750000000001
 30
0.0
 11
128.5171875
 21
80.8875
 31
0.0
  0
LINE
  5
44E
330
1E
100
AcDbEntity
  8
0
  6
Continuous
 62
     3
100
AcDbLine
 10
128.1484375
 20
83.9375
 30
0.0
 11
127.8359374999999
 21
81.4375
 31
0.0
  0
LINE
  5
44F
330
1E
100
AcDbEntity
  8
0
  6
Continuous
 62
     3
100
AcDbLine
 10
128.175
 20
84.9
 30
0.0
 11
127.025
 21
84.9
 31
0.0
  0
LINE
  5
450
330
1E
100
AcDbEntity
  8
0
  6
Continuous
 62
     3
100
AcDbLine
 10
125.8046875
 20
85.1875
 30
0.0
 11
126.1109374999999
 21
87.63749999999998
 31
0.0
  0
LINE
  5
451
330
1E
100
AcDbEntity
  8
0
  6
Continuous
 62
     3
100
AcDbLine
 10
125.575
 20
88.285714286
 30
0.0
 11
125.475
 21
88.2
 31
0.0
  0
LINE
  5
452
330
1E
100
AcDbEntity
  8
0
  6
Continuous
 62
     3
100
AcDbLine
 10
125.825
 20
88.49999999999999
 30
0.0
 11
125.775
 21
88.45714285700001
 31
0.0
  0
LINE
  5
453
330
1E
100
AcDbEntity
  8
0
  6
Continuous
 62
     3
100
AcDbLine
 10
124.9921875
 20
84.6875
 30
0.0
 11
125.4234375
 21
88.1375
 31
0.0
  0
LINE
  5
454
330
1E
100
AcDbEntity
  8
0
  6
Continuous
 62
     3
100
AcDbLine
 10
126.275
 20
87.79999999999999
 30
0.0
 11
128.625
 21
87.79999999999999
 31
0.0
  0
LINE
  5
455
330
1E
100
AcDbEntity
  8
0
  6
Continuous
 62
     3
100
AcDbLine
 10
128.5984374999999
 20
87.5375
 30
0.0
 11
128.2796875
 21
84.98749999999999
 31
0.0
  0
LINE
  5
456
330
1E
100
AcDbEntity
  8
0
  6
Continuous
 62
     3
100
AcDbLine
 10
129.325
 20
88.35714285700001
 30
0.0
 11
129.425
 21
88.3
 31
0.0
  0
LINE
  5
457
330
1E
100
AcDbEntity
  8
0
  6
Continuous
 62
     3
100
AcDbLine
 10
129.0749999999997
 20
88.49999999999999
 30
0.0
 11
129.125
 21
88.47142857100001
 31
0.0
  0
LINE
  5
458
330
1E
100
AcDbEntity
  8
0
  6
Continuous
 62
     3
100
AcDbLine
 10
125.875
 20
88.55
 30
0.0
 11
129.025
 21
88.55
 31
0.0
  0
LINE
  5
459
330
1E
100
AcDbEntity
  8
0
  6
Continuous
 62
     3
100
AcDbLine
 10
129.475
 20
88.3
 30
0.0
 11
128.9749999999999
 21
84.55
 31
0.0
  0
POINT
  5
45A
330
1E
100
AcDbEntity
  8
0
  6
Continuous
 62
     3
100
AcDbPoint
 10
132.3499999999999
 20
80.54999999999997
 30
0.0
  0
POINT
  5
45B
330
1E
100
AcDbEntity
  8
0
  6
Continuous
 62
     3
100
AcDbPoint
 10
135.85
 20
88.55
 30
0.0
  0
LINE
  5
45C
330
1E
100
AcDbEntity
  8
0
  6
Continuous
 62
     3
100
AcDbLine
 10
134.0999999999999
 20
84.9
 30
0.0
 11
132.9499999999999
 21
84.9
 31
0.0
  0
LINE
  5
45D
330
1E
100
AcDbEntity
  8
0
  6
Continuous
 62
     3
100
AcDbLine
 10
132.9
 20
84.15
 30
0.0
 11
135.4
 21
84.15
 31
0.0
  0
LINE
  5
45E
330
1E
100
AcDbEntity
  8
0
  6
Continuous
 62
     3
100
AcDbLine
 10
135.6999999999999
 20
87.79999999999999
 30
0.0
 11
136.1999999999996
 21
88.40000000000001
 31
0.0
  0
LINE
  5
45F
330
1E
100
AcDbEntity
  8
0
  6
Continuous
 62
     3
100
AcDbLine
 10
136.4
 20
88.34999999999999
 30
0.0
 11
135.8
 21
87.59999999999998
 31
0.0
  0
LINE
  5
460
330
1E
100
AcDbEntity
  8
0
  6
Continuous
 62
     3
100
AcDbLine
 10
133.3499999999999
 20
87.85
 30
0.0
 11
132.9
 21
88.40000000000001
 31
0.0
  0
LINE
  5
461
330
1E
100
AcDbEntity
  8
0
  6
Continuous
 62
     3
100
AcDbLine
 10
133.25
 20
87.65
 30
0.0
 11
132.75
 21
88.3
 31
0.0
  0
LINE
  5
462
330
1E
100
AcDbEntity
  8
0
  6
Continuous
 62
     3
100
AcDbLine
 10
135.4
 20
85.0
 30
0.0
 11
136.05
 21
84.50000000000001
 31
0.0
  0
LINE
  5
463
330
1E
100
AcDbEntity
  8
0
  6
Continuous
 62
     3
100
AcDbLine
 10
135.3499999999999
 20
84.84999999999997
 30
0.0
 11
136.0
 21
84.35
 31
0.0
  0
LINE
  5
464
330
1E
100
AcDbEntity
  8
0
  6
Continuous
 62
     3
100
AcDbLine
 10
136.0
 20
84.35
 30
0.0
 11
135.3
 21
84.15
 31
0.0
  0
LINE
  5
465
330
1E
100
AcDbEntity
  8
0
  6
Continuous
 62
     3
100
AcDbLine
 10
135.3
 20
84.0
 30
0.0
 11
136.05
 21
84.19999999999998
 31
0.0
  0
LINE
  5
466
330
1E
100
AcDbEntity
  8
0
  6
Continuous
 62
     3
100
AcDbLine
 10
132.9
 20
84.9
 30
0.0
 11
132.25
 21
84.59999999999999
 31
0.0
  0
LINE
  5
467
330
1E
100
AcDbEntity
  8
0
  6
Continuous
 62
     3
100
AcDbLine
 10
132.25
 20
84.59999999999999
 30
0.0
 11
132.85
 21
84.15
 31
0.0
  0
LINE
  5
468
330
1E
100
AcDbEntity
  8
0
  6
Continuous
 62
     3
100
AcDbLine
 10
132.15
 20
84.7
 30
0.0
 11
132.9
 21
85.09999999999998
 31
0.0
  0
LINE
  5
469
330
1E
100
AcDbEntity
  8
0
  6
Continuous
 62
     3
100
AcDbLine
 10
134.9499999999999
 20
81.4
 30
0.0
 11
135.4999999999999
 21
80.84999999999999
 31
0.0
  0
LINE
  5
46A
330
1E
100
AcDbEntity
  8
0
  6
Continuous
 62
     3
100
AcDbLine
 10
134.85
 20
81.3
 30
0.0
 11
135.4
 21
80.75000000000001
 31
0.0
  0
LINE
  5
46B
330
1E
100
AcDbEntity
  8
0
  6
Continuous
 62
     3
100
AcDbLine
 10
131.85
 20
80.8
 30
0.0
 11
132.45
 21
81.25
 31
0.0
  0
LINE
  5
46C
330
1E
100
AcDbEntity
  8
0
  6
Continuous
 62
     3
100
AcDbLine
 10
131.816666667
 20
80.75000000000001
 30
0.0
 11
131.9499999999999
 21
80.54999999999997
 31
0.0
  0
LINE
  5
46D
330
1E
100
AcDbEntity
  8
0
  6
Continuous
 62
     3
100
AcDbLine
 10
134.85
 20
81.3
 30
0.0
 11
132.45
 21
81.3
 31
0.0
  0
LINE
  5
46E
330
1E
100
AcDbEntity
  8
0
  6
Continuous
 62
     3
100
AcDbLine
 10
135.4999999999999
 20
80.822222222
 30
0.0
 11
135.5999999999999
 21
80.90000000000001
 31
0.0
  0
LINE
  5
46F
330
1E
100
AcDbEntity
  8
0
  6
Continuous
 62
     3
100
AcDbLine
 10
135.15
 20
80.54999999999997
 30
0.0
 11
135.4
 21
80.74444444399999
 31
0.0
  0
LINE
  5
470
330
1E
100
AcDbEntity
  8
0
  6
Continuous
 62
     3
100
AcDbLine
 10
135.15
 20
80.54999999999997
 30
0.0
 11
131.9
 21
80.54999999999997
 31
0.0
  0
LINE
  5
471
330
1E
100
AcDbEntity
  8
0
  6
Continuous
 62
     3
100
AcDbLine
 10
136.0546875
 20
84.18750000000001
 30
0.0
 11
135.6421875
 21
80.8875
 31
0.0
  0
LINE
  5
472
330
1E
100
AcDbEntity
  8
0
  6
Continuous
 62
     3
100
AcDbLine
 10
135.2734375
 20
83.9375
 30
0.0
 11
134.9609375
 21
81.4375
 31
0.0
  0
LINE
  5
473
330
1E
100
AcDbEntity
  8
0
  6
Continuous
 62
     3
100
AcDbLine
 10
135.3
 20
84.9
 30
0.0
 11
134.15
 21
84.9
 31
0.0
  0
LINE
  5
474
330
1E
100
AcDbEntity
  8
0
  6
Continuous
 62
     3
100
AcDbLine
 10
132.9296875
 20
85.1875
 30
0.0
 11
133.2359375
 21
87.63749999999998
 31
0.0
  0
LINE
  5
475
330
1E
100
AcDbEntity
  8
0
  6
Continuous
 62
     3
100
AcDbLine
 10
132.6999999999999
 20
88.285714286
 30
0.0
 11
132.6
 21
88.2
 31
0.0
  0
LINE
  5
476
330
1E
100
AcDbEntity
  8
0
  6
Continuous
 62
     3
100
AcDbLine
 10
132.9499999999999
 20
88.49999999999999
 30
0.0
 11
132.9
 21
88.45714285700001
 31
0.0
  0
LINE
  5
477
330
1E
100
AcDbEntity
  8
0
  6
Continuous
 62
     3
100
AcDbLine
 10
132.1171875
 20
84.6875
 30
0.0
 11
132.5484375
 21
88.1375
 31
0.0
  0
LINE
  5
478
330
1E
100
AcDbEntity
  8
0
  6
Continuous
 62
     3
100
AcDbLine
 10
133.4
 20
87.79999999999999
 30
0.0
 11
135.7499999999999
 21
87.79999999999999
 31
0.0
  0
LINE
  5
479
330
1E
100
AcDbEntity
  8
0
  6
Continuous
 62
     3
100
AcDbLine
 10
135.7234374999999
 20
87.5375
 30
0.0
 11
135.4046874999999
 21
84.98749999999999
 31
0.0
  0
LINE
  5
47A
330
1E
100
AcDbEntity
  8
0
  6
Continuous
 62
     3
100
AcDbLine
 10
136.1999999999996
 20
88.49999999999999
 30
0.0
 11
136.25
 21
88.47142857100001
 31
0.0
  0
LINE
  5
47B
330
1E
100
AcDbEntity
  8
0
  6
Continuous
 62
     3
100
AcDbLine
 10
133.0
 20
88.55
 30
0.0
 11
136.15
 21
88.55
 31
0.0
  0
LINE
  5
47C
330
1E
100
AcDbEntity
  8
0
  6
Continuous
 62
     3
100
AcDbLine
 10
136.5671874999996
 20
88.28749999999997
 30
0.0
 11
136.0921875
 21
84.4875
 31
0.0
  0
CIRCLE
  5
47D
330
1E
100
AcDbEntity
  8
0
  6
Continuous
 62
     3
100
AcDbCircle
 10
67.36
 20
81.72
 30
0.0
 40
0.7
  0
LINE
  5
47E
330
1E
100
AcDbEntity
  8
0
  6
Continuous
 62
     3
100
AcDbLine
 10
110.4749999999999
 20
92.3
 30
0.0
 11
111.075
 21
92.75
 31
0.0
  0
LINE
  5
47F
330
1E
100
AcDbEntity
  8
0
  6
Continuous
 62
     3
100
AcDbLine
 10
125.1249999999999
 20
96.09999999999999
 30
0.0
 11
125.7249999999999
 21
95.65000000000001
 31
0.0
  0
LINE
  5
480
330
1E
100
AcDbEntity
  8
0
  6
Continuous
 62
     3
100
AcDbLine
 10
110.875
 20
84.59999999999999
 30
0.0
 11
111.4749999999999
 21
84.15
 31
0.0
  0
LINE
  5
481
330
1E
100
AcDbEntity
  8
0
  6
Continuous
 62
     3
100
AcDbLine
 10
78.17499999999999
 20
71.97
 30
0.0
 11
78.17499999999999
 21
69.47
 31
0.0
  0
LINE
  5
482
330
1E
100
AcDbEntity
  8
0
  6
Continuous
 62
     3
100
AcDbLine
 10
78.17499999999999
 20
69.47
 30
0.0
 11
81.17499999999997
 21
70.72
 31
0.0
  0
LINE
  5
483
330
1E
100
AcDbEntity
  8
0
  6
Continuous
 62
     3
100
AcDbLine
 10
81.17499999999997
 20
70.72
 30
0.0
 11
78.17499999999999
 21
71.97
 31
0.0
  0
LINE
  5
484
330
1E
100
AcDbEntity
  8
0
  6
Continuous
 62
     3
100
AcDbLine
 10
78.17499999999999
 20
71.97
 30
0.0
 11
78.17499999999999
 21
69.47
 31
0.0
  0
TEXT
  5
485
330
1E
100
AcDbEntity
  8
0
  6
Continuous
 62
     3
100
AcDbText
 10
58.425
 20
69.22
 30
0.0
 40
3.0
  1
Ｅ
 41
0.88
  7
KANJI0
100
AcDbText
  0
TEXT
  5
486
330
1E
100
AcDbEntity
  8
0
  6
Continuous
 62
     3
100
AcDbText
 10
68.425
 20
69.22
 30
0.0
 40
3.0
  1
Ｍ
 41
0.88
  7
KANJI0
100
AcDbText
  0
LINE
  5
487
330
1E
100
AcDbEntity
  8
0
  6
Continuous
 62
     3
100
AcDbLine
 10
119.175
 20
73.81999999999997
 30
0.0
 11
123.1749999999999
 21
73.81999999999997
 31
0.0
  0
LINE
  5
488
330
1E
100
AcDbEntity
  8
0
  6
Continuous
 62
     3
100
AcDbLine
 10
123.1749999999999
 20
73.81999999999997
 30
0.0
 11
123.1749999999999
 21
75.81999999999998
 31
0.0
  0
LINE
  5
489
330
1E
100
AcDbEntity
  8
0
  6
Continuous
 62
     3
100
AcDbLine
 10
119.175
 20
75.81999999999998
 30
0.0
 11
119.175
 21
73.81999999999997
 31
0.0
  0
LINE
  5
48A
330
1E
100
AcDbEntity
  8
0
  6
Continuous
 62
     3
100
AcDbLine
 10
125.675
 20
73.81999999999997
 30
0.0
 11
129.675
 21
73.81999999999997
 31
0.0
  0
LINE
  5
48B
330
1E
100
AcDbEntity
  8
0
  6
Continuous
 62
     3
100
AcDbLine
 10
129.675
 20
73.81999999999997
 30
0.0
 11
129.675
 21
75.81999999999998
 31
0.0
  0
LINE
  5
48C
330
1E
100
AcDbEntity
  8
0
  6
Continuous
 62
     3
100
AcDbLine
 10
129.675
 20
75.81999999999998
 30
0.0
 11
125.675
 21
75.81999999999998
 31
0.0
  0
LINE
  5
48D
330
1E
100
AcDbEntity
  8
0
  6
Continuous
 62
     3
100
AcDbLine
 10
125.675
 20
75.81999999999998
 30
0.0
 11
125.675
 21
73.81999999999997
 31
0.0
  0
LINE
  5
48E
330
1E
100
AcDbEntity
  8
0
  6
Continuous
 62
     3
100
AcDbLine
 10
125.675
 20
68.31999999999999
 30
0.0
 11
129.675
 21
68.31999999999999
 31
0.0
  0
LINE
  5
48F
330
1E
100
AcDbEntity
  8
0
  6
Continuous
 62
     3
100
AcDbLine
 10
129.675
 20
68.31999999999999
 30
0.0
 11
129.675
 21
70.32
 31
0.0
  0
LINE
  5
490
330
1E
100
AcDbEntity
  8
0
  6
Continuous
 62
     3
100
AcDbLine
 10
129.675
 20
70.32
 30
0.0
 11
125.675
 21
70.32
 31
0.0
  0
LINE
  5
491
330
1E
100
AcDbEntity
  8
0
  6
Continuous
 62
     3
100
AcDbLine
 10
125.675
 20
70.32
 30
0.0
 11
125.675
 21
68.31999999999999
 31
0.0
  0
LINE
  5
492
330
1E
100
AcDbEntity
  8
0
  6
Continuous
 62
     3
100
AcDbLine
 10
119.175
 20
68.31999999999999
 30
0.0
 11
123.1749999999999
 21
68.31999999999999
 31
0.0
  0
LINE
  5
493
330
1E
100
AcDbEntity
  8
0
  6
Continuous
 62
     3
100
AcDbLine
 10
123.1749999999999
 20
68.31999999999999
 30
0.0
 11
123.1749999999999
 21
70.32
 31
0.0
  0
LINE
  5
494
330
1E
100
AcDbEntity
  8
0
  6
Continuous
 62
     3
100
AcDbLine
 10
123.1749999999999
 20
70.32
 30
0.0
 11
119.175
 21
70.32
 31
0.0
  0
LINE
  5
495
330
1E
100
AcDbEntity
  8
0
  6
Continuous
 62
     3
100
AcDbLine
 10
119.175
 20
70.32
 30
0.0
 11
119.175
 21
68.31999999999999
 31
0.0
  0
LINE
  5
496
330
1E
100
AcDbEntity
  8
0
  6
Continuous
 62
     3
100
AcDbLine
 10
94.67499999999999
 20
100.57
 30
0.0
 11
98.67499999999999
 21
100.57
 31
0.0
  0
POINT
  5
497
330
1E
100
AcDbEntity
  8
0
  6
Continuous
 62
     3
100
AcDbPoint
 10
98.67499999999999
 20
100.57
 30
0.0
  0
LINE
  5
498
330
1E
100
AcDbEntity
  8
0
  6
Continuous
 62
     3
100
AcDbLine
 10
98.67499999999999
 20
100.57
 30
0.0
 11
98.67499999999999
 21
98.56999999999999
 31
0.0
  0
LINE
  5
499
330
1E
100
AcDbEntity
  8
0
  6
Continuous
 62
     3
100
AcDbLine
 10
94.67499999999999
 20
98.56999999999999
 30
0.0
 11
94.67499999999999
 21
100.57
 31
0.0
  0
LINE
  5
49A
330
1E
100
AcDbEntity
  8
0
  6
Continuous
 62
     3
100
AcDbLine
 10
98.67499999999999
 20
98.56999999999999
 30
0.0
 11
94.67499999999999
 21
98.56999999999999
 31
0.0
  0
LINE
  5
49B
330
1E
100
AcDbEntity
  8
0
  6
Continuous
 62
     3
100
AcDbLine
 10
79.675
 20
100.57
 30
0.0
 11
83.67499999999997
 21
100.57
 31
0.0
  0
LINE
  5
49C
330
1E
100
AcDbEntity
  8
0
  6
Continuous
 62
     3
100
AcDbLine
 10
83.67499999999997
 20
100.57
 30
0.0
 11
83.67499999999997
 21
98.56999999999999
 31
0.0
  0
LINE
  5
49D
330
1E
100
AcDbEntity
  8
0
  6
Continuous
 62
     3
100
AcDbLine
 10
79.675
 20
98.56999999999999
 30
0.0
 11
79.675
 21
100.57
 31
0.0
  0
LINE
  5
49E
330
1E
100
AcDbEntity
  8
0
  6
Continuous
 62
     3
100
AcDbLine
 10
83.67499999999997
 20
98.56999999999999
 30
0.0
 11
79.675
 21
98.56999999999999
 31
0.0
  0
LINE
  5
49F
330
1E
100
AcDbEntity
  8
0
  6
Continuous
 62
     3
100
AcDbLine
 10
64.675
 20
100.57
 30
0.0
 11
68.67499999999999
 21
100.57
 31
0.0
  0
LINE
  5
4A0
330
1E
100
AcDbEntity
  8
0
  6
Continuous
 62
     3
100
AcDbLine
 10
68.67499999999999
 20
100.57
 30
0.0
 11
68.67499999999999
 21
98.56999999999999
 31
0.0
  0
LINE
  5
4A1
330
1E
100
AcDbEntity
  8
0
  6
Continuous
 62
     3
100
AcDbLine
 10
68.67499999999999
 20
98.56999999999999
 30
0.0
 11
64.675
 21
98.56999999999999
 31
0.0
  0
LINE
  5
4A2
330
1E
100
AcDbEntity
  8
0
  6
Continuous
 62
     3
100
AcDbLine
 10
64.675
 20
98.56999999999999
 30
0.0
 11
64.675
 21
100.57
 31
0.0
  0
LINE
  5
4A3
330
1E
100
AcDbEntity
  8
0
  6
Continuous
 62
     3
100
AcDbLine
 10
123.1749999999999
 20
75.81999999999998
 30
0.0
 11
119.175
 21
75.81999999999998
 31
0.0
  0
LINE
  5
4A4
330
1E
100
AcDbEntity
  8
0
  6
Continuous
 62
     3
100
AcDbLine
 10
123.1749999999999
 20
73.81999999999997
 30
0.0
 11
123.1749999999999
 21
75.81999999999998
 31
0.0
  0
LINE
  5
4A5
330
1E
100
AcDbEntity
  8
0
  6
Continuous
 62
     3
100
AcDbLine
 10
119.175
 20
75.81999999999998
 30
0.0
 11
119.175
 21
73.81999999999997
 31
0.0
  0
LINE
  5
4A6
330
1E
100
AcDbEntity
  8
0
  6
Continuous
 62
     3
100
AcDbLine
 10
119.175
 20
73.81999999999997
 30
0.0
 11
123.1749999999999
 21
73.81999999999997
 31
0.0
  0
LINE
  5
4A7
330
1E
100
AcDbEntity
  8
0
  6
Continuous
 62
     3
100
AcDbLine
 10
125.675
 20
73.81999999999997
 30
0.0
 11
129.675
 21
73.81999999999997
 31
0.0
  0
LINE
  5
4A8
330
1E
100
AcDbEntity
  8
0
  6
Continuous
 62
     3
100
AcDbLine
 10
129.675
 20
73.81999999999997
 30
0.0
 11
129.675
 21
75.81999999999998
 31
0.0
  0
LINE
  5
4A9
330
1E
100
AcDbEntity
  8
0
  6
Continuous
 62
     3
100
AcDbLine
 10
129.675
 20
75.81999999999998
 30
0.0
 11
125.675
 21
75.81999999999998
 31
0.0
  0
LINE
  5
4AA
330
1E
100
AcDbEntity
  8
0
  6
Continuous
 62
     3
100
AcDbLine
 10
125.675
 20
75.81999999999998
 30
0.0
 11
125.675
 21
73.81999999999997
 31
0.0
  0
LINE
  5
4AB
330
1E
100
AcDbEntity
  8
0
  6
Continuous
 62
     3
100
AcDbLine
 10
125.675
 20
70.32
 30
0.0
 11
125.675
 21
68.31999999999999
 31
0.0
  0
LINE
  5
4AC
330
1E
100
AcDbEntity
  8
0
  6
Continuous
 62
     3
100
AcDbLine
 10
129.675
 20
68.31999999999999
 30
0.0
 11
129.675
 21
70.32
 31
0.0
  0
LINE
  5
4AD
330
1E
100
AcDbEntity
  8
0
  6
Continuous
 62
     3
100
AcDbLine
 10
129.675
 20
70.32
 30
0.0
 11
125.675
 21
70.32
 31
0.0
  0
LINE
  5
4AE
330
1E
100
AcDbEntity
  8
0
  6
Continuous
 62
     3
100
AcDbLine
 10
125.675
 20
68.31999999999999
 30
0.0
 11
129.675
 21
68.31999999999999
 31
0.0
  0
LINE
  5
4AF
330
1E
100
AcDbEntity
  8
0
  6
Continuous
 62
     3
100
AcDbLine
 10
123.1749999999999
 20
68.31999999999999
 30
0.0
 11
123.1749999999999
 21
70.32
 31
0.0
  0
LINE
  5
4B0
330
1E
100
AcDbEntity
  8
0
  6
Continuous
 62
     3
100
AcDbLine
 10
123.1749999999999
 20
70.32
 30
0.0
 11
119.175
 21
70.32
 31
0.0
  0
LINE
  5
4B1
330
1E
100
AcDbEntity
  8
0
  6
Continuous
 62
     3
100
AcDbLine
 10
119.175
 20
70.32
 30
0.0
 11
119.175
 21
68.31999999999999
 31
0.0
  0
LINE
  5
4B2
330
1E
100
AcDbEntity
  8
0
  6
Continuous
 62
     3
100
AcDbLine
 10
119.175
 20
68.31999999999999
 30
0.0
 11
123.1749999999999
 21
68.31999999999999
 31
0.0
  0
LINE
  5
4B3
330
1E
100
AcDbEntity
  8
0
  6
Continuous
 62
     3
100
AcDbLine
 10
125.675
 20
68.31999999999999
 30
0.0
 11
129.675
 21
68.31999999999999
 31
0.0
  0
LINE
  5
4B4
330
1E
100
AcDbEntity
  8
0
  6
Continuous
 62
     3
100
AcDbLine
 10
119.175
 20
68.31999999999999
 30
0.0
 11
123.1749999999999
 21
68.31999999999999
 31
0.0
  0
TEXT
  5
4B5
330
1E
100
AcDbEntity
  8
0
  6
Continuous
 62
     3
100
AcDbText
 10
79.675
 20
102.57
 30
0.0
 40
2.0
  1
ＧＯ
 41
0.9
  7
KANJI1
100
AcDbText
  0
TEXT
  5
4B6
330
1E
100
AcDbEntity
  8
0
  6
Continuous
 62
     3
100
AcDbText
 10
64.92499999999999
 20
102.57
 30
0.0
 40
2.0
  1
ＨＩ
 41
0.9
  7
KANJI1
100
AcDbText
  0
TEXT
  5
4B7
330
1E
100
AcDbEntity
  8
0
  6
Continuous
 62
     3
100
AcDbText
 10
94.92499999999999
 20
102.57
 30
0.0
 40
2.0
  1
ＬＯ
 41
0.9
  7
KANJI1
100
AcDbText
  0
TEXT
  5
4B8
330
1E
100
AcDbEntity
  8
0
  6
Continuous
 62
     3
100
AcDbText
 10
119.7249999999999
 20
71.57
 30
0.0
 40
1.7
  1
ＭＥ
 41
0.9
  7
KANJI2
100
AcDbText
  0
TEXT
  5
4B9
330
1E
100
AcDbEntity
  8
0
  6
Continuous
 62
     3
100
AcDbText
 10
126.2249999999999
 20
71.57
 30
0.0
 40
1.7
  1
ＰＨ
 41
0.9
  7
KANJI2
100
AcDbText
  0
LINE
  5
4BA
330
1E
100
AcDbEntity
  8
0
  6
Continuous
 62
     3
100
AcDbLine
 10
52.77499999999999
 20
87.56999999999996
 30
0.0
 11
54.775
 21
87.56999999999996
 31
0.0
  0
LINE
  5
4BB
330
1E
100
AcDbEntity
  8
0
  6
Continuous
 62
     3
100
AcDbLine
 10
54.775
 20
87.56999999999996
 30
0.0
 11
54.775
 21
88.56999999999997
 31
0.0
  0
LINE
  5
4BC
330
1E
100
AcDbEntity
  8
0
  6
Continuous
 62
     3
100
AcDbLine
 10
54.775
 20
88.56999999999997
 30
0.0
 11
52.77499999999999
 21
88.56999999999997
 31
0.0
  0
LINE
  5
4BD
330
1E
100
AcDbEntity
  8
0
  6
Continuous
 62
     3
100
AcDbLine
 10
52.77499999999999
 20
88.56999999999997
 30
0.0
 11
52.77499999999999
 21
87.56999999999996
 31
0.0
  0
LINE
  5
4BE
330
1E
100
AcDbEntity
  8
0
  6
Continuous
 62
     3
100
AcDbLine
 10
108.7749999999999
 20
91.06999999999999
 30
0.0
 11
137.175
 21
91.06999999999999
 31
0.0
  0
LINE
  5
4BF
330
1E
100
AcDbEntity
  8
0
  6
Continuous
 62
     3
100
AcDbLine
 10
137.175
 20
91.06999999999999
 30
0.0
 11
137.175
 21
101.0699999999999
 31
0.0
  0
LINE
  5
4C0
330
1E
100
AcDbEntity
  8
0
  6
Continuous
 62
     3
100
AcDbLine
 10
137.175
 20
101.0699999999999
 30
0.0
 11
108.7749999999999
 21
101.0699999999999
 31
0.0
  0
LINE
  5
4C1
330
1E
100
AcDbEntity
  8
0
  6
Continuous
 62
     3
100
AcDbLine
 10
108.7749999999999
 20
101.0699999999999
 30
0.0
 11
108.7749999999999
 21
91.06999999999999
 31
0.0
  0
LINE
  5
4C2
330
1E
100
AcDbEntity
  8
0
  6
Continuous
 62
     3
100
AcDbLine
 10
108.7749999999999
 20
79.56999999999998
 30
0.0
 11
137.175
 21
79.56999999999998
 31
0.0
  0
LINE
  5
4C3
330
1E
100
AcDbEntity
  8
0
  6
Continuous
 62
     3
100
AcDbLine
 10
137.175
 20
79.56999999999998
 30
0.0
 11
137.175
 21
89.56999999999998
 31
0.0
  0
LINE
  5
4C4
330
1E
100
AcDbEntity
  8
0
  6
Continuous
 62
     3
100
AcDbLine
 10
137.175
 20
89.56999999999998
 30
0.0
 11
108.7749999999999
 21
89.56999999999998
 31
0.0
  0
LINE
  5
4C5
330
1E
100
AcDbEntity
  8
0
  6
Continuous
 62
     3
100
AcDbLine
 10
108.7749999999999
 20
89.56999999999998
 30
0.0
 11
108.7749999999999
 21
79.56999999999998
 31
0.0
  0
LINE
  5
4C6
330
1E
100
AcDbEntity
  8
0
  6
Continuous
 62
     3
100
AcDbLine
 10
106.275
 20
79.42
 30
0.0
 11
106.275
 21
96.72
 31
0.0
  0
LINE
  5
4C7
330
1E
100
AcDbEntity
  8
0
  6
Continuous
 62
     3
100
AcDbLine
 10
106.275
 20
96.72
 30
0.0
 11
55.67499999999999
 21
96.72
 31
0.0
  0
LINE
  5
4C8
330
1E
100
AcDbEntity
  8
0
  6
Continuous
 62
     3
100
AcDbLine
 10
55.67499999999999
 20
79.42
 30
0.0
 11
106.275
 21
79.42
 31
0.0
  0
LINE
  5
4C9
330
1E
100
AcDbEntity
  8
0
  6
Continuous
 62
     3
100
AcDbLine
 10
55.67499999999999
 20
96.72
 30
0.0
 11
55.67499999999999
 21
79.42
 31
0.0
  0
TEXT
  5
4CA
330
1E
100
AcDbEntity
  8
0
  6
Continuous
 62
     3
100
AcDbText
 10
119.4749999999999
 20
65.97
 30
0.0
 40
1.7
  1
ＤＺ
 41
0.9
  7
KANJI2
100
AcDbText
  0
TEXT
  5
4CB
330
1E
100
AcDbEntity
  8
0
  6
Continuous
 62
     3
100
AcDbText
 10
126.2249999999999
 20
65.97
 30
0.0
 40
1.7
  1
ＲＥ
 41
0.9
  7
KANJI2
100
AcDbText
  0
TEXT
  5
4CC
330
1E
100
AcDbEntity
  8
0
  6
Continuous
 62
     3
100
AcDbText
 10
117.4749999999999
 20
77.06999999999998
 30
0.0
 40
2.0
  1
ＬＯ　　ＳＥＴ
 41
0.9
  7
KANJI1
100
AcDbText
  0
TEXT
  5
4CD
330
1E
100
AcDbEntity
  8
0
  6
Continuous
 62
     3
100
AcDbText
 10
117.325
 20
102.37
 30
0.0
 40
2.0
  1
 ＨＩ　ＳＥＴ
 41
0.9
  7
KANJI1
100
AcDbText
  0
ARC
  5
4CE
330
1E
100
AcDbEntity
  8
0
  6
Continuous
 62
     1
100
AcDbCircle
 10
62.675
 20
73.71999999999998
 30
0.0
 40
1.0
100
AcDbArc
 50
0.0
 51
90.0
  0
ARC
  5
4CF
330
1E
100
AcDbEntity
  8
0
  6
Continuous
 62
     1
100
AcDbCircle
 10
56.675
 20
73.71999999999998
 30
0.0
 40
1.0
100
AcDbArc
 50
90.0
 51
180.0
  0
LINE
  5
4D0
330
1E
100
AcDbEntity
  8
0
  6
Continuous
 62
     1
100
AcDbLine
 10
62.675
 20
74.72
 30
0.0
 11
56.675
 21
74.72
 31
0.0
  0
ARC
  5
4D1
330
1E
100
AcDbEntity
  8
0
  6
Continuous
 62
     1
100
AcDbCircle
 10
62.675
 20
73.71999999999998
 30
0.0
 40
0.5
100
AcDbArc
 50
0.0
 51
90.0
  0
LINE
  5
4D2
330
1E
100
AcDbEntity
  8
0
  6
Continuous
 62
     1
100
AcDbLine
 10
62.675
 20
74.22
 30
0.0
 11
56.675
 21
74.22
 31
0.0
  0
ARC
  5
4D3
330
1E
100
AcDbEntity
  8
0
  6
Continuous
 62
     1
100
AcDbCircle
 10
56.675
 20
73.71999999999998
 30
0.0
 40
0.5
100
AcDbArc
 50
90.0
 51
180.0
  0
ARC
  5
4D4
330
1E
100
AcDbEntity
  8
0
  6
Continuous
 62
     1
100
AcDbCircle
 10
62.675
 20
67.72
 30
0.0
 40
1.0
100
AcDbArc
 50
270.0
 51
0.0
  0
ARC
  5
4D5
330
1E
100
AcDbEntity
  8
0
  6
Continuous
 62
     1
100
AcDbCircle
 10
56.675
 20
67.72
 30
0.0
 40
1.0
100
AcDbArc
 50
180.0
 51
270.0
  0
LINE
  5
4D6
330
1E
100
AcDbEntity
  8
0
  6
Continuous
 62
     1
100
AcDbLine
 10
56.675
 20
66.72
 30
0.0
 11
62.675
 21
66.72
 31
0.0
  0
LINE
  5
4D7
330
1E
100
AcDbEntity
  8
0
  6
Continuous
 62
     1
100
AcDbLine
 10
56.675
 20
67.22
 30
0.0
 11
62.675
 21
67.22
 31
0.0
  0
ARC
  5
4D8
330
1E
100
AcDbEntity
  8
0
  6
Continuous
 62
     1
100
AcDbCircle
 10
62.675
 20
67.72
 30
0.0
 40
0.5
100
AcDbArc
 50
270.0
 51
0.0
  0
ARC
  5
4D9
330
1E
100
AcDbEntity
  8
0
  6
Continuous
 62
     1
100
AcDbCircle
 10
56.675
 20
67.72
 30
0.0
 40
0.5
100
AcDbArc
 50
180.0
 51
270.0
  0
LINE
  5
4DA
330
1E
100
AcDbEntity
  8
0
  6
Continuous
 62
     1
100
AcDbLine
 10
63.67499999999999
 20
67.72
 30
0.0
 11
63.67499999999999
 21
73.71999999999998
 31
0.0
  0
LINE
  5
4DB
330
1E
100
AcDbEntity
  8
0
  6
Continuous
 62
     1
100
AcDbLine
 10
55.67499999999999
 20
73.71999999999998
 30
0.0
 11
55.67499999999999
 21
67.72
 31
0.0
  0
LINE
  5
4DC
330
1E
100
AcDbEntity
  8
0
  6
Continuous
 62
     1
100
AcDbLine
 10
63.17499999999999
 20
67.72
 30
0.0
 11
63.17499999999999
 21
73.71999999999998
 31
0.0
  0
LINE
  5
4DD
330
1E
100
AcDbEntity
  8
0
  6
Continuous
 62
     1
100
AcDbLine
 10
56.17499999999999
 20
73.71999999999998
 30
0.0
 11
56.17499999999999
 21
67.72
 31
0.0
  0
ARC
  5
4DE
330
1E
100
AcDbEntity
  8
0
  6
Continuous
 62
     1
100
AcDbCircle
 10
72.675
 20
67.72
 30
0.0
 40
1.0
100
AcDbArc
 50
270.0
 51
0.0
  0
ARC
  5
4DF
330
1E
100
AcDbEntity
  8
0
  6
Continuous
 62
     1
100
AcDbCircle
 10
66.675
 20
67.72
 30
0.0
 40
1.0
100
AcDbArc
 50
180.0
 51
270.0
  0
LINE
  5
4E0
330
1E
100
AcDbEntity
  8
0
  6
Continuous
 62
     1
100
AcDbLine
 10
66.675
 20
66.72
 30
0.0
 11
72.675
 21
66.72
 31
0.0
  0
LINE
  5
4E1
330
1E
100
AcDbEntity
  8
0
  6
Continuous
 62
     1
100
AcDbLine
 10
73.67499999999998
 20
67.72
 30
0.0
 11
73.67499999999998
 21
72.74
 31
0.0
  0
ARC
  5
4E2
330
1E
100
AcDbEntity
  8
0
  6
Continuous
 62
     1
100
AcDbCircle
 10
66.675
 20
67.72
 30
0.0
 40
0.5
100
AcDbArc
 50
180.0
 51
270.0
  0
ARC
  5
4E3
330
1E
100
AcDbEntity
  8
0
  6
Continuous
 62
     1
100
AcDbCircle
 10
72.675
 20
67.72
 30
0.0
 40
0.5
100
AcDbArc
 50
270.0
 51
0.0
  0
LINE
  5
4E4
330
1E
100
AcDbEntity
  8
0
  6
Continuous
 62
     1
100
AcDbLine
 10
66.675
 20
67.22
 30
0.0
 11
72.675
 21
67.22
 31
0.0
  0
ARC
  5
4E5
330
1E
100
AcDbEntity
  8
0
  6
Continuous
 62
     1
100
AcDbCircle
 10
72.675
 20
73.71999999999998
 30
0.0
 40
1.0
100
AcDbArc
 50
0.0
 51
90.0
  0
LINE
  5
4E6
330
1E
100
AcDbEntity
  8
0
  6
Continuous
 62
     1
100
AcDbLine
 10
73.67499999999998
 20
72.72
 30
0.0
 11
73.67499999999998
 21
73.71999999999998
 31
0.0
  0
ARC
  5
4E7
330
1E
100
AcDbEntity
  8
0
  6
Continuous
 62
     1
100
AcDbCircle
 10
66.675
 20
73.71999999999998
 30
0.0
 40
1.0
100
AcDbArc
 50
90.0
 51
180.0
  0
LINE
  5
4E8
330
1E
100
AcDbEntity
  8
0
  6
Continuous
 62
     1
100
AcDbLine
 10
72.675
 20
74.72
 30
0.0
 11
66.675
 21
74.72
 31
0.0
  0
ARC
  5
4E9
330
1E
100
AcDbEntity
  8
0
  6
Continuous
 62
     1
100
AcDbCircle
 10
72.675
 20
73.71999999999998
 30
0.0
 40
0.5
100
AcDbArc
 50
0.0
 51
90.0
  0
LINE
  5
4EA
330
1E
100
AcDbEntity
  8
0
  6
Continuous
 62
     1
100
AcDbLine
 10
72.675
 20
74.22
 30
0.0
 11
66.675
 21
74.22
 31
0.0
  0
ARC
  5
4EB
330
1E
100
AcDbEntity
  8
0
  6
Continuous
 62
     1
100
AcDbCircle
 10
66.675
 20
73.71999999999998
 30
0.0
 40
0.5
100
AcDbArc
 50
90.0
 51
180.0
  0
LINE
  5
4EC
330
1E
100
AcDbEntity
  8
0
  6
Continuous
 62
     1
100
AcDbLine
 10
65.67499999999999
 20
73.71999999999998
 30
0.0
 11
65.67499999999999
 21
67.72
 31
0.0
  0
LINE
  5
4ED
330
1E
100
AcDbEntity
  8
0
  6
Continuous
 62
     1
100
AcDbLine
 10
66.17499999999999
 20
73.71999999999998
 30
0.0
 11
66.17499999999999
 21
67.72
 31
0.0
  0
LINE
  5
4EE
330
1E
100
AcDbEntity
  8
0
  6
Continuous
 62
     1
100
AcDbLine
 10
73.17499999999999
 20
67.72
 30
0.0
 11
73.17499999999999
 21
73.71999999999998
 31
0.0
  0
LINE
  5
4EF
330
1E
100
AcDbEntity
  8
0
  6
Continuous
 62
     1
100
AcDbLine
 10
82.675
 20
74.72
 30
0.0
 11
76.675
 21
74.72
 31
0.0
  0
ARC
  5
4F0
330
1E
100
AcDbEntity
  8
0
  6
Continuous
 62
     1
100
AcDbCircle
 10
82.675
 20
73.71999999999998
 30
0.0
 40
1.0
100
AcDbArc
 50
0.0
 51
90.0
  0
ARC
  5
4F1
330
1E
100
AcDbEntity
  8
0
  6
Continuous
 62
     1
100
AcDbCircle
 10
82.675
 20
73.71999999999998
 30
0.0
 40
0.5
100
AcDbArc
 50
0.0
 51
90.0
  0
LINE
  5
4F2
330
1E
100
AcDbEntity
  8
0
  6
Continuous
 62
     1
100
AcDbLine
 10
82.675
 20
74.22
 30
0.0
 11
76.675
 21
74.22
 31
0.0
  0
ARC
  5
4F3
330
1E
100
AcDbEntity
  8
0
  6
Continuous
 62
     1
100
AcDbCircle
 10
76.675
 20
73.71999999999998
 30
0.0
 40
1.0
100
AcDbArc
 50
90.0
 51
180.0
  0
ARC
  5
4F4
330
1E
100
AcDbEntity
  8
0
  6
Continuous
 62
     1
100
AcDbCircle
 10
76.675
 20
73.71999999999998
 30
0.0
 40
0.5
100
AcDbArc
 50
90.0
 51
180.0
  0
LINE
  5
4F5
330
1E
100
AcDbEntity
  8
0
  6
Continuous
 62
     1
100
AcDbLine
 10
75.67499999999999
 20
68.47
 30
0.0
 11
75.67499999999999
 21
67.72
 31
0.0
  0
LINE
  5
4F6
330
1E
100
AcDbEntity
  8
0
  6
Continuous
 62
     1
100
AcDbLine
 10
76.675
 20
66.72
 30
0.0
 11
82.675
 21
66.72
 31
0.0
  0
ARC
  5
4F7
330
1E
100
AcDbEntity
  8
0
  6
Continuous
 62
     1
100
AcDbCircle
 10
76.675
 20
67.72
 30
0.0
 40
1.0
100
AcDbArc
 50
180.0
 51
270.0
  0
ARC
  5
4F8
330
1E
100
AcDbEntity
  8
0
  6
Continuous
 62
     1
100
AcDbCircle
 10
82.675
 20
67.72
 30
0.0
 40
1.0
100
AcDbArc
 50
270.0
 51
0.0
  0
ARC
  5
4F9
330
1E
100
AcDbEntity
  8
0
  6
Continuous
 62
     1
100
AcDbCircle
 10
76.675
 20
67.72
 30
0.0
 40
0.5
100
AcDbArc
 50
180.0
 51
270.0
  0
LINE
  5
4FA
330
1E
100
AcDbEntity
  8
0
  6
Continuous
 62
     1
100
AcDbLine
 10
76.675
 20
67.22
 30
0.0
 11
82.675
 21
67.22
 31
0.0
  0
ARC
  5
4FB
330
1E
100
AcDbEntity
  8
0
  6
Continuous
 62
     1
100
AcDbCircle
 10
82.675
 20
67.72
 30
0.0
 40
0.5
100
AcDbArc
 50
270.0
 51
0.0
  0
LINE
  5
4FC
330
1E
100
AcDbEntity
  8
0
  6
Continuous
 62
     1
100
AcDbLine
 10
83.67499999999997
 20
67.72
 30
0.0
 11
83.67499999999997
 21
73.71999999999998
 31
0.0
  0
LINE
  5
4FD
330
1E
100
AcDbEntity
  8
0
  6
Continuous
 62
     1
100
AcDbLine
 10
83.175
 20
67.72
 30
0.0
 11
83.175
 21
73.71999999999998
 31
0.0
  0
LINE
  5
4FE
330
1E
100
AcDbEntity
  8
0
  6
Continuous
 62
     1
100
AcDbLine
 10
75.67499999999999
 20
73.71999999999998
 30
0.0
 11
75.67499999999999
 21
68.15000000000001
 31
0.0
  0
LINE
  5
4FF
330
1E
100
AcDbEntity
  8
0
  6
Continuous
 62
     1
100
AcDbLine
 10
76.17499999999998
 20
73.71999999999998
 30
0.0
 11
76.17499999999998
 21
67.72
 31
0.0
  0
ARC
  5
500
330
1E
100
AcDbEntity
  8
0
  6
Continuous
 62
     1
100
AcDbCircle
 10
86.675
 20
73.71999999999998
 30
0.0
 40
1.0
100
AcDbArc
 50
90.0
 51
180.0
  0
ARC
  5
501
330
1E
100
AcDbEntity
  8
0
  6
Continuous
 62
     1
100
AcDbCircle
 10
86.675
 20
73.71999999999998
 30
0.0
 40
0.5
100
AcDbArc
 50
90.0
 51
180.0
  0
LINE
  5
502
330
1E
100
AcDbEntity
  8
0
  6
Continuous
 62
     1
100
AcDbLine
 10
85.675
 20
73.71999999999998
 30
0.0
 11
85.675
 21
67.72
 31
0.0
  0
LINE
  5
503
330
1E
100
AcDbEntity
  8
0
  6
Continuous
 62
     1
100
AcDbLine
 10
86.17499999999997
 20
73.71999999999998
 30
0.0
 11
86.17499999999997
 21
67.72
 31
0.0
  0
ARC
  5
504
330
1E
100
AcDbEntity
  8
0
  6
Continuous
 62
     1
100
AcDbCircle
 10
86.675
 20
67.72
 30
0.0
 40
1.0
100
AcDbArc
 50
180.0
 51
270.0
  0
ARC
  5
505
330
1E
100
AcDbEntity
  8
0
  6
Continuous
 62
     1
100
AcDbCircle
 10
86.675
 20
67.72
 30
0.0
 40
0.5
100
AcDbArc
 50
180.0
 51
270.0
  0
LINE
  5
506
330
1E
100
AcDbEntity
  8
0
  6
Continuous
 62
     1
100
AcDbLine
 10
55.70479456000001
 20
73.96228372899999
 30
0.0
 11
56.432716271
 21
74.69020544
 31
0.0
  0
LINE
  5
507
330
1E
100
AcDbEntity
  8
0
  6
Continuous
 62
     1
100
AcDbLine
 10
56.886774901
 20
74.72
 30
0.0
 11
55.67499999999999
 21
73.508225099
 31
0.0
  0
LINE
  5
508
330
1E
100
AcDbEntity
  8
0
  6
Continuous
 62
     1
100
AcDbLine
 10
55.67499999999999
 20
73.083961031
 30
0.0
 11
56.17499999999999
 21
73.583961031
 31
0.0
  0
LINE
  5
509
330
1E
100
AcDbEntity
  8
0
  6
Continuous
 62
     1
100
AcDbLine
 10
56.81103896899999
 20
74.22
 30
0.0
 11
57.31103896899999
 21
74.72
 31
0.0
  0
LINE
  5
50A
330
1E
100
AcDbEntity
  8
0
  6
Continuous
 62
     1
100
AcDbLine
 10
57.73530303800001
 20
74.72
 30
0.0
 11
57.235303038
 21
74.22
 31
0.0
  0
LINE
  5
50B
330
1E
100
AcDbEntity
  8
0
  6
Continuous
 62
     1
100
AcDbLine
 10
56.17499999999999
 20
73.15969696199998
 30
0.0
 11
55.67499999999999
 21
72.65969696199999
 31
0.0
  0
LINE
  5
50C
330
1E
100
AcDbEntity
  8
0
  6
Continuous
 62
     1
100
AcDbLine
 10
55.67499999999999
 20
72.235432893
 30
0.0
 11
56.17499999999999
 21
72.735432893
 31
0.0
  0
LINE
  5
50D
330
1E
100
AcDbEntity
  8
0
  6
Continuous
 62
     1
100
AcDbLine
 10
57.659567107
 20
74.22
 30
0.0
 11
58.159567107
 21
74.72
 31
0.0
  0
LINE
  5
50E
330
1E
100
AcDbEntity
  8
0
  6
Continuous
 62
     1
100
AcDbLine
 10
58.583831175
 20
74.72
 30
0.0
 11
58.083831175
 21
74.22
 31
0.0
  0
LINE
  5
50F
330
1E
100
AcDbEntity
  8
0
  6
Continuous
 62
     1
100
AcDbLine
 10
56.17499999999999
 20
72.311168825
 30
0.0
 11
55.67499999999999
 21
71.81116882499998
 31
0.0
  0
LINE
  5
510
330
1E
100
AcDbEntity
  8
0
  6
Continuous
 62
     1
100
AcDbLine
 10
55.67499999999999
 20
71.386904756
 30
0.0
 11
56.17499999999999
 21
71.88690475600001
 31
0.0
  0
LINE
  5
511
330
1E
100
AcDbEntity
  8
0
  6
Continuous
 62
     1
100
AcDbLine
 10
58.50809524399999
 20
74.22
 30
0.0
 11
59.00809524399999
 21
74.72
 31
0.0
  0
LINE
  5
512
330
1E
100
AcDbEntity
  8
0
  6
Continuous
 62
     1
100
AcDbLine
 10
59.432359313
 20
74.72
 30
0.0
 11
58.932359313
 21
74.22
 31
0.0
  0
LINE
  5
513
330
1E
100
AcDbEntity
  8
0
  6
Continuous
 62
     1
100
AcDbLine
 10
56.17499999999999
 20
71.462640687
 30
0.0
 11
55.67499999999999
 21
70.962640687
 31
0.0
  0
LINE
  5
514
330
1E
100
AcDbEntity
  8
0
  6
Continuous
 62
     1
100
AcDbLine
 10
55.67499999999999
 20
70.538376618
 30
0.0
 11
56.17499999999999
 21
71.038376618
 31
0.0
  0
LINE
  5
515
330
1E
100
AcDbEntity
  8
0
  6
Continuous
 62
     1
100
AcDbLine
 10
59.356623382
 20
74.22
 30
0.0
 11
59.856623382
 21
74.72
 31
0.0
  0
LINE
  5
516
330
1E
100
AcDbEntity
  8
0
  6
Continuous
 62
     1
100
AcDbLine
 10
60.28088745
 20
74.72
 30
0.0
 11
59.78088745
 21
74.22
 31
0.0
  0
LINE
  5
517
330
1E
100
AcDbEntity
  8
0
  6
Continuous
 62
     1
100
AcDbLine
 10
56.17499999999999
 20
70.61411255
 30
0.0
 11
55.67499999999999
 21
70.11411255
 31
0.0
  0
LINE
  5
518
330
1E
100
AcDbEntity
  8
0
  6
Continuous
 62
     1
100
AcDbLine
 10
55.67499999999999
 20
69.68984848099999
 30
0.0
 11
56.17499999999999
 21
70.189848481
 31
0.0
  0
LINE
  5
519
330
1E
100
AcDbEntity
  8
0
  6
Continuous
 62
     1
100
AcDbLine
 10
60.20515151899999
 20
74.22
 30
0.0
 11
60.705151519
 21
74.72
 31
0.0
  0
LINE
  5
51A
330
1E
100
AcDbEntity
  8
0
  6
Continuous
 62
     1
100
AcDbLine
 10
61.129415588
 20
74.72
 30
0.0
 11
60.629415588
 21
74.22
 31
0.0
  0
LINE
  5
51B
330
1E
100
AcDbEntity
  8
0
  6
Continuous
 62
     1
100
AcDbLine
 10
56.17499999999999
 20
69.76558441199999
 30
0.0
 11
55.67499999999999
 21
69.265584412
 31
0.0
  0
LINE
  5
51C
330
1E
100
AcDbEntity
  8
0
  6
Continuous
 62
     1
100
AcDbLine
 10
55.67499999999999
 20
68.841320344
 30
0.0
 11
56.17499999999999
 21
69.341320344
 31
0.0
  0
LINE
  5
51D
330
1E
100
AcDbEntity
  8
0
  6
Continuous
 62
     1
100
AcDbLine
 10
61.05367965600001
 20
74.22
 30
0.0
 11
61.553679656
 21
74.72
 31
0.0
  0
LINE
  5
51E
330
1E
100
AcDbEntity
  8
0
  6
Continuous
 62
     1
100
AcDbLine
 10
61.977943725
 20
74.72
 30
0.0
 11
61.477943725
 21
74.22
 31
0.0
  0
LINE
  5
51F
330
1E
100
AcDbEntity
  8
0
  6
Continuous
 62
     1
100
AcDbLine
 10
56.17499999999999
 20
68.91705627499999
 30
0.0
 11
55.67499999999999
 21
68.41705627499999
 31
0.0
  0
LINE
  5
520
330
1E
100
AcDbEntity
  8
0
  6
Continuous
 62
     1
100
AcDbLine
 10
55.67499999999999
 20
67.992792206
 30
0.0
 11
56.17499999999999
 21
68.492792206
 31
0.0
  0
LINE
  5
521
330
1E
100
AcDbEntity
  8
0
  6
Continuous
 62
     1
100
AcDbLine
 10
61.902207794
 20
74.22
 30
0.0
 11
62.402207794
 21
74.72
 31
0.0
  0
LINE
  5
522
330
1E
100
AcDbEntity
  8
0
  6
Continuous
 62
     1
100
AcDbLine
 10
62.81642135600001
 20
74.709949494
 30
0.0
 11
62.326471863
 21
74.22
 31
0.0
  0
LINE
  5
523
330
1E
100
AcDbEntity
  8
0
  6
Continuous
 62
     1
100
AcDbLine
 10
56.17499999999999
 20
68.068528137
 30
0.0
 11
55.685050506
 21
67.57857864399999
 31
0.0
  0
LINE
  5
524
330
1E
100
AcDbEntity
  8
0
  6
Continuous
 62
     1
100
AcDbLine
 10
55.78833108699999
 20
67.257595156
 30
0.0
 11
56.180025253
 21
67.649289322
 31
0.0
  0
LINE
  5
525
330
1E
100
AcDbEntity
  8
0
  6
Continuous
 62
     1
100
AcDbLine
 10
62.745710678
 20
74.214974747
 30
0.0
 11
63.137404844
 21
74.606668913
 31
0.0
  0
LINE
  5
526
330
1E
100
AcDbEntity
  8
0
  6
Continuous
 62
     1
100
AcDbLine
 10
63.38210678100001
 20
74.427106781
 30
0.0
 11
63.028553391
 21
74.073553391
 31
0.0
  0
LINE
  5
527
330
1E
100
AcDbEntity
  8
0
  6
Continuous
 62
     1
100
AcDbLine
 10
56.32144660899999
 20
67.36644660899999
 30
0.0
 11
55.967893219
 21
67.01289321899999
 31
0.0
  0
LINE
  5
528
330
1E
100
AcDbEntity
  8
0
  6
Continuous
 62
     1
100
AcDbLine
 10
56.21259515600001
 20
66.83333108700001
 30
0.0
 11
56.604289322
 21
67.225025253
 31
0.0
  0
LINE
  5
529
330
1E
100
AcDbEntity
  8
0
  6
Continuous
 62
     1
100
AcDbLine
 10
63.16997474699999
 20
73.79071067799998
 30
0.0
 11
63.561668913
 21
74.18240484399999
 31
0.0
  0
LINE
  5
52A
330
1E
100
AcDbEntity
  8
0
  6
Continuous
 62
     1
100
AcDbLine
 10
63.66494949399999
 20
73.861421356
 30
0.0
 11
63.17499999999999
 21
73.371471863
 31
0.0
  0
LINE
  5
52B
330
1E
100
AcDbEntity
  8
0
  6
Continuous
 62
     1
100
AcDbLine
 10
57.023528137
 20
67.22
 30
0.0
 11
56.533578644
 21
66.730050506
 31
0.0
  0
LINE
  5
52C
330
1E
100
AcDbEntity
  8
0
  6
Continuous
 62
     1
100
AcDbLine
 10
56.947792206
 20
66.72
 30
0.0
 11
57.447792206
 21
67.22
 31
0.0
  0
LINE
  5
52D
330
1E
100
AcDbEntity
  8
0
  6
Continuous
 62
     1
100
AcDbLine
 10
63.17499999999999
 20
72.94720779399999
 30
0.0
 11
63.67499999999999
 21
73.44720779399999
 31
0.0
  0
LINE
  5
52E
330
1E
100
AcDbEntity
  8
0
  6
Continuous
 62
     1
100
AcDbLine
 10
63.67499999999999
 20
73.022943725
 30
0.0
 11
63.17499999999999
 21
72.522943725
 31
0.0
  0
LINE
  5
52F
330
1E
100
AcDbEntity
  8
0
  6
Continuous
 62
     1
100
AcDbLine
 10
57.872056275
 20
67.22
 30
0.0
 11
57.37205627499999
 21
66.72
 31
0.0
  0
LINE
  5
530
330
1E
100
AcDbEntity
  8
0
  6
Continuous
 62
     1
100
AcDbLine
 10
57.79632034399999
 20
66.72
 30
0.0
 11
58.29632034399999
 21
67.22
 31
0.0
  0
LINE
  5
531
330
1E
100
AcDbEntity
  8
0
  6
Continuous
 62
     1
100
AcDbLine
 10
63.17499999999999
 20
72.098679656
 30
0.0
 11
63.67499999999999
 21
72.598679656
 31
0.0
  0
LINE
  5
532
330
1E
100
AcDbEntity
  8
0
  6
Continuous
 62
     1
100
AcDbLine
 10
63.67499999999999
 20
72.174415588
 30
0.0
 11
63.17499999999999
 21
71.674415588
 31
0.0
  0
LINE
  5
533
330
1E
100
AcDbEntity
  8
0
  6
Continuous
 62
     1
100
AcDbLine
 10
58.720584412
 20
67.22
 30
0.0
 11
58.220584412
 21
66.72
 31
0.0
  0
LINE
  5
534
330
1E
100
AcDbEntity
  8
0
  6
Continuous
 62
     1
100
AcDbLine
 10
58.644848481
 20
66.72
 30
0.0
 11
59.144848481
 21
67.22
 31
0.0
  0
LINE
  5
535
330
1E
100
AcDbEntity
  8
0
  6
Continuous
 62
     1
100
AcDbLine
 10
63.17499999999999
 20
71.250151519
 30
0.0
 11
63.67499999999999
 21
71.750151519
 31
0.0
  0
LINE
  5
536
330
1E
100
AcDbEntity
  8
0
  6
Continuous
 62
     1
100
AcDbLine
 10
63.67499999999999
 20
71.32588744999998
 30
0.0
 11
63.17499999999999
 21
70.82588744999998
 31
0.0
  0
LINE
  5
537
330
1E
100
AcDbEntity
  8
0
  6
Continuous
 62
     1
100
AcDbLine
 10
59.56911255
 20
67.22
 30
0.0
 11
59.06911255
 21
66.72
 31
0.0
  0
LINE
  5
538
330
1E
100
AcDbEntity
  8
0
  6
Continuous
 62
     1
100
AcDbLine
 10
59.493376618
 20
66.72
 30
0.0
 11
59.993376618
 21
67.22
 31
0.0
  0
LINE
  5
539
330
1E
100
AcDbEntity
  8
0
  6
Continuous
 62
     1
100
AcDbLine
 10
63.17499999999999
 20
70.401623382
 30
0.0
 11
63.67499999999999
 21
70.90162338199998
 31
0.0
  0
LINE
  5
53A
330
1E
100
AcDbEntity
  8
0
  6
Continuous
 62
     1
100
AcDbLine
 10
63.67499999999999
 20
70.477359313
 30
0.0
 11
63.17499999999999
 21
69.97735931300001
 31
0.0
  0
LINE
  5
53B
330
1E
100
AcDbEntity
  8
0
  6
Continuous
 62
     1
100
AcDbLine
 10
60.417640687
 20
67.22
 30
0.0
 11
59.917640687
 21
66.72
 31
0.0
  0
LINE
  5
53C
330
1E
100
AcDbEntity
  8
0
  6
Continuous
 62
     1
100
AcDbLine
 10
60.341904756
 20
66.72
 30
0.0
 11
60.841904756
 21
67.22
 31
0.0
  0
LINE
  5
53D
330
1E
100
AcDbEntity
  8
0
  6
Continuous
 62
     1
100
AcDbLine
 10
63.17499999999999
 20
69.55309524399999
 30
0.0
 11
63.67499999999999
 21
70.05309524399999
 31
0.0
  0
LINE
  5
53E
330
1E
100
AcDbEntity
  8
0
  6
Continuous
 62
     1
100
AcDbLine
 10
63.67499999999999
 20
69.628831175
 30
0.0
 11
63.17499999999999
 21
69.128831175
 31
0.0
  0
LINE
  5
53F
330
1E
100
AcDbEntity
  8
0
  6
Continuous
 62
     1
100
AcDbLine
 10
61.266168825
 20
67.22
 30
0.0
 11
60.766168825
 21
66.72
 31
0.0
  0
LINE
  5
540
330
1E
100
AcDbEntity
  8
0
  6
Continuous
 62
     1
100
AcDbLine
 10
61.190432893
 20
66.72
 30
0.0
 11
61.690432893
 21
67.22
 31
0.0
  0
LINE
  5
541
330
1E
100
AcDbEntity
  8
0
  6
Continuous
 62
     1
100
AcDbLine
 10
63.17499999999999
 20
68.704567107
 30
0.0
 11
63.67499999999999
 21
69.204567107
 31
0.0
  0
LINE
  5
542
330
1E
100
AcDbEntity
  8
0
  6
Continuous
 62
     1
100
AcDbLine
 10
63.67499999999999
 20
68.780303038
 30
0.0
 11
63.17499999999999
 21
68.280303038
 31
0.0
  0
LINE
  5
543
330
1E
100
AcDbEntity
  8
0
  6
Continuous
 62
     1
100
AcDbLine
 10
62.114696962
 20
67.22
 30
0.0
 11
61.614696962
 21
66.72
 31
0.0
  0
LINE
  5
544
330
1E
100
AcDbEntity
  8
0
  6
Continuous
 62
     1
100
AcDbLine
 10
62.038961031
 20
66.72
 30
0.0
 11
62.538961031
 21
67.22
 31
0.0
  0
LINE
  5
545
330
1E
100
AcDbEntity
  8
0
  6
Continuous
 62
     1
100
AcDbLine
 10
63.17499999999999
 20
67.85603896899999
 30
0.0
 11
63.67499999999999
 21
68.356038969
 31
0.0
  0
LINE
  5
546
330
1E
100
AcDbEntity
  8
0
  6
Continuous
 62
     1
100
AcDbLine
 10
63.67499999999999
 20
67.93177490099999
 30
0.0
 11
62.463225099
 21
66.72
 31
0.0
  0
LINE
  5
547
330
1E
100
AcDbEntity
  8
0
  6
Continuous
 62
     1
100
AcDbLine
 10
62.91728372899999
 20
66.74979455999999
 30
0.0
 11
63.64520544
 21
67.477716271
 31
0.0
  0
LINE
  5
548
330
1E
100
AcDbEntity
  8
0
  6
Continuous
 62
     1
100
AcDbLine
 10
56.432716271
 20
66.74979455999999
 30
0.0
 11
55.70479456000001
 21
67.477716271
 31
0.0
  0
LINE
  5
549
330
1E
100
AcDbEntity
  8
0
  6
Continuous
 62
     1
100
AcDbLine
 10
55.67499999999999
 20
67.93177490099999
 30
0.0
 11
56.886774901
 21
66.72
 31
0.0
  0
LINE
  5
54A
330
1E
100
AcDbEntity
  8
0
  6
Continuous
 62
     1
100
AcDbLine
 10
57.31103896899999
 20
66.72
 30
0.0
 11
56.81103896899999
 21
67.22
 31
0.0
  0
LINE
  5
54B
330
1E
100
AcDbEntity
  8
0
  6
Continuous
 62
     1
100
AcDbLine
 10
56.17499999999999
 20
67.85603896899999
 30
0.0
 11
55.67499999999999
 21
68.356038969
 31
0.0
  0
LINE
  5
54C
330
1E
100
AcDbEntity
  8
0
  6
Continuous
 62
     1
100
AcDbLine
 10
55.67499999999999
 20
68.780303038
 30
0.0
 11
56.17499999999999
 21
68.280303038
 31
0.0
  0
LINE
  5
54D
330
1E
100
AcDbEntity
  8
0
  6
Continuous
 62
     1
100
AcDbLine
 10
57.235303038
 20
67.22
 30
0.0
 11
57.73530303800001
 21
66.72
 31
0.0
  0
LINE
  5
54E
330
1E
100
AcDbEntity
  8
0
  6
Continuous
 62
     1
100
AcDbLine
 10
58.159567107
 20
66.72
 30
0.0
 11
57.659567107
 21
67.22
 31
0.0
  0
LINE
  5
54F
330
1E
100
AcDbEntity
  8
0
  6
Continuous
 62
     1
100
AcDbLine
 10
56.17499999999999
 20
68.704567107
 30
0.0
 11
55.67499999999999
 21
69.204567107
 31
0.0
  0
LINE
  5
550
330
1E
100
AcDbEntity
  8
0
  6
Continuous
 62
     1
100
AcDbLine
 10
55.67499999999999
 20
69.628831175
 30
0.0
 11
56.17499999999999
 21
69.128831175
 31
0.0
  0
LINE
  5
551
330
1E
100
AcDbEntity
  8
0
  6
Continuous
 62
     1
100
AcDbLine
 10
58.083831175
 20
67.22
 30
0.0
 11
58.583831175
 21
66.72
 31
0.0
  0
LINE
  5
552
330
1E
100
AcDbEntity
  8
0
  6
Continuous
 62
     1
100
AcDbLine
 10
59.00809524399999
 20
66.72
 30
0.0
 11
58.50809524399999
 21
67.22
 31
0.0
  0
LINE
  5
553
330
1E
100
AcDbEntity
  8
0
  6
Continuous
 62
     1
100
AcDbLine
 10
56.17499999999999
 20
69.55309524399999
 30
0.0
 11
55.67499999999999
 21
70.05309524399999
 31
0.0
  0
LINE
  5
554
330
1E
100
AcDbEntity
  8
0
  6
Continuous
 62
     1
100
AcDbLine
 10
55.67499999999999
 20
70.477359313
 30
0.0
 11
56.17499999999999
 21
69.97735931300001
 31
0.0
  0
LINE
  5
555
330
1E
100
AcDbEntity
  8
0
  6
Continuous
 62
     1
100
AcDbLine
 10
58.932359313
 20
67.22
 30
0.0
 11
59.432359313
 21
66.72
 31
0.0
  0
LINE
  5
556
330
1E
100
AcDbEntity
  8
0
  6
Continuous
 62
     1
100
AcDbLine
 10
59.856623382
 20
66.72
 30
0.0
 11
59.356623382
 21
67.22
 31
0.0
  0
LINE
  5
557
330
1E
100
AcDbEntity
  8
0
  6
Continuous
 62
     1
100
AcDbLine
 10
56.17499999999999
 20
70.401623382
 30
0.0
 11
55.67499999999999
 21
70.90162338199998
 31
0.0
  0
LINE
  5
558
330
1E
100
AcDbEntity
  8
0
  6
Continuous
 62
     1
100
AcDbLine
 10
55.67499999999999
 20
71.32588744999998
 30
0.0
 11
56.17499999999999
 21
70.82588744999998
 31
0.0
  0
LINE
  5
559
330
1E
100
AcDbEntity
  8
0
  6
Continuous
 62
     1
100
AcDbLine
 10
59.78088745
 20
67.22
 30
0.0
 11
60.28088745
 21
66.72
 31
0.0
  0
LINE
  5
55A
330
1E
100
AcDbEntity
  8
0
  6
Continuous
 62
     1
100
AcDbLine
 10
60.705151519
 20
66.72
 30
0.0
 11
60.20515151899999
 21
67.22
 31
0.0
  0
LINE
  5
55B
330
1E
100
AcDbEntity
  8
0
  6
Continuous
 62
     1
100
AcDbLine
 10
56.17499999999999
 20
71.250151519
 30
0.0
 11
55.67499999999999
 21
71.750151519
 31
0.0
  0
LINE
  5
55C
330
1E
100
AcDbEntity
  8
0
  6
Continuous
 62
     1
100
AcDbLine
 10
55.67499999999999
 20
72.174415588
 30
0.0
 11
56.17499999999999
 21
71.674415588
 31
0.0
  0
LINE
  5
55D
330
1E
100
AcDbEntity
  8
0
  6
Continuous
 62
     1
100
AcDbLine
 10
60.629415588
 20
67.22
 30
0.0
 11
61.129415588
 21
66.72
 31
0.0
  0
LINE
  5
55E
330
1E
100
AcDbEntity
  8
0
  6
Continuous
 62
     1
100
AcDbLine
 10
61.553679656
 20
66.72
 30
0.0
 11
61.05367965600001
 21
67.22
 31
0.0
  0
LINE
  5
55F
330
1E
100
AcDbEntity
  8
0
  6
Continuous
 62
     1
100
AcDbLine
 10
56.17499999999999
 20
72.098679656
 30
0.0
 11
55.67499999999999
 21
72.598679656
 31
0.0
  0
LINE
  5
560
330
1E
100
AcDbEntity
  8
0
  6
Continuous
 62
     1
100
AcDbLine
 10
55.67499999999999
 20
73.022943725
 30
0.0
 11
56.17499999999999
 21
72.522943725
 31
0.0
  0
LINE
  5
561
330
1E
100
AcDbEntity
  8
0
  6
Continuous
 62
     1
100
AcDbLine
 10
61.477943725
 20
67.22
 30
0.0
 11
61.977943725
 21
66.72
 31
0.0
  0
LINE
  5
562
330
1E
100
AcDbEntity
  8
0
  6
Continuous
 62
     1
100
AcDbLine
 10
62.402207794
 20
66.72
 30
0.0
 11
61.902207794
 21
67.22
 31
0.0
  0
LINE
  5
563
330
1E
100
AcDbEntity
  8
0
  6
Continuous
 62
     1
100
AcDbLine
 10
56.17499999999999
 20
72.94720779399999
 30
0.0
 11
55.67499999999999
 21
73.44720779399999
 31
0.0
  0
LINE
  5
564
330
1E
100
AcDbEntity
  8
0
  6
Continuous
 62
     1
100
AcDbLine
 10
55.685050506
 20
73.861421356
 30
0.0
 11
56.17499999999999
 21
73.371471863
 31
0.0
  0
LINE
  5
565
330
1E
100
AcDbEntity
  8
0
  6
Continuous
 62
     1
100
AcDbLine
 10
62.326471863
 20
67.22
 30
0.0
 11
62.81642135600001
 21
66.730050506
 31
0.0
  0
LINE
  5
566
330
1E
100
AcDbEntity
  8
0
  6
Continuous
 62
     1
100
AcDbLine
 10
63.137404844
 20
66.83333108700001
 30
0.0
 11
62.745710678
 21
67.225025253
 31
0.0
  0
LINE
  5
567
330
1E
100
AcDbEntity
  8
0
  6
Continuous
 62
     1
100
AcDbLine
 10
56.180025253
 20
73.79071067799998
 30
0.0
 11
55.78833108699999
 21
74.18240484399999
 31
0.0
  0
LINE
  5
568
330
1E
100
AcDbEntity
  8
0
  6
Continuous
 62
     1
100
AcDbLine
 10
55.967893219
 20
74.427106781
 30
0.0
 11
56.32144660899999
 21
74.073553391
 31
0.0
  0
LINE
  5
569
330
1E
100
AcDbEntity
  8
0
  6
Continuous
 62
     1
100
AcDbLine
 10
63.028553391
 20
67.36644660899999
 30
0.0
 11
63.38210678100001
 21
67.01289321899999
 31
0.0
  0
LINE
  5
56A
330
1E
100
AcDbEntity
  8
0
  6
Continuous
 62
     1
100
AcDbLine
 10
63.561668913
 20
67.257595156
 30
0.0
 11
63.16997474699999
 21
67.649289322
 31
0.0
  0
LINE
  5
56B
330
1E
100
AcDbEntity
  8
0
  6
Continuous
 62
     1
100
AcDbLine
 10
56.604289322
 20
74.214974747
 30
0.0
 11
56.21259515600001
 21
74.606668913
 31
0.0
  0
LINE
  5
56C
330
1E
100
AcDbEntity
  8
0
  6
Continuous
 62
     1
100
AcDbLine
 10
56.533578644
 20
74.709949494
 30
0.0
 11
57.023528137
 21
74.22
 31
0.0
  0
LINE
  5
56D
330
1E
100
AcDbEntity
  8
0
  6
Continuous
 62
     1
100
AcDbLine
 10
63.17499999999999
 20
68.068528137
 30
0.0
 11
63.66494949399999
 21
67.57857864399999
 31
0.0
  0
LINE
  5
56E
330
1E
100
AcDbEntity
  8
0
  6
Continuous
 62
     1
100
AcDbLine
 10
63.67499999999999
 20
67.992792206
 30
0.0
 11
63.17499999999999
 21
68.492792206
 31
0.0
  0
LINE
  5
56F
330
1E
100
AcDbEntity
  8
0
  6
Continuous
 62
     1
100
AcDbLine
 10
57.447792206
 20
74.22
 30
0.0
 11
56.947792206
 21
74.72
 31
0.0
  0
LINE
  5
570
330
1E
100
AcDbEntity
  8
0
  6
Continuous
 62
     1
100
AcDbLine
 10
57.37205627499999
 20
74.72
 30
0.0
 11
57.872056275
 21
74.22
 31
0.0
  0
LINE
  5
571
330
1E
100
AcDbEntity
  8
0
  6
Continuous
 62
     1
100
AcDbLine
 10
63.17499999999999
 20
68.91705627499999
 30
0.0
 11
63.67499999999999
 21
68.41705627499999
 31
0.0
  0
LINE
  5
572
330
1E
100
AcDbEntity
  8
0
  6
Continuous
 62
     1
100
AcDbLine
 10
63.67499999999999
 20
68.841320344
 30
0.0
 11
63.17499999999999
 21
69.341320344
 31
0.0
  0
LINE
  5
573
330
1E
100
AcDbEntity
  8
0
  6
Continuous
 62
     1
100
AcDbLine
 10
58.29632034399999
 20
74.22
 30
0.0
 11
57.79632034399999
 21
74.72
 31
0.0
  0
LINE
  5
574
330
1E
100
AcDbEntity
  8
0
  6
Continuous
 62
     1
100
AcDbLine
 10
58.220584412
 20
74.72
 30
0.0
 11
58.720584412
 21
74.22
 31
0.0
  0
LINE
  5
575
330
1E
100
AcDbEntity
  8
0
  6
Continuous
 62
     1
100
AcDbLine
 10
63.17499999999999
 20
69.76558441199999
 30
0.0
 11
63.67499999999999
 21
69.265584412
 31
0.0
  0
LINE
  5
576
330
1E
100
AcDbEntity
  8
0
  6
Continuous
 62
     1
100
AcDbLine
 10
63.67499999999999
 20
69.68984848099999
 30
0.0
 11
63.17499999999999
 21
70.189848481
 31
0.0
  0
LINE
  5
577
330
1E
100
AcDbEntity
  8
0
  6
Continuous
 62
     1
100
AcDbLine
 10
59.144848481
 20
74.22
 30
0.0
 11
58.644848481
 21
74.72
 31
0.0
  0
LINE
  5
578
330
1E
100
AcDbEntity
  8
0
  6
Continuous
 62
     1
100
AcDbLine
 10
59.06911255
 20
74.72
 30
0.0
 11
59.56911255
 21
74.22
 31
0.0
  0
LINE
  5
579
330
1E
100
AcDbEntity
  8
0
  6
Continuous
 62
     1
100
AcDbLine
 10
63.17499999999999
 20
70.61411255
 30
0.0
 11
63.67499999999999
 21
70.11411255
 31
0.0
  0
LINE
  5
57A
330
1E
100
AcDbEntity
  8
0
  6
Continuous
 62
     1
100
AcDbLine
 10
63.67499999999999
 20
70.538376618
 30
0.0
 11
63.17499999999999
 21
71.038376618
 31
0.0
  0
LINE
  5
57B
330
1E
100
AcDbEntity
  8
0
  6
Continuous
 62
     1
100
AcDbLine
 10
59.993376618
 20
74.22
 30
0.0
 11
59.493376618
 21
74.72
 31
0.0
  0
LINE
  5
57C
330
1E
100
AcDbEntity
  8
0
  6
Continuous
 62
     1
100
AcDbLine
 10
59.917640687
 20
74.72
 30
0.0
 11
60.417640687
 21
74.22
 31
0.0
  0
LINE
  5
57D
330
1E
100
AcDbEntity
  8
0
  6
Continuous
 62
     1
100
AcDbLine
 10
63.17499999999999
 20
71.462640687
 30
0.0
 11
63.67499999999999
 21
70.962640687
 31
0.0
  0
LINE
  5
57E
330
1E
100
AcDbEntity
  8
0
  6
Continuous
 62
     1
100
AcDbLine
 10
63.67499999999999
 20
71.386904756
 30
0.0
 11
63.17499999999999
 21
71.88690475600001
 31
0.0
  0
LINE
  5
57F
330
1E
100
AcDbEntity
  8
0
  6
Continuous
 62
     1
100
AcDbLine
 10
60.841904756
 20
74.22
 30
0.0
 11
60.341904756
 21
74.72
 31
0.0
  0
LINE
  5
580
330
1E
100
AcDbEntity
  8
0
  6
Continuous
 62
     1
100
AcDbLine
 10
60.766168825
 20
74.72
 30
0.0
 11
61.266168825
 21
74.22
 31
0.0
  0
LINE
  5
581
330
1E
100
AcDbEntity
  8
0
  6
Continuous
 62
     1
100
AcDbLine
 10
63.17499999999999
 20
72.311168825
 30
0.0
 11
63.67499999999999
 21
71.81116882499998
 31
0.0
  0
LINE
  5
582
330
1E
100
AcDbEntity
  8
0
  6
Continuous
 62
     1
100
AcDbLine
 10
63.67499999999999
 20
72.235432893
 30
0.0
 11
63.17499999999999
 21
72.735432893
 31
0.0
  0
LINE
  5
583
330
1E
100
AcDbEntity
  8
0
  6
Continuous
 62
     1
100
AcDbLine
 10
61.690432893
 20
74.22
 30
0.0
 11
61.190432893
 21
74.72
 31
0.0
  0
LINE
  5
584
330
1E
100
AcDbEntity
  8
0
  6
Continuous
 62
     1
100
AcDbLine
 10
61.614696962
 20
74.72
 30
0.0
 11
62.114696962
 21
74.22
 31
0.0
  0
LINE
  5
585
330
1E
100
AcDbEntity
  8
0
  6
Continuous
 62
     1
100
AcDbLine
 10
63.17499999999999
 20
73.15969696199998
 30
0.0
 11
63.67499999999999
 21
72.65969696199999
 31
0.0
  0
LINE
  5
586
330
1E
100
AcDbEntity
  8
0
  6
Continuous
 62
     1
100
AcDbLine
 10
63.67499999999999
 20
73.083961031
 30
0.0
 11
63.17499999999999
 21
73.583961031
 31
0.0
  0
LINE
  5
587
330
1E
100
AcDbEntity
  8
0
  6
Continuous
 62
     1
100
AcDbLine
 10
62.538961031
 20
74.22
 30
0.0
 11
62.038961031
 21
74.72
 31
0.0
  0
LINE
  5
588
330
1E
100
AcDbEntity
  8
0
  6
Continuous
 62
     1
100
AcDbLine
 10
62.463225099
 20
74.72
 30
0.0
 11
63.67499999999999
 21
73.508225099
 31
0.0
  0
LINE
  5
589
330
1E
100
AcDbEntity
  8
0
  6
Continuous
 62
     1
100
AcDbLine
 10
63.64520544
 20
73.96228372899999
 30
0.0
 11
62.91728372899999
 21
74.69020544
 31
0.0
  0
LINE
  5
58A
330
1E
100
AcDbEntity
  8
0
  6
Continuous
 62
     1
100
AcDbLine
 10
65.70479456
 20
73.96228372899999
 30
0.0
 11
66.432716271
 21
74.69020544
 31
0.0
  0
LINE
  5
58B
330
1E
100
AcDbEntity
  8
0
  6
Continuous
 62
     1
100
AcDbLine
 10
66.88677490100001
 20
74.72
 30
0.0
 11
65.67499999999999
 21
73.508225099
 31
0.0
  0
LINE
  5
58C
330
1E
100
AcDbEntity
  8
0
  6
Continuous
 62
     1
100
AcDbLine
 10
65.67499999999999
 20
73.083961031
 30
0.0
 11
66.17499999999999
 21
73.583961031
 31
0.0
  0
LINE
  5
58D
330
1E
100
AcDbEntity
  8
0
  6
Continuous
 62
     1
100
AcDbLine
 10
66.81103896899999
 20
74.22
 30
0.0
 11
67.31103896899999
 21
74.72
 31
0.0
  0
LINE
  5
58E
330
1E
100
AcDbEntity
  8
0
  6
Continuous
 62
     1
100
AcDbLine
 10
67.735303038
 20
74.72
 30
0.0
 11
67.235303038
 21
74.22
 31
0.0
  0
LINE
  5
58F
330
1E
100
AcDbEntity
  8
0
  6
Continuous
 62
     1
100
AcDbLine
 10
66.17499999999999
 20
73.15969696199998
 30
0.0
 11
65.67499999999999
 21
72.65969696199999
 31
0.0
  0
LINE
  5
590
330
1E
100
AcDbEntity
  8
0
  6
Continuous
 62
     1
100
AcDbLine
 10
65.67499999999999
 20
72.235432893
 30
0.0
 11
66.17499999999999
 21
72.735432893
 31
0.0
  0
LINE
  5
591
330
1E
100
AcDbEntity
  8
0
  6
Continuous
 62
     1
100
AcDbLine
 10
67.659567107
 20
74.22
 30
0.0
 11
68.159567107
 21
74.72
 31
0.0
  0
LINE
  5
592
330
1E
100
AcDbEntity
  8
0
  6
Continuous
 62
     1
100
AcDbLine
 10
68.583831175
 20
74.72
 30
0.0
 11
68.083831175
 21
74.22
 31
0.0
  0
LINE
  5
593
330
1E
100
AcDbEntity
  8
0
  6
Continuous
 62
     1
100
AcDbLine
 10
66.17499999999999
 20
72.311168825
 30
0.0
 11
65.67499999999999
 21
71.81116882499998
 31
0.0
  0
LINE
  5
594
330
1E
100
AcDbEntity
  8
0
  6
Continuous
 62
     1
100
AcDbLine
 10
65.67499999999999
 20
71.386904756
 30
0.0
 11
66.17499999999999
 21
71.88690475600001
 31
0.0
  0
LINE
  5
595
330
1E
100
AcDbEntity
  8
0
  6
Continuous
 62
     1
100
AcDbLine
 10
68.508095244
 20
74.22
 30
0.0
 11
69.008095244
 21
74.72
 31
0.0
  0
LINE
  5
596
330
1E
100
AcDbEntity
  8
0
  6
Continuous
 62
     1
100
AcDbLine
 10
69.43235931300001
 20
74.72
 30
0.0
 11
68.93235931300001
 21
74.22
 31
0.0
  0
LINE
  5
597
330
1E
100
AcDbEntity
  8
0
  6
Continuous
 62
     1
100
AcDbLine
 10
66.17499999999999
 20
71.462640687
 30
0.0
 11
65.67499999999999
 21
70.962640687
 31
0.0
  0
LINE
  5
598
330
1E
100
AcDbEntity
  8
0
  6
Continuous
 62
     1
100
AcDbLine
 10
65.67499999999999
 20
70.538376618
 30
0.0
 11
66.17499999999999
 21
71.038376618
 31
0.0
  0
LINE
  5
599
330
1E
100
AcDbEntity
  8
0
  6
Continuous
 62
     1
100
AcDbLine
 10
69.356623382
 20
74.22
 30
0.0
 11
69.856623382
 21
74.72
 31
0.0
  0
LINE
  5
59A
330
1E
100
AcDbEntity
  8
0
  6
Continuous
 62
     1
100
AcDbLine
 10
70.28088744999999
 20
74.72
 30
0.0
 11
69.78088744999999
 21
74.22
 31
0.0
  0
LINE
  5
59B
330
1E
100
AcDbEntity
  8
0
  6
Continuous
 62
     1
100
AcDbLine
 10
66.17499999999999
 20
70.61411255
 30
0.0
 11
65.67499999999999
 21
70.11411255
 31
0.0
  0
LINE
  5
59C
330
1E
100
AcDbEntity
  8
0
  6
Continuous
 62
     1
100
AcDbLine
 10
65.67499999999999
 20
69.68984848099999
 30
0.0
 11
66.17499999999999
 21
70.189848481
 31
0.0
  0
LINE
  5
59D
330
1E
100
AcDbEntity
  8
0
  6
Continuous
 62
     1
100
AcDbLine
 10
70.20515151899999
 20
74.22
 30
0.0
 11
70.705151519
 21
74.72
 31
0.0
  0
LINE
  5
59E
330
1E
100
AcDbEntity
  8
0
  6
Continuous
 62
     1
100
AcDbLine
 10
71.129415588
 20
74.72
 30
0.0
 11
70.629415588
 21
74.22
 31
0.0
  0
LINE
  5
59F
330
1E
100
AcDbEntity
  8
0
  6
Continuous
 62
     1
100
AcDbLine
 10
66.17499999999999
 20
69.76558441199999
 30
0.0
 11
65.67499999999999
 21
69.265584412
 31
0.0
  0
LINE
  5
5A0
330
1E
100
AcDbEntity
  8
0
  6
Continuous
 62
     1
100
AcDbLine
 10
65.67499999999999
 20
68.841320344
 30
0.0
 11
66.17499999999999
 21
69.341320344
 31
0.0
  0
LINE
  5
5A1
330
1E
100
AcDbEntity
  8
0
  6
Continuous
 62
     1
100
AcDbLine
 10
71.053679656
 20
74.22
 30
0.0
 11
71.55367965599999
 21
74.72
 31
0.0
  0
LINE
  5
5A2
330
1E
100
AcDbEntity
  8
0
  6
Continuous
 62
     1
100
AcDbLine
 10
71.977943725
 20
74.72
 30
0.0
 11
71.477943725
 21
74.22
 31
0.0
  0
LINE
  5
5A3
330
1E
100
AcDbEntity
  8
0
  6
Continuous
 62
     1
100
AcDbLine
 10
66.17499999999999
 20
68.91705627499999
 30
0.0
 11
65.67499999999999
 21
68.41705627499999
 31
0.0
  0
LINE
  5
5A4
330
1E
100
AcDbEntity
  8
0
  6
Continuous
 62
     1
100
AcDbLine
 10
65.67499999999999
 20
67.992792206
 30
0.0
 11
66.17499999999999
 21
68.492792206
 31
0.0
  0
LINE
  5
5A5
330
1E
100
AcDbEntity
  8
0
  6
Continuous
 62
     1
100
AcDbLine
 10
71.90220779399999
 20
74.22
 30
0.0
 11
72.40220779399999
 21
74.72
 31
0.0
  0
LINE
  5
5A6
330
1E
100
AcDbEntity
  8
0
  6
Continuous
 62
     1
100
AcDbLine
 10
72.81642135600001
 20
74.709949494
 30
0.0
 11
72.32647186300001
 21
74.22
 31
0.0
  0
LINE
  5
5A7
330
1E
100
AcDbEntity
  8
0
  6
Continuous
 62
     1
100
AcDbLine
 10
66.17499999999999
 20
68.068528137
 30
0.0
 11
65.68505050600001
 21
67.57857864399999
 31
0.0
  0
LINE
  5
5A8
330
1E
100
AcDbEntity
  8
0
  6
Continuous
 62
     1
100
AcDbLine
 10
65.788331087
 20
67.257595156
 30
0.0
 11
66.18002525299999
 21
67.649289322
 31
0.0
  0
LINE
  5
5A9
330
1E
100
AcDbEntity
  8
0
  6
Continuous
 62
     1
100
AcDbLine
 10
72.74571067800001
 20
74.214974747
 30
0.0
 11
73.137404844
 21
74.606668913
 31
0.0
  0
LINE
  5
5AA
330
1E
100
AcDbEntity
  8
0
  6
Continuous
 62
     1
100
AcDbLine
 10
73.38210678100002
 20
74.427106781
 30
0.0
 11
73.028553391
 21
74.073553391
 31
0.0
  0
LINE
  5
5AB
330
1E
100
AcDbEntity
  8
0
  6
Continuous
 62
     1
100
AcDbLine
 10
66.32144660899999
 20
67.36644660899999
 30
0.0
 11
65.96789321899999
 21
67.01289321899999
 31
0.0
  0
LINE
  5
5AC
330
1E
100
AcDbEntity
  8
0
  6
Continuous
 62
     1
100
AcDbLine
 10
66.21259515600001
 20
66.83333108700001
 30
0.0
 11
66.604289322
 21
67.225025253
 31
0.0
  0
LINE
  5
5AD
330
1E
100
AcDbEntity
  8
0
  6
Continuous
 62
     1
100
AcDbLine
 10
73.16997474699999
 20
73.79071067799998
 30
0.0
 11
73.561668913
 21
74.18240484399999
 31
0.0
  0
LINE
  5
5AE
330
1E
100
AcDbEntity
  8
0
  6
Continuous
 62
     1
100
AcDbLine
 10
73.66494949399998
 20
73.861421356
 30
0.0
 11
73.17499999999999
 21
73.371471863
 31
0.0
  0
LINE
  5
5AF
330
1E
100
AcDbEntity
  8
0
  6
Continuous
 62
     1
100
AcDbLine
 10
67.023528137
 20
67.22
 30
0.0
 11
66.533578644
 21
66.730050506
 31
0.0
  0
LINE
  5
5B0
330
1E
100
AcDbEntity
  8
0
  6
Continuous
 62
     1
100
AcDbLine
 10
66.947792206
 20
66.72
 30
0.0
 11
67.447792206
 21
67.22
 31
0.0
  0
LINE
  5
5B1
330
1E
100
AcDbEntity
  8
0
  6
Continuous
 62
     1
100
AcDbLine
 10
73.17499999999999
 20
72.94720779399999
 30
0.0
 11
73.67499999999998
 21
73.44720779399999
 31
0.0
  0
LINE
  5
5B2
330
1E
100
AcDbEntity
  8
0
  6
Continuous
 62
     1
100
AcDbLine
 10
73.67499999999998
 20
73.022943725
 30
0.0
 11
73.17499999999999
 21
72.522943725
 31
0.0
  0
LINE
  5
5B3
330
1E
100
AcDbEntity
  8
0
  6
Continuous
 62
     1
100
AcDbLine
 10
67.872056275
 20
67.22
 30
0.0
 11
67.372056275
 21
66.72
 31
0.0
  0
LINE
  5
5B4
330
1E
100
AcDbEntity
  8
0
  6
Continuous
 62
     1
100
AcDbLine
 10
67.79632034399999
 20
66.72
 30
0.0
 11
68.29632034399999
 21
67.22
 31
0.0
  0
LINE
  5
5B5
330
1E
100
AcDbEntity
  8
0
  6
Continuous
 62
     1
100
AcDbLine
 10
73.17499999999999
 20
72.098679656
 30
0.0
 11
73.67499999999998
 21
72.598679656
 31
0.0
  0
LINE
  5
5B6
330
1E
100
AcDbEntity
  8
0
  6
Continuous
 62
     1
100
AcDbLine
 10
73.67499999999998
 20
72.174415588
 30
0.0
 11
73.17499999999999
 21
71.674415588
 31
0.0
  0
LINE
  5
5B7
330
1E
100
AcDbEntity
  8
0
  6
Continuous
 62
     1
100
AcDbLine
 10
68.720584412
 20
67.22
 30
0.0
 11
68.22058441199999
 21
66.72
 31
0.0
  0
LINE
  5
5B8
330
1E
100
AcDbEntity
  8
0
  6
Continuous
 62
     1
100
AcDbLine
 10
68.644848481
 20
66.72
 30
0.0
 11
69.14484848099999
 21
67.22
 31
0.0
  0
LINE
  5
5B9
330
1E
100
AcDbEntity
  8
0
  6
Continuous
 62
     1
100
AcDbLine
 10
73.17499999999999
 20
71.250151519
 30
0.0
 11
73.67499999999998
 21
71.750151519
 31
0.0
  0
LINE
  5
5BA
330
1E
100
AcDbEntity
  8
0
  6
Continuous
 62
     1
100
AcDbLine
 10
73.67499999999998
 20
71.32588744999998
 30
0.0
 11
73.17499999999999
 21
70.82588744999998
 31
0.0
  0
LINE
  5
5BB
330
1E
100
AcDbEntity
  8
0
  6
Continuous
 62
     1
100
AcDbLine
 10
69.56911255
 20
67.22
 30
0.0
 11
69.06911255
 21
66.72
 31
0.0
  0
LINE
  5
5BC
330
1E
100
AcDbEntity
  8
0
  6
Continuous
 62
     1
100
AcDbLine
 10
69.493376618
 20
66.72
 30
0.0
 11
69.993376618
 21
67.22
 31
0.0
  0
LINE
  5
5BD
330
1E
100
AcDbEntity
  8
0
  6
Continuous
 62
     1
100
AcDbLine
 10
73.17499999999999
 20
70.401623382
 30
0.0
 11
73.67499999999998
 21
70.90162338199998
 31
0.0
  0
LINE
  5
5BE
330
1E
100
AcDbEntity
  8
0
  6
Continuous
 62
     1
100
AcDbLine
 10
73.67499999999998
 20
70.477359313
 30
0.0
 11
73.17499999999999
 21
69.97735931300001
 31
0.0
  0
LINE
  5
5BF
330
1E
100
AcDbEntity
  8
0
  6
Continuous
 62
     1
100
AcDbLine
 10
70.417640687
 20
67.22
 30
0.0
 11
69.917640687
 21
66.72
 31
0.0
  0
LINE
  5
5C0
330
1E
100
AcDbEntity
  8
0
  6
Continuous
 62
     1
100
AcDbLine
 10
70.341904756
 20
66.72
 30
0.0
 11
70.841904756
 21
67.22
 31
0.0
  0
LINE
  5
5C1
330
1E
100
AcDbEntity
  8
0
  6
Continuous
 62
     1
100
AcDbLine
 10
73.17499999999999
 20
69.55309524399999
 30
0.0
 11
73.67499999999998
 21
70.05309524399999
 31
0.0
  0
LINE
  5
5C2
330
1E
100
AcDbEntity
  8
0
  6
Continuous
 62
     1
100
AcDbLine
 10
73.67499999999998
 20
69.628831175
 30
0.0
 11
73.17499999999999
 21
69.128831175
 31
0.0
  0
LINE
  5
5C3
330
1E
100
AcDbEntity
  8
0
  6
Continuous
 62
     1
100
AcDbLine
 10
71.26616882499998
 20
67.22
 30
0.0
 11
70.76616882499997
 21
66.72
 31
0.0
  0
LINE
  5
5C4
330
1E
100
AcDbEntity
  8
0
  6
Continuous
 62
     1
100
AcDbLine
 10
71.19043289300001
 20
66.72
 30
0.0
 11
71.69043289300001
 21
67.22
 31
0.0
  0
LINE
  5
5C5
330
1E
100
AcDbEntity
  8
0
  6
Continuous
 62
     1
100
AcDbLine
 10
73.17499999999999
 20
68.704567107
 30
0.0
 11
73.67499999999998
 21
69.204567107
 31
0.0
  0
LINE
  5
5C6
330
1E
100
AcDbEntity
  8
0
  6
Continuous
 62
     1
100
AcDbLine
 10
73.67499999999998
 20
68.780303038
 30
0.0
 11
73.17499999999999
 21
68.280303038
 31
0.0
  0
LINE
  5
5C7
330
1E
100
AcDbEntity
  8
0
  6
Continuous
 62
     1
100
AcDbLine
 10
72.114696962
 20
67.22
 30
0.0
 11
71.614696962
 21
66.72
 31
0.0
  0
LINE
  5
5C8
330
1E
100
AcDbEntity
  8
0
  6
Continuous
 62
     1
100
AcDbLine
 10
72.03896103099999
 20
66.72
 30
0.0
 11
72.538961031
 21
67.22
 31
0.0
  0
LINE
  5
5C9
330
1E
100
AcDbEntity
  8
0
  6
Continuous
 62
     1
100
AcDbLine
 10
73.17499999999999
 20
67.85603896899999
 30
0.0
 11
73.67499999999998
 21
68.356038969
 31
0.0
  0
LINE
  5
5CA
330
1E
100
AcDbEntity
  8
0
  6
Continuous
 62
     1
100
AcDbLine
 10
73.67499999999998
 20
67.93177490099999
 30
0.0
 11
72.463225099
 21
66.72
 31
0.0
  0
LINE
  5
5CB
330
1E
100
AcDbEntity
  8
0
  6
Continuous
 62
     1
100
AcDbLine
 10
72.91728372899999
 20
66.74979455999999
 30
0.0
 11
73.64520544
 21
67.477716271
 31
0.0
  0
LINE
  5
5CC
330
1E
100
AcDbEntity
  8
0
  6
Continuous
 62
     1
100
AcDbLine
 10
66.432716271
 20
66.74979455999999
 30
0.0
 11
65.70479456
 21
67.477716271
 31
0.0
  0
LINE
  5
5CD
330
1E
100
AcDbEntity
  8
0
  6
Continuous
 62
     1
100
AcDbLine
 10
65.67499999999999
 20
67.93177490099999
 30
0.0
 11
66.88677490100001
 21
66.72
 31
0.0
  0
LINE
  5
5CE
330
1E
100
AcDbEntity
  8
0
  6
Continuous
 62
     1
100
AcDbLine
 10
67.31103896899999
 20
66.72
 30
0.0
 11
66.81103896899999
 21
67.22
 31
0.0
  0
LINE
  5
5CF
330
1E
100
AcDbEntity
  8
0
  6
Continuous
 62
     1
100
AcDbLine
 10
66.17499999999999
 20
67.85603896899999
 30
0.0
 11
65.67499999999999
 21
68.356038969
 31
0.0
  0
LINE
  5
5D0
330
1E
100
AcDbEntity
  8
0
  6
Continuous
 62
     1
100
AcDbLine
 10
65.67499999999999
 20
68.780303038
 30
0.0
 11
66.17499999999999
 21
68.280303038
 31
0.0
  0
LINE
  5
5D1
330
1E
100
AcDbEntity
  8
0
  6
Continuous
 62
     1
100
AcDbLine
 10
67.235303038
 20
67.22
 30
0.0
 11
67.735303038
 21
66.72
 31
0.0
  0
LINE
  5
5D2
330
1E
100
AcDbEntity
  8
0
  6
Continuous
 62
     1
100
AcDbLine
 10
68.159567107
 20
66.72
 30
0.0
 11
67.659567107
 21
67.22
 31
0.0
  0
LINE
  5
5D3
330
1E
100
AcDbEntity
  8
0
  6
Continuous
 62
     1
100
AcDbLine
 10
66.17499999999999
 20
68.704567107
 30
0.0
 11
65.67499999999999
 21
69.204567107
 31
0.0
  0
LINE
  5
5D4
330
1E
100
AcDbEntity
  8
0
  6
Continuous
 62
     1
100
AcDbLine
 10
65.67499999999999
 20
69.628831175
 30
0.0
 11
66.17499999999999
 21
69.128831175
 31
0.0
  0
LINE
  5
5D5
330
1E
100
AcDbEntity
  8
0
  6
Continuous
 62
     1
100
AcDbLine
 10
68.083831175
 20
67.22
 30
0.0
 11
68.583831175
 21
66.72
 31
0.0
  0
LINE
  5
5D6
330
1E
100
AcDbEntity
  8
0
  6
Continuous
 62
     1
100
AcDbLine
 10
69.008095244
 20
66.72
 30
0.0
 11
68.508095244
 21
67.22
 31
0.0
  0
LINE
  5
5D7
330
1E
100
AcDbEntity
  8
0
  6
Continuous
 62
     1
100
AcDbLine
 10
66.17499999999999
 20
69.55309524399999
 30
0.0
 11
65.67499999999999
 21
70.05309524399999
 31
0.0
  0
LINE
  5
5D8
330
1E
100
AcDbEntity
  8
0
  6
Continuous
 62
     1
100
AcDbLine
 10
65.67499999999999
 20
70.477359313
 30
0.0
 11
66.17499999999999
 21
69.97735931300001
 31
0.0
  0
LINE
  5
5D9
330
1E
100
AcDbEntity
  8
0
  6
Continuous
 62
     1
100
AcDbLine
 10
68.93235931300001
 20
67.22
 30
0.0
 11
69.43235931300001
 21
66.72
 31
0.0
  0
LINE
  5
5DA
330
1E
100
AcDbEntity
  8
0
  6
Continuous
 62
     1
100
AcDbLine
 10
69.856623382
 20
66.72
 30
0.0
 11
69.356623382
 21
67.22
 31
0.0
  0
LINE
  5
5DB
330
1E
100
AcDbEntity
  8
0
  6
Continuous
 62
     1
100
AcDbLine
 10
66.17499999999999
 20
70.401623382
 30
0.0
 11
65.67499999999999
 21
70.90162338199998
 31
0.0
  0
LINE
  5
5DC
330
1E
100
AcDbEntity
  8
0
  6
Continuous
 62
     1
100
AcDbLine
 10
65.67499999999999
 20
71.32588744999998
 30
0.0
 11
66.17499999999999
 21
70.82588744999998
 31
0.0
  0
LINE
  5
5DD
330
1E
100
AcDbEntity
  8
0
  6
Continuous
 62
     1
100
AcDbLine
 10
69.78088744999999
 20
67.22
 30
0.0
 11
70.28088744999999
 21
66.72
 31
0.0
  0
LINE
  5
5DE
330
1E
100
AcDbEntity
  8
0
  6
Continuous
 62
     1
100
AcDbLine
 10
70.705151519
 20
66.72
 30
0.0
 11
70.20515151899999
 21
67.22
 31
0.0
  0
LINE
  5
5DF
330
1E
100
AcDbEntity
  8
0
  6
Continuous
 62
     1
100
AcDbLine
 10
66.17499999999999
 20
71.250151519
 30
0.0
 11
65.67499999999999
 21
71.750151519
 31
0.0
  0
LINE
  5
5E0
330
1E
100
AcDbEntity
  8
0
  6
Continuous
 62
     1
100
AcDbLine
 10
65.67499999999999
 20
72.174415588
 30
0.0
 11
66.17499999999999
 21
71.674415588
 31
0.0
  0
LINE
  5
5E1
330
1E
100
AcDbEntity
  8
0
  6
Continuous
 62
     1
100
AcDbLine
 10
70.629415588
 20
67.22
 30
0.0
 11
71.129415588
 21
66.72
 31
0.0
  0
LINE
  5
5E2
330
1E
100
AcDbEntity
  8
0
  6
Continuous
 62
     1
100
AcDbLine
 10
71.55367965599999
 20
66.72
 30
0.0
 11
71.053679656
 21
67.22
 31
0.0
  0
LINE
  5
5E3
330
1E
100
AcDbEntity
  8
0
  6
Continuous
 62
     1
100
AcDbLine
 10
66.17499999999999
 20
72.098679656
 30
0.0
 11
65.67499999999999
 21
72.598679656
 31
0.0
  0
LINE
  5
5E4
330
1E
100
AcDbEntity
  8
0
  6
Continuous
 62
     1
100
AcDbLine
 10
65.67499999999999
 20
73.022943725
 30
0.0
 11
66.17499999999999
 21
72.522943725
 31
0.0
  0
LINE
  5
5E5
330
1E
100
AcDbEntity
  8
0
  6
Continuous
 62
     1
100
AcDbLine
 10
71.477943725
 20
67.22
 30
0.0
 11
71.977943725
 21
66.72
 31
0.0
  0
LINE
  5
5E6
330
1E
100
AcDbEntity
  8
0
  6
Continuous
 62
     1
100
AcDbLine
 10
72.40220779399999
 20
66.72
 30
0.0
 11
71.90220779399999
 21
67.22
 31
0.0
  0
LINE
  5
5E7
330
1E
100
AcDbEntity
  8
0
  6
Continuous
 62
     1
100
AcDbLine
 10
66.17499999999999
 20
72.94720779399999
 30
0.0
 11
65.67499999999999
 21
73.44720779399999
 31
0.0
  0
LINE
  5
5E8
330
1E
100
AcDbEntity
  8
0
  6
Continuous
 62
     1
100
AcDbLine
 10
65.68505050600001
 20
73.861421356
 30
0.0
 11
66.17499999999999
 21
73.371471863
 31
0.0
  0
LINE
  5
5E9
330
1E
100
AcDbEntity
  8
0
  6
Continuous
 62
     1
100
AcDbLine
 10
72.32647186300001
 20
67.22
 30
0.0
 11
72.81642135600001
 21
66.730050506
 31
0.0
  0
LINE
  5
5EA
330
1E
100
AcDbEntity
  8
0
  6
Continuous
 62
     1
100
AcDbLine
 10
73.137404844
 20
66.83333108700001
 30
0.0
 11
72.74571067800001
 21
67.225025253
 31
0.0
  0
LINE
  5
5EB
330
1E
100
AcDbEntity
  8
0
  6
Continuous
 62
     1
100
AcDbLine
 10
66.18002525299999
 20
73.79071067799998
 30
0.0
 11
65.788331087
 21
74.18240484399999
 31
0.0
  0
LINE
  5
5EC
330
1E
100
AcDbEntity
  8
0
  6
Continuous
 62
     1
100
AcDbLine
 10
65.96789321899999
 20
74.427106781
 30
0.0
 11
66.32144660899999
 21
74.073553391
 31
0.0
  0
LINE
  5
5ED
330
1E
100
AcDbEntity
  8
0
  6
Continuous
 62
     1
100
AcDbLine
 10
73.028553391
 20
67.36644660899999
 30
0.0
 11
73.38210678100002
 21
67.01289321899999
 31
0.0
  0
LINE
  5
5EE
330
1E
100
AcDbEntity
  8
0
  6
Continuous
 62
     1
100
AcDbLine
 10
73.561668913
 20
67.257595156
 30
0.0
 11
73.16997474699999
 21
67.649289322
 31
0.0
  0
LINE
  5
5EF
330
1E
100
AcDbEntity
  8
0
  6
Continuous
 62
     1
100
AcDbLine
 10
66.604289322
 20
74.214974747
 30
0.0
 11
66.21259515600001
 21
74.606668913
 31
0.0
  0
LINE
  5
5F0
330
1E
100
AcDbEntity
  8
0
  6
Continuous
 62
     1
100
AcDbLine
 10
66.533578644
 20
74.709949494
 30
0.0
 11
67.023528137
 21
74.22
 31
0.0
  0
LINE
  5
5F1
330
1E
100
AcDbEntity
  8
0
  6
Continuous
 62
     1
100
AcDbLine
 10
73.17499999999999
 20
68.068528137
 30
0.0
 11
73.66494949399998
 21
67.57857864399999
 31
0.0
  0
LINE
  5
5F2
330
1E
100
AcDbEntity
  8
0
  6
Continuous
 62
     1
100
AcDbLine
 10
73.67499999999998
 20
67.992792206
 30
0.0
 11
73.17499999999999
 21
68.492792206
 31
0.0
  0
LINE
  5
5F3
330
1E
100
AcDbEntity
  8
0
  6
Continuous
 62
     1
100
AcDbLine
 10
67.447792206
 20
74.22
 30
0.0
 11
66.947792206
 21
74.72
 31
0.0
  0
LINE
  5
5F4
330
1E
100
AcDbEntity
  8
0
  6
Continuous
 62
     1
100
AcDbLine
 10
67.372056275
 20
74.72
 30
0.0
 11
67.872056275
 21
74.22
 31
0.0
  0
LINE
  5
5F5
330
1E
100
AcDbEntity
  8
0
  6
Continuous
 62
     1
100
AcDbLine
 10
73.17499999999999
 20
68.91705627499999
 30
0.0
 11
73.67499999999998
 21
68.41705627499999
 31
0.0
  0
LINE
  5
5F6
330
1E
100
AcDbEntity
  8
0
  6
Continuous
 62
     1
100
AcDbLine
 10
73.67499999999998
 20
68.841320344
 30
0.0
 11
73.17499999999999
 21
69.341320344
 31
0.0
  0
LINE
  5
5F7
330
1E
100
AcDbEntity
  8
0
  6
Continuous
 62
     1
100
AcDbLine
 10
68.29632034399999
 20
74.22
 30
0.0
 11
67.79632034399999
 21
74.72
 31
0.0
  0
LINE
  5
5F8
330
1E
100
AcDbEntity
  8
0
  6
Continuous
 62
     1
100
AcDbLine
 10
68.22058441199999
 20
74.72
 30
0.0
 11
68.720584412
 21
74.22
 31
0.0
  0
LINE
  5
5F9
330
1E
100
AcDbEntity
  8
0
  6
Continuous
 62
     1
100
AcDbLine
 10
73.17499999999999
 20
69.76558441199999
 30
0.0
 11
73.67499999999998
 21
69.265584412
 31
0.0
  0
LINE
  5
5FA
330
1E
100
AcDbEntity
  8
0
  6
Continuous
 62
     1
100
AcDbLine
 10
73.67499999999998
 20
69.68984848099999
 30
0.0
 11
73.17499999999999
 21
70.189848481
 31
0.0
  0
LINE
  5
5FB
330
1E
100
AcDbEntity
  8
0
  6
Continuous
 62
     1
100
AcDbLine
 10
69.14484848099999
 20
74.22
 30
0.0
 11
68.644848481
 21
74.72
 31
0.0
  0
LINE
  5
5FC
330
1E
100
AcDbEntity
  8
0
  6
Continuous
 62
     1
100
AcDbLine
 10
69.06911255
 20
74.72
 30
0.0
 11
69.56911255
 21
74.22
 31
0.0
  0
LINE
  5
5FD
330
1E
100
AcDbEntity
  8
0
  6
Continuous
 62
     1
100
AcDbLine
 10
73.17499999999999
 20
70.61411255
 30
0.0
 11
73.67499999999998
 21
70.11411255
 31
0.0
  0
LINE
  5
5FE
330
1E
100
AcDbEntity
  8
0
  6
Continuous
 62
     1
100
AcDbLine
 10
73.67499999999998
 20
70.538376618
 30
0.0
 11
73.17499999999999
 21
71.038376618
 31
0.0
  0
LINE
  5
5FF
330
1E
100
AcDbEntity
  8
0
  6
Continuous
 62
     1
100
AcDbLine
 10
69.993376618
 20
74.22
 30
0.0
 11
69.493376618
 21
74.72
 31
0.0
  0
LINE
  5
600
330
1E
100
AcDbEntity
  8
0
  6
Continuous
 62
     1
100
AcDbLine
 10
69.917640687
 20
74.72
 30
0.0
 11
70.417640687
 21
74.22
 31
0.0
  0
LINE
  5
601
330
1E
100
AcDbEntity
  8
0
  6
Continuous
 62
     1
100
AcDbLine
 10
73.17499999999999
 20
71.462640687
 30
0.0
 11
73.67499999999998
 21
70.962640687
 31
0.0
  0
LINE
  5
602
330
1E
100
AcDbEntity
  8
0
  6
Continuous
 62
     1
100
AcDbLine
 10
73.67499999999998
 20
71.386904756
 30
0.0
 11
73.17499999999999
 21
71.88690475600001
 31
0.0
  0
LINE
  5
603
330
1E
100
AcDbEntity
  8
0
  6
Continuous
 62
     1
100
AcDbLine
 10
70.841904756
 20
74.22
 30
0.0
 11
70.341904756
 21
74.72
 31
0.0
  0
LINE
  5
604
330
1E
100
AcDbEntity
  8
0
  6
Continuous
 62
     1
100
AcDbLine
 10
70.76616882499997
 20
74.72
 30
0.0
 11
71.26616882499998
 21
74.22
 31
0.0
  0
LINE
  5
605
330
1E
100
AcDbEntity
  8
0
  6
Continuous
 62
     1
100
AcDbLine
 10
73.17499999999999
 20
72.311168825
 30
0.0
 11
73.67499999999998
 21
71.81116882499998
 31
0.0
  0
LINE
  5
606
330
1E
100
AcDbEntity
  8
0
  6
Continuous
 62
     1
100
AcDbLine
 10
73.67499999999998
 20
72.235432893
 30
0.0
 11
73.17499999999999
 21
72.735432893
 31
0.0
  0
LINE
  5
607
330
1E
100
AcDbEntity
  8
0
  6
Continuous
 62
     1
100
AcDbLine
 10
71.69043289300001
 20
74.22
 30
0.0
 11
71.19043289300001
 21
74.72
 31
0.0
  0
LINE
  5
608
330
1E
100
AcDbEntity
  8
0
  6
Continuous
 62
     1
100
AcDbLine
 10
71.614696962
 20
74.72
 30
0.0
 11
72.114696962
 21
74.22
 31
0.0
  0
LINE
  5
609
330
1E
100
AcDbEntity
  8
0
  6
Continuous
 62
     1
100
AcDbLine
 10
73.17499999999999
 20
73.15969696199998
 30
0.0
 11
73.67499999999998
 21
72.65969696199999
 31
0.0
  0
LINE
  5
60A
330
1E
100
AcDbEntity
  8
0
  6
Continuous
 62
     1
100
AcDbLine
 10
73.67499999999998
 20
73.083961031
 30
0.0
 11
73.17499999999999
 21
73.583961031
 31
0.0
  0
LINE
  5
60B
330
1E
100
AcDbEntity
  8
0
  6
Continuous
 62
     1
100
AcDbLine
 10
72.538961031
 20
74.22
 30
0.0
 11
72.03896103099999
 21
74.72
 31
0.0
  0
LINE
  5
60C
330
1E
100
AcDbEntity
  8
0
  6
Continuous
 62
     1
100
AcDbLine
 10
72.463225099
 20
74.72
 30
0.0
 11
73.67499999999998
 21
73.508225099
 31
0.0
  0
LINE
  5
60D
330
1E
100
AcDbEntity
  8
0
  6
Continuous
 62
     1
100
AcDbLine
 10
73.64520544
 20
73.96228372899999
 30
0.0
 11
72.91728372899999
 21
74.69020544
 31
0.0
  0
LINE
  5
60E
330
1E
100
AcDbEntity
  8
0
  6
Continuous
 62
     1
100
AcDbLine
 10
75.70479456
 20
73.96228372899999
 30
0.0
 11
76.432716271
 21
74.69020544
 31
0.0
  0
LINE
  5
60F
330
1E
100
AcDbEntity
  8
0
  6
Continuous
 62
     1
100
AcDbLine
 10
76.88677490100001
 20
74.72
 30
0.0
 11
75.67499999999999
 21
73.508225099
 31
0.0
  0
LINE
  5
610
330
1E
100
AcDbEntity
  8
0
  6
Continuous
 62
     1
100
AcDbLine
 10
75.67499999999999
 20
73.083961031
 30
0.0
 11
76.17499999999998
 21
73.583961031
 31
0.0
  0
LINE
  5
611
330
1E
100
AcDbEntity
  8
0
  6
Continuous
 62
     1
100
AcDbLine
 10
76.81103896899998
 20
74.22
 30
0.0
 11
77.31103896899998
 21
74.72
 31
0.0
  0
LINE
  5
612
330
1E
100
AcDbEntity
  8
0
  6
Continuous
 62
     1
100
AcDbLine
 10
77.735303038
 20
74.72
 30
0.0
 11
77.235303038
 21
74.22
 31
0.0
  0
LINE
  5
613
330
1E
100
AcDbEntity
  8
0
  6
Continuous
 62
     1
100
AcDbLine
 10
76.17499999999998
 20
73.15969696199998
 30
0.0
 11
75.67499999999999
 21
72.65969696199999
 31
0.0
  0
LINE
  5
614
330
1E
100
AcDbEntity
  8
0
  6
Continuous
 62
     1
100
AcDbLine
 10
75.67499999999999
 20
72.235432893
 30
0.0
 11
76.17499999999998
 21
72.735432893
 31
0.0
  0
LINE
  5
615
330
1E
100
AcDbEntity
  8
0
  6
Continuous
 62
     1
100
AcDbLine
 10
77.659567107
 20
74.22
 30
0.0
 11
78.159567107
 21
74.72
 31
0.0
  0
LINE
  5
616
330
1E
100
AcDbEntity
  8
0
  6
Continuous
 62
     1
100
AcDbLine
 10
78.583831175
 20
74.72
 30
0.0
 11
78.083831175
 21
74.22
 31
0.0
  0
LINE
  5
617
330
1E
100
AcDbEntity
  8
0
  6
Continuous
 62
     1
100
AcDbLine
 10
76.17499999999998
 20
72.311168825
 30
0.0
 11
75.67499999999999
 21
71.81116882499998
 31
0.0
  0
LINE
  5
618
330
1E
100
AcDbEntity
  8
0
  6
Continuous
 62
     1
100
AcDbLine
 10
75.67499999999999
 20
71.386904756
 30
0.0
 11
76.17499999999998
 21
71.88690475600001
 31
0.0
  0
LINE
  5
619
330
1E
100
AcDbEntity
  8
0
  6
Continuous
 62
     1
100
AcDbLine
 10
78.508095244
 20
74.22
 30
0.0
 11
79.008095244
 21
74.72
 31
0.0
  0
LINE
  5
61A
330
1E
100
AcDbEntity
  8
0
  6
Continuous
 62
     1
100
AcDbLine
 10
79.43235931300001
 20
74.72
 30
0.0
 11
78.93235931300001
 21
74.22
 31
0.0
  0
LINE
  5
61B
330
1E
100
AcDbEntity
  8
0
  6
Continuous
 62
     1
100
AcDbLine
 10
76.17499999999998
 20
71.462640687
 30
0.0
 11
75.67499999999999
 21
70.962640687
 31
0.0
  0
LINE
  5
61C
330
1E
100
AcDbEntity
  8
0
  6
Continuous
 62
     1
100
AcDbLine
 10
75.67499999999999
 20
70.538376618
 30
0.0
 11
76.17499999999998
 21
71.038376618
 31
0.0
  0
LINE
  5
61D
330
1E
100
AcDbEntity
  8
0
  6
Continuous
 62
     1
100
AcDbLine
 10
79.356623382
 20
74.22
 30
0.0
 11
79.856623382
 21
74.72
 31
0.0
  0
LINE
  5
61E
330
1E
100
AcDbEntity
  8
0
  6
Continuous
 62
     1
100
AcDbLine
 10
80.28088744999998
 20
74.72
 30
0.0
 11
79.78088744999998
 21
74.22
 31
0.0
  0
LINE
  5
61F
330
1E
100
AcDbEntity
  8
0
  6
Continuous
 62
     1
100
AcDbLine
 10
76.17499999999998
 20
70.61411255
 30
0.0
 11
75.67499999999999
 21
70.11411255
 31
0.0
  0
LINE
  5
620
330
1E
100
AcDbEntity
  8
0
  6
Continuous
 62
     1
100
AcDbLine
 10
75.67499999999999
 20
69.68984848099999
 30
0.0
 11
76.17499999999998
 21
70.189848481
 31
0.0
  0
LINE
  5
621
330
1E
100
AcDbEntity
  8
0
  6
Continuous
 62
     1
100
AcDbLine
 10
80.20515151899997
 20
74.22
 30
0.0
 11
80.705151519
 21
74.72
 31
0.0
  0
LINE
  5
622
330
1E
100
AcDbEntity
  8
0
  6
Continuous
 62
     1
100
AcDbLine
 10
81.12941558800001
 20
74.72
 30
0.0
 11
80.629415588
 21
74.22
 31
0.0
  0
LINE
  5
623
330
1E
100
AcDbEntity
  8
0
  6
Continuous
 62
     1
100
AcDbLine
 10
76.17499999999998
 20
69.76558441199999
 30
0.0
 11
75.67499999999999
 21
69.265584412
 31
0.0
  0
LINE
  5
624
330
1E
100
AcDbEntity
  8
0
  6
Continuous
 62
     1
100
AcDbLine
 10
75.67499999999999
 20
68.841320344
 30
0.0
 11
76.17499999999998
 21
69.341320344
 31
0.0
  0
LINE
  5
625
330
1E
100
AcDbEntity
  8
0
  6
Continuous
 62
     1
100
AcDbLine
 10
81.05367965600001
 20
74.22
 30
0.0
 11
81.55367965599998
 21
74.72
 31
0.0
  0
LINE
  5
626
330
1E
100
AcDbEntity
  8
0
  6
Continuous
 62
     1
100
AcDbLine
 10
81.977943725
 20
74.72
 30
0.0
 11
81.47794372499998
 21
74.22
 31
0.0
  0
LINE
  5
627
330
1E
100
AcDbEntity
  8
0
  6
Continuous
 62
     1
100
AcDbLine
 10
76.17499999999998
 20
68.91705627499999
 30
0.0
 11
75.67499999999999
 21
68.41705627499999
 31
0.0
  0
LINE
  5
628
330
1E
100
AcDbEntity
  8
0
  6
Continuous
 62
     1
100
AcDbLine
 10
75.67499999999999
 20
67.992792206
 30
0.0
 11
76.17499999999998
 21
68.492792206
 31
0.0
  0
LINE
  5
629
330
1E
100
AcDbEntity
  8
0
  6
Continuous
 62
     1
100
AcDbLine
 10
81.90220779399998
 20
74.22
 30
0.0
 11
82.40220779399999
 21
74.72
 31
0.0
  0
LINE
  5
62A
330
1E
100
AcDbEntity
  8
0
  6
Continuous
 62
     1
100
AcDbLine
 10
82.816421356
 20
74.709949494
 30
0.0
 11
82.32647186300001
 21
74.22
 31
0.0
  0
LINE
  5
62B
330
1E
100
AcDbEntity
  8
0
  6
Continuous
 62
     1
100
AcDbLine
 10
76.17499999999998
 20
68.068528137
 30
0.0
 11
75.68505050600001
 21
67.57857864399999
 31
0.0
  0
LINE
  5
62C
330
1E
100
AcDbEntity
  8
0
  6
Continuous
 62
     1
100
AcDbLine
 10
75.788331087
 20
67.257595156
 30
0.0
 11
76.18002525299998
 21
67.649289322
 31
0.0
  0
LINE
  5
62D
330
1E
100
AcDbEntity
  8
0
  6
Continuous
 62
     1
100
AcDbLine
 10
82.74571067800001
 20
74.214974747
 30
0.0
 11
83.137404844
 21
74.606668913
 31
0.0
  0
LINE
  5
62E
330
1E
100
AcDbEntity
  8
0
  6
Continuous
 62
     1
100
AcDbLine
 10
83.38210678100002
 20
74.427106781
 30
0.0
 11
83.028553391
 21
74.073553391
 31
0.0
  0
LINE
  5
62F
330
1E
100
AcDbEntity
  8
0
  6
Continuous
 62
     1
100
AcDbLine
 10
76.32144660899999
 20
67.36644660899999
 30
0.0
 11
75.96789321899999
 21
67.01289321899999
 31
0.0
  0
LINE
  5
630
330
1E
100
AcDbEntity
  8
0
  6
Continuous
 62
     1
100
AcDbLine
 10
76.21259515600002
 20
66.83333108700001
 30
0.0
 11
76.604289322
 21
67.225025253
 31
0.0
  0
LINE
  5
631
330
1E
100
AcDbEntity
  8
0
  6
Continuous
 62
     1
100
AcDbLine
 10
83.169974747
 20
73.79071067799998
 30
0.0
 11
83.561668913
 21
74.18240484399999
 31
0.0
  0
LINE
  5
632
330
1E
100
AcDbEntity
  8
0
  6
Continuous
 62
     1
100
AcDbLine
 10
83.66494949399998
 20
73.861421356
 30
0.0
 11
83.175
 21
73.371471863
 31
0.0
  0
LINE
  5
633
330
1E
100
AcDbEntity
  8
0
  6
Continuous
 62
     1
100
AcDbLine
 10
77.023528137
 20
67.22
 30
0.0
 11
76.533578644
 21
66.730050506
 31
0.0
  0
LINE
  5
634
330
1E
100
AcDbEntity
  8
0
  6
Continuous
 62
     1
100
AcDbLine
 10
76.947792206
 20
66.72
 30
0.0
 11
77.447792206
 21
67.22
 31
0.0
  0
LINE
  5
635
330
1E
100
AcDbEntity
  8
0
  6
Continuous
 62
     1
100
AcDbLine
 10
83.175
 20
72.94720779399999
 30
0.0
 11
83.67499999999997
 21
73.44720779399999
 31
0.0
  0
LINE
  5
636
330
1E
100
AcDbEntity
  8
0
  6
Continuous
 62
     1
100
AcDbLine
 10
83.67499999999997
 20
73.022943725
 30
0.0
 11
83.175
 21
72.522943725
 31
0.0
  0
LINE
  5
637
330
1E
100
AcDbEntity
  8
0
  6
Continuous
 62
     1
100
AcDbLine
 10
77.872056275
 20
67.22
 30
0.0
 11
77.372056275
 21
66.72
 31
0.0
  0
LINE
  5
638
330
1E
100
AcDbEntity
  8
0
  6
Continuous
 62
     1
100
AcDbLine
 10
77.79632034399998
 20
66.72
 30
0.0
 11
78.29632034399998
 21
67.22
 31
0.0
  0
LINE
  5
639
330
1E
100
AcDbEntity
  8
0
  6
Continuous
 62
     1
100
AcDbLine
 10
83.175
 20
72.098679656
 30
0.0
 11
83.67499999999997
 21
72.598679656
 31
0.0
  0
LINE
  5
63A
330
1E
100
AcDbEntity
  8
0
  6
Continuous
 62
     1
100
AcDbLine
 10
83.67499999999997
 20
72.174415588
 30
0.0
 11
83.175
 21
71.674415588
 31
0.0
  0
LINE
  5
63B
330
1E
100
AcDbEntity
  8
0
  6
Continuous
 62
     1
100
AcDbLine
 10
78.720584412
 20
67.22
 30
0.0
 11
78.22058441199999
 21
66.72
 31
0.0
  0
LINE
  5
63C
330
1E
100
AcDbEntity
  8
0
  6
Continuous
 62
     1
100
AcDbLine
 10
78.644848481
 20
66.72
 30
0.0
 11
79.14484848099998
 21
67.22
 31
0.0
  0
LINE
  5
63D
330
1E
100
AcDbEntity
  8
0
  6
Continuous
 62
     1
100
AcDbLine
 10
83.175
 20
71.250151519
 30
0.0
 11
83.67499999999997
 21
71.750151519
 31
0.0
  0
LINE
  5
63E
330
1E
100
AcDbEntity
  8
0
  6
Continuous
 62
     1
100
AcDbLine
 10
83.67499999999997
 20
71.32588744999998
 30
0.0
 11
83.175
 21
70.82588744999998
 31
0.0
  0
LINE
  5
63F
330
1E
100
AcDbEntity
  8
0
  6
Continuous
 62
     1
100
AcDbLine
 10
79.56911255
 20
67.22
 30
0.0
 11
79.06911255
 21
66.72
 31
0.0
  0
LINE
  5
640
330
1E
100
AcDbEntity
  8
0
  6
Continuous
 62
     1
100
AcDbLine
 10
79.493376618
 20
66.72
 30
0.0
 11
79.993376618
 21
67.22
 31
0.0
  0
LINE
  5
641
330
1E
100
AcDbEntity
  8
0
  6
Continuous
 62
     1
100
AcDbLine
 10
83.175
 20
70.401623382
 30
0.0
 11
83.67499999999997
 21
70.90162338199998
 31
0.0
  0
LINE
  5
642
330
1E
100
AcDbEntity
  8
0
  6
Continuous
 62
     1
100
AcDbLine
 10
83.67499999999997
 20
70.477359313
 30
0.0
 11
83.175
 21
69.97735931300001
 31
0.0
  0
LINE
  5
643
330
1E
100
AcDbEntity
  8
0
  6
Continuous
 62
     1
100
AcDbLine
 10
80.417640687
 20
67.22
 30
0.0
 11
79.917640687
 21
66.72
 31
0.0
  0
LINE
  5
644
330
1E
100
AcDbEntity
  8
0
  6
Continuous
 62
     1
100
AcDbLine
 10
80.341904756
 20
66.72
 30
0.0
 11
80.84190475600001
 21
67.22
 31
0.0
  0
LINE
  5
645
330
1E
100
AcDbEntity
  8
0
  6
Continuous
 62
     1
100
AcDbLine
 10
83.175
 20
69.55309524399999
 30
0.0
 11
83.67499999999997
 21
70.05309524399999
 31
0.0
  0
LINE
  5
646
330
1E
100
AcDbEntity
  8
0
  6
Continuous
 62
     1
100
AcDbLine
 10
83.67499999999997
 20
69.628831175
 30
0.0
 11
83.175
 21
69.128831175
 31
0.0
  0
LINE
  5
647
330
1E
100
AcDbEntity
  8
0
  6
Continuous
 62
     1
100
AcDbLine
 10
81.266168825
 20
67.22
 30
0.0
 11
80.76616882499996
 21
66.72
 31
0.0
  0
LINE
  5
648
330
1E
100
AcDbEntity
  8
0
  6
Continuous
 62
     1
100
AcDbLine
 10
81.190432893
 20
66.72
 30
0.0
 11
81.69043289300001
 21
67.22
 31
0.0
  0
LINE
  5
649
330
1E
100
AcDbEntity
  8
0
  6
Continuous
 62
     1
100
AcDbLine
 10
83.175
 20
68.704567107
 30
0.0
 11
83.67499999999997
 21
69.204567107
 31
0.0
  0
LINE
  5
64A
330
1E
100
AcDbEntity
  8
0
  6
Continuous
 62
     1
100
AcDbLine
 10
83.67499999999997
 20
68.780303038
 30
0.0
 11
83.175
 21
68.280303038
 31
0.0
  0
LINE
  5
64B
330
1E
100
AcDbEntity
  8
0
  6
Continuous
 62
     1
100
AcDbLine
 10
82.114696962
 20
67.22
 30
0.0
 11
81.61469696199999
 21
66.72
 31
0.0
  0
LINE
  5
64C
330
1E
100
AcDbEntity
  8
0
  6
Continuous
 62
     1
100
AcDbLine
 10
82.03896103099998
 20
66.72
 30
0.0
 11
82.538961031
 21
67.22
 31
0.0
  0
LINE
  5
64D
330
1E
100
AcDbEntity
  8
0
  6
Continuous
 62
     1
100
AcDbLine
 10
83.175
 20
67.85603896899999
 30
0.0
 11
83.67499999999997
 21
68.356038969
 31
0.0
  0
LINE
  5
64E
330
1E
100
AcDbEntity
  8
0
  6
Continuous
 62
     1
100
AcDbLine
 10
83.67499999999997
 20
67.93177490099999
 30
0.0
 11
82.463225099
 21
66.72
 31
0.0
  0
LINE
  5
64F
330
1E
100
AcDbEntity
  8
0
  6
Continuous
 62
     1
100
AcDbLine
 10
82.91728372899999
 20
66.74979455999999
 30
0.0
 11
83.64520543999999
 21
67.477716271
 31
0.0
  0
LINE
  5
650
330
1E
100
AcDbEntity
  8
0
  6
Continuous
 62
     1
100
AcDbLine
 10
76.432716271
 20
66.74979455999999
 30
0.0
 11
75.70479456
 21
67.477716271
 31
0.0
  0
LINE
  5
651
330
1E
100
AcDbEntity
  8
0
  6
Continuous
 62
     1
100
AcDbLine
 10
75.67499999999999
 20
67.93177490099999
 30
0.0
 11
76.88677490100001
 21
66.72
 31
0.0
  0
LINE
  5
652
330
1E
100
AcDbEntity
  8
0
  6
Continuous
 62
     1
100
AcDbLine
 10
77.31103896899998
 20
66.72
 30
0.0
 11
76.81103896899998
 21
67.22
 31
0.0
  0
LINE
  5
653
330
1E
100
AcDbEntity
  8
0
  6
Continuous
 62
     1
100
AcDbLine
 10
76.17499999999998
 20
67.85603896899999
 30
0.0
 11
75.67499999999999
 21
68.356038969
 31
0.0
  0
LINE
  5
654
330
1E
100
AcDbEntity
  8
0
  6
Continuous
 62
     1
100
AcDbLine
 10
75.67499999999999
 20
68.780303038
 30
0.0
 11
76.17499999999998
 21
68.280303038
 31
0.0
  0
LINE
  5
655
330
1E
100
AcDbEntity
  8
0
  6
Continuous
 62
     1
100
AcDbLine
 10
77.235303038
 20
67.22
 30
0.0
 11
77.735303038
 21
66.72
 31
0.0
  0
LINE
  5
656
330
1E
100
AcDbEntity
  8
0
  6
Continuous
 62
     1
100
AcDbLine
 10
78.159567107
 20
66.72
 30
0.0
 11
77.659567107
 21
67.22
 31
0.0
  0
LINE
  5
657
330
1E
100
AcDbEntity
  8
0
  6
Continuous
 62
     1
100
AcDbLine
 10
76.17499999999998
 20
68.704567107
 30
0.0
 11
75.67499999999999
 21
69.204567107
 31
0.0
  0
LINE
  5
658
330
1E
100
AcDbEntity
  8
0
  6
Continuous
 62
     1
100
AcDbLine
 10
75.67499999999999
 20
69.628831175
 30
0.0
 11
76.17499999999998
 21
69.128831175
 31
0.0
  0
LINE
  5
659
330
1E
100
AcDbEntity
  8
0
  6
Continuous
 62
     1
100
AcDbLine
 10
78.083831175
 20
67.22
 30
0.0
 11
78.583831175
 21
66.72
 31
0.0
  0
LINE
  5
65A
330
1E
100
AcDbEntity
  8
0
  6
Continuous
 62
     1
100
AcDbLine
 10
79.008095244
 20
66.72
 30
0.0
 11
78.508095244
 21
67.22
 31
0.0
  0
LINE
  5
65B
330
1E
100
AcDbEntity
  8
0
  6
Continuous
 62
     1
100
AcDbLine
 10
76.17499999999998
 20
69.55309524399999
 30
0.0
 11
75.67499999999999
 21
70.05309524399999
 31
0.0
  0
LINE
  5
65C
330
1E
100
AcDbEntity
  8
0
  6
Continuous
 62
     1
100
AcDbLine
 10
75.67499999999999
 20
70.477359313
 30
0.0
 11
76.17499999999998
 21
69.97735931300001
 31
0.0
  0
LINE
  5
65D
330
1E
100
AcDbEntity
  8
0
  6
Continuous
 62
     1
100
AcDbLine
 10
78.93235931300001
 20
67.22
 30
0.0
 11
79.43235931300001
 21
66.72
 31
0.0
  0
LINE
  5
65E
330
1E
100
AcDbEntity
  8
0
  6
Continuous
 62
     1
100
AcDbLine
 10
79.856623382
 20
66.72
 30
0.0
 11
79.356623382
 21
67.22
 31
0.0
  0
LINE
  5
65F
330
1E
100
AcDbEntity
  8
0
  6
Continuous
 62
     1
100
AcDbLine
 10
76.17499999999998
 20
70.401623382
 30
0.0
 11
75.67499999999999
 21
70.90162338199998
 31
0.0
  0
LINE
  5
660
330
1E
100
AcDbEntity
  8
0
  6
Continuous
 62
     1
100
AcDbLine
 10
75.67499999999999
 20
71.32588744999998
 30
0.0
 11
76.17499999999998
 21
70.82588744999998
 31
0.0
  0
LINE
  5
661
330
1E
100
AcDbEntity
  8
0
  6
Continuous
 62
     1
100
AcDbLine
 10
79.78088744999998
 20
67.22
 30
0.0
 11
80.28088744999998
 21
66.72
 31
0.0
  0
LINE
  5
662
330
1E
100
AcDbEntity
  8
0
  6
Continuous
 62
     1
100
AcDbLine
 10
80.705151519
 20
66.72
 30
0.0
 11
80.20515151899997
 21
67.22
 31
0.0
  0
LINE
  5
663
330
1E
100
AcDbEntity
  8
0
  6
Continuous
 62
     1
100
AcDbLine
 10
76.17499999999998
 20
71.250151519
 30
0.0
 11
75.67499999999999
 21
71.750151519
 31
0.0
  0
LINE
  5
664
330
1E
100
AcDbEntity
  8
0
  6
Continuous
 62
     1
100
AcDbLine
 10
75.67499999999999
 20
72.174415588
 30
0.0
 11
76.17499999999998
 21
71.674415588
 31
0.0
  0
LINE
  5
665
330
1E
100
AcDbEntity
  8
0
  6
Continuous
 62
     1
100
AcDbLine
 10
80.629415588
 20
67.22
 30
0.0
 11
81.12941558800001
 21
66.72
 31
0.0
  0
LINE
  5
666
330
1E
100
AcDbEntity
  8
0
  6
Continuous
 62
     1
100
AcDbLine
 10
81.55367965599998
 20
66.72
 30
0.0
 11
81.05367965600001
 21
67.22
 31
0.0
  0
LINE
  5
667
330
1E
100
AcDbEntity
  8
0
  6
Continuous
 62
     1
100
AcDbLine
 10
76.17499999999998
 20
72.098679656
 30
0.0
 11
75.67499999999999
 21
72.598679656
 31
0.0
  0
LINE
  5
668
330
1E
100
AcDbEntity
  8
0
  6
Continuous
 62
     1
100
AcDbLine
 10
75.67499999999999
 20
73.022943725
 30
0.0
 11
76.17499999999998
 21
72.522943725
 31
0.0
  0
LINE
  5
669
330
1E
100
AcDbEntity
  8
0
  6
Continuous
 62
     1
100
AcDbLine
 10
81.47794372499998
 20
67.22
 30
0.0
 11
81.977943725
 21
66.72
 31
0.0
  0
LINE
  5
66A
330
1E
100
AcDbEntity
  8
0
  6
Continuous
 62
     1
100
AcDbLine
 10
82.40220779399999
 20
66.72
 30
0.0
 11
81.90220779399998
 21
67.22
 31
0.0
  0
LINE
  5
66B
330
1E
100
AcDbEntity
  8
0
  6
Continuous
 62
     1
100
AcDbLine
 10
76.17499999999998
 20
72.94720779399999
 30
0.0
 11
75.67499999999999
 21
73.44720779399999
 31
0.0
  0
LINE
  5
66C
330
1E
100
AcDbEntity
  8
0
  6
Continuous
 62
     1
100
AcDbLine
 10
75.68505050600001
 20
73.861421356
 30
0.0
 11
76.17499999999998
 21
73.371471863
 31
0.0
  0
LINE
  5
66D
330
1E
100
AcDbEntity
  8
0
  6
Continuous
 62
     1
100
AcDbLine
 10
82.32647186300001
 20
67.22
 30
0.0
 11
82.816421356
 21
66.730050506
 31
0.0
  0
LINE
  5
66E
330
1E
100
AcDbEntity
  8
0
  6
Continuous
 62
     1
100
AcDbLine
 10
83.137404844
 20
66.83333108700001
 30
0.0
 11
82.74571067800001
 21
67.225025253
 31
0.0
  0
LINE
  5
66F
330
1E
100
AcDbEntity
  8
0
  6
Continuous
 62
     1
100
AcDbLine
 10
76.18002525299998
 20
73.79071067799998
 30
0.0
 11
75.788331087
 21
74.18240484399999
 31
0.0
  0
LINE
  5
670
330
1E
100
AcDbEntity
  8
0
  6
Continuous
 62
     1
100
AcDbLine
 10
75.96789321899999
 20
74.427106781
 30
0.0
 11
76.32144660899999
 21
74.073553391
 31
0.0
  0
LINE
  5
671
330
1E
100
AcDbEntity
  8
0
  6
Continuous
 62
     1
100
AcDbLine
 10
83.028553391
 20
67.36644660899999
 30
0.0
 11
83.38210678100002
 21
67.01289321899999
 31
0.0
  0
LINE
  5
672
330
1E
100
AcDbEntity
  8
0
  6
Continuous
 62
     1
100
AcDbLine
 10
83.561668913
 20
67.257595156
 30
0.0
 11
83.169974747
 21
67.649289322
 31
0.0
  0
LINE
  5
673
330
1E
100
AcDbEntity
  8
0
  6
Continuous
 62
     1
100
AcDbLine
 10
76.604289322
 20
74.214974747
 30
0.0
 11
76.21259515600002
 21
74.606668913
 31
0.0
  0
LINE
  5
674
330
1E
100
AcDbEntity
  8
0
  6
Continuous
 62
     1
100
AcDbLine
 10
76.533578644
 20
74.709949494
 30
0.0
 11
77.023528137
 21
74.22
 31
0.0
  0
LINE
  5
675
330
1E
100
AcDbEntity
  8
0
  6
Continuous
 62
     1
100
AcDbLine
 10
83.175
 20
68.068528137
 30
0.0
 11
83.66494949399998
 21
67.57857864399999
 31
0.0
  0
LINE
  5
676
330
1E
100
AcDbEntity
  8
0
  6
Continuous
 62
     1
100
AcDbLine
 10
83.67499999999997
 20
67.992792206
 30
0.0
 11
83.175
 21
68.492792206
 31
0.0
  0
LINE
  5
677
330
1E
100
AcDbEntity
  8
0
  6
Continuous
 62
     1
100
AcDbLine
 10
77.447792206
 20
74.22
 30
0.0
 11
76.947792206
 21
74.72
 31
0.0
  0
LINE
  5
678
330
1E
100
AcDbEntity
  8
0
  6
Continuous
 62
     1
100
AcDbLine
 10
77.372056275
 20
74.72
 30
0.0
 11
77.872056275
 21
74.22
 31
0.0
  0
LINE
  5
679
330
1E
100
AcDbEntity
  8
0
  6
Continuous
 62
     1
100
AcDbLine
 10
83.175
 20
68.91705627499999
 30
0.0
 11
83.67499999999997
 21
68.41705627499999
 31
0.0
  0
LINE
  5
67A
330
1E
100
AcDbEntity
  8
0
  6
Continuous
 62
     1
100
AcDbLine
 10
83.67499999999997
 20
68.841320344
 30
0.0
 11
83.175
 21
69.341320344
 31
0.0
  0
LINE
  5
67B
330
1E
100
AcDbEntity
  8
0
  6
Continuous
 62
     1
100
AcDbLine
 10
78.29632034399998
 20
74.22
 30
0.0
 11
77.79632034399998
 21
74.72
 31
0.0
  0
LINE
  5
67C
330
1E
100
AcDbEntity
  8
0
  6
Continuous
 62
     1
100
AcDbLine
 10
78.22058441199999
 20
74.72
 30
0.0
 11
78.720584412
 21
74.22
 31
0.0
  0
LINE
  5
67D
330
1E
100
AcDbEntity
  8
0
  6
Continuous
 62
     1
100
AcDbLine
 10
83.175
 20
69.76558441199999
 30
0.0
 11
83.67499999999997
 21
69.265584412
 31
0.0
  0
LINE
  5
67E
330
1E
100
AcDbEntity
  8
0
  6
Continuous
 62
     1
100
AcDbLine
 10
83.67499999999997
 20
69.68984848099999
 30
0.0
 11
83.175
 21
70.189848481
 31
0.0
  0
LINE
  5
67F
330
1E
100
AcDbEntity
  8
0
  6
Continuous
 62
     1
100
AcDbLine
 10
79.14484848099998
 20
74.22
 30
0.0
 11
78.644848481
 21
74.72
 31
0.0
  0
LINE
  5
680
330
1E
100
AcDbEntity
  8
0
  6
Continuous
 62
     1
100
AcDbLine
 10
79.06911255
 20
74.72
 30
0.0
 11
79.56911255
 21
74.22
 31
0.0
  0
LINE
  5
681
330
1E
100
AcDbEntity
  8
0
  6
Continuous
 62
     1
100
AcDbLine
 10
83.175
 20
70.61411255
 30
0.0
 11
83.67499999999997
 21
70.11411255
 31
0.0
  0
LINE
  5
682
330
1E
100
AcDbEntity
  8
0
  6
Continuous
 62
     1
100
AcDbLine
 10
83.67499999999997
 20
70.538376618
 30
0.0
 11
83.175
 21
71.038376618
 31
0.0
  0
LINE
  5
683
330
1E
100
AcDbEntity
  8
0
  6
Continuous
 62
     1
100
AcDbLine
 10
79.993376618
 20
74.22
 30
0.0
 11
79.493376618
 21
74.72
 31
0.0
  0
LINE
  5
684
330
1E
100
AcDbEntity
  8
0
  6
Continuous
 62
     1
100
AcDbLine
 10
79.917640687
 20
74.72
 30
0.0
 11
80.417640687
 21
74.22
 31
0.0
  0
LINE
  5
685
330
1E
100
AcDbEntity
  8
0
  6
Continuous
 62
     1
100
AcDbLine
 10
83.175
 20
71.462640687
 30
0.0
 11
83.67499999999997
 21
70.962640687
 31
0.0
  0
LINE
  5
686
330
1E
100
AcDbEntity
  8
0
  6
Continuous
 62
     1
100
AcDbLine
 10
83.67499999999997
 20
71.386904756
 30
0.0
 11
83.175
 21
71.88690475600001
 31
0.0
  0
LINE
  5
687
330
1E
100
AcDbEntity
  8
0
  6
Continuous
 62
     1
100
AcDbLine
 10
80.84190475600001
 20
74.22
 30
0.0
 11
80.341904756
 21
74.72
 31
0.0
  0
LINE
  5
688
330
1E
100
AcDbEntity
  8
0
  6
Continuous
 62
     1
100
AcDbLine
 10
80.76616882499996
 20
74.72
 30
0.0
 11
81.266168825
 21
74.22
 31
0.0
  0
LINE
  5
689
330
1E
100
AcDbEntity
  8
0
  6
Continuous
 62
     1
100
AcDbLine
 10
83.175
 20
72.311168825
 30
0.0
 11
83.67499999999997
 21
71.81116882499998
 31
0.0
  0
LINE
  5
68A
330
1E
100
AcDbEntity
  8
0
  6
Continuous
 62
     1
100
AcDbLine
 10
83.67499999999997
 20
72.235432893
 30
0.0
 11
83.175
 21
72.735432893
 31
0.0
  0
LINE
  5
68B
330
1E
100
AcDbEntity
  8
0
  6
Continuous
 62
     1
100
AcDbLine
 10
81.69043289300001
 20
74.22
 30
0.0
 11
81.190432893
 21
74.72
 31
0.0
  0
LINE
  5
68C
330
1E
100
AcDbEntity
  8
0
  6
Continuous
 62
     1
100
AcDbLine
 10
81.61469696199999
 20
74.72
 30
0.0
 11
82.114696962
 21
74.22
 31
0.0
  0
LINE
  5
68D
330
1E
100
AcDbEntity
  8
0
  6
Continuous
 62
     1
100
AcDbLine
 10
83.175
 20
73.15969696199998
 30
0.0
 11
83.67499999999997
 21
72.65969696199999
 31
0.0
  0
LINE
  5
68E
330
1E
100
AcDbEntity
  8
0
  6
Continuous
 62
     1
100
AcDbLine
 10
83.67499999999997
 20
73.083961031
 30
0.0
 11
83.175
 21
73.583961031
 31
0.0
  0
LINE
  5
68F
330
1E
100
AcDbEntity
  8
0
  6
Continuous
 62
     1
100
AcDbLine
 10
82.538961031
 20
74.22
 30
0.0
 11
82.03896103099998
 21
74.72
 31
0.0
  0
LINE
  5
690
330
1E
100
AcDbEntity
  8
0
  6
Continuous
 62
     1
100
AcDbLine
 10
82.463225099
 20
74.72
 30
0.0
 11
83.67499999999997
 21
73.508225099
 31
0.0
  0
LINE
  5
691
330
1E
100
AcDbEntity
  8
0
  6
Continuous
 62
     1
100
AcDbLine
 10
83.64520543999999
 20
73.96228372899999
 30
0.0
 11
82.91728372899999
 21
74.69020544
 31
0.0
  0
LINE
  5
692
330
1E
100
AcDbEntity
  8
0
  6
Continuous
 62
     1
100
AcDbLine
 10
78.319293356
 20
71.909877768
 30
0.0
 11
78.17499999999999
 21
71.765584412
 31
0.0
  0
LINE
  5
693
330
1E
100
AcDbEntity
  8
0
  6
Continuous
 62
     1
100
AcDbLine
 10
78.17499999999999
 20
71.4827417
 30
0.0
 11
78.518947035
 21
71.826688735
 31
0.0
  0
LINE
  5
694
330
1E
100
AcDbEntity
  8
0
  6
Continuous
 62
     1
100
AcDbLine
 10
78.71860071499998
 20
71.74349970199999
 30
0.0
 11
78.17499999999999
 21
71.199898987
 31
0.0
  0
LINE
  5
695
330
1E
100
AcDbEntity
  8
0
  6
Continuous
 62
     1
100
AcDbLine
 10
78.17499999999999
 20
70.91705627499997
 30
0.0
 11
78.918254394
 21
71.660310669
 31
0.0
  0
LINE
  5
696
330
1E
100
AcDbEntity
  8
0
  6
Continuous
 62
     1
100
AcDbLine
 10
79.117908074
 20
71.577121636
 30
0.0
 11
78.17499999999999
 21
70.634213562
 31
0.0
  0
LINE
  5
697
330
1E
100
AcDbEntity
  8
0
  6
Continuous
 62
     1
100
AcDbLine
 10
78.17499999999999
 20
70.35137084999999
 30
0.0
 11
79.31756175300001
 21
71.493932603
 31
0.0
  0
LINE
  5
698
330
1E
100
AcDbEntity
  8
0
  6
Continuous
 62
     1
100
AcDbLine
 10
79.517215432
 20
71.41074356999998
 30
0.0
 11
78.17499999999999
 21
70.068528137
 31
0.0
  0
LINE
  5
699
330
1E
100
AcDbEntity
  8
0
  6
Continuous
 62
     1
100
AcDbLine
 10
78.17499999999999
 20
69.78568542499999
 30
0.0
 11
79.71686911199999
 21
71.32755453699998
 31
0.0
  0
LINE
  5
69A
330
1E
100
AcDbEntity
  8
0
  6
Continuous
 62
     1
100
AcDbLine
 10
79.91652279100001
 20
71.244365504
 30
0.0
 11
78.17499999999999
 21
69.50284271200001
 31
0.0
  0
LINE
  5
69B
330
1E
100
AcDbEntity
  8
0
  6
Continuous
 62
     1
100
AcDbLine
 10
78.60357142899998
 20
69.648571429
 30
0.0
 11
80.11617647100001
 21
71.16117647100002
 31
0.0
  0
LINE
  5
69C
330
1E
100
AcDbEntity
  8
0
  6
Continuous
 62
     1
100
AcDbLine
 10
80.31583015
 20
71.077987438
 30
0.0
 11
79.08844465
 21
69.85060193699999
 31
0.0
  0
LINE
  5
69D
330
1E
100
AcDbEntity
  8
0
  6
Continuous
 62
     1
100
AcDbLine
 10
79.573317871
 20
70.052632446
 30
0.0
 11
80.515483829
 21
70.99479840399999
 31
0.0
  0
LINE
  5
69E
330
1E
100
AcDbEntity
  8
0
  6
Continuous
 62
     1
100
AcDbLine
 10
80.71513750900001
 20
70.91160937099998
 30
0.0
 11
80.058191093
 21
70.254662955
 31
0.0
  0
LINE
  5
69F
330
1E
100
AcDbEntity
  8
0
  6
Continuous
 62
     1
100
AcDbLine
 10
80.54306431399998
 20
70.456693464
 30
0.0
 11
80.914791188
 21
70.828420338
 31
0.0
  0
LINE
  5
6A0
330
1E
100
AcDbEntity
  8
0
  6
Continuous
 62
     1
100
AcDbLine
 10
81.11444486800001
 20
70.74523130500002
 30
0.0
 11
81.027937535
 21
70.65872397300001
 31
0.0
  0
LINE
  5
6A1
330
1E
100
AcDbEntity
  8
0
  6
Continuous
 62
     1
100
AcDbLine
 10
78.17499999999999
 20
69.674415588
 30
0.0
 11
78.319293356
 21
69.530122232
 31
0.0
  0
LINE
  5
6A2
330
1E
100
AcDbEntity
  8
0
  6
Continuous
 62
     1
100
AcDbLine
 10
78.518947035
 20
69.61331126499999
 30
0.0
 11
78.17499999999999
 21
69.95725829999999
 31
0.0
  0
LINE
  5
6A3
330
1E
100
AcDbEntity
  8
0
  6
Continuous
 62
     1
100
AcDbLine
 10
78.17499999999999
 20
70.240101013
 30
0.0
 11
78.71860071499998
 21
69.696500298
 31
0.0
  0
LINE
  5
6A4
330
1E
100
AcDbEntity
  8
0
  6
Continuous
 62
     1
100
AcDbLine
 10
78.918254394
 20
69.779689331
 30
0.0
 11
78.17499999999999
 21
70.522943725
 31
0.0
  0
LINE
  5
6A5
330
1E
100
AcDbEntity
  8
0
  6
Continuous
 62
     1
100
AcDbLine
 10
78.17499999999999
 20
70.805786438
 30
0.0
 11
79.117908074
 21
69.86287836399999
 31
0.0
  0
LINE
  5
6A6
330
1E
100
AcDbEntity
  8
0
  6
Continuous
 62
     1
100
AcDbLine
 10
79.31756175300001
 20
69.946067397
 30
0.0
 11
78.17499999999999
 21
71.08862915
 31
0.0
  0
LINE
  5
6A7
330
1E
100
AcDbEntity
  8
0
  6
Continuous
 62
     1
100
AcDbLine
 10
78.17499999999999
 20
71.371471863
 30
0.0
 11
79.517215432
 21
70.02925643000001
 31
0.0
  0
LINE
  5
6A8
330
1E
100
AcDbEntity
  8
0
  6
Continuous
 62
     1
100
AcDbLine
 10
79.71686911199999
 20
70.112445463
 30
0.0
 11
78.17499999999999
 21
71.654314575
 31
0.0
  0
LINE
  5
6A9
330
1E
100
AcDbEntity
  8
0
  6
Continuous
 62
     1
100
AcDbLine
 10
78.17499999999999
 20
71.937157288
 30
0.0
 11
79.91652279100001
 21
70.19563449599999
 31
0.0
  0
LINE
  5
6AA
330
1E
100
AcDbEntity
  8
0
  6
Continuous
 62
     1
100
AcDbLine
 10
80.11617647100001
 20
70.27882352899999
 30
0.0
 11
78.60357142899998
 21
71.791428571
 31
0.0
  0
LINE
  5
6AB
330
1E
100
AcDbEntity
  8
0
  6
Continuous
 62
     1
100
AcDbLine
 10
79.08844465
 20
71.58939806300001
 30
0.0
 11
80.31583015
 21
70.362012562
 31
0.0
  0
LINE
  5
6AC
330
1E
100
AcDbEntity
  8
0
  6
Continuous
 62
     1
100
AcDbLine
 10
80.515483829
 20
70.44520159600001
 30
0.0
 11
79.573317871
 21
71.387367554
 31
0.0
  0
LINE
  5
6AD
330
1E
100
AcDbEntity
  8
0
  6
Continuous
 62
     1
100
AcDbLine
 10
80.058191093
 20
71.18533704499999
 30
0.0
 11
80.71513750900001
 21
70.528390629
 31
0.0
  0
LINE
  5
6AE
330
1E
100
AcDbEntity
  8
0
  6
Continuous
 62
     1
100
AcDbLine
 10
80.914791188
 20
70.61157966199998
 30
0.0
 11
80.54306431399998
 21
70.983306536
 31
0.0
  0
LINE
  5
6AF
330
1E
100
AcDbEntity
  8
0
  6
Continuous
 62
     1
100
AcDbLine
 10
81.027937535
 20
70.781276027
 30
0.0
 11
81.11444486800001
 21
70.69476869499998
 31
0.0
  0
LINE
  5
6B0
330
1E
100
AcDbEntity
  8
0
  6
Continuous
 62
     3
100
AcDbLine
 10
88.42499999999999
 20
69.22
 30
0.0
 11
90.92499999999999
 21
69.22
 31
0.0
  0
LINE
  5
6B1
330
1E
100
AcDbEntity
  8
0
  6
Continuous
 62
     3
100
AcDbLine
 10
90.92499999999999
 20
69.22
 30
0.0
 11
89.67499999999999
 21
72.22
 31
0.0
  0
LINE
  5
6B2
330
1E
100
AcDbEntity
  8
0
  6
Continuous
 62
     3
100
AcDbLine
 10
89.67499999999999
 20
72.22
 30
0.0
 11
88.42499999999999
 21
69.22
 31
0.0
  0
LINE
  5
6B3
330
1E
100
AcDbEntity
  8
0
  6
Continuous
 62
     3
100
AcDbLine
 10
88.42499999999999
 20
69.22
 30
0.0
 11
90.92499999999999
 21
69.22
 31
0.0
  0
LINE
  5
6B4
330
1E
100
AcDbEntity
  8
0
  6
Continuous
 62
     1
100
AcDbLine
 10
88.48512223200001
 20
69.364293356
 30
0.0
 11
88.62941558799999
 21
69.22
 31
0.0
  0
LINE
  5
6B5
330
1E
100
AcDbEntity
  8
0
  6
Continuous
 62
     1
100
AcDbLine
 10
88.91225830000001
 20
69.22
 30
0.0
 11
88.56831126500003
 21
69.56394703499999
 31
0.0
  0
LINE
  5
6B6
330
1E
100
AcDbEntity
  8
0
  6
Continuous
 62
     1
100
AcDbLine
 10
88.65150029799998
 20
69.763600715
 30
0.0
 11
89.195101013
 21
69.22
 31
0.0
  0
LINE
  5
6B7
330
1E
100
AcDbEntity
  8
0
  6
Continuous
 62
     1
100
AcDbLine
 10
89.477943725
 20
69.22
 30
0.0
 11
88.73468933099998
 21
69.96325439399999
 31
0.0
  0
LINE
  5
6B8
330
1E
100
AcDbEntity
  8
0
  6
Continuous
 62
     1
100
AcDbLine
 10
88.81787836399999
 20
70.162908074
 30
0.0
 11
89.76078643799999
 21
69.22
 31
0.0
  0
LINE
  5
6B9
330
1E
100
AcDbEntity
  8
0
  6
Continuous
 62
     1
100
AcDbLine
 10
90.04362914999999
 20
69.22
 30
0.0
 11
88.901067397
 21
70.36256175300001
 31
0.0
  0
LINE
  5
6BA
330
1E
100
AcDbEntity
  8
0
  6
Continuous
 62
     1
100
AcDbLine
 10
88.98425643000001
 20
70.562215432
 30
0.0
 11
90.326471863
 21
69.22
 31
0.0
  0
LINE
  5
6BB
330
1E
100
AcDbEntity
  8
0
  6
Continuous
 62
     1
100
AcDbLine
 10
90.609314575
 20
69.22
 30
0.0
 11
89.067445463
 21
70.761869112
 31
0.0
  0
LINE
  5
6BC
330
1E
100
AcDbEntity
  8
0
  6
Continuous
 62
     1
100
AcDbLine
 10
89.15063449600003
 20
70.961522791
 30
0.0
 11
90.89215728799999
 21
69.22
 31
0.0
  0
LINE
  5
6BD
330
1E
100
AcDbEntity
  8
0
  6
Continuous
 62
     1
100
AcDbLine
 10
90.746428571
 20
69.648571429
 30
0.0
 11
89.23382352899997
 21
71.16117647100002
 31
0.0
  0
LINE
  5
6BE
330
1E
100
AcDbEntity
  8
0
  6
Continuous
 62
     1
100
AcDbLine
 10
89.317012563
 20
71.36083015
 30
0.0
 11
90.54439806299999
 21
70.13344465
 31
0.0
  0
LINE
  5
6BF
330
1E
100
AcDbEntity
  8
0
  6
Continuous
 62
     1
100
AcDbLine
 10
90.342367554
 20
70.618317871
 30
0.0
 11
89.40020159600001
 21
71.56048382899999
 31
0.0
  0
LINE
  5
6C0
330
1E
100
AcDbEntity
  8
0
  6
Continuous
 62
     1
100
AcDbLine
 10
89.483390629
 20
71.76013750899999
 30
0.0
 11
90.14033704499999
 21
71.103191093
 31
0.0
  0
LINE
  5
6C1
330
1E
100
AcDbEntity
  8
0
  6
Continuous
 62
     1
100
AcDbLine
 10
89.93830653599998
 20
71.58806431399999
 30
0.0
 11
89.56657966200001
 21
71.959791188
 31
0.0
  0
LINE
  5
6C2
330
1E
100
AcDbEntity
  8
0
  6
Continuous
 62
     1
100
AcDbLine
 10
89.649768695
 20
72.15944486800001
 30
0.0
 11
89.736276027
 21
72.072937536
 31
0.0
  0
LINE
  5
6C3
330
1E
100
AcDbEntity
  8
0
  6
Continuous
 62
     1
100
AcDbLine
 10
90.72058441200001
 20
69.22
 30
0.0
 11
90.86487776799998
 21
69.364293356
 31
0.0
  0
LINE
  5
6C4
330
1E
100
AcDbEntity
  8
0
  6
Continuous
 62
     1
100
AcDbLine
 10
90.78168873500001
 20
69.56394703499999
 30
0.0
 11
90.4377417
 21
69.22
 31
0.0
  0
LINE
  5
6C5
330
1E
100
AcDbEntity
  8
0
  6
Continuous
 62
     1
100
AcDbLine
 10
90.15489898700002
 20
69.22
 30
0.0
 11
90.69849970200001
 21
69.763600715
 31
0.0
  0
LINE
  5
6C6
330
1E
100
AcDbEntity
  8
0
  6
Continuous
 62
     1
100
AcDbLine
 10
90.615310669
 20
69.96325439399999
 30
0.0
 11
89.87205627500001
 21
69.22
 31
0.0
  0
LINE
  5
6C7
330
1E
100
AcDbEntity
  8
0
  6
Continuous
 62
     1
100
AcDbLine
 10
89.58921356200001
 20
69.22
 30
0.0
 11
90.53212163599999
 21
70.162908074
 31
0.0
  0
LINE
  5
6C8
330
1E
100
AcDbEntity
  8
0
  6
Continuous
 62
     1
100
AcDbLine
 10
90.44893260299998
 20
70.36256175300001
 30
0.0
 11
89.30637084999998
 21
69.22
 31
0.0
  0
LINE
  5
6C9
330
1E
100
AcDbEntity
  8
0
  6
Continuous
 62
     1
100
AcDbLine
 10
89.02352813700002
 20
69.22
 30
0.0
 11
90.36574357000001
 21
70.562215432
 31
0.0
  0
LINE
  5
6CA
330
1E
100
AcDbEntity
  8
0
  6
Continuous
 62
     1
100
AcDbLine
 10
90.28255453700001
 20
70.761869112
 30
0.0
 11
88.74068542499998
 21
69.22
 31
0.0
  0
LINE
  5
6CB
330
1E
100
AcDbEntity
  8
0
  6
Continuous
 62
     1
100
AcDbLine
 10
88.45784271200001
 20
69.22
 30
0.0
 11
90.199365504
 21
70.961522791
 31
0.0
  0
LINE
  5
6CC
330
1E
100
AcDbEntity
  8
0
  6
Continuous
 62
     1
100
AcDbLine
 10
90.11617647100001
 20
71.16117647100002
 30
0.0
 11
88.60357142899998
 21
69.648571429
 31
0.0
  0
LINE
  5
6CD
330
1E
100
AcDbEntity
  8
0
  6
Continuous
 62
     1
100
AcDbLine
 10
88.80560193799999
 20
70.13344465
 30
0.0
 11
90.032987438
 21
71.36083015
 31
0.0
  0
LINE
  5
6CE
330
1E
100
AcDbEntity
  8
0
  6
Continuous
 62
     1
100
AcDbLine
 10
89.94979840399997
 20
71.56048382899999
 30
0.0
 11
89.007632446
 21
70.618317871
 31
0.0
  0
LINE
  5
6CF
330
1E
100
AcDbEntity
  8
0
  6
Continuous
 62
     1
100
AcDbLine
 10
89.20966295499999
 20
71.103191093
 30
0.0
 11
89.86660937100003
 21
71.76013750899999
 31
0.0
  0
LINE
  5
6D0
330
1E
100
AcDbEntity
  8
0
  6
Continuous
 62
     1
100
AcDbLine
 10
89.783420338
 20
71.959791188
 30
0.0
 11
89.411693464
 21
71.58806431399999
 31
0.0
  0
LINE
  5
6D1
330
1E
100
AcDbEntity
  8
0
  6
Continuous
 62
     1
100
AcDbLine
 10
89.61372397299999
 20
72.072937536
 30
0.0
 11
89.70023130500001
 21
72.15944486800001
 31
0.0
  0
LINE
  5
6D2
330
1E
100
AcDbEntity
  8
0
  6
Continuous
 62
     1
100
AcDbLine
 10
85.734160067
 20
74.05885132600001
 30
0.0
 11
86.336148674
 21
74.660839933
 31
0.0
  0
LINE
  5
6D3
330
1E
100
AcDbEntity
  8
0
  6
Continuous
 62
     1
100
AcDbLine
 10
86.81957281
 20
74.72
 30
0.0
 11
85.675
 21
73.57542719
 31
0.0
  0
LINE
  5
6D4
330
1E
100
AcDbEntity
  8
0
  6
Continuous
 62
     1
100
AcDbLine
 10
85.675
 20
73.15116312100001
 30
0.0
 11
86.17499999999997
 21
73.65116312100001
 31
0.0
  0
LINE
  5
6D5
330
1E
100
AcDbEntity
  8
0
  6
Continuous
 62
     1
100
AcDbLine
 10
86.743836879
 20
74.22
 30
0.0
 11
87.24383687899997
 21
74.72
 31
0.0
  0
LINE
  5
6D6
330
1E
100
AcDbEntity
  8
0
  6
Continuous
 62
     1
100
AcDbLine
 10
87.66810094700002
 20
74.72
 30
0.0
 11
87.16810094700001
 21
74.22
 31
0.0
  0
LINE
  5
6D7
330
1E
100
AcDbEntity
  8
0
  6
Continuous
 62
     1
100
AcDbLine
 10
86.17499999999997
 20
73.22689905299998
 30
0.0
 11
85.675
 21
72.726899053
 31
0.0
  0
LINE
  5
6D8
330
1E
100
AcDbEntity
  8
0
  6
Continuous
 62
     1
100
AcDbLine
 10
85.675
 20
72.30263498399998
 30
0.0
 11
86.17499999999997
 21
72.802634984
 31
0.0
  0
LINE
  5
6D9
330
1E
100
AcDbEntity
  8
0
  6
Continuous
 62
     1
100
AcDbLine
 10
87.592365016
 20
74.22
 30
0.0
 11
88.092365016
 21
74.72
 31
0.0
  0
LINE
  5
6DA
330
1E
100
AcDbEntity
  8
0
  6
Continuous
 62
     1
100
AcDbLine
 10
88.51662908500001
 20
74.72
 30
0.0
 11
88.016629085
 21
74.22
 31
0.0
  0
LINE
  5
6DB
330
1E
100
AcDbEntity
  8
0
  6
Continuous
 62
     1
100
AcDbLine
 10
86.17499999999997
 20
72.37837091500002
 30
0.0
 11
85.675
 21
71.878370915
 31
0.0
  0
LINE
  5
6DC
330
1E
100
AcDbEntity
  8
0
  6
Continuous
 62
     1
100
AcDbLine
 10
85.675
 20
71.454106846
 30
0.0
 11
86.17499999999997
 21
71.954106846
 31
0.0
  0
LINE
  5
6DD
330
1E
100
AcDbEntity
  8
0
  6
Continuous
 62
     1
100
AcDbLine
 10
88.44089315399997
 20
74.22
 30
0.0
 11
88.940893154
 21
74.72
 31
0.0
  0
LINE
  5
6DE
330
1E
100
AcDbEntity
  8
0
  6
Continuous
 62
     1
100
AcDbLine
 10
89.36515722200001
 20
74.72
 30
0.0
 11
88.865157222
 21
74.22
 31
0.0
  0
LINE
  5
6DF
330
1E
100
AcDbEntity
  8
0
  6
Continuous
 62
     1
100
AcDbLine
 10
86.17499999999997
 20
71.529842778
 30
0.0
 11
85.675
 21
71.029842778
 31
0.0
  0
LINE
  5
6E0
330
1E
100
AcDbEntity
  8
0
  6
Continuous
 62
     1
100
AcDbLine
 10
85.675
 20
70.605578709
 30
0.0
 11
86.17499999999997
 21
71.105578709
 31
0.0
  0
LINE
  5
6E1
330
1E
100
AcDbEntity
  8
0
  6
Continuous
 62
     1
100
AcDbLine
 10
89.28942129100002
 20
74.22
 30
0.0
 11
89.78942129100003
 21
74.72
 31
0.0
  0
LINE
  5
6E2
330
1E
100
AcDbEntity
  8
0
  6
Continuous
 62
     1
100
AcDbLine
 10
90.21368536
 20
74.72
 30
0.0
 11
89.71368535999998
 21
74.22
 31
0.0
  0
LINE
  5
6E3
330
1E
100
AcDbEntity
  8
0
  6
Continuous
 62
     1
100
AcDbLine
 10
86.17499999999997
 20
70.68131464
 30
0.0
 11
85.675
 21
70.18131463999999
 31
0.0
  0
LINE
  5
6E4
330
1E
100
AcDbEntity
  8
0
  6
Continuous
 62
     1
100
AcDbLine
 10
85.675
 20
69.75705057199999
 30
0.0
 11
86.17499999999997
 21
70.25705057199998
 31
0.0
  0
LINE
  5
6E5
330
1E
100
AcDbEntity
  8
0
  6
Continuous
 62
     1
100
AcDbLine
 10
90.137949428
 20
74.22
 30
0.0
 11
90.63794942799999
 21
74.72
 31
0.0
  0
LINE
  5
6E6
330
1E
100
AcDbEntity
  8
0
  6
Continuous
 62
     1
100
AcDbLine
 10
91.062213497
 20
74.72
 30
0.0
 11
90.56221349700001
 21
74.22
 31
0.0
  0
LINE
  5
6E7
330
1E
100
AcDbEntity
  8
0
  6
Continuous
 62
     1
100
AcDbLine
 10
86.17499999999997
 20
69.832786503
 30
0.0
 11
85.675
 21
69.33278650300001
 31
0.0
  0
LINE
  5
6E8
330
1E
100
AcDbEntity
  8
0
  6
Continuous
 62
     1
100
AcDbLine
 10
85.675
 20
68.90852243399999
 30
0.0
 11
86.17499999999997
 21
69.40852243399999
 31
0.0
  0
LINE
  5
6E9
330
1E
100
AcDbEntity
  8
0
  6
Continuous
 62
     1
100
AcDbLine
 10
90.986477566
 20
74.22
 30
0.0
 11
91.486477566
 21
74.72
 31
0.0
  0
LINE
  5
6EA
330
1E
100
AcDbEntity
  8
0
  6
Continuous
 62
     1
100
AcDbLine
 10
91.91074163499999
 20
74.72
 30
0.0
 11
91.41074163499999
 21
74.22
 31
0.0
  0
LINE
  5
6EB
330
1E
100
AcDbEntity
  8
0
  6
Continuous
 62
     1
100
AcDbLine
 10
86.17499999999997
 20
68.984258365
 30
0.0
 11
85.675
 21
68.484258365
 31
0.0
  0
LINE
  5
6EC
330
1E
100
AcDbEntity
  8
0
  6
Continuous
 62
     1
100
AcDbLine
 10
85.675
 20
68.059994297
 30
0.0
 11
86.17499999999997
 21
68.559994297
 31
0.0
  0
LINE
  5
6ED
330
1E
100
AcDbEntity
  8
0
  6
Continuous
 62
     1
100
AcDbLine
 10
91.83500570299999
 20
74.22
 30
0.0
 11
92.335005703
 21
74.72
 31
0.0
  0
LINE
  5
6EE
330
1E
100
AcDbEntity
  8
0
  6
Continuous
 62
     1
100
AcDbLine
 10
92.75926977200001
 20
74.72
 30
0.0
 11
92.25926977200002
 21
74.22
 31
0.0
  0
LINE
  5
6EF
330
1E
100
AcDbEntity
  8
0
  6
Continuous
 62
     1
100
AcDbLine
 10
86.17499999999997
 20
68.13573022799999
 30
0.0
 11
85.678284687
 21
67.639014915
 31
0.0
  0
LINE
  5
6F0
330
1E
100
AcDbEntity
  8
0
  6
Continuous
 62
     1
100
AcDbLine
 10
85.766232039
 20
67.30269819899999
 30
0.0
 11
86.17507161399997
 21
67.71153777399999
 31
0.0
  0
LINE
  5
6F1
330
1E
100
AcDbEntity
  8
0
  6
Continuous
 62
     1
100
AcDbLine
 10
92.683533841
 20
74.22
 30
0.0
 11
93.18353384099999
 21
74.72
 31
0.0
  0
LINE
  5
6F2
330
1E
100
AcDbEntity
  8
0
  6
Continuous
 62
     1
100
AcDbLine
 10
86.28944587600001
 20
67.401647966
 30
0.0
 11
85.93509097
 21
67.04729306
 31
0.0
  0
LINE
  5
6F3
330
1E
100
AcDbEntity
  8
0
  6
Continuous
 62
     1
100
AcDbLine
 10
86.16933314799998
 20
66.85727117
 30
0.0
 11
86.54836433600001
 21
67.236302358
 31
0.0
  0
LINE
  5
6F4
330
1E
100
AcDbEntity
  8
0
  6
Continuous
 62
     1
100
AcDbLine
 10
86.956326047
 20
67.22
 30
0.0
 11
86.47627147100001
 21
66.739945424
 31
0.0
  0
LINE
  5
6F5
330
1E
100
AcDbEntity
  8
0
  6
Continuous
 62
     1
100
AcDbLine
 10
86.88059011600001
 20
66.72
 30
0.0
 11
87.380590116
 21
67.22
 31
0.0
  0
LINE
  5
6F6
330
1E
100
AcDbEntity
  8
0
  6
Continuous
 62
     1
100
AcDbLine
 10
93.93709578700001
 20
73.77650567199999
 30
0.0
 11
94.290730574
 21
74.130140459
 31
0.0
  0
LINE
  5
6F7
330
1E
100
AcDbEntity
  8
0
  6
Continuous
 62
     1
100
AcDbLine
 10
94.50741479799999
 20
73.92256061399999
 30
0.0
 11
94.153780011
 21
73.568925827
 31
0.0
  0
LINE
  5
6F8
330
1E
100
AcDbEntity
  8
0
  6
Continuous
 62
     1
100
AcDbLine
 10
87.80485418399997
 20
67.22
 30
0.0
 11
87.30485418399998
 21
66.72
 31
0.0
  0
LINE
  5
6F9
330
1E
100
AcDbEntity
  8
0
  6
Continuous
 62
     1
100
AcDbLine
 10
87.72911825299999
 20
66.72
 30
0.0
 11
88.229118253
 21
67.22
 31
0.0
  0
LINE
  5
6FA
330
1E
100
AcDbEntity
  8
0
  6
Continuous
 62
     1
100
AcDbLine
 10
94.370464235
 20
73.36134598200001
 30
0.0
 11
94.724099022
 21
73.714980769
 31
0.0
  0
LINE
  5
6FB
330
1E
100
AcDbEntity
  8
0
  6
Continuous
 62
     1
100
AcDbLine
 10
94.94078324600002
 20
73.50740092399998
 30
0.0
 11
94.58714845899999
 21
73.15376613800001
 31
0.0
  0
LINE
  5
6FC
330
1E
100
AcDbEntity
  8
0
  6
Continuous
 62
     1
100
AcDbLine
 10
88.653382322
 20
67.22
 30
0.0
 11
88.15338232200002
 21
66.72
 31
0.0
  0
LINE
  5
6FD
330
1E
100
AcDbEntity
  8
0
  6
Continuous
 62
     1
100
AcDbLine
 10
88.57764639
 20
66.72
 30
0.0
 11
89.07764638999998
 21
67.22
 31
0.0
  0
LINE
  5
6FE
330
1E
100
AcDbEntity
  8
0
  6
Continuous
 62
     1
100
AcDbLine
 10
94.803832683
 20
72.946186293
 30
0.0
 11
95.15746746999999
 21
73.299821079
 31
0.0
  0
LINE
  5
6FF
330
1E
100
AcDbEntity
  8
0
  6
Continuous
 62
     1
100
AcDbLine
 10
95.37415169399999
 20
73.092241235
 30
0.0
 11
95.020516907
 21
72.738606448
 31
0.0
  0
LINE
  5
700
330
1E
100
AcDbEntity
  8
0
  6
Continuous
 62
     1
100
AcDbLine
 10
89.501910459
 20
67.22
 30
0.0
 11
89.00191045899997
 21
66.72
 31
0.0
  0
LINE
  5
701
330
1E
100
AcDbEntity
  8
0
  6
Continuous
 62
     1
100
AcDbLine
 10
89.42617452799998
 20
66.72
 30
0.0
 11
89.92617452799999
 21
67.22
 31
0.0
  0
LINE
  5
702
330
1E
100
AcDbEntity
  8
0
  6
Continuous
 62
     1
100
AcDbLine
 10
95.23720113100001
 20
72.531026603
 30
0.0
 11
95.590835918
 21
72.88466139
 31
0.0
  0
LINE
  5
703
330
1E
100
AcDbEntity
  8
0
  6
Continuous
 62
     1
100
AcDbLine
 10
95.80752014199999
 20
72.67708154499998
 30
0.0
 11
95.453885355
 21
72.323446758
 31
0.0
  0
LINE
  5
704
330
1E
100
AcDbEntity
  8
0
  6
Continuous
 62
     1
100
AcDbLine
 10
90.35043859700001
 20
67.22
 30
0.0
 11
89.85043859600002
 21
66.72
 31
0.0
  0
LINE
  5
705
330
1E
100
AcDbEntity
  8
0
  6
Continuous
 62
     1
100
AcDbLine
 10
90.27470266500001
 20
66.72
 30
0.0
 11
90.774702665
 21
67.22
 31
0.0
  0
LINE
  5
706
330
1E
100
AcDbEntity
  8
0
  6
Continuous
 62
     1
100
AcDbLine
 10
95.670569579
 20
72.11586691399998
 30
0.0
 11
96.024204365
 21
72.46950169999998
 31
0.0
  0
LINE
  5
707
330
1E
100
AcDbEntity
  8
0
  6
Continuous
 62
     1
100
AcDbLine
 10
96.240888589
 20
72.261921856
 30
0.0
 11
95.88725380299999
 21
71.90828706899998
 31
0.0
  0
LINE
  5
708
330
1E
100
AcDbEntity
  8
0
  6
Continuous
 62
     1
100
AcDbLine
 10
91.19896673399999
 20
67.22
 30
0.0
 11
90.698966734
 21
66.72
 31
0.0
  0
LINE
  5
709
330
1E
100
AcDbEntity
  8
0
  6
Continuous
 62
     1
100
AcDbLine
 10
91.12323080299999
 20
66.72
 30
0.0
 11
91.623230803
 21
67.22
 31
0.0
  0
LINE
  5
70A
330
1E
100
AcDbEntity
  8
0
  6
Continuous
 62
     1
100
AcDbLine
 10
96.10393802700002
 20
71.700707224
 30
0.0
 11
96.45757281299999
 21
72.054342011
 31
0.0
  0
LINE
  5
70B
330
1E
100
AcDbEntity
  8
0
  6
Continuous
 62
     1
100
AcDbLine
 10
96.67425703700001
 20
71.846762166
 30
0.0
 11
96.320622251
 21
71.493127379
 31
0.0
  0
LINE
  5
70C
330
1E
100
AcDbEntity
  8
0
  6
Continuous
 62
     1
100
AcDbLine
 10
92.047494871
 20
67.22
 30
0.0
 11
91.547494871
 21
66.72
 31
0.0
  0
LINE
  5
70D
330
1E
100
AcDbEntity
  8
0
  6
Continuous
 62
     1
100
AcDbLine
 10
91.97175894
 20
66.72
 30
0.0
 11
92.47175893999999
 21
67.22
 31
0.0
  0
LINE
  5
70E
330
1E
100
AcDbEntity
  8
0
  6
Continuous
 62
     1
100
AcDbLine
 10
96.53730647499999
 20
71.28554753500002
 30
0.0
 11
96.89094126100002
 21
71.63918232100001
 31
0.0
  0
LINE
  5
70F
330
1E
100
AcDbEntity
  8
0
  6
Continuous
 62
     1
100
AcDbLine
 10
97.10762548499999
 20
71.431602476
 30
0.0
 11
96.753990699
 21
71.07796769
 31
0.0
  0
LINE
  5
710
330
1E
100
AcDbEntity
  8
0
  6
Continuous
 62
     1
100
AcDbLine
 10
92.89602300899998
 20
67.22
 30
0.0
 11
92.39602300899999
 21
66.72
 31
0.0
  0
LINE
  5
711
330
1E
100
AcDbEntity
  8
0
  6
Continuous
 62
     1
100
AcDbLine
 10
92.820287077
 20
66.72
 30
0.0
 11
93.32028707700001
 21
67.22
 31
0.0
  0
LINE
  5
712
330
1E
100
AcDbEntity
  8
0
  6
Continuous
 62
     1
100
AcDbLine
 10
96.970674922
 20
70.87038784499998
 30
0.0
 11
97.32430970899999
 21
71.224022632
 31
0.0
  0
LINE
  5
713
330
1E
100
AcDbEntity
  8
0
  6
Continuous
 62
     1
100
AcDbLine
 10
97.540993933
 20
71.016442787
 30
0.0
 11
97.18735914600001
 21
70.662808
 31
0.0
  0
LINE
  5
714
330
1E
100
AcDbEntity
  8
0
  6
Continuous
 62
     1
100
AcDbLine
 10
93.74455114600001
 20
67.22
 30
0.0
 11
93.244551146
 21
66.72
 31
0.0
  0
LINE
  5
715
330
1E
100
AcDbEntity
  8
0
  6
Continuous
 62
     1
100
AcDbLine
 10
93.66881521499999
 20
66.72
 30
0.0
 11
94.168815215
 21
67.22
 31
0.0
  0
LINE
  5
716
330
1E
100
AcDbEntity
  8
0
  6
Continuous
 62
     1
100
AcDbLine
 10
97.40404337000001
 20
70.455228155
 30
0.0
 11
97.757678157
 21
70.808862942
 31
0.0
  0
LINE
  5
717
330
1E
100
AcDbEntity
  8
0
  6
Continuous
 62
     1
100
AcDbLine
 10
97.97436238100001
 20
70.60128309699999
 30
0.0
 11
97.620727594
 21
70.247648311
 31
0.0
  0
LINE
  5
718
330
1E
100
AcDbEntity
  8
0
  6
Continuous
 62
     1
100
AcDbLine
 10
94.59307928399999
 20
67.22
 30
0.0
 11
94.093079284
 21
66.72
 31
0.0
  0
LINE
  5
719
330
1E
100
AcDbEntity
  8
0
  6
Continuous
 62
     1
100
AcDbLine
 10
94.51734335200001
 20
66.72
 30
0.0
 11
95.01734335200001
 21
67.22
 31
0.0
  0
LINE
  5
71A
330
1E
100
AcDbEntity
  8
0
  6
Continuous
 62
     1
100
AcDbLine
 10
97.83741181799999
 20
70.04006846600001
 30
0.0
 11
98.191046605
 21
70.393703253
 31
0.0
  0
LINE
  5
71B
330
1E
100
AcDbEntity
  8
0
  6
Continuous
 62
     1
100
AcDbLine
 10
98.407730829
 20
70.186123408
 30
0.0
 11
98.05409604200001
 21
69.83248862100001
 31
0.0
  0
LINE
  5
71C
330
1E
100
AcDbEntity
  8
0
  6
Continuous
 62
     1
100
AcDbLine
 10
95.441607421
 20
67.22
 30
0.0
 11
94.941607421
 21
66.72
 31
0.0
  0
LINE
  5
71D
330
1E
100
AcDbEntity
  8
0
  6
Continuous
 62
     1
100
AcDbLine
 10
95.36587149
 20
66.72
 30
0.0
 11
95.86587149000001
 21
67.22
 31
0.0
  0
LINE
  5
71E
330
1E
100
AcDbEntity
  8
0
  6
Continuous
 62
     1
100
AcDbLine
 10
98.270780266
 20
69.624908776
 30
0.0
 11
98.62441505299999
 21
69.978543563
 31
0.0
  0
LINE
  5
71F
330
1E
100
AcDbEntity
  8
0
  6
Continuous
 62
     1
100
AcDbLine
 10
98.84109927700002
 20
69.770963718
 30
0.0
 11
98.48746449
 21
69.41732893200001
 31
0.0
  0
LINE
  5
720
330
1E
100
AcDbEntity
  8
0
  6
Continuous
 62
     1
100
AcDbLine
 10
96.290135558
 20
67.22
 30
0.0
 11
95.79013555799999
 21
66.72
 31
0.0
  0
LINE
  5
721
330
1E
100
AcDbEntity
  8
0
  6
Continuous
 62
     1
100
AcDbLine
 10
96.21439962700002
 20
66.72
 30
0.0
 11
96.714399627
 21
67.22
 31
0.0
  0
LINE
  5
722
330
1E
100
AcDbEntity
  8
0
  6
Continuous
 62
     1
100
AcDbLine
 10
98.70414871400001
 20
69.20974908699999
 30
0.0
 11
99.057783501
 21
69.563383873
 31
0.0
  0
LINE
  5
723
330
1E
100
AcDbEntity
  8
0
  6
Continuous
 62
     1
100
AcDbLine
 10
99.27446772499999
 20
69.355804029
 30
0.0
 11
98.92083293799998
 21
69.00216924199999
 31
0.0
  0
LINE
  5
724
330
1E
100
AcDbEntity
  8
0
  6
Continuous
 62
     1
100
AcDbLine
 10
97.13866369600001
 20
67.22
 30
0.0
 11
96.638663696
 21
66.72
 31
0.0
  0
LINE
  5
725
330
1E
100
AcDbEntity
  8
0
  6
Continuous
 62
     1
100
AcDbLine
 10
97.06292776499999
 20
66.72
 30
0.0
 11
97.562927765
 21
67.22
 31
0.0
  0
LINE
  5
726
330
1E
100
AcDbEntity
  8
0
  6
Continuous
 62
     1
100
AcDbLine
 10
99.13751716200001
 20
68.794589397
 30
0.0
 11
99.491151948
 21
69.148224184
 31
0.0
  0
LINE
  5
727
330
1E
100
AcDbEntity
  8
0
  6
Continuous
 62
     1
100
AcDbLine
 10
99.70783617200002
 20
68.940644339
 30
0.0
 11
99.35420138600001
 21
68.58700955199998
 31
0.0
  0
LINE
  5
728
330
1E
100
AcDbEntity
  8
0
  6
Continuous
 62
     1
100
AcDbLine
 10
97.98719183300001
 20
67.22
 30
0.0
 11
97.487191833
 21
66.72
 31
0.0
  0
LINE
  5
729
330
1E
100
AcDbEntity
  8
0
  6
Continuous
 62
     1
100
AcDbLine
 10
97.91145590200002
 20
66.72
 30
0.0
 11
98.41145590200001
 21
67.22
 31
0.0
  0
LINE
  5
72A
330
1E
100
AcDbEntity
  8
0
  6
Continuous
 62
     1
100
AcDbLine
 10
99.57088561
 20
68.379429708
 30
0.0
 11
99.92452039600001
 21
68.73306449399999
 31
0.0
  0
LINE
  5
72B
330
1E
100
AcDbEntity
  8
0
  6
Continuous
 62
     1
100
AcDbLine
 10
100.14120462
 20
68.52548464999999
 30
0.0
 11
99.787569834
 21
68.171849863
 31
0.0
  0
LINE
  5
72C
330
1E
100
AcDbEntity
  8
0
  6
Continuous
 62
     1
100
AcDbLine
 10
98.835719971
 20
67.22
 30
0.0
 11
98.33571997100001
 21
66.72
 31
0.0
  0
LINE
  5
72D
330
1E
100
AcDbEntity
  8
0
  6
Continuous
 62
     1
100
AcDbLine
 10
98.759984039
 20
66.72
 30
0.0
 11
99.25998403900001
 21
67.22
 31
0.0
  0
LINE
  5
72E
330
1E
100
AcDbEntity
  8
0
  6
Continuous
 62
     1
100
AcDbLine
 10
100.0042540579999
 20
67.96427001800001
 30
0.0
 11
100.357888844
 21
68.317904805
 31
0.0
  0
LINE
  5
72F
330
1E
100
AcDbEntity
  8
0
  6
Continuous
 62
     1
100
AcDbLine
 10
100.5745730679998
 20
68.11032496
 30
0.0
 11
100.220938281
 21
67.756690173
 31
0.0
  0
LINE
  5
730
330
1E
100
AcDbEntity
  8
0
  6
Continuous
 62
     1
100
AcDbLine
 10
99.684248108
 20
67.22
 30
0.0
 11
99.18424810799999
 21
66.72
 31
0.0
  0
LINE
  5
731
330
1E
100
AcDbEntity
  8
0
  6
Continuous
 62
     1
100
AcDbLine
 10
99.60851217700001
 20
66.72
 30
0.0
 11
100.108512177
 21
67.22
 31
0.0
  0
LINE
  5
732
330
1E
100
AcDbEntity
  8
0
  6
Continuous
 62
     1
100
AcDbLine
 10
100.5327762459999
 20
67.22
 30
0.0
 11
100.0327762459999
 21
66.72
 31
0.0
  0
LINE
  5
733
330
1E
100
AcDbEntity
  8
0
  6
Continuous
 62
     1
100
AcDbLine
 10
86.336148674
 20
66.77916006699999
 30
0.0
 11
85.734160067
 21
67.381148674
 31
0.0
  0
LINE
  5
734
330
1E
100
AcDbEntity
  8
0
  6
Continuous
 62
     1
100
AcDbLine
 10
85.675
 20
67.86457281
 30
0.0
 11
86.81957281
 21
66.72
 31
0.0
  0
LINE
  5
735
330
1E
100
AcDbEntity
  8
0
  6
Continuous
 62
     1
100
AcDbLine
 10
87.24383687899997
 20
66.72
 30
0.0
 11
86.743836879
 21
67.22
 31
0.0
  0
LINE
  5
736
330
1E
100
AcDbEntity
  8
0
  6
Continuous
 62
     1
100
AcDbLine
 10
86.17499999999997
 20
67.788836879
 30
0.0
 11
85.675
 21
68.288836879
 31
0.0
  0
LINE
  5
737
330
1E
100
AcDbEntity
  8
0
  6
Continuous
 62
     1
100
AcDbLine
 10
85.675
 20
68.713100947
 30
0.0
 11
86.17499999999997
 21
68.213100947
 31
0.0
  0
LINE
  5
738
330
1E
100
AcDbEntity
  8
0
  6
Continuous
 62
     1
100
AcDbLine
 10
87.16810094700001
 20
67.22
 30
0.0
 11
87.66810094700002
 21
66.72
 31
0.0
  0
LINE
  5
739
330
1E
100
AcDbEntity
  8
0
  6
Continuous
 62
     1
100
AcDbLine
 10
88.092365016
 20
66.72
 30
0.0
 11
87.592365016
 21
67.22
 31
0.0
  0
LINE
  5
73A
330
1E
100
AcDbEntity
  8
0
  6
Continuous
 62
     1
100
AcDbLine
 10
86.17499999999997
 20
68.637365016
 30
0.0
 11
85.675
 21
69.137365016
 31
0.0
  0
LINE
  5
73B
330
1E
100
AcDbEntity
  8
0
  6
Continuous
 62
     1
100
AcDbLine
 10
85.675
 20
69.56162908500001
 30
0.0
 11
86.17499999999997
 21
69.061629085
 31
0.0
  0
LINE
  5
73C
330
1E
100
AcDbEntity
  8
0
  6
Continuous
 62
     1
100
AcDbLine
 10
88.016629085
 20
67.22
 30
0.0
 11
88.51662908500001
 21
66.72
 31
0.0
  0
LINE
  5
73D
330
1E
100
AcDbEntity
  8
0
  6
Continuous
 62
     1
100
AcDbLine
 10
88.940893154
 20
66.72
 30
0.0
 11
88.44089315399997
 21
67.22
 31
0.0
  0
LINE
  5
73E
330
1E
100
AcDbEntity
  8
0
  6
Continuous
 62
     1
100
AcDbLine
 10
86.17499999999997
 20
69.48589315399999
 30
0.0
 11
85.675
 21
69.985893154
 31
0.0
  0
LINE
  5
73F
330
1E
100
AcDbEntity
  8
0
  6
Continuous
 62
     1
100
AcDbLine
 10
85.675
 20
70.410157222
 30
0.0
 11
86.17499999999997
 21
69.910157222
 31
0.0
  0
LINE
  5
740
330
1E
100
AcDbEntity
  8
0
  6
Continuous
 62
     1
100
AcDbLine
 10
88.865157222
 20
67.22
 30
0.0
 11
89.36515722200001
 21
66.72
 31
0.0
  0
LINE
  5
741
330
1E
100
AcDbEntity
  8
0
  6
Continuous
 62
     1
100
AcDbLine
 10
89.78942129100003
 20
66.72
 30
0.0
 11
89.28942129100002
 21
67.22
 31
0.0
  0
LINE
  5
742
330
1E
100
AcDbEntity
  8
0
  6
Continuous
 62
     1
100
AcDbLine
 10
86.17499999999997
 20
70.33442129099999
 30
0.0
 11
85.675
 21
70.83442129099998
 31
0.0
  0
LINE
  5
743
330
1E
100
AcDbEntity
  8
0
  6
Continuous
 62
     1
100
AcDbLine
 10
85.675
 20
71.25868536
 30
0.0
 11
86.17499999999997
 21
70.75868536
 31
0.0
  0
LINE
  5
744
330
1E
100
AcDbEntity
  8
0
  6
Continuous
 62
     1
100
AcDbLine
 10
89.71368535999998
 20
67.22
 30
0.0
 11
90.21368536
 21
66.72
 31
0.0
  0
LINE
  5
745
330
1E
100
AcDbEntity
  8
0
  6
Continuous
 62
     1
100
AcDbLine
 10
90.63794942799999
 20
66.72
 30
0.0
 11
90.137949428
 21
67.22
 31
0.0
  0
LINE
  5
746
330
1E
100
AcDbEntity
  8
0
  6
Continuous
 62
     1
100
AcDbLine
 10
86.17499999999997
 20
71.182949428
 30
0.0
 11
85.675
 21
71.682949428
 31
0.0
  0
LINE
  5
747
330
1E
100
AcDbEntity
  8
0
  6
Continuous
 62
     1
100
AcDbLine
 10
85.675
 20
72.107213497
 30
0.0
 11
86.17499999999997
 21
71.60721349700001
 31
0.0
  0
LINE
  5
748
330
1E
100
AcDbEntity
  8
0
  6
Continuous
 62
     1
100
AcDbLine
 10
90.56221349700001
 20
67.22
 30
0.0
 11
91.062213497
 21
66.72
 31
0.0
  0
LINE
  5
749
330
1E
100
AcDbEntity
  8
0
  6
Continuous
 62
     1
100
AcDbLine
 10
91.486477566
 20
66.72
 30
0.0
 11
90.986477566
 21
67.22
 31
0.0
  0
LINE
  5
74A
330
1E
100
AcDbEntity
  8
0
  6
Continuous
 62
     1
100
AcDbLine
 10
86.17499999999997
 20
72.031477566
 30
0.0
 11
85.675
 21
72.531477566
 31
0.0
  0
LINE
  5
74B
330
1E
100
AcDbEntity
  8
0
  6
Continuous
 62
     1
100
AcDbLine
 10
85.675
 20
72.95574163499998
 30
0.0
 11
86.17499999999997
 21
72.45574163499998
 31
0.0
  0
LINE
  5
74C
330
1E
100
AcDbEntity
  8
0
  6
Continuous
 62
     1
100
AcDbLine
 10
91.41074163499999
 20
67.22
 30
0.0
 11
91.91074163499999
 21
66.72
 31
0.0
  0
LINE
  5
74D
330
1E
100
AcDbEntity
  8
0
  6
Continuous
 62
     1
100
AcDbLine
 10
92.335005703
 20
66.72
 30
0.0
 11
91.83500570299999
 21
67.22
 31
0.0
  0
LINE
  5
74E
330
1E
100
AcDbEntity
  8
0
  6
Continuous
 62
     1
100
AcDbLine
 10
86.17499999999997
 20
72.88000570299998
 30
0.0
 11
85.675
 21
73.380005703
 31
0.0
  0
LINE
  5
74F
330
1E
100
AcDbEntity
  8
0
  6
Continuous
 62
     1
100
AcDbLine
 10
85.678284687
 20
73.80098508499997
 30
0.0
 11
86.17499999999997
 21
73.304269772
 31
0.0
  0
LINE
  5
750
330
1E
100
AcDbEntity
  8
0
  6
Continuous
 62
     1
100
AcDbLine
 10
92.25926977200002
 20
67.22
 30
0.0
 11
92.75926977200001
 21
66.72
 31
0.0
  0
LINE
  5
751
330
1E
100
AcDbEntity
  8
0
  6
Continuous
 62
     1
100
AcDbLine
 10
93.18353384099999
 20
66.72
 30
0.0
 11
92.683533841
 21
67.22
 31
0.0
  0
LINE
  5
752
330
1E
100
AcDbEntity
  8
0
  6
Continuous
 62
     1
100
AcDbLine
 10
86.17507161399997
 20
73.728462226
 30
0.0
 11
85.766232039
 21
74.137301801
 31
0.0
  0
LINE
  5
753
330
1E
100
AcDbEntity
  8
0
  6
Continuous
 62
     1
100
AcDbLine
 10
85.93509097
 20
74.39270694
 30
0.0
 11
86.28944587600001
 21
74.03835203399999
 31
0.0
  0
LINE
  5
754
330
1E
100
AcDbEntity
  8
0
  6
Continuous
 62
     1
100
AcDbLine
 10
93.10779790899999
 20
67.22
 30
0.0
 11
93.607797909
 21
66.72
 31
0.0
  0
LINE
  5
755
330
1E
100
AcDbEntity
  8
0
  6
Continuous
 62
     1
100
AcDbLine
 10
94.03206197799999
 20
66.72
 30
0.0
 11
93.53206197799998
 21
67.22
 31
0.0
  0
LINE
  5
756
330
1E
100
AcDbEntity
  8
0
  6
Continuous
 62
     1
100
AcDbLine
 10
86.54836433600001
 20
74.203697642
 30
0.0
 11
86.16933314799998
 21
74.58272882999998
 31
0.0
  0
LINE
  5
757
330
1E
100
AcDbEntity
  8
0
  6
Continuous
 62
     1
100
AcDbLine
 10
86.47627147100001
 20
74.700054576
 30
0.0
 11
86.956326047
 21
74.22
 31
0.0
  0
LINE
  5
758
330
1E
100
AcDbEntity
  8
0
  6
Continuous
 62
     1
100
AcDbLine
 10
93.95632604700001
 20
67.22
 30
0.0
 11
94.456326047
 21
66.72
 31
0.0
  0
LINE
  5
759
330
1E
100
AcDbEntity
  8
0
  6
Continuous
 62
     1
100
AcDbLine
 10
94.880590116
 20
66.72
 30
0.0
 11
94.380590115
 21
67.22
 31
0.0
  0
LINE
  5
75A
330
1E
100
AcDbEntity
  8
0
  6
Continuous
 62
     1
100
AcDbLine
 10
87.380590115
 20
74.22
 30
0.0
 11
86.88059011600001
 21
74.72
 31
0.0
  0
LINE
  5
75B
330
1E
100
AcDbEntity
  8
0
  6
Continuous
 62
     1
100
AcDbLine
 10
87.30485418399998
 20
74.72
 30
0.0
 11
87.80485418399997
 21
74.22
 31
0.0
  0
LINE
  5
75C
330
1E
100
AcDbEntity
  8
0
  6
Continuous
 62
     1
100
AcDbLine
 10
94.80485418399998
 20
67.22
 30
0.0
 11
95.30485418399999
 21
66.72
 31
0.0
  0
LINE
  5
75D
330
1E
100
AcDbEntity
  8
0
  6
Continuous
 62
     1
100
AcDbLine
 10
95.729118253
 20
66.72
 30
0.0
 11
95.22911825299999
 21
67.22
 31
0.0
  0
LINE
  5
75E
330
1E
100
AcDbEntity
  8
0
  6
Continuous
 62
     1
100
AcDbLine
 10
88.229118253
 20
74.22
 30
0.0
 11
87.72911825299999
 21
74.72
 31
0.0
  0
LINE
  5
75F
330
1E
100
AcDbEntity
  8
0
  6
Continuous
 62
     1
100
AcDbLine
 10
88.15338232200002
 20
74.72
 30
0.0
 11
88.653382322
 21
74.22
 31
0.0
  0
LINE
  5
760
330
1E
100
AcDbEntity
  8
0
  6
Continuous
 62
     1
100
AcDbLine
 10
95.65338232200002
 20
67.22
 30
0.0
 11
96.15338232200002
 21
66.72
 31
0.0
  0
LINE
  5
761
330
1E
100
AcDbEntity
  8
0
  6
Continuous
 62
     1
100
AcDbLine
 10
96.57764638999999
 20
66.72
 30
0.0
 11
96.07764639
 21
67.22
 31
0.0
  0
LINE
  5
762
330
1E
100
AcDbEntity
  8
0
  6
Continuous
 62
     1
100
AcDbLine
 10
89.07764638999998
 20
74.22
 30
0.0
 11
88.57764639
 21
74.72
 31
0.0
  0
LINE
  5
763
330
1E
100
AcDbEntity
  8
0
  6
Continuous
 62
     1
100
AcDbLine
 10
89.00191045899997
 20
74.72
 30
0.0
 11
89.501910459
 21
74.22
 31
0.0
  0
LINE
  5
764
330
1E
100
AcDbEntity
  8
0
  6
Continuous
 62
     1
100
AcDbLine
 10
96.50191045900001
 20
67.22
 30
0.0
 11
97.001910459
 21
66.72
 31
0.0
  0
LINE
  5
765
330
1E
100
AcDbEntity
  8
0
  6
Continuous
 62
     1
100
AcDbLine
 10
97.42617452799999
 20
66.72
 30
0.0
 11
96.926174528
 21
67.22
 31
0.0
  0
LINE
  5
766
330
1E
100
AcDbEntity
  8
0
  6
Continuous
 62
     1
100
AcDbLine
 10
89.92617452799999
 20
74.22
 30
0.0
 11
89.42617452799998
 21
74.72
 31
0.0
  0
LINE
  5
767
330
1E
100
AcDbEntity
  8
0
  6
Continuous
 62
     1
100
AcDbLine
 10
89.85043859600002
 20
74.72
 30
0.0
 11
90.350438596
 21
74.22
 31
0.0
  0
LINE
  5
768
330
1E
100
AcDbEntity
  8
0
  6
Continuous
 62
     1
100
AcDbLine
 10
97.35043859600001
 20
67.22
 30
0.0
 11
97.85043859600001
 21
66.72
 31
0.0
  0
LINE
  5
769
330
1E
100
AcDbEntity
  8
0
  6
Continuous
 62
     1
100
AcDbLine
 10
98.274702665
 20
66.72
 30
0.0
 11
97.77470266500001
 21
67.22
 31
0.0
  0
LINE
  5
76A
330
1E
100
AcDbEntity
  8
0
  6
Continuous
 62
     1
100
AcDbLine
 10
90.774702665
 20
74.22
 30
0.0
 11
90.27470266500001
 21
74.72
 31
0.0
  0
LINE
  5
76B
330
1E
100
AcDbEntity
  8
0
  6
Continuous
 62
     1
100
AcDbLine
 10
90.698966734
 20
74.72
 30
0.0
 11
91.19896673399999
 21
74.22
 31
0.0
  0
LINE
  5
76C
330
1E
100
AcDbEntity
  8
0
  6
Continuous
 62
     1
100
AcDbLine
 10
98.198966734
 20
67.22
 30
0.0
 11
98.69896673399999
 21
66.72
 31
0.0
  0
LINE
  5
76D
330
1E
100
AcDbEntity
  8
0
  6
Continuous
 62
     1
100
AcDbLine
 10
99.123230803
 20
66.72
 30
0.0
 11
98.62323080300001
 21
67.22
 31
0.0
  0
LINE
  5
76E
330
1E
100
AcDbEntity
  8
0
  6
Continuous
 62
     1
100
AcDbLine
 10
91.623230803
 20
74.22
 30
0.0
 11
91.12323080299999
 21
74.72
 31
0.0
  0
LINE
  5
76F
330
1E
100
AcDbEntity
  8
0
  6
Continuous
 62
     1
100
AcDbLine
 10
91.547494871
 20
74.72
 30
0.0
 11
92.047494871
 21
74.22
 31
0.0
  0
LINE
  5
770
330
1E
100
AcDbEntity
  8
0
  6
Continuous
 62
     1
100
AcDbLine
 10
99.047494871
 20
67.22
 30
0.0
 11
99.547494871
 21
66.72
 31
0.0
  0
LINE
  5
771
330
1E
100
AcDbEntity
  8
0
  6
Continuous
 62
     1
100
AcDbLine
 10
99.97175894000001
 20
66.72
 30
0.0
 11
99.47175894
 21
67.22
 31
0.0
  0
LINE
  5
772
330
1E
100
AcDbEntity
  8
0
  6
Continuous
 62
     1
100
AcDbLine
 10
92.47175893999999
 20
74.22
 30
0.0
 11
91.97175894
 21
74.72
 31
0.0
  0
LINE
  5
773
330
1E
100
AcDbEntity
  8
0
  6
Continuous
 62
     1
100
AcDbLine
 10
92.39602300899999
 20
74.72
 30
0.0
 11
92.89602300899998
 21
74.22
 31
0.0
  0
LINE
  5
774
330
1E
100
AcDbEntity
  8
0
  6
Continuous
 62
     1
100
AcDbLine
 10
93.32028707700001
 20
74.22
 30
0.0
 11
92.820287077
 21
74.72
 31
0.0
  0
LINE
  5
775
330
1E
100
AcDbEntity
  8
0
  6
LTYPE2
 62
     1
100
AcDbLine
 10
93.67499999999999
 20
67.72
 30
0.0
 11
93.67499999999999
 21
73.71999999999998
 31
0.0
  0
LINE
  5
776
330
1E
100
AcDbEntity
  8
0
  6
LTYPE2
 62
     1
100
AcDbLine
 10
93.175
 20
67.72
 30
0.0
 11
93.175
 21
73.71999999999998
 31
0.0
  0
ARC
  5
777
330
1E
100
AcDbEntity
  8
0
  6
LTYPE2
 62
     1
100
AcDbCircle
 10
92.675
 20
67.72
 30
0.0
 40
1.0
100
AcDbArc
 50
270.0
 51
0.0
  0
ARC
  5
778
330
1E
100
AcDbEntity
  8
0
  6
LTYPE2
 62
     1
100
AcDbCircle
 10
92.675
 20
67.72
 30
0.0
 40
0.5
100
AcDbArc
 50
270.0
 51
0.0
  0
ARC
  5
779
330
1E
100
AcDbEntity
  8
0
  6
LTYPE2
 62
     1
100
AcDbCircle
 10
92.675
 20
73.71999999999998
 30
0.0
 40
0.5
100
AcDbArc
 50
0.0
 51
90.0
  0
LINE
  5
77A
330
1E
100
AcDbEntity
  8
0
  6
Continuous
 62
     1
100
AcDbLine
 10
86.675
 20
66.72
 30
0.0
 11
100.03434168
 21
66.72
 31
0.0
  0
ARC
  5
77B
330
1E
100
AcDbEntity
  8
0
  6
Continuous
 62
     1
100
AcDbCircle
 10
100.03434168
 20
67.51999999999999
 30
0.0
 40
0.8
100
AcDbArc
 50
270.0
 51
46.229334486
  0
LINE
  5
77C
330
1E
100
AcDbEntity
  8
0
  6
Continuous
 62
     1
100
AcDbLine
 10
86.675
 20
67.22
 30
0.0
 11
100.03434168
 21
67.22
 31
0.0
  0
ARC
  5
77D
330
1E
100
AcDbEntity
  8
0
  6
Continuous
 62
     1
100
AcDbCircle
 10
100.03434168
 20
67.51999999999999
 30
0.0
 40
0.3
100
AcDbArc
 50
270.0
 51
46.229334486
  0
LINE
  5
77E
330
1E
100
AcDbEntity
  8
0
  6
Continuous
 62
     1
100
AcDbLine
 10
100.814399627
 20
67.50162338199999
 30
0.0
 11
100.564399627
 21
67.25162338199999
 31
0.0
  0
LINE
  5
77F
330
1E
100
AcDbEntity
  8
0
  6
Continuous
 62
     1
100
AcDbLine
 10
100.390135558
 20
67.50162338199999
 30
0.0
 11
100.791257292
 21
67.902745115
 31
0.0
  0
LINE
  5
780
330
1E
100
AcDbEntity
  8
0
  6
Continuous
 62
     1
100
AcDbLine
 10
100.5886636959999
 20
66.95162338199999
 30
0.0
 11
100.288663696
 21
67.25162338199999
 31
0.0
  0
LINE
  5
781
330
1E
100
AcDbEntity
  8
0
  6
Continuous
 62
     1
100
AcDbLine
 10
100.3629277649999
 20
67.601623382
 30
0.0
 11
100.7629277649999
 21
67.20162338199999
 31
0.0
  0
LINE
  5
782
330
1E
100
AcDbEntity
  8
0
  6
Continuous
 62
     1
100
AcDbLine
 10
99.89602300899999
 20
67.22
 30
0.0
 11
100.314399627
 21
66.801623382
 31
0.0
  0
ARC
  5
783
330
1E
100
AcDbEntity
  8
0
  6
LTYPE2
 62
     1
100
AcDbCircle
 10
92.675
 20
73.71999999999998
 30
0.0
 40
1.0
100
AcDbArc
 50
55.25095768899999
 51
90.0
  0
LINE
  5
784
330
1E
100
AcDbEntity
  8
0
  6
Continuous
 62
     1
100
AcDbLine
 10
93.493533841
 20
74.605735931
 30
0.0
 11
93.10779790899999
 21
74.22
 31
0.0
  0
LINE
  5
785
330
1E
100
AcDbEntity
  8
0
  6
Continuous
 62
     1
100
AcDbLine
 10
93.50372734
 20
74.191665361
 30
0.0
 11
93.777797909
 21
74.465735931
 31
0.0
  0
LINE
  5
786
330
1E
100
AcDbEntity
  8
0
  6
Continuous
 62
     1
100
AcDbLine
 10
92.871599815
 20
74.72
 30
0.0
 11
86.675
 21
74.72
 31
0.0
  0
LINE
  5
787
330
1E
100
AcDbEntity
  8
0
  6
Continuous
 62
     1
100
AcDbLine
 10
100.5877605229998
 20
68.097691599
 30
0.0
 11
94.255146923
 21
74.164228999
 31
0.0
  0
ARC
  5
788
330
1E
100
AcDbEntity
  8
0
  6
Continuous
 62
     1
100
AcDbCircle
 10
92.871599815
 20
72.72
 30
0.0
 40
2.0
100
AcDbArc
 50
46.229334486
 51
90.0
  0
LINE
  5
789
330
1E
100
AcDbEntity
  8
0
  6
Continuous
 62
     1
100
AcDbLine
 10
100.241873746
 20
67.73663435
 30
0.0
 11
93.76422341500001
 21
73.942114499
 31
0.0
  0
LINE
  5
78A
330
1E
100
AcDbEntity
  8
0
  6
Continuous
 62
     1
100
AcDbLine
 10
93.072449861
 20
74.22
 30
0.0
 11
86.675
 21
74.22
 31
0.0
  0
ARC
  5
78B
330
1E
100
AcDbEntity
  8
0
  6
Continuous
 62
     1
100
AcDbCircle
 10
93.072449861
 20
73.22
 30
0.0
 40
1.0
100
AcDbArc
 50
46.229334486
 51
90.0
  0
LINE
  5
78C
330
1E
100
AcDbEntity
  8
0
  6
Continuous
 62
     1
100
AcDbLine
 10
100.814399627
 20
67.574415588
 30
0.0
 11
94.08087595499999
 21
74.30793925999998
 31
0.0
  0
LINE
  5
78D
330
1E
100
AcDbEntity
  8
0
  6
Continuous
 62
     1
100
AcDbLine
 10
93.328815215
 20
74.635735931
 30
0.0
 11
99.90969833600001
 21
68.05485281100001
 31
0.0
  0
LINE
  5
78E
330
1E
100
AcDbEntity
  8
0
  6
Continuous
 62
     1
100
AcDbLine
 10
94.06206197799999
 20
74.32573593099998
 30
0.0
 11
93.72041156299999
 21
73.984085517
 31
0.0
  0
LINE
  5
78F
330
1E
100
AcDbEntity
  8
0
  6
Continuous
 62
     3
100
AcDbLine
 10
108.2249999999999
 20
96.52000000000001
 30
0.0
 11
108.2249999999999
 21
95.62000000000001
 31
0.0
  0
LINE
  5
790
330
1E
100
AcDbEntity
  8
0
  6
Continuous
 62
     3
100
AcDbLine
 10
106.725
 20
95.62000000000001
 30
0.0
 11
108.2249999999999
 21
95.62000000000001
 31
0.0
  0
LINE
  5
791
330
1E
100
AcDbEntity
  8
0
  6
Continuous
 62
     3
100
AcDbLine
 10
108.2249999999999
 20
96.52000000000001
 30
0.0
 11
106.725
 21
96.52000000000001
 31
0.0
  0
LINE
  5
792
330
1E
100
AcDbEntity
  8
0
  6
Continuous
 62
     3
100
AcDbLine
 10
106.725
 20
96.52000000000001
 30
0.0
 11
106.725
 21
95.62000000000001
 31
0.0
  0
LINE
  5
793
330
1E
100
AcDbEntity
  8
0
  6
Continuous
 62
     3
100
AcDbLine
 10
108.2249999999999
 20
85.02
 30
0.0
 11
108.2249999999999
 21
84.12
 31
0.0
  0
LINE
  5
794
330
1E
100
AcDbEntity
  8
0
  6
Continuous
 62
     3
100
AcDbLine
 10
106.725
 20
84.12
 30
0.0
 11
108.2249999999999
 21
84.12
 31
0.0
  0
LINE
  5
795
330
1E
100
AcDbEntity
  8
0
  6
Continuous
 62
     3
100
AcDbLine
 10
108.2249999999999
 20
85.02
 30
0.0
 11
106.725
 21
85.02
 31
0.0
  0
LINE
  5
796
330
1E
100
AcDbEntity
  8
0
  6
Continuous
 62
     3
100
AcDbLine
 10
106.725
 20
85.02
 30
0.0
 11
106.725
 21
84.12
 31
0.0
  0
LINE
  5
797
330
1E
100
AcDbEntity
  8
0
  6
Continuous
 62
     6
100
AcDbLine
 10
103.275
 20
76.21999999999998
 30
0.0
 11
48.67499999999999
 21
76.21999999999998
 31
0.0
  0
LINE
  5
798
330
1E
100
AcDbEntity
  8
0
  6
Continuous
 62
     6
100
AcDbLine
 10
142.675
 20
64.81999999999999
 30
0.0
 11
115.175
 21
64.81999999999999
 31
0.0
  0
LINE
  5
799
330
1E
100
AcDbEntity
  8
0
  6
Continuous
 62
     6
100
AcDbLine
 10
115.175
 20
64.81999999999999
 30
0.0
 11
103.275
 21
76.21999999999998
 31
0.0
  0
LINE
  5
79A
330
1E
100
AcDbEntity
  8
0
  6
Continuous
 62
     6
100
AcDbLine
 10
142.675
 20
106.62
 30
0.0
 11
48.67499999999999
 21
106.62
 31
0.0
  0
CIRCLE
  5
79B
330
1E
100
AcDbEntity
  8
0
  6
Continuous
 62
     3
100
AcDbCircle
 10
115.5385
 20
92.406375
 30
0.0
 40
0.4900000000000003
  0
CIRCLE
  5
79C
330
1E
100
AcDbEntity
  8
0
  6
Continuous
 62
     3
100
AcDbCircle
 10
115.5885
 20
80.896375
 30
0.0
 40
0.4900000000000003
  0
LINE
  5
79D
330
1E
100
AcDbEntity
  8
0
  6
Continuous
 62
     3
100
AcDbLine
 10
211.375
 20
162.4
 30
0.0
 11
211.375
 21
255.4
 31
0.0
  0
LINE
  5
79E
330
1E
100
AcDbEntity
  8
0
  6
Continuous
 62
     3
100
AcDbLine
 10
208.375
 20
164.1
 30
0.0
 11
208.375
 21
166.9
 31
0.0
  0
LINE
  5
79F
330
1E
100
AcDbEntity
  8
0
  6
Continuous
 62
     3
100
AcDbLine
 10
206.625
 20
166.9
 30
0.0
 11
206.625
 21
164.56828536
 31
0.0
  0
LINE
  5
7A0
330
1E
100
AcDbEntity
  8
0
  6
Continuous
 62
     3
100
AcDbLine
 10
205.3749999999999
 20
165.5
 30
0.0
 11
205.3749999999999
 21
166.9
 31
0.0
  0
LINE
  5
7A1
330
1E
100
AcDbEntity
  8
0
  6
Continuous
 62
     3
100
AcDbLine
 10
203.6249999999999
 20
166.9
 30
0.0
 11
203.6249999999999
 21
165.5999999999996
 31
0.0
  0
LINE
  5
7A2
330
1E
100
AcDbEntity
  8
0
  6
Continuous
 62
     3
100
AcDbLine
 10
200.125
 20
185.4
 30
0.0
 11
200.125
 21
167.0
 31
0.0
  0
LINE
  5
7A3
330
1E
100
AcDbEntity
  8
0
  6
Continuous
 62
     3
100
AcDbLine
 10
195.125
 20
169.1999999999999
 30
0.0
 11
195.125
 21
185.4
 31
0.0
  0
LINE
  5
7A4
330
1E
100
AcDbEntity
  8
0
  6
Continuous
 62
     3
100
AcDbLine
 10
194.375
 20
166.3
 30
0.0
 11
194.375
 21
135.7499999999999
 31
0.0
  0
LINE
  5
7A5
330
1E
100
AcDbEntity
  8
0
  6
Continuous
 62
     3
100
AcDbLine
 10
190.8749999999999
 20
170.1999999999999
 30
0.0
 11
190.8749999999999
 21
173.3999999999999
 31
0.0
  0
LINE
  5
7A6
330
1E
100
AcDbEntity
  8
0
  6
Continuous
 62
     3
100
AcDbLine
 10
186.875
 20
173.3999999999999
 30
0.0
 11
186.875
 21
171.9
 31
0.0
  0
LINE
  5
7A7
330
1E
100
AcDbEntity
  8
0
  6
Continuous
 62
     3
100
AcDbLine
 10
183.375
 20
135.7499999999999
 30
0.0
 11
183.375
 21
169.8
 31
0.0
  0
LINE
  5
7A8
330
1E
100
AcDbEntity
  8
0
  6
Continuous
 62
     3
100
AcDbLine
 10
186.875
 20
162.7499999999999
 30
0.0
 11
190.8749999999999
 21
162.7499999999999
 31
0.0
  0
LINE
  5
7A9
330
1E
100
AcDbEntity
  8
0
  6
Continuous
 62
     3
100
AcDbLine
 10
203.6249999999999
 20
165.5999999999996
 30
0.0
 11
203.6249999999999
 21
141.9
 31
0.0
  0
LINE
  5
7AA
330
1E
100
AcDbEntity
  8
0
  6
Continuous
 62
     3
100
AcDbLine
 10
205.3749999999999
 20
141.9
 30
0.0
 11
205.3749999999999
 21
165.5
 31
0.0
  0
LINE
  5
7AB
330
1E
100
AcDbEntity
  8
0
  6
Continuous
 62
     3
100
AcDbLine
 10
206.625
 20
164.56828536
 30
0.0
 11
206.625
 21
141.9
 31
0.0
  0
LINE
  5
7AC
330
1E
100
AcDbEntity
  8
0
  6
Continuous
 62
     3
100
AcDbLine
 10
208.375
 20
141.9
 30
0.0
 11
208.375
 21
164.1
 31
0.0
  0
LINE
  5
7AD
330
1E
100
AcDbEntity
  8
0
  6
Continuous
 62
     3
100
AcDbLine
 10
211.375
 20
135.4
 30
0.0
 11
211.375
 21
162.4
 31
0.0
  0
LINE
  5
7AE
330
1E
100
AcDbEntity
  8
0
  6
Continuous
 62
     3
100
AcDbLine
 10
200.125
 20
167.0
 30
0.0
 11
200.125
 21
157.4
 31
0.0
  0
LINE
  5
7AF
330
1E
100
AcDbEntity
  8
0
  6
Continuous
 62
     3
100
AcDbLine
 10
195.125
 20
157.4
 30
0.0
 11
195.125
 21
169.1999999999999
 31
0.0
  0
LINE
  5
7B0
330
1E
100
AcDbEntity
  8
0
  6
Continuous
 62
     3
100
AcDbLine
 10
194.375
 20
255.88
 30
0.0
 11
194.375
 21
166.3
 31
0.0
  0
LINE
  5
7B1
330
1E
100
AcDbEntity
  8
0
  6
Continuous
 62
     3
100
AcDbLine
 10
190.8749999999999
 20
162.7499999999999
 30
0.0
 11
190.8749999999999
 21
170.1999999999999
 31
0.0
  0
LINE
  5
7B2
330
1E
100
AcDbEntity
  8
0
  6
Continuous
 62
     3
100
AcDbLine
 10
186.875
 20
171.9
 30
0.0
 11
186.875
 21
162.7499999999999
 31
0.0
  0
LINE
  5
7B3
330
1E
100
AcDbEntity
  8
0
  6
Continuous
 62
     3
100
AcDbLine
 10
183.375
 20
169.8
 30
0.0
 11
183.375
 21
184.4999999999999
 31
0.0
  0
LINE
  5
7B4
330
1E
100
AcDbEntity
  8
0
  6
Continuous
 62
     4
100
AcDbLine
 10
49.675
 20
255.4
 30
0.0
 11
49.675
 21
279.1
 31
0.0
  0
LINE
  5
7B5
330
1E
100
AcDbEntity
  8
0
  6
Continuous
 62
     4
100
AcDbLine
 10
49.675
 20
278.1
 30
0.0
 11
52.089814566
 21
277.452952387
 31
0.0
  0
LINE
  5
7B6
330
1E
100
AcDbEntity
  8
0
  6
Continuous
 62
     4
100
AcDbLine
 10
49.675
 20
278.1
 30
0.0
 11
52.089814566
 21
278.747047613
 31
0.0
  0
LINE
  5
7B7
330
1E
100
AcDbEntity
  8
0
  6
Continuous
 62
     4
100
AcDbLine
 10
49.675
 20
278.1
 30
0.0
 11
141.675
 21
278.1
 31
0.0
  0
LINE
  5
7B8
330
1E
100
AcDbEntity
  8
0
  6
Continuous
 62
     4
100
AcDbLine
 10
141.675
 20
278.1
 30
0.0
 11
139.260185434
 21
278.747047613
 31
0.0
  0
LINE
  5
7B9
330
1E
100
AcDbEntity
  8
0
  6
Continuous
 62
     4
100
AcDbLine
 10
141.675
 20
278.1
 30
0.0
 11
139.260185434
 21
277.452952387
 31
0.0
  0
LINE
  5
7BA
330
1E
100
AcDbEntity
  8
0
  6
Continuous
 62
     4
100
AcDbLine
 10
141.675
 20
255.4
 30
0.0
 11
141.675
 21
279.1
 31
0.0
  0
TEXT
  5
7BB
330
1E
100
AcDbEntity
  8
0
  6
Continuous
 62
     4
100
AcDbText
 10
90.675
 20
278.6
 30
0.0
 40
5.0
  1
９２
  7
KANJI3
100
AcDbText
  0
LINE
  5
7BC
330
1E
100
AcDbEntity
  8
0
  6
Continuous
 62
     4
100
AcDbLine
 10
47.675
 20
110.2999999999999
 30
0.0
 11
47.675
 21
117.1
 31
0.0
  0
LINE
  5
7BD
330
1E
100
AcDbEntity
  8
0
  6
Continuous
 62
     4
100
AcDbLine
 10
47.675
 20
116.1
 30
0.0
 11
50.089814566
 21
115.452952387
 31
0.0
  0
LINE
  5
7BE
330
1E
100
AcDbEntity
  8
0
  6
Continuous
 62
     4
100
AcDbLine
 10
47.675
 20
116.1
 30
0.0
 11
50.089814566
 21
116.7470476129998
 31
0.0
  0
LINE
  5
7BF
330
1E
100
AcDbEntity
  8
0
  6
Continuous
 62
     4
100
AcDbLine
 10
47.675
 20
116.1
 30
0.0
 11
143.675
 21
116.1
 31
0.0
  0
LINE
  5
7C0
330
1E
100
AcDbEntity
  8
0
  6
Continuous
 62
     4
100
AcDbLine
 10
143.675
 20
116.1
 30
0.0
 11
141.2601854339999
 21
116.7470476129998
 31
0.0
  0
LINE
  5
7C1
330
1E
100
AcDbEntity
  8
0
  6
Continuous
 62
     4
100
AcDbLine
 10
143.675
 20
116.1
 30
0.0
 11
141.2601854339999
 21
115.452952387
 31
0.0
  0
LINE
  5
7C2
330
1E
100
AcDbEntity
  8
0
  6
Continuous
 62
     4
100
AcDbLine
 10
143.675
 20
110.2999999999999
 30
0.0
 11
143.675
 21
117.1
 31
0.0
  0
TEXT
  5
7C3
330
1E
100
AcDbEntity
  8
0
  6
Continuous
 62
     4
100
AcDbText
 10
90.675
 20
116.5999999999999
 30
0.0
 40
5.0
  1
９６
  7
KANJI3
100
AcDbText
  0
LINE
  5
7C4
330
1E
100
AcDbEntity
  8
0
  6
Continuous
 62
     4
100
AcDbLine
 10
144.175
 20
109.8
 30
0.0
 11
151.475
 21
109.8
 31
0.0
  0
LINE
  5
7C5
330
1E
100
AcDbEntity
  8
0
  6
Continuous
 62
     4
100
AcDbLine
 10
150.475
 20
109.8
 30
0.0
 11
149.827952387
 21
107.3851854339999
 31
0.0
  0
LINE
  5
7C6
330
1E
100
AcDbEntity
  8
0
  6
Continuous
 62
     4
100
AcDbLine
 10
150.475
 20
109.8
 30
0.0
 11
151.122047613
 21
107.3851854339999
 31
0.0
  0
LINE
  5
7C7
330
1E
100
AcDbEntity
  8
0
  6
Continuous
 62
     4
100
AcDbLine
 10
150.475
 20
109.8
 30
0.0
 11
150.475
 21
61.79999999999999
 31
0.0
  0
LINE
  5
7C8
330
1E
100
AcDbEntity
  8
0
  6
Continuous
 62
     4
100
AcDbLine
 10
150.475
 20
61.79999999999999
 30
0.0
 11
151.122047613
 21
64.214814566
 31
0.0
  0
LINE
  5
7C9
330
1E
100
AcDbEntity
  8
0
  6
Continuous
 62
     4
100
AcDbLine
 10
150.475
 20
61.79999999999999
 30
0.0
 11
149.827952387
 21
64.214814566
 31
0.0
  0
LINE
  5
7CA
330
1E
100
AcDbEntity
  8
0
  6
Continuous
 62
     4
100
AcDbLine
 10
144.175
 20
61.79999999999999
 30
0.0
 11
151.475
 21
61.79999999999999
 31
0.0
  0
TEXT
  5
7CB
330
1E
100
AcDbEntity
  8
0
  6
Continuous
 62
     4
100
AcDbText
 10
149.9749999999996
 20
80.8
 30
0.0
 40
5.0
  1
４８
 50
90.0
  7
KANJI3
100
AcDbText
  0
LINE
  5
7CC
330
1E
100
AcDbEntity
  8
0
  6
Continuous
 62
     4
100
AcDbLine
 10
144.425
 20
128.4
 30
0.0
 11
151.475
 21
128.4
 31
0.0
  0
LINE
  5
7CD
330
1E
100
AcDbEntity
  8
0
  6
Continuous
 62
     4
100
AcDbLine
 10
150.475
 20
128.4
 30
0.0
 11
151.122047613
 21
130.8148145659999
 31
0.0
  0
LINE
  5
7CE
330
1E
100
AcDbEntity
  8
0
  6
Continuous
 62
     4
100
AcDbLine
 10
150.475
 20
128.4
 30
0.0
 11
149.827952387
 21
130.8148145659999
 31
0.0
  0
LINE
  5
7CF
330
1E
100
AcDbEntity
  8
0
  6
Continuous
 62
     4
100
AcDbLine
 10
150.475
 20
128.4
 30
0.0
 11
150.475
 21
135.4
 31
0.0
  0
LINE
  5
7D0
330
1E
100
AcDbEntity
  8
0
  6
Continuous
 62
     4
100
AcDbLine
 10
150.475
 20
135.4
 30
0.0
 11
149.827952387
 21
132.9851854339999
 31
0.0
  0
LINE
  5
7D1
330
1E
100
AcDbEntity
  8
0
  6
Continuous
 62
     4
100
AcDbLine
 10
150.475
 20
135.4
 30
0.0
 11
151.122047613
 21
132.9851854339999
 31
0.0
  0
LINE
  5
7D2
330
1E
100
AcDbEntity
  8
0
  6
Continuous
 62
     4
100
AcDbLine
 10
144.675
 20
135.4
 30
0.0
 11
151.475
 21
135.4
 31
0.0
  0
TEXT
  5
7D3
330
1E
100
AcDbEntity
  8
0
  6
Continuous
 62
     4
100
AcDbText
 10
149.9749999999996
 20
129.4
 30
0.0
 40
5.0
  1
７
 50
90.0
  7
KANJI3
100
AcDbText
  0
LINE
  5
7D4
330
1E
100
AcDbEntity
  8
0
  6
Continuous
 62
     4
100
AcDbLine
 10
144.675
 20
135.4
 30
0.0
 11
151.475
 21
135.4
 31
0.0
  0
LINE
  5
7D5
330
1E
100
AcDbEntity
  8
0
  6
Continuous
 62
     4
100
AcDbLine
 10
150.475
 20
135.4
 30
0.0
 11
151.122047613
 21
137.8148145659999
 31
0.0
  0
LINE
  5
7D6
330
1E
100
AcDbEntity
  8
0
  6
Continuous
 62
     4
100
AcDbLine
 10
150.475
 20
135.4
 30
0.0
 11
149.827952387
 21
137.8148145659999
 31
0.0
  0
LINE
  5
7D7
330
1E
100
AcDbEntity
  8
0
  6
Continuous
 62
     4
100
AcDbLine
 10
150.475
 20
135.4
 30
0.0
 11
150.475
 21
256.3999999999999
 31
0.0
  0
LINE
  5
7D8
330
1E
100
AcDbEntity
  8
0
  6
Continuous
 62
     4
100
AcDbLine
 10
150.475
 20
256.3999999999999
 30
0.0
 11
149.827952387
 21
253.985185434
 31
0.0
  0
LINE
  5
7D9
330
1E
100
AcDbEntity
  8
0
  6
Continuous
 62
     4
100
AcDbLine
 10
150.475
 20
256.3999999999999
 30
0.0
 11
151.122047613
 21
253.985185434
 31
0.0
  0
LINE
  5
7DA
330
1E
100
AcDbEntity
  8
0
  6
Continuous
 62
     4
100
AcDbLine
 10
142.425
 20
256.3999999999999
 30
0.0
 11
151.475
 21
256.3999999999999
 31
0.0
  0
TEXT
  5
7DB
330
1E
100
AcDbEntity
  8
0
  6
Continuous
 62
     4
100
AcDbText
 10
149.9749999999996
 20
188.4
 30
0.0
 40
5.0
  1
１２１
 50
90.0
  7
KANJI3
100
AcDbText
  0
LINE
  5
7DC
330
1E
100
AcDbEntity
  8
0
  6
Continuous
 62
     4
100
AcDbLine
 10
144.425
 20
128.4
 30
0.0
 11
159.3249999999999
 21
128.4
 31
0.0
  0
LINE
  5
7DD
330
1E
100
AcDbEntity
  8
0
  6
Continuous
 62
     4
100
AcDbLine
 10
158.3249999999999
 20
128.4
 30
0.0
 11
158.972047613
 21
130.8148145659999
 31
0.0
  0
LINE
  5
7DE
330
1E
100
AcDbEntity
  8
0
  6
Continuous
 62
     4
100
AcDbLine
 10
158.3249999999999
 20
128.4
 30
0.0
 11
157.6779523869999
 21
130.8148145659999
 31
0.0
  0
LINE
  5
7DF
330
1E
100
AcDbEntity
  8
0
  6
Continuous
 62
     4
100
AcDbLine
 10
158.3249999999999
 20
128.4
 30
0.0
 11
158.3249999999999
 21
274.8999999999999
 31
0.0
  0
LINE
  5
7E0
330
1E
100
AcDbEntity
  8
0
  6
Continuous
 62
     4
100
AcDbLine
 10
158.3249999999999
 20
274.8999999999999
 30
0.0
 11
157.6779523869999
 21
272.485185434
 31
0.0
  0
LINE
  5
7E1
330
1E
100
AcDbEntity
  8
0
  6
Continuous
 62
     4
100
AcDbLine
 10
158.3249999999999
 20
274.8999999999999
 30
0.0
 11
158.972047613
 21
272.485185434
 31
0.0
  0
LINE
  5
7E2
330
1E
100
AcDbEntity
  8
0
  6
Continuous
 62
     4
100
AcDbLine
 10
130.175
 20
274.8999999999999
 30
0.0
 11
159.3249999999999
 21
274.8999999999999
 31
0.0
  0
LINE
  5
7E3
330
1E
100
AcDbEntity
  8
0
  6
Continuous
 62
     4
100
AcDbLine
 10
166.375
 20
134.4
 30
0.0
 11
166.375
 21
115.1
 31
0.0
  0
LINE
  5
7E4
330
1E
100
AcDbEntity
  8
0
  6
Continuous
 62
     4
100
AcDbLine
 10
166.375
 20
116.1
 30
0.0
 11
168.789814566
 21
115.452952387
 31
0.0
  0
LINE
  5
7E5
330
1E
100
AcDbEntity
  8
0
  6
Continuous
 62
     4
100
AcDbLine
 10
166.375
 20
116.1
 30
0.0
 11
168.789814566
 21
116.7470476129998
 31
0.0
  0
LINE
  5
7E6
330
1E
100
AcDbEntity
  8
0
  6
Continuous
 62
     4
100
AcDbLine
 10
166.375
 20
116.1
 30
0.0
 11
211.375
 21
116.1
 31
0.0
  0
LINE
  5
7E7
330
1E
100
AcDbEntity
  8
0
  6
Continuous
 62
     4
100
AcDbLine
 10
211.375
 20
116.1
 30
0.0
 11
208.960185434
 21
116.7470476129998
 31
0.0
  0
LINE
  5
7E8
330
1E
100
AcDbEntity
  8
0
  6
Continuous
 62
     4
100
AcDbLine
 10
211.375
 20
116.1
 30
0.0
 11
208.960185434
 21
115.452952387
 31
0.0
  0
LINE
  5
7E9
330
1E
100
AcDbEntity
  8
0
  6
Continuous
 62
     4
100
AcDbLine
 10
211.375
 20
134.4
 30
0.0
 11
211.375
 21
115.1
 31
0.0
  0
TEXT
  5
7EA
330
1E
100
AcDbEntity
  8
0
  6
Continuous
 62
     4
100
AcDbText
 10
183.875
 20
116.5999999999999
 30
0.0
 40
5.0
  1
４５
  7
KANJI3
100
AcDbText
  0
TEXT
  5
7EB
330
1E
100
AcDbEntity
  8
0
  6
Continuous
 62
     4
100
AcDbText
 10
157.8249999999998
 20
189.15
 30
0.0
 40
5.0
  1
１４６.５
 50
90.0
  7
KANJI3
100
AcDbText
  0
VIEWPORT
  5
7F1
330
1A
100
AcDbEntity
 67
     1
  8
0
  6
Continuous
100
AcDbViewport
 10
5.613749947134905
 20
3.903749984080397
 30
0.0
 40
19.75647854037546
 41
8.749659944068728
 68
     1
 69
     1
 12
5.613749947134905
 22
3.903749984080397
 13
0.0
 23
0.0
 14
10.0
 24
10.0
 15
10.0
 25
10.0
 16
0.0
 26
0.0
 36
1.0
 17
0.0
 27
0.0
 37
0.0
 42
50.0
 43
0.0
 44
0.0
 45
8.749659944068728
 50
0.0
 51
0.0
 72
   100
 90
    32800
  1

281
     0
 71
     1
 74
     0
110
0.0
120
0.0
130
0.0
111
1.0
121
0.0
131
0.0
112
0.0
122
1.0
132
0.0
 79
     0
146
0.0
  0
VIEWPORT
  5
7F3
330
1A
100
AcDbEntity
 67
     1
  8
0
  6
Continuous
100
AcDbViewport
 10
5.613749965908018
 20
3.902083250481312
 30
0.0
 40
8.981999945452834
 41
6.243333200770099
 68
     2
 69
     2
 12
130.2117928771906
 22
172.4848716300735
 13
0.0
 23
0.0
 14
1.0
 24
1.0
 15
0.0
 25
0.0
 16
0.0
 26
0.0
 36
1.0
 17
0.0
 27
0.0
 37
0.0
 42
50.0
 43
0.0
 44
0.0
 45
226.9898316018994
 50
0.0
 51
0.0
 72
   100
 90
    32800
  1

281
     0
 71
     1
 74
     0
110
0.0
120
0.0
130
0.0
111
1.0
121
0.0
131
0.0
112
0.0
122
1.0
132
0.0
 79
     0
146
0.0
  0
ENDSEC
  0
SECTION
  2
OBJECTS
  0
DICTIONARY
  5
C
330
0
100
AcDbDictionary
281
     1
  3
ACAD_GROUP
350
D
  3
ACAD_PLOTSTYLENAME
350
E
  3
ACAD_MLINESTYLE
350
16
  3
ACAD_PLOTSETTINGS
350
18
  3
ACAD_LAYOUT
350
19
  0
DICTIONARY
  5
D
102
{ACAD_REACTORS
330
C
102
}
330
C
100
AcDbDictionary
281
     1
  0
ACDBDICTIONARYWDFLT
  5
E
102
{ACAD_REACTORS
330
C
102
}
330
C
100
AcDbDictionary
281
     1
  3
Normal
350
F
100
AcDbDictionaryWithDefault
340
F
  0
DICTIONARY
  5
16
102
{ACAD_REACTORS
330
C
102
}
330
C
100
AcDbDictionary
281
     1
  3
Standard
350
17
  0
DICTIONARY
  5
18
102
{ACAD_REACTORS
330
C
102
}
330
C
100
AcDbDictionary
281
     1
  0
DICTIONARY
  5
19
102
{ACAD_REACTORS
330
C
102
}
330
C
100
AcDbDictionary
281
     1
  3
ﾚｲｱｳﾄ1
350
1D
  3
Model
350
21
  0
ACDBPLACEHOLDER
  5
F
102
{ACAD_REACTORS
330
E
102
}
330
E
  0
MLINESTYLE
  5
17
102
{ACAD_REACTORS
330
16
102
}
330
16
100
AcDbMlineStyle
  2
STANDARD
 70
     0
  3

 62
   256
 51
90.0
 52
90.0
 71
     2
 49
0.5
 62
   256
  6
BYLAYER
 49
-0.5
 62
   256
  6
BYLAYER
  0
LAYOUT
  5
1D
102
{ACAD_REACTORS
330
19
102
}
330
19
100
AcDbPlotSettings
  1

  2
Canon LBP-880
  4
A4
  6

 40
5.873749732971191
 41
5.873747825622557
 42
5.958419799804687
 43
5.873748779296875
 44
210.0579986572264
 45
296.9259948730469
 46
0.0
 47
0.0
 48
0.0
 49
0.0
140
0.0
141
0.0
142
1.0
143
1.0
 70
   688
 72
     0
 73
     1
 74
     5
  7

 75
    16
147
1.0
148
0.0
149
0.0
100
AcDbLayout
  1
ﾚｲｱｳﾄ1
 70
     1
 71
     1
 10
-0.2312499519408218
 20
-0.2312499894870548
 11
11.4587498462106
 21
8.03874995764785
 12
0.0
 22
0.0
 32
0.0
 14
1.122749993181602
 24
0.7804166500962633
 34
0.0
 15
10.10474993863443
 25
7.023749850866361
 35
0.0
146
0.0
 13
0.0
 23
0.0
 33
0.0
 16
1.0
 26
0.0
 36
0.0
 17
0.0
 27
1.0
 37
0.0
 76
     0
330
1A
331
7F1
  0
LAYOUT
  5
21
102
{ACAD_REACTORS
330
19
102
}
330
19
100
AcDbPlotSettings
  1

  2
Canon LBP-880
  4
A4
  6

 40
5.873749732971191
 41
5.873747825622557
 42
5.958419799804687
 43
5.873748779296875
 44
210.0579986572264
 45
296.9259948730469
 46
0.0
 47
0.0
 48
0.0
 49
0.0
140
0.0
141
0.0
142
1.0
143
57.91989628110194
 70
 11952
 72
     0
 73
     1
 74
     0
  7

 75
     0
147
0.0172652242874661
148
4465.249854279483
149
-805.3873199856337
100
AcDbLayout
  1
Model
 70
     1
 71
     0
 10
0.0
 20
0.0
 11
12.0
 21
9.0
 12
0.0
 22
0.0
 32
0.0
 14
0.0
 24
0.0
 34
0.0
 15
0.0
 25
0.0
 35
0.0
146
0.0
 13
0.0
 23
0.0
 33
0.0
 16
1.0
 26
0.0
 36
0.0
 17
0.0
 27
1.0
 37
0.0
 76
     0
330
1E
  0
ENDSEC
  0
EOF
