  0
SECTION
  2
HEADER
  9
$EXTMIN
 10
0.0
 20
0.0
 30
0.0
  9
$EXTMAX
 10
420.0
 20
297.0
 30
0.0
  9
$LIMMIN
 10
0.0
 20
0.0
  9
$LIMMAX
 10
420.0
 20
297.0
  9
$LTSCALE
 40
1.0
  9
$PDMODE
 70
     0
  0
ENDSEC
  0
SECTION
  2
TABLES
  0
TABLE
  2
LTYPE
 70
     4
  0
LTYPE
  2
CONTINUOUS
 70
    64
  3
Solid line
 72
    65
 73
     0
 40
0.0
  0
LTYPE
  2
LTYPE1
 70
    64
  3
CENTER
 72
    65
 73
     4
 40
15.0
 49
10.5
 49
-1.5
 49
1.5
 49
-1.5
  0
LTYPE
  2
LTYPE2
 70
    64
  3
HIDDEN
 72
    65
 73
     2
 40
1.5
 49
0.9
 49
-0.6
  0
LTYPE
  2
LTYPE3
 70
    64
  3
HIDDEN
 72
    65
 73
     2
 40
1.0
 49
0.6
 49
-0.4
  0
ENDTAB
  0
TABLE
  2
LAYER
 70
   128
  0
LAYER
  2
0
 70
     0
 62
     7
  6
CONTINUOUS
  0
LAYER
  2
1
 70
     0
 62
     7
  6
CONTINUOUS
  0
LAYER
  2
2
 70
     0
 62
     7
  6
CONTINUOUS
  0
LAYER
  2
3
 70
     0
 62
     7
  6
CONTINUOUS
  0
LAYER
  2
4
 70
     0
 62
     7
  6
CONTINUOUS
  0
LAYER
  2
5
 70
     0
 62
     7
  6
CONTINUOUS
  0
LAYER
  2
6
 70
     0
 62
     7
  6
CONTINUOUS
  0
LAYER
  2
7
 70
     0
 62
     7
  6
CONTINUOUS
  0
LAYER
  2
8
 70
     0
 62
     7
  6
CONTINUOUS
  0
LAYER
  2
9
 70
     0
 62
     7
  6
CONTINUOUS
  0
LAYER
  2
10
 70
     0
 62
     7
  6
CONTINUOUS
  0
LAYER
  2
11
 70
     0
 62
     7
  6
CONTINUOUS
  0
LAYER
  2
12
 70
     0
 62
     7
  6
CONTINUOUS
  0
LAYER
  2
13
 70
     0
 62
     7
  6
CONTINUOUS
  0
LAYER
  2
14
 70
     0
 62
     7
  6
CONTINUOUS
  0
LAYER
  2
15
 70
     0
 62
     7
  6
CONTINUOUS
  0
LAYER
  2
16
 70
     0
 62
     7
  6
CONTINUOUS
  0
LAYER
  2
17
 70
     0
 62
     7
  6
CONTINUOUS
  0
LAYER
  2
18
 70
     0
 62
     7
  6
CONTINUOUS
  0
LAYER
  2
19
 70
     0
 62
     7
  6
CONTINUOUS
  0
LAYER
  2
20
 70
     0
 62
     7
  6
CONTINUOUS
  0
LAYER
  2
21
 70
     0
 62
     7
  6
CONTINUOUS
  0
LAYER
  2
22
 70
     0
 62
     7
  6
CONTINUOUS
  0
LAYER
  2
23
 70
     0
 62
     7
  6
CONTINUOUS
  0
LAYER
  2
24
 70
     0
 62
     7
  6
CONTINUOUS
  0
LAYER
  2
25
 70
     0
 62
     7
  6
CONTINUOUS
  0
LAYER
  2
26
 70
     0
 62
     7
  6
CONTINUOUS
  0
LAYER
  2
27
 70
     0
 62
     7
  6
CONTINUOUS
  0
LAYER
  2
28
 70
     0
 62
     7
  6
CONTINUOUS
  0
LAYER
  2
29
 70
     0
 62
     7
  6
CONTINUOUS
  0
LAYER
  2
30
 70
     0
 62
     7
  6
CONTINUOUS
  0
LAYER
  2
31
 70
     0
 62
     7
  6
CONTINUOUS
  0
LAYER
  2
32
 70
     0
 62
     7
  6
CONTINUOUS
  0
LAYER
  2
33
 70
     0
 62
     7
  6
CONTINUOUS
  0
LAYER
  2
34
 70
     0
 62
     7
  6
CONTINUOUS
  0
LAYER
  2
35
 70
     0
 62
     7
  6
CONTINUOUS
  0
LAYER
  2
36
 70
     0
 62
     7
  6
CONTINUOUS
  0
LAYER
  2
37
 70
     0
 62
     7
  6
CONTINUOUS
  0
LAYER
  2
38
 70
     0
 62
     7
  6
CONTINUOUS
  0
LAYER
  2
39
 70
     0
 62
     7
  6
CONTINUOUS
  0
LAYER
  2
40
 70
     0
 62
     7
  6
CONTINUOUS
  0
LAYER
  2
41
 70
     0
 62
     7
  6
CONTINUOUS
  0
LAYER
  2
42
 70
     0
 62
     7
  6
CONTINUOUS
  0
LAYER
  2
43
 70
     0
 62
     7
  6
CONTINUOUS
  0
LAYER
  2
44
 70
     0
 62
     7
  6
CONTINUOUS
  0
LAYER
  2
45
 70
     0
 62
     7
  6
CONTINUOUS
  0
LAYER
  2
46
 70
     0
 62
     7
  6
CONTINUOUS
  0
LAYER
  2
47
 70
     0
 62
     7
  6
CONTINUOUS
  0
LAYER
  2
48
 70
     0
 62
     7
  6
CONTINUOUS
  0
LAYER
  2
49
 70
     0
 62
     7
  6
CONTINUOUS
  0
LAYER
  2
50
 70
     0
 62
     7
  6
CONTINUOUS
  0
LAYER
  2
51
 70
     0
 62
     7
  6
CONTINUOUS
  0
LAYER
  2
52
 70
     0
 62
     7
  6
CONTINUOUS
  0
LAYER
  2
53
 70
     0
 62
     7
  6
CONTINUOUS
  0
LAYER
  2
54
 70
     0
 62
     7
  6
CONTINUOUS
  0
LAYER
  2
55
 70
     0
 62
     7
  6
CONTINUOUS
  0
LAYER
  2
56
 70
     0
 62
     7
  6
CONTINUOUS
  0
LAYER
  2
57
 70
     0
 62
     7
  6
CONTINUOUS
  0
LAYER
  2
58
 70
     0
 62
     7
  6
CONTINUOUS
  0
LAYER
  2
59
 70
     0
 62
     7
  6
CONTINUOUS
  0
LAYER
  2
60
 70
     0
 62
     7
  6
CONTINUOUS
  0
LAYER
  2
61
 70
     0
 62
     7
  6
CONTINUOUS
  0
LAYER
  2
62
 70
     0
 62
     7
  6
CONTINUOUS
  0
LAYER
  2
63
 70
     0
 62
     7
  6
CONTINUOUS
  0
LAYER
  2
64
 70
     0
 62
     7
  6
CONTINUOUS
  0
LAYER
  2
65
 70
     0
 62
     7
  6
CONTINUOUS
  0
LAYER
  2
66
 70
     0
 62
     7
  6
CONTINUOUS
  0
LAYER
  2
67
 70
     0
 62
     7
  6
CONTINUOUS
  0
LAYER
  2
68
 70
     0
 62
     7
  6
CONTINUOUS
  0
LAYER
  2
69
 70
     0
 62
     7
  6
CONTINUOUS
  0
LAYER
  2
70
 70
     0
 62
     7
  6
CONTINUOUS
  0
LAYER
  2
71
 70
     0
 62
     7
  6
CONTINUOUS
  0
LAYER
  2
72
 70
     0
 62
     7
  6
CONTINUOUS
  0
LAYER
  2
73
 70
     0
 62
     7
  6
CONTINUOUS
  0
LAYER
  2
74
 70
     0
 62
     7
  6
CONTINUOUS
  0
LAYER
  2
75
 70
     0
 62
     7
  6
CONTINUOUS
  0
LAYER
  2
76
 70
     0
 62
     7
  6
CONTINUOUS
  0
LAYER
  2
77
 70
     0
 62
     7
  6
CONTINUOUS
  0
LAYER
  2
78
 70
     0
 62
     7
  6
CONTINUOUS
  0
LAYER
  2
79
 70
     0
 62
     7
  6
CONTINUOUS
  0
LAYER
  2
80
 70
     0
 62
     7
  6
CONTINUOUS
  0
LAYER
  2
81
 70
     0
 62
     7
  6
CONTINUOUS
  0
LAYER
  2
82
 70
     0
 62
     7
  6
CONTINUOUS
  0
LAYER
  2
83
 70
     0
 62
     7
  6
CONTINUOUS
  0
LAYER
  2
84
 70
     0
 62
     7
  6
CONTINUOUS
  0
LAYER
  2
85
 70
     0
 62
     7
  6
CONTINUOUS
  0
LAYER
  2
86
 70
     0
 62
     7
  6
CONTINUOUS
  0
LAYER
  2
87
 70
     0
 62
     7
  6
CONTINUOUS
  0
LAYER
  2
88
 70
     0
 62
     7
  6
CONTINUOUS
  0
LAYER
  2
89
 70
     0
 62
     7
  6
CONTINUOUS
  0
LAYER
  2
90
 70
     0
 62
     7
  6
CONTINUOUS
  0
LAYER
  2
91
 70
     0
 62
     7
  6
CONTINUOUS
  0
LAYER
  2
92
 70
     0
 62
     7
  6
CONTINUOUS
  0
LAYER
  2
93
 70
     0
 62
     7
  6
CONTINUOUS
  0
LAYER
  2
94
 70
     0
 62
     7
  6
CONTINUOUS
  0
LAYER
  2
95
 70
     0
 62
     7
  6
CONTINUOUS
  0
LAYER
  2
96
 70
     0
 62
     7
  6
CONTINUOUS
  0
LAYER
  2
97
 70
     0
 62
     7
  6
CONTINUOUS
  0
LAYER
  2
98
 70
     0
 62
     7
  6
CONTINUOUS
  0
LAYER
  2
99
 70
     0
 62
     7
  6
CONTINUOUS
  0
LAYER
  2
100
 70
     0
 62
     7
  6
CONTINUOUS
  0
LAYER
  2
101
 70
     0
 62
     7
  6
CONTINUOUS
  0
LAYER
  2
102
 70
     0
 62
     7
  6
CONTINUOUS
  0
LAYER
  2
103
 70
     0
 62
     7
  6
CONTINUOUS
  0
LAYER
  2
104
 70
     0
 62
     7
  6
CONTINUOUS
  0
LAYER
  2
105
 70
     0
 62
     7
  6
CONTINUOUS
  0
LAYER
  2
106
 70
     0
 62
     7
  6
CONTINUOUS
  0
LAYER
  2
107
 70
     0
 62
     7
  6
CONTINUOUS
  0
LAYER
  2
108
 70
     0
 62
     7
  6
CONTINUOUS
  0
LAYER
  2
109
 70
     0
 62
     7
  6
CONTINUOUS
  0
LAYER
  2
110
 70
     0
 62
     7
  6
CONTINUOUS
  0
LAYER
  2
111
 70
     0
 62
     7
  6
CONTINUOUS
  0
LAYER
  2
112
 70
     0
 62
     7
  6
CONTINUOUS
  0
LAYER
  2
113
 70
     0
 62
     7
  6
CONTINUOUS
  0
LAYER
  2
114
 70
     0
 62
     7
  6
CONTINUOUS
  0
LAYER
  2
115
 70
     0
 62
     7
  6
CONTINUOUS
  0
LAYER
  2
116
 70
     0
 62
     7
  6
CONTINUOUS
  0
LAYER
  2
117
 70
     0
 62
     7
  6
CONTINUOUS
  0
LAYER
  2
118
 70
     0
 62
     7
  6
CONTINUOUS
  0
LAYER
  2
119
 70
     0
 62
     7
  6
CONTINUOUS
  0
LAYER
  2
120
 70
     0
 62
     7
  6
CONTINUOUS
  0
LAYER
  2
121
 70
     0
 62
     7
  6
CONTINUOUS
  0
LAYER
  2
122
 70
     0
 62
     7
  6
CONTINUOUS
  0
LAYER
  2
123
 70
     0
 62
     7
  6
CONTINUOUS
  0
LAYER
  2
124
 70
     0
 62
     7
  6
CONTINUOUS
  0
LAYER
  2
125
 70
     0
 62
     7
  6
CONTINUOUS
  0
LAYER
  2
126
 70
     0
 62
     7
  6
CONTINUOUS
  0
LAYER
  2
127
 70
     0
 62
     7
  6
CONTINUOUS
  0
ENDTAB
  0
TABLE
  2
STYLE
 70
     7
  0
STYLE
  2
STANDARD
 70
     0
 40
0.0
 41
1.0
 50
0.0
 71
     0
 42
0.2
  3
txt
  4

  0
STYLE
  2
KANJI0
 70
     0
 40
2.2
 41
0.818181818
 50
0.0
 71
     0
 42
2.2
  3

  4
bigfont
  0
STYLE
  2
KANJI1
 70
     0
 40
2.5
 41
0.76
 50
0.0
 71
     0
 42
2.5
  3

  4
bigfont
  0
STYLE
  2
KANJI2
 70
     0
 40
2.0
 41
0.8
 50
0.0
 71
     0
 42
2.0
  3

  4
bigfont
  0
STYLE
  2
KANJI3
 70
     0
 40
3.0
 41
0.833333333
 50
0.0
 71
     0
 42
3.0
  3

  4
bigfont
  0
STYLE
  2
KANJI4
 70
     0
 40
2.5
 41
0.72
 50
0.0
 71
     0
 42
2.5
  3

  4
bigfont
  0
STYLE
  2
KANJI5
 70
     0
 40
2.5
 41
0.8
 50
0.0
 71
     0
 42
2.5
  3

  4
bigfont
  0
ENDTAB
  0
TABLE
  2
VIEW
 70
     0
  0
ENDTAB
  0
ENDSEC
  0
SECTION
  2
BLOCKS
  0
ENDSEC
  0
SECTION
  2
ENTITIES
  0
LINE
  8
0
  6
CONTINUOUS
 62
     3
 10
108.240651474
 20
99.05
 11
108.240651474
 21
78.35
  0
LINE
  8
0
  6
CONTINUOUS
 62
     3
 10
108.240651474
 20
78.35
 11
108.240651474
 21
66.05
  0
LINE
  8
0
  6
LTYPE1
 62
     1
 10
109.240651474
 20
76.55
 11
94.910651474
 21
76.55
  0
LINE
  8
0
  6
LTYPE1
 62
     1
 10
109.240651474
 20
76.55
 11
86.040651474
 21
76.55
  0
LINE
  8
0
  6
CONTINUOUS
 62
     3
 10
103.940651474
 20
99.05
 11
103.940651474
 21
100.55
  0
LINE
  8
0
  6
CONTINUOUS
 62
     3
 10
103.940651474
 20
100.55
 11
109.760477141
 21
100.319054537
  0
ARC
  8
0
  6
CONTINUOUS
 62
     3
 10
109.740651474
 20
99.819447749
 40
0.5
 50
0.0
 51
87.727550267
  0
LINE
  8
0
  6
CONTINUOUS
 62
     3
 10
102.440651474
 20
100.55
 11
103.940651474
 21
100.55
  0
LINE
  8
0
  6
CONTINUOUS
 62
     3
 10
102.440651474
 20
52.55
 11
102.440651474
 21
54.2
  0
LINE
  8
0
  6
CONTINUOUS
 62
     3
 10
102.440651474
 20
52.55
 11
103.940651474
 21
52.55
  0
LINE
  8
0
  6
CONTINUOUS
 62
     3
 10
110.678363014
 20
52.783287018
 11
103.940651474
 21
52.55
  0
LINE
  8
0
  6
CONTINUOUS
 62
     3
 10
103.940651474
 20
54.05
 11
103.940651474
 21
52.55
  0
ARC
  8
0
  6
CONTINUOUS
 62
     3
 10
109.78163412
 20
98.55
 40
0.5
 50
4.89397779
 51
90.0
  0
ARC
  8
0
  6
CONTINUOUS
 62
     3
 10
-162.695179248
 20
74.924654245
 40
274.0
 50
358.311122619
 51
4.955376041
  0
LINE
  8
0
  6
CONTINUOUS
 62
     3
 10
110.240651474
 20
99.819447749
 11
110.240651474
 21
99.2
  0
LINE
  8
0
  6
CONTINUOUS
 62
     3
 10
108.240651474
 20
99.05
 11
110.090651474
 21
99.05
  0
ARC
  8
0
  6
CONTINUOUS
 62
     3
 10
110.090651474
 20
99.2
 40
0.15
 50
270.0
 51
0.0
  0
ARC
  8
0
  6
CONTINUOUS
 62
     3
 10
48.140651474
 20
67.75
 40
1.0
 50
90.0
 51
180.0
  0
LINE
  8
0
  6
CONTINUOUS
 62
     3
 10
47.140651474
 20
58.35
 11
47.140651474
 21
67.75
  0
ARC
  8
0
  6
CONTINUOUS
 62
     3
 10
48.140651474
 20
58.35
 40
1.0
 50
180.0
 51
270.0
  0
LINE
  8
0
  6
LTYPE2
 62
     3
 10
46.140651474
 20
63.35
 11
46.140651474
 21
57.35
  0
ARC
  8
0
  6
LTYPE2
 62
     3
 10
47.140651474
 20
57.35
 40
1.0
 50
180.0
 51
270.0
  0
LINE
  8
0
  6
LTYPE2
 62
     3
 10
46.140651474
 20
63.35
 11
46.140651474
 21
69.35
  0
ARC
  8
0
  6
LTYPE2
 62
     3
 10
47.140651474
 20
69.35
 40
1.0
 50
90.0
 51
180.0
  0
ARC
  8
0
  6
CONTINUOUS
 62
     3
 10
110.661061345
 20
65.55
 40
0.5
 50
0.0
 51
90.0
  0
LINE
  8
0
  6
CONTINUOUS
 62
     3
 10
110.661061345
 20
54.25
 11
110.661061345
 21
54.05
  0
ARC
  8
0
  6
CONTINUOUS
 62
     3
 10
110.661061345
 20
54.75
 40
0.5
 50
270.0
 51
0.0
  0
LINE
  8
0
  6
CONTINUOUS
 62
     3
 10
111.161061345
 20
66.55
 11
111.161061345
 21
66.85
  0
ARC
  8
0
  6
CONTINUOUS
 62
     3
 10
110.661061345
 20
66.55
 40
0.5
 50
270.0
 51
0.0
  0
LINE
  8
0
  6
CONTINUOUS
 62
     3
 10
111.140651474
 20
53.28298758
 11
111.140651474
 21
53.55
  0
ARC
  8
0
  6
CONTINUOUS
 62
     3
 10
110.640651474
 20
53.28298758
 40
0.5
 50
271.983021085
 51
0.0
  0
ARC
  8
0
  6
CONTINUOUS
 62
     3
 10
110.640651474
 20
53.55
 40
0.5
 50
0.0
 51
87.662498776
  0
LINE
  8
0
  6
CONTINUOUS
 62
     3
 10
111.140651474
 20
54.75
 11
111.140651474
 21
65.55
  0
LINE
  8
0
  6
CONTINUOUS
 62
     3
 10
103.940651474
 20
95.55
 11
104.440651474
 21
95.55
  0
LINE
  8
0
  6
CONTINUOUS
 62
     3
 10
103.940651474
 20
95.55
 11
103.940651474
 21
99.05
  0
LINE
  8
0
  6
CONTINUOUS
 62
     3
 10
104.440651474
 20
95.55
 11
104.440651474
 21
69.55
  0
LINE
  8
0
  6
CONTINUOUS
 62
     3
 10
103.940651474
 20
57.55
 11
104.440651474
 21
57.55
  0
LINE
  8
0
  6
CONTINUOUS
 62
     3
 10
104.440651474
 20
57.55
 11
104.440651474
 21
69.55
  0
LINE
  8
0
  6
CONTINUOUS
 62
     3
 10
103.940651474
 20
57.55
 11
103.940651474
 21
54.05
  0
LINE
  8
0
  6
LTYPE1
 62
     1
 10
115.890651474
 20
76.55
 11
109.240651474
 21
76.55
  0
LINE
  8
0
  6
LTYPE1
 62
     1
 10
109.240651474
 20
76.55
 11
38.290651474
 21
76.55
  0
ARC
  8
0
  6
CONTINUOUS
 62
     3
 10
50.440908344
 20
55.543417999
 40
1.0
 50
180.0
 51
269.621635311
  0
LINE
  8
0
  6
CONTINUOUS
 62
     3
 10
49.440908344
 20
97.556582001
 11
49.440908344
 21
55.543417999
  0
ARC
  8
0
  6
CONTINUOUS
 62
     3
 10
50.440908344
 20
97.556582001
 40
1.0
 50
90.378364689
 51
180.0
  0
LINE
  8
0
  6
CONTINUOUS
 62
     3
 10
61.040651474
 20
86.05
 11
61.040651474
 21
67.05
  0
LINE
  8
0
  6
LTYPE2
 62
     3
 10
49.440908344
 20
70.35
 11
47.140651474
 21
70.35
  0
LINE
  8
0
  6
LTYPE2
 62
     3
 10
49.440908344
 20
56.35
 11
47.140651474
 21
56.35
  0
LINE
  8
0
  6
CONTINUOUS
 62
     3
 10
48.140651474
 20
68.75
 11
49.440908344
 21
68.75
  0
LINE
  8
0
  6
CONTINUOUS
 62
     3
 10
48.140651474
 20
57.35
 11
49.440908344
 21
57.35
  0
LINE
  8
0
  6
CONTINUOUS
 62
     3
 10
45.200651474
 20
89.6
 11
36.200651474
 21
89.6
  0
LINE
  8
0
  6
CONTINUOUS
 62
     3
 10
36.200651474
 20
89.6
 11
36.200651474
 21
87.35
  0
LINE
  8
0
  6
CONTINUOUS
 62
     3
 10
45.200651474
 20
85.1
 11
36.200651474
 21
85.1
  0
LINE
  8
0
  6
CONTINUOUS
 62
     3
 10
36.200651474
 20
85.1
 11
36.200651474
 21
87.35
  0
LINE
  8
0
  6
CONTINUOUS
 62
     1
 10
47.250651474
 20
87.35
 11
34.650651474
 21
87.35
  0
LINE
  8
0
  6
CONTINUOUS
 62
     4
 10
102.440651474
 20
101.26
 11
102.440651474
 21
119.15
  0
LINE
  8
0
  6
CONTINUOUS
 62
     4
 10
102.440651474
 20
118.15
 11
100.025836909
 21
118.797047613
  0
LINE
  8
0
  6
CONTINUOUS
 62
     4
 10
102.440651474
 20
118.15
 11
100.025836909
 21
117.502952387
  0
LINE
  8
0
  6
CONTINUOUS
 62
     4
 10
102.440651474
 20
118.15
 11
49.440908344
 21
118.15
  0
LINE
  8
0
  6
CONTINUOUS
 62
     4
 10
49.440908344
 20
118.15
 11
51.85572291
 21
117.502952387
  0
LINE
  8
0
  6
CONTINUOUS
 62
     4
 10
49.440908344
 20
118.15
 11
51.85572291
 21
118.797047613
  0
LINE
  8
0
  6
CONTINUOUS
 62
     4
 10
49.440908344
 20
98.266582001
 11
49.440908344
 21
119.15
  0
TEXT
  8
0
  6
CONTINUOUS
 62
     4
 10
74.140779909
 20
118.65
 30
0.0
 40
2.2
  1
５３
 50
0.0
 41
0.818181818
 51
0.0
  7
KANJI0
  0
LINE
  8
0
  6
CONTINUOUS
 62
     4
 10
36.200651474
 20
123.206582001
 11
38.61546604
 21
122.559534388
  0
LINE
  8
0
  6
CONTINUOUS
 62
     4
 10
36.200651474
 20
123.206582001
 11
38.61546604
 21
123.853629613
  0
LINE
  8
0
  6
CONTINUOUS
 62
     4
 10
36.200651474
 20
123.206582001
 11
102.440651474
 21
123.206582001
  0
LINE
  8
0
  6
CONTINUOUS
 62
     4
 10
102.440651474
 20
123.206582001
 11
100.025836909
 21
123.853629613
  0
LINE
  8
0
  6
CONTINUOUS
 62
     4
 10
102.440651474
 20
123.206582001
 11
100.025836909
 21
122.559534388
  0
LINE
  8
0
  6
CONTINUOUS
 62
     4
 10
102.440651474
 20
119.86
 11
102.440651474
 21
124.206582001
  0
LINE
  8
0
  6
CONTINUOUS
 62
     4
 10
110.240651474
 20
100.529447749
 11
110.240651474
 21
119.15
  0
LINE
  8
0
  6
CONTINUOUS
 62
     4
 10
110.240651474
 20
118.15
 11
107.825836909
 21
118.797047613
  0
LINE
  8
0
  6
CONTINUOUS
 62
     4
 10
110.240651474
 20
118.15
 11
107.825836909
 21
117.502952387
  0
LINE
  8
0
  6
CONTINUOUS
 62
     4
 10
110.240651474
 20
118.15
 11
102.440651474
 21
118.15
  0
LINE
  8
0
  6
CONTINUOUS
 62
     4
 10
102.440651474
 20
118.15
 11
104.85546604
 21
117.502952387
  0
LINE
  8
0
  6
CONTINUOUS
 62
     4
 10
102.440651474
 20
118.15
 11
104.85546604
 21
118.797047613
  0
TEXT
  8
0
  6
CONTINUOUS
 62
     4
 10
103.640651474
 20
118.65
 30
0.0
 40
2.2
  1
７．８
 50
0.0
 41
0.818181818
 51
0.0
  7
KANJI0
  0
LINE
  8
0
  6
CONTINUOUS
 62
     4
 10
111.3
 20
77.26
 11
111.3
 21
124.206582001
  0
LINE
  8
0
  6
CONTINUOUS
 62
     4
 10
111.3
 20
123.206582001
 11
108.885185434
 21
123.853629613
  0
LINE
  8
0
  6
CONTINUOUS
 62
     4
 10
111.3
 20
123.206582001
 11
108.885185434
 21
122.559534388
  0
LINE
  8
0
  6
CONTINUOUS
 62
     4
 10
111.3
 20
123.206582001
 11
102.440651474
 21
123.206582001
  0
LINE
  8
0
  6
CONTINUOUS
 62
     4
 10
102.440651474
 20
123.206582001
 11
104.85546604
 21
122.559534388
  0
LINE
  8
0
  6
CONTINUOUS
 62
     4
 10
102.440651474
 20
123.206582001
 11
104.85546604
 21
123.853629613
  0
LINE
  8
0
  6
CONTINUOUS
 62
     4
 10
102.440651474
 20
51.84
 11
102.440651474
 21
39.96
  0
LINE
  8
0
  6
CONTINUOUS
 62
     4
 10
102.440651474
 20
40.96
 11
104.85546604
 21
40.312952387
  0
LINE
  8
0
  6
CONTINUOUS
 62
     4
 10
102.440651474
 20
40.96
 11
104.85546604
 21
41.607047613
  0
LINE
  8
0
  6
CONTINUOUS
 62
     4
 10
102.440651474
 20
40.96
 11
111.140651474
 21
40.96
  0
LINE
  8
0
  6
CONTINUOUS
 62
     4
 10
111.140651474
 20
40.96
 11
108.725836909
 21
41.607047613
  0
LINE
  8
0
  6
CONTINUOUS
 62
     4
 10
111.140651474
 20
40.96
 11
108.725836909
 21
40.312952387
  0
LINE
  8
0
  6
CONTINUOUS
 62
     4
 10
111.140651474
 20
52.57298758
 11
111.140651474
 21
39.96
  0
TEXT
  8
0
  6
CONTINUOUS
 62
     4
 10
104.090651474
 20
41.46
 30
0.0
 40
2.2
  1
８．７
 50
0.0
 41
0.818181818
 51
0.0
  7
KANJI0
  0
TEXT
  8
0
  6
CONTINUOUS
 62
     4
 10
104.290325737
 20
124.276582001
 30
0.0
 40
2.2
  1
８．９
 50
0.0
 41
0.818181818
 51
0.0
  7
KANJI0
  0
TEXT
  8
0
  6
CONTINUOUS
 62
     4
 10
64.820651474
 20
123.706582001
 30
0.0
 40
2.2
  1
６６．５
 50
0.0
 41
0.818181818
 51
0.0
  7
KANJI0
  0
LINE
  8
0
  6
CONTINUOUS
 62
     3
 10
68.540651474
 20
69.05
 11
68.540651474
 21
67.05
  0
LINE
  8
0
  6
CONTINUOUS
 62
     3
 10
68.540651474
 20
86.05
 11
68.540651474
 21
84.05
  0
LINE
  8
0
  6
CONTINUOUS
 62
     3
 10
68.540651474
 20
69.05
 11
68.540651474
 21
67.05
  0
LINE
  8
0
  6
CONTINUOUS
 62
     3
 10
68.540651474
 20
86.05
 11
68.540651474
 21
84.05
  0
LINE
  8
0
  6
CONTINUOUS
 62
     3
 10
67.040651474
 20
69.05
 11
67.040651474
 21
67.05
  0
LINE
  8
0
  6
CONTINUOUS
 62
     3
 10
67.040651474
 20
86.05
 11
67.040651474
 21
84.05
  0
LINE
  8
0
  6
CONTINUOUS
 62
     3
 10
65.540651474
 20
69.05
 11
65.540651474
 21
67.05
  0
LINE
  8
0
  6
CONTINUOUS
 62
     3
 10
65.540651474
 20
86.05
 11
65.540651474
 21
84.05
  0
LINE
  8
0
  6
CONTINUOUS
 62
     3
 10
64.040651474
 20
69.05
 11
64.040651474
 21
67.05
  0
LINE
  8
0
  6
CONTINUOUS
 62
     3
 10
64.040651474
 20
86.05
 11
64.040651474
 21
84.05
  0
LINE
  8
0
  6
CONTINUOUS
 62
     3
 10
65.540651474
 20
69.05
 11
65.540651474
 21
67.05
  0
LINE
  8
0
  6
CONTINUOUS
 62
     3
 10
65.540651474
 20
86.05
 11
65.540651474
 21
84.05
  0
LINE
  8
0
  6
CONTINUOUS
 62
     3
 10
62.540651474
 20
69.05
 11
62.540651474
 21
67.05
  0
LINE
  8
0
  6
CONTINUOUS
 62
     3
 10
62.540651474
 20
86.05
 11
62.540651474
 21
84.05
  0
LINE
  8
0
  6
CONTINUOUS
 62
     3
 10
98.308522862
 20
98.872712226
 11
90.233553158
 21
98.819386696
  0
LINE
  8
0
  6
CONTINUOUS
 62
     3
 10
98.308522862
 20
54.227287774
 11
90.233553158
 21
54.280613304
  0
LINE
  8
0
  6
CONTINUOUS
 62
     3
 10
102.440651474
 20
100.55
 11
102.440651474
 21
53.55
  0
LINE
  8
0
  6
CONTINUOUS
 62
     3
 10
110.661061345
 20
66.05
 11
108.240651474
 21
66.05
  0
LINE
  8
0
  6
CONTINUOUS
 62
     3
 10
91.440651474
 20
85.05
 11
83.440651474
 21
85.05
  0
LINE
  8
0
  6
CONTINUOUS
 62
     3
 10
83.440651474
 20
87.05
 11
91.440651474
 21
87.05
  0
LINE
  8
0
  6
CONTINUOUS
 62
     3
 10
93.940651474
 20
87.05
 11
95.940651474
 21
87.05
  0
LINE
  8
0
  6
CONTINUOUS
 62
     3
 10
93.940651474
 20
85.05
 11
95.940651474
 21
85.05
  0
LINE
  8
0
  6
CONTINUOUS
 62
     3
 10
95.940651474
 20
85.05
 11
95.940651474
 21
87.05
  0
LINE
  8
0
  6
CONTINUOUS
 62
     3
 10
95.940651474
 20
88.55
 11
95.940651474
 21
90.55
  0
LINE
  8
0
  6
LTYPE3
 62
     1
 10
91.440651474
 20
85.05
 11
93.940651474
 21
85.05
  0
LINE
  8
0
  6
LTYPE3
 62
     1
 10
91.440651474
 20
87.05
 11
93.940651474
 21
87.05
  0
LINE
  8
0
  6
CONTINUOUS
 62
     3
 10
93.940651474
 20
88.55
 11
95.940651474
 21
88.55
  0
LINE
  8
0
  6
CONTINUOUS
 62
     3
 10
93.940651474
 20
90.55
 11
95.940651474
 21
90.55
  0
LINE
  8
0
  6
CONTINUOUS
 62
     3
 10
83.440651474
 20
90.55
 11
91.440651474
 21
90.55
  0
LINE
  8
0
  6
CONTINUOUS
 62
     3
 10
83.440651474
 20
88.55
 11
91.440651474
 21
88.55
  0
LINE
  8
0
  6
LTYPE3
 62
     1
 10
91.440651474
 20
88.55
 11
93.940651474
 21
88.55
  0
LINE
  8
0
  6
LTYPE3
 62
     1
 10
91.440651474
 20
90.55
 11
93.940651474
 21
90.55
  0
LINE
  8
0
  6
LTYPE3
 62
     1
 10
81.940651474
 20
88.55
 11
83.440651474
 21
88.55
  0
LINE
  8
0
  6
LTYPE3
 62
     1
 10
83.440651474
 20
87.05
 11
81.940651474
 21
87.05
  0
LINE
  8
0
  6
LTYPE3
 62
     1
 10
78.440651474
 20
87.05
 11
78.440651474
 21
85.05
  0
LINE
  8
0
  6
LTYPE3
 62
     1
 10
79.040651474
 20
87.05
 11
78.440651474
 21
87.05
  0
LINE
  8
0
  6
LTYPE3
 62
     1
 10
78.440651474
 20
90.55
 11
78.440651474
 21
88.55
  0
LINE
  8
0
  6
LTYPE3
 62
     1
 10
78.440651474
 20
88.55
 11
80.540651474
 21
88.55
  0
LINE
  8
0
  6
LTYPE3
 62
     1
 10
78.440651474
 20
85.05
 11
80.540651474
 21
85.05
  0
LINE
  8
0
  6
LTYPE3
 62
     1
 10
81.940651474
 20
85.05
 11
83.440651474
 21
85.05
  0
LINE
  8
0
  6
LTYPE3
 62
     1
 10
80.540651474
 20
85.05
 11
81.940651474
 21
85.05
  0
LINE
  8
0
  6
LTYPE3
 62
     1
 10
80.540651474
 20
90.55
 11
81.940651474
 21
90.55
  0
POLYLINE
  8
0
  6
LTYPE3
 62
     1
 66
     1
  0
VERTEX
  8
0
  6
LTYPE3
 62
     1
 10
81.940651474
 20
90.55
  0
VERTEX
  8
0
  6
LTYPE3
 62
     1
 10
82.140651474
 20
90.55
  0
VERTEX
  8
0
  6
LTYPE3
 62
     1
 10
83.440651474
 20
90.55
  0
SEQEND
  0
LINE
  8
0
  6
LTYPE3
 62
     1
 10
78.440651474
 20
90.55
 11
80.540651474
 21
90.55
  0
LINE
  8
0
  6
LTYPE3
 62
     1
 10
80.640651474
 20
88.55
 11
81.000651474
 21
88.55
  0
POLYLINE
  8
0
  6
LTYPE3
 62
     1
 66
     1
  0
VERTEX
  8
0
  6
LTYPE3
 62
     1
 10
81.000651474
 20
88.55
  0
VERTEX
  8
0
  6
LTYPE3
 62
     1
 10
81.100651474
 20
88.55
  0
VERTEX
  8
0
  6
LTYPE3
 62
     1
 10
81.280651474
 20
88.55
  0
SEQEND
  0
POLYLINE
  8
0
  6
LTYPE3
 62
     1
 66
     1
  0
VERTEX
  8
0
  6
LTYPE3
 62
     1
 10
81.280651474
 20
88.55
  0
VERTEX
  8
0
  6
LTYPE3
 62
     1
 10
81.530651474
 20
88.55
  0
VERTEX
  8
0
  6
LTYPE3
 62
     1
 10
81.740651474
 20
88.55
  0
VERTEX
  8
0
  6
LTYPE3
 62
     1
 10
81.940651474
 20
88.55
  0
SEQEND
  0
LINE
  8
0
  6
LTYPE3
 62
     1
 10
80.540651474
 20
87.05
 11
79.040651474
 21
87.05
  0
LINE
  8
0
  6
LTYPE3
 62
     1
 10
81.940651474
 20
87.05
 11
80.540651474
 21
87.05
  0
LINE
  8
0
  6
CONTINUOUS
 62
     3
 10
91.440651474
 20
68.05
 11
83.440651474
 21
68.05
  0
LINE
  8
0
  6
CONTINUOUS
 62
     3
 10
83.440651474
 20
66.05
 11
91.440651474
 21
66.05
  0
LINE
  8
0
  6
CONTINUOUS
 62
     3
 10
93.940651474
 20
66.05
 11
95.940651474
 21
66.05
  0
LINE
  8
0
  6
CONTINUOUS
 62
     3
 10
93.940651474
 20
68.05
 11
95.940651474
 21
68.05
  0
LINE
  8
0
  6
CONTINUOUS
 62
     3
 10
95.940651474
 20
68.05
 11
95.940651474
 21
66.05
  0
LINE
  8
0
  6
CONTINUOUS
 62
     3
 10
95.940651474
 20
64.55
 11
95.940651474
 21
62.55
  0
LINE
  8
0
  6
LTYPE3
 62
     1
 10
91.440651474
 20
68.05
 11
93.940651474
 21
68.05
  0
LINE
  8
0
  6
LTYPE3
 62
     1
 10
91.440651474
 20
66.05
 11
93.940651474
 21
66.05
  0
LINE
  8
0
  6
CONTINUOUS
 62
     3
 10
93.940651474
 20
64.55
 11
95.940651474
 21
64.55
  0
LINE
  8
0
  6
CONTINUOUS
 62
     3
 10
93.940651474
 20
62.55
 11
95.940651474
 21
62.55
  0
LINE
  8
0
  6
CONTINUOUS
 62
     3
 10
83.440651474
 20
62.55
 11
91.440651474
 21
62.55
  0
LINE
  8
0
  6
CONTINUOUS
 62
     3
 10
83.440651474
 20
64.55
 11
91.440651474
 21
64.55
  0
LINE
  8
0
  6
LTYPE3
 62
     1
 10
91.440651474
 20
64.55
 11
93.940651474
 21
64.55
  0
LINE
  8
0
  6
LTYPE3
 62
     1
 10
91.440651474
 20
62.55
 11
93.940651474
 21
62.55
  0
LINE
  8
0
  6
LTYPE3
 62
     1
 10
81.940651474
 20
64.55
 11
83.440651474
 21
64.55
  0
LINE
  8
0
  6
LTYPE3
 62
     1
 10
83.440651474
 20
66.05
 11
81.940651474
 21
66.05
  0
LINE
  8
0
  6
LTYPE3
 62
     1
 10
78.440651474
 20
66.05
 11
78.440651474
 21
68.05
  0
LINE
  8
0
  6
LTYPE3
 62
     1
 10
79.040651474
 20
66.05
 11
78.440651474
 21
66.05
  0
LINE
  8
0
  6
LTYPE3
 62
     1
 10
78.440651474
 20
62.55
 11
78.440651474
 21
64.55
  0
LINE
  8
0
  6
LTYPE3
 62
     1
 10
78.440651474
 20
64.55
 11
80.540651474
 21
64.55
  0
LINE
  8
0
  6
LTYPE3
 62
     1
 10
78.440651474
 20
68.05
 11
80.540651474
 21
68.05
  0
LINE
  8
0
  6
LTYPE3
 62
     1
 10
81.940651474
 20
68.05
 11
83.440651474
 21
68.05
  0
LINE
  8
0
  6
LTYPE3
 62
     1
 10
80.540651474
 20
68.05
 11
81.940651474
 21
68.05
  0
LINE
  8
0
  6
LTYPE3
 62
     1
 10
80.540651474
 20
62.55
 11
81.940651474
 21
62.55
  0
POLYLINE
  8
0
  6
LTYPE3
 62
     1
 66
     1
  0
VERTEX
  8
0
  6
LTYPE3
 62
     1
 10
81.940651474
 20
62.55
  0
VERTEX
  8
0
  6
LTYPE3
 62
     1
 10
82.140651474
 20
62.55
  0
VERTEX
  8
0
  6
LTYPE3
 62
     1
 10
83.440651474
 20
62.55
  0
SEQEND
  0
LINE
  8
0
  6
LTYPE3
 62
     1
 10
78.440651474
 20
62.55
 11
80.540651474
 21
62.55
  0
POLYLINE
  8
0
  6
LTYPE3
 62
     1
 66
     1
  0
VERTEX
  8
0
  6
LTYPE3
 62
     1
 10
81.000651474
 20
64.55
  0
VERTEX
  8
0
  6
LTYPE3
 62
     1
 10
81.100651474
 20
64.55
  0
VERTEX
  8
0
  6
LTYPE3
 62
     1
 10
81.280651474
 20
64.55
  0
SEQEND
  0
POLYLINE
  8
0
  6
LTYPE3
 62
     1
 66
     1
  0
VERTEX
  8
0
  6
LTYPE3
 62
     1
 10
81.280651474
 20
64.55
  0
VERTEX
  8
0
  6
LTYPE3
 62
     1
 10
81.530651474
 20
64.55
  0
VERTEX
  8
0
  6
LTYPE3
 62
     1
 10
81.740651474
 20
64.55
  0
VERTEX
  8
0
  6
LTYPE3
 62
     1
 10
81.940651474
 20
64.55
  0
SEQEND
  0
LINE
  8
0
  6
LTYPE3
 62
     1
 10
80.540651474
 20
66.05
 11
79.040651474
 21
66.05
  0
LINE
  8
0
  6
LTYPE3
 62
     1
 10
81.940651474
 20
66.05
 11
80.540651474
 21
66.05
  0
LINE
  8
0
  6
CONTINUOUS
 62
     4
 10
46.669348526
 20
90.26
 11
46.182764073
 21
92.712189954
  0
LINE
  8
0
  6
CONTINUOUS
 62
     4
 10
46.669348526
 20
90.26
 11
45.021859052
 21
92.140366569
  0
LINE
  8
0
  6
CONTINUOUS
 62
     4
 10
46.669348526
 20
90.26
 11
41.699348526
 21
100.35
  0
LINE
  8
0
  6
CONTINUOUS
 62
     4
 10
41.699348526
 20
100.35
 11
28.199348526
 21
100.35
  0
TEXT
  8
0
  6
CONTINUOUS
 62
     4
 10
28.199348526
 20
100.85
 30
0.3
 40
2.5
  1
ＢＣＤ用コネクタ
 50
0.0
 41
0.76
 51
0.0
  7
KANJI1
  0
LINE
  8
0
  6
CONTINUOUS
 62
     4
 10
36.200651474
 20
104.61
 11
36.200651474
 21
124.206582001
  0
LINE
  8
0
  6
CONTINUOUS
 62
     4
 10
36.200651474
 20
90.31
 11
36.200651474
 21
98.5
  0
LINE
  8
0
  6
CONTINUOUS
 62
     4
 10
89.480651474
 20
89.69
 11
89.482047152
 21
92.18999961
  0
LINE
  8
0
  6
CONTINUOUS
 62
     4
 10
89.480651474
 20
89.69
 11
88.231860362
 21
91.855761011
  0
LINE
  8
0
  6
CONTINUOUS
 62
     4
 10
89.480651474
 20
89.69
 11
84.010651474
 21
110.15
  0
LINE
  8
0
  6
CONTINUOUS
 62
     4
 10
84.010651474
 20
110.15
 11
79.910651474
 21
110.15
  0
TEXT
  8
0
  6
CONTINUOUS
 62
     4
 10
79.910651474
 20
110.65
 30
0.3
 40
2.5
  1
風孔
 50
0.0
 41
0.76
 51
0.0
  7
KANJI1
  0
LINE
  8
0
  6
CONTINUOUS
 62
     2
 10
45.200394605
 20
82.95
 11
45.200394605
 21
91.75
  0
ARC
  8
0
  6
CONTINUOUS
 62
     2
 10
87.440394605
 20
92.95
 40
6.5
 50
0.0
 51
180.0
  0
ARC
  8
0
  6
CONTINUOUS
 62
     2
 10
101.940394605
 20
99.55
 40
0.5
 50
0.0
 51
90.0
  0
LINE
  8
0
  6
CONTINUOUS
 62
     2
 10
102.440394605
 20
99.55
 11
102.440394605
 21
98.257106781
  0
LINE
  8
0
  6
CONTINUOUS
 62
     2
 10
79.040394605
 20
99.15
 11
79.040394605
 21
91.75
  0
ARC
  8
0
  6
CONTINUOUS
 62
     2
 10
78.040394605
 20
99.15
 40
1.0
 50
0.0
 51
90.0
  0
LINE
  8
0
  6
CONTINUOUS
 62
     2
 10
54.440394605
 20
100.15
 11
78.040394605
 21
100.15
  0
ARC
  8
0
  6
CONTINUOUS
 62
     2
 10
99.296278026
 20
99.05
 40
1.0
 50
90.0
 51
171.119340849
  0
LINE
  8
0
  6
CONTINUOUS
 62
     2
 10
101.940394605
 20
100.05
 11
99.296278026
 21
100.05
  0
LINE
  8
0
  6
CONTINUOUS
 62
     2
 10
101.940394605
 20
100.05
 11
99.296278026
 21
100.05
  0
LINE
  8
0
  6
CONTINUOUS
 62
     2
 10
96.072523218
 20
84.89562312
 11
98.308265993
 21
99.20437688
  0
LINE
  8
0
  6
CONTINUOUS
 62
     2
 10
88.440394605
 20
84.05
 11
88.440394605
 21
76.05
  0
ARC
  8
0
  6
CONTINUOUS
 62
     2
 10
87.440394605
 20
60.15
 40
4.0
 50
180.0
 51
270.0
  0
LINE
  8
0
  6
CONTINUOUS
 62
     2
 10
87.440394605
 20
56.15
 11
87.440394605
 21
56.15
  0
ARC
  8
0
  6
CONTINUOUS
 62
     2
 10
87.440394605
 20
60.15
 40
4.0
 50
270.0
 51
0.0
  0
ARC
  8
0
  6
CONTINUOUS
 62
     2
 10
87.440394605
 20
60.15
 40
6.5
 50
180.0
 51
0.0
  0
LINE
  8
0
  6
CONTINUOUS
 62
     2
 10
88.440394605
 20
69.05
 11
88.440394605
 21
76.05
  0
LINE
  8
0
  6
CONTINUOUS
 62
     2
 10
83.440394605
 20
62.05
 11
83.440394605
 21
60.15
  0
ARC
  8
0
  6
CONTINUOUS
 62
     2
 10
101.940394605
 20
53.55
 40
0.5
 50
270.0
 51
0.0
  0
LINE
  8
0
  6
CONTINUOUS
 62
     2
 10
102.440394605
 20
53.55
 11
102.440394605
 21
54.842893219
  0
LINE
  8
0
  6
CONTINUOUS
 62
     2
 10
102.293947996
 20
55.196446609
 11
101.440394605
 21
56.05
  0
ARC
  8
0
  6
CONTINUOUS
 62
     2
 10
101.940394605
 20
54.842893219
 40
0.5
 50
0.0
 51
45.0
  0
LINE
  8
0
  6
CONTINUOUS
 62
     2
 10
88.440394605
 20
69.05
 11
90.440394605
 21
69.05
  0
LINE
  8
0
  6
CONTINUOUS
 62
     2
 10
91.440394605
 20
68.05
 11
91.440394605
 21
60.15
  0
ARC
  8
0
  6
CONTINUOUS
 62
     2
 10
90.440394605
 20
68.05
 40
1.0
 50
0.0
 51
90.0
  0
LINE
  8
0
  6
CONTINUOUS
 62
     2
 10
93.940394605
 20
68.05
 11
93.940394605
 21
60.15
  0
ARC
  8
0
  6
CONTINUOUS
 62
     2
 10
94.940394605
 20
68.05
 40
1.0
 50
90.0
 51
180.0
  0
LINE
  8
0
  6
CONTINUOUS
 62
     2
 10
95.084511184
 20
69.05
 11
94.940394605
 21
69.05
  0
ARC
  8
0
  6
CONTINUOUS
 62
     2
 10
95.084511184
 20
68.05
 40
1.0
 50
8.880659151
 51
90.0
  0
LINE
  8
0
  6
CONTINUOUS
 62
     2
 10
80.940394605
 20
60.15
 11
80.940394605
 21
61.05
  0
ARC
  8
0
  6
CONTINUOUS
 62
     2
 10
79.940394605
 20
61.05
 40
1.0
 50
0.0
 51
90.0
  0
LINE
  8
0
  6
CONTINUOUS
 62
     2
 10
79.940394605
 20
62.05
 11
79.740394605
 21
62.05
  0
ARC
  8
0
  6
CONTINUOUS
 62
     2
 10
79.740394605
 20
61.35
 40
0.7
 50
90.0
 51
180.0
  0
LINE
  8
0
  6
CONTINUOUS
 62
     2
 10
79.040394605
 20
53.95
 11
79.040394605
 21
61.35
  0
ARC
  8
0
  6
CONTINUOUS
 62
     2
 10
78.040394605
 20
53.95
 40
1.0
 50
270.0
 51
0.0
  0
POINT
  8
0
  6
CONTINUOUS
 62
     2
 10
99.409144605
 20
73.55
  0
LINE
  8
0
  6
CONTINUOUS
 62
     2
 10
56.040394605
 20
56.15
 11
56.040394605
 21
54.15
  0
LINE
  8
0
  6
CONTINUOUS
 62
     2
 10
53.440394605
 20
53.95
 11
53.440394605
 21
76.55
  0
ARC
  8
0
  6
CONTINUOUS
 62
     2
 10
54.440394605
 20
53.95
 40
1.0
 50
180.0
 51
270.0
  0
LINE
  8
0
  6
CONTINUOUS
 62
     2
 10
60.440394605
 20
76.55
 11
60.440394605
 21
85.05
  0
LINE
  8
0
  6
CONTINUOUS
 62
     2
 10
62.440394605
 20
76.55
 11
62.440394605
 21
84.05
  0
LINE
  8
0
  6
CONTINUOUS
 62
     2
 10
62.440394605
 20
76.55
 11
62.440394605
 21
69.05
  0
LINE
  8
0
  6
CONTINUOUS
 62
     2
 10
60.440394605
 20
76.55
 11
60.440394605
 21
68.05
  0
ARC
  8
0
  6
CONTINUOUS
 62
     2
 10
61.440394605
 20
68.05
 40
1.0
 50
180.0
 51
270.0
  0
LINE
  8
0
  6
CONTINUOUS
 62
     2
 10
75.440394605
 20
67.05
 11
75.440394605
 21
69.05
  0
LINE
  8
0
  6
CONTINUOUS
 62
     2
 10
62.440394605
 20
69.05
 11
75.440394605
 21
69.05
  0
LINE
  8
0
  6
CONTINUOUS
 62
     2
 10
71.040394605
 20
56.15
 11
71.040394605
 21
54.15
  0
LINE
  8
0
  6
CONTINUOUS
 62
     2
 10
62.040394605
 20
54.15
 11
62.040394605
 21
56.15
  0
LINE
  8
0
  6
CONTINUOUS
 62
     2
 10
77.040394605
 20
56.15
 11
71.040394605
 21
56.15
  0
LINE
  8
0
  6
CONTINUOUS
 62
     2
 10
62.040394605
 20
56.15
 11
56.040394605
 21
56.15
  0
LINE
  8
0
  6
CONTINUOUS
 62
     2
 10
54.440394605
 20
52.95
 11
78.040394605
 21
52.95
  0
LINE
  8
0
  6
CONTINUOUS
 62
     2
 10
86.440394605
 20
84.05
 11
86.440394605
 21
76.05
  0
LINE
  8
0
  6
CONTINUOUS
 62
     2
 10
86.440394605
 20
69.05
 11
86.440394605
 21
76.05
  0
LINE
  8
0
  6
CONTINUOUS
 62
     2
 10
86.440394605
 20
69.05
 11
84.440394605
 21
69.05
  0
ARC
  8
0
  6
CONTINUOUS
 62
     2
 10
84.440394605
 20
68.05
 40
1.0
 50
90.0
 51
180.0
  0
LINE
  8
0
  6
CONTINUOUS
 62
     2
 10
83.440394605
 20
62.05
 11
83.440394605
 21
68.05
  0
LINE
  8
0
  6
CONTINUOUS
 62
     2
 10
61.440394605
 20
67.05
 11
75.440394605
 21
67.05
  0
LINE
  8
0
  6
CONTINUOUS
 62
     2
 10
99.409144605
 20
69.05
 11
101.440394605
 21
56.05
  0
LINE
  8
0
  6
CONTINUOUS
 62
     2
 10
96.072523218
 20
68.20437688
 11
98.308265993
 21
53.89562312
  0
LINE
  8
0
  6
CONTINUOUS
 62
     2
 10
101.940394605
 20
53.05
 11
99.296278026
 21
53.05
  0
ARC
  8
0
  6
CONTINUOUS
 62
     2
 10
99.296278026
 20
54.05
 40
1.0
 50
188.880659151
 51
270.0
  0
LINE
  8
0
  6
CONTINUOUS
 62
     2
 10
100.409144605
 20
78.55
 11
100.409144605
 21
75.55
  0
LINE
  8
0
  6
CONTINUOUS
 62
     2
 10
100.409144605
 20
74.55
 11
100.409144605
 21
77.55
  0
LINE
  8
0
  6
CONTINUOUS
 62
     2
 10
99.409144605
 20
79.55
 11
99.409144605
 21
84.05
  0
ARC
  8
0
  6
CONTINUOUS
 62
     2
 10
99.409144605
 20
78.55
 40
1.0
 50
0.0
 51
90.0
  0
ARC
  8
0
  6
CONTINUOUS
 62
     2
 10
99.409144605
 20
74.55
 40
1.0
 50
270.0
 51
0.0
  0
LINE
  8
0
  6
CONTINUOUS
 62
     2
 10
99.409144605
 20
69.05
 11
99.409144605
 21
73.55
  0
ARC
  8
0
  6
CONTINUOUS
 62
     2
 10
87.440394605
 20
92.95
 40
4.0
 50
90.0
 51
180.0
  0
ARC
  8
0
  6
CONTINUOUS
 62
     2
 10
87.440394605
 20
92.95
 40
4.0
 50
0.0
 51
90.0
  0
LINE
  8
0
  6
CONTINUOUS
 62
     2
 10
91.440394605
 20
92.95
 11
91.440394605
 21
91.05
  0
LINE
  8
0
  6
CONTINUOUS
 62
     2
 10
83.440394605
 20
92.95
 11
83.440394605
 21
91.05
  0
ARC
  8
0
  6
CONTINUOUS
 62
     2
 10
79.740394605
 20
91.75
 40
0.7
 50
180.0
 51
270.0
  0
LINE
  8
0
  6
CONTINUOUS
 62
     2
 10
79.940394605
 20
91.05
 11
79.740394605
 21
91.05
  0
LINE
  8
0
  6
CONTINUOUS
 62
     2
 10
80.940394605
 20
92.95
 11
80.940394605
 21
92.05
  0
ARC
  8
0
  6
CONTINUOUS
 62
     2
 10
79.940394605
 20
92.05
 40
1.0
 50
270.0
 51
0.0
  0
LINE
  8
0
  6
CONTINUOUS
 62
     2
 10
102.293947996
 20
97.903553391
 11
101.440394605
 21
97.05
  0
ARC
  8
0
  6
CONTINUOUS
 62
     2
 10
101.940394605
 20
98.257106781
 40
0.5
 50
315.0
 51
0.0
  0
LINE
  8
0
  6
CONTINUOUS
 62
     2
 10
75.440394605
 20
86.05
 11
75.440394605
 21
84.05
  0
ARC
  8
0
  6
CONTINUOUS
 62
     2
 10
94.940394605
 20
85.05
 40
1.0
 50
180.0
 51
270.0
  0
LINE
  8
0
  6
CONTINUOUS
 62
     2
 10
95.084511184
 20
84.05
 11
94.940394605
 21
84.05
  0
ARC
  8
0
  6
CONTINUOUS
 62
     2
 10
95.084511184
 20
85.05
 40
1.0
 50
270.0
 51
351.119340849
  0
LINE
  8
0
  6
CONTINUOUS
 62
     2
 10
93.940394605
 20
85.05
 11
93.940394605
 21
92.95
  0
LINE
  8
0
  6
CONTINUOUS
 62
     2
 10
99.409144605
 20
84.05
 11
101.440394605
 21
97.05
  0
ARC
  8
0
  6
CONTINUOUS
 62
     2
 10
61.440394605
 20
85.05
 40
1.0
 50
90.0
 51
180.0
  0
LINE
  8
0
  6
CONTINUOUS
 62
     2
 10
62.440394605
 20
84.05
 11
75.440394605
 21
84.05
  0
LINE
  8
0
  6
CONTINUOUS
 62
     2
 10
88.440394605
 20
84.05
 11
90.440394605
 21
84.05
  0
LINE
  8
0
  6
CONTINUOUS
 62
     2
 10
91.440394605
 20
85.05
 11
91.440394605
 21
92.95
  0
ARC
  8
0
  6
CONTINUOUS
 62
     2
 10
90.440394605
 20
85.05
 40
1.0
 50
270.0
 51
0.0
  0
LINE
  8
0
  6
CONTINUOUS
 62
     2
 10
86.440394605
 20
84.05
 11
84.440394605
 21
84.05
  0
ARC
  8
0
  6
CONTINUOUS
 62
     2
 10
84.440394605
 20
85.05
 40
1.0
 50
180.0
 51
270.0
  0
LINE
  8
0
  6
CONTINUOUS
 62
     2
 10
83.440394605
 20
85.05
 11
83.440394605
 21
91.05
  0
LINE
  8
0
  6
CONTINUOUS
 62
     2
 10
77.040394605
 20
96.95
 11
71.040394605
 21
96.95
  0
LINE
  8
0
  6
CONTINUOUS
 62
     2
 10
62.040394605
 20
96.95
 11
56.040394605
 21
96.95
  0
LINE
  8
0
  6
CONTINUOUS
 62
     2
 10
56.040394605
 20
96.95
 11
56.040394605
 21
98.95
  0
LINE
  8
0
  6
CONTINUOUS
 62
     2
 10
62.040394605
 20
98.95
 11
62.040394605
 21
96.95
  0
LINE
  8
0
  6
CONTINUOUS
 62
     2
 10
71.040394605
 20
96.95
 11
71.040394605
 21
98.95
  0
LINE
  8
0
  6
CONTINUOUS
 62
     2
 10
77.040394605
 20
98.95
 11
77.040394605
 21
96.95
  0
LINE
  8
0
  6
CONTINUOUS
 62
     2
 10
61.440394605
 20
86.05
 11
75.440394605
 21
86.05
  0
LINE
  8
0
  6
CONTINUOUS
 62
     2
 10
53.440394605
 20
99.15
 11
53.440394605
 21
76.55
  0
ARC
  8
0
  6
CONTINUOUS
 62
     2
 10
54.440394605
 20
99.15
 40
1.0
 50
90.0
 51
180.0
  0
LINE
  8
0
  6
CONTINUOUS
 62
     2
 10
45.200394605
 20
91.75
 11
49.440651474
 21
91.75
  0
LINE
  8
0
  6
CONTINUOUS
 62
     2
 10
49.440651474
 20
82.95
 11
45.200394605
 21
82.95
  0
LINE
  8
0
  6
CONTINUOUS
 62
     2
 10
71.040394605
 20
54.15
 11
77.040394605
 21
54.15
  0
LINE
  8
0
  6
CONTINUOUS
 62
     2
 10
62.040394605
 20
54.15
 11
56.040394605
 21
54.15
  0
LINE
  8
0
  6
CONTINUOUS
 62
     2
 10
56.040394605
 20
98.95
 11
62.040394605
 21
98.95
  0
LINE
  8
0
  6
CONTINUOUS
 62
     2
 10
71.040394605
 20
98.95
 11
77.040394605
 21
98.95
  0
ARC
  8
0
  6
CONTINUOUS
 62
     3
 10
137.4
 20
53.55
 40
1.0
 50
180.0
 51
270.0
  0
LINE
  8
0
  6
CONTINUOUS
 62
     3
 10
137.4
 20
52.55
 11
231.4
 21
52.55
  0
ARC
  8
0
  6
CONTINUOUS
 62
     3
 10
231.4
 20
53.55
 40
1.0
 50
270.0
 51
0.0
  0
ARC
  8
0
  6
CONTINUOUS
 62
     3
 10
231.4
 20
99.55
 40
1.0
 50
0.0
 51
90.0
  0
LINE
  8
0
  6
CONTINUOUS
 62
     3
 10
231.4
 20
100.55
 11
137.4
 21
100.55
  0
ARC
  8
0
  6
CONTINUOUS
 62
     3
 10
137.4
 20
99.55
 40
1.0
 50
90.0
 51
180.0
  0
LINE
  8
0
  6
CONTINUOUS
 62
     3
 10
136.4
 20
99.55
 11
136.4
 21
53.55
  0
LINE
  8
0
  6
CONTINUOUS
 62
     3
 10
136.4
 20
54.05
 11
232.4
 21
54.05
  0
LINE
  8
0
  6
CONTINUOUS
 62
     3
 10
136.4
 20
99.05
 11
232.4
 21
99.05
  0
LINE
  8
0
  6
CONTINUOUS
 62
     3
 10
232.4
 20
53.55
 11
232.4
 21
85.64
  0
LINE
  8
0
  6
CONTINUOUS
 62
     3
 10
232.4
 20
85.64
 11
232.4
 21
99.55
  0
LINE
  8
0
  6
CONTINUOUS
 62
     3
 10
136.4
 20
66.05
 11
232.4
 21
66.05
  0
LINE
  8
0
  6
CONTINUOUS
 62
     3
 10
136.4
 20
54.25
 11
232.4
 21
54.25
  0
LINE
  8
0
  6
LTYPE1
 62
     1
 10
159.9
 20
253.549782609
 11
159.9
 21
258.609782609
  0
LINE
  8
0
  6
LTYPE1
 62
     1
 10
152.9
 20
253.549782609
 11
152.9
 21
258.399782609
  0
LINE
  8
0
  6
CONTINUOUS
 62
     1
 10
148.85
 20
261.499782609
 11
164.05
 21
261.499782609
  0
LINE
  8
0
  6
CONTINUOUS
 62
     1
 10
148.85
 20
249.899782609
 11
164.05
 21
249.899782609
  0
LINE
  8
0
  6
CONTINUOUS
 62
     1
 10
164.05
 20
261.499782609
 11
164.05
 21
249.899782609
  0
LINE
  8
0
  6
CONTINUOUS
 62
     1
 10
148.75
 20
249.899782609
 11
148.75
 21
261.499782609
  0
LINE
  8
0
  6
LTYPE1
 62
     1
 10
184.4
 20
230.849782609
 11
184.4
 21
225.999782609
  0
LINE
  8
0
  6
LTYPE1
 62
     1
 10
133.340409871
 20
242.199782609
 11
239.240409871
 21
242.199782609
  0
LINE
  8
0
  6
LTYPE1
 62
     1
 10
133.340409871
 20
242.199782609
 11
239.240409871
 21
242.199782609
  0
ARC
  8
0
  6
CONTINUOUS
 62
     3
 10
231.4
 20
219.199782609
 40
1.0
 50
270.0
 51
0.0
  0
ARC
  8
0
  6
CONTINUOUS
 62
     3
 10
231.4
 20
265.199782609
 40
1.0
 50
0.0
 51
90.0
  0
LINE
  8
0
  6
CONTINUOUS
 62
     3
 10
232.4
 20
219.199782609
 11
232.4
 21
265.199782609
  0
ARC
  8
0
  6
CONTINUOUS
 62
     3
 10
137.4
 20
265.199782609
 40
1.0
 50
90.0
 51
180.0
  0
LINE
  8
0
  6
CONTINUOUS
 62
     3
 10
231.4
 20
266.199782609
 11
137.4
 21
266.199782609
  0
ARC
  8
0
  6
CONTINUOUS
 62
     3
 10
137.4
 20
219.199782609
 40
1.0
 50
180.0
 51
270.0
  0
LINE
  8
0
  6
CONTINUOUS
 62
     3
 10
137.4
 20
218.199782609
 11
231.4
 21
218.199782609
  0
LINE
  8
0
  6
CONTINUOUS
 62
     3
 10
136.4
 20
265.199782609
 11
136.4
 21
219.199782609
  0
LINE
  8
0
  6
CONTINUOUS
 62
     3
 10
232.4
 20
136.15
 11
232.4
 21
137.65
  0
LINE
  8
0
  6
CONTINUOUS
 62
     3
 10
136.4
 20
136.15
 11
232.4
 21
136.15
  0
LINE
  8
0
  6
CONTINUOUS
 62
     3
 10
136.4
 20
137.65
 11
136.4
 21
136.15
  0
LINE
  8
0
  6
CONTINUOUS
 62
     3
 10
136.4
 20
137.65
 11
138.55
 21
137.65
  0
LINE
  8
0
  6
CONTINUOUS
 62
     3
 10
230.25
 20
137.65
 11
232.4
 21
137.65
  0
LINE
  8
0
  6
CONTINUOUS
 62
     3
 10
137.101690206
 20
129.85
 11
184.4
 21
129.85
  0
ARC
  8
0
  6
CONTINUOUS
 62
     3
 10
137.101690206
 20
130.35
 40
0.5
 50
181.988637856
 51
270.0
  0
LINE
  8
0
  6
CONTINUOUS
 62
     3
 10
136.633241342
 20
129.432649345
 11
136.4
 21
136.15
  0
ARC
  8
0
  6
CONTINUOUS
 62
     3
 10
137.132940206
 20
129.45
 40
0.5
 50
181.988637856
 51
270.0
  0
LINE
  8
0
  6
CONTINUOUS
 62
     3
 10
136.549305556
 20
131.85
 11
184.4
 21
131.85
  0
LINE
  8
0
  6
CONTINUOUS
 62
     3
 10
137.132940206
 20
128.95
 11
184.4
 21
128.95
  0
LINE
  8
0
  6
CONTINUOUS
 62
     3
 10
231.698309794
 20
129.85
 11
184.4
 21
129.85
  0
ARC
  8
0
  6
CONTINUOUS
 62
     3
 10
231.698309794
 20
130.35
 40
0.5
 50
270.0
 51
358.011362144
  0
LINE
  8
0
  6
CONTINUOUS
 62
     3
 10
232.166758658
 20
129.432649345
 11
232.4
 21
136.15
  0
ARC
  8
0
  6
CONTINUOUS
 62
     3
 10
231.667059794
 20
129.45
 40
0.5
 50
270.0
 51
358.011362144
  0
LINE
  8
0
  6
CONTINUOUS
 62
     3
 10
232.250694444
 20
131.85
 11
184.4
 21
131.85
  0
LINE
  8
0
  6
CONTINUOUS
 62
     3
 10
231.667059794
 20
128.95
 11
184.4
 21
128.95
  0
LINE
  8
0
  6
CONTINUOUS
 62
     3
 10
138.55
 20
137.65
 11
230.25
 21
137.65
  0
LINE
  8
0
  6
CONTINUOUS
 62
     3
 10
138.9
 20
190.65
 11
140.4
 21
190.65
  0
LINE
  8
0
  6
CONTINUOUS
 62
     3
 10
140.4
 20
190.65
 11
140.4
 21
182.85
  0
LINE
  8
0
  6
CONTINUOUS
 62
     3
 10
232.4
 20
137.65
 11
230.25
 21
137.65
  0
LINE
  8
0
  6
CONTINUOUS
 62
     3
 10
230.25
 20
137.65
 11
235.45
 21
137.65
  0
LINE
  8
0
  6
LTYPE1
 62
     1
 10
201.9
 20
184.7
 11
201.9
 21
191.65
  0
LINE
  8
0
  6
LTYPE1
 62
     1
 10
208.9
 20
184.7
 11
208.9
 21
191.65
  0
LINE
  8
0
  6
LTYPE1
 62
     1
 10
215.9
 20
184.7
 11
215.9
 21
191.65
  0
LINE
  8
0
  6
CONTINUOUS
 62
     3
 10
148.75
 20
186.45
 11
140.4
 21
186.45
  0
LINE
  8
0
  6
CONTINUOUS
 62
     3
 10
139.4
 20
190.65
 11
139.4
 21
186.65
  0
LINE
  8
0
  6
CONTINUOUS
 62
     3
 10
139.6
 20
190.65
 11
139.6
 21
186.618245837
  0
LINE
  8
0
  6
CONTINUOUS
 62
     3
 10
138.9
 20
186.65
 11
138.9
 21
190.65
  0
LINE
  8
0
  6
CONTINUOUS
 62
     3
 10
136.35
 20
161.05
 11
138.15
 21
161.05
  0
LINE
  8
0
  6
CONTINUOUS
 62
     3
 10
133.35
 20
185.65
 11
133.35
 21
170.9
  0
ARC
  8
0
  6
CONTINUOUS
 62
     3
 10
134.35
 20
185.65
 40
1.0
 50
90.0
 51
180.0
  0
LINE
  8
0
  6
CONTINUOUS
 62
     3
 10
133.35
 20
170.9
 11
133.35
 21
137.65
  0
LINE
  8
0
  6
CONTINUOUS
 62
     3
 10
140.35
 20
186.65
 11
140.35
 21
185.3
  0
LINE
  8
0
  6
CONTINUOUS
 62
     3
 10
140.35
 20
186.65
 11
138.925
 21
186.65
  0
LINE
  8
0
  6
CONTINUOUS
 62
     3
 10
140.35
 20
186.65
 11
134.35
 21
186.65
  0
LINE
  8
0
  6
CONTINUOUS
 62
     3
 10
140.35
 20
161.05
 11
138.75
 21
161.05
  0
LINE
  8
0
  6
CONTINUOUS
 62
     3
 10
133.35
 20
161.05
 11
136.75
 21
161.05
  0
LINE
  8
0
  6
CONTINUOUS
 62
     3
 10
133.35
 20
161.05
 11
138.75
 21
161.05
  0
LINE
  8
0
  6
CONTINUOUS
 62
     3
 10
138.55
 20
161.05
 11
138.55
 21
137.65
  0
LINE
  8
0
  6
CONTINUOUS
 62
     3
 10
138.55
 20
159.15
 11
133.35
 21
159.15
  0
LINE
  8
0
  6
CONTINUOUS
 62
     3
 10
138.55
 20
146.15
 11
133.35
 21
146.15
  0
LINE
  8
0
  6
CONTINUOUS
 62
     3
 10
138.55
 20
144.017871388
 11
133.35
 21
144.017871388
  0
LINE
  8
0
  6
CONTINUOUS
 62
     3
 10
133.35
 20
141.782128613
 11
138.55
 21
141.782128613
  0
LINE
  8
0
  6
CONTINUOUS
 62
     3
 10
138.55
 20
137.65
 11
133.35
 21
137.65
  0
LINE
  8
0
  6
CONTINUOUS
 62
     3
 10
133.35
 20
162.55
 11
136.55
 21
162.55
  0
LINE
  8
0
  6
CONTINUOUS
 62
     3
 10
136.55
 20
162.55
 11
136.55
 21
186.65
  0
LINE
  8
0
  6
CONTINUOUS
 62
     3
 10
138.9
 20
190.65
 11
140.4
 21
190.65
  0
LINE
  8
0
  6
CONTINUOUS
 62
     3
 10
140.4
 20
190.65
 11
140.4
 21
186.45
  0
LINE
  8
0
  6
CONTINUOUS
 62
     3
 10
140.4
 20
153.65
 11
138.673893805
 21
153.65
  0
LINE
  8
0
  6
CONTINUOUS
 62
     3
 10
140.4
 20
186.45
 11
140.4
 21
153.65
  0
LINE
  8
0
  6
CONTINUOUS
 62
     3
 10
138.9
 20
186.65
 11
138.9
 21
190.65
  0
LINE
  8
0
  6
CONTINUOUS
 62
     3
 10
139.4
 20
190.65
 11
139.4
 21
186.65
  0
LINE
  8
0
  6
CONTINUOUS
 62
     3
 10
139.6
 20
190.65
 11
139.6
 21
186.618245837
  0
LINE
  8
0
  6
CONTINUOUS
 62
     3
 10
139.6
 20
161.05
 11
139.6
 21
153.65
  0
LINE
  8
0
  6
CONTINUOUS
 62
     3
 10
139.4
 20
153.65
 11
139.4
 21
161.05
  0
LINE
  8
0
  6
CONTINUOUS
 62
     3
 10
229.9
 20
190.65
 11
228.4
 21
190.65
  0
LINE
  8
0
  6
CONTINUOUS
 62
     3
 10
228.4
 20
190.65
 11
228.4
 21
182.85
  0
LINE
  8
0
  6
CONTINUOUS
 62
     3
 10
220.05
 20
186.45
 11
228.4
 21
186.45
  0
LINE
  8
0
  6
CONTINUOUS
 62
     3
 10
229.4
 20
190.65
 11
229.4
 21
186.65
  0
LINE
  8
0
  6
CONTINUOUS
 62
     3
 10
229.2
 20
190.65
 11
229.2
 21
186.618245837
  0
LINE
  8
0
  6
CONTINUOUS
 62
     3
 10
229.9
 20
186.65
 11
229.9
 21
190.65
  0
LINE
  8
0
  6
CONTINUOUS
 62
     3
 10
232.45
 20
161.05
 11
230.65
 21
161.05
  0
LINE
  8
0
  6
CONTINUOUS
 62
     3
 10
235.45
 20
185.65
 11
235.45
 21
170.9
  0
ARC
  8
0
  6
CONTINUOUS
 62
     3
 10
234.45
 20
185.65
 40
1.0
 50
0.0
 51
90.0
  0
LINE
  8
0
  6
CONTINUOUS
 62
     3
 10
235.45
 20
170.9
 11
235.45
 21
137.65
  0
LINE
  8
0
  6
CONTINUOUS
 62
     3
 10
228.45
 20
186.65
 11
228.45
 21
185.3
  0
LINE
  8
0
  6
CONTINUOUS
 62
     3
 10
228.45
 20
186.65
 11
229.875
 21
186.65
  0
LINE
  8
0
  6
CONTINUOUS
 62
     3
 10
228.45
 20
186.65
 11
234.45
 21
186.65
  0
LINE
  8
0
  6
CONTINUOUS
 62
     3
 10
228.45
 20
161.05
 11
230.05
 21
161.05
  0
LINE
  8
0
  6
CONTINUOUS
 62
     3
 10
235.45
 20
161.05
 11
232.05
 21
161.05
  0
LINE
  8
0
  6
CONTINUOUS
 62
     3
 10
235.45
 20
161.05
 11
230.05
 21
161.05
  0
LINE
  8
0
  6
CONTINUOUS
 62
     3
 10
230.25
 20
161.05
 11
230.25
 21
137.65
  0
LINE
  8
0
  6
CONTINUOUS
 62
     3
 10
230.25
 20
159.15
 11
235.45
 21
159.15
  0
LINE
  8
0
  6
CONTINUOUS
 62
     3
 10
230.25
 20
146.15
 11
235.45
 21
146.15
  0
LINE
  8
0
  6
CONTINUOUS
 62
     3
 10
230.25
 20
144.017871388
 11
235.45
 21
144.017871388
  0
LINE
  8
0
  6
CONTINUOUS
 62
     3
 10
235.45
 20
141.782128613
 11
230.25
 21
141.782128613
  0
LINE
  8
0
  6
CONTINUOUS
 62
     3
 10
235.45
 20
162.55
 11
232.25
 21
162.55
  0
LINE
  8
0
  6
CONTINUOUS
 62
     3
 10
232.25
 20
162.55
 11
232.25
 21
186.65
  0
LINE
  8
0
  6
CONTINUOUS
 62
     3
 10
229.9
 20
190.65
 11
228.4
 21
190.65
  0
LINE
  8
0
  6
CONTINUOUS
 62
     3
 10
228.4
 20
190.65
 11
228.4
 21
186.45
  0
LINE
  8
0
  6
CONTINUOUS
 62
     3
 10
228.4
 20
153.65
 11
230.126106195
 21
153.65
  0
LINE
  8
0
  6
CONTINUOUS
 62
     3
 10
228.4
 20
186.45
 11
228.4
 21
153.65
  0
LINE
  8
0
  6
CONTINUOUS
 62
     3
 10
229.9
 20
186.65
 11
229.9
 21
190.65
  0
LINE
  8
0
  6
CONTINUOUS
 62
     3
 10
229.4
 20
190.65
 11
229.4
 21
186.65
  0
LINE
  8
0
  6
CONTINUOUS
 62
     3
 10
229.2
 20
190.65
 11
229.2
 21
186.618245837
  0
LINE
  8
0
  6
CONTINUOUS
 62
     3
 10
229.2
 20
161.05
 11
229.2
 21
153.65
  0
LINE
  8
0
  6
CONTINUOUS
 62
     3
 10
229.4
 20
153.65
 11
229.4
 21
161.05
  0
LINE
  8
0
  6
CONTINUOUS
 62
     3
 10
148.75
 20
186.45
 11
220.05
 21
186.45
  0
LINE
  8
0
  6
LTYPE1
 62
     1
 10
159.9
 20
186.45
 11
159.9
 21
191.65
  0
LINE
  8
0
  6
LTYPE1
 62
     1
 10
152.9
 20
186.45
 11
152.9
 21
191.65
  0
LINE
  8
0
  6
LTYPE1
 62
     1
 10
180.9
 20
186.45
 11
180.9
 21
191.65
  0
LINE
  8
0
  6
LTYPE1
 62
     1
 10
187.9
 20
186.45
 11
187.9
 21
191.65
  0
LINE
  8
0
  6
LTYPE1
 62
     1
 10
194.9
 20
186.45
 11
194.9
 21
191.65
  0
LINE
  8
0
  6
CONTINUOUS
 62
     4
 10
236.16
 20
137.65
 11
258.16
 21
137.65
  0
LINE
  8
0
  6
CONTINUOUS
 62
     4
 10
257.16
 20
137.65
 11
257.807047613
 21
140.064814566
  0
LINE
  8
0
  6
CONTINUOUS
 62
     4
 10
257.16
 20
137.65
 11
256.512952387
 21
140.064814566
  0
LINE
  8
0
  6
CONTINUOUS
 62
     4
 10
257.16
 20
137.65
 11
257.16
 21
190.65
  0
LINE
  8
0
  6
CONTINUOUS
 62
     4
 10
257.16
 20
190.65
 11
256.512952387
 21
188.235185434
  0
LINE
  8
0
  6
CONTINUOUS
 62
     4
 10
257.16
 20
190.65
 11
257.807047613
 21
188.235185434
  0
LINE
  8
0
  6
CONTINUOUS
 62
     4
 10
230.61
 20
190.65
 11
258.16
 21
190.65
  0
TEXT
  8
0
  6
CONTINUOUS
 62
     4
 10
256.66
 20
162.35
 30
0.0
 40
2.2
  1
５３
 50
90.0
 41
0.818181818
 51
0.0
  7
KANJI0
  0
LINE
  8
0
  6
CONTINUOUS
 62
     4
 10
258.87
 20
137.65
 11
268.96
 21
137.65
  0
LINE
  8
0
  6
CONTINUOUS
 62
     4
 10
267.96
 20
137.65
 11
268.607047613
 21
140.064814566
  0
LINE
  8
0
  6
CONTINUOUS
 62
     4
 10
267.96
 20
137.65
 11
267.312952387
 21
140.064814566
  0
LINE
  8
0
  6
CONTINUOUS
 62
     4
 10
267.96
 20
137.65
 11
267.96
 21
193.95
  0
LINE
  8
0
  6
CONTINUOUS
 62
     4
 10
267.96
 20
193.95
 11
267.312952387
 21
191.535185434
  0
LINE
  8
0
  6
CONTINUOUS
 62
     4
 10
267.96
 20
193.95
 11
268.607047613
 21
191.535185434
  0
LINE
  8
0
  6
CONTINUOUS
 62
     4
 10
220.61
 20
193.95
 11
268.96
 21
193.95
  0
TEXT
  8
0
  6
CONTINUOUS
 62
     4
 10
267.46
 20
162.2
 30
0.0
 40
2.2
  1
５６．５
 50
90.0
 41
0.818181818
 51
0.0
  7
KANJI0
  0
LINE
  8
0
  6
CONTINUOUS
 62
     4
 10
232.377059794
 20
128.95
 11
268.96
 21
128.95
  0
LINE
  8
0
  6
CONTINUOUS
 62
     4
 10
267.96
 20
128.95
 11
268.607047613
 21
131.364814566
  0
LINE
  8
0
  6
CONTINUOUS
 62
     4
 10
267.96
 20
128.95
 11
267.312952387
 21
131.364814566
  0
LINE
  8
0
  6
CONTINUOUS
 62
     4
 10
267.96
 20
128.95
 11
267.96
 21
137.65
  0
LINE
  8
0
  6
CONTINUOUS
 62
     4
 10
267.96
 20
137.65
 11
267.312952387
 21
135.235185434
  0
LINE
  8
0
  6
CONTINUOUS
 62
     4
 10
267.96
 20
137.65
 11
268.607047613
 21
135.235185434
  0
TEXT
  8
0
  6
CONTINUOUS
 62
     4
 10
267.46
 20
130.6
 30
0.0
 40
2.2
  1
８．９
 50
90.0
 41
0.818181818
 51
0.0
  7
KANJI0
  0
LINE
  8
0
  6
CONTINUOUS
 62
     4
 10
138.9
 20
191.36
 11
138.9
 21
203.98
  0
LINE
  8
0
  6
CONTINUOUS
 62
     4
 10
138.9
 20
202.98
 11
141.314814566
 21
202.332952387
  0
LINE
  8
0
  6
CONTINUOUS
 62
     4
 10
138.9
 20
202.98
 11
141.314814566
 21
203.627047613
  0
LINE
  8
0
  6
CONTINUOUS
 62
     4
 10
138.9
 20
202.98
 11
229.9
 21
202.98
  0
LINE
  8
0
  6
CONTINUOUS
 62
     4
 10
229.9
 20
202.98
 11
227.485185434
 21
203.627047613
  0
LINE
  8
0
  6
CONTINUOUS
 62
     4
 10
229.9
 20
202.98
 11
227.485185434
 21
202.332952387
  0
LINE
  8
0
  6
CONTINUOUS
 62
     4
 10
229.9
 20
191.36
 11
229.9
 21
203.98
  0
TEXT
  8
0
  6
CONTINUOUS
 62
     4
 10
180.8
 20
203.48
 30
0.0
 40
2.2
  1
９１．５
 50
0.0
 41
0.818181818
 51
0.0
  7
KANJI0
  0
LINE
  8
0
  6
LTYPE1
 62
     1
 10
184.4
 20
256.079782609
 11
184.4
 21
206.38
  0
LINE
  8
0
  6
LTYPE1
 62
     1
 10
184.4
 20
256.079782609
 11
184.4
 21
208.65
  0
LINE
  8
0
  6
LTYPE1
 62
     1
 10
184.4
 20
201.41
 11
184.4
 21
133.35
  0
LINE
  8
0
  6
LTYPE1
 62
     1
 10
184.4
 20
262.779782609
 11
184.4
 21
209.22
  0
LINE
  8
0
  6
LTYPE1
 62
     1
 10
184.4
 20
201.41
 11
184.4
 21
133.35
  0
LINE
  8
0
  6
LTYPE1
 62
     1
 10
184.4
 20
262.779782609
 11
184.4
 21
210.22
  0
LINE
  8
0
  6
CONTINUOUS
 62
     1
 10
218.05
 20
249.899782609
 11
218.05
 21
261.499782609
  0
LINE
  8
0
  6
CONTINUOUS
 62
     1
 10
218.05
 20
261.499782609
 11
174.75
 21
261.499782609
  0
LINE
  8
0
  6
CONTINUOUS
 62
     1
 10
174.75
 20
249.899782609
 11
218.05
 21
249.899782609
  0
LINE
  8
0
  6
CONTINUOUS
 62
     1
 10
174.75
 20
261.499782609
 11
174.75
 21
249.899782609
  0
LINE
  8
0
  6
LTYPE1
 62
     1
 10
192.9
 20
253.549782609
 11
192.9
 21
258.539782609
  0
LINE
  8
0
  6
LTYPE1
 62
     1
 10
185.9
 20
253.549782609
 11
185.9
 21
258.609782609
  0
LINE
  8
0
  6
LTYPE1
 62
     1
 10
178.9
 20
253.549782609
 11
178.9
 21
258.399782609
  0
LINE
  8
0
  6
LTYPE1
 62
     1
 10
199.9
 20
253.549782609
 11
199.9
 21
258.539782609
  0
LINE
  8
0
  6
LTYPE1
 62
     1
 10
206.9
 20
253.549782609
 11
206.9
 21
258.609782609
  0
LINE
  8
0
  6
LTYPE1
 62
     1
 10
213.9
 20
253.549782609
 11
213.9
 21
258.399782609
  0
LINE
  8
0
  6
CONTINUOUS
 62
     1
 10
217.9
 20
255.399782609
 11
174.9
 21
255.399782609
  0
LINE
  8
0
  6
CONTINUOUS
 62
     4
 10
232.11
 20
100.55
 11
252.96
 21
100.55
  0
LINE
  8
0
  6
CONTINUOUS
 62
     4
 10
251.96
 20
100.55
 11
251.312952387
 21
98.135185434
  0
LINE
  8
0
  6
CONTINUOUS
 62
     4
 10
251.96
 20
100.55
 11
252.607047613
 21
98.135185434
  0
LINE
  8
0
  6
CONTINUOUS
 62
     4
 10
251.96
 20
100.55
 11
251.96
 21
52.55
  0
LINE
  8
0
  6
CONTINUOUS
 62
     4
 10
251.96
 20
52.55
 11
252.607047613
 21
54.964814566
  0
LINE
  8
0
  6
CONTINUOUS
 62
     4
 10
251.96
 20
52.55
 11
251.312952387
 21
54.964814566
  0
LINE
  8
0
  6
CONTINUOUS
 62
     4
 10
232.11
 20
52.55
 11
252.96
 21
52.55
  0
TEXT
  8
0
  6
CONTINUOUS
 62
     4
 10
251.46
 20
74.75
 30
0.0
 40
2.2
  1
４８
 50
90.0
 41
0.818181818
 51
0.0
  7
KANJI0
  0
LINE
  8
0
  6
CONTINUOUS
 62
     3
 10
224.4
 20
146.65
 11
226.4
 21
148.65
  0
LINE
  8
0
  6
CONTINUOUS
 62
     3
 10
226.4
 20
181.65
 11
226.4
 21
148.65
  0
ARC
  8
0
  6
CONTINUOUS
 62
     3
 10
225.4
 20
181.65
 40
1.0
 50
0.0
 51
90.0
  0
LINE
  8
0
  6
CONTINUOUS
 62
     3
 10
167.4
 20
182.65
 11
225.4
 21
182.65
  0
ARC
  8
0
  6
CONTINUOUS
 62
     3
 10
167.4
 20
181.65
 40
1.0
 50
90.0
 51
180.0
  0
LINE
  8
0
  6
CONTINUOUS
 62
     3
 10
224.4
 20
146.65
 11
167.4
 21
146.65
  0
LINE
  8
0
  6
CONTINUOUS
 62
     3
 10
166.4
 20
181.65
 11
166.4
 21
147.65
  0
ARC
  8
0
  6
CONTINUOUS
 62
     3
 10
167.4
 20
147.65
 40
1.0
 50
180.0
 51
270.0
  0
LINE
  8
0
  6
CONTINUOUS
 62
     3
 10
156.9
 20
157.65
 11
155.6
 21
157.65
  0
LINE
  8
0
  6
CONTINUOUS
 62
     3
 10
156.9
 20
171.65
 11
155.6
 21
171.65
  0
LINE
  8
0
  6
CONTINUOUS
 62
     3
 10
156.9
 20
169.15
 11
155.6
 21
169.15
  0
LINE
  8
0
  6
CONTINUOUS
 62
     3
 10
153.9
 20
157.65
 11
152.6
 21
157.65
  0
LINE
  8
0
  6
CONTINUOUS
 62
     3
 10
153.9
 20
171.65
 11
152.6
 21
171.65
  0
LINE
  8
0
  6
CONTINUOUS
 62
     3
 10
153.9
 20
169.15
 11
152.6
 21
169.15
  0
LINE
  8
0
  6
CONTINUOUS
 62
     3
 10
152.6
 20
170.4
 11
152.6
 21
157.65
  0
LINE
  8
0
  6
CONTINUOUS
 62
     3
 10
153.9
 20
170.4
 11
153.9
 21
157.65
  0
LINE
  8
0
  6
CONTINUOUS
 62
     3
 10
155.6
 20
170.4
 11
155.6
 21
157.65
  0
LINE
  8
0
  6
CONTINUOUS
 62
     3
 10
147.95
 20
144.15
 11
146.65
 21
144.15
  0
LINE
  8
0
  6
CONTINUOUS
 62
     3
 10
146.65
 20
144.15
 11
146.65
 21
145.55
  0
LINE
  8
0
  6
CONTINUOUS
 62
     3
 10
147.95
 20
170.4
 11
147.95
 21
144.15
  0
LINE
  8
0
  6
CONTINUOUS
 62
     3
 10
146.65
 20
170.4
 11
146.65
 21
145.55
  0
LINE
  8
0
  6
CONTINUOUS
 62
     3
 10
147.95
 20
183.15
 11
147.95
 21
170.4
  0
LINE
  8
0
  6
CONTINUOUS
 62
     3
 10
147.95
 20
183.15
 11
146.65
 21
183.15
  0
LINE
  8
0
  6
CONTINUOUS
 62
     3
 10
146.65
 20
183.15
 11
146.65
 21
170.4
  0
LINE
  8
0
  6
CONTINUOUS
 62
     3
 10
146.65
 20
157.65
 11
147.95
 21
157.65
  0
LINE
  8
0
  6
CONTINUOUS
 62
     3
 10
146.65
 20
155.15
 11
147.95
 21
155.15
  0
LINE
  8
0
  6
CONTINUOUS
 62
     3
 10
146.65
 20
171.65
 11
147.95
 21
171.65
  0
LINE
  8
0
  6
CONTINUOUS
 62
     3
 10
146.65
 20
169.15
 11
147.95
 21
169.15
  0
LINE
  8
0
  6
CONTINUOUS
 62
     3
 10
144.95
 20
144.15
 11
143.65
 21
144.15
  0
LINE
  8
0
  6
CONTINUOUS
 62
     3
 10
143.65
 20
144.15
 11
143.65
 21
145.55
  0
LINE
  8
0
  6
CONTINUOUS
 62
     3
 10
144.95
 20
183.15
 11
144.95
 21
170.4
  0
LINE
  8
0
  6
CONTINUOUS
 62
     3
 10
144.95
 20
183.15
 11
143.65
 21
183.15
  0
LINE
  8
0
  6
CONTINUOUS
 62
     3
 10
143.65
 20
183.15
 11
143.65
 21
170.4
  0
LINE
  8
0
  6
CONTINUOUS
 62
     3
 10
143.65
 20
157.65
 11
144.95
 21
157.65
  0
LINE
  8
0
  6
CONTINUOUS
 62
     3
 10
143.65
 20
155.15
 11
144.95
 21
155.15
  0
LINE
  8
0
  6
CONTINUOUS
 62
     3
 10
143.65
 20
171.65
 11
144.95
 21
171.65
  0
LINE
  8
0
  6
CONTINUOUS
 62
     3
 10
143.65
 20
169.15
 11
144.95
 21
169.15
  0
LINE
  8
0
  6
CONTINUOUS
 62
     3
 10
159.9
 20
157.65
 11
158.6
 21
157.65
  0
LINE
  8
0
  6
CONTINUOUS
 62
     3
 10
159.9
 20
171.65
 11
158.6
 21
171.65
  0
LINE
  8
0
  6
CONTINUOUS
 62
     3
 10
159.9
 20
169.15
 11
158.6
 21
169.15
  0
LINE
  8
0
  6
CONTINUOUS
 62
     3
 10
158.6
 20
170.4
 11
158.6
 21
157.65
  0
LINE
  8
0
  6
CONTINUOUS
 62
     3
 10
144.95
 20
161.95
 11
144.95
 21
144.15
  0
LINE
  8
0
  6
CONTINUOUS
 62
     3
 10
143.65
 20
161.45
 11
143.65
 21
145.55
  0
LINE
  8
0
  6
CONTINUOUS
 62
     3
 10
152.6
 20
155.15
 11
153.9
 21
155.15
  0
LINE
  8
0
  6
CONTINUOUS
 62
     3
 10
152.6
 20
150.15
 11
153.9
 21
150.15
  0
LINE
  8
0
  6
CONTINUOUS
 62
     3
 10
155.6
 20
155.15
 11
156.9
 21
155.15
  0
LINE
  8
0
  6
CONTINUOUS
 62
     3
 10
155.6
 20
150.15
 11
156.9
 21
150.15
  0
LINE
  8
0
  6
CONTINUOUS
 62
     3
 10
158.6
 20
155.15
 11
159.9
 21
155.15
  0
LINE
  8
0
  6
CONTINUOUS
 62
     3
 10
158.6
 20
150.15
 11
159.9
 21
150.15
  0
LINE
  8
0
  6
CONTINUOUS
 62
     3
 10
152.6
 20
157.65
 11
152.6
 21
150.15
  0
LINE
  8
0
  6
CONTINUOUS
 62
     3
 10
153.9
 20
157.65
 11
153.9
 21
150.15
  0
LINE
  8
0
  6
CONTINUOUS
 62
     3
 10
155.6
 20
157.65
 11
155.6
 21
150.15
  0
LINE
  8
0
  6
CONTINUOUS
 62
     3
 10
156.9
 20
157.65
 11
156.9
 21
150.15
  0
LINE
  8
0
  6
CONTINUOUS
 62
     3
 10
158.6
 20
157.65
 11
158.6
 21
150.15
  0
LINE
  8
0
  6
CONTINUOUS
 62
     3
 10
159.9
 20
157.65
 11
159.9
 21
150.15
  0
LINE
  8
0
  6
CONTINUOUS
 62
     3
 10
152.6
 20
176.65
 11
153.9
 21
176.65
  0
LINE
  8
0
  6
CONTINUOUS
 62
     3
 10
155.6
 20
176.65
 11
156.9
 21
176.65
  0
LINE
  8
0
  6
CONTINUOUS
 62
     3
 10
158.6
 20
176.65
 11
159.9
 21
176.65
  0
LINE
  8
0
  6
CONTINUOUS
 62
     3
 10
152.6
 20
176.65
 11
152.6
 21
170.4
  0
LINE
  8
0
  6
CONTINUOUS
 62
     3
 10
153.9
 20
176.65
 11
153.9
 21
170.4
  0
LINE
  8
0
  6
CONTINUOUS
 62
     3
 10
155.6
 20
176.65
 11
155.6
 21
170.4
  0
LINE
  8
0
  6
CONTINUOUS
 62
     3
 10
158.6
 20
176.65
 11
158.6
 21
170.4
  0
LINE
  8
0
  6
CONTINUOUS
 62
     3
 10
159.9
 20
176.65
 11
159.9
 21
157.65
  0
LINE
  8
0
  6
CONTINUOUS
 62
     3
 10
143.65
 20
170.4
 11
143.65
 21
161.45
  0
LINE
  8
0
  6
CONTINUOUS
 62
     3
 10
144.95
 20
170.4
 11
144.95
 21
161.95
  0
LINE
  8
0
  6
CONTINUOUS
 62
     3
 10
156.9
 20
176.65
 11
156.9
 21
157.65
  0
LINE
  8
0
  6
CONTINUOUS
 62
     4
 10
144.14
 20
176.65
 11
143.229625117
 21
178.978350827
  0
LINE
  8
0
  6
CONTINUOUS
 62
     4
 10
144.14
 20
176.65
 11
142.187416811
 21
178.211223523
  0
LINE
  8
0
  6
CONTINUOUS
 62
     4
 10
144.14
 20
176.65
 11
130.28
 21
195.48
  0
LINE
  8
0
  6
CONTINUOUS
 62
     4
 10
130.28
 20
195.48
 11
126.18
 21
195.48
  0
TEXT
  8
0
  6
CONTINUOUS
 62
     4
 10
126.18
 20
195.98
 30
0.3
 40
2.5
  1
風孔
 50
0.0
 41
0.76
 51
0.0
  7
KANJI1
  0
LINE
  8
0
  6
CONTINUOUS
 62
     4
 10
192.89
 20
162.01
 11
194.670966805
 21
163.764467794
  0
LINE
  8
0
  6
CONTINUOUS
 62
     4
 10
192.89
 20
162.01
 11
193.5551286
 21
164.419897082
  0
LINE
  8
0
  6
CONTINUOUS
 62
     4
 10
192.89
 20
162.01
 11
196.15
 21
167.56
  0
LINE
  8
0
  6
CONTINUOUS
 62
     4
 10
196.15
 20
167.56
 11
213.45
 21
167.56
  0
LINE
  8
0
  6
CONTINUOUS
 62
     3
 10
226.2
 20
254.199782609
 11
227.9
 21
254.199782609
  0
LINE
  8
0
  6
CONTINUOUS
 62
     3
 10
227.9
 20
254.199782609
 11
227.9
 21
249.199782609
  0
LINE
  8
0
  6
CONTINUOUS
 62
     3
 10
226.2
 20
254.199782609
 11
226.2
 21
252.299782609
  0
LINE
  8
0
  6
CONTINUOUS
 62
     3
 10
226.2
 20
252.299782609
 11
226.2
 21
249.199782609
  0
LINE
  8
0
  6
CONTINUOUS
 62
     3
 10
224.7
 20
254.199782609
 11
223.0
 21
254.199782609
  0
LINE
  8
0
  6
CONTINUOUS
 62
     3
 10
223.0
 20
254.199782609
 11
223.0
 21
249.199782609
  0
LINE
  8
0
  6
CONTINUOUS
 62
     3
 10
224.7
 20
254.199782609
 11
224.7
 21
252.299782609
  0
LINE
  8
0
  6
CONTINUOUS
 62
     3
 10
224.7
 20
252.299782609
 11
224.7
 21
249.199782609
  0
LINE
  8
0
  6
CONTINUOUS
 62
     3
 10
221.5
 20
254.199782609
 11
219.8
 21
254.199782609
  0
LINE
  8
0
  6
CONTINUOUS
 62
     3
 10
219.8
 20
254.199782609
 11
219.8
 21
249.199782609
  0
LINE
  8
0
  6
CONTINUOUS
 62
     3
 10
221.5
 20
254.199782609
 11
221.5
 21
252.299782609
  0
LINE
  8
0
  6
CONTINUOUS
 62
     3
 10
221.5
 20
252.299782609
 11
221.5
 21
249.199782609
  0
LINE
  8
0
  6
CONTINUOUS
 62
     3
 10
226.2
 20
238.699782609
 11
227.9
 21
238.699782609
  0
LINE
  8
0
  6
CONTINUOUS
 62
     3
 10
223.0
 20
238.699782609
 11
224.7
 21
238.699782609
  0
LINE
  8
0
  6
CONTINUOUS
 62
     3
 10
219.8
 20
238.699782609
 11
221.5
 21
238.699782609
  0
LINE
  8
0
  6
CONTINUOUS
 62
     3
 10
219.8
 20
249.199782609
 11
219.8
 21
238.699782609
  0
LINE
  8
0
  6
CONTINUOUS
 62
     3
 10
221.5
 20
249.199782609
 11
221.5
 21
238.699782609
  0
LINE
  8
0
  6
CONTINUOUS
 62
     3
 10
223.0
 20
249.199782609
 11
223.0
 21
238.699782609
  0
LINE
  8
0
  6
CONTINUOUS
 62
     3
 10
224.7
 20
249.199782609
 11
224.7
 21
238.699782609
  0
LINE
  8
0
  6
CONTINUOUS
 62
     3
 10
226.2
 20
249.199782609
 11
226.2
 21
238.699782609
  0
LINE
  8
0
  6
CONTINUOUS
 62
     3
 10
227.9
 20
238.699782609
 11
227.9
 21
249.199782609
  0
LINE
  8
0
  6
CONTINUOUS
 62
     3
 10
226.2
 20
247.449782609
 11
227.9
 21
247.449782609
  0
LINE
  8
0
  6
CONTINUOUS
 62
     3
 10
223.0
 20
247.449782609
 11
224.7
 21
247.449782609
  0
LINE
  8
0
  6
CONTINUOUS
 62
     3
 10
219.8
 20
247.449782609
 11
221.5
 21
247.449782609
  0
LINE
  8
0
  6
CONTINUOUS
 62
     3
 10
227.9
 20
245.449782609
 11
226.2
 21
245.449782609
  0
LINE
  8
0
  6
CONTINUOUS
 62
     3
 10
224.7
 20
245.449782609
 11
223.0
 21
245.449782609
  0
LINE
  8
0
  6
CONTINUOUS
 62
     3
 10
221.5
 20
245.449782609
 11
219.8
 21
245.449782609
  0
LINE
  8
0
  6
CONTINUOUS
 62
     4
 10
127.25
 20
76.55
 11
130.61836588
 21
76.55
  0
LINE
  8
0
  6
LTYPE1
 62
     1
 10
184.4
 20
109.0
 11
184.4
 21
45.4
  0
LINE
  8
0
  6
LTYPE1
 62
     1
 10
184.4
 20
111.28
 11
184.4
 21
45.3
  0
LINE
  8
0
  6
LTYPE1
 62
     1
 10
184.4
 20
111.28
 11
184.4
 21
45.3
  0
LINE
  8
0
  6
CONTINUOUS
 62
     4
 10
136.4
 20
63.84
 11
136.4
 21
39.0
  0
LINE
  8
0
  6
CONTINUOUS
 62
     4
 10
136.4
 20
40.0
 11
138.814814566
 21
39.352952387
  0
LINE
  8
0
  6
CONTINUOUS
 62
     4
 10
136.4
 20
40.0
 11
138.814814566
 21
40.647047613
  0
LINE
  8
0
  6
CONTINUOUS
 62
     4
 10
136.4
 20
40.0
 11
232.4
 21
40.0
  0
LINE
  8
0
  6
CONTINUOUS
 62
     4
 10
232.4
 20
40.0
 11
229.985185434
 21
40.647047613
  0
LINE
  8
0
  6
CONTINUOUS
 62
     4
 10
232.4
 20
40.0
 11
229.985185434
 21
39.352952387
  0
LINE
  8
0
  6
CONTINUOUS
 62
     4
 10
232.4
 20
63.84
 11
232.4
 21
39.0
  0
TEXT
  8
0
  6
CONTINUOUS
 62
     4
 10
182.6
 20
40.5
 30
0.0
 40
2.2
  1
９６
 50
0.0
 41
0.818181818
 51
0.0
  7
KANJI0
  0
LINE
  8
0
  6
LTYPE1
 62
     1
 10
184.4
 20
230.849782609
 11
184.4
 21
225.999782609
  0
LINE
  8
0
  6
CONTINUOUS
 62
     3
 10
150.65
 20
235.499782609
 11
149.65
 21
235.499782609
  0
LINE
  8
0
  6
CONTINUOUS
 62
     3
 10
150.65
 20
234.499782609
 11
150.65
 21
235.499782609
  0
LINE
  8
0
  6
CONTINUOUS
 62
     3
 10
149.65
 20
235.499782609
 11
149.65
 21
234.499782609
  0
LINE
  8
0
  6
CONTINUOUS
 62
     3
 10
149.65
 20
233.499782609
 11
149.65
 21
234.499782609
  0
LINE
  8
0
  6
CONTINUOUS
 62
     3
 10
148.65
 20
233.499782609
 11
148.65
 21
235.499782609
  0
POLYLINE
  8
0
  6
CONTINUOUS
 62
     3
 66
     1
  0
VERTEX
  8
0
  6
CONTINUOUS
 62
     3
 10
148.65
 20
235.499782609
  0
VERTEX
  8
0
  6
CONTINUOUS
 62
     3
 10
146.65
 20
235.499782609
  0
VERTEX
  8
0
  6
CONTINUOUS
 62
     3
 10
146.65
 20
234.499782609
  0
SEQEND
  0
LINE
  8
0
  6
CONTINUOUS
 62
     3
 10
146.65
 20
234.499782609
 11
145.25
 21
234.499782609
  0
LINE
  8
0
  6
CONTINUOUS
 62
     3
 10
145.25
 20
234.499782609
 11
145.25
 21
230.499782609
  0
LINE
  8
0
  6
CONTINUOUS
 62
     3
 10
145.25
 20
230.499782609
 11
144.75
 21
230.499782609
  0
LINE
  8
0
  6
CONTINUOUS
 62
     3
 10
144.75
 20
230.499782609
 11
144.75
 21
229.499782609
  0
LINE
  8
0
  6
CONTINUOUS
 62
     3
 10
144.75
 20
228.499782609
 11
144.75
 21
227.499782609
  0
LINE
  8
0
  6
CONTINUOUS
 62
     3
 10
150.65
 20
221.899782609
 11
149.65
 21
221.899782609
  0
LINE
  8
0
  6
CONTINUOUS
 62
     3
 10
150.65
 20
222.899782609
 11
150.65
 21
221.899782609
  0
LINE
  8
0
  6
CONTINUOUS
 62
     3
 10
149.65
 20
221.899782609
 11
149.65
 21
222.899782609
  0
LINE
  8
0
  6
CONTINUOUS
 62
     3
 10
149.65
 20
223.899782609
 11
149.65
 21
222.899782609
  0
LINE
  8
0
  6
CONTINUOUS
 62
     3
 10
148.65
 20
223.899782609
 11
148.65
 21
221.899782609
  0
POLYLINE
  8
0
  6
CONTINUOUS
 62
     3
 66
     1
  0
VERTEX
  8
0
  6
CONTINUOUS
 62
     3
 10
148.65
 20
221.899782609
  0
VERTEX
  8
0
  6
CONTINUOUS
 62
     3
 10
146.65
 20
221.899782609
  0
VERTEX
  8
0
  6
CONTINUOUS
 62
     3
 10
146.65
 20
222.899782609
  0
SEQEND
  0
LINE
  8
0
  6
CONTINUOUS
 62
     3
 10
146.65
 20
222.899782609
 11
145.25
 21
222.899782609
  0
LINE
  8
0
  6
CONTINUOUS
 62
     3
 10
144.75
 20
227.499782609
 11
145.25
 21
227.499782609
  0
LINE
  8
0
  6
CONTINUOUS
 62
     3
 10
145.25
 20
222.899782609
 11
145.25
 21
227.499782609
  0
LINE
  8
0
  6
CONTINUOUS
 62
     3
 10
152.15
 20
234.499782609
 11
150.65
 21
234.499782609
  0
LINE
  8
0
  6
CONTINUOUS
 62
     3
 10
152.15
 20
233.499782609
 11
149.65
 21
233.499782609
  0
LINE
  8
0
  6
CONTINUOUS
 62
     3
 10
152.15
 20
233.499782609
 11
152.15
 21
226.499782609
  0
LINE
  8
0
  6
CONTINUOUS
 62
     3
 10
152.15
 20
233.499782609
 11
152.15
 21
226.999782609
  0
LINE
  8
0
  6
CONTINUOUS
 62
     3
 10
152.15
 20
236.299782609
 11
152.15
 21
234.499782609
  0
LINE
  8
0
  6
CONTINUOUS
 62
     3
 10
152.15
 20
236.499782609
 11
152.15
 21
234.499782609
  0
LINE
  8
0
  6
CONTINUOUS
 62
     3
 10
171.4
 20
223.899782609
 11
171.4
 21
221.899782609
  0
LINE
  8
0
  6
CONTINUOUS
 62
     3
 10
169.9
 20
222.899782609
 11
169.9
 21
221.899782609
  0
LINE
  8
0
  6
CONTINUOUS
 62
     3
 10
169.9
 20
221.899782609
 11
171.4
 21
221.899782609
  0
LINE
  8
0
  6
CONTINUOUS
 62
     3
 10
172.4
 20
223.899782609
 11
172.4
 21
221.899782609
  0
LINE
  8
0
  6
CONTINUOUS
 62
     3
 10
173.9
 20
222.899782609
 11
173.9
 21
221.899782609
  0
LINE
  8
0
  6
CONTINUOUS
 62
     3
 10
173.9
 20
221.899782609
 11
172.4
 21
221.899782609
  0
LINE
  8
0
  6
CONTINUOUS
 62
     3
 10
171.4
 20
223.899782609
 11
149.65
 21
223.899782609
  0
LINE
  8
0
  6
CONTINUOUS
 62
     3
 10
169.9
 20
222.899782609
 11
150.65
 21
222.899782609
  0
LINE
  8
0
  6
CONTINUOUS
 62
     3
 10
218.15
 20
235.499782609
 11
219.15
 21
235.499782609
  0
LINE
  8
0
  6
CONTINUOUS
 62
     3
 10
218.15
 20
234.499782609
 11
218.15
 21
235.499782609
  0
LINE
  8
0
  6
CONTINUOUS
 62
     3
 10
219.15
 20
235.499782609
 11
219.15
 21
234.499782609
  0
LINE
  8
0
  6
CONTINUOUS
 62
     3
 10
219.15
 20
233.499782609
 11
219.15
 21
234.499782609
  0
LINE
  8
0
  6
CONTINUOUS
 62
     3
 10
220.15
 20
233.499782609
 11
220.15
 21
235.499782609
  0
POLYLINE
  8
0
  6
CONTINUOUS
 62
     3
 66
     1
  0
VERTEX
  8
0
  6
CONTINUOUS
 62
     3
 10
220.15
 20
235.499782609
  0
VERTEX
  8
0
  6
CONTINUOUS
 62
     3
 10
222.15
 20
235.499782609
  0
VERTEX
  8
0
  6
CONTINUOUS
 62
     3
 10
222.15
 20
234.499782609
  0
SEQEND
  0
LINE
  8
0
  6
CONTINUOUS
 62
     3
 10
222.15
 20
234.499782609
 11
223.55
 21
234.499782609
  0
LINE
  8
0
  6
CONTINUOUS
 62
     3
 10
223.55
 20
234.499782609
 11
223.55
 21
230.499782609
  0
LINE
  8
0
  6
CONTINUOUS
 62
     3
 10
223.55
 20
230.499782609
 11
224.05
 21
230.499782609
  0
LINE
  8
0
  6
CONTINUOUS
 62
     3
 10
224.05
 20
230.499782609
 11
224.05
 21
229.499782609
  0
LINE
  8
0
  6
CONTINUOUS
 62
     3
 10
224.05
 20
228.499782609
 11
224.05
 21
227.499782609
  0
LINE
  8
0
  6
CONTINUOUS
 62
     3
 10
218.15
 20
221.899782609
 11
219.15
 21
221.899782609
  0
LINE
  8
0
  6
CONTINUOUS
 62
     3
 10
218.15
 20
222.899782609
 11
218.15
 21
221.899782609
  0
LINE
  8
0
  6
CONTINUOUS
 62
     3
 10
219.15
 20
221.899782609
 11
219.15
 21
222.899782609
  0
LINE
  8
0
  6
CONTINUOUS
 62
     3
 10
219.15
 20
223.899782609
 11
219.15
 21
222.899782609
  0
LINE
  8
0
  6
CONTINUOUS
 62
     3
 10
220.15
 20
223.899782609
 11
220.15
 21
221.899782609
  0
POLYLINE
  8
0
  6
CONTINUOUS
 62
     3
 66
     1
  0
VERTEX
  8
0
  6
CONTINUOUS
 62
     3
 10
220.15
 20
221.899782609
  0
VERTEX
  8
0
  6
CONTINUOUS
 62
     3
 10
222.15
 20
221.899782609
  0
VERTEX
  8
0
  6
CONTINUOUS
 62
     3
 10
222.15
 20
222.899782609
  0
SEQEND
  0
LINE
  8
0
  6
CONTINUOUS
 62
     3
 10
222.15
 20
222.899782609
 11
223.55
 21
222.899782609
  0
LINE
  8
0
  6
CONTINUOUS
 62
     3
 10
224.05
 20
227.499782609
 11
223.55
 21
227.499782609
  0
LINE
  8
0
  6
CONTINUOUS
 62
     3
 10
223.55
 20
222.899782609
 11
223.55
 21
227.499782609
  0
LINE
  8
0
  6
CONTINUOUS
 62
     3
 10
216.65
 20
234.499782609
 11
218.15
 21
234.499782609
  0
LINE
  8
0
  6
CONTINUOUS
 62
     3
 10
216.65
 20
233.499782609
 11
219.15
 21
233.499782609
  0
LINE
  8
0
  6
CONTINUOUS
 62
     3
 10
216.65
 20
233.499782609
 11
216.65
 21
226.499782609
  0
LINE
  8
0
  6
CONTINUOUS
 62
     3
 10
197.4
 20
223.899782609
 11
219.15
 21
223.899782609
  0
LINE
  8
0
  6
CONTINUOUS
 62
     3
 10
197.4
 20
223.899782609
 11
197.4
 21
221.899782609
  0
LINE
  8
0
  6
CONTINUOUS
 62
     3
 10
198.9
 20
222.899782609
 11
198.9
 21
221.899782609
  0
LINE
  8
0
  6
CONTINUOUS
 62
     3
 10
198.9
 20
221.899782609
 11
197.4
 21
221.899782609
  0
LINE
  8
0
  6
CONTINUOUS
 62
     3
 10
198.9
 20
222.899782609
 11
218.15
 21
222.899782609
  0
LINE
  8
0
  6
CONTINUOUS
 62
     3
 10
196.4
 20
223.899782609
 11
194.25
 21
223.899782609
  0
LINE
  8
0
  6
CONTINUOUS
 62
     3
 10
196.4
 20
223.899782609
 11
196.4
 21
221.899782609
  0
LINE
  8
0
  6
CONTINUOUS
 62
     3
 10
194.9
 20
222.899782609
 11
194.9
 21
221.899782609
  0
LINE
  8
0
  6
CONTINUOUS
 62
     3
 10
194.9
 20
221.899782609
 11
196.4
 21
221.899782609
  0
LINE
  8
0
  6
CONTINUOUS
 62
     3
 10
194.9
 20
222.899782609
 11
194.25
 21
222.899782609
  0
LINE
  8
0
  6
CONTINUOUS
 62
     3
 10
216.65
 20
236.499782609
 11
216.65
 21
234.499782609
  0
LINE
  8
0
  6
CONTINUOUS
 62
     3
 10
172.4
 20
223.899782609
 11
194.25
 21
223.899782609
  0
LINE
  8
0
  6
CONTINUOUS
 62
     3
 10
173.9
 20
222.899782609
 11
194.25
 21
222.899782609
  0
LINE
  8
0
  6
CONTINUOUS
 62
     3
 10
159.4
 20
236.499782609
 11
159.4
 21
237.499782609
  0
LINE
  8
0
  6
CONTINUOUS
 62
     3
 10
159.4
 20
237.499782609
 11
160.9
 21
237.499782609
  0
LINE
  8
0
  6
CONTINUOUS
 62
     3
 10
160.9
 20
237.499782609
 11
160.9
 21
235.499782609
  0
LINE
  8
0
  6
CONTINUOUS
 62
     3
 10
161.9
 20
235.499782609
 11
161.9
 21
237.499782609
  0
LINE
  8
0
  6
CONTINUOUS
 62
     3
 10
161.9
 20
237.499782609
 11
163.4
 21
237.499782609
  0
LINE
  8
0
  6
CONTINUOUS
 62
     3
 10
182.4
 20
236.499782609
 11
182.4
 21
237.499782609
  0
LINE
  8
0
  6
CONTINUOUS
 62
     3
 10
182.4
 20
237.499782609
 11
183.9
 21
237.499782609
  0
LINE
  8
0
  6
CONTINUOUS
 62
     3
 10
183.9
 20
237.499782609
 11
183.9
 21
235.499782609
  0
LINE
  8
0
  6
CONTINUOUS
 62
     3
 10
184.9
 20
235.499782609
 11
184.9
 21
237.499782609
  0
LINE
  8
0
  6
CONTINUOUS
 62
     3
 10
184.9
 20
237.499782609
 11
186.4
 21
237.499782609
  0
LINE
  8
0
  6
CONTINUOUS
 62
     3
 10
161.9
 20
235.499782609
 11
175.9
 21
235.499782609
  0
LINE
  8
0
  6
CONTINUOUS
 62
     3
 10
163.4
 20
237.499782609
 11
163.4
 21
236.499782609
  0
LINE
  8
0
  6
CONTINUOUS
 62
     3
 10
152.15
 20
236.499782609
 11
159.4
 21
236.499782609
  0
LINE
  8
0
  6
CONTINUOUS
 62
     3
 10
152.15
 20
236.499782609
 11
159.4
 21
236.499782609
  0
LINE
  8
0
  6
CONTINUOUS
 62
     3
 10
163.4
 20
236.499782609
 11
182.4
 21
236.499782609
  0
LINE
  8
0
  6
CONTINUOUS
 62
     3
 10
163.4
 20
236.499782609
 11
182.4
 21
236.499782609
  0
LINE
  8
0
  6
CONTINUOUS
 62
     3
 10
175.9
 20
235.499782609
 11
183.9
 21
235.499782609
  0
LINE
  8
0
  6
CONTINUOUS
 62
     3
 10
186.4
 20
237.499782609
 11
186.4
 21
236.499782609
  0
LINE
  8
0
  6
CONTINUOUS
 62
     3
 10
209.4
 20
236.499782609
 11
209.4
 21
237.499782609
  0
LINE
  8
0
  6
CONTINUOUS
 62
     3
 10
209.4
 20
237.499782609
 11
207.9
 21
237.499782609
  0
LINE
  8
0
  6
CONTINUOUS
 62
     3
 10
207.9
 20
237.499782609
 11
207.9
 21
235.499782609
  0
LINE
  8
0
  6
CONTINUOUS
 62
     3
 10
206.9
 20
235.499782609
 11
206.9
 21
237.499782609
  0
LINE
  8
0
  6
CONTINUOUS
 62
     3
 10
206.9
 20
237.499782609
 11
205.4
 21
237.499782609
  0
LINE
  8
0
  6
CONTINUOUS
 62
     3
 10
205.4
 20
237.499782609
 11
205.4
 21
236.499782609
  0
LINE
  8
0
  6
CONTINUOUS
 62
     3
 10
205.4
 20
236.499782609
 11
186.4
 21
236.499782609
  0
LINE
  8
0
  6
CONTINUOUS
 62
     3
 10
216.65
 20
236.499782609
 11
209.4
 21
236.499782609
  0
LINE
  8
0
  6
CONTINUOUS
 62
     3
 10
206.9
 20
235.499782609
 11
184.9
 21
235.499782609
  0
LINE
  8
0
  6
CONTINUOUS
 62
     3
 10
159.4
 20
226.499782609
 11
159.4
 21
225.499782609
  0
LINE
  8
0
  6
CONTINUOUS
 62
     3
 10
159.4
 20
225.499782609
 11
160.9
 21
225.499782609
  0
LINE
  8
0
  6
CONTINUOUS
 62
     3
 10
160.9
 20
225.499782609
 11
160.9
 21
227.499782609
  0
LINE
  8
0
  6
CONTINUOUS
 62
     3
 10
161.9
 20
227.499782609
 11
161.9
 21
225.499782609
  0
LINE
  8
0
  6
CONTINUOUS
 62
     3
 10
161.9
 20
225.499782609
 11
163.4
 21
225.499782609
  0
LINE
  8
0
  6
CONTINUOUS
 62
     3
 10
182.4
 20
226.499782609
 11
182.4
 21
225.499782609
  0
LINE
  8
0
  6
CONTINUOUS
 62
     3
 10
182.4
 20
225.499782609
 11
183.9
 21
225.499782609
  0
LINE
  8
0
  6
CONTINUOUS
 62
     3
 10
183.9
 20
225.499782609
 11
183.9
 21
227.499782609
  0
LINE
  8
0
  6
CONTINUOUS
 62
     3
 10
184.9
 20
227.499782609
 11
184.9
 21
225.499782609
  0
LINE
  8
0
  6
CONTINUOUS
 62
     3
 10
184.9
 20
225.499782609
 11
186.4
 21
225.499782609
  0
LINE
  8
0
  6
CONTINUOUS
 62
     3
 10
161.9
 20
227.499782609
 11
175.9
 21
227.499782609
  0
LINE
  8
0
  6
CONTINUOUS
 62
     3
 10
163.4
 20
225.499782609
 11
163.4
 21
226.499782609
  0
LINE
  8
0
  6
CONTINUOUS
 62
     3
 10
163.4
 20
226.499782609
 11
182.4
 21
226.499782609
  0
LINE
  8
0
  6
CONTINUOUS
 62
     3
 10
163.4
 20
226.499782609
 11
182.4
 21
226.499782609
  0
LINE
  8
0
  6
CONTINUOUS
 62
     3
 10
175.9
 20
227.499782609
 11
183.9
 21
227.499782609
  0
LINE
  8
0
  6
CONTINUOUS
 62
     3
 10
186.4
 20
225.499782609
 11
186.4
 21
226.499782609
  0
LINE
  8
0
  6
CONTINUOUS
 62
     3
 10
209.4
 20
226.499782609
 11
209.4
 21
225.499782609
  0
LINE
  8
0
  6
CONTINUOUS
 62
     3
 10
209.4
 20
225.499782609
 11
207.9
 21
225.499782609
  0
LINE
  8
0
  6
CONTINUOUS
 62
     3
 10
207.9
 20
225.499782609
 11
207.9
 21
227.499782609
  0
LINE
  8
0
  6
CONTINUOUS
 62
     3
 10
206.9
 20
227.499782609
 11
206.9
 21
225.499782609
  0
LINE
  8
0
  6
CONTINUOUS
 62
     3
 10
206.9
 20
225.499782609
 11
205.4
 21
225.499782609
  0
LINE
  8
0
  6
CONTINUOUS
 62
     3
 10
205.4
 20
225.499782609
 11
205.4
 21
226.499782609
  0
LINE
  8
0
  6
CONTINUOUS
 62
     3
 10
205.4
 20
226.499782609
 11
186.4
 21
226.499782609
  0
LINE
  8
0
  6
CONTINUOUS
 62
     3
 10
206.9
 20
227.499782609
 11
184.9
 21
227.499782609
  0
LINE
  8
0
  6
CONTINUOUS
 62
     3
 10
216.65
 20
226.499782609
 11
209.4
 21
226.499782609
  0
LINE
  8
0
  6
CONTINUOUS
 62
     3
 10
186.755
 20
226.499782609
 11
205.4
 21
226.499782609
  0
LINE
  8
0
  6
CONTINUOUS
 62
     3
 10
163.4
 20
226.499782609
 11
182.4
 21
226.499782609
  0
LINE
  8
0
  6
CONTINUOUS
 62
     3
 10
152.15
 20
226.499782609
 11
159.4
 21
226.499782609
  0
LINE
  8
0
  6
CONTINUOUS
 62
     3
 10
222.55
 20
229.499782609
 11
224.05
 21
229.499782609
  0
POLYLINE
  8
0
  6
CONTINUOUS
 62
     3
 66
     1
  0
VERTEX
  8
0
  6
CONTINUOUS
 62
     3
 10
220.15
 20
233.499782609
  0
VERTEX
  8
0
  6
CONTINUOUS
 62
     3
 10
222.55
 20
233.499782609
  0
VERTEX
  8
0
  6
CONTINUOUS
 62
     3
 10
222.55
 20
229.499782609
  0
SEQEND
  0
LINE
  8
0
  6
CONTINUOUS
 62
     3
 10
222.55
 20
228.499782609
 11
224.05
 21
228.499782609
  0
LINE
  8
0
  6
CONTINUOUS
 62
     3
 10
222.55
 20
223.899782609
 11
222.55
 21
228.499782609
  0
LINE
  8
0
  6
CONTINUOUS
 62
     3
 10
220.15
 20
223.899782609
 11
222.55
 21
223.899782609
  0
LINE
  8
0
  6
CONTINUOUS
 62
     3
 10
207.9
 20
227.499782609
 11
215.65
 21
227.499782609
  0
LINE
  8
0
  6
CONTINUOUS
 62
     3
 10
215.65
 20
235.499782609
 11
215.65
 21
227.499782609
  0
LINE
  8
0
  6
CONTINUOUS
 62
     3
 10
207.9
 20
235.499782609
 11
215.65
 21
235.499782609
  0
LINE
  8
0
  6
CONTINUOUS
 62
     3
 10
148.65
 20
233.499782609
 11
146.25
 21
233.499782609
  0
LINE
  8
0
  6
CONTINUOUS
 62
     3
 10
148.65
 20
223.899782609
 11
146.25
 21
223.899782609
  0
LINE
  8
0
  6
CONTINUOUS
 62
     3
 10
146.25
 20
228.499782609
 11
146.25
 21
223.899782609
  0
LINE
  8
0
  6
CONTINUOUS
 62
     3
 10
146.25
 20
233.499782609
 11
146.25
 21
229.499782609
  0
LINE
  8
0
  6
CONTINUOUS
 62
     3
 10
146.25
 20
228.499782609
 11
144.75
 21
228.499782609
  0
LINE
  8
0
  6
CONTINUOUS
 62
     3
 10
146.25
 20
229.499782609
 11
144.75
 21
229.499782609
  0
LINE
  8
0
  6
CONTINUOUS
 62
     3
 10
160.9
 20
235.499782609
 11
153.15
 21
235.499782609
  0
LINE
  8
0
  6
CONTINUOUS
 62
     3
 10
160.9
 20
227.499782609
 11
153.15
 21
227.499782609
  0
LINE
  8
0
  6
CONTINUOUS
 62
     3
 10
153.15
 20
235.499782609
 11
153.15
 21
227.499782609
  0
LINE
  8
0
  6
CONTINUOUS
 62
     2
 10
154.899743131
 20
255.399782609
 11
154.899743131
 21
254.899782609
  0
LINE
  8
0
  6
CONTINUOUS
 62
     2
 10
154.899743131
 20
255.899782609
 11
154.899743131
 21
255.399782609
  0
LINE
  8
0
  6
CONTINUOUS
 62
     2
 10
152.399743131
 20
253.399782609
 11
152.399743131
 21
254.899782609
  0
LINE
  8
0
  6
CONTINUOUS
 62
     2
 10
152.399743131
 20
255.899782609
 11
152.399743131
 21
257.399782609
  0
LINE
  8
0
  6
CONTINUOUS
 62
     2
 10
150.899743131
 20
254.899782609
 11
150.899743131
 21
255.899782609
  0
LINE
  8
0
  6
CONTINUOUS
 62
     2
 10
152.399743131
 20
254.899782609
 11
150.899743131
 21
254.899782609
  0
LINE
  8
0
  6
CONTINUOUS
 62
     2
 10
150.899743131
 20
255.899782609
 11
152.399743131
 21
255.899782609
  0
LINE
  8
0
  6
CONTINUOUS
 62
     2
 10
153.399743131
 20
254.899782609
 11
153.399743131
 21
253.399782609
  0
LINE
  8
0
  6
CONTINUOUS
 62
     2
 10
153.399743131
 20
257.399782609
 11
153.399743131
 21
255.899782609
  0
LINE
  8
0
  6
CONTINUOUS
 62
     2
 10
154.899743131
 20
254.899782609
 11
153.399743131
 21
254.899782609
  0
LINE
  8
0
  6
CONTINUOUS
 62
     2
 10
153.399743131
 20
255.899782609
 11
154.899743131
 21
255.899782609
  0
LINE
  8
0
  6
CONTINUOUS
 62
     2
 10
153.399743131
 20
253.399782609
 11
152.399743131
 21
253.399782609
  0
LINE
  8
0
  6
CONTINUOUS
 62
     2
 10
152.399743131
 20
257.399782609
 11
153.399743131
 21
257.399782609
  0
CIRCLE
  8
0
  6
CONTINUOUS
 62
     2
 10
152.899743131
 20
255.399782609
 40
2.8
  0
LINE
  8
0
  6
CONTINUOUS
 62
     2
 10
149.899743131
 20
249.999782609
 11
149.899743131
 21
261.399782609
  0
LINE
  8
0
  6
CONTINUOUS
 62
     2
 10
155.899743131
 20
249.999782609
 11
155.899743131
 21
261.399782609
  0
LINE
  8
0
  6
CONTINUOUS
 62
     2
 10
161.899743131
 20
255.399782609
 11
161.899743131
 21
254.899782609
  0
LINE
  8
0
  6
CONTINUOUS
 62
     2
 10
161.899743131
 20
255.899782609
 11
161.899743131
 21
255.399782609
  0
LINE
  8
0
  6
CONTINUOUS
 62
     2
 10
159.399743131
 20
253.399782609
 11
159.399743131
 21
254.899782609
  0
LINE
  8
0
  6
CONTINUOUS
 62
     2
 10
159.399743131
 20
255.899782609
 11
159.399743131
 21
257.399782609
  0
LINE
  8
0
  6
CONTINUOUS
 62
     2
 10
157.899743131
 20
254.899782609
 11
157.899743131
 21
255.899782609
  0
LINE
  8
0
  6
CONTINUOUS
 62
     2
 10
159.399743131
 20
254.899782609
 11
157.899743131
 21
254.899782609
  0
LINE
  8
0
  6
CONTINUOUS
 62
     2
 10
157.899743131
 20
255.899782609
 11
159.399743131
 21
255.899782609
  0
LINE
  8
0
  6
CONTINUOUS
 62
     2
 10
160.399743131
 20
254.899782609
 11
160.399743131
 21
253.399782609
  0
LINE
  8
0
  6
CONTINUOUS
 62
     2
 10
160.399743131
 20
257.399782609
 11
160.399743131
 21
255.899782609
  0
LINE
  8
0
  6
CONTINUOUS
 62
     2
 10
161.899743131
 20
254.899782609
 11
160.399743131
 21
254.899782609
  0
LINE
  8
0
  6
CONTINUOUS
 62
     2
 10
160.399743131
 20
255.899782609
 11
161.899743131
 21
255.899782609
  0
LINE
  8
0
  6
CONTINUOUS
 62
     2
 10
160.399743131
 20
253.399782609
 11
159.399743131
 21
253.399782609
  0
LINE
  8
0
  6
CONTINUOUS
 62
     2
 10
159.399743131
 20
257.399782609
 11
160.399743131
 21
257.399782609
  0
CIRCLE
  8
0
  6
CONTINUOUS
 62
     2
 10
159.899743131
 20
255.399782609
 40
2.8
  0
LINE
  8
0
  6
CONTINUOUS
 62
     2
 10
156.899743131
 20
249.999782609
 11
156.899743131
 21
261.399782609
  0
LINE
  8
0
  6
CONTINUOUS
 62
     2
 10
162.899743131
 20
249.999782609
 11
162.899743131
 21
261.399782609
  0
LINE
  8
0
  6
CONTINUOUS
 62
     2
 10
148.899743131
 20
261.399782609
 11
148.899743131
 21
249.999782609
  0
LINE
  8
0
  6
CONTINUOUS
 62
     2
 10
148.899743131
 20
249.999782609
 11
148.899743131
 21
261.399782609
  0
LINE
  8
0
  6
CONTINUOUS
 62
     2
 10
148.899743131
 20
261.399782609
 11
163.899743131
 21
261.399782609
  0
LINE
  8
0
  6
CONTINUOUS
 62
     2
 10
163.899743131
 20
249.999782609
 11
163.899743131
 21
261.399782609
  0
LINE
  8
0
  6
CONTINUOUS
 62
     2
 10
148.899743131
 20
249.999782609
 11
163.899743131
 21
249.999782609
  0
LINE
  8
0
  6
CONTINUOUS
 62
     2
 10
180.899743131
 20
255.399782609
 11
180.899743131
 21
254.899782609
  0
LINE
  8
0
  6
CONTINUOUS
 62
     2
 10
180.899743131
 20
255.899782609
 11
180.899743131
 21
255.399782609
  0
LINE
  8
0
  6
CONTINUOUS
 62
     2
 10
178.399743131
 20
253.399782609
 11
178.399743131
 21
254.899782609
  0
LINE
  8
0
  6
CONTINUOUS
 62
     2
 10
178.399743131
 20
255.899782609
 11
178.399743131
 21
257.399782609
  0
LINE
  8
0
  6
CONTINUOUS
 62
     2
 10
176.899743131
 20
254.899782609
 11
176.899743131
 21
255.899782609
  0
LINE
  8
0
  6
CONTINUOUS
 62
     2
 10
178.399743131
 20
254.899782609
 11
176.899743131
 21
254.899782609
  0
LINE
  8
0
  6
CONTINUOUS
 62
     2
 10
176.899743131
 20
255.899782609
 11
178.399743131
 21
255.899782609
  0
LINE
  8
0
  6
CONTINUOUS
 62
     2
 10
179.399743131
 20
254.899782609
 11
179.399743131
 21
253.399782609
  0
LINE
  8
0
  6
CONTINUOUS
 62
     2
 10
179.399743131
 20
257.399782609
 11
179.399743131
 21
255.899782609
  0
LINE
  8
0
  6
CONTINUOUS
 62
     2
 10
180.899743131
 20
254.899782609
 11
179.399743131
 21
254.899782609
  0
LINE
  8
0
  6
CONTINUOUS
 62
     2
 10
179.399743131
 20
255.899782609
 11
180.899743131
 21
255.899782609
  0
LINE
  8
0
  6
CONTINUOUS
 62
     2
 10
179.399743131
 20
253.399782609
 11
178.399743131
 21
253.399782609
  0
LINE
  8
0
  6
CONTINUOUS
 62
     2
 10
178.399743131
 20
257.399782609
 11
179.399743131
 21
257.399782609
  0
CIRCLE
  8
0
  6
CONTINUOUS
 62
     2
 10
178.899743131
 20
255.399782609
 40
2.8
  0
LINE
  8
0
  6
CONTINUOUS
 62
     2
 10
175.899743131
 20
249.999782609
 11
175.899743131
 21
261.399782609
  0
LINE
  8
0
  6
CONTINUOUS
 62
     2
 10
181.899743131
 20
249.999782609
 11
181.899743131
 21
261.399782609
  0
LINE
  8
0
  6
CONTINUOUS
 62
     2
 10
187.899743131
 20
255.399782609
 11
187.899743131
 21
254.899782609
  0
LINE
  8
0
  6
CONTINUOUS
 62
     2
 10
187.899743131
 20
255.899782609
 11
187.899743131
 21
255.399782609
  0
LINE
  8
0
  6
CONTINUOUS
 62
     2
 10
185.399743131
 20
253.399782609
 11
185.399743131
 21
254.899782609
  0
LINE
  8
0
  6
CONTINUOUS
 62
     2
 10
185.399743131
 20
255.899782609
 11
185.399743131
 21
257.399782609
  0
LINE
  8
0
  6
CONTINUOUS
 62
     2
 10
183.899743131
 20
254.899782609
 11
183.899743131
 21
255.899782609
  0
LINE
  8
0
  6
CONTINUOUS
 62
     2
 10
185.399743131
 20
254.899782609
 11
183.899743131
 21
254.899782609
  0
LINE
  8
0
  6
CONTINUOUS
 62
     2
 10
183.899743131
 20
255.899782609
 11
185.399743131
 21
255.899782609
  0
LINE
  8
0
  6
CONTINUOUS
 62
     2
 10
186.399743131
 20
254.899782609
 11
186.399743131
 21
253.399782609
  0
LINE
  8
0
  6
CONTINUOUS
 62
     2
 10
186.399743131
 20
257.399782609
 11
186.399743131
 21
255.899782609
  0
LINE
  8
0
  6
CONTINUOUS
 62
     2
 10
187.899743131
 20
254.899782609
 11
186.399743131
 21
254.899782609
  0
LINE
  8
0
  6
CONTINUOUS
 62
     2
 10
186.399743131
 20
255.899782609
 11
187.899743131
 21
255.899782609
  0
LINE
  8
0
  6
CONTINUOUS
 62
     2
 10
186.399743131
 20
253.399782609
 11
185.399743131
 21
253.399782609
  0
LINE
  8
0
  6
CONTINUOUS
 62
     2
 10
185.399743131
 20
257.399782609
 11
186.399743131
 21
257.399782609
  0
CIRCLE
  8
0
  6
CONTINUOUS
 62
     2
 10
185.899743131
 20
255.399782609
 40
2.8
  0
LINE
  8
0
  6
CONTINUOUS
 62
     2
 10
182.899743131
 20
249.999782609
 11
182.899743131
 21
261.399782609
  0
LINE
  8
0
  6
CONTINUOUS
 62
     2
 10
188.899743131
 20
249.999782609
 11
188.899743131
 21
261.399782609
  0
LINE
  8
0
  6
CONTINUOUS
 62
     2
 10
174.899743131
 20
261.399782609
 11
174.899743131
 21
249.999782609
  0
LINE
  8
0
  6
CONTINUOUS
 62
     2
 10
174.899743131
 20
249.999782609
 11
174.899743131
 21
261.399782609
  0
LINE
  8
0
  6
CONTINUOUS
 62
     2
 10
189.899743131
 20
249.999782609
 11
189.899743131
 21
261.399782609
  0
LINE
  8
0
  6
CONTINUOUS
 62
     2
 10
194.899743131
 20
255.399782609
 11
194.899743131
 21
254.899782609
  0
LINE
  8
0
  6
CONTINUOUS
 62
     2
 10
194.899743131
 20
255.899782609
 11
194.899743131
 21
255.399782609
  0
LINE
  8
0
  6
CONTINUOUS
 62
     2
 10
192.399743131
 20
253.399782609
 11
192.399743131
 21
254.899782609
  0
LINE
  8
0
  6
CONTINUOUS
 62
     2
 10
192.399743131
 20
255.899782609
 11
192.399743131
 21
257.399782609
  0
LINE
  8
0
  6
CONTINUOUS
 62
     2
 10
190.899743131
 20
254.899782609
 11
190.899743131
 21
255.899782609
  0
LINE
  8
0
  6
CONTINUOUS
 62
     2
 10
192.399743131
 20
254.899782609
 11
190.899743131
 21
254.899782609
  0
LINE
  8
0
  6
CONTINUOUS
 62
     2
 10
190.899743131
 20
255.899782609
 11
192.399743131
 21
255.899782609
  0
LINE
  8
0
  6
CONTINUOUS
 62
     2
 10
193.399743131
 20
254.899782609
 11
193.399743131
 21
253.399782609
  0
LINE
  8
0
  6
CONTINUOUS
 62
     2
 10
193.399743131
 20
257.399782609
 11
193.399743131
 21
255.899782609
  0
LINE
  8
0
  6
CONTINUOUS
 62
     2
 10
194.899743131
 20
254.899782609
 11
193.399743131
 21
254.899782609
  0
LINE
  8
0
  6
CONTINUOUS
 62
     2
 10
193.399743131
 20
255.899782609
 11
194.899743131
 21
255.899782609
  0
LINE
  8
0
  6
CONTINUOUS
 62
     2
 10
193.399743131
 20
253.399782609
 11
192.399743131
 21
253.399782609
  0
LINE
  8
0
  6
CONTINUOUS
 62
     2
 10
192.399743131
 20
257.399782609
 11
193.399743131
 21
257.399782609
  0
CIRCLE
  8
0
  6
CONTINUOUS
 62
     2
 10
192.899743131
 20
255.399782609
 40
2.8
  0
LINE
  8
0
  6
CONTINUOUS
 62
     2
 10
189.899743131
 20
249.999782609
 11
189.899743131
 21
261.399782609
  0
LINE
  8
0
  6
CONTINUOUS
 62
     2
 10
195.899743131
 20
249.999782609
 11
195.899743131
 21
261.399782609
  0
LINE
  8
0
  6
CONTINUOUS
 62
     2
 10
201.899743131
 20
255.399782609
 11
201.899743131
 21
254.899782609
  0
LINE
  8
0
  6
CONTINUOUS
 62
     2
 10
201.899743131
 20
255.899782609
 11
201.899743131
 21
255.399782609
  0
LINE
  8
0
  6
CONTINUOUS
 62
     2
 10
199.399743131
 20
253.399782609
 11
199.399743131
 21
254.899782609
  0
LINE
  8
0
  6
CONTINUOUS
 62
     2
 10
199.399743131
 20
255.899782609
 11
199.399743131
 21
257.399782609
  0
LINE
  8
0
  6
CONTINUOUS
 62
     2
 10
197.899743131
 20
254.899782609
 11
197.899743131
 21
255.899782609
  0
LINE
  8
0
  6
CONTINUOUS
 62
     2
 10
199.399743131
 20
254.899782609
 11
197.899743131
 21
254.899782609
  0
LINE
  8
0
  6
CONTINUOUS
 62
     2
 10
197.899743131
 20
255.899782609
 11
199.399743131
 21
255.899782609
  0
LINE
  8
0
  6
CONTINUOUS
 62
     2
 10
200.399743131
 20
254.899782609
 11
200.399743131
 21
253.399782609
  0
LINE
  8
0
  6
CONTINUOUS
 62
     2
 10
200.399743131
 20
257.399782609
 11
200.399743131
 21
255.899782609
  0
LINE
  8
0
  6
CONTINUOUS
 62
     2
 10
201.899743131
 20
254.899782609
 11
200.399743131
 21
254.899782609
  0
LINE
  8
0
  6
CONTINUOUS
 62
     2
 10
200.399743131
 20
255.899782609
 11
201.899743131
 21
255.899782609
  0
LINE
  8
0
  6
CONTINUOUS
 62
     2
 10
200.399743131
 20
253.399782609
 11
199.399743131
 21
253.399782609
  0
LINE
  8
0
  6
CONTINUOUS
 62
     2
 10
199.399743131
 20
257.399782609
 11
200.399743131
 21
257.399782609
  0
CIRCLE
  8
0
  6
CONTINUOUS
 62
     2
 10
199.899743131
 20
255.399782609
 40
2.8
  0
LINE
  8
0
  6
CONTINUOUS
 62
     2
 10
196.899743131
 20
249.999782609
 11
196.899743131
 21
261.399782609
  0
LINE
  8
0
  6
CONTINUOUS
 62
     2
 10
202.899743131
 20
249.999782609
 11
202.899743131
 21
261.399782609
  0
LINE
  8
0
  6
CONTINUOUS
 62
     2
 10
203.899743131
 20
249.999782609
 11
203.899743131
 21
261.399782609
  0
LINE
  8
0
  6
CONTINUOUS
 62
     2
 10
208.899743131
 20
255.399782609
 11
208.899743131
 21
254.899782609
  0
LINE
  8
0
  6
CONTINUOUS
 62
     2
 10
208.899743131
 20
255.899782609
 11
208.899743131
 21
255.399782609
  0
LINE
  8
0
  6
CONTINUOUS
 62
     2
 10
206.399743131
 20
253.399782609
 11
206.399743131
 21
254.899782609
  0
LINE
  8
0
  6
CONTINUOUS
 62
     2
 10
206.399743131
 20
255.899782609
 11
206.399743131
 21
257.399782609
  0
LINE
  8
0
  6
CONTINUOUS
 62
     2
 10
204.899743131
 20
254.899782609
 11
204.899743131
 21
255.899782609
  0
LINE
  8
0
  6
CONTINUOUS
 62
     2
 10
206.399743131
 20
254.899782609
 11
204.899743131
 21
254.899782609
  0
LINE
  8
0
  6
CONTINUOUS
 62
     2
 10
204.899743131
 20
255.899782609
 11
206.399743131
 21
255.899782609
  0
LINE
  8
0
  6
CONTINUOUS
 62
     2
 10
207.399743131
 20
254.899782609
 11
207.399743131
 21
253.399782609
  0
LINE
  8
0
  6
CONTINUOUS
 62
     2
 10
207.399743131
 20
257.399782609
 11
207.399743131
 21
255.899782609
  0
LINE
  8
0
  6
CONTINUOUS
 62
     2
 10
208.899743131
 20
254.899782609
 11
207.399743131
 21
254.899782609
  0
LINE
  8
0
  6
CONTINUOUS
 62
     2
 10
207.399743131
 20
255.899782609
 11
208.899743131
 21
255.899782609
  0
LINE
  8
0
  6
CONTINUOUS
 62
     2
 10
207.399743131
 20
253.399782609
 11
206.399743131
 21
253.399782609
  0
LINE
  8
0
  6
CONTINUOUS
 62
     2
 10
206.399743131
 20
257.399782609
 11
207.399743131
 21
257.399782609
  0
CIRCLE
  8
0
  6
CONTINUOUS
 62
     2
 10
206.899743131
 20
255.399782609
 40
2.8
  0
LINE
  8
0
  6
CONTINUOUS
 62
     2
 10
209.899743131
 20
249.999782609
 11
209.899743131
 21
261.399782609
  0
LINE
  8
0
  6
CONTINUOUS
 62
     2
 10
215.899743131
 20
255.399782609
 11
215.899743131
 21
254.899782609
  0
LINE
  8
0
  6
CONTINUOUS
 62
     2
 10
215.899743131
 20
255.899782609
 11
215.899743131
 21
255.399782609
  0
LINE
  8
0
  6
CONTINUOUS
 62
     2
 10
213.399743131
 20
253.399782609
 11
213.399743131
 21
254.899782609
  0
LINE
  8
0
  6
CONTINUOUS
 62
     2
 10
213.399743131
 20
255.899782609
 11
213.399743131
 21
257.399782609
  0
LINE
  8
0
  6
CONTINUOUS
 62
     2
 10
211.899743131
 20
254.899782609
 11
211.899743131
 21
255.899782609
  0
LINE
  8
0
  6
CONTINUOUS
 62
     2
 10
213.399743131
 20
254.899782609
 11
211.899743131
 21
254.899782609
  0
LINE
  8
0
  6
CONTINUOUS
 62
     2
 10
211.899743131
 20
255.899782609
 11
213.399743131
 21
255.899782609
  0
LINE
  8
0
  6
CONTINUOUS
 62
     2
 10
214.399743131
 20
254.899782609
 11
214.399743131
 21
253.399782609
  0
LINE
  8
0
  6
CONTINUOUS
 62
     2
 10
214.399743131
 20
257.399782609
 11
214.399743131
 21
255.899782609
  0
LINE
  8
0
  6
CONTINUOUS
 62
     2
 10
215.899743131
 20
254.899782609
 11
214.399743131
 21
254.899782609
  0
LINE
  8
0
  6
CONTINUOUS
 62
     2
 10
214.399743131
 20
255.899782609
 11
215.899743131
 21
255.899782609
  0
LINE
  8
0
  6
CONTINUOUS
 62
     2
 10
214.399743131
 20
253.399782609
 11
213.399743131
 21
253.399782609
  0
LINE
  8
0
  6
CONTINUOUS
 62
     2
 10
213.399743131
 20
257.399782609
 11
214.399743131
 21
257.399782609
  0
CIRCLE
  8
0
  6
CONTINUOUS
 62
     2
 10
213.899743131
 20
255.399782609
 40
2.8
  0
LINE
  8
0
  6
CONTINUOUS
 62
     2
 10
210.899743131
 20
249.999782609
 11
210.899743131
 21
261.399782609
  0
LINE
  8
0
  6
CONTINUOUS
 62
     2
 10
216.899743131
 20
249.999782609
 11
216.899743131
 21
261.399782609
  0
LINE
  8
0
  6
CONTINUOUS
 62
     2
 10
174.899743131
 20
261.399782609
 11
217.899743131
 21
261.399782609
  0
LINE
  8
0
  6
CONTINUOUS
 62
     2
 10
174.899743131
 20
249.999782609
 11
217.899743131
 21
249.999782609
  0
LINE
  8
0
  6
CONTINUOUS
 62
     2
 10
217.899743131
 20
249.999782609
 11
217.899743131
 21
261.399782609
  0
LINE
  8
0
  6
CONTINUOUS
 62
     3
 10
139.35
 20
263.399782609
 11
140.15
 21
263.399782609
  0
LINE
  8
0
  6
CONTINUOUS
 62
     3
 10
140.45
 20
264.549782609
 11
140.15
 21
263.399782609
  0
LINE
  8
0
  6
CONTINUOUS
 62
     3
 10
139.15
 20
264.549782609
 11
139.35
 21
263.399782609
  0
LINE
  8
0
  6
CONTINUOUS
 62
     3
 10
140.15
 20
263.399782609
 11
140.15
 21
242.199782609
  0
LINE
  8
0
  6
CONTINUOUS
 62
     3
 10
139.35
 20
220.999782609
 11
140.15
 21
220.999782609
  0
LINE
  8
0
  6
CONTINUOUS
 62
     3
 10
140.45
 20
219.849782609
 11
140.15
 21
220.999782609
  0
LINE
  8
0
  6
CONTINUOUS
 62
     3
 10
139.15
 20
219.849782609
 11
139.35
 21
220.999782609
  0
LINE
  8
0
  6
CONTINUOUS
 62
     3
 10
140.15
 20
220.999782609
 11
140.15
 21
242.199782609
  0
LINE
  8
0
  6
CONTINUOUS
 62
     3
 10
229.4
 20
219.849782609
 11
138.95
 21
219.849782609
  0
ARC
  8
0
  6
CONTINUOUS
 62
     3
 10
138.95
 20
220.149782609
 40
0.3
 50
180.0
 51
270.0
  0
LINE
  8
0
  6
CONTINUOUS
 62
     3
 10
229.4
 20
264.549782609
 11
138.95
 21
264.549782609
  0
LINE
  8
0
  6
CONTINUOUS
 62
     3
 10
138.65
 20
264.249782609
 11
138.65
 21
220.149782609
  0
ARC
  8
0
  6
CONTINUOUS
 62
     3
 10
138.95
 20
264.249782609
 40
0.3
 50
90.0
 51
180.0
  0
LINE
  8
0
  6
CONTINUOUS
 62
     3
 10
229.45
 20
263.399782609
 11
228.65
 21
263.399782609
  0
LINE
  8
0
  6
CONTINUOUS
 62
     3
 10
228.35
 20
264.549782609
 11
228.65
 21
263.399782609
  0
LINE
  8
0
  6
CONTINUOUS
 62
     3
 10
229.65
 20
264.549782609
 11
229.45
 21
263.399782609
  0
LINE
  8
0
  6
CONTINUOUS
 62
     3
 10
228.65
 20
263.399782609
 11
228.65
 21
242.199782609
  0
LINE
  8
0
  6
CONTINUOUS
 62
     3
 10
229.45
 20
220.999782609
 11
228.65
 21
220.999782609
  0
LINE
  8
0
  6
CONTINUOUS
 62
     3
 10
228.35
 20
219.849782609
 11
228.65
 21
220.999782609
  0
LINE
  8
0
  6
CONTINUOUS
 62
     3
 10
229.65
 20
219.849782609
 11
229.45
 21
220.999782609
  0
LINE
  8
0
  6
CONTINUOUS
 62
     3
 10
228.65
 20
220.999782609
 11
228.65
 21
242.199782609
  0
ARC
  8
0
  6
CONTINUOUS
 62
     3
 10
229.85
 20
220.149782609
 40
0.3
 50
270.0
 51
0.0
  0
LINE
  8
0
  6
CONTINUOUS
 62
     3
 10
230.15
 20
264.249782609
 11
230.15
 21
220.149782609
  0
ARC
  8
0
  6
CONTINUOUS
 62
     3
 10
229.85
 20
264.249782609
 40
0.3
 50
0.0
 51
90.0
  0
LINE
  8
0
  6
CONTINUOUS
 62
     2
 10
152.899743131
 20
188.45
 11
150.899743131
 21
188.45
  0
LINE
  8
0
  6
CONTINUOUS
 62
     2
 10
150.899743131
 20
188.45
 11
150.899743131
 21
187.45
  0
ARC
  8
0
  6
CONTINUOUS
 62
     2
 10
150.899743131
 20
187.45
 40
1.0
 50
90.0
 51
180.0
  0
LINE
  8
0
  6
CONTINUOUS
 62
     2
 10
152.099743131
 20
188.45
 11
152.099743131
 21
188.65
  0
LINE
  8
0
  6
CONTINUOUS
 62
     2
 10
152.099743131
 20
188.65
 11
150.599743131
 21
188.65
  0
LINE
  8
0
  6
CONTINUOUS
 62
     2
 10
150.599743131
 20
188.65
 11
150.399743131
 21
188.45
  0
LINE
  8
0
  6
CONTINUOUS
 62
     2
 10
152.899743131
 20
188.45
 11
154.899743131
 21
188.45
  0
LINE
  8
0
  6
CONTINUOUS
 62
     2
 10
154.899743131
 20
188.45
 11
154.899743131
 21
187.45
  0
ARC
  8
0
  6
CONTINUOUS
 62
     2
 10
154.899743131
 20
187.45
 40
1.0
 50
0.0
 51
90.0
  0
LINE
  8
0
  6
CONTINUOUS
 62
     2
 10
153.699743131
 20
188.45
 11
153.699743131
 21
188.65
  0
LINE
  8
0
  6
CONTINUOUS
 62
     2
 10
153.699743131
 20
188.65
 11
155.199743131
 21
188.65
  0
LINE
  8
0
  6
CONTINUOUS
 62
     2
 10
155.199743131
 20
188.65
 11
155.399743131
 21
188.45
  0
ARC
  8
0
  6
CONTINUOUS
 62
     2
 10
151.099743131
 20
190.45
 40
1.0
 50
90.0
 51
180.0
  0
LINE
  8
0
  6
CONTINUOUS
 62
     2
 10
150.099743131
 20
189.45
 11
152.899743131
 21
189.45
  0
LINE
  8
0
  6
CONTINUOUS
 62
     2
 10
150.099743131
 20
190.45
 11
150.099743131
 21
189.45
  0
ARC
  8
0
  6
CONTINUOUS
 62
     2
 10
154.699743131
 20
190.45
 40
1.0
 50
0.0
 51
90.0
  0
LINE
  8
0
  6
CONTINUOUS
 62
     2
 10
154.699743131
 20
191.45
 11
151.099743131
 21
191.45
  0
ARC
  8
0
  6
CONTINUOUS
 62
     2
 10
150.299743131
 20
189.05
 40
0.4
 50
90.000056323
 51
180.0
  0
LINE
  8
0
  6
CONTINUOUS
 62
     2
 10
150.899743131
 20
188.45
 11
149.899743131
 21
188.45
  0
LINE
  8
0
  6
CONTINUOUS
 62
     2
 10
154.799743131
 20
188.45
 11
155.899743131
 21
188.45
  0
ARC
  8
0
  6
CONTINUOUS
 62
     2
 10
155.499743131
 20
189.05
 40
0.4
 50
0.0
 51
89.999943677
  0
LINE
  8
0
  6
CONTINUOUS
 62
     2
 10
155.699743131
 20
190.45
 11
155.699743131
 21
189.45
  0
LINE
  8
0
  6
CONTINUOUS
 62
     2
 10
155.699743131
 20
189.45
 11
152.899743131
 21
189.45
  0
LINE
  8
0
  6
CONTINUOUS
 62
     2
 10
148.899743131
 20
193.95
 11
149.899743131
 21
193.95
  0
LINE
  8
0
  6
CONTINUOUS
 62
     2
 10
149.899743131
 20
187.45
 11
155.899743131
 21
187.45
  0
LINE
  8
0
  6
CONTINUOUS
 62
     2
 10
159.899743131
 20
188.45
 11
157.899743131
 21
188.45
  0
LINE
  8
0
  6
CONTINUOUS
 62
     2
 10
157.899743131
 20
188.45
 11
157.899743131
 21
187.45
  0
ARC
  8
0
  6
CONTINUOUS
 62
     2
 10
157.899743131
 20
187.45
 40
1.0
 50
90.0
 51
180.0
  0
LINE
  8
0
  6
CONTINUOUS
 62
     2
 10
159.099743131
 20
188.45
 11
159.099743131
 21
188.65
  0
LINE
  8
0
  6
CONTINUOUS
 62
     2
 10
159.099743131
 20
188.65
 11
157.599743131
 21
188.65
  0
LINE
  8
0
  6
CONTINUOUS
 62
     2
 10
157.599743131
 20
188.65
 11
157.399743131
 21
188.45
  0
LINE
  8
0
  6
CONTINUOUS
 62
     2
 10
159.899743131
 20
188.45
 11
161.899743131
 21
188.45
  0
LINE
  8
0
  6
CONTINUOUS
 62
     2
 10
161.899743131
 20
188.45
 11
161.899743131
 21
187.45
  0
ARC
  8
0
  6
CONTINUOUS
 62
     2
 10
161.899743131
 20
187.45
 40
1.0
 50
0.0
 51
90.0
  0
LINE
  8
0
  6
CONTINUOUS
 62
     2
 10
160.699743131
 20
188.45
 11
160.699743131
 21
188.65
  0
LINE
  8
0
  6
CONTINUOUS
 62
     2
 10
160.699743131
 20
188.65
 11
162.199743131
 21
188.65
  0
LINE
  8
0
  6
CONTINUOUS
 62
     2
 10
162.199743131
 20
188.65
 11
162.399743131
 21
188.45
  0
ARC
  8
0
  6
CONTINUOUS
 62
     2
 10
158.099743131
 20
190.45
 40
1.0
 50
90.0
 51
180.0
  0
LINE
  8
0
  6
CONTINUOUS
 62
     2
 10
157.099743131
 20
189.45
 11
159.899743131
 21
189.45
  0
LINE
  8
0
  6
CONTINUOUS
 62
     2
 10
157.099743131
 20
190.45
 11
157.099743131
 21
189.45
  0
ARC
  8
0
  6
CONTINUOUS
 62
     2
 10
161.699743131
 20
190.45
 40
1.0
 50
0.0
 51
90.0
  0
LINE
  8
0
  6
CONTINUOUS
 62
     2
 10
161.699743131
 20
191.45
 11
158.099743131
 21
191.45
  0
ARC
  8
0
  6
CONTINUOUS
 62
     2
 10
157.299743131
 20
189.05
 40
0.4
 50
90.000056323
 51
180.0
  0
LINE
  8
0
  6
CONTINUOUS
 62
     2
 10
157.899743131
 20
188.45
 11
156.899743131
 21
188.45
  0
LINE
  8
0
  6
CONTINUOUS
 62
     2
 10
161.799743131
 20
188.45
 11
162.899743131
 21
188.45
  0
ARC
  8
0
  6
CONTINUOUS
 62
     2
 10
162.499743131
 20
189.05
 40
0.4
 50
0.0
 51
89.999943677
  0
LINE
  8
0
  6
CONTINUOUS
 62
     2
 10
162.699743131
 20
190.45
 11
162.699743131
 21
189.45
  0
LINE
  8
0
  6
CONTINUOUS
 62
     2
 10
162.699743131
 20
189.45
 11
159.899743131
 21
189.45
  0
LINE
  8
0
  6
CONTINUOUS
 62
     2
 10
155.899743131
 20
193.95
 11
156.899743131
 21
193.95
  0
LINE
  8
0
  6
CONTINUOUS
 62
     2
 10
156.899743131
 20
187.45
 11
162.899743131
 21
187.45
  0
LINE
  8
0
  6
CONTINUOUS
 62
     2
 10
162.899743131
 20
193.95
 11
163.899743131
 21
193.95
  0
LINE
  8
0
  6
CONTINUOUS
 62
     2
 10
180.899743131
 20
188.45
 11
178.899743131
 21
188.45
  0
LINE
  8
0
  6
CONTINUOUS
 62
     2
 10
178.899743131
 20
188.45
 11
178.899743131
 21
187.45
  0
ARC
  8
0
  6
CONTINUOUS
 62
     2
 10
178.899743131
 20
187.45
 40
1.0
 50
90.0
 51
180.0
  0
LINE
  8
0
  6
CONTINUOUS
 62
     2
 10
180.099743131
 20
188.45
 11
180.099743131
 21
188.65
  0
LINE
  8
0
  6
CONTINUOUS
 62
     2
 10
180.099743131
 20
188.65
 11
178.599743131
 21
188.65
  0
LINE
  8
0
  6
CONTINUOUS
 62
     2
 10
178.599743131
 20
188.65
 11
178.399743131
 21
188.45
  0
LINE
  8
0
  6
CONTINUOUS
 62
     2
 10
180.899743131
 20
188.45
 11
182.899743131
 21
188.45
  0
LINE
  8
0
  6
CONTINUOUS
 62
     2
 10
182.899743131
 20
188.45
 11
182.899743131
 21
187.45
  0
ARC
  8
0
  6
CONTINUOUS
 62
     2
 10
182.899743131
 20
187.45
 40
1.0
 50
0.0
 51
90.0
  0
LINE
  8
0
  6
CONTINUOUS
 62
     2
 10
181.699743131
 20
188.45
 11
181.699743131
 21
188.65
  0
LINE
  8
0
  6
CONTINUOUS
 62
     2
 10
181.699743131
 20
188.65
 11
183.199743131
 21
188.65
  0
LINE
  8
0
  6
CONTINUOUS
 62
     2
 10
183.199743131
 20
188.65
 11
183.399743131
 21
188.45
  0
ARC
  8
0
  6
CONTINUOUS
 62
     2
 10
179.099743131
 20
190.45
 40
1.0
 50
90.0
 51
180.0
  0
LINE
  8
0
  6
CONTINUOUS
 62
     2
 10
178.099743131
 20
189.45
 11
180.899743131
 21
189.45
  0
LINE
  8
0
  6
CONTINUOUS
 62
     2
 10
178.099743131
 20
190.45
 11
178.099743131
 21
189.45
  0
ARC
  8
0
  6
CONTINUOUS
 62
     2
 10
182.699743131
 20
190.45
 40
1.0
 50
0.0
 51
90.0
  0
LINE
  8
0
  6
CONTINUOUS
 62
     2
 10
182.699743131
 20
191.45
 11
179.099743131
 21
191.45
  0
ARC
  8
0
  6
CONTINUOUS
 62
     2
 10
178.299743131
 20
189.05
 40
0.4
 50
90.000056323
 51
180.0
  0
LINE
  8
0
  6
CONTINUOUS
 62
     2
 10
178.899743131
 20
188.45
 11
177.899743131
 21
188.45
  0
LINE
  8
0
  6
CONTINUOUS
 62
     2
 10
182.799743131
 20
188.45
 11
183.899743131
 21
188.45
  0
ARC
  8
0
  6
CONTINUOUS
 62
     2
 10
183.499743131
 20
189.05
 40
0.4
 50
0.0
 51
89.999943677
  0
LINE
  8
0
  6
CONTINUOUS
 62
     2
 10
183.699743131
 20
190.45
 11
183.699743131
 21
189.45
  0
LINE
  8
0
  6
CONTINUOUS
 62
     2
 10
183.699743131
 20
189.45
 11
180.899743131
 21
189.45
  0
LINE
  8
0
  6
CONTINUOUS
 62
     2
 10
176.899743131
 20
193.95
 11
177.899743131
 21
193.95
  0
LINE
  8
0
  6
CONTINUOUS
 62
     2
 10
177.899743131
 20
187.45
 11
183.899743131
 21
187.45
  0
LINE
  8
0
  6
CONTINUOUS
 62
     2
 10
187.899743131
 20
188.45
 11
185.899743131
 21
188.45
  0
LINE
  8
0
  6
CONTINUOUS
 62
     2
 10
185.899743131
 20
188.45
 11
185.899743131
 21
187.45
  0
ARC
  8
0
  6
CONTINUOUS
 62
     2
 10
185.899743131
 20
187.45
 40
1.0
 50
90.0
 51
180.0
  0
LINE
  8
0
  6
CONTINUOUS
 62
     2
 10
187.099743131
 20
188.45
 11
187.099743131
 21
188.65
  0
LINE
  8
0
  6
CONTINUOUS
 62
     2
 10
187.099743131
 20
188.65
 11
185.599743131
 21
188.65
  0
LINE
  8
0
  6
CONTINUOUS
 62
     2
 10
185.599743131
 20
188.65
 11
185.399743131
 21
188.45
  0
LINE
  8
0
  6
CONTINUOUS
 62
     2
 10
187.899743131
 20
188.45
 11
189.899743131
 21
188.45
  0
LINE
  8
0
  6
CONTINUOUS
 62
     2
 10
189.899743131
 20
188.45
 11
189.899743131
 21
187.45
  0
ARC
  8
0
  6
CONTINUOUS
 62
     2
 10
189.899743131
 20
187.45
 40
1.0
 50
0.0
 51
90.0
  0
LINE
  8
0
  6
CONTINUOUS
 62
     2
 10
188.699743131
 20
188.45
 11
188.699743131
 21
188.65
  0
LINE
  8
0
  6
CONTINUOUS
 62
     2
 10
188.699743131
 20
188.65
 11
190.199743131
 21
188.65
  0
LINE
  8
0
  6
CONTINUOUS
 62
     2
 10
190.199743131
 20
188.65
 11
190.399743131
 21
188.45
  0
ARC
  8
0
  6
CONTINUOUS
 62
     2
 10
186.099743131
 20
190.45
 40
1.0
 50
90.0
 51
180.0
  0
LINE
  8
0
  6
CONTINUOUS
 62
     2
 10
185.099743131
 20
189.45
 11
187.899743131
 21
189.45
  0
LINE
  8
0
  6
CONTINUOUS
 62
     2
 10
185.099743131
 20
190.45
 11
185.099743131
 21
189.45
  0
ARC
  8
0
  6
CONTINUOUS
 62
     2
 10
189.699743131
 20
190.45
 40
1.0
 50
0.0
 51
90.0
  0
LINE
  8
0
  6
CONTINUOUS
 62
     2
 10
189.699743131
 20
191.45
 11
186.099743131
 21
191.45
  0
ARC
  8
0
  6
CONTINUOUS
 62
     2
 10
185.299743131
 20
189.05
 40
0.4
 50
90.000056323
 51
180.0
  0
LINE
  8
0
  6
CONTINUOUS
 62
     2
 10
185.899743131
 20
188.45
 11
184.899743131
 21
188.45
  0
LINE
  8
0
  6
CONTINUOUS
 62
     2
 10
189.799743131
 20
188.45
 11
190.899743131
 21
188.45
  0
ARC
  8
0
  6
CONTINUOUS
 62
     2
 10
190.499743131
 20
189.05
 40
0.4
 50
0.0
 51
89.999943677
  0
LINE
  8
0
  6
CONTINUOUS
 62
     2
 10
190.699743131
 20
190.45
 11
190.699743131
 21
189.45
  0
LINE
  8
0
  6
CONTINUOUS
 62
     2
 10
190.699743131
 20
189.45
 11
187.899743131
 21
189.45
  0
LINE
  8
0
  6
CONTINUOUS
 62
     2
 10
183.899743131
 20
193.95
 11
184.899743131
 21
193.95
  0
LINE
  8
0
  6
CONTINUOUS
 62
     2
 10
184.899743131
 20
187.45
 11
190.899743131
 21
187.45
  0
LINE
  8
0
  6
CONTINUOUS
 62
     2
 10
194.899743131
 20
188.45
 11
192.899743131
 21
188.45
  0
LINE
  8
0
  6
CONTINUOUS
 62
     2
 10
192.899743131
 20
188.45
 11
192.899743131
 21
187.45
  0
ARC
  8
0
  6
CONTINUOUS
 62
     2
 10
192.899743131
 20
187.45
 40
1.0
 50
90.0
 51
180.0
  0
LINE
  8
0
  6
CONTINUOUS
 62
     2
 10
194.099743131
 20
188.45
 11
194.099743131
 21
188.65
  0
LINE
  8
0
  6
CONTINUOUS
 62
     2
 10
194.099743131
 20
188.65
 11
192.599743131
 21
188.65
  0
LINE
  8
0
  6
CONTINUOUS
 62
     2
 10
192.599743131
 20
188.65
 11
192.399743131
 21
188.45
  0
LINE
  8
0
  6
CONTINUOUS
 62
     2
 10
194.899743131
 20
188.45
 11
196.899743131
 21
188.45
  0
LINE
  8
0
  6
CONTINUOUS
 62
     2
 10
196.899743131
 20
188.45
 11
196.899743131
 21
187.45
  0
ARC
  8
0
  6
CONTINUOUS
 62
     2
 10
196.899743131
 20
187.45
 40
1.0
 50
0.0
 51
90.0
  0
LINE
  8
0
  6
CONTINUOUS
 62
     2
 10
195.699743131
 20
188.45
 11
195.699743131
 21
188.65
  0
LINE
  8
0
  6
CONTINUOUS
 62
     2
 10
195.699743131
 20
188.65
 11
197.199743131
 21
188.65
  0
LINE
  8
0
  6
CONTINUOUS
 62
     2
 10
197.199743131
 20
188.65
 11
197.399743131
 21
188.45
  0
ARC
  8
0
  6
CONTINUOUS
 62
     2
 10
193.099743131
 20
190.45
 40
1.0
 50
90.0
 51
180.0
  0
LINE
  8
0
  6
CONTINUOUS
 62
     2
 10
192.099743131
 20
189.45
 11
194.899743131
 21
189.45
  0
LINE
  8
0
  6
CONTINUOUS
 62
     2
 10
192.099743131
 20
190.45
 11
192.099743131
 21
189.45
  0
ARC
  8
0
  6
CONTINUOUS
 62
     2
 10
196.699743131
 20
190.45
 40
1.0
 50
0.0
 51
90.0
  0
LINE
  8
0
  6
CONTINUOUS
 62
     2
 10
196.699743131
 20
191.45
 11
193.099743131
 21
191.45
  0
ARC
  8
0
  6
CONTINUOUS
 62
     2
 10
192.299743131
 20
189.05
 40
0.4
 50
90.000056323
 51
180.0
  0
LINE
  8
0
  6
CONTINUOUS
 62
     2
 10
192.899743131
 20
188.45
 11
191.899743131
 21
188.45
  0
LINE
  8
0
  6
CONTINUOUS
 62
     2
 10
196.799743131
 20
188.45
 11
197.899743131
 21
188.45
  0
ARC
  8
0
  6
CONTINUOUS
 62
     2
 10
197.499743131
 20
189.05
 40
0.4
 50
0.0
 51
89.999943677
  0
LINE
  8
0
  6
CONTINUOUS
 62
     2
 10
197.699743131
 20
190.45
 11
197.699743131
 21
189.45
  0
LINE
  8
0
  6
CONTINUOUS
 62
     2
 10
197.699743131
 20
189.45
 11
194.899743131
 21
189.45
  0
LINE
  8
0
  6
CONTINUOUS
 62
     2
 10
191.899743131
 20
187.45
 11
197.899743131
 21
187.45
  0
LINE
  8
0
  6
CONTINUOUS
 62
     2
 10
201.899743131
 20
188.45
 11
199.899743131
 21
188.45
  0
LINE
  8
0
  6
CONTINUOUS
 62
     2
 10
199.899743131
 20
188.45
 11
199.899743131
 21
187.45
  0
ARC
  8
0
  6
CONTINUOUS
 62
     2
 10
199.899743131
 20
187.45
 40
1.0
 50
90.0
 51
180.0
  0
LINE
  8
0
  6
CONTINUOUS
 62
     2
 10
201.099743131
 20
188.45
 11
201.099743131
 21
188.65
  0
LINE
  8
0
  6
CONTINUOUS
 62
     2
 10
201.099743131
 20
188.65
 11
199.599743131
 21
188.65
  0
LINE
  8
0
  6
CONTINUOUS
 62
     2
 10
199.599743131
 20
188.65
 11
199.399743131
 21
188.45
  0
LINE
  8
0
  6
CONTINUOUS
 62
     2
 10
201.899743131
 20
188.45
 11
203.899743131
 21
188.45
  0
LINE
  8
0
  6
CONTINUOUS
 62
     2
 10
203.899743131
 20
188.45
 11
203.899743131
 21
187.45
  0
ARC
  8
0
  6
CONTINUOUS
 62
     2
 10
203.899743131
 20
187.45
 40
1.0
 50
0.0
 51
90.0
  0
LINE
  8
0
  6
CONTINUOUS
 62
     2
 10
202.699743131
 20
188.45
 11
202.699743131
 21
188.65
  0
LINE
  8
0
  6
CONTINUOUS
 62
     2
 10
202.699743131
 20
188.65
 11
204.199743131
 21
188.65
  0
LINE
  8
0
  6
CONTINUOUS
 62
     2
 10
204.199743131
 20
188.65
 11
204.399743131
 21
188.45
  0
ARC
  8
0
  6
CONTINUOUS
 62
     2
 10
200.099743131
 20
190.45
 40
1.0
 50
90.0
 51
180.0
  0
LINE
  8
0
  6
CONTINUOUS
 62
     2
 10
199.099743131
 20
189.45
 11
201.899743131
 21
189.45
  0
LINE
  8
0
  6
CONTINUOUS
 62
     2
 10
199.099743131
 20
190.45
 11
199.099743131
 21
189.45
  0
ARC
  8
0
  6
CONTINUOUS
 62
     2
 10
203.699743131
 20
190.45
 40
1.0
 50
0.0
 51
90.0
  0
LINE
  8
0
  6
CONTINUOUS
 62
     2
 10
203.699743131
 20
191.45
 11
200.099743131
 21
191.45
  0
ARC
  8
0
  6
CONTINUOUS
 62
     2
 10
199.299743131
 20
189.05
 40
0.4
 50
90.000056323
 51
180.0
  0
LINE
  8
0
  6
CONTINUOUS
 62
     2
 10
199.899743131
 20
188.45
 11
198.899743131
 21
188.45
  0
LINE
  8
0
  6
CONTINUOUS
 62
     2
 10
203.799743131
 20
188.45
 11
204.899743131
 21
188.45
  0
ARC
  8
0
  6
CONTINUOUS
 62
     2
 10
204.499743131
 20
189.05
 40
0.4
 50
0.0
 51
89.999943677
  0
LINE
  8
0
  6
CONTINUOUS
 62
     2
 10
204.699743131
 20
190.45
 11
204.699743131
 21
189.45
  0
LINE
  8
0
  6
CONTINUOUS
 62
     2
 10
204.699743131
 20
189.45
 11
201.899743131
 21
189.45
  0
LINE
  8
0
  6
CONTINUOUS
 62
     2
 10
197.899743131
 20
193.95
 11
198.899743131
 21
193.95
  0
LINE
  8
0
  6
CONTINUOUS
 62
     2
 10
198.899743131
 20
187.45
 11
204.899743131
 21
187.45
  0
LINE
  8
0
  6
CONTINUOUS
 62
     2
 10
190.899743131
 20
193.95
 11
191.899743131
 21
193.95
  0
LINE
  8
0
  6
CONTINUOUS
 62
     2
 10
148.899743131
 20
193.95
 11
148.899743131
 21
186.45
  0
LINE
  8
0
  6
CONTINUOUS
 62
     2
 10
163.899743131
 20
186.45
 11
163.899743131
 21
193.95
  0
LINE
  8
0
  6
CONTINUOUS
 62
     2
 10
162.899743131
 20
186.45
 11
162.899743131
 21
193.95
  0
LINE
  8
0
  6
CONTINUOUS
 62
     2
 10
156.899743131
 20
186.45
 11
156.899743131
 21
193.95
  0
LINE
  8
0
  6
CONTINUOUS
 62
     2
 10
155.899743131
 20
186.45
 11
155.899743131
 21
193.95
  0
LINE
  8
0
  6
CONTINUOUS
 62
     2
 10
149.899743131
 20
186.45
 11
149.899743131
 21
193.95
  0
LINE
  8
0
  6
CONTINUOUS
 62
     2
 10
148.899743131
 20
186.45
 11
148.899743131
 21
193.95
  0
LINE
  8
0
  6
CONTINUOUS
 62
     2
 10
176.899743131
 20
186.45
 11
176.899743131
 21
193.95
  0
LINE
  8
0
  6
CONTINUOUS
 62
     2
 10
176.899743131
 20
193.95
 11
176.899743131
 21
186.45
  0
LINE
  8
0
  6
CONTINUOUS
 62
     2
 10
177.899743131
 20
186.45
 11
177.899743131
 21
193.95
  0
LINE
  8
0
  6
CONTINUOUS
 62
     2
 10
183.899743131
 20
186.45
 11
183.899743131
 21
193.95
  0
LINE
  8
0
  6
CONTINUOUS
 62
     2
 10
184.899743131
 20
186.45
 11
184.899743131
 21
193.95
  0
LINE
  8
0
  6
CONTINUOUS
 62
     2
 10
190.899743131
 20
186.45
 11
190.899743131
 21
193.95
  0
LINE
  8
0
  6
CONTINUOUS
 62
     2
 10
191.899743131
 20
186.45
 11
191.899743131
 21
193.95
  0
LINE
  8
0
  6
CONTINUOUS
 62
     2
 10
197.899743131
 20
186.45
 11
197.899743131
 21
193.95
  0
LINE
  8
0
  6
CONTINUOUS
 62
     2
 10
198.899743131
 20
186.45
 11
198.899743131
 21
193.95
  0
LINE
  8
0
  6
CONTINUOUS
 62
     2
 10
218.899743131
 20
193.95
 11
219.899743131
 21
193.95
  0
LINE
  8
0
  6
CONTINUOUS
 62
     2
 10
219.899743131
 20
186.45
 11
219.899743131
 21
193.95
  0
LINE
  8
0
  6
CONTINUOUS
 62
     2
 10
208.899743131
 20
188.45
 11
206.899743131
 21
188.45
  0
LINE
  8
0
  6
CONTINUOUS
 62
     2
 10
206.899743131
 20
188.45
 11
206.899743131
 21
187.45
  0
ARC
  8
0
  6
CONTINUOUS
 62
     2
 10
206.899743131
 20
187.45
 40
1.0
 50
90.0
 51
180.0
  0
LINE
  8
0
  6
CONTINUOUS
 62
     2
 10
208.099743131
 20
188.45
 11
208.099743131
 21
188.65
  0
LINE
  8
0
  6
CONTINUOUS
 62
     2
 10
208.099743131
 20
188.65
 11
206.599743131
 21
188.65
  0
LINE
  8
0
  6
CONTINUOUS
 62
     2
 10
206.599743131
 20
188.65
 11
206.399743131
 21
188.45
  0
LINE
  8
0
  6
CONTINUOUS
 62
     2
 10
208.899743131
 20
188.45
 11
210.899743131
 21
188.45
  0
LINE
  8
0
  6
CONTINUOUS
 62
     2
 10
210.899743131
 20
188.45
 11
210.899743131
 21
187.45
  0
ARC
  8
0
  6
CONTINUOUS
 62
     2
 10
210.899743131
 20
187.45
 40
1.0
 50
0.0
 51
90.0
  0
LINE
  8
0
  6
CONTINUOUS
 62
     2
 10
209.699743131
 20
188.45
 11
209.699743131
 21
188.65
  0
LINE
  8
0
  6
CONTINUOUS
 62
     2
 10
209.699743131
 20
188.65
 11
211.199743131
 21
188.65
  0
LINE
  8
0
  6
CONTINUOUS
 62
     2
 10
211.199743131
 20
188.65
 11
211.399743131
 21
188.45
  0
ARC
  8
0
  6
CONTINUOUS
 62
     2
 10
207.099743131
 20
190.45
 40
1.0
 50
90.0
 51
180.0
  0
LINE
  8
0
  6
CONTINUOUS
 62
     2
 10
206.099743131
 20
189.45
 11
208.899743131
 21
189.45
  0
LINE
  8
0
  6
CONTINUOUS
 62
     2
 10
206.099743131
 20
190.45
 11
206.099743131
 21
189.45
  0
ARC
  8
0
  6
CONTINUOUS
 62
     2
 10
210.699743131
 20
190.45
 40
1.0
 50
0.0
 51
90.0
  0
LINE
  8
0
  6
CONTINUOUS
 62
     2
 10
210.699743131
 20
191.45
 11
207.099743131
 21
191.45
  0
ARC
  8
0
  6
CONTINUOUS
 62
     2
 10
206.299743131
 20
189.05
 40
0.4
 50
90.000056323
 51
180.0
  0
LINE
  8
0
  6
CONTINUOUS
 62
     2
 10
206.899743131
 20
188.45
 11
205.899743131
 21
188.45
  0
LINE
  8
0
  6
CONTINUOUS
 62
     2
 10
210.799743131
 20
188.45
 11
211.899743131
 21
188.45
  0
ARC
  8
0
  6
CONTINUOUS
 62
     2
 10
211.499743131
 20
189.05
 40
0.4
 50
0.0
 51
89.999943677
  0
LINE
  8
0
  6
CONTINUOUS
 62
     2
 10
211.699743131
 20
190.45
 11
211.699743131
 21
189.45
  0
LINE
  8
0
  6
CONTINUOUS
 62
     2
 10
211.699743131
 20
189.45
 11
208.899743131
 21
189.45
  0
LINE
  8
0
  6
CONTINUOUS
 62
     2
 10
205.899743131
 20
187.45
 11
211.899743131
 21
187.45
  0
LINE
  8
0
  6
CONTINUOUS
 62
     2
 10
215.899743131
 20
188.45
 11
213.899743131
 21
188.45
  0
LINE
  8
0
  6
CONTINUOUS
 62
     2
 10
213.899743131
 20
188.45
 11
213.899743131
 21
187.45
  0
ARC
  8
0
  6
CONTINUOUS
 62
     2
 10
213.899743131
 20
187.45
 40
1.0
 50
90.0
 51
180.0
  0
LINE
  8
0
  6
CONTINUOUS
 62
     2
 10
215.099743131
 20
188.45
 11
215.099743131
 21
188.65
  0
LINE
  8
0
  6
CONTINUOUS
 62
     2
 10
215.099743131
 20
188.65
 11
213.599743131
 21
188.65
  0
LINE
  8
0
  6
CONTINUOUS
 62
     2
 10
213.599743131
 20
188.65
 11
213.399743131
 21
188.45
  0
LINE
  8
0
  6
CONTINUOUS
 62
     2
 10
215.899743131
 20
188.45
 11
217.899743131
 21
188.45
  0
LINE
  8
0
  6
CONTINUOUS
 62
     2
 10
217.899743131
 20
188.45
 11
217.899743131
 21
187.45
  0
ARC
  8
0
  6
CONTINUOUS
 62
     2
 10
217.899743131
 20
187.45
 40
1.0
 50
0.0
 51
90.0
  0
LINE
  8
0
  6
CONTINUOUS
 62
     2
 10
216.699743131
 20
188.45
 11
216.699743131
 21
188.65
  0
LINE
  8
0
  6
CONTINUOUS
 62
     2
 10
216.699743131
 20
188.65
 11
218.199743131
 21
188.65
  0
LINE
  8
0
  6
CONTINUOUS
 62
     2
 10
218.199743131
 20
188.65
 11
218.399743131
 21
188.45
  0
ARC
  8
0
  6
CONTINUOUS
 62
     2
 10
214.099743131
 20
190.45
 40
1.0
 50
90.0
 51
180.0
  0
LINE
  8
0
  6
CONTINUOUS
 62
     2
 10
213.099743131
 20
189.45
 11
215.899743131
 21
189.45
  0
LINE
  8
0
  6
CONTINUOUS
 62
     2
 10
213.099743131
 20
190.45
 11
213.099743131
 21
189.45
  0
ARC
  8
0
  6
CONTINUOUS
 62
     2
 10
217.699743131
 20
190.45
 40
1.0
 50
0.0
 51
90.0
  0
LINE
  8
0
  6
CONTINUOUS
 62
     2
 10
217.699743131
 20
191.45
 11
214.099743131
 21
191.45
  0
ARC
  8
0
  6
CONTINUOUS
 62
     2
 10
213.299743131
 20
189.05
 40
0.4
 50
90.000056323
 51
180.0
  0
LINE
  8
0
  6
CONTINUOUS
 62
     2
 10
213.899743131
 20
188.45
 11
212.899743131
 21
188.45
  0
LINE
  8
0
  6
CONTINUOUS
 62
     2
 10
217.799743131
 20
188.45
 11
218.899743131
 21
188.45
  0
ARC
  8
0
  6
CONTINUOUS
 62
     2
 10
218.499743131
 20
189.05
 40
0.4
 50
0.0
 51
89.999943677
  0
LINE
  8
0
  6
CONTINUOUS
 62
     2
 10
218.699743131
 20
190.45
 11
218.699743131
 21
189.45
  0
LINE
  8
0
  6
CONTINUOUS
 62
     2
 10
218.699743131
 20
189.45
 11
215.899743131
 21
189.45
  0
LINE
  8
0
  6
CONTINUOUS
 62
     2
 10
211.899743131
 20
193.95
 11
212.899743131
 21
193.95
  0
LINE
  8
0
  6
CONTINUOUS
 62
     2
 10
212.899743131
 20
187.45
 11
218.899743131
 21
187.45
  0
LINE
  8
0
  6
CONTINUOUS
 62
     2
 10
204.899743131
 20
193.95
 11
205.899743131
 21
193.95
  0
LINE
  8
0
  6
CONTINUOUS
 62
     2
 10
205.899743131
 20
186.45
 11
205.899743131
 21
193.95
  0
LINE
  8
0
  6
CONTINUOUS
 62
     2
 10
204.899743131
 20
186.45
 11
204.899743131
 21
193.95
  0
LINE
  8
0
  6
CONTINUOUS
 62
     2
 10
212.899743131
 20
186.45
 11
212.899743131
 21
193.95
  0
LINE
  8
0
  6
CONTINUOUS
 62
     2
 10
211.899743131
 20
186.45
 11
211.899743131
 21
193.95
  0
LINE
  8
0
  6
CONTINUOUS
 62
     2
 10
218.899743131
 20
186.45
 11
218.899743131
 21
193.95
  0
LINE
  8
0
  6
CONTINUOUS
 62
     5
 10
145.25
 20
234.499782609
 11
145.25
 21
222.899782609
  0
LINE
  8
0
  6
CONTINUOUS
 62
     5
 10
170.4
 20
230.849782609
 11
170.4
 21
225.859782609
  0
LINE
  8
0
  6
CONTINUOUS
 62
     5
 10
177.4
 20
230.849782609
 11
177.4
 21
225.789782609
  0
LINE
  8
0
  6
CONTINUOUS
 62
     5
 10
163.4
 20
230.849782609
 11
163.4
 21
225.859782609
  0
LINE
  8
0
  6
CONTINUOUS
 62
     5
 10
156.4
 20
230.849782609
 11
156.4
 21
225.789782609
  0
LINE
  8
0
  6
CONTINUOUS
 62
     5
 10
149.4
 20
230.849782609
 11
149.4
 21
225.999782609
  0
LINE
  8
0
  6
CONTINUOUS
 62
     5
 10
205.4
 20
230.849782609
 11
205.4
 21
225.859782609
  0
LINE
  8
0
  6
CONTINUOUS
 62
     5
 10
198.4
 20
230.849782609
 11
198.4
 21
225.789782609
  0
LINE
  8
0
  6
CONTINUOUS
 62
     5
 10
191.4
 20
230.849782609
 11
191.4
 21
225.999782609
  0
LINE
  8
0
  6
CONTINUOUS
 62
     5
 10
145.25
 20
234.499782609
 11
187.25
 21
234.499782609
  0
LINE
  8
0
  6
CONTINUOUS
 62
     5
 10
145.25
 20
222.899782609
 11
187.25
 21
222.899782609
  0
LINE
  8
0
  6
CONTINUOUS
 62
     5
 10
212.4
 20
230.849782609
 11
212.4
 21
225.859782609
  0
LINE
  8
0
  6
CONTINUOUS
 62
     5
 10
219.4
 20
230.849782609
 11
219.4
 21
225.789782609
  0
LINE
  8
0
  6
CONTINUOUS
 62
     5
 10
223.55
 20
222.899782609
 11
187.25
 21
222.899782609
  0
LINE
  8
0
  6
CONTINUOUS
 62
     5
 10
223.3
 20
228.999782609
 11
187.4
 21
228.999782609
  0
POLYLINE
  8
0
  6
CONTINUOUS
 62
     5
 66
     1
  0
VERTEX
  8
0
  6
CONTINUOUS
 62
     5
 10
187.25
 20
234.499782609
  0
VERTEX
  8
0
  6
CONTINUOUS
 62
     5
 10
223.55
 20
234.499782609
  0
VERTEX
  8
0
  6
CONTINUOUS
 62
     5
 10
223.55
 20
222.899782609
  0
SEQEND
  0
LINE
  8
0
  6
CONTINUOUS
 62
     4
 10
66.030394605
 20
99.54
 11
65.618124133
 21
102.005772304
  0
LINE
  8
0
  6
CONTINUOUS
 62
     4
 10
66.030394605
 20
99.54
 11
64.44047175
 21
101.469286219
  0
LINE
  8
0
  6
CONTINUOUS
 62
     4
 10
66.030394605
 20
99.54
 11
62.750394605
 21
106.74
  0
LINE
  8
0
  6
CONTINUOUS
 62
     4
 10
62.750394605
 20
106.74
 11
53.750394605
 21
106.74
  0
TEXT
  8
0
  6
CONTINUOUS
 62
     4
 10
53.750394605
 20
107.74
 30
0.0
 40
2.2
  1
ＢＬＡＣＫ
 50
0.0
 41
0.818181818
 51
0.0
  7
KANJI0
  0
LINE
  8
0
  6
CONTINUOUS
 62
     4
 10
167.190394605
 20
56.29
 11
165.21378516
 21
54.759308946
  0
LINE
  8
0
  6
CONTINUOUS
 62
     4
 10
167.190394605
 20
56.29
 11
166.243946139
 21
53.97607794
  0
LINE
  8
0
  6
CONTINUOUS
 62
     4
 10
167.190394605
 20
56.29
 11
159.070394605
 21
45.61
  0
LINE
  8
0
  6
CONTINUOUS
 62
     4
 10
159.070394605
 20
45.61
 11
150.070394605
 21
45.61
  0
TEXT
  8
0
  6
CONTINUOUS
 62
     4
 10
150.070394605
 20
46.61
 30
0.0
 40
2.2
  1
ＢＬＡＣＫ
 50
0.0
 41
0.818181818
 51
0.0
  7
KANJI0
  0
LINE
  8
0
  6
CONTINUOUS
 62
     4
 10
147.670394605
 20
95.03
 11
147.456016065
 21
97.520791409
  0
LINE
  8
0
  6
CONTINUOUS
 62
     4
 10
147.670394605
 20
95.03
 11
146.239341639
 21
97.079899365
  0
LINE
  8
0
  6
CONTINUOUS
 62
     4
 10
147.670394605
 20
95.03
 11
142.970394605
 21
108.0
  0
LINE
  8
0
  6
CONTINUOUS
 62
     4
 10
142.970394605
 20
108.0
 11
133.970394605
 21
108.0
  0
TEXT
  8
0
  6
CONTINUOUS
 62
     4
 10
133.970394605
 20
109.0
 30
0.0
 40
2.2
  1
ＢＬＡＣＫ
 50
0.0
 41
0.818181818
 51
0.0
  7
KANJI0
  0
LINE
  8
0
  6
CONTINUOUS
 62
     4
 10
149.01
 20
139.62
 11
147.414303999
 21
137.695485965
  0
LINE
  8
0
  6
CONTINUOUS
 62
     4
 10
149.01
 20
139.62
 11
148.590343744
 21
137.155473955
  0
LINE
  8
0
  6
CONTINUOUS
 62
     4
 10
149.01
 20
139.62
 11
140.18
 21
120.39
  0
LINE
  8
0
  6
CONTINUOUS
 62
     4
 10
140.18
 20
120.39
 11
131.18
 21
120.39
  0
TEXT
  8
0
  6
CONTINUOUS
 62
     4
 10
131.18
 20
121.39
 30
0.0
 40
2.2
  1
ＢＬＡＣＫ
 50
0.0
 41
0.818181818
 51
0.0
  7
KANJI0
  0
TEXT
  8
0
  6
CONTINUOUS
 62
     4
 10
196.15
 20
168.06
 30
0.3
 40
2.5
  1
ラベル（ＷＨＩＴＥ）
 50
0.0
 41
0.76
 51
0.0
  7
KANJI1
  0
LINE
  8
0
  6
LTYPE1
 62
     1
 10
184.4
 20
201.41
 11
184.4
 21
125.14
  0
LINE
  8
0
  6
LTYPE1
 62
     1
 10
184.4
 20
201.41
 11
184.4
 21
125.14
  0
LINE
  8
0
  6
CONTINUOUS
 62
     3
 10
53.440394605
 20
98.57641183
 11
50.434304682
 21
98.556560196
  0
LINE
  8
0
  6
CONTINUOUS
 62
     3
 10
62.040394605
 20
98.633204558
 11
56.040394605
 21
98.593581724
  0
LINE
  8
0
  6
CONTINUOUS
 62
     3
 10
77.040394605
 20
98.732261642
 11
71.040394605
 21
98.692638808
  0
LINE
  8
0
  6
CONTINUOUS
 62
     3
 10
84.570476182
 20
98.781988836
 11
79.040394605
 21
98.745469253
  0
LINE
  8
0
  6
CONTINUOUS
 62
     2
 10
56.540394605
 20
98.596883627
 11
56.540394605
 21
98.95
  0
LINE
  8
0
  6
CONTINUOUS
 62
     2
 10
61.540394605
 20
98.629902655
 11
61.540394605
 21
98.95
  0
LINE
  8
0
  6
CONTINUOUS
 62
     2
 10
71.540394605
 20
98.695940711
 11
71.540394605
 21
98.95
  0
LINE
  8
0
  6
CONTINUOUS
 62
     2
 10
76.540394605
 20
98.728959739
 11
76.540394605
 21
98.95
  0
LINE
  8
0
  6
CONTINUOUS
 62
     2
 10
56.540394605
 20
54.503116373
 11
56.540394605
 21
54.15
  0
LINE
  8
0
  6
CONTINUOUS
 62
     2
 10
61.540394605
 20
54.470097345
 11
61.540394605
 21
54.15
  0
LINE
  8
0
  6
CONTINUOUS
 62
     2
 10
71.540394605
 20
54.404059289
 11
71.540394605
 21
54.15
  0
LINE
  8
0
  6
CONTINUOUS
 62
     2
 10
76.540394605
 20
54.371040261
 11
76.540394605
 21
54.15
  0
LINE
  8
0
  6
CONTINUOUS
 62
     3
 10
77.040394605
 20
54.367738358
 11
71.040394605
 21
54.407361192
  0
LINE
  8
0
  6
CONTINUOUS
 62
     3
 10
84.570215819
 20
54.318012883
 11
79.040394605
 21
54.354530747
  0
LINE
  8
0
  6
CONTINUOUS
 62
     3
 10
53.440394605
 20
54.52358817
 11
50.434304682
 21
54.543439804
  0
LINE
  8
0
  6
CONTINUOUS
 62
     3
 10
62.040394605
 20
54.466795442
 11
56.040394605
 21
54.506418276
  0
LINE
  8
0
  6
CONTINUOUS
 62
     3
 10
79.040394605
 20
67.05
 11
79.040394605
 21
86.05
  0
LINE
  8
0
  6
CONTINUOUS
 62
     3
 10
79.040394605
 20
86.05
 11
53.440394605
 21
86.05
  0
LINE
  8
0
  6
CONTINUOUS
 62
     3
 10
79.040394605
 20
67.05
 11
53.440394605
 21
67.05
  0
LINE
  8
0
  6
CONTINUOUS
 62
     3
 10
77.540394605
 20
65.55
 11
53.440394605
 21
65.55
  0
LINE
  8
0
  6
CONTINUOUS
 62
     3
 10
77.540394605
 20
65.55
 11
77.540394605
 21
52.95
  0
LINE
  8
0
  6
CONTINUOUS
 62
     3
 10
62.540651474
 20
69.05
 11
62.540651474
 21
67.05
  0
LINE
  8
0
  6
CONTINUOUS
 62
     3
 10
62.540651474
 20
86.05
 11
62.540651474
 21
84.05
  0
LINE
  8
0
  6
CONTINUOUS
 62
     2
 10
56.040394605
 20
54.15
 11
62.040394605
 21
54.15
  0
LINE
  8
0
  6
CONTINUOUS
 62
     2
 10
77.040394605
 20
54.15
 11
77.040394605
 21
56.15
  0
LINE
  8
0
  6
CONTINUOUS
 62
     3
 10
53.440394605
 20
87.55
 11
77.540394605
 21
87.55
  0
LINE
  8
0
  6
CONTINUOUS
 62
     3
 10
77.540394605
 20
100.15
 11
77.540394605
 21
87.55
  0
LINE
  8
0
  6
LTYPE1
 62
     1
 10
391.278
 20
76.55
 11
279.689
 21
76.55
  0
LINE
  8
0
  6
LTYPE1
 62
     1
 10
337.339
 20
101.65
 11
337.339
 21
52.863275
  0
LINE
  8
0
  6
LTYPE1
 62
     1
 10
293.579
 20
76.55
 11
383.729
 21
76.55
  0
LINE
  8
0
  6
CONTINUOUS
 62
     2
 10
313.589
 20
91.17
 11
301.071125
 21
91.17
  0
LINE
  8
0
  6
CONTINUOUS
 62
     2
 10
301.089
 20
73.93
 11
301.089
 21
91.187875
  0
LINE
  8
0
  6
CONTINUOUS
 62
     2
 10
301.089
 20
73.93
 11
313.589
 21
73.93
  0
LINE
  8
0
  6
CONTINUOUS
 62
     2
 10
313.589
 20
73.93
 11
313.589
 21
91.17
  0
LINE
  8
0
  6
CONTINUOUS
 62
     2
 10
326.589
 20
91.17
 11
314.071125
 21
91.17
  0
LINE
  8
0
  6
CONTINUOUS
 62
     2
 10
314.089
 20
73.93
 11
314.089
 21
91.187875
  0
LINE
  8
0
  6
CONTINUOUS
 62
     2
 10
314.089
 20
73.93
 11
326.589
 21
73.93
  0
LINE
  8
0
  6
CONTINUOUS
 62
     2
 10
326.589
 20
73.93
 11
326.589
 21
91.17
  0
LINE
  8
0
  6
CONTINUOUS
 62
     2
 10
339.589
 20
91.17
 11
327.071125
 21
91.17
  0
LINE
  8
0
  6
CONTINUOUS
 62
     2
 10
327.089
 20
73.93
 11
327.089
 21
91.187875
  0
LINE
  8
0
  6
CONTINUOUS
 62
     2
 10
327.089
 20
73.93
 11
339.589
 21
73.93
  0
LINE
  8
0
  6
CONTINUOUS
 62
     2
 10
339.589
 20
73.93
 11
339.589
 21
91.17
  0
LINE
  8
0
  6
CONTINUOUS
 62
     2
 10
352.589
 20
91.17
 11
340.071125
 21
91.17
  0
LINE
  8
0
  6
CONTINUOUS
 62
     2
 10
340.089
 20
73.93
 11
340.089
 21
91.187875
  0
LINE
  8
0
  6
CONTINUOUS
 62
     2
 10
340.089
 20
73.93
 11
352.589
 21
73.93
  0
LINE
  8
0
  6
CONTINUOUS
 62
     2
 10
352.589
 20
73.93
 11
352.589
 21
91.17
  0
LINE
  8
0
  6
CONTINUOUS
 62
     2
 10
365.589
 20
91.17
 11
353.071125
 21
91.17
  0
LINE
  8
0
  6
CONTINUOUS
 62
     2
 10
353.089
 20
73.93
 11
353.089
 21
91.187875
  0
LINE
  8
0
  6
CONTINUOUS
 62
     2
 10
353.089
 20
73.93
 11
365.589
 21
73.93
  0
LINE
  8
0
  6
CONTINUOUS
 62
     2
 10
365.589
 20
73.93
 11
365.589
 21
91.17
  0
POINT
  8
0
  6
CONTINUOUS
 62
     3
 10
323.018244318
 20
82.0
  0
LINE
  8
0
  6
CONTINUOUS
 62
     3
 10
322.305517045
 20
77.1
 11
322.989153409
 21
81.8
  0
LINE
  8
0
  6
CONTINUOUS
 62
     3
 10
322.3300625
 20
77.05
 11
323.1300625
 21
75.85
  0
LINE
  8
0
  6
CONTINUOUS
 62
     3
 10
322.8300625
 20
75.55
 11
322.9800625
 21
75.67
  0
LINE
  8
0
  6
CONTINUOUS
 62
     3
 10
323.1300625
 20
75.79
 11
323.3300625
 21
75.95
  0
LINE
  8
0
  6
CONTINUOUS
 62
     3
 10
317.489153409
 20
81.8
 11
316.754607955
 21
76.75
  0
LINE
  8
0
  6
CONTINUOUS
 62
     3
 10
316.7300625
 20
76.75
 11
315.6300625
 21
75.776923077
  0
LINE
  8
0
  6
CONTINUOUS
 62
     3
 10
322.8300625
 20
75.55
 11
315.8300625
 21
75.55
  0
LINE
  8
0
  6
CONTINUOUS
 62
     3
 10
315.4800625
 20
76.05
 11
315.6550625
 21
75.8
  0
LINE
  8
0
  6
CONTINUOUS
 62
     3
 10
324.0800625
 20
82.4
 11
324.2800625
 21
82.3
  0
LINE
  8
0
  6
CONTINUOUS
 62
     3
 10
324.1300625
 20
82.7
 11
324.4300625
 21
82.9
  0
LINE
  8
0
  6
CONTINUOUS
 62
     3
 10
316.6800625
 20
82.65
 11
316.4300625
 21
82.9
  0
LINE
  8
0
  6
CONTINUOUS
 62
     3
 10
316.5800625
 20
82.35
 11
316.2800625
 21
82.1
  0
LINE
  8
0
  6
CONTINUOUS
 62
     3
 10
316.5800625
 20
82.325
 11
317.4800625
 21
81.8
  0
LINE
  8
0
  6
CONTINUOUS
 62
     3
 10
315.408633929
 20
76.1
 11
316.265776786
 21
82.1
  0
LINE
  8
0
  6
CONTINUOUS
 62
     3
 10
317.6300625
 20
83.1
 11
316.6800625
 21
82.712962963
  0
LINE
  8
0
  6
CONTINUOUS
 62
     3
 10
322.7800625
 20
83.05
 11
323.7300625
 21
82.55
  0
LINE
  8
0
  6
CONTINUOUS
 62
     3
 10
323.7300625
 20
82.55
 11
322.5300625
 21
81.9
  0
LINE
  8
0
  6
CONTINUOUS
 62
     3
 10
318.1300625
 20
83.1
 11
316.9300625
 21
82.5
  0
LINE
  8
0
  6
CONTINUOUS
 62
     3
 10
317.7300625
 20
81.95
 11
316.9800625
 21
82.4
  0
LINE
  8
0
  6
CONTINUOUS
 62
     3
 10
324.304607955
 20
82.25
 11
323.395517045
 21
76.0
  0
LINE
  8
0
  6
CONTINUOUS
 62
     3
 10
324.1300625
 20
82.631818182
 11
323.1800625
 21
83.15
  0
LINE
  8
0
  6
CONTINUOUS
 62
     3
 10
322.9800625
 20
81.85
 11
324.0800625
 21
82.422
  0
LINE
  8
0
  6
CONTINUOUS
 62
     3
 10
322.1300625
 20
76.8
 11
317.1800625
 21
76.8
  0
LINE
  8
0
  6
CONTINUOUS
 62
     3
 10
322.1300625
 20
76.85
 11
322.9300625
 21
75.6
  0
LINE
  8
0
  6
CONTINUOUS
 62
     3
 10
317.1800625
 20
76.8
 11
315.8300625
 21
75.6
  0
LINE
  8
0
  6
CONTINUOUS
 62
     3
 10
315.8300625
 20
75.55
 11
315.8300625
 21
75.55
  0
LINE
  8
0
  6
CONTINUOUS
 62
     3
 10
317.7800625
 20
81.9
 11
322.5300625
 21
81.9
  0
LINE
  8
0
  6
CONTINUOUS
 62
     3
 10
322.7300625
 20
83.15
 11
318.1800625
 21
83.15
  0
LINE
  8
0
  6
CONTINUOUS
 62
     3
 10
318.6300625
 20
88.3
 11
317.7800625
 21
89.3
  0
LINE
  8
0
  6
CONTINUOUS
 62
     3
 10
318.3800625
 20
88.25
 11
317.5800625
 21
89.15
  0
LINE
  8
0
  6
CONTINUOUS
 62
     3
 10
323.6800625
 20
88.35
 11
324.8800625
 21
89.35
  0
LINE
  8
0
  6
CONTINUOUS
 62
     3
 10
325.0300625
 20
89.15
 11
323.8800625
 21
88.15
  0
LINE
  8
0
  6
CONTINUOUS
 62
     3
 10
325.242789773
 20
88.95
 11
324.391880682
 21
82.85
  0
LINE
  8
0
  6
CONTINUOUS
 62
     3
 10
325.148244318
 20
89.1
 11
325.2300625
 21
89.0
  0
LINE
  8
0
  6
CONTINUOUS
 62
     3
 10
324.7800625
 20
89.55
 11
324.984607955
 21
89.3
  0
LINE
  8
0
  6
CONTINUOUS
 62
     3
 10
323.170971591
 20
83.05
 11
323.876426136
 21
88.15
  0
LINE
  8
0
  6
CONTINUOUS
 62
     3
 10
318.398244318
 20
88.3
 11
317.663698864
 21
83.0
  0
LINE
  8
0
  6
CONTINUOUS
 62
     3
 10
323.6300625
 20
88.3
 11
318.5300625
 21
88.3
  0
LINE
  8
0
  6
CONTINUOUS
 62
     3
 10
316.415776786
 20
82.9
 11
317.258633929
 21
89.05
  0
LINE
  8
0
  6
CONTINUOUS
 62
     3
 10
317.8800625
 20
89.5
 11
317.8300625
 21
89.465384616
  0
LINE
  8
0
  6
CONTINUOUS
 62
     3
 10
317.5300625
 20
89.257692308
 11
317.2300625
 21
89.05
  0
LINE
  8
0
  6
CONTINUOUS
 62
     3
 10
317.7800625
 20
89.3
 11
317.7300625
 21
89.35
  0
LINE
  8
0
  6
CONTINUOUS
 62
     3
 10
317.7300625
 20
89.35
 11
317.8300625
 21
89.45
  0
LINE
  8
0
  6
CONTINUOUS
 62
     3
 10
317.5800625
 20
89.15
 11
317.5300625
 21
89.25
  0
POINT
  8
0
  6
CONTINUOUS
 62
     3
 10
336.018244318
 20
82.0
  0
LINE
  8
0
  6
CONTINUOUS
 62
     3
 10
335.305517045
 20
77.1
 11
335.989153409
 21
81.8
  0
LINE
  8
0
  6
CONTINUOUS
 62
     3
 10
335.3300625
 20
77.05
 11
336.1300625
 21
75.85
  0
LINE
  8
0
  6
CONTINUOUS
 62
     3
 10
335.8300625
 20
75.55
 11
335.9800625
 21
75.67
  0
LINE
  8
0
  6
CONTINUOUS
 62
     3
 10
336.1300625
 20
75.79
 11
336.3300625
 21
75.95
  0
LINE
  8
0
  6
CONTINUOUS
 62
     3
 10
330.489153409
 20
81.8
 11
329.754607955
 21
76.75
  0
LINE
  8
0
  6
CONTINUOUS
 62
     3
 10
329.7300625
 20
76.75
 11
328.6300625
 21
75.776923077
  0
LINE
  8
0
  6
CONTINUOUS
 62
     3
 10
335.8300625
 20
75.55
 11
328.8300625
 21
75.55
  0
LINE
  8
0
  6
CONTINUOUS
 62
     3
 10
328.4800625
 20
76.05
 11
328.6550625
 21
75.8
  0
LINE
  8
0
  6
CONTINUOUS
 62
     3
 10
337.0800625
 20
82.4
 11
337.2800625
 21
82.3
  0
LINE
  8
0
  6
CONTINUOUS
 62
     3
 10
337.1300625
 20
82.7
 11
337.4300625
 21
82.9
  0
LINE
  8
0
  6
CONTINUOUS
 62
     3
 10
329.6800625
 20
82.65
 11
329.4300625
 21
82.9
  0
LINE
  8
0
  6
CONTINUOUS
 62
     3
 10
329.5800625
 20
82.35
 11
329.2800625
 21
82.1
  0
LINE
  8
0
  6
CONTINUOUS
 62
     3
 10
329.5800625
 20
82.325
 11
330.4800625
 21
81.8
  0
LINE
  8
0
  6
CONTINUOUS
 62
     3
 10
328.408633929
 20
76.1
 11
329.265776786
 21
82.1
  0
LINE
  8
0
  6
CONTINUOUS
 62
     3
 10
330.6300625
 20
83.1
 11
329.6800625
 21
82.712962963
  0
LINE
  8
0
  6
CONTINUOUS
 62
     3
 10
335.7800625
 20
83.05
 11
336.7300625
 21
82.55
  0
LINE
  8
0
  6
CONTINUOUS
 62
     3
 10
336.7300625
 20
82.55
 11
335.5300625
 21
81.9
  0
LINE
  8
0
  6
CONTINUOUS
 62
     3
 10
331.1300625
 20
83.1
 11
329.9300625
 21
82.5
  0
LINE
  8
0
  6
CONTINUOUS
 62
     3
 10
330.7300625
 20
81.95
 11
329.9800625
 21
82.4
  0
LINE
  8
0
  6
CONTINUOUS
 62
     3
 10
337.304607955
 20
82.25
 11
336.395517045
 21
76.0
  0
LINE
  8
0
  6
CONTINUOUS
 62
     3
 10
337.1300625
 20
82.631818182
 11
336.1800625
 21
83.15
  0
LINE
  8
0
  6
CONTINUOUS
 62
     3
 10
335.9800625
 20
81.85
 11
337.0800625
 21
82.422
  0
LINE
  8
0
  6
CONTINUOUS
 62
     3
 10
335.1300625
 20
76.8
 11
330.1800625
 21
76.8
  0
LINE
  8
0
  6
CONTINUOUS
 62
     3
 10
335.1300625
 20
76.85
 11
335.9300625
 21
75.6
  0
LINE
  8
0
  6
CONTINUOUS
 62
     3
 10
330.1800625
 20
76.8
 11
328.8300625
 21
75.6
  0
LINE
  8
0
  6
CONTINUOUS
 62
     3
 10
328.8300625
 20
75.55
 11
328.8300625
 21
75.55
  0
LINE
  8
0
  6
CONTINUOUS
 62
     3
 10
330.7800625
 20
81.9
 11
335.5300625
 21
81.9
  0
LINE
  8
0
  6
CONTINUOUS
 62
     3
 10
335.7300625
 20
83.15
 11
331.1800625
 21
83.15
  0
LINE
  8
0
  6
CONTINUOUS
 62
     3
 10
331.6300625
 20
88.3
 11
330.7800625
 21
89.3
  0
LINE
  8
0
  6
CONTINUOUS
 62
     3
 10
331.3800625
 20
88.25
 11
330.5800625
 21
89.15
  0
LINE
  8
0
  6
CONTINUOUS
 62
     3
 10
336.6800625
 20
88.35
 11
337.8800625
 21
89.35
  0
LINE
  8
0
  6
CONTINUOUS
 62
     3
 10
338.0300625
 20
89.15
 11
336.8800625
 21
88.15
  0
LINE
  8
0
  6
CONTINUOUS
 62
     3
 10
338.242789773
 20
88.95
 11
337.391880682
 21
82.85
  0
LINE
  8
0
  6
CONTINUOUS
 62
     3
 10
338.148244318
 20
89.1
 11
338.2300625
 21
89.0
  0
LINE
  8
0
  6
CONTINUOUS
 62
     3
 10
337.7800625
 20
89.55
 11
337.984607955
 21
89.3
  0
LINE
  8
0
  6
CONTINUOUS
 62
     3
 10
336.170971591
 20
83.05
 11
336.876426136
 21
88.15
  0
LINE
  8
0
  6
CONTINUOUS
 62
     3
 10
331.398244318
 20
88.3
 11
330.663698864
 21
83.0
  0
LINE
  8
0
  6
CONTINUOUS
 62
     3
 10
336.6300625
 20
88.3
 11
331.5300625
 21
88.3
  0
LINE
  8
0
  6
CONTINUOUS
 62
     3
 10
329.415776786
 20
82.9
 11
330.258633929
 21
89.05
  0
LINE
  8
0
  6
CONTINUOUS
 62
     3
 10
330.8800625
 20
89.55
 11
337.8300625
 21
89.55
  0
LINE
  8
0
  6
CONTINUOUS
 62
     3
 10
330.8800625
 20
89.5
 11
330.8300625
 21
89.465384616
  0
LINE
  8
0
  6
CONTINUOUS
 62
     3
 10
330.5300625
 20
89.257692308
 11
330.2300625
 21
89.05
  0
LINE
  8
0
  6
CONTINUOUS
 62
     3
 10
330.7800625
 20
89.3
 11
330.7300625
 21
89.35
  0
LINE
  8
0
  6
CONTINUOUS
 62
     3
 10
330.7300625
 20
89.35
 11
330.8300625
 21
89.45
  0
LINE
  8
0
  6
CONTINUOUS
 62
     3
 10
330.5800625
 20
89.15
 11
330.5300625
 21
89.25
  0
POINT
  8
0
  6
CONTINUOUS
 62
     3
 10
310.018244318
 20
82.0
  0
POINT
  8
0
  6
CONTINUOUS
 62
     3
 10
349.018244318
 20
82.0
  0
LINE
  8
0
  6
CONTINUOUS
 62
     3
 10
348.305517045
 20
77.1
 11
348.989153409
 21
81.8
  0
LINE
  8
0
  6
CONTINUOUS
 62
     3
 10
348.3300625
 20
77.05
 11
349.1300625
 21
75.85
  0
LINE
  8
0
  6
CONTINUOUS
 62
     3
 10
348.8300625
 20
75.55
 11
348.9800625
 21
75.67
  0
LINE
  8
0
  6
CONTINUOUS
 62
     3
 10
349.1300625
 20
75.79
 11
349.3300625
 21
75.95
  0
LINE
  8
0
  6
CONTINUOUS
 62
     3
 10
343.489153409
 20
81.8
 11
342.754607955
 21
76.75
  0
LINE
  8
0
  6
CONTINUOUS
 62
     3
 10
342.7300625
 20
76.75
 11
341.6300625
 21
75.776923077
  0
LINE
  8
0
  6
CONTINUOUS
 62
     3
 10
348.8300625
 20
75.55
 11
341.8300625
 21
75.55
  0
LINE
  8
0
  6
CONTINUOUS
 62
     3
 10
341.4800625
 20
76.05
 11
341.6550625
 21
75.8
  0
LINE
  8
0
  6
CONTINUOUS
 62
     3
 10
350.0800625
 20
82.4
 11
350.2800625
 21
82.3
  0
LINE
  8
0
  6
CONTINUOUS
 62
     3
 10
350.1300625
 20
82.7
 11
350.4300625
 21
82.9
  0
LINE
  8
0
  6
CONTINUOUS
 62
     3
 10
342.6800625
 20
82.65
 11
342.4300625
 21
82.9
  0
LINE
  8
0
  6
CONTINUOUS
 62
     3
 10
342.5800625
 20
82.35
 11
342.2800625
 21
82.1
  0
LINE
  8
0
  6
CONTINUOUS
 62
     3
 10
342.5800625
 20
82.325
 11
343.4800625
 21
81.8
  0
LINE
  8
0
  6
CONTINUOUS
 62
     3
 10
341.408633929
 20
76.1
 11
342.265776786
 21
82.1
  0
LINE
  8
0
  6
CONTINUOUS
 62
     3
 10
343.6300625
 20
83.1
 11
342.6800625
 21
82.712962963
  0
LINE
  8
0
  6
CONTINUOUS
 62
     3
 10
348.7800625
 20
83.05
 11
349.7300625
 21
82.55
  0
LINE
  8
0
  6
CONTINUOUS
 62
     3
 10
349.7300625
 20
82.55
 11
348.5300625
 21
81.9
  0
LINE
  8
0
  6
CONTINUOUS
 62
     3
 10
344.1300625
 20
83.1
 11
342.9300625
 21
82.5
  0
LINE
  8
0
  6
CONTINUOUS
 62
     3
 10
343.7300625
 20
81.95
 11
342.9800625
 21
82.4
  0
LINE
  8
0
  6
CONTINUOUS
 62
     3
 10
350.304607955
 20
82.25
 11
349.395517045
 21
76.0
  0
LINE
  8
0
  6
CONTINUOUS
 62
     3
 10
350.1300625
 20
82.631818182
 11
349.1800625
 21
83.15
  0
LINE
  8
0
  6
CONTINUOUS
 62
     3
 10
348.9800625
 20
81.85
 11
350.0800625
 21
82.422
  0
LINE
  8
0
  6
CONTINUOUS
 62
     3
 10
348.1300625
 20
76.8
 11
343.1800625
 21
76.8
  0
LINE
  8
0
  6
CONTINUOUS
 62
     3
 10
348.1300625
 20
76.85
 11
348.9300625
 21
75.6
  0
LINE
  8
0
  6
CONTINUOUS
 62
     3
 10
343.1800625
 20
76.8
 11
341.8300625
 21
75.6
  0
LINE
  8
0
  6
CONTINUOUS
 62
     3
 10
341.8300625
 20
75.55
 11
341.8300625
 21
75.55
  0
LINE
  8
0
  6
CONTINUOUS
 62
     3
 10
343.7800625
 20
81.9
 11
348.5300625
 21
81.9
  0
LINE
  8
0
  6
CONTINUOUS
 62
     3
 10
348.7300625
 20
83.15
 11
344.1800625
 21
83.15
  0
LINE
  8
0
  6
CONTINUOUS
 62
     3
 10
344.6300625
 20
88.3
 11
343.7800625
 21
89.3
  0
LINE
  8
0
  6
CONTINUOUS
 62
     3
 10
344.3800625
 20
88.25
 11
343.5800625
 21
89.15
  0
LINE
  8
0
  6
CONTINUOUS
 62
     3
 10
349.6800625
 20
88.35
 11
350.8800625
 21
89.35
  0
LINE
  8
0
  6
CONTINUOUS
 62
     3
 10
351.0300625
 20
89.15
 11
349.8800625
 21
88.15
  0
LINE
  8
0
  6
CONTINUOUS
 62
     3
 10
351.242789773
 20
88.95
 11
350.391880682
 21
82.85
  0
LINE
  8
0
  6
CONTINUOUS
 62
     3
 10
351.148244318
 20
89.1
 11
351.2300625
 21
89.0
  0
LINE
  8
0
  6
CONTINUOUS
 62
     3
 10
350.7800625
 20
89.55
 11
350.984607955
 21
89.3
  0
LINE
  8
0
  6
CONTINUOUS
 62
     3
 10
349.170971591
 20
83.05
 11
349.876426136
 21
88.15
  0
LINE
  8
0
  6
CONTINUOUS
 62
     3
 10
344.398244318
 20
88.3
 11
343.663698864
 21
83.0
  0
LINE
  8
0
  6
CONTINUOUS
 62
     3
 10
349.6300625
 20
88.3
 11
344.5300625
 21
88.3
  0
LINE
  8
0
  6
CONTINUOUS
 62
     3
 10
342.415776786
 20
82.9
 11
343.258633929
 21
89.05
  0
LINE
  8
0
  6
CONTINUOUS
 62
     3
 10
343.8800625
 20
89.55
 11
350.8300625
 21
89.55
  0
LINE
  8
0
  6
CONTINUOUS
 62
     3
 10
343.8800625
 20
89.5
 11
343.8300625
 21
89.465384616
  0
LINE
  8
0
  6
CONTINUOUS
 62
     3
 10
343.5300625
 20
89.257692308
 11
343.2300625
 21
89.05
  0
LINE
  8
0
  6
CONTINUOUS
 62
     3
 10
343.7800625
 20
89.3
 11
343.7300625
 21
89.35
  0
LINE
  8
0
  6
CONTINUOUS
 62
     3
 10
343.7300625
 20
89.35
 11
343.8300625
 21
89.45
  0
LINE
  8
0
  6
CONTINUOUS
 62
     3
 10
343.5800625
 20
89.15
 11
343.5300625
 21
89.25
  0
LINE
  8
0
  6
CONTINUOUS
 62
     3
 10
317.8800625
 20
89.55
 11
324.8300625
 21
89.55
  0
LINE
  8
0
  6
CONTINUOUS
 62
     5
 10
304.7800625
 20
89.3
 11
304.7300625
 21
89.35
  0
LINE
  8
0
  6
CONTINUOUS
 62
     5
 10
304.5800625
 20
89.15
 11
304.5300625
 21
89.25
  0
LINE
  8
0
  6
CONTINUOUS
 62
     3
 10
312.075212615
 20
89.18926097
 11
310.8800625
 21
88.15
  0
LINE
  8
0
  6
CONTINUOUS
 62
     3
 10
312.075212615
 20
89.18926097
 11
312.246894687
 21
88.979427327
  0
LINE
  8
0
  6
CONTINUOUS
 62
     3
 10
310.184471384
 20
83.147595154
 11
310.876426136
 21
88.15
  0
LINE
  8
0
  6
CONTINUOUS
 62
     3
 10
311.0738125
 20
82.6625
 11
310.184471384
 21
83.147595154
  0
LINE
  8
0
  6
CONTINUOUS
 62
     3
 10
312.246894687
 20
88.979427327
 11
311.395655665
 21
82.87706211
  0
LINE
  8
0
  6
CONTINUOUS
 62
     3
 10
311.0738125
 20
82.6625
 11
311.395655665
 21
82.87706211
  0
LINE
  8
0
  6
CONTINUOUS
 62
     3
 10
309.5900625
 20
83.15
 11
310.7300625
 21
82.55
  0
LINE
  8
0
  6
CONTINUOUS
 62
     3
 10
309.5900625
 20
83.15
 11
305.2300625
 21
83.15
  0
LINE
  8
0
  6
CONTINUOUS
 62
     3
 10
305.2300625
 20
83.15
 11
303.866426136
 21
82.468181818
  0
LINE
  8
0
  6
CONTINUOUS
 62
     3
 10
304.813395833
 20
81.9
 11
303.866426136
 21
82.468181818
  0
LINE
  8
0
  6
CONTINUOUS
 62
     3
 10
304.813395833
 20
81.9
 11
309.5300625
 21
81.9
  0
LINE
  8
0
  6
CONTINUOUS
 62
     3
 10
310.7300625
 20
82.55
 11
309.5300625
 21
81.9
  0
LINE
  8
0
  6
CONTINUOUS
 62
     3
 10
309.997765096
 20
81.85920535
 11
311.0800625
 21
82.422
  0
LINE
  8
0
  6
CONTINUOUS
 62
     3
 10
311.0800625
 20
82.4
 11
311.309723517
 21
82.285169492
  0
LINE
  8
0
  6
CONTINUOUS
 62
     3
 10
311.309723517
 20
82.285169492
 11
310.395906121
 21
76.002674897
  0
LINE
  8
0
  6
CONTINUOUS
 62
     3
 10
310.156149457
 20
75.810869565
 11
310.395906121
 21
76.002674897
  0
LINE
  8
0
  6
CONTINUOUS
 62
     3
 10
309.303943097
 20
77.089179105
 11
310.156149457
 21
75.810869565
  0
LINE
  8
0
  6
CONTINUOUS
 62
     3
 10
309.303943097
 20
77.089179105
 11
309.997765096
 21
81.85920535
  0
LINE
  8
0
  6
CONTINUOUS
 62
     5
 10
311.7800625
 20
89.55
 11
311.917900338
 21
89.381531532
  0
LINE
  8
0
  6
CONTINUOUS
 62
     5
 10
310.6200625
 20
88.3
 11
311.917900338
 21
89.381531532
  0
LINE
  8
0
  6
CONTINUOUS
 62
     5
 10
310.6200625
 20
88.3
 11
305.6300625
 21
88.3
  0
LINE
  8
0
  6
CONTINUOUS
 62
     5
 10
305.389796882
 20
88.23904882
 11
304.5800625
 21
89.15
  0
LINE
  8
0
  6
CONTINUOUS
 62
     5
 10
305.6300625
 20
88.3
 11
304.734116554
 21
89.354054054
  0
LINE
  8
0
  6
CONTINUOUS
 62
     5
 10
304.952284722
 20
89.55
 11
311.7800625
 21
89.55
  0
LINE
  8
0
  6
CONTINUOUS
 62
     5
 10
304.5300625
 20
89.257692308
 11
304.261628979
 21
89.071853716
  0
LINE
  8
0
  6
CONTINUOUS
 62
     5
 10
304.734116554
 20
89.354054054
 11
304.8800625
 21
89.5
  0
LINE
  8
0
  6
CONTINUOUS
 62
     5
 10
304.952284722
 20
89.55
 11
304.8800625
 21
89.5
  0
LINE
  8
0
  6
CONTINUOUS
 62
     5
 10
305.389796882
 20
88.23904882
 11
304.680400497
 21
83.120508073
  0
LINE
  8
0
  6
CONTINUOUS
 62
     5
 10
304.680400497
 20
83.120508073
 11
303.635325658
 21
82.694736842
  0
LINE
  8
0
  6
CONTINUOUS
 62
     5
 10
303.417498659
 20
82.912563841
 11
304.261628979
 21
89.071853716
  0
LINE
  8
0
  6
CONTINUOUS
 62
     5
 10
303.635325658
 20
82.694736842
 11
303.417498659
 21
82.912563841
  0
LINE
  8
0
  6
CONTINUOUS
 62
     5
 10
303.562415441
 20
82.335294118
 11
304.4800625
 21
81.8
  0
LINE
  8
0
  6
CONTINUOUS
 62
     5
 10
303.562415441
 20
82.335294118
 11
303.263846284
 21
82.086486487
  0
LINE
  8
0
  6
CONTINUOUS
 62
     5
 10
302.8300625
 20
75.55
 11
302.8300625
 21
75.55
  0
LINE
  8
0
  6
CONTINUOUS
 62
     5
 10
304.1800625
 20
76.8
 11
302.7738125
 21
75.55
  0
LINE
  8
0
  6
CONTINUOUS
 62
     5
 10
304.489153409
 20
81.8
 11
303.758232644
 21
76.774919743
  0
LINE
  8
0
  6
CONTINUOUS
 62
     5
 10
302.414808263
 20
76.143220339
 11
303.263846284
 21
82.086486487
  0
LINE
  8
0
  6
CONTINUOUS
 62
     5
 10
303.758232644
 20
76.774919743
 11
302.655478177
 21
75.799406176
  0
LINE
  8
0
  6
CONTINUOUS
 62
     5
 10
302.414808263
 20
76.143220339
 11
302.655478177
 21
75.799406176
  0
LINE
  8
0
  6
CONTINUOUS
 62
     5
 10
309.1620625
 20
76.8
 11
304.1800625
 21
76.8
  0
LINE
  8
0
  6
CONTINUOUS
 62
     5
 10
309.1620625
 20
76.8
 11
309.917364087
 21
75.61984127
  0
LINE
  8
0
  6
CONTINUOUS
 62
     5
 10
309.8300625
 20
75.55
 11
309.917364087
 21
75.61984127
  0
LINE
  8
0
  6
CONTINUOUS
 62
     5
 10
309.8300625
 20
75.55
 11
302.7738125
 21
75.55
  0
POINT
  8
0
  6
CONTINUOUS
 62
     3
 10
362.618244318
 20
82.0
  0
LINE
  8
0
  6
CONTINUOUS
 62
     3
 10
361.905517045
 20
77.1
 11
362.589153409
 21
81.8
  0
LINE
  8
0
  6
CONTINUOUS
 62
     3
 10
361.9300625
 20
77.05
 11
362.7300625
 21
75.85
  0
LINE
  8
0
  6
CONTINUOUS
 62
     3
 10
362.4300625
 20
75.55
 11
362.5800625
 21
75.67
  0
LINE
  8
0
  6
CONTINUOUS
 62
     3
 10
362.7300625
 20
75.79
 11
362.9300625
 21
75.95
  0
LINE
  8
0
  6
CONTINUOUS
 62
     3
 10
357.089153409
 20
81.8
 11
356.354607955
 21
76.75
  0
LINE
  8
0
  6
CONTINUOUS
 62
     3
 10
356.3300625
 20
76.75
 11
355.2300625
 21
75.776923077
  0
LINE
  8
0
  6
CONTINUOUS
 62
     3
 10
362.4300625
 20
75.55
 11
355.4300625
 21
75.55
  0
LINE
  8
0
  6
CONTINUOUS
 62
     3
 10
355.0800625
 20
76.05
 11
355.2550625
 21
75.8
  0
LINE
  8
0
  6
CONTINUOUS
 62
     3
 10
363.6800625
 20
82.4
 11
363.8800625
 21
82.3
  0
LINE
  8
0
  6
CONTINUOUS
 62
     3
 10
363.7300625
 20
82.7
 11
364.0300625
 21
82.9
  0
LINE
  8
0
  6
CONTINUOUS
 62
     3
 10
356.2800625
 20
82.65
 11
356.0300625
 21
82.9
  0
LINE
  8
0
  6
CONTINUOUS
 62
     3
 10
356.1800625
 20
82.35
 11
355.8800625
 21
82.1
  0
LINE
  8
0
  6
CONTINUOUS
 62
     3
 10
356.1800625
 20
82.325
 11
357.0800625
 21
81.8
  0
LINE
  8
0
  6
CONTINUOUS
 62
     3
 10
355.008633929
 20
76.1
 11
355.865776786
 21
82.1
  0
LINE
  8
0
  6
CONTINUOUS
 62
     3
 10
357.2300625
 20
83.1
 11
356.2800625
 21
82.712962963
  0
LINE
  8
0
  6
CONTINUOUS
 62
     3
 10
362.3800625
 20
83.05
 11
363.3300625
 21
82.55
  0
LINE
  8
0
  6
CONTINUOUS
 62
     3
 10
363.3300625
 20
82.55
 11
362.1300625
 21
81.9
  0
LINE
  8
0
  6
CONTINUOUS
 62
     3
 10
357.7300625
 20
83.1
 11
356.5300625
 21
82.5
  0
LINE
  8
0
  6
CONTINUOUS
 62
     3
 10
357.3300625
 20
81.95
 11
356.5800625
 21
82.4
  0
LINE
  8
0
  6
CONTINUOUS
 62
     3
 10
363.904607955
 20
82.25
 11
362.995517045
 21
76.0
  0
LINE
  8
0
  6
CONTINUOUS
 62
     3
 10
363.7300625
 20
82.631818182
 11
362.7800625
 21
83.15
  0
LINE
  8
0
  6
CONTINUOUS
 62
     3
 10
362.5800625
 20
81.85
 11
363.6800625
 21
82.422
  0
LINE
  8
0
  6
CONTINUOUS
 62
     3
 10
361.7300625
 20
76.8
 11
356.7800625
 21
76.8
  0
LINE
  8
0
  6
CONTINUOUS
 62
     3
 10
361.7300625
 20
76.85
 11
362.5300625
 21
75.6
  0
LINE
  8
0
  6
CONTINUOUS
 62
     3
 10
356.7800625
 20
76.8
 11
355.4300625
 21
75.6
  0
LINE
  8
0
  6
CONTINUOUS
 62
     3
 10
355.4300625
 20
75.55
 11
355.4300625
 21
75.55
  0
LINE
  8
0
  6
CONTINUOUS
 62
     3
 10
357.3800625
 20
81.9
 11
362.1300625
 21
81.9
  0
LINE
  8
0
  6
CONTINUOUS
 62
     3
 10
362.3300625
 20
83.15
 11
357.7800625
 21
83.15
  0
LINE
  8
0
  6
CONTINUOUS
 62
     3
 10
358.2300625
 20
88.3
 11
357.3800625
 21
89.3
  0
LINE
  8
0
  6
CONTINUOUS
 62
     3
 10
357.9800625
 20
88.25
 11
357.1800625
 21
89.15
  0
LINE
  8
0
  6
CONTINUOUS
 62
     3
 10
363.2800625
 20
88.35
 11
364.4800625
 21
89.35
  0
LINE
  8
0
  6
CONTINUOUS
 62
     3
 10
364.6300625
 20
89.15
 11
363.4800625
 21
88.15
  0
LINE
  8
0
  6
CONTINUOUS
 62
     3
 10
364.842789773
 20
88.95
 11
363.991880682
 21
82.85
  0
LINE
  8
0
  6
CONTINUOUS
 62
     3
 10
364.748244318
 20
89.1
 11
364.8300625
 21
89.0
  0
LINE
  8
0
  6
CONTINUOUS
 62
     3
 10
364.3800625
 20
89.55
 11
364.584607955
 21
89.3
  0
LINE
  8
0
  6
CONTINUOUS
 62
     3
 10
362.770971591
 20
83.05
 11
363.476426136
 21
88.15
  0
LINE
  8
0
  6
CONTINUOUS
 62
     3
 10
357.998244318
 20
88.3
 11
357.263698864
 21
83.0
  0
LINE
  8
0
  6
CONTINUOUS
 62
     3
 10
363.2300625
 20
88.3
 11
358.1300625
 21
88.3
  0
LINE
  8
0
  6
CONTINUOUS
 62
     3
 10
356.015776786
 20
82.9
 11
356.858633929
 21
89.05
  0
LINE
  8
0
  6
CONTINUOUS
 62
     3
 10
357.4800625
 20
89.55
 11
364.4300625
 21
89.55
  0
LINE
  8
0
  6
CONTINUOUS
 62
     3
 10
357.4800625
 20
89.5
 11
357.4300625
 21
89.465384616
  0
LINE
  8
0
  6
CONTINUOUS
 62
     3
 10
357.1300625
 20
89.257692308
 11
356.8300625
 21
89.05
  0
LINE
  8
0
  6
CONTINUOUS
 62
     3
 10
357.3800625
 20
89.3
 11
357.3300625
 21
89.35
  0
LINE
  8
0
  6
CONTINUOUS
 62
     3
 10
357.3300625
 20
89.35
 11
357.4300625
 21
89.45
  0
LINE
  8
0
  6
CONTINUOUS
 62
     3
 10
357.1800625
 20
89.15
 11
357.1300625
 21
89.25
  0
LINE
  8
0
  6
CONTINUOUS
 62
     5
 10
307.3300625
 20
82.3
 11
307.3300625
 21
82.75
  0
LINE
  8
0
  6
CONTINUOUS
 62
     5
 10
307.1800625
 20
82.55
 11
307.4300625
 21
82.55
  0
LINE
  8
0
  6
CONTINUOUS
 62
     5
 10
320.3300625
 20
82.3
 11
320.3300625
 21
82.75
  0
LINE
  8
0
  6
CONTINUOUS
 62
     5
 10
320.1800625
 20
82.55
 11
320.4300625
 21
82.55
  0
LINE
  8
0
  6
CONTINUOUS
 62
     5
 10
333.3300625
 20
82.3
 11
333.3300625
 21
82.75
  0
LINE
  8
0
  6
CONTINUOUS
 62
     5
 10
333.1800625
 20
82.55
 11
333.4300625
 21
82.55
  0
LINE
  8
0
  6
CONTINUOUS
 62
     5
 10
346.3300625
 20
82.3
 11
346.3300625
 21
82.75
  0
LINE
  8
0
  6
CONTINUOUS
 62
     5
 10
346.1800625
 20
82.55
 11
346.4300625
 21
82.55
  0
LINE
  8
0
  6
CONTINUOUS
 62
     5
 10
359.9300625
 20
82.3
 11
359.9300625
 21
82.75
  0
LINE
  8
0
  6
CONTINUOUS
 62
     5
 10
359.7800625
 20
82.55
 11
360.0300625
 21
82.55
  0
LINE
  8
0
  6
CONTINUOUS
 62
     5
 10
151.8410625
 20
89.3
 11
151.7910625
 21
89.35
  0
LINE
  8
0
  6
CONTINUOUS
 62
     5
 10
151.6410625
 20
89.15
 11
151.5910625
 21
89.25
  0
LINE
  8
0
  6
CONTINUOUS
 62
     5
 10
158.8410625
 20
89.55
 11
158.978900338
 21
89.381531532
  0
LINE
  8
0
  6
CONTINUOUS
 62
     5
 10
157.6810625
 20
88.3
 11
158.978900338
 21
89.381531532
  0
LINE
  8
0
  6
CONTINUOUS
 62
     5
 10
157.6810625
 20
88.3
 11
152.6910625
 21
88.3
  0
LINE
  8
0
  6
CONTINUOUS
 62
     5
 10
152.450796882
 20
88.23904882
 11
151.6410625
 21
89.15
  0
LINE
  8
0
  6
CONTINUOUS
 62
     5
 10
152.6910625
 20
88.3
 11
151.795116554
 21
89.354054054
  0
LINE
  8
0
  6
CONTINUOUS
 62
     5
 10
152.013284722
 20
89.55
 11
158.8410625
 21
89.55
  0
LINE
  8
0
  6
CONTINUOUS
 62
     5
 10
151.5910625
 20
89.257692308
 11
151.322628979
 21
89.071853716
  0
LINE
  8
0
  6
CONTINUOUS
 62
     5
 10
151.795116554
 20
89.354054054
 11
151.9410625
 21
89.5
  0
LINE
  8
0
  6
CONTINUOUS
 62
     5
 10
152.013284722
 20
89.55
 11
151.9410625
 21
89.5
  0
LINE
  8
0
  6
CONTINUOUS
 62
     5
 10
152.450796882
 20
88.23904882
 11
151.741400497
 21
83.120508073
  0
LINE
  8
0
  6
CONTINUOUS
 62
     5
 10
151.741400497
 20
83.120508073
 11
150.696325658
 21
82.694736842
  0
LINE
  8
0
  6
CONTINUOUS
 62
     5
 10
150.478498659
 20
82.912563841
 11
151.322628979
 21
89.071853716
  0
LINE
  8
0
  6
CONTINUOUS
 62
     5
 10
150.696325658
 20
82.694736842
 11
150.478498659
 21
82.912563841
  0
LINE
  8
0
  6
CONTINUOUS
 62
     5
 10
150.623415441
 20
82.335294118
 11
151.5410625
 21
81.8
  0
LINE
  8
0
  6
CONTINUOUS
 62
     5
 10
150.623415441
 20
82.335294118
 11
150.324846284
 21
82.086486487
  0
LINE
  8
0
  6
CONTINUOUS
 62
     5
 10
149.8910625
 20
75.55
 11
149.8910625
 21
75.55
  0
LINE
  8
0
  6
CONTINUOUS
 62
     5
 10
151.2410625
 20
76.8
 11
149.8348125
 21
75.55
  0
LINE
  8
0
  6
CONTINUOUS
 62
     5
 10
151.550153409
 20
81.8
 11
150.819232644
 21
76.774919743
  0
LINE
  8
0
  6
CONTINUOUS
 62
     5
 10
149.475808263
 20
76.143220339
 11
150.324846284
 21
82.086486487
  0
LINE
  8
0
  6
CONTINUOUS
 62
     5
 10
150.819232644
 20
76.774919743
 11
149.716478177
 21
75.799406176
  0
LINE
  8
0
  6
CONTINUOUS
 62
     5
 10
149.475808263
 20
76.143220339
 11
149.716478177
 21
75.799406176
  0
LINE
  8
0
  6
CONTINUOUS
 62
     5
 10
156.2230625
 20
76.8
 11
151.2410625
 21
76.8
  0
LINE
  8
0
  6
CONTINUOUS
 62
     5
 10
156.2230625
 20
76.8
 11
156.978364087
 21
75.61984127
  0
LINE
  8
0
  6
CONTINUOUS
 62
     5
 10
156.8910625
 20
75.55
 11
156.978364087
 21
75.61984127
  0
LINE
  8
0
  6
CONTINUOUS
 62
     5
 10
156.8910625
 20
75.55
 11
149.8348125
 21
75.55
  0
LINE
  8
0
  6
CONTINUOUS
 62
     5
 10
154.3910625
 20
82.3
 11
154.3910625
 21
82.75
  0
LINE
  8
0
  6
CONTINUOUS
 62
     5
 10
154.2410625
 20
82.55
 11
154.4910625
 21
82.55
  0
LINE
  8
0
  6
CONTINUOUS
 62
     5
 10
167.3910625
 20
82.3
 11
167.3910625
 21
82.75
  0
LINE
  8
0
  6
CONTINUOUS
 62
     5
 10
167.2410625
 20
82.55
 11
167.4910625
 21
82.55
  0
LINE
  8
0
  6
CONTINUOUS
 62
     5
 10
180.3910625
 20
82.3
 11
180.3910625
 21
82.75
  0
LINE
  8
0
  6
CONTINUOUS
 62
     5
 10
180.2410625
 20
82.55
 11
180.4910625
 21
82.55
  0
LINE
  8
0
  6
CONTINUOUS
 62
     5
 10
193.3910625
 20
82.3
 11
193.3910625
 21
82.75
  0
LINE
  8
0
  6
CONTINUOUS
 62
     5
 10
193.2410625
 20
82.55
 11
193.4910625
 21
82.55
  0
LINE
  8
0
  6
CONTINUOUS
 62
     5
 10
206.9910625
 20
82.3
 11
206.9910625
 21
82.75
  0
LINE
  8
0
  6
CONTINUOUS
 62
     5
 10
206.8410625
 20
82.55
 11
207.0910625
 21
82.55
  0
LINE
  8
0
  6
CONTINUOUS
 62
     4
 10
232.9
 20
99.05
 11
242.7910625
 21
99.05
  0
LINE
  8
0
  6
CONTINUOUS
 62
     4
 10
241.7910625
 20
99.05
 11
241.27342441
 21
97.118148347
  0
LINE
  8
0
  6
CONTINUOUS
 62
     4
 10
241.7910625
 20
99.05
 11
242.30870059
 21
97.118148347
  0
LINE
  8
0
  6
CONTINUOUS
 62
     4
 10
241.7910625
 20
99.05
 11
241.7910625
 21
89.55
  0
LINE
  8
0
  6
CONTINUOUS
 62
     4
 10
241.7910625
 20
89.55
 11
242.30870059
 21
91.481851653
  0
LINE
  8
0
  6
CONTINUOUS
 62
     4
 10
241.7910625
 20
89.55
 11
241.27342441
 21
91.481851653
  0
TEXT
  8
0
  6
CONTINUOUS
 62
     4
 10
241.2910625
 20
91.9
 30
0.0
 40
2.0
  1
９．５
 50
90.0
 41
0.8
 51
0.0
  7
KANJI2
  0
LINE
  8
0
  6
CONTINUOUS
 62
     4
 10
241.7910625
 20
75.55
 11
242.30870059
 21
77.481851653
  0
LINE
  8
0
  6
CONTINUOUS
 62
     4
 10
241.7910625
 20
75.55
 11
241.27342441
 21
77.481851653
  0
LINE
  8
0
  6
CONTINUOUS
 62
     4
 10
241.7910625
 20
75.55
 11
241.7910625
 21
89.55
  0
LINE
  8
0
  6
CONTINUOUS
 62
     4
 10
241.7910625
 20
89.55
 11
241.27342441
 21
87.618148348
  0
LINE
  8
0
  6
CONTINUOUS
 62
     4
 10
241.7910625
 20
89.55
 11
242.30870059
 21
87.618148348
  0
TEXT
  8
0
  6
CONTINUOUS
 62
     4
 10
241.2910625
 20
80.95
 30
0.0
 40
2.0
  1
１４
 50
90.0
 41
0.8
 51
0.0
  7
KANJI2
  0
LINE
  8
0
  6
CONTINUOUS
 62
     4
 10
232.9
 20
66.05
 11
242.7910625
 21
66.05
  0
LINE
  8
0
  6
CONTINUOUS
 62
     4
 10
241.7910625
 20
66.05
 11
242.30870059
 21
67.981851653
  0
LINE
  8
0
  6
CONTINUOUS
 62
     4
 10
241.7910625
 20
66.05
 11
241.27342441
 21
67.981851653
  0
LINE
  8
0
  6
CONTINUOUS
 62
     4
 10
241.7910625
 20
66.05
 11
241.7910625
 21
75.55
  0
LINE
  8
0
  6
CONTINUOUS
 62
     4
 10
241.7910625
 20
75.55
 11
241.27342441
 21
73.618148348
  0
LINE
  8
0
  6
CONTINUOUS
 62
     4
 10
241.7910625
 20
75.55
 11
242.30870059
 21
73.618148348
  0
TEXT
  8
0
  6
CONTINUOUS
 62
     4
 10
241.2910625
 20
68.4
 30
0.0
 40
2.0
  1
９．５
 50
90.0
 41
0.8
 51
0.0
  7
KANJI2
  0
LINE
  8
0
  6
CONTINUOUS
 62
     4
 10
147.3910625
 20
91.15
 11
125.9910625
 21
91.15
  0
LINE
  8
0
  6
CONTINUOUS
 62
     4
 10
126.9910625
 20
91.15
 11
126.47342441
 21
89.218148348
  0
LINE
  8
0
  6
CONTINUOUS
 62
     4
 10
126.9910625
 20
91.15
 11
127.50870059
 21
89.218148348
  0
LINE
  8
0
  6
CONTINUOUS
 62
     4
 10
126.9910625
 20
91.15
 11
126.9910625
 21
73.95
  0
LINE
  8
0
  6
CONTINUOUS
 62
     4
 10
126.9910625
 20
73.95
 11
127.50870059
 21
75.881851653
  0
LINE
  8
0
  6
CONTINUOUS
 62
     4
 10
126.9910625
 20
73.95
 11
126.47342441
 21
75.881851653
  0
LINE
  8
0
  6
CONTINUOUS
 62
     4
 10
147.3910625
 20
73.95
 11
125.9910625
 21
73.95
  0
TEXT
  8
0
  6
CONTINUOUS
 62
     4
 10
126.4910625
 20
79.35
 30
0.0
 40
2.0
  1
１７．２
 50
90.0
 41
0.8
 51
0.0
  7
KANJI2
  0
LINE
  8
0
  6
CONTINUOUS
 62
     2
 10
169.366517045
 20
77.1
 11
170.050153409
 21
81.8
  0
LINE
  8
0
  6
CONTINUOUS
 62
     2
 10
169.3910625
 20
77.05
 11
170.1910625
 21
75.85
  0
LINE
  8
0
  6
CONTINUOUS
 62
     2
 10
169.8910625
 20
75.55
 11
170.0410625
 21
75.67
  0
LINE
  8
0
  6
CONTINUOUS
 62
     2
 10
170.1910625
 20
75.79
 11
170.3910625
 21
75.95
  0
LINE
  8
0
  6
CONTINUOUS
 62
     2
 10
164.550153409
 20
81.8
 11
163.815607955
 21
76.75
  0
LINE
  8
0
  6
CONTINUOUS
 62
     2
 10
163.7910625
 20
76.75
 11
162.6910625
 21
75.776923077
  0
LINE
  8
0
  6
CONTINUOUS
 62
     2
 10
169.8910625
 20
75.55
 11
162.8910625
 21
75.55
  0
LINE
  8
0
  6
CONTINUOUS
 62
     2
 10
162.5410625
 20
76.05
 11
162.7160625
 21
75.8
  0
LINE
  8
0
  6
CONTINUOUS
 62
     2
 10
162.469633929
 20
76.1
 11
163.326776786
 21
82.1
  0
LINE
  8
0
  6
CONTINUOUS
 62
     2
 10
171.365607955
 20
82.25
 11
170.456517045
 21
76.0
  0
LINE
  8
0
  6
CONTINUOUS
 62
     2
 10
169.1910625
 20
76.8
 11
164.2410625
 21
76.8
  0
LINE
  8
0
  6
CONTINUOUS
 62
     2
 10
169.1910625
 20
76.85
 11
169.9910625
 21
75.6
  0
LINE
  8
0
  6
CONTINUOUS
 62
     2
 10
164.2410625
 20
76.8
 11
162.8910625
 21
75.6
  0
LINE
  8
0
  6
CONTINUOUS
 62
     2
 10
162.8910625
 20
75.55
 11
162.8910625
 21
75.55
  0
LINE
  8
0
  6
CONTINUOUS
 62
     2
 10
171.8410625
 20
89.55
 11
172.045607955
 21
89.3
  0
LINE
  8
0
  6
CONTINUOUS
 62
     2
 10
164.9410625
 20
89.5
 11
164.8910625
 21
89.465384616
  0
LINE
  8
0
  6
CONTINUOUS
 62
     2
 10
164.7910625
 20
89.35
 11
164.8910625
 21
89.45
  0
POINT
  8
0
  6
CONTINUOUS
 62
     2
 10
183.079244318
 20
82.0
  0
LINE
  8
0
  6
CONTINUOUS
 62
     2
 10
182.366517045
 20
77.1
 11
183.050153409
 21
81.8
  0
LINE
  8
0
  6
CONTINUOUS
 62
     2
 10
182.3910625
 20
77.05
 11
183.1910625
 21
75.85
  0
LINE
  8
0
  6
CONTINUOUS
 62
     2
 10
182.8910625
 20
75.55
 11
183.0410625
 21
75.67
  0
LINE
  8
0
  6
CONTINUOUS
 62
     2
 10
183.1910625
 20
75.79
 11
183.3910625
 21
75.95
  0
LINE
  8
0
  6
CONTINUOUS
 62
     2
 10
177.550153409
 20
81.8
 11
176.815607955
 21
76.75
  0
LINE
  8
0
  6
CONTINUOUS
 62
     2
 10
176.7910625
 20
76.75
 11
175.6910625
 21
75.776923077
  0
LINE
  8
0
  6
CONTINUOUS
 62
     2
 10
182.8910625
 20
75.55
 11
175.8910625
 21
75.55
  0
LINE
  8
0
  6
CONTINUOUS
 62
     2
 10
175.5410625
 20
76.05
 11
175.7160625
 21
75.8
  0
LINE
  8
0
  6
CONTINUOUS
 62
     2
 10
184.1410625
 20
82.4
 11
184.3410625
 21
82.3
  0
LINE
  8
0
  6
CONTINUOUS
 62
     2
 10
184.1910625
 20
82.7
 11
184.4910625
 21
82.9
  0
LINE
  8
0
  6
CONTINUOUS
 62
     2
 10
176.7410625
 20
82.65
 11
176.4910625
 21
82.9
  0
LINE
  8
0
  6
CONTINUOUS
 62
     2
 10
176.6410625
 20
82.35
 11
176.3410625
 21
82.1
  0
LINE
  8
0
  6
CONTINUOUS
 62
     2
 10
176.6410625
 20
82.325
 11
177.5410625
 21
81.8
  0
LINE
  8
0
  6
CONTINUOUS
 62
     2
 10
175.469633929
 20
76.1
 11
176.326776786
 21
82.1
  0
LINE
  8
0
  6
CONTINUOUS
 62
     2
 10
177.6910625
 20
83.1
 11
176.7410625
 21
82.712962963
  0
LINE
  8
0
  6
CONTINUOUS
 62
     2
 10
182.8410625
 20
83.05
 11
183.7910625
 21
82.55
  0
LINE
  8
0
  6
CONTINUOUS
 62
     2
 10
183.7910625
 20
82.55
 11
182.5910625
 21
81.9
  0
LINE
  8
0
  6
CONTINUOUS
 62
     2
 10
178.1910625
 20
83.1
 11
176.9910625
 21
82.5
  0
LINE
  8
0
  6
CONTINUOUS
 62
     2
 10
177.7910625
 20
81.95
 11
177.0410625
 21
82.4
  0
LINE
  8
0
  6
CONTINUOUS
 62
     2
 10
184.365607955
 20
82.25
 11
183.456517045
 21
76.0
  0
LINE
  8
0
  6
CONTINUOUS
 62
     2
 10
184.1910625
 20
82.631818182
 11
183.2410625
 21
83.15
  0
LINE
  8
0
  6
CONTINUOUS
 62
     2
 10
183.0410625
 20
81.85
 11
184.1410625
 21
82.422
  0
LINE
  8
0
  6
CONTINUOUS
 62
     2
 10
182.1910625
 20
76.8
 11
177.2410625
 21
76.8
  0
LINE
  8
0
  6
CONTINUOUS
 62
     2
 10
182.1910625
 20
76.85
 11
182.9910625
 21
75.6
  0
LINE
  8
0
  6
CONTINUOUS
 62
     2
 10
177.2410625
 20
76.8
 11
175.8910625
 21
75.6
  0
LINE
  8
0
  6
CONTINUOUS
 62
     2
 10
175.8910625
 20
75.55
 11
175.8910625
 21
75.55
  0
LINE
  8
0
  6
CONTINUOUS
 62
     2
 10
177.8410625
 20
81.9
 11
182.5910625
 21
81.9
  0
LINE
  8
0
  6
CONTINUOUS
 62
     2
 10
182.7910625
 20
83.15
 11
178.2410625
 21
83.15
  0
LINE
  8
0
  6
CONTINUOUS
 62
     2
 10
178.6910625
 20
88.3
 11
177.8410625
 21
89.3
  0
LINE
  8
0
  6
CONTINUOUS
 62
     2
 10
178.4410625
 20
88.25
 11
177.6410625
 21
89.15
  0
LINE
  8
0
  6
CONTINUOUS
 62
     2
 10
183.7410625
 20
88.35
 11
184.9410625
 21
89.35
  0
LINE
  8
0
  6
CONTINUOUS
 62
     2
 10
185.0910625
 20
89.15
 11
183.9410625
 21
88.15
  0
LINE
  8
0
  6
CONTINUOUS
 62
     2
 10
185.303789773
 20
88.95
 11
184.452880682
 21
82.85
  0
LINE
  8
0
  6
CONTINUOUS
 62
     2
 10
185.209244318
 20
89.1
 11
185.2910625
 21
89.0
  0
LINE
  8
0
  6
CONTINUOUS
 62
     2
 10
184.8410625
 20
89.55
 11
185.045607955
 21
89.3
  0
LINE
  8
0
  6
CONTINUOUS
 62
     2
 10
183.231971591
 20
83.05
 11
183.937426136
 21
88.15
  0
LINE
  8
0
  6
CONTINUOUS
 62
     2
 10
178.459244318
 20
88.3
 11
177.724698864
 21
83.0
  0
LINE
  8
0
  6
CONTINUOUS
 62
     2
 10
183.6910625
 20
88.3
 11
178.5910625
 21
88.3
  0
LINE
  8
0
  6
CONTINUOUS
 62
     2
 10
176.476776786
 20
82.9
 11
177.319633929
 21
89.05
  0
LINE
  8
0
  6
CONTINUOUS
 62
     2
 10
177.9410625
 20
89.55
 11
184.8910625
 21
89.55
  0
LINE
  8
0
  6
CONTINUOUS
 62
     2
 10
177.9410625
 20
89.5
 11
177.8910625
 21
89.465384616
  0
LINE
  8
0
  6
CONTINUOUS
 62
     2
 10
177.5910625
 20
89.257692308
 11
177.2910625
 21
89.05
  0
LINE
  8
0
  6
CONTINUOUS
 62
     2
 10
177.8410625
 20
89.3
 11
177.7910625
 21
89.35
  0
LINE
  8
0
  6
CONTINUOUS
 62
     2
 10
177.7910625
 20
89.35
 11
177.8910625
 21
89.45
  0
LINE
  8
0
  6
CONTINUOUS
 62
     2
 10
177.6410625
 20
89.15
 11
177.5910625
 21
89.25
  0
POINT
  8
0
  6
CONTINUOUS
 62
     2
 10
196.079244318
 20
82.0
  0
LINE
  8
0
  6
CONTINUOUS
 62
     2
 10
195.366517045
 20
77.1
 11
196.050153409
 21
81.8
  0
LINE
  8
0
  6
CONTINUOUS
 62
     2
 10
195.3910625
 20
77.05
 11
196.1910625
 21
75.85
  0
LINE
  8
0
  6
CONTINUOUS
 62
     2
 10
195.8910625
 20
75.55
 11
196.0410625
 21
75.67
  0
LINE
  8
0
  6
CONTINUOUS
 62
     2
 10
196.1910625
 20
75.79
 11
196.3910625
 21
75.95
  0
LINE
  8
0
  6
CONTINUOUS
 62
     2
 10
190.550153409
 20
81.8
 11
189.815607955
 21
76.75
  0
LINE
  8
0
  6
CONTINUOUS
 62
     2
 10
189.7910625
 20
76.75
 11
188.6910625
 21
75.776923077
  0
LINE
  8
0
  6
CONTINUOUS
 62
     2
 10
195.8910625
 20
75.55
 11
188.8910625
 21
75.55
  0
LINE
  8
0
  6
CONTINUOUS
 62
     2
 10
188.5410625
 20
76.05
 11
188.7160625
 21
75.8
  0
LINE
  8
0
  6
CONTINUOUS
 62
     2
 10
197.1410625
 20
82.4
 11
197.3410625
 21
82.3
  0
LINE
  8
0
  6
CONTINUOUS
 62
     2
 10
197.1910625
 20
82.7
 11
197.4910625
 21
82.9
  0
LINE
  8
0
  6
CONTINUOUS
 62
     2
 10
189.7410625
 20
82.65
 11
189.4910625
 21
82.9
  0
LINE
  8
0
  6
CONTINUOUS
 62
     2
 10
189.6410625
 20
82.35
 11
189.3410625
 21
82.1
  0
LINE
  8
0
  6
CONTINUOUS
 62
     2
 10
189.6410625
 20
82.325
 11
190.5410625
 21
81.8
  0
LINE
  8
0
  6
CONTINUOUS
 62
     2
 10
188.469633929
 20
76.1
 11
189.326776786
 21
82.1
  0
LINE
  8
0
  6
CONTINUOUS
 62
     2
 10
190.6910625
 20
83.1
 11
189.7410625
 21
82.712962963
  0
LINE
  8
0
  6
CONTINUOUS
 62
     2
 10
195.8410625
 20
83.05
 11
196.7910625
 21
82.55
  0
LINE
  8
0
  6
CONTINUOUS
 62
     2
 10
196.7910625
 20
82.55
 11
195.5910625
 21
81.9
  0
LINE
  8
0
  6
CONTINUOUS
 62
     2
 10
191.1910625
 20
83.1
 11
189.9910625
 21
82.5
  0
LINE
  8
0
  6
CONTINUOUS
 62
     2
 10
190.7910625
 20
81.95
 11
190.0410625
 21
82.4
  0
LINE
  8
0
  6
CONTINUOUS
 62
     2
 10
197.365607955
 20
82.25
 11
196.456517045
 21
76.0
  0
LINE
  8
0
  6
CONTINUOUS
 62
     2
 10
197.1910625
 20
82.631818182
 11
196.2410625
 21
83.15
  0
LINE
  8
0
  6
CONTINUOUS
 62
     2
 10
196.0410625
 20
81.85
 11
197.1410625
 21
82.422
  0
LINE
  8
0
  6
CONTINUOUS
 62
     2
 10
195.1910625
 20
76.8
 11
190.2410625
 21
76.8
  0
LINE
  8
0
  6
CONTINUOUS
 62
     2
 10
195.1910625
 20
76.85
 11
195.9910625
 21
75.6
  0
LINE
  8
0
  6
CONTINUOUS
 62
     2
 10
190.2410625
 20
76.8
 11
188.8910625
 21
75.6
  0
LINE
  8
0
  6
CONTINUOUS
 62
     2
 10
188.8910625
 20
75.55
 11
188.8910625
 21
75.55
  0
LINE
  8
0
  6
CONTINUOUS
 62
     2
 10
190.8410625
 20
81.9
 11
195.5910625
 21
81.9
  0
LINE
  8
0
  6
CONTINUOUS
 62
     2
 10
195.7910625
 20
83.15
 11
191.2410625
 21
83.15
  0
LINE
  8
0
  6
CONTINUOUS
 62
     2
 10
191.6910625
 20
88.3
 11
190.8410625
 21
89.3
  0
LINE
  8
0
  6
CONTINUOUS
 62
     2
 10
191.4410625
 20
88.25
 11
190.6410625
 21
89.15
  0
LINE
  8
0
  6
CONTINUOUS
 62
     2
 10
196.7410625
 20
88.35
 11
197.9410625
 21
89.35
  0
LINE
  8
0
  6
CONTINUOUS
 62
     2
 10
198.0910625
 20
89.15
 11
196.9410625
 21
88.15
  0
LINE
  8
0
  6
CONTINUOUS
 62
     2
 10
198.303789773
 20
88.95
 11
197.452880682
 21
82.85
  0
LINE
  8
0
  6
CONTINUOUS
 62
     2
 10
198.209244318
 20
89.1
 11
198.2910625
 21
89.0
  0
LINE
  8
0
  6
CONTINUOUS
 62
     2
 10
197.8410625
 20
89.55
 11
198.045607955
 21
89.3
  0
LINE
  8
0
  6
CONTINUOUS
 62
     2
 10
196.231971591
 20
83.05
 11
196.937426136
 21
88.15
  0
LINE
  8
0
  6
CONTINUOUS
 62
     2
 10
191.459244318
 20
88.3
 11
190.724698864
 21
83.0
  0
LINE
  8
0
  6
CONTINUOUS
 62
     2
 10
196.6910625
 20
88.3
 11
191.5910625
 21
88.3
  0
LINE
  8
0
  6
CONTINUOUS
 62
     2
 10
189.476776786
 20
82.9
 11
190.319633929
 21
89.05
  0
LINE
  8
0
  6
CONTINUOUS
 62
     2
 10
190.9410625
 20
89.55
 11
197.8910625
 21
89.55
  0
LINE
  8
0
  6
CONTINUOUS
 62
     2
 10
190.9410625
 20
89.5
 11
190.8910625
 21
89.465384616
  0
LINE
  8
0
  6
CONTINUOUS
 62
     2
 10
190.5910625
 20
89.257692308
 11
190.2910625
 21
89.05
  0
LINE
  8
0
  6
CONTINUOUS
 62
     2
 10
190.8410625
 20
89.3
 11
190.7910625
 21
89.35
  0
LINE
  8
0
  6
CONTINUOUS
 62
     2
 10
190.7910625
 20
89.35
 11
190.8910625
 21
89.45
  0
LINE
  8
0
  6
CONTINUOUS
 62
     2
 10
190.6410625
 20
89.15
 11
190.5910625
 21
89.25
  0
LINE
  8
0
  6
CONTINUOUS
 62
     2
 10
164.9410625
 20
89.55
 11
171.8910625
 21
89.55
  0
LINE
  8
0
  6
CONTINUOUS
 62
     2
 10
152.2910625
 20
83.15
 11
150.927426136
 21
82.468181818
  0
LINE
  8
0
  6
CONTINUOUS
 62
     2
 10
151.874395833
 20
81.9
 11
150.927426136
 21
82.468181818
  0
LINE
  8
0
  6
CONTINUOUS
 62
     2
 10
158.370723517
 20
82.285169492
 11
157.456906121
 21
76.002674897
  0
LINE
  8
0
  6
CONTINUOUS
 62
     2
 10
157.217149457
 20
75.810869565
 11
157.456906121
 21
76.002674897
  0
LINE
  8
0
  6
CONTINUOUS
 62
     2
 10
156.364943097
 20
77.089179105
 11
157.217149457
 21
75.810869565
  0
LINE
  8
0
  6
CONTINUOUS
 62
     2
 10
156.364943097
 20
77.089179105
 11
157.058765096
 21
81.85920535
  0
POINT
  8
0
  6
CONTINUOUS
 62
     2
 10
170.079244318
 20
82.0
  0
LINE
  8
0
  6
CONTINUOUS
 62
     2
 10
171.1410625
 20
82.4
 11
171.3410625
 21
82.3
  0
LINE
  8
0
  6
CONTINUOUS
 62
     2
 10
171.1910625
 20
82.7
 11
171.4910625
 21
82.9
  0
LINE
  8
0
  6
CONTINUOUS
 62
     2
 10
163.7410625
 20
82.65
 11
163.4910625
 21
82.9
  0
LINE
  8
0
  6
CONTINUOUS
 62
     2
 10
163.6410625
 20
82.35
 11
163.3410625
 21
82.1
  0
LINE
  8
0
  6
CONTINUOUS
 62
     2
 10
163.6410625
 20
82.325
 11
164.5410625
 21
81.8
  0
LINE
  8
0
  6
CONTINUOUS
 62
     2
 10
164.6910625
 20
83.1
 11
163.7410625
 21
82.712962963
  0
LINE
  8
0
  6
CONTINUOUS
 62
     2
 10
169.8410625
 20
83.05
 11
170.7910625
 21
82.55
  0
LINE
  8
0
  6
CONTINUOUS
 62
     2
 10
170.7910625
 20
82.55
 11
169.5910625
 21
81.9
  0
LINE
  8
0
  6
CONTINUOUS
 62
     2
 10
165.1910625
 20
83.1
 11
163.9910625
 21
82.5
  0
LINE
  8
0
  6
CONTINUOUS
 62
     2
 10
164.7910625
 20
81.95
 11
164.0410625
 21
82.4
  0
LINE
  8
0
  6
CONTINUOUS
 62
     2
 10
171.1910625
 20
82.631818182
 11
170.2410625
 21
83.15
  0
LINE
  8
0
  6
CONTINUOUS
 62
     2
 10
170.0410625
 20
81.85
 11
171.1410625
 21
82.422
  0
LINE
  8
0
  6
CONTINUOUS
 62
     2
 10
164.8410625
 20
81.9
 11
169.5910625
 21
81.9
  0
LINE
  8
0
  6
CONTINUOUS
 62
     2
 10
169.7910625
 20
83.15
 11
165.2410625
 21
83.15
  0
LINE
  8
0
  6
CONTINUOUS
 62
     2
 10
165.6910625
 20
88.3
 11
164.8410625
 21
89.3
  0
LINE
  8
0
  6
CONTINUOUS
 62
     2
 10
165.4410625
 20
88.25
 11
164.6410625
 21
89.15
  0
LINE
  8
0
  6
CONTINUOUS
 62
     2
 10
170.7410625
 20
88.35
 11
171.9410625
 21
89.35
  0
LINE
  8
0
  6
CONTINUOUS
 62
     2
 10
172.0910625
 20
89.15
 11
170.9410625
 21
88.15
  0
LINE
  8
0
  6
CONTINUOUS
 62
     2
 10
172.303789773
 20
88.95
 11
171.452880682
 21
82.85
  0
LINE
  8
0
  6
CONTINUOUS
 62
     2
 10
172.209244318
 20
89.1
 11
172.2910625
 21
89.0
  0
LINE
  8
0
  6
CONTINUOUS
 62
     2
 10
170.231971591
 20
83.05
 11
170.937426136
 21
88.15
  0
LINE
  8
0
  6
CONTINUOUS
 62
     2
 10
165.459244318
 20
88.3
 11
164.724698864
 21
83.0
  0
LINE
  8
0
  6
CONTINUOUS
 62
     2
 10
170.6910625
 20
88.3
 11
165.5910625
 21
88.3
  0
LINE
  8
0
  6
CONTINUOUS
 62
     2
 10
163.476776786
 20
82.9
 11
164.319633929
 21
89.05
  0
LINE
  8
0
  6
CONTINUOUS
 62
     2
 10
164.5910625
 20
89.257692308
 11
164.2910625
 21
89.05
  0
LINE
  8
0
  6
CONTINUOUS
 62
     2
 10
164.8410625
 20
89.3
 11
164.7910625
 21
89.35
  0
LINE
  8
0
  6
CONTINUOUS
 62
     2
 10
164.6410625
 20
89.15
 11
164.5910625
 21
89.25
  0
POINT
  8
0
  6
CONTINUOUS
 62
     2
 10
157.079244318
 20
82.0
  0
LINE
  8
0
  6
CONTINUOUS
 62
     2
 10
159.136212615
 20
89.18926097
 11
157.9410625
 21
88.15
  0
LINE
  8
0
  6
CONTINUOUS
 62
     2
 10
159.136212615
 20
89.18926097
 11
159.307894687
 21
88.979427327
  0
LINE
  8
0
  6
CONTINUOUS
 62
     2
 10
157.245471384
 20
83.147595154
 11
157.937426136
 21
88.15
  0
LINE
  8
0
  6
CONTINUOUS
 62
     2
 10
158.1348125
 20
82.6625
 11
157.245471384
 21
83.147595154
  0
LINE
  8
0
  6
CONTINUOUS
 62
     2
 10
159.307894687
 20
88.979427327
 11
158.456655665
 21
82.87706211
  0
LINE
  8
0
  6
CONTINUOUS
 62
     2
 10
158.1348125
 20
82.6625
 11
158.456655665
 21
82.87706211
  0
LINE
  8
0
  6
CONTINUOUS
 62
     2
 10
156.6510625
 20
83.15
 11
157.7910625
 21
82.55
  0
LINE
  8
0
  6
CONTINUOUS
 62
     2
 10
156.6510625
 20
83.15
 11
152.2910625
 21
83.15
  0
LINE
  8
0
  6
CONTINUOUS
 62
     2
 10
151.874395833
 20
81.9
 11
156.5910625
 21
81.9
  0
LINE
  8
0
  6
CONTINUOUS
 62
     2
 10
157.7910625
 20
82.55
 11
156.5910625
 21
81.9
  0
LINE
  8
0
  6
CONTINUOUS
 62
     2
 10
157.058765096
 20
81.85920535
 11
158.1410625
 21
82.422
  0
LINE
  8
0
  6
CONTINUOUS
 62
     2
 10
158.1410625
 20
82.4
 11
158.370723517
 21
82.285169492
  0
POINT
  8
0
  6
CONTINUOUS
 62
     2
 10
209.679244318
 20
82.0
  0
LINE
  8
0
  6
CONTINUOUS
 62
     2
 10
208.966517045
 20
77.1
 11
209.650153409
 21
81.8
  0
LINE
  8
0
  6
CONTINUOUS
 62
     2
 10
208.9910625
 20
77.05
 11
209.7910625
 21
75.85
  0
LINE
  8
0
  6
CONTINUOUS
 62
     2
 10
209.4910625
 20
75.55
 11
209.6410625
 21
75.67
  0
LINE
  8
0
  6
CONTINUOUS
 62
     2
 10
209.7910625
 20
75.79
 11
209.9910625
 21
75.95
  0
LINE
  8
0
  6
CONTINUOUS
 62
     2
 10
209.4910625
 20
75.55
 11
202.4910625
 21
75.55
  0
LINE
  8
0
  6
CONTINUOUS
 62
     2
 10
210.7410625
 20
82.4
 11
210.9410625
 21
82.3
  0
LINE
  8
0
  6
CONTINUOUS
 62
     2
 10
210.7910625
 20
82.7
 11
211.0910625
 21
82.9
  0
LINE
  8
0
  6
CONTINUOUS
 62
     2
 10
209.4410625
 20
83.05
 11
210.3910625
 21
82.55
  0
LINE
  8
0
  6
CONTINUOUS
 62
     2
 10
210.3910625
 20
82.55
 11
209.1910625
 21
81.9
  0
LINE
  8
0
  6
CONTINUOUS
 62
     2
 10
210.965607955
 20
82.25
 11
210.056517045
 21
76.0
  0
LINE
  8
0
  6
CONTINUOUS
 62
     2
 10
210.7910625
 20
82.631818182
 11
209.8410625
 21
83.15
  0
LINE
  8
0
  6
CONTINUOUS
 62
     2
 10
209.6410625
 20
81.85
 11
210.7410625
 21
82.422
  0
LINE
  8
0
  6
CONTINUOUS
 62
     2
 10
208.7910625
 20
76.8
 11
203.8410625
 21
76.8
  0
LINE
  8
0
  6
CONTINUOUS
 62
     2
 10
208.7910625
 20
76.85
 11
209.5910625
 21
75.6
  0
LINE
  8
0
  6
CONTINUOUS
 62
     2
 10
204.4410625
 20
81.9
 11
209.1910625
 21
81.9
  0
LINE
  8
0
  6
CONTINUOUS
 62
     2
 10
209.3910625
 20
83.15
 11
204.8410625
 21
83.15
  0
LINE
  8
0
  6
CONTINUOUS
 62
     2
 10
205.2910625
 20
88.3
 11
204.4410625
 21
89.3
  0
LINE
  8
0
  6
CONTINUOUS
 62
     2
 10
210.3410625
 20
88.35
 11
211.5410625
 21
89.35
  0
LINE
  8
0
  6
CONTINUOUS
 62
     2
 10
211.6910625
 20
89.15
 11
210.5410625
 21
88.15
  0
LINE
  8
0
  6
CONTINUOUS
 62
     2
 10
211.903789773
 20
88.95
 11
211.052880682
 21
82.85
  0
LINE
  8
0
  6
CONTINUOUS
 62
     2
 10
211.809244318
 20
89.1
 11
211.8910625
 21
89.0
  0
LINE
  8
0
  6
CONTINUOUS
 62
     2
 10
211.4410625
 20
89.55
 11
211.645607955
 21
89.3
  0
LINE
  8
0
  6
CONTINUOUS
 62
     2
 10
209.831971591
 20
83.05
 11
210.537426136
 21
88.15
  0
LINE
  8
0
  6
CONTINUOUS
 62
     2
 10
205.059244318
 20
88.3
 11
204.324698864
 21
83.0
  0
LINE
  8
0
  6
CONTINUOUS
 62
     2
 10
210.2910625
 20
88.3
 11
205.1910625
 21
88.3
  0
LINE
  8
0
  6
CONTINUOUS
 62
     2
 10
204.5410625
 20
89.55
 11
211.4910625
 21
89.55
  0
LINE
  8
0
  6
CONTINUOUS
 62
     2
 10
204.150153409
 20
81.8
 11
203.415607955
 21
76.75
  0
LINE
  8
0
  6
CONTINUOUS
 62
     2
 10
203.3910625
 20
76.75
 11
202.2910625
 21
75.776923077
  0
LINE
  8
0
  6
CONTINUOUS
 62
     2
 10
202.1410625
 20
76.05
 11
202.3160625
 21
75.8
  0
LINE
  8
0
  6
CONTINUOUS
 62
     2
 10
203.3410625
 20
82.65
 11
203.0910625
 21
82.9
  0
LINE
  8
0
  6
CONTINUOUS
 62
     2
 10
203.2410625
 20
82.35
 11
202.9410625
 21
82.1
  0
LINE
  8
0
  6
CONTINUOUS
 62
     2
 10
203.2410625
 20
82.325
 11
204.1410625
 21
81.8
  0
LINE
  8
0
  6
CONTINUOUS
 62
     2
 10
202.069633929
 20
76.1
 11
202.926776786
 21
82.1
  0
LINE
  8
0
  6
CONTINUOUS
 62
     2
 10
204.2910625
 20
83.1
 11
203.3410625
 21
82.712962963
  0
LINE
  8
0
  6
CONTINUOUS
 62
     2
 10
204.7910625
 20
83.1
 11
203.5910625
 21
82.5
  0
LINE
  8
0
  6
CONTINUOUS
 62
     2
 10
204.3910625
 20
81.95
 11
203.6410625
 21
82.4
  0
LINE
  8
0
  6
CONTINUOUS
 62
     2
 10
203.8410625
 20
76.8
 11
202.4910625
 21
75.6
  0
LINE
  8
0
  6
CONTINUOUS
 62
     2
 10
202.4910625
 20
75.55
 11
202.4910625
 21
75.55
  0
LINE
  8
0
  6
CONTINUOUS
 62
     2
 10
205.0410625
 20
88.25
 11
204.2410625
 21
89.15
  0
LINE
  8
0
  6
CONTINUOUS
 62
     2
 10
203.076776786
 20
82.9
 11
203.919633929
 21
89.05
  0
LINE
  8
0
  6
CONTINUOUS
 62
     2
 10
204.5410625
 20
89.5
 11
204.4910625
 21
89.465384616
  0
LINE
  8
0
  6
CONTINUOUS
 62
     2
 10
204.1910625
 20
89.257692308
 11
203.8910625
 21
89.05
  0
LINE
  8
0
  6
CONTINUOUS
 62
     2
 10
204.4410625
 20
89.3
 11
204.3910625
 21
89.35
  0
LINE
  8
0
  6
CONTINUOUS
 62
     2
 10
204.3910625
 20
89.35
 11
204.4910625
 21
89.45
  0
LINE
  8
0
  6
CONTINUOUS
 62
     2
 10
204.2410625
 20
89.15
 11
204.1910625
 21
89.25
  0
ARC
  8
0
  6
CONTINUOUS
 62
     3
 10
290.339
 20
53.55
 40
1.0
 50
180.0
 51
270.0
  0
LINE
  8
0
  6
CONTINUOUS
 62
     3
 10
290.339
 20
52.55
 11
384.339
 21
52.55
  0
ARC
  8
0
  6
CONTINUOUS
 62
     3
 10
384.339
 20
53.55
 40
1.0
 50
270.0
 51
0.0
  0
ARC
  8
0
  6
CONTINUOUS
 62
     3
 10
384.339
 20
99.55
 40
1.0
 50
0.0
 51
90.0
  0
LINE
  8
0
  6
CONTINUOUS
 62
     3
 10
384.339
 20
100.55
 11
290.339
 21
100.55
  0
ARC
  8
0
  6
CONTINUOUS
 62
     3
 10
290.339
 20
99.55
 40
1.0
 50
90.0
 51
180.0
  0
LINE
  8
0
  6
CONTINUOUS
 62
     3
 10
289.339
 20
99.55
 11
289.339
 21
53.55
  0
LINE
  8
0
  6
CONTINUOUS
 62
     3
 10
385.339
 20
53.55
 11
385.339
 21
85.64
  0
LINE
  8
0
  6
CONTINUOUS
 62
     3
 10
385.339
 20
85.64
 11
385.339
 21
99.55
  0
LINE
  8
0
  6
CONTINUOUS
 62
     3
 10
294.839
 20
91.55
 11
294.839
 21
90.35
  0
LINE
  8
0
  6
CONTINUOUS
 62
     3
 10
294.839
 20
94.75
 11
294.839
 21
93.55
  0
LINE
  8
0
  6
CONTINUOUS
 62
     3
 10
293.189
 20
91.55
 11
293.189
 21
55.55
  0
POLYLINE
  8
0
  6
CONTINUOUS
 62
     3
 66
     1
  0
VERTEX
  8
0
  6
CONTINUOUS
 62
     3
 10
344.339
 20
97.55
  0
VERTEX
  8
0
  6
CONTINUOUS
 62
     3
 10
293.189
 20
97.55
  0
VERTEX
  8
0
  6
CONTINUOUS
 62
     3
 10
293.189
 20
91.55
  0
SEQEND
  0
LINE
  8
0
  6
CONTINUOUS
 62
     3
 10
294.839
 20
94.75
 11
293.189
 21
94.75
  0
LINE
  8
0
  6
CONTINUOUS
 62
     3
 10
294.839
 20
93.55
 11
293.189
 21
93.55
  0
LINE
  8
0
  6
CONTINUOUS
 62
     3
 10
294.839
 20
91.55
 11
293.189
 21
91.55
  0
LINE
  8
0
  6
CONTINUOUS
 62
     3
 10
294.839
 20
90.35
 11
293.189
 21
90.35
  0
LINE
  8
0
  6
CONTINUOUS
 62
     3
 10
379.839
 20
91.55
 11
379.839
 21
90.35
  0
LINE
  8
0
  6
CONTINUOUS
 62
     3
 10
379.839
 20
94.75
 11
379.839
 21
93.55
  0
LINE
  8
0
  6
CONTINUOUS
 62
     3
 10
379.839
 20
94.75
 11
381.489
 21
94.75
  0
LINE
  8
0
  6
CONTINUOUS
 62
     3
 10
379.839
 20
93.55
 11
381.489
 21
93.55
  0
LINE
  8
0
  6
CONTINUOUS
 62
     3
 10
379.839
 20
91.55
 11
381.489
 21
91.55
  0
LINE
  8
0
  6
CONTINUOUS
 62
     3
 10
379.839
 20
90.35
 11
381.489
 21
90.35
  0
LINE
  8
0
  6
CONTINUOUS
 62
     3
 10
379.839
 20
61.55
 11
379.839
 21
62.75
  0
LINE
  8
0
  6
CONTINUOUS
 62
     3
 10
379.839
 20
58.35
 11
379.839
 21
59.55
  0
LINE
  8
0
  6
CONTINUOUS
 62
     3
 10
379.839
 20
58.35
 11
381.489
 21
58.35
  0
LINE
  8
0
  6
CONTINUOUS
 62
     3
 10
379.839
 20
59.55
 11
381.489
 21
59.55
  0
LINE
  8
0
  6
CONTINUOUS
 62
     3
 10
379.839
 20
61.55
 11
381.489
 21
61.55
  0
LINE
  8
0
  6
CONTINUOUS
 62
     3
 10
379.839
 20
62.75
 11
381.489
 21
62.75
  0
LINE
  8
0
  6
CONTINUOUS
 62
     3
 10
294.839
 20
61.55
 11
294.839
 21
62.75
  0
LINE
  8
0
  6
CONTINUOUS
 62
     3
 10
294.839
 20
58.35
 11
294.839
 21
59.55
  0
LINE
  8
0
  6
CONTINUOUS
 62
     3
 10
294.839
 20
58.35
 11
293.189
 21
58.35
  0
LINE
  8
0
  6
CONTINUOUS
 62
     3
 10
294.839
 20
59.55
 11
293.189
 21
59.55
  0
LINE
  8
0
  6
CONTINUOUS
 62
     3
 10
294.839
 20
61.55
 11
293.189
 21
61.55
  0
LINE
  8
0
  6
CONTINUOUS
 62
     3
 10
294.839
 20
62.75
 11
293.189
 21
62.75
  0
LINE
  8
0
  6
CONTINUOUS
 62
     3
 10
293.189
 20
95.45
 11
289.339
 21
95.45
  0
LINE
  8
0
  6
CONTINUOUS
 62
     3
 10
381.489
 20
95.45
 11
385.339
 21
95.45
  0
LINE
  8
0
  6
CONTINUOUS
 62
     3
 10
385.339
 20
67.46
 11
385.339
 21
53.55
  0
LINE
  8
0
  6
CONTINUOUS
 62
     3
 10
381.489
 20
55.55
 11
381.489
 21
61.55
  0
LINE
  8
0
  6
CONTINUOUS
 62
     3
 10
381.489
 20
57.65
 11
385.339
 21
57.65
  0
LINE
  8
0
  6
CONTINUOUS
 62
     3
 10
289.339
 20
53.55
 11
289.339
 21
99.55
  0
LINE
  8
0
  6
CONTINUOUS
 62
     3
 10
293.189
 20
55.55
 11
293.189
 21
61.55
  0
LINE
  8
0
  6
CONTINUOUS
 62
     3
 10
293.189
 20
57.65
 11
289.339
 21
57.65
  0
LINE
  8
0
  6
CONTINUOUS
 62
     3
 10
381.489
 20
91.55
 11
381.489
 21
55.55
  0
LINE
  8
0
  6
CONTINUOUS
 62
     3
 10
293.189
 20
55.55
 11
381.489
 21
55.55
  0
LINE
  8
0
  6
CONTINUOUS
 62
     3
 10
380.489
 20
97.55
 11
381.489
 21
96.55
  0
LINE
  8
0
  6
CONTINUOUS
 62
     3
 10
381.489
 20
97.55
 11
344.339
 21
97.55
  0
LINE
  8
0
  6
CONTINUOUS
 62
     3
 10
381.489
 20
97.55
 11
381.489
 21
91.55
  0
LINE
  8
0
  6
CONTINUOUS
 62
     3
 10
380.489
 20
55.55
 11
381.489
 21
56.55
  0
LINE
  8
0
  6
CONTINUOUS
 62
     3
 10
294.189
 20
97.55
 11
293.189
 21
96.55
  0
LINE
  8
0
  6
CONTINUOUS
 62
     3
 10
294.189
 20
55.55
 11
293.189
 21
56.55
  0
LINE
  8
0
  6
CONTINUOUS
 62
     3
 10
381.489
 20
97.55
 11
383.739
 21
97.55
  0
LINE
  8
0
  6
CONTINUOUS
 62
     3
 10
383.239
 20
99.05
 11
337.339
 21
99.05
  0
LINE
  8
0
  6
CONTINUOUS
 62
     3
 10
383.739
 20
97.55
 11
383.739
 21
98.55
  0
ARC
  8
0
  6
CONTINUOUS
 62
     3
 10
383.239
 20
98.55
 40
0.5
 50
0.0
 51
90.0
  0
LINE
  8
0
  6
CONTINUOUS
 62
     3
 10
293.189
 20
97.55
 11
290.939
 21
97.55
  0
LINE
  8
0
  6
CONTINUOUS
 62
     3
 10
291.439
 20
99.05
 11
337.339
 21
99.05
  0
LINE
  8
0
  6
CONTINUOUS
 62
     3
 10
290.939
 20
97.55
 11
290.939
 21
98.55
  0
ARC
  8
0
  6
CONTINUOUS
 62
     3
 10
291.439
 20
98.55
 40
0.5
 50
90.0
 51
180.0
  0
LINE
  8
0
  6
CONTINUOUS
 62
     3
 10
293.189
 20
55.55
 11
290.939
 21
55.55
  0
LINE
  8
0
  6
CONTINUOUS
 62
     3
 10
291.439
 20
54.05
 11
337.339
 21
54.05
  0
LINE
  8
0
  6
CONTINUOUS
 62
     3
 10
290.939
 20
55.55
 11
290.939
 21
54.55
  0
ARC
  8
0
  6
CONTINUOUS
 62
     3
 10
291.439
 20
54.55
 40
0.5
 50
180.0
 51
270.0
  0
LINE
  8
0
  6
CONTINUOUS
 62
     3
 10
381.489
 20
55.55
 11
383.739
 21
55.55
  0
LINE
  8
0
  6
CONTINUOUS
 62
     3
 10
383.239
 20
54.05
 11
337.339
 21
54.05
  0
LINE
  8
0
  6
CONTINUOUS
 62
     3
 10
383.739
 20
55.55
 11
383.739
 21
54.55
  0
ARC
  8
0
  6
CONTINUOUS
 62
     3
 10
383.239
 20
54.55
 40
0.5
 50
270.0
 51
0.0
  0
LINE
  8
0
  6
LTYPE1
 62
     1
 10
337.339
 20
87.9
 11
337.339
 21
92.75
  0
LINE
  8
0
  6
LTYPE1
 62
     1
 10
337.339
 20
55.96
 11
337.339
 21
98.11
  0
LINE
  8
0
  6
CONTINUOUS
 62
     3
 10
293.189
 20
62.4
 11
294.839
 21
62.4
  0
LINE
  8
0
  6
CONTINUOUS
 62
     3
 10
293.189
 20
58.7
 11
294.839
 21
58.7
  0
LINE
  8
0
  6
CONTINUOUS
 62
     3
 10
293.189
 20
90.7
 11
294.839
 21
90.7
  0
LINE
  8
0
  6
CONTINUOUS
 62
     3
 10
293.189
 20
94.4
 11
294.839
 21
94.4
  0
LINE
  8
0
  6
CONTINUOUS
 62
     3
 10
381.489
 20
94.4
 11
379.839
 21
94.4
  0
LINE
  8
0
  6
CONTINUOUS
 62
     3
 10
381.489
 20
90.7
 11
379.839
 21
90.7
  0
LINE
  8
0
  6
CONTINUOUS
 62
     3
 10
381.489
 20
58.7
 11
379.839
 21
58.7
  0
LINE
  8
0
  6
CONTINUOUS
 62
     3
 10
381.489
 20
62.4
 11
379.839
 21
62.4
  0
LINE
  8
0
  6
LTYPE3
 62
     1
 10
357.339
 20
98.05
 11
367.339
 21
98.05
  0
LINE
  8
0
  6
LTYPE3
 62
     1
 10
367.339
 20
98.05
 11
367.339
 21
99.05
  0
LINE
  8
0
  6
LTYPE3
 62
     1
 10
357.339
 20
98.05
 11
357.339
 21
99.05
  0
LINE
  8
0
  6
LTYPE3
 62
     1
 10
307.339
 20
99.05
 11
307.339
 21
98.05
  0
LINE
  8
0
  6
LTYPE3
 62
     1
 10
307.339
 20
98.05
 11
317.339
 21
98.05
  0
LINE
  8
0
  6
LTYPE3
 62
     1
 10
317.339
 20
98.05
 11
317.339
 21
99.05
  0
LINE
  8
0
  6
LTYPE3
 62
     1
 10
300.839
 20
55.55
 11
300.839
 21
54.55
  0
LINE
  8
0
  6
LTYPE3
 62
     1
 10
300.839
 20
54.55
 11
304.839
 21
54.55
  0
LINE
  8
0
  6
LTYPE3
 62
     1
 10
308.839
 20
55.55
 11
308.839
 21
54.55
  0
LINE
  8
0
  6
LTYPE3
 62
     1
 10
308.839
 20
54.55
 11
304.839
 21
54.55
  0
LINE
  8
0
  6
LTYPE3
 62
     1
 10
373.839
 20
55.55
 11
373.839
 21
54.55
  0
LINE
  8
0
  6
LTYPE3
 62
     1
 10
373.839
 20
54.55
 11
369.839
 21
54.55
  0
LINE
  8
0
  6
LTYPE3
 62
     1
 10
365.839
 20
55.55
 11
365.839
 21
54.55
  0
LINE
  8
0
  6
LTYPE3
 62
     1
 10
365.839
 20
54.55
 11
369.839
 21
54.55
  0
LINE
  8
0
  6
LTYPE1
 62
     1
 10
387.789
 20
76.55
 11
321.089
 21
76.55
  0
LINE
  8
0
  6
CONTINUOUS
 62
     3
 10
296.339
 20
56.05
 11
378.339
 21
56.05
  0
LINE
  8
0
  6
CONTINUOUS
 62
     3
 10
378.339
 20
56.05
 11
378.339
 21
97.05
  0
LINE
  8
0
  6
CONTINUOUS
 62
     3
 10
378.339
 20
97.05
 11
296.339
 21
97.05
  0
LINE
  8
0
  6
CONTINUOUS
 62
     3
 10
296.339
 20
97.05
 11
296.339
 21
56.05
  0
LINE
  8
0
 10
337.339
 20
76.55
 11
337.339
 21
76.55
  0
LINE
  8
0
  6
CONTINUOUS
 62
     3
 10
348.339
 20
97.550217391
 11
348.339
 21
97.05
  0
LINE
  8
0
  6
CONTINUOUS
 62
     3
 10
349.839
 20
97.05
 11
349.839
 21
97.550217391
  0
LINE
  8
0
  6
CONTINUOUS
 62
     3
 10
354.839
 20
97.05
 11
354.839
 21
97.550217391
  0
LINE
  8
0
  6
CONTINUOUS
 62
     3
 10
356.339
 20
97.550217391
 11
356.339
 21
97.05
  0
LINE
  8
0
  6
CONTINUOUS
 62
     3
 10
326.339
 20
97.550217391
 11
326.339
 21
97.05
  0
LINE
  8
0
  6
CONTINUOUS
 62
     3
 10
324.839
 20
97.05
 11
324.839
 21
97.550217391
  0
LINE
  8
0
  6
CONTINUOUS
 62
     3
 10
319.839
 20
97.05
 11
319.839
 21
97.550217391
  0
LINE
  8
0
  6
CONTINUOUS
 62
     3
 10
318.339
 20
97.550217391
 11
318.339
 21
97.05
  0
LINE
  8
0
  6
CONTINUOUS
 62
     3
 10
353.339
 20
55.55
 11
353.339
 21
56.05
  0
LINE
  8
0
  6
CONTINUOUS
 62
     3
 10
354.839
 20
56.05
 11
354.839
 21
55.55
  0
LINE
  8
0
  6
CONTINUOUS
 62
     3
 10
359.839
 20
56.05
 11
359.839
 21
55.55
  0
LINE
  8
0
  6
CONTINUOUS
 62
     3
 10
361.339
 20
55.55
 11
361.339
 21
56.05
  0
LINE
  8
0
  6
CONTINUOUS
 62
     3
 10
309.839
 20
55.55
 11
309.839
 21
56.05
  0
LINE
  8
0
  6
CONTINUOUS
 62
     3
 10
311.339
 20
56.05
 11
311.339
 21
55.55
  0
LINE
  8
0
  6
CONTINUOUS
 62
     3
 10
316.339
 20
56.05
 11
316.339
 21
55.55
  0
LINE
  8
0
  6
CONTINUOUS
 62
     3
 10
317.839
 20
55.55
 11
317.839
 21
56.05
  0
POLYLINE
  8
0
  6
CONTINUOUS
 62
     2
 66
     1
 70
     1
  0
VERTEX
  8
0
  6
CONTINUOUS
 62
     2
 10
307.039
 20
64.93
  0
VERTEX
  8
0
  6
CONTINUOUS
 62
     2
 10
313.039
 20
64.93
  0
VERTEX
  8
0
  6
CONTINUOUS
 62
     2
 10
313.039
 20
68.43
  0
VERTEX
  8
0
  6
CONTINUOUS
 62
     2
 10
307.039
 20
68.43
  0
SEQEND
  0
POLYLINE
  8
0
  6
CONTINUOUS
 62
     2
 66
     1
 70
     1
  0
VERTEX
  8
0
  6
CONTINUOUS
 62
     2
 10
308.539
 20
65.93
  0
VERTEX
  8
0
  6
CONTINUOUS
 62
     2
 10
311.539
 20
65.93
  0
VERTEX
  8
0
  6
CONTINUOUS
 62
     2
 10
311.539
 20
67.43
  0
VERTEX
  8
0
  6
CONTINUOUS
 62
     2
 10
308.539
 20
67.43
  0
SEQEND
  0
LINE
  8
0
  6
CONTINUOUS
 62
     2
 10
320.039
 20
64.93
 11
326.039
 21
64.93
  0
POLYLINE
  8
0
  6
CONTINUOUS
 62
     2
 66
     1
  0
VERTEX
  8
0
  6
CONTINUOUS
 62
     2
 10
326.039
 20
64.93
  0
VERTEX
  8
0
  6
CONTINUOUS
 62
     2
 10
326.039
 20
68.43
  0
VERTEX
  8
0
  6
CONTINUOUS
 62
     2
 10
320.039
 20
68.43
  0
VERTEX
  8
0
  6
CONTINUOUS
 62
     2
 10
320.039
 20
64.93
  0
SEQEND
  0
POLYLINE
  8
0
  6
CONTINUOUS
 62
     2
 66
     1
 70
     1
  0
VERTEX
  8
0
  6
CONTINUOUS
 62
     2
 10
321.539
 20
65.93
  0
VERTEX
  8
0
  6
CONTINUOUS
 62
     2
 10
324.539
 20
65.93
  0
VERTEX
  8
0
  6
CONTINUOUS
 62
     2
 10
324.539
 20
67.43
  0
VERTEX
  8
0
  6
CONTINUOUS
 62
     2
 10
321.539
 20
67.43
  0
SEQEND
  0
LINE
  8
0
  6
CONTINUOUS
 62
     2
 10
333.039
 20
64.93
 11
339.039
 21
64.93
  0
POLYLINE
  8
0
  6
CONTINUOUS
 62
     2
 66
     1
  0
VERTEX
  8
0
  6
CONTINUOUS
 62
     2
 10
339.039
 20
64.93
  0
VERTEX
  8
0
  6
CONTINUOUS
 62
     2
 10
339.039
 20
68.43
  0
VERTEX
  8
0
  6
CONTINUOUS
 62
     2
 10
333.039
 20
68.43
  0
VERTEX
  8
0
  6
CONTINUOUS
 62
     2
 10
333.039
 20
64.93
  0
SEQEND
  0
POLYLINE
  8
0
  6
CONTINUOUS
 62
     2
 66
     1
 70
     1
  0
VERTEX
  8
0
  6
CONTINUOUS
 62
     2
 10
334.539
 20
65.93
  0
VERTEX
  8
0
  6
CONTINUOUS
 62
     2
 10
337.539
 20
65.93
  0
VERTEX
  8
0
  6
CONTINUOUS
 62
     2
 10
337.539
 20
67.43
  0
VERTEX
  8
0
  6
CONTINUOUS
 62
     2
 10
334.539
 20
67.43
  0
SEQEND
  0
LINE
  8
0
  6
CONTINUOUS
 62
     2
 10
346.039
 20
64.93
 11
352.039
 21
64.93
  0
POLYLINE
  8
0
  6
CONTINUOUS
 62
     2
 66
     1
  0
VERTEX
  8
0
  6
CONTINUOUS
 62
     2
 10
352.039
 20
64.93
  0
VERTEX
  8
0
  6
CONTINUOUS
 62
     2
 10
352.039
 20
68.43
  0
VERTEX
  8
0
  6
CONTINUOUS
 62
     2
 10
346.039
 20
68.43
  0
VERTEX
  8
0
  6
CONTINUOUS
 62
     2
 10
346.039
 20
64.93
  0
SEQEND
  0
POLYLINE
  8
0
  6
CONTINUOUS
 62
     2
 66
     1
 70
     1
  0
VERTEX
  8
0
  6
CONTINUOUS
 62
     2
 10
347.539
 20
65.93
  0
VERTEX
  8
0
  6
CONTINUOUS
 62
     2
 10
350.539
 20
65.93
  0
VERTEX
  8
0
  6
CONTINUOUS
 62
     2
 10
350.539
 20
67.43
  0
VERTEX
  8
0
  6
CONTINUOUS
 62
     2
 10
347.539
 20
67.43
  0
SEQEND
  0
LINE
  8
0
 10
309.539
 20
61.95
 11
309.539
 21
61.95
  0
LINE
  8
0
 10
309.539
 20
61.95
 11
309.539
 21
61.95
  0
ARC
  8
0
  6
CONTINUOUS
 62
     2
 10
308.289
 20
59.4
 40
0.75
 50
180.0
 51
270.0
  0
LINE
  8
0
  6
CONTINUOUS
 62
     2
 10
308.289
 20
58.65
 11
311.789
 21
58.65
  0
ARC
  8
0
  6
CONTINUOUS
 62
     2
 10
311.789
 20
59.4
 40
0.75
 50
270.0
 51
0.0
  0
LINE
  8
0
  6
CONTINUOUS
 62
     2
 10
312.539
 20
59.4
 11
312.539
 21
61.9
  0
ARC
  8
0
  6
CONTINUOUS
 62
     2
 10
311.789
 20
61.9
 40
0.75
 50
0.0
 51
90.0
  0
LINE
  8
0
  6
CONTINUOUS
 62
     2
 10
311.789
 20
62.65
 11
308.289
 21
62.65
  0
ARC
  8
0
  6
CONTINUOUS
 62
     2
 10
308.289
 20
61.9
 40
0.75
 50
90.0
 51
180.0
  0
LINE
  8
0
  6
CONTINUOUS
 62
     2
 10
307.539
 20
61.9
 11
307.539
 21
59.4
  0
TEXT
  8
0
  6
CONTINUOUS
 62
     2
 10
308.839
 20
59.15
 30
0.0
 40
3.0
  1
Ｅ
 50
0.0
 41
0.833333333
 51
0.0
  7
KANJI3
  0
ARC
  8
0
  6
CONTINUOUS
 62
     2
 10
321.289
 20
59.4
 40
0.75
 50
180.0
 51
270.0
  0
LINE
  8
0
  6
CONTINUOUS
 62
     2
 10
321.289
 20
58.65
 11
324.789
 21
58.65
  0
ARC
  8
0
  6
CONTINUOUS
 62
     2
 10
324.789
 20
59.4
 40
0.75
 50
270.0
 51
0.0
  0
LINE
  8
0
  6
CONTINUOUS
 62
     2
 10
325.539
 20
59.4
 11
325.539
 21
61.9
  0
ARC
  8
0
  6
CONTINUOUS
 62
     2
 10
324.789
 20
61.9
 40
0.75
 50
0.0
 51
90.0
  0
LINE
  8
0
  6
CONTINUOUS
 62
     2
 10
324.789
 20
62.65
 11
321.289
 21
62.65
  0
ARC
  8
0
  6
CONTINUOUS
 62
     2
 10
321.289
 20
61.9
 40
0.75
 50
90.0
 51
180.0
  0
LINE
  8
0
  6
CONTINUOUS
 62
     2
 10
320.539
 20
61.9
 11
320.539
 21
59.4
  0
TEXT
  8
0
  6
CONTINUOUS
 62
     2
 10
321.839
 20
59.15
 30
0.0
 40
3.0
  1
Ｍ
 50
0.0
 41
0.833333333
 51
0.0
  7
KANJI3
  0
ARC
  8
0
  6
CONTINUOUS
 62
     2
 10
334.289
 20
59.4
 40
0.75
 50
180.0
 51
270.0
  0
LINE
  8
0
  6
CONTINUOUS
 62
     2
 10
334.289
 20
58.65
 11
337.789
 21
58.65
  0
ARC
  8
0
  6
CONTINUOUS
 62
     2
 10
337.789
 20
59.4
 40
0.75
 50
270.0
 51
0.0
  0
LINE
  8
0
  6
CONTINUOUS
 62
     2
 10
338.539
 20
59.4
 11
338.539
 21
61.9
  0
ARC
  8
0
  6
CONTINUOUS
 62
     2
 10
337.789
 20
61.9
 40
0.75
 50
0.0
 51
90.0
  0
LINE
  8
0
  6
CONTINUOUS
 62
     2
 10
337.789
 20
62.65
 11
334.289
 21
62.65
  0
ARC
  8
0
  6
CONTINUOUS
 62
     2
 10
334.289
 20
61.9
 40
0.75
 50
90.0
 51
180.0
  0
LINE
  8
0
  6
CONTINUOUS
 62
     2
 10
333.539
 20
61.9
 11
333.539
 21
59.4
  0
ARC
  8
0
  6
CONTINUOUS
 62
     2
 10
347.289
 20
59.4
 40
0.75
 50
180.0
 51
270.0
  0
LINE
  8
0
  6
CONTINUOUS
 62
     2
 10
347.289
 20
58.65
 11
350.789
 21
58.65
  0
ARC
  8
0
  6
CONTINUOUS
 62
     2
 10
350.789
 20
59.4
 40
0.75
 50
270.0
 51
0.0
  0
LINE
  8
0
  6
CONTINUOUS
 62
     2
 10
351.539
 20
59.4
 11
351.539
 21
61.9
  0
ARC
  8
0
  6
CONTINUOUS
 62
     2
 10
350.789
 20
61.9
 40
0.75
 50
0.0
 51
90.0
  0
LINE
  8
0
  6
CONTINUOUS
 62
     2
 10
350.789
 20
62.65
 11
347.289
 21
62.65
  0
ARC
  8
0
  6
CONTINUOUS
 62
     2
 10
347.289
 20
61.9
 40
0.75
 50
90.0
 51
180.0
  0
LINE
  8
0
  6
CONTINUOUS
 62
     2
 10
346.539
 20
61.9
 11
346.539
 21
59.4
  0
LINE
  8
0
  6
CONTINUOUS
 62
     2
 10
334.389
 20
61.8
 11
334.389
 21
59.3
  0
LINE
  8
0
  6
CONTINUOUS
 62
     2
 10
334.389
 20
59.3
 11
337.989
 21
60.6
  0
LINE
  8
0
  6
CONTINUOUS
 62
     2
 10
337.989
 20
60.6
 11
334.389
 21
61.8
  0
LINE
  8
0
 10
349.039
 20
58.65
 11
349.039
 21
58.65
  0
LINE
  8
0
  6
CONTINUOUS
 62
     2
 10
349.039
 20
59.35
 11
348.012333333
 21
59.35
  0
LINE
  8
0
  6
CONTINUOUS
 62
     2
 10
349.039
 20
62.15
 11
348.012333333
 21
59.35
  0
LINE
  8
0
  6
CONTINUOUS
 62
     2
 10
349.039
 20
62.15
 11
350.065666667
 21
59.35
  0
LINE
  8
0
  6
CONTINUOUS
 62
     2
 10
349.039
 20
59.35
 11
350.065666667
 21
59.35
  0
LINE
  8
0
  6
LTYPE1
 62
     1
 10
337.339
 20
105.95
 11
337.339
 21
45.4
  0
LINE
  8
0
  6
LTYPE1
 62
     1
 10
337.339
 20
105.95
 11
337.339
 21
45.3
  0
LINE
  8
0
  6
LTYPE1
 62
     1
 10
337.339
 20
105.95
 11
337.339
 21
45.3
  0
LINE
  8
0
  6
CONTINUOUS
 62
     4
 10
211.9410625
 20
89.55
 11
215.0
 21
89.55
  0
LINE
  8
0
  6
CONTINUOUS
 62
     4
 10
209.9910625
 20
75.55
 11
215.1
 21
75.55
  0
LINE
  8
0
  6
CONTINUOUS
 62
     4
 10
135.9
 20
66.05
 11
117.9
 21
66.05
  0
LINE
  8
0
  6
CONTINUOUS
 62
     4
 10
118.9
 20
66.05
 11
119.41763809
 21
67.981851653
  0
LINE
  8
0
  6
CONTINUOUS
 62
     4
 10
118.9
 20
66.05
 11
118.38236191
 21
67.981851653
  0
LINE
  8
0
  6
CONTINUOUS
 62
     4
 10
118.9
 20
66.05
 11
118.9
 21
99.05
  0
LINE
  8
0
  6
CONTINUOUS
 62
     4
 10
118.9
 20
99.05
 11
118.38236191
 21
97.118148347
  0
LINE
  8
0
  6
CONTINUOUS
 62
     4
 10
118.9
 20
99.05
 11
119.41763809
 21
97.118148347
  0
LINE
  8
0
  6
CONTINUOUS
 62
     4
 10
135.9
 20
99.05
 11
117.9
 21
99.05
  0
TEXT
  8
0
  6
CONTINUOUS
 62
     4
 10
118.4
 20
80.95
 30
0.0
 40
2.0
  1
３３
 50
90.0
 41
0.8
 51
0.0
  7
KANJI2
  0
LINE
  8
0
 10
184.4
 20
82.55
 11
184.4
 21
82.55
  0
LINE
  8
0
  6
CONTINUOUS
 62
     4
 10
225.2
 20
89.55
 11
242.7910625
 21
89.55
  0
LINE
  8
0
  6
CONTINUOUS
 62
     4
 10
224.9
 20
75.55
 11
242.7910625
 21
75.55
  0
LINE
  8
0
  6
LTYPE1
 62
     1
 10
238.339
 20
76.55
 11
229.0
 21
76.55
  0
LINE
  8
0
  6
LTYPE1
 62
     1
 10
228.4
 20
76.55
 11
230.79
 21
76.55
  0
LINE
  8
0
  6
LTYPE1
 62
     1
 10
186.7
 20
76.55
 11
168.15
 21
76.55
  0
LINE
  8
0
  6
LTYPE1
 62
     1
 10
234.85
 20
76.55
 11
229.0
 21
76.55
  0
LINE
  8
0
  6
LTYPE1
 62
     1
 10
238.339
 20
76.55
 11
228.9
 21
76.55
  0
LINE
  8
0
  6
LTYPE1
 62
     1
 10
173.5
 20
76.55
 11
189.1
 21
76.55
  0
LINE
  8
0
  6
LTYPE1
 62
     1
 10
186.3
 20
76.55
 11
173.8
 21
76.55
  0
LINE
  8
0
  6
CONTINUOUS
 62
     4
 10
224.5
 20
91.35
 11
225.778148938
 21
92.88828973
  0
LINE
  8
0
  6
CONTINUOUS
 62
     4
 10
224.5
 20
91.35
 11
224.837764585
 21
93.321272453
  0
LINE
  8
0
  6
CONTINUOUS
 62
     4
 10
224.5
 20
91.35
 11
230.9
 21
105.25
  0
TEXT
  8
0
  6
CONTINUOUS
 62
     4
 10
231.0
 20
105.75
 30
0.0
 40
2.2
  1
白色シルク
 50
0.0
 41
0.818181818
 51
0.0
  7
KANJI0
  0
LINE
  8
0
  6
CONTINUOUS
 62
     4
 10
231.0
 20
105.25
 11
237.5
 21
105.25
  0
LINE
  8
0
  6
CONTINUOUS
 62
     1
 10
126.022650709
 20
258.776964904
 11
126.022650709
 21
258.766316927
  0
LINE
  8
0
  6
CONTINUOUS
 62
     4
 10
295.639
 20
97.05
 11
278.426
 21
97.05
  0
LINE
  8
0
  6
CONTINUOUS
 62
     4
 10
279.426
 20
97.05
 11
278.778952387
 21
94.635185434
  0
LINE
  8
0
  6
CONTINUOUS
 62
     4
 10
279.426
 20
97.05
 11
280.073047613
 21
94.635185434
  0
LINE
  8
0
  6
CONTINUOUS
 62
     4
 10
279.426
 20
97.05
 11
279.426
 21
56.05
  0
LINE
  8
0
  6
CONTINUOUS
 62
     4
 10
279.426
 20
56.05
 11
280.073047613
 21
58.464814566
  0
LINE
  8
0
  6
CONTINUOUS
 62
     4
 10
279.426
 20
56.05
 11
278.778952387
 21
58.464814566
  0
LINE
  8
0
  6
CONTINUOUS
 62
     4
 10
295.639
 20
56.05
 11
278.426
 21
56.05
  0
TEXT
  8
0
  6
CONTINUOUS
 62
     4
 10
278.426
 20
74.75
 30
0.0
 40
2.5
  1
４１
 50
90.0
 41
0.72
 51
0.0
  7
KANJI4
  0
LINE
  8
0
  6
CONTINUOUS
 62
     4
 10
300.389
 20
82.55
 11
283.853
 21
82.55
  0
LINE
  8
0
  6
CONTINUOUS
 62
     4
 10
284.853
 20
82.55
 11
284.205952387
 21
80.135185434
  0
LINE
  8
0
  6
CONTINUOUS
 62
     4
 10
284.853
 20
82.55
 11
285.500047613
 21
80.135185434
  0
LINE
  8
0
  6
CONTINUOUS
 62
     4
 10
284.853
 20
82.55
 11
284.853
 21
76.55
  0
LINE
  8
0
  6
CONTINUOUS
 62
     4
 10
284.853
 20
76.55
 11
285.500047613
 21
78.964814566
  0
LINE
  8
0
  6
CONTINUOUS
 62
     4
 10
284.853
 20
76.55
 11
284.205952387
 21
78.964814566
  0
TEXT
  8
0
  6
CONTINUOUS
 62
     4
 10
283.853
 20
78.65
 30
0.0
 40
2.5
  1
６
 50
90.0
 41
0.72
 51
0.0
  7
KANJI4
  0
LINE
  8
0
  6
CONTINUOUS
 62
     4
 10
337.339
 20
104.096
 11
339.753814566
 21
103.448952387
  0
LINE
  8
0
  6
CONTINUOUS
 62
     4
 10
337.339
 20
104.096
 11
339.753814566
 21
104.743047613
  0
LINE
  8
0
  6
CONTINUOUS
 62
     4
 10
337.339
 20
104.096
 11
359.3300625
 21
104.096
  0
LINE
  8
0
  6
CONTINUOUS
 62
     4
 10
359.3300625
 20
104.096
 11
356.915247934
 21
104.743047613
  0
LINE
  8
0
  6
CONTINUOUS
 62
     4
 10
359.3300625
 20
104.096
 11
356.915247934
 21
103.448952387
  0
LINE
  8
0
  6
CONTINUOUS
 62
     4
 10
359.3300625
 20
91.87
 11
359.3300625
 21
105.096
  0
TEXT
  8
0
  6
CONTINUOUS
 62
     4
 10
342.93453125
 20
105.096
 30
0.0
 40
2.5
  1
２１．９９１
 50
0.0
 41
0.72
 51
0.0
  7
KANJI4
  0
LINE
  8
0
  6
CONTINUOUS
 62
     4
 10
359.3300625
 20
105.796
 11
359.3300625
 21
110.597
  0
LINE
  8
0
  6
CONTINUOUS
 62
     4
 10
359.3300625
 20
109.597
 11
356.915247934
 21
110.244047613
  0
LINE
  8
0
  6
CONTINUOUS
 62
     4
 10
359.3300625
 20
109.597
 11
356.915247934
 21
108.949952387
  0
LINE
  8
0
  6
CONTINUOUS
 62
     4
 10
359.3300625
 20
109.597
 11
307.3300625
 21
109.597
  0
LINE
  8
0
  6
CONTINUOUS
 62
     4
 10
307.3300625
 20
109.597
 11
309.744877066
 21
108.949952387
  0
LINE
  8
0
  6
CONTINUOUS
 62
     4
 10
307.3300625
 20
109.597
 11
309.744877066
 21
110.244047613
  0
LINE
  8
0
  6
CONTINUOUS
 62
     4
 10
307.3300625
 20
88.25
 11
307.3300625
 21
110.597
  0
TEXT
  8
0
  6
CONTINUOUS
 62
     4
 10
331.5300625
 20
110.597
 30
0.0
 40
2.5
  1
５２
 50
0.0
 41
0.72
 51
0.0
  7
KANJI4
  0
LINE
  8
0
  6
CONTINUOUS
 62
     4
 10
307.3300625
 20
104.096
 11
309.744877066
 21
103.448952387
  0
LINE
  8
0
  6
CONTINUOUS
 62
     4
 10
307.3300625
 20
104.096
 11
309.744877066
 21
104.743047613
  0
LINE
  8
0
  6
CONTINUOUS
 62
     4
 10
307.3300625
 20
104.096
 11
320.3300625
 21
104.096
  0
LINE
  8
0
  6
CONTINUOUS
 62
     4
 10
320.3300625
 20
104.096
 11
317.915247934
 21
104.743047613
  0
LINE
  8
0
  6
CONTINUOUS
 62
     4
 10
320.3300625
 20
104.096
 11
317.915247934
 21
103.448952387
  0
LINE
  8
0
  6
CONTINUOUS
 62
     4
 10
320.3300625
 20
90.25
 11
320.3300625
 21
105.096
  0
TEXT
  8
0
  6
CONTINUOUS
 62
     4
 10
312.0300625
 20
105.096
 30
0.0
 40
2.5
  1
１３
 50
0.0
 41
0.72
 51
0.0
  7
KANJI4
  0
LINE
  8
0
  6
CONTINUOUS
 62
     4
 10
337.339
 20
106.65
 11
337.339
 21
115.492
  0
LINE
  8
0
  6
CONTINUOUS
 62
     4
 10
337.339
 20
114.492
 11
339.753814566
 21
113.844952387
  0
LINE
  8
0
  6
CONTINUOUS
 62
     4
 10
337.339
 20
114.492
 11
339.753814566
 21
115.139047613
  0
LINE
  8
0
  6
CONTINUOUS
 62
     4
 10
337.339
 20
114.492
 11
371.939
 21
114.492
  0
LINE
  8
0
  6
CONTINUOUS
 62
     4
 10
371.939
 20
114.492
 11
369.524185434
 21
115.139047613
  0
LINE
  8
0
  6
CONTINUOUS
 62
     4
 10
371.939
 20
114.492
 11
369.524185434
 21
113.844952387
  0
TEXT
  8
0
  6
CONTINUOUS
 62
     4
 10
351.039
 20
115.492
 30
0.0
 40
2.5
  1
３４．６
 50
0.0
 41
0.72
 51
0.0
  7
KANJI4
  0
LINE
  8
0
  6
CONTINUOUS
 62
     4
 10
371.939
 20
70.557
 11
371.939
 21
115.492
  0
LINE
  8
0
  6
CONTINUOUS
 62
     2
 10
216.5
 20
83.2
 11
221.5
 21
83.2
  0
POLYLINE
  8
0
  6
CONTINUOUS
 62
     2
 66
     1
  0
VERTEX
  8
0
  6
CONTINUOUS
 62
     2
 10
221.5
 20
83.2
  0
VERTEX
  8
0
  6
CONTINUOUS
 62
     2
 10
221.5
 20
85.2
  0
VERTEX
  8
0
  6
CONTINUOUS
 62
     2
 10
216.5
 20
85.2
  0
SEQEND
  0
LINE
  8
0
  6
CONTINUOUS
 62
     2
 10
216.5
 20
83.2
 11
216.5
 21
85.2
  0
LINE
  8
0
  6
CONTINUOUS
 62
     2
 10
216.5
 20
79.9
 11
221.5
 21
79.9
  0
POLYLINE
  8
0
  6
CONTINUOUS
 62
     2
 66
     1
  0
VERTEX
  8
0
  6
CONTINUOUS
 62
     2
 10
221.5
 20
79.9
  0
VERTEX
  8
0
  6
CONTINUOUS
 62
     2
 10
221.5
 20
81.9
  0
VERTEX
  8
0
  6
CONTINUOUS
 62
     2
 10
216.5
 20
81.9
  0
SEQEND
  0
LINE
  8
0
  6
CONTINUOUS
 62
     2
 10
216.5
 20
79.9
 11
216.5
 21
81.9
  0
LINE
  8
0
  6
CONTINUOUS
 62
     2
 10
216.5
 20
76.6
 11
221.5
 21
76.6
  0
POLYLINE
  8
0
  6
CONTINUOUS
 62
     2
 66
     1
  0
VERTEX
  8
0
  6
CONTINUOUS
 62
     2
 10
221.5
 20
76.6
  0
VERTEX
  8
0
  6
CONTINUOUS
 62
     2
 10
221.5
 20
78.6
  0
VERTEX
  8
0
  6
CONTINUOUS
 62
     2
 10
216.5
 20
78.6
  0
SEQEND
  0
LINE
  8
0
  6
CONTINUOUS
 62
     2
 10
216.5
 20
78.6
 11
216.5
 21
76.6
  0
POLYLINE
  8
0
  6
CONTINUOUS
 62
     2
 66
     1
 70
     1
  0
VERTEX
  8
0
  6
CONTINUOUS
 62
     2
 10
216.5
 20
86.5
  0
VERTEX
  8
0
  6
CONTINUOUS
 62
     2
 10
221.5
 20
86.5
  0
VERTEX
  8
0
  6
CONTINUOUS
 62
     2
 10
221.5
 20
88.5
  0
VERTEX
  8
0
  6
CONTINUOUS
 62
     2
 10
216.5
 20
88.5
  0
SEQEND
  0
LINE
  8
0
  6
CONTINUOUS
 62
     2
 10
221.5
 20
91.8
 11
216.5
 21
91.8
  0
LINE
  8
0
  6
CONTINUOUS
 62
     2
 10
216.5
 20
91.8
 11
216.5
 21
89.8
  0
LINE
  8
0
  6
CONTINUOUS
 62
     2
 10
216.5
 20
89.8
 11
221.5
 21
89.8
  0
LINE
  8
0
  6
CONTINUOUS
 62
     2
 10
221.5
 20
89.8
 11
221.5
 21
91.8
  0
LINE
  8
0
  6
CONTINUOUS
 62
     2
 10
216.5
 20
73.3
 11
221.5
 21
73.3
  0
POLYLINE
  8
0
  6
CONTINUOUS
 62
     2
 66
     1
  0
VERTEX
  8
0
  6
CONTINUOUS
 62
     2
 10
221.5
 20
73.3
  0
VERTEX
  8
0
  6
CONTINUOUS
 62
     2
 10
221.5
 20
75.3
  0
VERTEX
  8
0
  6
CONTINUOUS
 62
     2
 10
216.5
 20
75.3
  0
SEQEND
  0
LINE
  8
0
  6
CONTINUOUS
 62
     2
 10
216.5
 20
75.3
 11
216.5
 21
73.3
  0
LINE
  8
0
  6
CONTINUOUS
 62
     2
 10
369.439
 20
83.2
 11
374.439
 21
83.2
  0
POLYLINE
  8
0
  6
CONTINUOUS
 62
     2
 66
     1
  0
VERTEX
  8
0
  6
CONTINUOUS
 62
     2
 10
374.439
 20
83.2
  0
VERTEX
  8
0
  6
CONTINUOUS
 62
     2
 10
374.439
 20
85.2
  0
VERTEX
  8
0
  6
CONTINUOUS
 62
     2
 10
369.439
 20
85.2
  0
SEQEND
  0
LINE
  8
0
  6
CONTINUOUS
 62
     2
 10
369.439
 20
83.2
 11
369.439
 21
85.2
  0
LINE
  8
0
  6
CONTINUOUS
 62
     2
 10
369.439
 20
79.9
 11
374.439
 21
79.9
  0
POLYLINE
  8
0
  6
CONTINUOUS
 62
     2
 66
     1
  0
VERTEX
  8
0
  6
CONTINUOUS
 62
     2
 10
374.439
 20
79.9
  0
VERTEX
  8
0
  6
CONTINUOUS
 62
     2
 10
374.439
 20
81.9
  0
VERTEX
  8
0
  6
CONTINUOUS
 62
     2
 10
369.439
 20
81.9
  0
SEQEND
  0
LINE
  8
0
  6
CONTINUOUS
 62
     2
 10
369.439
 20
79.9
 11
369.439
 21
81.9
  0
LINE
  8
0
  6
CONTINUOUS
 62
     2
 10
369.439
 20
76.6
 11
374.439
 21
76.6
  0
POLYLINE
  8
0
  6
CONTINUOUS
 62
     2
 66
     1
  0
VERTEX
  8
0
  6
CONTINUOUS
 62
     2
 10
374.439
 20
76.6
  0
VERTEX
  8
0
  6
CONTINUOUS
 62
     2
 10
374.439
 20
78.6
  0
VERTEX
  8
0
  6
CONTINUOUS
 62
     2
 10
369.439
 20
78.6
  0
SEQEND
  0
LINE
  8
0
  6
CONTINUOUS
 62
     2
 10
369.439
 20
78.6
 11
369.439
 21
76.6
  0
POLYLINE
  8
0
  6
CONTINUOUS
 62
     2
 66
     1
 70
     1
  0
VERTEX
  8
0
  6
CONTINUOUS
 62
     2
 10
369.439
 20
86.5
  0
VERTEX
  8
0
  6
CONTINUOUS
 62
     2
 10
374.439
 20
86.5
  0
VERTEX
  8
0
  6
CONTINUOUS
 62
     2
 10
374.439
 20
88.5
  0
VERTEX
  8
0
  6
CONTINUOUS
 62
     2
 10
369.439
 20
88.5
  0
SEQEND
  0
LINE
  8
0
  6
CONTINUOUS
 62
     2
 10
374.439
 20
91.8
 11
369.439
 21
91.8
  0
LINE
  8
0
  6
CONTINUOUS
 62
     2
 10
369.439
 20
91.8
 11
369.439
 21
89.8
  0
LINE
  8
0
  6
CONTINUOUS
 62
     2
 10
369.439
 20
89.8
 11
374.439
 21
89.8
  0
LINE
  8
0
  6
CONTINUOUS
 62
     2
 10
374.439
 20
89.8
 11
374.439
 21
91.8
  0
LINE
  8
0
  6
CONTINUOUS
 62
     2
 10
369.439
 20
73.3
 11
374.439
 21
73.3
  0
POLYLINE
  8
0
  6
CONTINUOUS
 62
     2
 66
     1
  0
VERTEX
  8
0
  6
CONTINUOUS
 62
     2
 10
374.439
 20
73.3
  0
VERTEX
  8
0
  6
CONTINUOUS
 62
     2
 10
374.439
 20
75.3
  0
VERTEX
  8
0
  6
CONTINUOUS
 62
     2
 10
369.439
 20
75.3
  0
SEQEND
  0
LINE
  8
0
  6
CONTINUOUS
 62
     2
 10
369.439
 20
75.3
 11
369.439
 21
73.3
  0
LINE
  8
0
  6
CONTINUOUS
 62
     4
 10
391.289
 20
90.8
 11
390.641952387
 21
88.385185434
  0
LINE
  8
0
  6
CONTINUOUS
 62
     4
 10
391.289
 20
90.8
 11
391.936047613
 21
88.385185434
  0
LINE
  8
0
  6
CONTINUOUS
 62
     4
 10
391.289
 20
90.8
 11
391.289
 21
74.3
  0
LINE
  8
0
  6
CONTINUOUS
 62
     4
 10
391.289
 20
74.3
 11
391.936047613
 21
76.714814566
  0
LINE
  8
0
  6
CONTINUOUS
 62
     4
 10
391.289
 20
74.3
 11
390.641952387
 21
76.714814566
  0
LINE
  8
0
  6
CONTINUOUS
 62
     4
 10
375.139
 20
74.3
 11
392.289
 21
74.3
  0
TEXT
  8
0
  6
CONTINUOUS
 62
     4
 10
390.289
 20
78.95
 30
0.0
 40
2.5
  1
１６．５
 50
90.0
 41
0.72
 51
0.0
  7
KANJI4
  0
LINE
  8
0
  6
CONTINUOUS
 62
     4
 10
392.989
 20
90.8
 11
397.939
 21
90.8
  0
LINE
  8
0
  6
CONTINUOUS
 62
     4
 10
396.939
 20
90.8
 11
396.291952387
 21
88.385185434
  0
LINE
  8
0
  6
CONTINUOUS
 62
     4
 10
396.939
 20
90.8
 11
397.586047613
 21
88.385185434
  0
LINE
  8
0
  6
CONTINUOUS
 62
     4
 10
396.939
 20
98.7
 11
396.939
 21
87.5
  0
LINE
  8
0
  6
CONTINUOUS
 62
     4
 10
396.939
 20
87.5
 11
397.586047613
 21
89.914814566
  0
LINE
  8
0
  6
CONTINUOUS
 62
     4
 10
396.939
 20
87.5
 11
396.291952387
 21
89.914814566
  0
TEXT
  8
0
  6
CONTINUOUS
 62
     4
 10
395.939
 20
93.3
 30
0.0
 40
2.5
  1
３．３
 50
90.0
 41
0.72
 51
0.0
  7
KANJI4
  0
LINE
  8
0
  6
CONTINUOUS
 62
     4
 10
397.939
 20
87.5
 11
374.839
 21
87.5
  0
LINE
  8
0
  6
CONTINUOUS
 62
     4
 10
392.989
 20
90.8
 11
374.789
 21
90.8
  0
LINE
  8
0
  6
CONTINUOUS
 62
     3
 10
216.2
 20
92.3
 11
221.8
 21
92.3
  0
LINE
  8
0
  6
CONTINUOUS
 62
     3
 10
221.8
 20
92.3
 11
221.8
 21
72.8
  0
LINE
  8
0
  6
CONTINUOUS
 62
     3
 10
221.8
 20
72.8
 11
216.2
 21
72.8
  0
LINE
  8
0
  6
CONTINUOUS
 62
     3
 10
216.2
 20
72.8
 11
216.2
 21
92.3
  0
LINE
  8
0
  6
CONTINUOUS
 62
     3
 10
213.1
 20
91.15
 11
213.1
 21
73.95
  0
LINE
  8
0
  6
CONTINUOUS
 62
     3
 10
213.1
 20
73.95
 11
147.7
 21
73.95
  0
LINE
  8
0
  6
CONTINUOUS
 62
     3
 10
147.7
 20
73.95
 11
147.7
 21
91.15
  0
LINE
  8
0
  6
CONTINUOUS
 62
     3
 10
147.7
 20
91.15
 11
213.1
 21
91.15
  0
TEXT
  8
0
  6
CONTINUOUS
 62
     3
 10
222.8
 20
89.800002302
 30
0.0
 40
2.5
  1
ＤＺ
 50
0.0
 41
0.8
 51
0.0
  7
KANJI5
  0
TEXT
  8
0
  6
CONTINUOUS
 62
     3
 10
222.8
 20
83.200002302
 30
0.0
 40
2.5
  1
ＭＥ
 50
0.0
 41
0.8
 51
0.0
  7
KANJI5
  0
TEXT
  8
0
  6
CONTINUOUS
 62
     3
 10
222.8
 20
86.500002302
 30
0.0
 40
2.5
  1
ＰＨ
 50
0.0
 41
0.8
 51
0.0
  7
KANJI5
  0
TEXT
  8
0
  6
CONTINUOUS
 62
     3
 10
222.8
 20
79.900002302
 30
0.0
 40
2.5
  1
ＲＥ
 50
0.0
 41
0.8
 51
0.0
  7
KANJI5
  0
TEXT
  8
0
  6
CONTINUOUS
 62
     3
 10
222.8
 20
73.300002302
 30
0.0
 40
2.5
  1
Ｐ．Ｓ０
 50
0.0
 41
0.8
 51
0.0
  7
KANJI5
  0
TEXT
  8
0
  6
CONTINUOUS
 62
     3
 10
222.8
 20
76.600002302
 30
0.0
 40
2.5
  1
Ｐ．Ｓ１
 50
0.0
 41
0.8
 51
0.0
  7
KANJI5
  0
LINE
  8
0
  6
LTYPE1
 62
     1
 10
134.994
 20
82.55
 11
240.0
 21
82.55
  0
ENDSEC
  0
EOF
