  0
SECTION
  2
HEADER
  9
$ACADVER
  1
AC1015
  9
$ACADMAINTVER
 70
     6
  9
$DWGCODEPAGE
  3
ANSI_932
  9
$INSBASE
 10
0.0
 20
0.0
 30
0.0
  9
$EXTMIN
 10
22.53333333333333
 20
9.913927119
 30
-0.8
  9
$EXTMAX
 10
212.7576461999999
 20
252.3366666666668
 30
1.0
  9
$LIMMIN
 10
0.0
 20
0.0
  9
$LIMMAX
 10
12.0
 20
9.0
  9
$ORTHOMODE
 70
     0
  9
$REGENMODE
 70
     1
  9
$FILLMODE
 70
     1
  9
$QTEXTMODE
 70
     0
  9
$MIRRTEXT
 70
     1
  9
$LTSCALE
 40
1.0
  9
$ATTMODE
 70
     1
  9
$TEXTSIZE
 40
0.2
  9
$TRACEWID
 40
0.05
  9
$TEXTSTYLE
  7
STANDARD
  9
$CLAYER
  8
0
  9
$CELTYPE
  6
CONTINUOUS
  9
$CECOLOR
 62
   256
  9
$CELTSCALE
 40
1.0
  9
$DISPSILH
 70
     0
  9
$DIMSCALE
 40
1.0
  9
$DIMASZ
 40
0.18
  9
$DIMEXO
 40
0.0625
  9
$DIMDLI
 40
0.38
  9
$DIMRND
 40
0.0
  9
$DIMDLE
 40
0.0
  9
$DIMEXE
 40
0.18
  9
$DIMTP
 40
0.0
  9
$DIMTM
 40
0.0
  9
$DIMTXT
 40
0.18
  9
$DIMCEN
 40
0.09
  9
$DIMTSZ
 40
0.0
  9
$DIMTOL
 70
     0
  9
$DIMLIM
 70
     0
  9
$DIMTIH
 70
     1
  9
$DIMTOH
 70
     1
  9
$DIMSE1
 70
     0
  9
$DIMSE2
 70
     0
  9
$DIMTAD
 70
     0
  9
$DIMZIN
 70
     0
  9
$DIMBLK
  1

  9
$DIMASO
 70
     1
  9
$DIMSHO
 70
     1
  9
$DIMPOST
  1

  9
$DIMAPOST
  1

  9
$DIMALT
 70
     0
  9
$DIMALTD
 70
     2
  9
$DIMALTF
 40
25.4
  9
$DIMLFAC
 40
1.0
  9
$DIMTOFL
 70
     0
  9
$DIMTVP
 40
0.0
  9
$DIMTIX
 70
     0
  9
$DIMSOXD
 70
     0
  9
$DIMSAH
 70
     0
  9
$DIMBLK1
  1

  9
$DIMBLK2
  1

  9
$DIMSTYLE
  2
STANDARD
  9
$DIMCLRD
 70
     0
  9
$DIMCLRE
 70
     0
  9
$DIMCLRT
 70
     0
  9
$DIMTFAC
 40
1.0
  9
$DIMGAP
 40
0.09
  9
$DIMJUST
 70
     0
  9
$DIMSD1
 70
     0
  9
$DIMSD2
 70
     0
  9
$DIMTOLJ
 70
     1
  9
$DIMTZIN
 70
     0
  9
$DIMALTZ
 70
     0
  9
$DIMALTTZ
 70
     0
  9
$DIMUPT
 70
     0
  9
$DIMDEC
 70
     4
  9
$DIMTDEC
 70
     4
  9
$DIMALTU
 70
     2
  9
$DIMALTTD
 70
     2
  9
$DIMTXSTY
  7
STANDARD
  9
$DIMAUNIT
 70
     0
  9
$DIMADEC
 70
     0
  9
$DIMALTRND
 40
0.0
  9
$DIMAZIN
 70
     0
  9
$DIMDSEP
 70
    46
  9
$DIMATFIT
 70
     3
  9
$DIMFRAC
 70
     0
  9
$DIMLDRBLK
  1

  9
$DIMLUNIT
 70
     2
  9
$DIMLWD
 70
    -2
  9
$DIMLWE
 70
    -2
  9
$DIMTMOVE
 70
     0
  9
$LUNITS
 70
     2
  9
$LUPREC
 70
     4
  9
$SKETCHINC
 40
0.1
  9
$FILLETRAD
 40
0.0
  9
$AUNITS
 70
     0
  9
$AUPREC
 70
     0
  9
$MENU
  1
.
  9
$ELEVATION
 40
0.0
  9
$PELEVATION
 40
0.0
  9
$THICKNESS
 40
0.0
  9
$LIMCHECK
 70
     0
  9
$CHAMFERA
 40
0.0
  9
$CHAMFERB
 40
0.0
  9
$CHAMFERC
 40
0.0
  9
$CHAMFERD
 40
0.0
  9
$SKPOLY
 70
     0
  9
$TDCREATE
 40
2452152.853447245
  9
$TDUCREATE
 40
2452152.478447245
  9
$TDUPDATE
 40
2452723.624885532
  9
$TDUUPDATE
 40
2452723.249885532
  9
$TDINDWG
 40
0.0064186343
  9
$TDUSRTIMER
 40
0.0064162037
  9
$USRTIMER
 70
     1
  9
$ANGBASE
 50
0.0
  9
$ANGDIR
 70
     0
  9
$PDMODE
 70
     0
  9
$PDSIZE
 40
0.0
  9
$PLINEWID
 40
0.0
  9
$SPLFRAME
 70
     0
  9
$SPLINETYPE
 70
     6
  9
$SPLINESEGS
 70
     8
  9
$HANDSEED
  5
6B0
  9
$SURFTAB1
 70
     6
  9
$SURFTAB2
 70
     6
  9
$SURFTYPE
 70
     6
  9
$SURFU
 70
     6
  9
$SURFV
 70
     6
  9
$UCSBASE
  2

  9
$UCSNAME
  2

  9
$UCSORG
 10
0.0
 20
0.0
 30
0.0
  9
$UCSXDIR
 10
1.0
 20
0.0
 30
0.0
  9
$UCSYDIR
 10
0.0
 20
1.0
 30
0.0
  9
$UCSORTHOREF
  2

  9
$UCSORTHOVIEW
 70
     0
  9
$UCSORGTOP
 10
0.0
 20
0.0
 30
0.0
  9
$UCSORGBOTTOM
 10
0.0
 20
0.0
 30
0.0
  9
$UCSORGLEFT
 10
0.0
 20
0.0
 30
0.0
  9
$UCSORGRIGHT
 10
0.0
 20
0.0
 30
0.0
  9
$UCSORGFRONT
 10
0.0
 20
0.0
 30
0.0
  9
$UCSORGBACK
 10
0.0
 20
0.0
 30
0.0
  9
$PUCSBASE
  2

  9
$PUCSNAME
  2

  9
$PUCSORG
 10
0.0
 20
0.0
 30
0.0
  9
$PUCSXDIR
 10
1.0
 20
0.0
 30
0.0
  9
$PUCSYDIR
 10
0.0
 20
1.0
 30
0.0
  9
$PUCSORTHOREF
  2

  9
$PUCSORTHOVIEW
 70
     0
  9
$PUCSORGTOP
 10
0.0
 20
0.0
 30
0.0
  9
$PUCSORGBOTTOM
 10
0.0
 20
0.0
 30
0.0
  9
$PUCSORGLEFT
 10
0.0
 20
0.0
 30
0.0
  9
$PUCSORGRIGHT
 10
0.0
 20
0.0
 30
0.0
  9
$PUCSORGFRONT
 10
0.0
 20
0.0
 30
0.0
  9
$PUCSORGBACK
 10
0.0
 20
0.0
 30
0.0
  9
$USERI1
 70
     0
  9
$USERI2
 70
     0
  9
$USERI3
 70
     0
  9
$USERI4
 70
     0
  9
$USERI5
 70
     0
  9
$USERR1
 40
0.0
  9
$USERR2
 40
0.0
  9
$USERR3
 40
0.0
  9
$USERR4
 40
0.0
  9
$USERR5
 40
0.0
  9
$WORLDVIEW
 70
     1
  9
$SHADEDGE
 70
     3
  9
$SHADEDIF
 70
    70
  9
$TILEMODE
 70
     1
  9
$MAXACTVP
 70
    64
  9
$PINSBASE
 10
0.0
 20
0.0
 30
0.0
  9
$PLIMCHECK
 70
     0
  9
$PEXTMIN
 10
1.000000000000000E+20
 20
1.000000000000000E+20
 30
1.000000000000000E+20
  9
$PEXTMAX
 10
-1.000000000000000E+20
 20
-1.000000000000000E+20
 30
-1.000000000000000E+20
  9
$PLIMMIN
 10
0.0
 20
0.0
  9
$PLIMMAX
 10
12.0
 20
9.0
  9
$UNITMODE
 70
     0
  9
$VISRETAIN
 70
     1
  9
$PLINEGEN
 70
     0
  9
$PSLTSCALE
 70
     1
  9
$TREEDEPTH
 70
  3020
  9
$CMLSTYLE
  2
Standard
  9
$CMLJUST
 70
     0
  9
$CMLSCALE
 40
1.0
  9
$PROXYGRAPHICS
 70
     1
  9
$MEASUREMENT
 70
     0
  9
$CELWEIGHT
370
    -1
  9
$ENDCAPS
280
     0
  9
$JOINSTYLE
280
     0
  9
$LWDISPLAY
290
     0
  9
$INSUNITS
 70
     0
  9
$HYPERLINKBASE
  1

  9
$STYLESHEET
  1

  9
$XEDIT
290
     1
  9
$CEPSNTYPE
380
     0
  9
$PSTYLEMODE
290
     1
  9
$FINGERPRINTGUID
  2
{19E48CC2-4FE6-11D7-9C19-0040267F10D4}
  9
$VERSIONGUID
  2
{FCB83947-5E08-11D7-9C19-0040267F10D4}
  9
$EXTNAMES
290
     1
  9
$PSVPSCALE
 40
0.0
  9
$OLESTARTUP
290
     0
  0
ENDSEC
  0
SECTION
  2
CLASSES
  0
CLASS
  1
ACDBDICTIONARYWDFLT
  2
AcDbDictionaryWithDefault
  3
AutoCAD 2000
 90
        0
280
     0
281
     0
  0
CLASS
  1
ACDBPLACEHOLDER
  2
AcDbPlaceHolder
  3
AutoCAD 2000
 90
        0
280
     0
281
     0
  0
CLASS
  1
LAYOUT
  2
AcDbLayout
  3
AutoCAD 2000
 90
        0
280
     0
281
     0
  0
ENDSEC
  0
SECTION
  2
TABLES
  0
TABLE
  2
VPORT
  5
35D
330
0
100
AcDbSymbolTable
 70
     3
  0
VPORT
  5
6AF
330
35D
100
AcDbSymbolTableRecord
100
AcDbViewportTableRecord
  2
*Active
 70
     0
 10
0.0
 20
0.0
 11
1.0
 21
1.0
 12
507.9971191233584
 22
38.01951556442839
 13
0.0
 23
0.0
 14
1.0
 24
1.0
 15
0.0
 25
0.0
 16
0.0
 26
0.0
 36
1.0
 17
0.0
 27
0.0
 37
0.0
 40
490.0044257160449
 41
2.210374639769452
 42
50.0
 43
0.0
 44
0.0
 50
0.0
 51
0.0
 71
     0
 72
   100
 73
     1
 74
     1
 75
     0
 76
     0
 77
     0
 78
     0
281
     0
 65
     1
110
0.0
120
0.0
130
0.0
111
1.0
121
0.0
131
0.0
112
0.0
122
1.0
132
0.0
 79
     0
146
0.0
  0
ENDTAB
  0
TABLE
  2
LTYPE
  5
35A
330
0
100
AcDbSymbolTable
 70
     3
  0
LTYPE
  5
368
330
35A
100
AcDbSymbolTableRecord
100
AcDbLinetypeTableRecord
  2
ByBlock
 70
     0
  3

 72
    65
 73
     0
 40
0.0
  0
LTYPE
  5
369
330
35A
100
AcDbSymbolTableRecord
100
AcDbLinetypeTableRecord
  2
ByLayer
 70
     0
  3

 72
    65
 73
     0
 40
0.0
  0
LTYPE
  5
36A
330
35A
100
AcDbSymbolTableRecord
100
AcDbLinetypeTableRecord
  2
CONTINUOUS
 70
     0
  3
Solid line
 72
    65
 73
     0
 40
0.0
  0
LTYPE
  5
378
330
35A
100
AcDbSymbolTableRecord
100
AcDbLinetypeTableRecord
  2
LTYPE1
 70
     0
  3
HIDDEN
 72
    65
 73
     2
 40
3.0
 49
1.8
 74
     0
 49
-1.199999999999999
 74
     0
  0
LTYPE
  5
379
330
35A
100
AcDbSymbolTableRecord
100
AcDbLinetypeTableRecord
  2
LTYPE2
 70
     0
  3
CENTER
 72
    65
 73
     4
 40
15.0
 49
10.5
 74
     0
 49
-1.5
 74
     0
 49
1.5
 74
     0
 49
-1.5
 74
     0
  0
ENDTAB
  0
TABLE
  2
LAYER
  5
357
330
0
100
AcDbSymbolTable
 70
   128
  0
LAYER
  5
365
330
357
100
AcDbSymbolTableRecord
100
AcDbLayerTableRecord
  2
0
 70
     0
 62
     7
  6
CONTINUOUS
370
    -3
390
364
  0
LAYER
  5
37A
330
357
100
AcDbSymbolTableRecord
100
AcDbLayerTableRecord
  2
1
 70
     0
 62
     7
  6
CONTINUOUS
370
    -3
390
364
  0
LAYER
  5
37B
330
357
100
AcDbSymbolTableRecord
100
AcDbLayerTableRecord
  2
2
 70
     0
 62
     7
  6
CONTINUOUS
370
    -3
390
364
  0
LAYER
  5
37C
330
357
100
AcDbSymbolTableRecord
100
AcDbLayerTableRecord
  2
3
 70
     0
 62
     7
  6
CONTINUOUS
370
    -3
390
364
  0
LAYER
  5
37D
330
357
100
AcDbSymbolTableRecord
100
AcDbLayerTableRecord
  2
4
 70
     0
 62
     7
  6
CONTINUOUS
370
    -3
390
364
  0
LAYER
  5
37E
330
357
100
AcDbSymbolTableRecord
100
AcDbLayerTableRecord
  2
5
 70
     0
 62
     7
  6
CONTINUOUS
370
    -3
390
364
  0
LAYER
  5
37F
330
357
100
AcDbSymbolTableRecord
100
AcDbLayerTableRecord
  2
6
 70
     0
 62
     7
  6
CONTINUOUS
370
    -3
390
364
  0
LAYER
  5
380
330
357
100
AcDbSymbolTableRecord
100
AcDbLayerTableRecord
  2
7
 70
     0
 62
     7
  6
CONTINUOUS
370
    -3
390
364
  0
LAYER
  5
381
330
357
100
AcDbSymbolTableRecord
100
AcDbLayerTableRecord
  2
8
 70
     0
 62
     7
  6
CONTINUOUS
370
    -3
390
364
  0
LAYER
  5
382
330
357
100
AcDbSymbolTableRecord
100
AcDbLayerTableRecord
  2
9
 70
     0
 62
     7
  6
CONTINUOUS
370
    -3
390
364
  0
LAYER
  5
383
330
357
100
AcDbSymbolTableRecord
100
AcDbLayerTableRecord
  2
10
 70
     0
 62
     7
  6
CONTINUOUS
370
    -3
390
364
  0
LAYER
  5
384
330
357
100
AcDbSymbolTableRecord
100
AcDbLayerTableRecord
  2
11
 70
     0
 62
     7
  6
CONTINUOUS
370
    -3
390
364
  0
LAYER
  5
385
330
357
100
AcDbSymbolTableRecord
100
AcDbLayerTableRecord
  2
12
 70
     0
 62
     7
  6
CONTINUOUS
370
    -3
390
364
  0
LAYER
  5
386
330
357
100
AcDbSymbolTableRecord
100
AcDbLayerTableRecord
  2
13
 70
     0
 62
     7
  6
CONTINUOUS
370
    -3
390
364
  0
LAYER
  5
387
330
357
100
AcDbSymbolTableRecord
100
AcDbLayerTableRecord
  2
14
 70
     0
 62
     7
  6
CONTINUOUS
370
    -3
390
364
  0
LAYER
  5
388
330
357
100
AcDbSymbolTableRecord
100
AcDbLayerTableRecord
  2
15
 70
     0
 62
     7
  6
CONTINUOUS
370
    -3
390
364
  0
LAYER
  5
389
330
357
100
AcDbSymbolTableRecord
100
AcDbLayerTableRecord
  2
16
 70
     0
 62
     7
  6
CONTINUOUS
370
    -3
390
364
  0
LAYER
  5
38A
330
357
100
AcDbSymbolTableRecord
100
AcDbLayerTableRecord
  2
17
 70
     0
 62
     7
  6
CONTINUOUS
370
    -3
390
364
  0
LAYER
  5
38B
330
357
100
AcDbSymbolTableRecord
100
AcDbLayerTableRecord
  2
18
 70
     0
 62
     7
  6
CONTINUOUS
370
    -3
390
364
  0
LAYER
  5
38C
330
357
100
AcDbSymbolTableRecord
100
AcDbLayerTableRecord
  2
19
 70
     0
 62
     7
  6
CONTINUOUS
370
    -3
390
364
  0
LAYER
  5
38D
330
357
100
AcDbSymbolTableRecord
100
AcDbLayerTableRecord
  2
20
 70
     0
 62
     7
  6
CONTINUOUS
370
    -3
390
364
  0
LAYER
  5
38E
330
357
100
AcDbSymbolTableRecord
100
AcDbLayerTableRecord
  2
21
 70
     0
 62
     7
  6
CONTINUOUS
370
    -3
390
364
  0
LAYER
  5
38F
330
357
100
AcDbSymbolTableRecord
100
AcDbLayerTableRecord
  2
22
 70
     0
 62
     7
  6
CONTINUOUS
370
    -3
390
364
  0
LAYER
  5
390
330
357
100
AcDbSymbolTableRecord
100
AcDbLayerTableRecord
  2
23
 70
     0
 62
     7
  6
CONTINUOUS
370
    -3
390
364
  0
LAYER
  5
391
330
357
100
AcDbSymbolTableRecord
100
AcDbLayerTableRecord
  2
24
 70
     0
 62
     7
  6
CONTINUOUS
370
    -3
390
364
  0
LAYER
  5
392
330
357
100
AcDbSymbolTableRecord
100
AcDbLayerTableRecord
  2
25
 70
     0
 62
     7
  6
CONTINUOUS
370
    -3
390
364
  0
LAYER
  5
393
330
357
100
AcDbSymbolTableRecord
100
AcDbLayerTableRecord
  2
26
 70
     0
 62
     7
  6
CONTINUOUS
370
    -3
390
364
  0
LAYER
  5
394
330
357
100
AcDbSymbolTableRecord
100
AcDbLayerTableRecord
  2
27
 70
     0
 62
     7
  6
CONTINUOUS
370
    -3
390
364
  0
LAYER
  5
395
330
357
100
AcDbSymbolTableRecord
100
AcDbLayerTableRecord
  2
28
 70
     0
 62
     7
  6
CONTINUOUS
370
    -3
390
364
  0
LAYER
  5
396
330
357
100
AcDbSymbolTableRecord
100
AcDbLayerTableRecord
  2
29
 70
     0
 62
     7
  6
CONTINUOUS
370
    -3
390
364
  0
LAYER
  5
397
330
357
100
AcDbSymbolTableRecord
100
AcDbLayerTableRecord
  2
30
 70
     0
 62
     7
  6
CONTINUOUS
370
    -3
390
364
  0
LAYER
  5
398
330
357
100
AcDbSymbolTableRecord
100
AcDbLayerTableRecord
  2
31
 70
     0
 62
     7
  6
CONTINUOUS
370
    -3
390
364
  0
LAYER
  5
399
330
357
100
AcDbSymbolTableRecord
100
AcDbLayerTableRecord
  2
32
 70
     0
 62
     7
  6
CONTINUOUS
370
    -3
390
364
  0
LAYER
  5
39A
330
357
100
AcDbSymbolTableRecord
100
AcDbLayerTableRecord
  2
33
 70
     0
 62
     7
  6
CONTINUOUS
370
    -3
390
364
  0
LAYER
  5
39B
330
357
100
AcDbSymbolTableRecord
100
AcDbLayerTableRecord
  2
34
 70
     0
 62
     7
  6
CONTINUOUS
370
    -3
390
364
  0
LAYER
  5
39C
330
357
100
AcDbSymbolTableRecord
100
AcDbLayerTableRecord
  2
35
 70
     0
 62
     7
  6
CONTINUOUS
370
    -3
390
364
  0
LAYER
  5
39D
330
357
100
AcDbSymbolTableRecord
100
AcDbLayerTableRecord
  2
36
 70
     0
 62
     7
  6
CONTINUOUS
370
    -3
390
364
  0
LAYER
  5
39E
330
357
100
AcDbSymbolTableRecord
100
AcDbLayerTableRecord
  2
37
 70
     0
 62
     7
  6
CONTINUOUS
370
    -3
390
364
  0
LAYER
  5
39F
330
357
100
AcDbSymbolTableRecord
100
AcDbLayerTableRecord
  2
38
 70
     0
 62
     7
  6
CONTINUOUS
370
    -3
390
364
  0
LAYER
  5
3A0
330
357
100
AcDbSymbolTableRecord
100
AcDbLayerTableRecord
  2
39
 70
     0
 62
     7
  6
CONTINUOUS
370
    -3
390
364
  0
LAYER
  5
3A1
330
357
100
AcDbSymbolTableRecord
100
AcDbLayerTableRecord
  2
40
 70
     0
 62
     7
  6
CONTINUOUS
370
    -3
390
364
  0
LAYER
  5
3A2
330
357
100
AcDbSymbolTableRecord
100
AcDbLayerTableRecord
  2
41
 70
     0
 62
     7
  6
CONTINUOUS
370
    -3
390
364
  0
LAYER
  5
3A3
330
357
100
AcDbSymbolTableRecord
100
AcDbLayerTableRecord
  2
42
 70
     0
 62
     7
  6
CONTINUOUS
370
    -3
390
364
  0
LAYER
  5
3A4
330
357
100
AcDbSymbolTableRecord
100
AcDbLayerTableRecord
  2
43
 70
     0
 62
     7
  6
CONTINUOUS
370
    -3
390
364
  0
LAYER
  5
3A5
330
357
100
AcDbSymbolTableRecord
100
AcDbLayerTableRecord
  2
44
 70
     0
 62
     7
  6
CONTINUOUS
370
    -3
390
364
  0
LAYER
  5
3A6
330
357
100
AcDbSymbolTableRecord
100
AcDbLayerTableRecord
  2
45
 70
     0
 62
     7
  6
CONTINUOUS
370
    -3
390
364
  0
LAYER
  5
3A7
330
357
100
AcDbSymbolTableRecord
100
AcDbLayerTableRecord
  2
46
 70
     0
 62
     7
  6
CONTINUOUS
370
    -3
390
364
  0
LAYER
  5
3A8
330
357
100
AcDbSymbolTableRecord
100
AcDbLayerTableRecord
  2
47
 70
     0
 62
     7
  6
CONTINUOUS
370
    -3
390
364
  0
LAYER
  5
3A9
330
357
100
AcDbSymbolTableRecord
100
AcDbLayerTableRecord
  2
48
 70
     0
 62
     7
  6
CONTINUOUS
370
    -3
390
364
  0
LAYER
  5
3AA
330
357
100
AcDbSymbolTableRecord
100
AcDbLayerTableRecord
  2
49
 70
     0
 62
     7
  6
CONTINUOUS
370
    -3
390
364
  0
LAYER
  5
3AB
330
357
100
AcDbSymbolTableRecord
100
AcDbLayerTableRecord
  2
50
 70
     0
 62
     7
  6
CONTINUOUS
370
    -3
390
364
  0
LAYER
  5
3AC
330
357
100
AcDbSymbolTableRecord
100
AcDbLayerTableRecord
  2
51
 70
     0
 62
     7
  6
CONTINUOUS
370
    -3
390
364
  0
LAYER
  5
3AD
330
357
100
AcDbSymbolTableRecord
100
AcDbLayerTableRecord
  2
52
 70
     0
 62
     7
  6
CONTINUOUS
370
    -3
390
364
  0
LAYER
  5
3AE
330
357
100
AcDbSymbolTableRecord
100
AcDbLayerTableRecord
  2
53
 70
     0
 62
     7
  6
CONTINUOUS
370
    -3
390
364
  0
LAYER
  5
3AF
330
357
100
AcDbSymbolTableRecord
100
AcDbLayerTableRecord
  2
54
 70
     0
 62
     7
  6
CONTINUOUS
370
    -3
390
364
  0
LAYER
  5
3B0
330
357
100
AcDbSymbolTableRecord
100
AcDbLayerTableRecord
  2
55
 70
     0
 62
     7
  6
CONTINUOUS
370
    -3
390
364
  0
LAYER
  5
3B1
330
357
100
AcDbSymbolTableRecord
100
AcDbLayerTableRecord
  2
56
 70
     0
 62
     7
  6
CONTINUOUS
370
    -3
390
364
  0
LAYER
  5
3B2
330
357
100
AcDbSymbolTableRecord
100
AcDbLayerTableRecord
  2
57
 70
     0
 62
     7
  6
CONTINUOUS
370
    -3
390
364
  0
LAYER
  5
3B3
330
357
100
AcDbSymbolTableRecord
100
AcDbLayerTableRecord
  2
58
 70
     0
 62
     7
  6
CONTINUOUS
370
    -3
390
364
  0
LAYER
  5
3B4
330
357
100
AcDbSymbolTableRecord
100
AcDbLayerTableRecord
  2
59
 70
     0
 62
     7
  6
CONTINUOUS
370
    -3
390
364
  0
LAYER
  5
3B5
330
357
100
AcDbSymbolTableRecord
100
AcDbLayerTableRecord
  2
60
 70
     0
 62
     7
  6
CONTINUOUS
370
    -3
390
364
  0
LAYER
  5
3B6
330
357
100
AcDbSymbolTableRecord
100
AcDbLayerTableRecord
  2
61
 70
     0
 62
     7
  6
CONTINUOUS
370
    -3
390
364
  0
LAYER
  5
3B7
330
357
100
AcDbSymbolTableRecord
100
AcDbLayerTableRecord
  2
62
 70
     0
 62
     7
  6
CONTINUOUS
370
    -3
390
364
  0
LAYER
  5
3B8
330
357
100
AcDbSymbolTableRecord
100
AcDbLayerTableRecord
  2
63
 70
     0
 62
     7
  6
CONTINUOUS
370
    -3
390
364
  0
LAYER
  5
3B9
330
357
100
AcDbSymbolTableRecord
100
AcDbLayerTableRecord
  2
64
 70
     0
 62
     7
  6
CONTINUOUS
370
    -3
390
364
  0
LAYER
  5
3BA
330
357
100
AcDbSymbolTableRecord
100
AcDbLayerTableRecord
  2
65
 70
     0
 62
     7
  6
CONTINUOUS
370
    -3
390
364
  0
LAYER
  5
3BB
330
357
100
AcDbSymbolTableRecord
100
AcDbLayerTableRecord
  2
66
 70
     0
 62
     7
  6
CONTINUOUS
370
    -3
390
364
  0
LAYER
  5
3BC
330
357
100
AcDbSymbolTableRecord
100
AcDbLayerTableRecord
  2
67
 70
     0
 62
     7
  6
CONTINUOUS
370
    -3
390
364
  0
LAYER
  5
3BD
330
357
100
AcDbSymbolTableRecord
100
AcDbLayerTableRecord
  2
68
 70
     0
 62
     7
  6
CONTINUOUS
370
    -3
390
364
  0
LAYER
  5
3BE
330
357
100
AcDbSymbolTableRecord
100
AcDbLayerTableRecord
  2
69
 70
     0
 62
     7
  6
CONTINUOUS
370
    -3
390
364
  0
LAYER
  5
3BF
330
357
100
AcDbSymbolTableRecord
100
AcDbLayerTableRecord
  2
70
 70
     0
 62
     7
  6
CONTINUOUS
370
    -3
390
364
  0
LAYER
  5
3C0
330
357
100
AcDbSymbolTableRecord
100
AcDbLayerTableRecord
  2
71
 70
     0
 62
     7
  6
CONTINUOUS
370
    -3
390
364
  0
LAYER
  5
3C1
330
357
100
AcDbSymbolTableRecord
100
AcDbLayerTableRecord
  2
72
 70
     0
 62
     7
  6
CONTINUOUS
370
    -3
390
364
  0
LAYER
  5
3C2
330
357
100
AcDbSymbolTableRecord
100
AcDbLayerTableRecord
  2
73
 70
     0
 62
     7
  6
CONTINUOUS
370
    -3
390
364
  0
LAYER
  5
3C3
330
357
100
AcDbSymbolTableRecord
100
AcDbLayerTableRecord
  2
74
 70
     0
 62
     7
  6
CONTINUOUS
370
    -3
390
364
  0
LAYER
  5
3C4
330
357
100
AcDbSymbolTableRecord
100
AcDbLayerTableRecord
  2
75
 70
     0
 62
     7
  6
CONTINUOUS
370
    -3
390
364
  0
LAYER
  5
3C5
330
357
100
AcDbSymbolTableRecord
100
AcDbLayerTableRecord
  2
76
 70
     0
 62
     7
  6
CONTINUOUS
370
    -3
390
364
  0
LAYER
  5
3C6
330
357
100
AcDbSymbolTableRecord
100
AcDbLayerTableRecord
  2
77
 70
     0
 62
     7
  6
CONTINUOUS
370
    -3
390
364
  0
LAYER
  5
3C7
330
357
100
AcDbSymbolTableRecord
100
AcDbLayerTableRecord
  2
78
 70
     0
 62
     7
  6
CONTINUOUS
370
    -3
390
364
  0
LAYER
  5
3C8
330
357
100
AcDbSymbolTableRecord
100
AcDbLayerTableRecord
  2
79
 70
     0
 62
     7
  6
CONTINUOUS
370
    -3
390
364
  0
LAYER
  5
3C9
330
357
100
AcDbSymbolTableRecord
100
AcDbLayerTableRecord
  2
80
 70
     0
 62
     7
  6
CONTINUOUS
370
    -3
390
364
  0
LAYER
  5
3CA
330
357
100
AcDbSymbolTableRecord
100
AcDbLayerTableRecord
  2
81
 70
     0
 62
     7
  6
CONTINUOUS
370
    -3
390
364
  0
LAYER
  5
3CB
330
357
100
AcDbSymbolTableRecord
100
AcDbLayerTableRecord
  2
82
 70
     0
 62
     7
  6
CONTINUOUS
370
    -3
390
364
  0
LAYER
  5
3CC
330
357
100
AcDbSymbolTableRecord
100
AcDbLayerTableRecord
  2
83
 70
     0
 62
     7
  6
CONTINUOUS
370
    -3
390
364
  0
LAYER
  5
3CD
330
357
100
AcDbSymbolTableRecord
100
AcDbLayerTableRecord
  2
84
 70
     0
 62
     7
  6
CONTINUOUS
370
    -3
390
364
  0
LAYER
  5
3CE
330
357
100
AcDbSymbolTableRecord
100
AcDbLayerTableRecord
  2
85
 70
     0
 62
     7
  6
CONTINUOUS
370
    -3
390
364
  0
LAYER
  5
3CF
330
357
100
AcDbSymbolTableRecord
100
AcDbLayerTableRecord
  2
86
 70
     0
 62
     7
  6
CONTINUOUS
370
    -3
390
364
  0
LAYER
  5
3D0
330
357
100
AcDbSymbolTableRecord
100
AcDbLayerTableRecord
  2
87
 70
     0
 62
     7
  6
CONTINUOUS
370
    -3
390
364
  0
LAYER
  5
3D1
330
357
100
AcDbSymbolTableRecord
100
AcDbLayerTableRecord
  2
88
 70
     0
 62
     7
  6
CONTINUOUS
370
    -3
390
364
  0
LAYER
  5
3D2
330
357
100
AcDbSymbolTableRecord
100
AcDbLayerTableRecord
  2
89
 70
     0
 62
     7
  6
CONTINUOUS
370
    -3
390
364
  0
LAYER
  5
3D3
330
357
100
AcDbSymbolTableRecord
100
AcDbLayerTableRecord
  2
90
 70
     0
 62
     7
  6
CONTINUOUS
370
    -3
390
364
  0
LAYER
  5
3D4
330
357
100
AcDbSymbolTableRecord
100
AcDbLayerTableRecord
  2
91
 70
     0
 62
     7
  6
CONTINUOUS
370
    -3
390
364
  0
LAYER
  5
3D5
330
357
100
AcDbSymbolTableRecord
100
AcDbLayerTableRecord
  2
92
 70
     0
 62
     7
  6
CONTINUOUS
370
    -3
390
364
  0
LAYER
  5
3D6
330
357
100
AcDbSymbolTableRecord
100
AcDbLayerTableRecord
  2
93
 70
     0
 62
     7
  6
CONTINUOUS
370
    -3
390
364
  0
LAYER
  5
3D7
330
357
100
AcDbSymbolTableRecord
100
AcDbLayerTableRecord
  2
94
 70
     0
 62
     7
  6
CONTINUOUS
370
    -3
390
364
  0
LAYER
  5
3D8
330
357
100
AcDbSymbolTableRecord
100
AcDbLayerTableRecord
  2
95
 70
     0
 62
     7
  6
CONTINUOUS
370
    -3
390
364
  0
LAYER
  5
3D9
330
357
100
AcDbSymbolTableRecord
100
AcDbLayerTableRecord
  2
96
 70
     0
 62
     7
  6
CONTINUOUS
370
    -3
390
364
  0
LAYER
  5
3DA
330
357
100
AcDbSymbolTableRecord
100
AcDbLayerTableRecord
  2
97
 70
     0
 62
     7
  6
CONTINUOUS
370
    -3
390
364
  0
LAYER
  5
3DB
330
357
100
AcDbSymbolTableRecord
100
AcDbLayerTableRecord
  2
98
 70
     0
 62
     7
  6
CONTINUOUS
370
    -3
390
364
  0
LAYER
  5
3DC
330
357
100
AcDbSymbolTableRecord
100
AcDbLayerTableRecord
  2
99
 70
     0
 62
     7
  6
CONTINUOUS
370
    -3
390
364
  0
LAYER
  5
3DD
330
357
100
AcDbSymbolTableRecord
100
AcDbLayerTableRecord
  2
100
 70
     0
 62
     7
  6
CONTINUOUS
370
    -3
390
364
  0
LAYER
  5
3DE
330
357
100
AcDbSymbolTableRecord
100
AcDbLayerTableRecord
  2
101
 70
     0
 62
     7
  6
CONTINUOUS
370
    -3
390
364
  0
LAYER
  5
3DF
330
357
100
AcDbSymbolTableRecord
100
AcDbLayerTableRecord
  2
102
 70
     0
 62
     7
  6
CONTINUOUS
370
    -3
390
364
  0
LAYER
  5
3E0
330
357
100
AcDbSymbolTableRecord
100
AcDbLayerTableRecord
  2
103
 70
     0
 62
     7
  6
CONTINUOUS
370
    -3
390
364
  0
LAYER
  5
3E1
330
357
100
AcDbSymbolTableRecord
100
AcDbLayerTableRecord
  2
104
 70
     0
 62
     7
  6
CONTINUOUS
370
    -3
390
364
  0
LAYER
  5
3E2
330
357
100
AcDbSymbolTableRecord
100
AcDbLayerTableRecord
  2
105
 70
     0
 62
     7
  6
CONTINUOUS
370
    -3
390
364
  0
LAYER
  5
3E3
330
357
100
AcDbSymbolTableRecord
100
AcDbLayerTableRecord
  2
106
 70
     0
 62
     7
  6
CONTINUOUS
370
    -3
390
364
  0
LAYER
  5
3E4
330
357
100
AcDbSymbolTableRecord
100
AcDbLayerTableRecord
  2
107
 70
     0
 62
     7
  6
CONTINUOUS
370
    -3
390
364
  0
LAYER
  5
3E5
330
357
100
AcDbSymbolTableRecord
100
AcDbLayerTableRecord
  2
108
 70
     0
 62
     7
  6
CONTINUOUS
370
    -3
390
364
  0
LAYER
  5
3E6
330
357
100
AcDbSymbolTableRecord
100
AcDbLayerTableRecord
  2
109
 70
     0
 62
     7
  6
CONTINUOUS
370
    -3
390
364
  0
LAYER
  5
3E7
330
357
100
AcDbSymbolTableRecord
100
AcDbLayerTableRecord
  2
110
 70
     0
 62
     7
  6
CONTINUOUS
370
    -3
390
364
  0
LAYER
  5
3E8
330
357
100
AcDbSymbolTableRecord
100
AcDbLayerTableRecord
  2
111
 70
     0
 62
     7
  6
CONTINUOUS
370
    -3
390
364
  0
LAYER
  5
3E9
330
357
100
AcDbSymbolTableRecord
100
AcDbLayerTableRecord
  2
112
 70
     0
 62
     7
  6
CONTINUOUS
370
    -3
390
364
  0
LAYER
  5
3EA
330
357
100
AcDbSymbolTableRecord
100
AcDbLayerTableRecord
  2
113
 70
     0
 62
     7
  6
CONTINUOUS
370
    -3
390
364
  0
LAYER
  5
3EB
330
357
100
AcDbSymbolTableRecord
100
AcDbLayerTableRecord
  2
114
 70
     0
 62
     7
  6
CONTINUOUS
370
    -3
390
364
  0
LAYER
  5
3EC
330
357
100
AcDbSymbolTableRecord
100
AcDbLayerTableRecord
  2
115
 70
     0
 62
     7
  6
CONTINUOUS
370
    -3
390
364
  0
LAYER
  5
3ED
330
357
100
AcDbSymbolTableRecord
100
AcDbLayerTableRecord
  2
116
 70
     0
 62
     7
  6
CONTINUOUS
370
    -3
390
364
  0
LAYER
  5
3EE
330
357
100
AcDbSymbolTableRecord
100
AcDbLayerTableRecord
  2
117
 70
     0
 62
     7
  6
CONTINUOUS
370
    -3
390
364
  0
LAYER
  5
3EF
330
357
100
AcDbSymbolTableRecord
100
AcDbLayerTableRecord
  2
118
 70
     0
 62
     7
  6
CONTINUOUS
370
    -3
390
364
  0
LAYER
  5
3F0
330
357
100
AcDbSymbolTableRecord
100
AcDbLayerTableRecord
  2
119
 70
     0
 62
     7
  6
CONTINUOUS
370
    -3
390
364
  0
LAYER
  5
3F1
330
357
100
AcDbSymbolTableRecord
100
AcDbLayerTableRecord
  2
120
 70
     0
 62
     7
  6
CONTINUOUS
370
    -3
390
364
  0
LAYER
  5
3F2
330
357
100
AcDbSymbolTableRecord
100
AcDbLayerTableRecord
  2
121
 70
     0
 62
     7
  6
CONTINUOUS
370
    -3
390
364
  0
LAYER
  5
3F3
330
357
100
AcDbSymbolTableRecord
100
AcDbLayerTableRecord
  2
122
 70
     0
 62
     7
  6
CONTINUOUS
370
    -3
390
364
  0
LAYER
  5
3F4
330
357
100
AcDbSymbolTableRecord
100
AcDbLayerTableRecord
  2
123
 70
     0
 62
     7
  6
CONTINUOUS
370
    -3
390
364
  0
LAYER
  5
3F5
330
357
100
AcDbSymbolTableRecord
100
AcDbLayerTableRecord
  2
124
 70
     0
 62
     7
  6
CONTINUOUS
370
    -3
390
364
  0
LAYER
  5
3F6
330
357
100
AcDbSymbolTableRecord
100
AcDbLayerTableRecord
  2
125
 70
     0
 62
     7
  6
CONTINUOUS
370
    -3
390
364
  0
LAYER
  5
3F7
330
357
100
AcDbSymbolTableRecord
100
AcDbLayerTableRecord
  2
126
 70
     0
 62
     7
  6
CONTINUOUS
370
    -3
390
364
  0
LAYER
  5
3F8
330
357
100
AcDbSymbolTableRecord
100
AcDbLayerTableRecord
  2
127
 70
     0
 62
     7
  6
CONTINUOUS
370
    -3
390
364
  0
ENDTAB
  0
TABLE
  2
STYLE
  5
358
330
0
100
AcDbSymbolTable
 70
     8
  0
STYLE
  5
366
330
358
100
AcDbSymbolTableRecord
100
AcDbTextStyleTableRecord
  2
STANDARD
 70
     0
 40
0.0
 41
1.0
 50
0.0
 71
     0
 42
0.2
  3
txt
  4

  0
STYLE
  5
3F9
330
358
100
AcDbSymbolTableRecord
100
AcDbTextStyleTableRecord
  2
KANJI0
 70
     0
 40
2.5
 41
0.5
 50
0.0
 71
     0
 42
2.5
  3
txt
  4
bigfont
  0
STYLE
  5
3FA
330
358
100
AcDbSymbolTableRecord
100
AcDbTextStyleTableRecord
  2
KANJI1
 70
     0
 40
3.5
 41
0.857142857
 50
0.0
 71
     0
 42
3.5
  3
txt
  4
bigfont
  0
STYLE
  5
3FB
330
358
100
AcDbSymbolTableRecord
100
AcDbTextStyleTableRecord
  2
KANJI2
 70
     0
 40
3.5
 41
0.428571429
 50
0.0
 71
     0
 42
3.5
  3
txt
  4
bigfont
  0
STYLE
  5
3FC
330
358
100
AcDbSymbolTableRecord
100
AcDbTextStyleTableRecord
  2
KANJI3
 70
     0
 40
3.5
 41
0.857142857
 50
0.0
 71
     0
 42
3.5
  3
txt
  4
bigfont
  0
STYLE
  5
3FD
330
358
100
AcDbSymbolTableRecord
100
AcDbTextStyleTableRecord
  2
KANJI4
 70
     0
 40
3.0
 41
0.6
 50
0.0
 71
     0
 42
3.0
  3
txt
  4
bigfont
  0
STYLE
  5
3FE
330
358
100
AcDbSymbolTableRecord
100
AcDbTextStyleTableRecord
  2
KANJI5
 70
     0
 40
3.5
 41
0.428571429
 50
0.0
 71
     0
 42
3.5
  3
txt
  4
bigfont
  0
STYLE
  5
3FF
330
358
100
AcDbSymbolTableRecord
100
AcDbTextStyleTableRecord
  2
KANJI6
 70
     0
 40
3.0
 41
0.6
 50
0.0
 71
     0
 42
3.0
  3
txt
  4
bigfont
  0
ENDTAB
  0
TABLE
  2
VIEW
  5
35B
330
0
100
AcDbSymbolTable
 70
     0
  0
ENDTAB
  0
TABLE
  2
UCS
  5
35C
330
0
100
AcDbSymbolTable
 70
     0
  0
ENDTAB
  0
TABLE
  2
APPID
  5
35E
330
0
100
AcDbSymbolTable
 70
     1
  0
APPID
  5
367
330
35E
100
AcDbSymbolTableRecord
100
AcDbRegAppTableRecord
  2
ACAD
 70
     0
  0
ENDTAB
  0
TABLE
  2
DIMSTYLE
  5
35F
330
0
100
AcDbSymbolTable
 70
     1
100
AcDbDimStyleTable
 71
     0
  0
DIMSTYLE
105
400
330
35F
100
AcDbSymbolTableRecord
100
AcDbDimStyleTableRecord
  2
STANDARD
 70
     0
279
     2
340
366
  0
ENDTAB
  0
TABLE
  2
BLOCK_RECORD
  5
356
330
0
100
AcDbSymbolTable
 70
     2
  0
BLOCK_RECORD
  5
373
330
356
100
AcDbSymbolTableRecord
100
AcDbBlockTableRecord
  2
*Model_Space
340
376
  0
BLOCK_RECORD
  5
36F
330
356
100
AcDbSymbolTableRecord
100
AcDbBlockTableRecord
  2
*Paper_Space
340
372
  0
BLOCK_RECORD
  5
403
330
356
100
AcDbSymbolTableRecord
100
AcDbBlockTableRecord
  2
$MODEL_SPACE
340
0
  0
BLOCK_RECORD
  5
406
330
356
100
AcDbSymbolTableRecord
100
AcDbBlockTableRecord
  2
$PAPER_SPACE
340
0
  0
ENDTAB
  0
ENDSEC
  0
SECTION
  2
BLOCKS
  0
BLOCK
  5
374
330
373
100
AcDbEntity
  8
0
100
AcDbBlockBegin
  2
*Model_Space
 70
     0
 10
0.0
 20
0.0
 30
0.0
  3
*Model_Space
  1

  0
ENDBLK
  5
375
330
373
100
AcDbEntity
  8
0
100
AcDbBlockEnd
  0
BLOCK
  5
370
330
36F
100
AcDbEntity
 67
     1
  8
0
100
AcDbBlockBegin
  2
*Paper_Space
 70
     0
 10
0.0
 20
0.0
 30
0.0
  3
*Paper_Space
  1

  0
ENDBLK
  5
371
330
36F
100
AcDbEntity
 67
     1
  8
0
100
AcDbBlockEnd
  0
BLOCK
  5
404
330
403
100
AcDbEntity
  8
0
100
AcDbBlockBegin
  2
$MODEL_SPACE
 70
     0
 10
0.0
 20
0.0
 30
0.0
  3
$MODEL_SPACE
  1

  0
ENDBLK
  5
405
330
403
100
AcDbEntity
  8
0
100
AcDbBlockEnd
  0
BLOCK
  5
407
330
406
100
AcDbEntity
  8
0
100
AcDbBlockBegin
  2
$PAPER_SPACE
 70
     0
 10
0.0
 20
0.0
 30
0.0
  3
$PAPER_SPACE
  1

  0
ENDBLK
  5
408
330
406
100
AcDbEntity
  8
0
100
AcDbBlockEnd
  0
ENDSEC
  0
SECTION
  2
ENTITIES
  0
LINE
  5
409
330
373
100
AcDbEntity
  8
0
  6
Continuous
 62
     3
100
AcDbLine
 10
140.55
 20
226.5
 30
0.0
 11
139.902952387
 21
228.914814566
 31
0.0
  0
LINE
  5
40A
330
373
100
AcDbEntity
  8
0
  6
Continuous
 62
     3
100
AcDbLine
 10
140.55
 20
226.5
 30
0.0
 11
140.55
 21
223.3
 31
0.0
  0
LINE
  5
40B
330
373
100
AcDbEntity
  8
0
  6
Continuous
 62
     3
100
AcDbLine
 10
140.55
 20
223.3
 30
0.0
 11
140.55
 21
219.55
 31
0.0
  0
LINE
  5
40C
330
373
100
AcDbEntity
  8
0
  6
Continuous
 62
     3
100
AcDbLine
 10
140.55
 20
223.3
 30
0.0
 11
139.902952387
 21
220.885185434
 31
0.0
  0
LINE
  5
40D
330
373
100
AcDbEntity
  8
0
  6
Continuous
 62
     3
100
AcDbLine
 10
140.55
 20
223.3
 30
0.0
 11
141.197047613
 21
220.885185434
 31
0.0
  0
LINE
  5
40E
330
373
100
AcDbEntity
  8
0
  6
Continuous
 62
     3
100
AcDbLine
 10
140.55
 20
223.3
 30
0.0
 11
139.902952387
 21
220.885185434
 31
0.0
  0
LINE
  5
40F
330
373
100
AcDbEntity
  8
0
  6
Continuous
 62
     3
100
AcDbLine
 10
140.55
 20
223.3
 30
0.0
 11
141.197047613
 21
220.885185434
 31
0.0
  0
LINE
  5
410
330
373
100
AcDbEntity
  8
0
  6
Continuous
 62
     3
100
AcDbLine
 10
140.55
 20
226.5
 30
0.0
 11
141.197047613
 21
228.914814566
 31
0.0
  0
LINE
  5
411
330
373
100
AcDbEntity
  8
0
  6
Continuous
 62
     3
100
AcDbLine
 10
135.4999999999996
 20
147.0
 30
0.0
 11
134.852952387
 21
144.585185434
 31
0.0
  0
LINE
  5
412
330
373
100
AcDbEntity
  8
0
  6
Continuous
 62
     3
100
AcDbLine
 10
135.4999999999996
 20
147.0
 30
0.0
 11
136.1470476129998
 21
144.585185434
 31
0.0
  0
LINE
  5
413
330
373
100
AcDbEntity
  8
0
  6
Continuous
 62
     3
100
AcDbLine
 10
135.4999999999996
 20
147.0
 30
0.0
 11
135.4999999999996
 21
151.3
 31
0.0
  0
LINE
  5
414
330
373
100
AcDbEntity
  8
0
  6
Continuous
 62
     3
100
AcDbLine
 10
135.4999999999996
 20
151.3
 30
0.0
 11
135.4999999999996
 21
155.05
 31
0.0
  0
LINE
  5
415
330
373
100
AcDbEntity
  8
0
  6
Continuous
 62
     3
100
AcDbLine
 10
135.4999999999996
 20
151.3
 30
0.0
 11
136.1470476129998
 21
153.7148145659998
 31
0.0
  0
LINE
  5
416
330
373
100
AcDbEntity
  8
0
  6
Continuous
 62
     3
100
AcDbLine
 10
135.4999999999996
 20
151.3
 30
0.0
 11
134.852952387
 21
153.7148145659998
 31
0.0
  0
LINE
  5
417
330
373
100
AcDbEntity
  8
0
  6
Continuous
 62
     3
100
AcDbLine
 10
140.55
 20
147.0
 30
0.0
 11
141.197047613
 21
149.4148145659998
 31
0.0
  0
LINE
  5
418
330
373
100
AcDbEntity
  8
0
  6
Continuous
 62
     3
100
AcDbLine
 10
140.55
 20
147.0
 30
0.0
 11
139.902952387
 21
149.4148145659998
 31
0.0
  0
LINE
  5
419
330
373
100
AcDbEntity
  8
0
  6
Continuous
 62
     3
100
AcDbLine
 10
140.55
 20
223.3
 30
0.0
 11
140.55
 21
147.0
 31
0.0
  0
LINE
  5
41A
330
373
100
AcDbEntity
  8
0
  6
Continuous
 62
     3
100
AcDbLine
 10
124.9
 20
167.8
 30
0.0
 11
122.4851854339999
 21
168.447047613
 31
0.0
  0
LINE
  5
41B
330
373
100
AcDbEntity
  8
0
  6
Continuous
 62
     3
100
AcDbLine
 10
33.0
 20
167.8
 30
0.0
 11
35.41481456599999
 21
168.447047613
 31
0.0
  0
LINE
  5
41C
330
373
100
AcDbEntity
  8
0
  6
Continuous
 62
     3
100
AcDbLine
 10
33.0
 20
167.8
 30
0.0
 11
124.9
 21
167.8
 31
0.0
  0
LINE
  5
41D
330
373
100
AcDbEntity
  8
0
  6
Continuous
 62
     3
100
AcDbLine
 10
46.323945576
 20
59.540065637
 30
0.0
 11
46.323945576
 21
66.230974726
 31
0.0
  0
LINE
  5
41E
330
373
100
AcDbEntity
  8
0
  6
Continuous
 62
     3
100
AcDbLine
 10
46.323945576
 20
65.39461109
 30
0.0
 11
48.833036484
 21
66.230974726
 31
0.0
  0
LINE
  5
41F
330
373
100
AcDbEntity
  8
0
  6
Continuous
 62
     3
100
AcDbLine
 10
48.833036484
 20
64.55824745300001
 30
0.0
 11
46.323945576
 21
65.39461109
 31
0.0
  0
LINE
  5
420
330
373
100
AcDbEntity
  8
0
  6
Continuous
 62
     3
100
AcDbLine
 10
46.323945576
 20
65.39461109
 30
0.0
 11
92.32394556
 21
65.39461109
 31
0.0
  0
LINE
  5
421
330
373
100
AcDbEntity
  8
0
  6
Continuous
 62
     3
100
AcDbLine
 10
92.32394556
 20
65.39461109
 30
0.0
 11
89.814854652
 21
66.230974726
 31
0.0
  0
LINE
  5
422
330
373
100
AcDbEntity
  8
0
  6
Continuous
 62
     3
100
AcDbLine
 10
89.814854652
 20
64.55824745300001
 30
0.0
 11
92.32394556
 21
65.39461109
 31
0.0
  0
LINE
  5
423
330
373
100
AcDbEntity
  8
0
  6
Continuous
 62
     3
100
AcDbLine
 10
92.32394556
 20
66.230974726
 30
0.0
 11
92.32394556
 21
59.540065637
 31
0.0
  0
LINE
  5
424
330
373
100
AcDbEntity
  8
0
  6
Continuous
 62
     3
100
AcDbLine
 10
45.48758193899999
 20
58.703702001
 30
0.0
 11
38.796672851
 21
58.703702001
 31
0.0
  0
LINE
  5
425
330
373
100
AcDbEntity
  8
0
  6
Continuous
 62
     3
100
AcDbLine
 10
39.633036487
 20
58.703702001
 30
0.0
 11
38.796672851
 21
56.194611093
 31
0.0
  0
LINE
  5
426
330
373
100
AcDbEntity
  8
0
  6
Continuous
 62
     3
100
AcDbLine
 10
40.469400123
 20
56.194611093
 30
0.0
 11
39.633036487
 21
58.703702001
 31
0.0
  0
LINE
  5
427
330
373
100
AcDbEntity
  8
0
  6
Continuous
 62
     3
100
AcDbLine
 10
39.633036487
 20
48.165520186
 30
0.0
 11
38.796672851
 21
50.67461109399999
 31
0.0
  0
LINE
  5
428
330
373
100
AcDbEntity
  8
0
  6
Continuous
 62
     3
100
AcDbLine
 10
40.469400123
 20
50.67461109399999
 30
0.0
 11
39.633036487
 21
48.165520186
 31
0.0
  0
LINE
  5
429
330
373
100
AcDbEntity
  8
0
  6
Continuous
 62
     3
100
AcDbLine
 10
38.796672851
 20
48.165520186
 30
0.0
 11
45.48758193899999
 21
48.165520186
 31
0.0
  0
LINE
  5
42A
330
373
100
AcDbEntity
  8
0
  6
Continuous
 62
     3
100
AcDbLine
 10
39.633036487
 20
58.62006563699999
 30
0.0
 11
39.633036487
 21
48.165520186
 31
0.0
  0
LINE
  5
42B
330
373
100
AcDbEntity
  8
0
  6
LTYPE1
 62
     3
100
AcDbLine
 10
65.32394557599999
 20
53.26370200100001
 30
0.0
 11
73.323945576
 21
53.26370200100001
 31
0.0
  0
LINE
  5
42C
330
373
100
AcDbEntity
  8
0
  6
Continuous
 62
     3
100
AcDbLine
 10
65.32394557599999
 20
53.26370200100001
 30
0.0
 11
73.323945576
 21
53.26370200100001
 31
0.0
  0
LINE
  5
42D
330
373
100
AcDbEntity
  8
0
  6
Continuous
 62
     3
100
AcDbLine
 10
69.323945576
 20
55.263702001
 30
0.0
 11
69.323945576
 21
51.26370200100001
 31
0.0
  0
LINE
  5
42E
330
373
100
AcDbEntity
  8
0
  6
Continuous
 62
     3
100
AcDbLine
 10
46.323945576
 20
47.830974732
 30
0.0
 11
46.323945576
 21
47.980974732
 31
0.0
  0
LINE
  5
42F
330
373
100
AcDbEntity
  8
0
  6
LTYPE1
 62
     3
100
AcDbLine
 10
65.32394557599999
 20
33.258247463
 30
0.0
 11
73.323945576
 21
33.258247463
 31
0.0
  0
LINE
  5
430
330
373
100
AcDbEntity
  8
0
  6
Continuous
 62
     3
100
AcDbLine
 10
65.32394557599999
 20
33.258247463
 30
0.0
 11
73.323945576
 21
33.258247463
 31
0.0
  0
LINE
  5
431
330
373
100
AcDbEntity
  8
0
  6
Continuous
 62
     3
100
AcDbLine
 10
69.323945576
 20
31.258247463
 30
0.0
 11
69.323945576
 21
35.258247463
 31
0.0
  0
LINE
  5
432
330
373
100
AcDbEntity
  8
0
  6
LTYPE1
 62
     3
100
AcDbLine
 10
133.3239455439999
 20
53.26370200100001
 30
0.0
 11
125.3239455439999
 21
53.26370200100001
 31
0.0
  0
LINE
  5
433
330
373
100
AcDbEntity
  8
0
  6
Continuous
 62
     3
100
AcDbLine
 10
133.3239455439999
 20
53.26370200100001
 30
0.0
 11
125.3239455439999
 21
53.26370200100001
 31
0.0
  0
LINE
  5
434
330
373
100
AcDbEntity
  8
0
  6
Continuous
 62
     3
100
AcDbLine
 10
129.3239455439999
 20
55.263702001
 30
0.0
 11
129.3239455439999
 21
51.26370200100001
 31
0.0
  0
LINE
  5
435
330
373
100
AcDbEntity
  8
0
  6
LTYPE1
 62
     3
100
AcDbLine
 10
133.3239455439999
 20
33.258247463
 30
0.0
 11
125.3239455439999
 21
33.258247463
 31
0.0
  0
LINE
  5
436
330
373
100
AcDbEntity
  8
0
  6
Continuous
 62
     3
100
AcDbLine
 10
133.3239455439999
 20
33.258247463
 30
0.0
 11
125.3239455439999
 21
33.258247463
 31
0.0
  0
LINE
  5
437
330
373
100
AcDbEntity
  8
0
  6
Continuous
 62
     3
100
AcDbLine
 10
129.3239455439999
 20
31.258247463
 30
0.0
 11
129.3239455439999
 21
35.258247463
 31
0.0
  0
LINE
  5
438
330
373
100
AcDbEntity
  8
0
  6
Continuous
 62
     3
100
AcDbLine
 10
42.90999999999999
 20
53.26370200100001
 30
0.0
 11
62.38
 21
53.26370200100001
 31
0.0
  0
LINE
  5
439
330
373
100
AcDbEntity
  8
0
  6
Continuous
 62
     3
100
AcDbLine
 10
76.15999999999998
 20
53.26370200100001
 30
0.0
 11
122.9239455439999
 21
53.26370200100001
 31
0.0
  0
LINE
  5
43A
330
373
100
AcDbEntity
  8
0
  6
Continuous
 62
     3
100
AcDbLine
 10
136.2039455439999
 20
53.26370200100001
 30
0.0
 11
156.113945544
 21
53.26370200100001
 31
0.0
  0
LINE
  5
43B
330
373
100
AcDbEntity
  8
0
  6
Continuous
 62
     3
100
AcDbLine
 10
69.323945576
 20
62.13
 30
0.0
 11
69.323945576
 21
56.593702001
 31
0.0
  0
LINE
  5
43C
330
373
100
AcDbEntity
  8
0
  6
Continuous
 62
     3
100
AcDbLine
 10
69.323945576
 20
49.853702001
 30
0.0
 11
69.323945576
 21
45.513702001
 31
0.0
  0
LINE
  5
43D
330
373
100
AcDbEntity
  8
0
  6
Continuous
 62
     3
100
AcDbLine
 10
69.323945576
 20
40.72370200099999
 30
0.0
 11
69.323945576
 21
36.533702001
 31
0.0
  0
LINE
  5
43E
330
373
100
AcDbEntity
  8
0
  6
Continuous
 62
     3
100
AcDbLine
 10
69.323945576
 20
29.493702001
 30
0.0
 11
69.323945576
 21
25.593702001
 31
0.0
  0
LINE
  5
43F
330
373
100
AcDbEntity
  8
0
  6
Continuous
 62
     3
100
AcDbLine
 10
129.3239455759996
 20
29.493702001
 30
0.0
 11
129.3239455759996
 21
25.593702001
 31
0.0
  0
LINE
  5
440
330
373
100
AcDbEntity
  8
0
  6
Continuous
 62
     3
100
AcDbLine
 10
129.3239455759996
 20
40.72370200099999
 30
0.0
 11
129.3239455759996
 21
36.533702001
 31
0.0
  0
LINE
  5
441
330
373
100
AcDbEntity
  8
0
  6
Continuous
 62
     3
100
AcDbLine
 10
129.3239455759996
 20
45.513702001
 30
0.0
 11
129.3239455759996
 21
49.853702001
 31
0.0
  0
LINE
  5
442
330
373
100
AcDbEntity
  8
0
  6
Continuous
 62
     3
100
AcDbLine
 10
129.3239455759996
 20
56.593702001
 30
0.0
 11
129.3239455759996
 21
62.13
 31
0.0
  0
LINE
  5
443
330
373
100
AcDbEntity
  8
0
  6
Continuous
 62
     3
100
AcDbLine
 10
42.90999999999999
 20
33.26370200099999
 30
0.0
 11
62.38
 21
33.26370200099999
 31
0.0
  0
LINE
  5
444
330
373
100
AcDbEntity
  8
0
  6
Continuous
 62
     3
100
AcDbLine
 10
76.15999999999998
 20
33.26370200099999
 30
0.0
 11
122.9239455439999
 21
33.26370200099999
 31
0.0
  0
LINE
  5
445
330
373
100
AcDbEntity
  8
0
  6
Continuous
 62
     3
100
AcDbLine
 10
136.2039455439999
 20
33.26370200099999
 30
0.0
 11
156.113945544
 21
33.26370200099999
 31
0.0
  0
LINE
  5
446
330
373
100
AcDbEntity
  8
0
  6
Continuous
 62
     3
100
AcDbLine
 10
156.113945544
 20
53.26370200100001
 30
0.0
 11
168.613945544
 21
53.26370200100001
 31
0.0
  0
LINE
  5
447
330
373
100
AcDbEntity
  8
0
  6
Continuous
 62
     3
100
AcDbLine
 10
168.613945544
 20
53.26370200100001
 30
0.0
 11
167.9668979319998
 21
50.848887435
 31
0.0
  0
LINE
  5
448
330
373
100
AcDbEntity
  8
0
  6
Continuous
 62
     3
100
AcDbLine
 10
168.613945544
 20
53.26370200100001
 30
0.0
 11
169.260993157
 21
50.848887435
 31
0.0
  0
LINE
  5
449
330
373
100
AcDbEntity
  8
0
  6
Continuous
 62
     3
100
AcDbLine
 10
156.113945544
 20
33.26370200099999
 30
0.0
 11
168.613945544
 21
33.26370200099999
 31
0.0
  0
LINE
  5
44A
330
373
100
AcDbEntity
  8
0
  6
Continuous
 62
     3
100
AcDbLine
 10
168.613945544
 20
33.26370200099999
 30
0.0
 11
169.260993157
 21
35.67851656699999
 31
0.0
  0
LINE
  5
44B
330
373
100
AcDbEntity
  8
0
  6
Continuous
 62
     3
100
AcDbLine
 10
168.613945544
 20
33.26370200099999
 30
0.0
 11
167.9668979319998
 21
35.67851656699999
 31
0.0
  0
LINE
  5
44C
330
373
100
AcDbEntity
  8
0
  6
Continuous
 62
     3
100
AcDbLine
 10
168.613945544
 20
53.26370200100001
 30
0.0
 11
168.613945544
 21
33.26370200099999
 31
0.0
  0
LINE
  5
44D
330
373
100
AcDbEntity
  8
0
  6
Continuous
 62
     3
100
AcDbLine
 10
69.323945576
 20
25.593702001
 30
0.0
 11
69.323945576
 21
10.560974732
 31
0.0
  0
LINE
  5
44E
330
373
100
AcDbEntity
  8
0
  6
Continuous
 62
     3
100
AcDbLine
 10
129.3239455759996
 20
25.593702001
 30
0.0
 11
129.3239455759996
 21
10.560974732
 31
0.0
  0
LINE
  5
44F
330
373
100
AcDbEntity
  8
0
  6
Continuous
 62
     3
100
AcDbLine
 10
69.323945576
 20
10.560974732
 30
0.0
 11
71.738760141
 21
9.913927119
 31
0.0
  0
LINE
  5
450
330
373
100
AcDbEntity
  8
0
  6
Continuous
 62
     3
100
AcDbLine
 10
69.323945576
 20
10.560974732
 30
0.0
 11
71.738760141
 21
11.20802234499998
 31
0.0
  0
LINE
  5
451
330
373
100
AcDbEntity
  8
0
  6
Continuous
 62
     3
100
AcDbLine
 10
69.323945576
 20
10.560974732
 30
0.0
 11
129.3239455759996
 21
10.560974732
 31
0.0
  0
LINE
  5
452
330
373
100
AcDbEntity
  8
0
  6
Continuous
 62
     3
100
AcDbLine
 10
129.3239455759996
 20
10.560974732
 30
0.0
 11
126.90913101
 21
11.20802234499998
 31
0.0
  0
LINE
  5
453
330
373
100
AcDbEntity
  8
0
  6
Continuous
 62
     3
100
AcDbLine
 10
129.3239455759996
 20
10.560974732
 30
0.0
 11
126.90913101
 21
9.913927119
 31
0.0
  0
LINE
  5
454
330
373
100
AcDbEntity
  8
0
  6
Continuous
 62
     3
100
AcDbLine
 10
131.0999999999999
 20
226.5
 30
0.0
 11
141.22
 21
226.5
 31
0.0
  0
LINE
  5
455
330
373
100
AcDbEntity
  8
0
  6
Continuous
 62
     3
100
AcDbLine
 10
131.0999999999999
 20
223.3
 30
0.0
 11
141.22
 21
223.3
 31
0.0
  0
LINE
  5
456
330
373
100
AcDbEntity
  8
0
  6
Continuous
 62
     3
100
AcDbLine
 10
202.1105985879996
 20
243.5
 30
0.0
 11
211.410598588
 21
243.5
 31
0.0
  0
LINE
  5
457
330
373
100
AcDbEntity
  8
0
  6
Continuous
 62
     3
100
AcDbLine
 10
211.410598588
 20
243.5
 30
0.0
 11
212.1105985879996
 21
243.5
 31
0.0
  0
LINE
  5
458
330
373
100
AcDbEntity
  8
0
  6
Continuous
 62
     3
100
AcDbLine
 10
212.1105985879996
 20
243.5
 30
0.0
 11
211.463550975
 21
241.085185434
 31
0.0
  0
LINE
  5
459
330
373
100
AcDbEntity
  8
0
  6
Continuous
 62
     3
100
AcDbLine
 10
212.1105985879996
 20
243.5
 30
0.0
 11
212.7576461999999
 21
241.085185434
 31
0.0
  0
LINE
  5
45A
330
373
100
AcDbEntity
  8
0
  6
Continuous
 62
     3
100
AcDbLine
 10
212.1105985879996
 20
147.0
 30
0.0
 11
212.7576461999999
 21
149.4148145659998
 31
0.0
  0
LINE
  5
45B
330
373
100
AcDbEntity
  8
0
  6
Continuous
 62
     3
100
AcDbLine
 10
212.1105985879996
 20
147.0
 30
0.0
 11
211.463550975
 21
149.4148145659998
 31
0.0
  0
LINE
  5
45C
330
373
100
AcDbEntity
  8
0
  6
Continuous
 62
     3
100
AcDbLine
 10
212.1105985879996
 20
147.0
 30
0.0
 11
212.1105985879996
 21
243.5
 31
0.0
  0
LINE
  5
45D
330
373
100
AcDbEntity
  8
0
  6
Continuous
 62
     3
100
AcDbLine
 10
199.810598588
 20
147.0
 30
0.0
 11
212.1105985879996
 21
147.0
 31
0.0
  0
TEXT
  5
45E
330
373
100
AcDbEntity
  8
0
  6
Continuous
 62
     3
100
AcDbText
 10
68.180309204
 20
67.255520179
 30
0.0
 40
2.5
  1
－０
 41
0.5
  7
KANJI0
100
AcDbText
  0
TEXT
  5
45F
330
373
100
AcDbEntity
  8
0
  6
Continuous
 62
     3
100
AcDbText
 10
36.823945579
 20
55.640974728
 30
0.0
 40
2.5
  1
－０
 50
90.0
 41
0.5
  7
KANJI0
100
AcDbText
  0
TEXT
  5
460
330
373
100
AcDbEntity
  8
0
  6
Continuous
 62
     3
100
AcDbText
 10
34.359400125
 20
55.640974728
 30
0.0
 40
2.5
  1
＋０.３
 50
90.0
 41
0.5
  7
KANJI0
100
AcDbText
  0
TEXT
  5
461
330
373
100
AcDbEntity
  8
0
  6
Continuous
 62
     3
100
AcDbText
 10
139.55
 20
181.0999999999999
 30
0.0
 40
3.5
  1
７６.３
 50
90.0
 41
0.857142857
  7
KANJI1
100
AcDbText
  0
TEXT
  5
462
330
373
100
AcDbEntity
  8
0
  6
Continuous
 62
     3
100
AcDbText
 10
65.05849102399999
 20
66.56552017999999
 30
0.0
 40
3.5
  1
９２
 41
0.428571429
  7
KANJI2
100
AcDbText
  0
TEXT
  5
463
330
373
100
AcDbEntity
  8
0
  6
Continuous
 62
     3
100
AcDbText
 10
37.62576376
 20
49.252792913
 30
0.0
 40
3.5
  1
２２.２
 50
90.0
 41
0.428571429
  7
KANJI2
100
AcDbText
  0
LINE
  5
464
330
373
100
AcDbEntity
  8
0
  6
Continuous
 62
     3
100
AcDbLine
 10
171.567967527
 20
248.07
 30
0.0
 11
173.9827820929999
 21
247.422952387
 31
0.0
  0
LINE
  5
465
330
373
100
AcDbEntity
  8
0
  6
Continuous
 62
     3
100
AcDbLine
 10
171.567967527
 20
248.07
 30
0.0
 11
173.9827820929999
 21
248.717047613
 31
0.0
  0
LINE
  5
466
330
373
100
AcDbEntity
  8
0
  6
Continuous
 62
     3
100
AcDbLine
 10
192.687967527
 20
248.07
 30
0.0
 11
190.2731529609999
 21
248.717047613
 31
0.0
  0
LINE
  5
467
330
373
100
AcDbEntity
  8
0
  6
Continuous
 62
     3
100
AcDbLine
 10
192.687967527
 20
248.07
 30
0.0
 11
190.2731529609999
 21
247.422952387
 31
0.0
  0
LINE
  5
468
330
373
100
AcDbEntity
  8
0
  6
Continuous
 62
     3
100
AcDbLine
 10
171.567967527
 20
248.07
 30
0.0
 11
192.687967527
 21
248.07
 31
0.0
  0
TEXT
  5
469
330
373
100
AcDbEntity
  8
0
  6
Continuous
 62
     3
100
AcDbText
 10
179.127967527
 20
249.0699999999999
 30
0.3
 40
3.5
  1
２１
 41
0.857142857
  7
KANJI3
100
AcDbText
  0
LINE
  5
46A
330
373
100
AcDbEntity
  8
0
  6
Continuous
 62
     3
100
AcDbLine
 10
171.567967527
 20
224.2199999999999
 30
0.3
 11
171.567967527
 21
249.52
 31
0.3
  0
LINE
  5
46B
330
373
100
AcDbEntity
  8
0
  6
Continuous
 62
     3
100
AcDbLine
 10
192.687967527
 20
249.4099999999999
 30
0.0
 11
192.687967527
 21
223.91
 31
0.0
  0
LINE
  5
46C
330
373
100
AcDbEntity
  8
0
  6
Continuous
 62
     3
100
AcDbLine
 10
191.407967527
 20
243.5
 30
0.0
 11
202.1105985879996
 21
243.5
 31
0.0
  0
LINE
  5
46D
330
373
100
AcDbEntity
  8
0
  6
Continuous
 62
     3
100
AcDbLine
 10
194.9679675269995
 20
147.0
 30
0.0
 11
199.810598588
 21
147.0
 31
0.0
  0
TEXT
  5
46E
330
373
100
AcDbEntity
  8
0
  6
Continuous
 62
     3
100
AcDbText
 10
210.905336467
 20
188.1
 30
0.3
 40
3.5
  1
９６.５
 50
90.0
 41
0.857142857
  7
KANJI3
100
AcDbText
  0
LINE
  5
46F
330
373
100
AcDbEntity
  8
0
  6
Continuous
 62
     3
100
AcDbLine
 10
132.0
 20
124.77
 30
0.3
 11
132.0
 21
117.5
 31
0.3
  0
LINE
  5
470
330
373
100
AcDbEntity
  8
0
  6
Continuous
 62
     3
100
AcDbLine
 10
132.0999999999999
 20
124.0
 30
0.0
 11
129.685185434
 21
124.647047613
 31
0.0
  0
LINE
  5
471
330
373
100
AcDbEntity
  8
0
  6
Continuous
 62
     3
100
AcDbLine
 10
132.0999999999999
 20
124.0
 30
0.0
 11
129.685185434
 21
123.352952387
 31
0.0
  0
LINE
  5
472
330
373
100
AcDbEntity
  8
0
  6
Continuous
 62
     3
100
AcDbLine
 10
36.0
 20
117.5
 30
0.0
 11
36.0
 21
124.98
 31
0.0
  0
LINE
  5
473
330
373
100
AcDbEntity
  8
0
  6
Continuous
 62
     3
100
AcDbLine
 10
36.1
 20
124.0
 30
0.0
 11
38.514814566
 21
123.352952387
 31
0.0
  0
LINE
  5
474
330
373
100
AcDbEntity
  8
0
  6
Continuous
 62
     3
100
AcDbLine
 10
36.1
 20
124.0
 30
0.0
 11
38.514814566
 21
124.647047613
 31
0.0
  0
LINE
  5
475
330
373
100
AcDbEntity
  8
0
  6
Continuous
 62
     3
100
AcDbLine
 10
36.1
 20
124.0
 30
0.0
 11
132.0999999999999
 21
124.0
 31
0.0
  0
TEXT
  5
476
330
373
100
AcDbEntity
  8
0
  6
Continuous
 62
     3
100
AcDbText
 10
25.8
 20
101.55
 30
0.3
 40
3.5
  1
２４
 50
90.0
 41
0.857142857
  7
KANJI3
100
AcDbText
  0
LINE
  5
477
330
373
100
AcDbEntity
  8
0
  6
Continuous
 62
     3
100
AcDbLine
 10
34.0
 20
115.5
 30
0.3
 11
25.52796752699999
 21
115.5
 31
0.3
  0
LINE
  5
478
330
373
100
AcDbEntity
  8
0
  6
Continuous
 62
     3
100
AcDbLine
 10
25.107967527
 20
91.5
 30
0.0
 11
34.0
 21
91.5
 31
0.0
  0
LINE
  5
479
330
373
100
AcDbEntity
  8
0
  6
Continuous
 62
     3
100
AcDbLine
 10
26.8
 20
91.5
 30
0.0
 11
27.447047613
 21
93.91481456600001
 31
0.0
  0
LINE
  5
47A
330
373
100
AcDbEntity
  8
0
  6
Continuous
 62
     3
100
AcDbLine
 10
26.8
 20
91.5
 30
0.0
 11
26.15295238699999
 21
93.91481456600001
 31
0.0
  0
LINE
  5
47B
330
373
100
AcDbEntity
  8
0
  6
Continuous
 62
     3
100
AcDbLine
 10
26.8
 20
115.5
 30
0.0
 11
26.15295238699999
 21
113.0851854339999
 31
0.0
  0
LINE
  5
47C
330
373
100
AcDbEntity
  8
0
  6
Continuous
 62
     3
100
AcDbLine
 10
26.8
 20
115.5
 30
0.0
 11
27.447047613
 21
113.0851854339999
 31
0.0
  0
LINE
  5
47D
330
373
100
AcDbEntity
  8
0
  6
Continuous
 62
     3
100
AcDbLine
 10
26.8
 20
115.5
 30
0.0
 11
26.8
 21
91.5
 31
0.0
  0
LINE
  5
47E
330
373
100
AcDbEntity
  8
0
  6
Continuous
 62
     3
100
AcDbLine
 10
171.0705985879999
 20
150.8
 30
0.0
 11
171.0705985879999
 21
137.9799999999999
 31
0.0
  0
LINE
  5
47F
330
373
100
AcDbEntity
  8
0
  6
Continuous
 62
     3
100
AcDbLine
 10
171.0705985879999
 20
138.9799999999999
 30
0.0
 11
173.4854131529999
 21
138.332952387
 31
0.0
  0
LINE
  5
480
330
373
100
AcDbEntity
  8
0
  6
Continuous
 62
     3
100
AcDbLine
 10
171.0705985879999
 20
138.9799999999999
 30
0.0
 11
173.4854131529999
 21
139.6270476129996
 31
0.0
  0
LINE
  5
481
330
373
100
AcDbEntity
  8
0
  6
Continuous
 62
     3
100
AcDbLine
 10
171.0705985879999
 20
138.9799999999999
 30
0.0
 11
193.0705985879999
 21
138.9799999999999
 31
0.0
  0
LINE
  5
482
330
373
100
AcDbEntity
  8
0
  6
Continuous
 62
     3
100
AcDbLine
 10
193.0705985879999
 20
138.9799999999999
 30
0.0
 11
190.6557840219998
 21
139.6270476129996
 31
0.0
  0
LINE
  5
483
330
373
100
AcDbEntity
  8
0
  6
Continuous
 62
     3
100
AcDbLine
 10
193.0705985879999
 20
138.9799999999999
 30
0.0
 11
190.6557840219998
 21
138.332952387
 31
0.0
  0
LINE
  5
484
330
373
100
AcDbEntity
  8
0
  6
Continuous
 62
     3
100
AcDbLine
 10
193.0705985879999
 20
150.8
 30
0.0
 11
193.0705985879999
 21
137.9799999999999
 31
0.0
  0
TEXT
  5
485
330
373
100
AcDbEntity
  8
0
  6
Continuous
 62
     3
100
AcDbText
 10
180.1205985879996
 20
139.07
 30
0.3
 40
3.5
  1
２２
 41
0.857142857
  7
KANJI3
100
AcDbText
  0
LINE
  5
486
330
373
100
AcDbEntity
  8
0
  6
Continuous
 62
     3
100
AcDbLine
 10
38.5
 20
224.5
 30
0.3
 11
38.5
 21
247.0
 31
0.3
  0
LINE
  5
487
330
373
100
AcDbEntity
  8
0
  6
Continuous
 62
     3
100
AcDbLine
 10
38.5
 20
245.0
 30
0.0
 11
40.91481456599999
 21
244.352952387
 31
0.0
  0
LINE
  5
488
330
373
100
AcDbEntity
  8
0
  6
Continuous
 62
     3
100
AcDbLine
 10
38.5
 20
245.0
 30
0.0
 11
40.91481456599999
 21
245.6470476129999
 31
0.0
  0
LINE
  5
489
330
373
100
AcDbEntity
  8
0
  6
Continuous
 62
     3
100
AcDbLine
 10
38.5
 20
245.0
 30
0.0
 11
129.4999999999996
 21
245.0
 31
0.0
  0
LINE
  5
48A
330
373
100
AcDbEntity
  8
0
  6
Continuous
 62
     3
100
AcDbLine
 10
129.4999999999996
 20
245.0
 30
0.0
 11
127.085185434
 21
245.6470476129999
 31
0.0
  0
LINE
  5
48B
330
373
100
AcDbEntity
  8
0
  6
Continuous
 62
     3
100
AcDbLine
 10
129.4999999999996
 20
245.0
 30
0.0
 11
127.085185434
 21
244.352952387
 31
0.0
  0
LINE
  5
48C
330
373
100
AcDbEntity
  8
0
  6
Continuous
 62
     3
100
AcDbLine
 10
129.4999999999996
 20
224.5
 30
0.0
 11
129.4999999999996
 21
247.0
 31
0.0
  0
TEXT
  5
48D
330
373
100
AcDbEntity
  8
0
  6
Continuous
 62
     3
100
AcDbText
 10
78.9
 20
246.3
 30
0.0
 40
3.5
  1
９１
 41
0.857142857
  7
KANJI1
100
AcDbText
  0
TEXT
  5
496
330
373
100
AcDbEntity
  8
0
  6
Continuous
 62
     3
100
AcDbText
 10
68.01303647600001
 20
69.723701996
 30
0.0
 40
2.5
  1
＋０.４
 41
0.5
  7
KANJI0
100
AcDbText
  0
TEXT
  5
497
330
373
100
AcDbEntity
  8
0
  6
Continuous
 62
     3
100
AcDbText
 10
207.8594001249999
 20
200.640974728
 30
0.0
 40
2.5
  1
＋１
 50
90.0
 41
0.5
  7
KANJI0
100
AcDbText
  0
TEXT
  5
498
330
373
100
AcDbEntity
  8
0
  6
Continuous
 62
     3
100
AcDbText
 10
210.323945579
 20
200.640974728
 30
0.0
 40
2.5
  1
－０.５
 50
90.0
 41
0.5
  7
KANJI0
100
AcDbText
  0
TEXT
  5
499
330
373
100
AcDbEntity
  8
0
  6
Continuous
 62
     3
100
AcDbText
 10
134.7499999999998
 20
136.65
 30
0.0
 40
3.0
  1
４.３
 50
90.0
 41
0.6
  7
KANJI4
100
AcDbText
  0
LINE
  5
49A
330
373
100
AcDbEntity
  8
0
  6
Continuous
 62
     3
100
AcDbLine
 10
135.8999999999996
 20
151.3
 30
0.0
 11
132.9
 21
151.3
 31
0.0
  0
LINE
  5
49B
330
373
100
AcDbEntity
  8
0
  6
Continuous
 62
     3
100
AcDbLine
 10
132.4
 20
147.0
 30
0.0
 11
141.31
 21
147.0
 31
0.0
  0
LINE
  5
49C
330
373
100
AcDbEntity
  8
0
  6
Continuous
 62
     3
100
AcDbLine
 10
135.8999999999996
 20
151.3
 30
0.0
 11
136.8999999999994
 21
151.3
 31
0.0
  0
LINE
  5
49D
330
373
100
AcDbEntity
  8
0
  6
Continuous
 62
     3
100
AcDbLine
 10
135.4999999999996
 20
135.8
 30
0.0
 11
135.4999999999996
 21
147.0
 31
0.0
  0
TEXT
  5
49E
330
373
100
AcDbEntity
  8
0
  6
Continuous
 62
     3
100
AcDbText
 10
78.4
 20
168.8
 30
0.0
 40
3.5
  1
９１.９
 41
0.857142857
  7
KANJI1
100
AcDbText
  0
TEXT
  5
4A0
330
373
100
AcDbEntity
  8
0
  6
Continuous
 62
     3
100
AcDbText
 10
81.15
 20
125.0
 30
0.3
 40
3.5
  1
９６
 41
0.857142857
  7
KANJI3
100
AcDbText
  0
POINT
  5
4A3
330
373
100
AcDbEntity
  8
0
  6
Continuous
 62
     1
100
AcDbPoint
 10
59.4
 20
223.3
 30
0.0
  0
POINT
  5
4A4
330
373
100
AcDbEntity
  8
0
  6
Continuous
 62
     1
100
AcDbPoint
 10
59.4
 20
223.3
 30
0.0
  0
POINT
  5
4A5
330
373
100
AcDbEntity
  8
0
  6
Continuous
 62
     1
100
AcDbPoint
 10
59.4
 20
223.3
 30
0.0
  0
POINT
  5
4A6
330
373
100
AcDbEntity
  8
0
  6
Continuous
 62
     1
100
AcDbPoint
 10
59.4
 20
223.3
 30
0.0
  0
POINT
  5
4A7
330
373
100
AcDbEntity
  8
0
  6
Continuous
 62
     1
100
AcDbPoint
 10
59.4
 20
233.3
 30
0.0
  0
POINT
  5
4A8
330
373
100
AcDbEntity
  8
0
  6
Continuous
 62
     1
100
AcDbPoint
 10
59.4
 20
233.3
 30
0.0
  0
POINT
  5
4A9
330
373
100
AcDbEntity
  8
0
  6
Continuous
 62
     1
100
AcDbPoint
 10
59.4
 20
233.3
 30
0.0
  0
POINT
  5
4AA
330
373
100
AcDbEntity
  8
0
  6
Continuous
 62
     1
100
AcDbPoint
 10
59.4
 20
233.3
 30
0.0
  0
POINT
  5
4AB
330
373
100
AcDbEntity
  8
0
  6
Continuous
 62
     1
100
AcDbPoint
 10
59.4
 20
233.3
 30
0.0
  0
POINT
  5
4AC
330
373
100
AcDbEntity
  8
0
  6
Continuous
 62
     1
100
AcDbPoint
 10
59.4
 20
233.3
 30
0.0
  0
LINE
  5
4AD
330
373
100
AcDbEntity
  8
0
  6
Continuous
 62
     1
100
AcDbLine
 10
59.4
 20
223.3
 30
0.0
 11
59.4
 21
233.3
 31
0.0
  0
LINE
  5
4AE
330
373
100
AcDbEntity
  8
0
  6
Continuous
 62
     1
100
AcDbLine
 10
59.4
 20
233.3
 30
0.0
 11
48.76
 21
233.3
 31
0.0
  0
LINE
  5
4AF
330
373
100
AcDbEntity
  8
0
  6
Continuous
 62
     1
100
AcDbLine
 10
47.75999999999998
 20
232.2999999999999
 30
0.0
 11
47.75999999999998
 21
226.5
 31
0.0
  0
LINE
  5
4B0
330
373
100
AcDbEntity
  8
0
  6
Continuous
 62
     1
100
AcDbLine
 10
48.76
 20
233.3
 30
0.0
 11
48.75
 21
233.3
 31
0.0
  0
LINE
  5
4B1
330
373
100
AcDbEntity
  8
0
  6
Continuous
 62
     1
100
AcDbLine
 10
48.76
 20
233.3
 30
0.0
 11
47.75999999999998
 21
232.2999999999999
 31
0.0
  0
LINE
  5
4B2
330
373
100
AcDbEntity
  8
0
  6
Continuous
 62
     1
100
AcDbLine
 10
60.6
 20
231.3
 30
0.0
 11
60.6
 21
223.3
 31
0.0
  0
LINE
  5
4B3
330
373
100
AcDbEntity
  8
0
  6
Continuous
 62
     1
100
AcDbLine
 10
60.6
 20
223.3
 30
0.0
 11
60.6
 21
233.3
 31
0.0
  0
POINT
  5
4B4
330
373
100
AcDbEntity
  8
0
  6
Continuous
 62
     1
100
AcDbPoint
 10
60.6
 20
233.3
 30
0.0
  0
LINE
  5
4B5
330
373
100
AcDbEntity
  8
0
  6
Continuous
 62
     1
100
AcDbLine
 10
53.5
 20
226.25
 30
0.0
 11
53.5
 21
223.3
 31
0.0
  0
LINE
  5
4B6
330
373
100
AcDbEntity
  8
0
  6
Continuous
 62
     1
100
AcDbLine
 10
53.5
 20
226.25
 30
0.0
 11
53.5
 21
226.5
 31
0.0
  0
LINE
  5
4B7
330
373
100
AcDbEntity
  8
0
  6
Continuous
 62
     1
100
AcDbLine
 10
53.25
 20
226.5
 30
0.0
 11
53.5
 21
226.5
 31
0.0
  0
LINE
  5
4B8
330
373
100
AcDbEntity
  8
0
  6
Continuous
 62
     1
100
AcDbLine
 10
39.25
 20
226.5
 30
0.0
 11
39.0
 21
226.5
 31
0.0
  0
LINE
  5
4B9
330
373
100
AcDbEntity
  8
0
  6
Continuous
 62
     1
100
AcDbLine
 10
39.0
 20
226.5
 30
0.0
 11
39.0
 21
226.0
 31
0.0
  0
LINE
  5
4BA
330
373
100
AcDbEntity
  8
0
  6
Continuous
 62
     1
100
AcDbLine
 10
45.0
 20
226.5
 30
0.0
 11
45.0
 21
226.2
 31
0.0
  0
LINE
  5
4BB
330
373
100
AcDbEntity
  8
0
  6
Continuous
 62
     1
100
AcDbLine
 10
47.5
 20
226.5
 30
0.0
 11
53.25
 21
226.5
 31
0.0
  0
LINE
  5
4BC
330
373
100
AcDbEntity
  8
0
  6
Continuous
 62
     1
100
AcDbLine
 10
47.5
 20
223.3
 30
0.0
 11
47.5
 21
226.5
 31
0.0
  0
LINE
  5
4BD
330
373
100
AcDbEntity
  8
0
  6
Continuous
 62
     1
100
AcDbLine
 10
39.0
 20
223.3
 30
0.0
 11
39.0
 21
226.25
 31
0.0
  0
LINE
  5
4BE
330
373
100
AcDbEntity
  8
0
  6
Continuous
 62
     1
100
AcDbLine
 10
39.25
 20
226.5
 30
0.0
 11
44.75
 21
226.5
 31
0.0
  0
LINE
  5
4BF
330
373
100
AcDbEntity
  8
0
  6
Continuous
 62
     1
100
AcDbLine
 10
44.75
 20
226.5
 30
0.0
 11
45.0
 21
226.5
 31
0.0
  0
LINE
  5
4C0
330
373
100
AcDbEntity
  8
0
  6
Continuous
 62
     1
100
AcDbLine
 10
45.0
 20
226.25
 30
0.0
 11
45.0
 21
223.3
 31
0.0
  0
LINE
  5
4C1
330
373
100
AcDbEntity
  8
0
  6
Continuous
 62
     1
100
AcDbLine
 10
120.25
 20
231.3
 30
0.0
 11
120.25
 21
226.5
 31
0.0
  0
LINE
  5
4C2
330
373
100
AcDbEntity
  8
0
  6
Continuous
 62
     1
100
AcDbLine
 10
119.25
 20
233.3
 30
0.0
 11
120.25
 21
232.2999999999999
 31
0.0
  0
LINE
  5
4C3
330
373
100
AcDbEntity
  8
0
  6
Continuous
 62
     1
100
AcDbLine
 10
120.25
 20
232.2999999999999
 30
0.0
 11
120.25
 21
230.8
 31
0.0
  0
LINE
  5
4C4
330
373
100
AcDbEntity
  8
0
  6
Continuous
 62
     1
100
AcDbLine
 10
123.0
 20
226.25
 30
0.0
 11
123.0
 21
223.3
 31
0.0
  0
LINE
  5
4C5
330
373
100
AcDbEntity
  8
0
  6
Continuous
 62
     1
100
AcDbLine
 10
120.5
 20
223.3
 30
0.0
 11
120.5
 21
226.25
 31
0.0
  0
LINE
  5
4C6
330
373
100
AcDbEntity
  8
0
  6
Continuous
 62
     1
100
AcDbLine
 10
114.5
 20
226.25
 30
0.0
 11
114.5
 21
223.3
 31
0.0
  0
LINE
  5
4C7
330
373
100
AcDbEntity
  8
0
  6
Continuous
 62
     1
100
AcDbLine
 10
120.25
 20
226.5
 30
0.0
 11
114.7499999999999
 21
226.5
 31
0.0
  0
LINE
  5
4C8
330
373
100
AcDbEntity
  8
0
  6
Continuous
 62
     1
100
AcDbLine
 10
114.7499999999999
 20
226.5
 30
0.0
 11
114.5
 21
226.5
 31
0.0
  0
LINE
  5
4C9
330
373
100
AcDbEntity
  8
0
  6
Continuous
 62
     1
100
AcDbLine
 10
114.5
 20
226.5
 30
0.0
 11
114.5
 21
226.0
 31
0.0
  0
LINE
  5
4CA
330
373
100
AcDbEntity
  8
0
  6
Continuous
 62
     1
100
AcDbLine
 10
120.25
 20
226.5
 30
0.0
 11
120.5
 21
226.5
 31
0.0
  0
LINE
  5
4CB
330
373
100
AcDbEntity
  8
0
  6
Continuous
 62
     1
100
AcDbLine
 10
120.5
 20
226.5
 30
0.0
 11
120.5
 21
226.15
 31
0.0
  0
LINE
  5
4CC
330
373
100
AcDbEntity
  8
0
  6
Continuous
 62
     1
100
AcDbLine
 10
123.2499999999999
 20
226.5
 30
0.0
 11
123.000001907
 21
226.5
 31
0.0
  0
LINE
  5
4CD
330
373
100
AcDbEntity
  8
0
  6
Continuous
 62
     1
100
AcDbLine
 10
123.000001907
 20
226.5
 30
0.0
 11
123.000001907
 21
226.0499999999999
 31
0.0
  0
LINE
  5
4CE
330
373
100
AcDbEntity
  8
0
  6
Continuous
 62
     1
100
AcDbLine
 10
60.6
 20
233.3
 30
0.0
 11
119.25
 21
233.3
 31
0.0
  0
LINE
  5
4CF
330
373
100
AcDbEntity
  8
0
  6
Continuous
 62
     1
100
AcDbLine
 10
129.0
 20
223.3
 30
0.0
 11
129.0
 21
226.25
 31
0.0
  0
LINE
  5
4D0
330
373
100
AcDbEntity
  8
0
  6
Continuous
 62
     1
100
AcDbLine
 10
38.5
 20
223.3
 30
0.0
 11
129.4999999999996
 21
223.3
 31
0.0
  0
LINE
  5
4D1
330
373
100
AcDbEntity
  8
0
  6
Continuous
 62
     1
100
AcDbLine
 10
129.4999999999996
 20
223.3
 30
0.0
 11
38.5
 21
223.3
 31
0.0
  0
LINE
  5
4D2
330
373
100
AcDbEntity
  8
0
  6
Continuous
 62
     1
100
AcDbLine
 10
38.5
 20
223.3
 30
0.0
 11
129.4999999999996
 21
223.3
 31
0.0
  0
LINE
  5
4D3
330
373
100
AcDbEntity
  8
0
  6
Continuous
 62
     1
100
AcDbLine
 10
38.5
 20
223.3
 30
0.0
 11
129.4999999999996
 21
223.3
 31
0.0
  0
LINE
  5
4D4
330
373
100
AcDbEntity
  8
0
  6
Continuous
 62
     1
100
AcDbLine
 10
129.4999999999996
 20
223.3
 30
0.0
 11
38.5
 21
223.3
 31
0.0
  0
LINE
  5
4D5
330
373
100
AcDbEntity
  8
0
  6
Continuous
 62
     1
100
AcDbLine
 10
128.75
 20
226.5
 30
0.0
 11
123.2499999999999
 21
226.5
 31
0.0
  0
LINE
  5
4D6
330
373
100
AcDbEntity
  8
0
  6
Continuous
 62
     1
100
AcDbLine
 10
129.0
 20
226.5
 30
0.0
 11
129.0
 21
226.25
 31
0.0
  0
LINE
  5
4D7
330
373
100
AcDbEntity
  8
0
  6
Continuous
 62
     1
100
AcDbLine
 10
129.0
 20
226.25
 30
0.0
 11
129.0
 21
226.0499999999999
 31
0.0
  0
LINE
  5
4D8
330
373
100
AcDbEntity
  8
0
  6
Continuous
 62
     1
100
AcDbLine
 10
128.75
 20
226.5
 30
0.0
 11
129.0
 21
226.5
 31
0.0
  0
LINE
  5
4D9
330
373
100
AcDbEntity
  8
0
  6
Continuous
 62
     1
100
AcDbLine
 10
38.5
 20
151.3
 30
0.0
 11
36.0
 21
151.3
 31
0.0
  0
LINE
  5
4DA
330
373
100
AcDbEntity
  8
0
  6
Continuous
 62
     1
100
AcDbLine
 10
36.0
 20
151.3
 30
0.0
 11
36.35
 21
147.0
 31
0.0
  0
LINE
  5
4DB
330
373
100
AcDbEntity
  8
0
  6
Continuous
 62
     1
100
AcDbLine
 10
37.33
 20
161.18
 30
0.0
 11
36.15999999999999
 21
159.2299999999999
 31
0.0
  0
LINE
  5
4DC
330
373
100
AcDbEntity
  8
0
  6
Continuous
 62
     1
100
AcDbLine
 10
36.15999999999999
 20
159.2299999999999
 30
0.0
 11
35.12
 21
157.93
 31
0.0
  0
LINE
  5
4DD
330
373
100
AcDbEntity
  8
0
  6
Continuous
 62
     1
100
AcDbLine
 10
35.12
 20
157.93
 30
0.0
 11
38.5
 21
151.3
 31
0.0
  0
LINE
  5
4DE
330
373
100
AcDbEntity
  8
0
  6
Continuous
 62
     1
100
AcDbLine
 10
38.5
 20
164.3
 30
0.0
 11
37.33
 21
161.18
 31
0.0
  0
LINE
  5
4DF
330
373
100
AcDbEntity
  8
0
  6
Continuous
 62
     1
100
AcDbLine
 10
38.5
 20
223.3
 30
0.0
 11
38.5
 21
151.3
 31
0.0
  0
LINE
  5
4E0
330
373
100
AcDbEntity
  8
0
  6
Continuous
 62
     1
100
AcDbLine
 10
38.5
 20
223.3
 30
0.0
 11
38.5
 21
151.3
 31
0.0
  0
LINE
  5
4E1
330
373
100
AcDbEntity
  8
0
  6
Continuous
 62
     1
100
AcDbLine
 10
129.4999999999996
 20
151.3
 30
0.0
 11
132.0
 21
151.3
 31
0.0
  0
LINE
  5
4E2
330
373
100
AcDbEntity
  8
0
  6
Continuous
 62
     1
100
AcDbLine
 10
131.65
 20
147.0
 30
0.0
 11
128.6499999999996
 21
147.0
 31
0.0
  0
LINE
  5
4E3
330
373
100
AcDbEntity
  8
0
  6
Continuous
 62
     1
100
AcDbLine
 10
36.35
 20
147.0
 30
0.0
 11
129.1999999999999
 21
147.0
 31
0.0
  0
LINE
  5
4E4
330
373
100
AcDbEntity
  8
0
  6
Continuous
 62
     1
100
AcDbLine
 10
129.4999999999996
 20
151.3
 30
0.0
 11
38.5
 21
151.3
 31
0.0
  0
LINE
  5
4E5
330
373
100
AcDbEntity
  8
0
  6
Continuous
 62
     1
100
AcDbLine
 10
130.6699999999999
 20
161.21
 30
0.0
 11
131.84
 21
159.26
 31
0.0
  0
LINE
  5
4E6
330
373
100
AcDbEntity
  8
0
  6
Continuous
 62
     1
100
AcDbLine
 10
131.84
 20
159.26
 30
0.0
 11
132.8799999999999
 21
157.96
 31
0.0
  0
LINE
  5
4E7
330
373
100
AcDbEntity
  8
0
  6
Continuous
 62
     1
100
AcDbLine
 10
132.8799999999999
 20
157.96
 30
0.0
 11
129.4999999999996
 21
151.33
 31
0.0
  0
LINE
  5
4E8
330
373
100
AcDbEntity
  8
0
  6
Continuous
 62
     1
100
AcDbLine
 10
129.4999999999996
 20
164.33
 30
0.0
 11
130.6699999999999
 21
161.21
 31
0.0
  0
LINE
  5
4E9
330
373
100
AcDbEntity
  8
0
  6
Continuous
 62
     1
100
AcDbLine
 10
129.4999999999996
 20
223.3
 30
0.0
 11
129.4999999999996
 21
151.3
 31
0.0
  0
LINE
  5
4EA
330
373
100
AcDbEntity
  8
0
  6
Continuous
 62
     1
100
AcDbLine
 10
129.4999999999996
 20
223.3
 30
0.0
 11
129.4999999999996
 21
151.3
 31
0.0
  0
LINE
  5
4EB
330
373
100
AcDbEntity
  8
0
  6
Continuous
 62
     1
100
AcDbLine
 10
129.4999999999996
 20
223.3
 30
0.0
 11
129.4999999999996
 21
151.3
 31
0.0
  0
LINE
  5
4EC
330
373
100
AcDbEntity
  8
0
  6
Continuous
 62
     1
100
AcDbLine
 10
132.0
 20
151.3
 30
0.0
 11
131.65
 21
147.0
 31
0.0
  0
LINE
  5
4ED
330
373
100
AcDbEntity
  8
0
  6
Continuous
 62
     3
100
AcDbLine
 10
33.0
 20
167.8
 30
0.0
 11
35.41481456599999
 21
167.152952387
 31
0.0
  0
LINE
  5
4EE
330
373
100
AcDbEntity
  8
0
  6
Continuous
 62
     3
100
AcDbLine
 10
38.5
 20
151.3
 30
0.0
 11
33.0
 21
167.8
 31
0.0
  0
LINE
  5
4EF
330
373
100
AcDbEntity
  8
0
  6
Continuous
 62
     3
100
AcDbLine
 10
124.9
 20
167.8
 30
0.0
 11
122.4851854339999
 21
167.152952387
 31
0.0
  0
LINE
  5
4F0
330
373
100
AcDbEntity
  8
0
  6
Continuous
 62
     3
100
AcDbLine
 10
124.9
 20
167.8
 30
0.0
 11
129.4999999999996
 21
151.3
 31
0.0
  0
LINE
  5
4F1
330
373
100
AcDbEntity
  8
0
  6
Continuous
 62
     1
100
AcDbLine
 10
36.0
 20
115.5
 30
0.0
 11
36.0
 21
91.5
 31
0.0
  0
LINE
  5
4F2
330
373
100
AcDbEntity
  8
0
  6
Continuous
 62
     1
100
AcDbLine
 10
38.0
 20
113.5
 30
0.0
 11
38.0
 21
93.49999999999999
 31
0.0
  0
LINE
  5
4F3
330
373
100
AcDbEntity
  8
0
  6
Continuous
 62
     1
100
AcDbLine
 10
38.0
 20
113.5
 30
0.0
 11
38.0
 21
93.56999999999999
 31
0.0
  0
LINE
  5
4F4
330
373
100
AcDbEntity
  8
0
  6
Continuous
 62
     1
100
AcDbLine
 10
35.95000000000001
 20
109.65
 30
0.0
 11
34.95
 21
109.65
 31
0.0
  0
LINE
  5
4F5
330
373
100
AcDbEntity
  8
0
  6
Continuous
 62
     1
100
AcDbLine
 10
34.95
 20
109.65
 30
0.0
 11
34.95
 21
97.25000000000001
 31
0.0
  0
LINE
  5
4F6
330
373
100
AcDbEntity
  8
0
  6
Continuous
 62
     1
100
AcDbLine
 10
34.95
 20
97.25000000000001
 30
0.0
 11
35.95000000000001
 21
97.25000000000001
 31
0.0
  0
LINE
  5
4F7
330
373
100
AcDbEntity
  8
0
  6
Continuous
 62
     1
100
AcDbLine
 10
36.0
 20
115.5
 30
0.0
 11
132.0
 21
115.5
 31
0.0
  0
LINE
  5
4F8
330
373
100
AcDbEntity
  8
0
  6
Continuous
 62
     1
100
AcDbLine
 10
68.032308426
 20
102.9993876989999
 30
0.0
 11
68.43270769600001
 21
102.7991880639999
 31
0.0
  0
LINE
  5
4F9
330
373
100
AcDbEntity
  8
0
  6
Continuous
 62
     1
100
AcDbLine
 10
66.95967171699999
 20
106.0941533989998
 30
0.0
 11
69.084947708
 21
108.2194293889999
 31
0.0
  0
LINE
  5
4FA
330
373
100
AcDbEntity
  8
0
  6
Continuous
 62
     1
100
AcDbLine
 10
68.085290542
 20
102.972896641
 30
0.0
 11
66.320677383
 21
101.2082834829999
 31
0.0
  0
LINE
  5
4FB
330
373
100
AcDbEntity
  8
0
  6
Continuous
 62
     1
100
AcDbLine
 10
66.21450549399999
 20
100.252736477
 30
0.0
 11
68.39331776999999
 21
102.4315487529999
 31
0.0
  0
LINE
  5
4FC
330
373
100
AcDbEntity
  8
0
  6
Continuous
 62
     1
100
AcDbLine
 10
68.29139275600001
 20
101.480248623
 30
0.0
 11
66.108333604
 21
99.29718947100001
 31
0.0
  0
LINE
  5
4FD
330
373
100
AcDbEntity
  8
0
  6
Continuous
 62
     1
100
AcDbLine
 10
62.939256433
 20
110.5853093239998
 30
0.0
 11
67.54801524199999
 21
110.6263697609999
 31
0.0
  0
LINE
  5
4FE
330
373
100
AcDbEntity
  8
0
  6
Continuous
 62
     1
100
AcDbLine
 10
65.52885682199999
 20
110.6083806389999
 30
0.0
 11
63.726019007
 21
108.606126399
 31
0.0
  0
LINE
  5
4FF
330
373
100
AcDbEntity
  8
0
  6
Continuous
 62
     1
100
AcDbLine
 10
64.53192701999999
 20
108.603596946
 30
0.0
 11
66.34357797299999
 21
110.615639167
 31
0.0
  0
LINE
  5
500
330
373
100
AcDbEntity
  8
0
  6
Continuous
 62
     1
100
AcDbLine
 10
67.158299125
 20
110.6228976949999
 30
0.0
 11
65.337835033
 21
108.601067492
 31
0.0
  0
LINE
  5
501
330
373
100
AcDbEntity
  8
0
  6
Continuous
 62
     1
100
AcDbLine
 10
64.72453235499999
 20
104.576651081
 30
0.0
 11
62.906710693
 21
102.5577555929997
 31
0.0
  0
LINE
  5
502
330
373
100
AcDbEntity
  8
0
  6
Continuous
 62
     1
100
AcDbLine
 10
63.71664756899999
 20
102.559700645
 30
0.0
 11
65.53255552100001
 21
104.5764707429998
 31
0.0
  0
LINE
  5
503
330
373
100
AcDbEntity
  8
0
  6
Continuous
 62
     1
100
AcDbLine
 10
66.34057868800001
 20
104.576290405
 30
0.0
 11
64.526584446
 21
102.5616456979998
 31
0.0
  0
LINE
  5
504
330
373
100
AcDbEntity
  8
0
  6
Continuous
 62
     1
100
AcDbLine
 10
62.603671233
 20
96.432227591
 30
0.0
 11
64.319843871
 21
98.338230401
 31
0.0
  0
LINE
  5
505
330
373
100
AcDbEntity
  8
0
  6
Continuous
 62
     1
100
AcDbLine
 10
65.120775053
 20
98.33017361600001
 30
0.0
 11
63.404602415
 21
96.42417080700001
 31
0.0
  0
LINE
  5
506
330
373
100
AcDbEntity
  8
0
  6
Continuous
 62
     1
100
AcDbLine
 10
62.55323010499999
 20
110.311279882
 30
0.0
 11
64.01147435899999
 21
108.531727573
 31
0.0
  0
LINE
  5
507
330
373
100
AcDbEntity
  8
0
  6
Continuous
 62
     1
100
AcDbLine
 10
67.150406905
 20
107.765531439
 30
0.0
 11
68.658083168
 21
109.1990596889998
 31
0.0
  0
LINE
  5
508
330
373
100
AcDbEntity
  8
0
  6
Continuous
 62
     1
100
AcDbLine
 10
68.658083168
 20
109.1990596889998
 30
0.0
 11
69.12768724999999
 21
108.951899646
 31
0.0
  0
LINE
  5
509
330
373
100
AcDbEntity
  8
0
  6
Continuous
 62
     1
100
AcDbLine
 10
66.26063075000001
 20
108.581159581
 30
0.0
 11
68.114331073
 21
110.2371318699999
 31
0.0
  0
LINE
  5
50A
330
373
100
AcDbEntity
  8
0
  6
Continuous
 62
     1
100
AcDbLine
 10
66.952678871
 20
105.6646710729997
 30
0.0
 11
68.312059108
 21
104.0828467979998
 31
0.0
  0
LINE
  5
50B
330
373
100
AcDbEntity
  8
0
  6
Continuous
 62
     1
100
AcDbLine
 10
66.334778763
 20
104.55245088
 30
0.0
 11
67.397566948
 21
103.5143786989999
 31
0.0
  0
LINE
  5
50C
330
373
100
AcDbEntity
  8
0
  6
Continuous
 62
     1
100
AcDbLine
 10
67.397566948
 20
103.5143786989999
 30
0.0
 11
66.285346755
 21
102.575170535
 31
0.0
  0
LINE
  5
50D
330
373
100
AcDbEntity
  8
0
  6
Continuous
 62
     1
100
AcDbLine
 10
62.55323010499999
 20
110.2628856639998
 30
0.0
 11
62.939256433
 21
110.5853093239998
 31
0.0
  0
LINE
  5
50E
330
373
100
AcDbEntity
  8
0
  6
Continuous
 62
     1
100
AcDbLine
 10
62.703263128
 20
110.162983857
 30
0.0
 11
63.08469336699999
 21
110.5866050539999
 31
0.0
  0
LINE
  5
50F
330
373
100
AcDbEntity
  8
0
  6
Continuous
 62
     1
100
AcDbLine
 10
63.899414518
 20
110.593863582
 30
0.0
 11
63.06636086600001
 21
109.6686637709999
 31
0.0
  0
LINE
  5
510
330
373
100
AcDbEntity
  8
0
  6
Continuous
 62
     1
100
AcDbLine
 10
63.451712995
 20
109.1990596889998
 30
0.0
 11
64.71413567
 21
110.60112211
 31
0.0
  0
LINE
  5
511
330
373
100
AcDbEntity
  8
0
  6
Continuous
 62
     1
100
AcDbLine
 10
63.171130212
 20
104.576997775
 30
0.0
 11
66.285346755
 21
104.576302732
 31
0.0
  0
LINE
  5
512
330
373
100
AcDbEntity
  8
0
  6
Continuous
 62
     1
100
AcDbLine
 10
68.983022694
 20
107.268129259
 30
0.0
 11
67.17512291
 21
105.460229475
 31
0.0
  0
LINE
  5
513
330
373
100
AcDbEntity
  8
0
  6
Continuous
 62
     1
100
AcDbLine
 10
67.644726991
 20
105.08045844
 30
0.0
 11
68.88109767999999
 21
106.316829128
 31
0.0
  0
LINE
  5
514
330
373
100
AcDbEntity
  8
0
  6
Continuous
 62
     1
100
AcDbLine
 10
68.779172666
 20
105.3655289979999
 30
0.0
 11
67.990751052
 21
104.577107384
 31
0.0
  0
LINE
  5
515
330
373
100
AcDbEntity
  8
0
  6
Continuous
 62
     1
100
AcDbLine
 10
69.15548223399999
 20
108.8777516329999
 30
0.0
 11
68.67616829300001
 21
104.404154854
 31
0.0
  0
LINE
  5
516
330
373
100
AcDbEntity
  8
0
  6
Continuous
 62
     1
100
AcDbLine
 10
67.54801524199999
 20
110.6263697609999
 30
0.0
 11
67.96603504699999
 21
110.345790787
 31
0.0
  0
LINE
  5
517
330
373
100
AcDbEntity
  8
0
  6
Continuous
 62
     1
100
AcDbLine
 10
66.334778763
 20
108.597938447
 30
0.0
 11
63.937326346
 21
108.605463182
 31
0.0
  0
LINE
  5
518
330
373
100
AcDbEntity
  8
0
  6
Continuous
 62
     1
100
AcDbLine
 10
68.312059108
 20
104.0490403229999
 30
0.0
 11
68.67724765199999
 21
104.414228868
 31
0.0
  0
LINE
  5
519
330
373
100
AcDbEntity
  8
0
  6
Continuous
 62
     1
100
AcDbLine
 10
62.949349719
 20
105.8623991079998
 30
0.0
 11
63.16452434399999
 21
107.6913834259999
 31
0.0
  0
LINE
  5
51A
330
373
100
AcDbEntity
  8
0
  6
Continuous
 62
     1
100
AcDbLine
 10
66.90914438500001
 20
105.6646710729997
 30
0.0
 11
67.16211995800001
 21
107.8149634479999
 31
0.0
  0
LINE
  5
51B
330
373
100
AcDbEntity
  8
0
  6
Continuous
 62
     1
100
AcDbLine
 10
63.739598311
 20
104.527734875
 30
0.0
 11
62.30607006199999
 21
102.8470465829997
 31
0.0
  0
LINE
  5
51C
330
373
100
AcDbEntity
  8
0
  6
Continuous
 62
     1
100
AcDbLine
 10
66.532506798
 20
104.156994811
 30
0.0
 11
65.14841055699999
 21
102.5257385269999
 31
0.0
  0
LINE
  5
51D
330
373
100
AcDbEntity
  8
0
  6
Continuous
 62
     1
100
AcDbLine
 10
67.026826884
 20
103.786254746
 30
0.0
 11
66.03818671199999
 21
102.575170535
 31
0.0
  0
LINE
  5
51E
330
373
100
AcDbEntity
  8
0
  6
Continuous
 62
     1
100
AcDbLine
 10
68.979391224
 20
108.951899646
 30
0.0
 11
67.100974897
 21
107.122915327
 31
0.0
  0
LINE
  5
51F
330
373
100
AcDbEntity
  8
0
  6
Continuous
 62
     1
100
AcDbLine
 10
67.74359100899999
 20
110.4595759079998
 30
0.0
 11
66.08761871999999
 21
108.6305915899999
 31
0.0
  0
LINE
  5
520
330
373
100
AcDbEntity
  8
0
  6
Continuous
 62
     1
100
AcDbLine
 10
66.26063075000001
 20
102.565809986
 30
0.0
 11
62.536142163
 21
102.5568656779997
 31
0.0
  0
LINE
  5
521
330
373
100
AcDbEntity
  8
0
  6
Continuous
 62
     1
100
AcDbLine
 10
66.11233472399999
 20
98.991349911
 30
0.0
 11
67.52114697
 21
97.36009362700002
 31
0.0
  0
LINE
  5
522
330
373
100
AcDbEntity
  8
0
  6
Continuous
 62
     1
100
AcDbLine
 10
65.173126561
 20
98.24986978200001
 30
0.0
 11
66.58193880600001
 21
96.84105753700002
 31
0.0
  0
LINE
  5
523
330
373
100
AcDbEntity
  8
0
  6
Continuous
 62
     1
100
AcDbLine
 10
66.58193880600001
 20
96.84105753700002
 30
0.0
 11
66.26063075000001
 21
96.396169459
 31
0.0
  0
LINE
  5
524
330
373
100
AcDbEntity
  8
0
  6
Continuous
 62
     1
100
AcDbLine
 10
66.07435143100001
 20
98.991349911
 30
0.0
 11
66.318765251
 21
101.1910742939999
 31
0.0
  0
LINE
  5
525
330
373
100
AcDbEntity
  8
0
  6
Continuous
 62
     1
100
AcDbLine
 10
66.43364277999999
 20
98.77312353100002
 30
0.0
 11
68.189467742
 21
100.528948492
 31
0.0
  0
LINE
  5
526
330
373
100
AcDbEntity
  8
0
  6
Continuous
 62
     1
100
AcDbLine
 10
68.087542728
 20
99.577648362
 30
0.0
 11
66.804382845
 21
98.294488479
 31
0.0
  0
LINE
  5
527
330
373
100
AcDbEntity
  8
0
  6
Continuous
 62
     1
100
AcDbLine
 10
67.24927092199999
 20
97.89000144
 30
0.0
 11
67.985617714
 21
98.62634823100002
 31
0.0
  0
LINE
  5
528
330
373
100
AcDbEntity
  8
0
  6
Continuous
 62
     1
100
AcDbLine
 10
67.8836927
 20
97.675048101
 30
0.0
 11
67.595294983
 21
97.386650384
 31
0.0
  0
LINE
  5
529
330
373
100
AcDbEntity
  8
0
  6
Continuous
 62
     1
100
AcDbLine
 10
68.43270769600001
 20
102.7991880639999
 30
0.0
 11
67.889669728
 21
97.73083369200001
 31
0.0
  0
LINE
  5
52A
330
373
100
AcDbEntity
  8
0
  6
Continuous
 62
     1
100
AcDbLine
 10
62.311284512
 20
98.35843504499999
 30
0.0
 11
65.09897854800001
 21
98.330392873
 31
0.0
  0
LINE
  5
52B
330
373
100
AcDbEntity
  8
0
  6
Continuous
 62
     1
100
AcDbLine
 10
64.205533597
 20
96.416114022
 30
0.0
 11
65.567347626
 21
97.928561726
 31
0.0
  0
LINE
  5
52C
330
373
100
AcDbEntity
  8
0
  6
Continuous
 62
     1
100
AcDbLine
 10
65.95269975499999
 20
97.458957644
 30
0.0
 11
65.006464779
 21
96.40805723799999
 31
0.0
  0
LINE
  5
52D
330
373
100
AcDbEntity
  8
0
  6
Continuous
 62
     1
100
AcDbLine
 10
65.80739596099997
 20
96.40000045299995
 30
0.0
 11
66.360306274
 21
97.01406956700001
 31
0.0
  0
LINE
  5
52E
330
373
100
AcDbEntity
  8
0
  6
Continuous
 62
     1
100
AcDbLine
 10
80.68690263
 20
102.9993876989999
 30
0.0
 11
81.08730190000001
 21
102.7991880639999
 31
0.0
  0
LINE
  5
52F
330
373
100
AcDbEntity
  8
0
  6
Continuous
 62
     1
100
AcDbLine
 10
79.614265921
 20
106.0941533989998
 30
0.0
 11
81.73954191099999
 21
108.2194293889999
 31
0.0
  0
LINE
  5
530
330
373
100
AcDbEntity
  8
0
  6
Continuous
 62
     1
100
AcDbLine
 10
80.739884745
 20
102.972896641
 30
0.0
 11
78.97527158699999
 21
101.2082834829999
 31
0.0
  0
LINE
  5
531
330
373
100
AcDbEntity
  8
0
  6
Continuous
 62
     1
100
AcDbLine
 10
78.869099698
 20
100.252736477
 30
0.0
 11
81.047911974
 21
102.4315487529999
 31
0.0
  0
LINE
  5
532
330
373
100
AcDbEntity
  8
0
  6
Continuous
 62
     1
100
AcDbLine
 10
80.94598696
 20
101.480248623
 30
0.0
 11
78.762927808
 21
99.29718947100001
 31
0.0
  0
LINE
  5
533
330
373
100
AcDbEntity
  8
0
  6
Continuous
 62
     1
100
AcDbLine
 10
73.27951613999998
 20
104.022630277
 30
0.0
 11
73.479715775
 21
103.822430642
 31
0.0
  0
LINE
  5
534
330
373
100
AcDbEntity
  8
0
  6
Continuous
 62
     1
100
AcDbLine
 10
75.842464355
 20
107.889822782
 30
0.0
 11
73.49689018800001
 21
105.544248615
 31
0.0
  0
LINE
  5
535
330
373
100
AcDbEntity
  8
0
  6
Continuous
 62
     1
100
AcDbLine
 10
73.35532766899999
 20
104.55331098
 30
0.0
 11
75.72921433899998
 21
106.92719765
 31
0.0
  0
LINE
  5
536
330
373
100
AcDbEntity
  8
0
  6
Continuous
 62
     1
100
AcDbLine
 10
75.61596432399999
 20
105.9645725179997
 30
0.0
 11
73.47676911100001
 21
103.825377306
 31
0.0
  0
LINE
  5
537
330
373
100
AcDbEntity
  8
0
  6
Continuous
 62
     1
100
AcDbLine
 10
75.593850637
 20
110.5853093239998
 30
0.0
 11
80.20260944499998
 21
110.6263697609999
 31
0.0
  0
LINE
  5
538
330
373
100
AcDbEntity
  8
0
  6
Continuous
 62
     1
100
AcDbLine
 10
78.18345102499998
 20
110.6083806389999
 30
0.0
 11
76.38061321000002
 21
108.606126399
 31
0.0
  0
LINE
  5
539
330
373
100
AcDbEntity
  8
0
  6
Continuous
 62
     1
100
AcDbLine
 10
77.18652122399999
 20
108.603596946
 30
0.0
 11
78.998172177
 21
110.615639167
 31
0.0
  0
LINE
  5
53A
330
373
100
AcDbEntity
  8
0
  6
Continuous
 62
     1
100
AcDbLine
 10
79.812893328
 20
110.6228976949999
 30
0.0
 11
77.99242923699998
 21
108.601067492
 31
0.0
  0
LINE
  5
53B
330
373
100
AcDbEntity
  8
0
  6
Continuous
 62
     1
100
AcDbLine
 10
77.379126559
 20
104.576651081
 30
0.0
 11
75.561304897
 21
102.5577555929997
 31
0.0
  0
LINE
  5
53C
330
373
100
AcDbEntity
  8
0
  6
Continuous
 62
     1
100
AcDbLine
 10
76.37124177300001
 20
102.559700645
 30
0.0
 11
78.187149725
 21
104.5764707429998
 31
0.0
  0
LINE
  5
53D
330
373
100
AcDbEntity
  8
0
  6
Continuous
 62
     1
100
AcDbLine
 10
78.99517289100001
 20
104.576290405
 30
0.0
 11
77.181178649
 21
102.5616456979998
 31
0.0
  0
LINE
  5
53E
330
373
100
AcDbEntity
  8
0
  6
Continuous
 62
     1
100
AcDbLine
 10
73.06092478700001
 20
96.454331238
 30
0.0
 11
73.039969508
 21
96.854181774
 31
0.0
  0
LINE
  5
53F
330
373
100
AcDbEntity
  8
0
  6
Continuous
 62
     1
100
AcDbLine
 10
73.039969508
 20
96.854181774
 30
0.0
 11
74.965878715
 21
98.35843504499999
 31
0.0
  0
LINE
  5
540
330
373
100
AcDbEntity
  8
0
  6
Continuous
 62
     1
100
AcDbLine
 10
73.62524577000002
 20
97.311318449
 30
0.0
 11
73.049521849
 21
96.67191225700001
 31
0.0
  0
LINE
  5
541
330
373
100
AcDbEntity
  8
0
  6
Continuous
 62
     1
100
AcDbLine
 10
73.656403072
 20
96.44834116
 30
0.0
 11
75.37257571000002
 21
98.354343969
 31
0.0
  0
LINE
  5
542
330
373
100
AcDbEntity
  8
0
  6
Continuous
 62
     1
100
AcDbLine
 10
76.17350689199999
 20
98.34628718499999
 30
0.0
 11
74.457334254
 21
96.44028437500001
 31
0.0
  0
LINE
  5
543
330
373
100
AcDbEntity
  8
0
  6
Continuous
 62
     1
100
AcDbLine
 10
75.258265436
 20
96.432227591
 30
0.0
 11
76.97443807499998
 21
98.338230401
 31
0.0
  0
LINE
  5
544
330
373
100
AcDbEntity
  8
0
  6
Continuous
 62
     1
100
AcDbLine
 10
77.77536925699999
 20
98.33017361600001
 30
0.0
 11
76.059196618
 21
96.42417080700001
 31
0.0
  0
LINE
  5
545
330
373
100
AcDbEntity
  8
0
  6
Continuous
 62
     1
100
AcDbLine
 10
73.94730808899999
 20
108.902467637
 30
0.0
 11
74.392196166
 21
109.347355715
 31
0.0
  0
LINE
  5
546
330
373
100
AcDbEntity
  8
0
  6
Continuous
 62
     1
100
AcDbLine
 10
74.392196166
 20
109.347355715
 30
0.0
 11
75.726860399
 21
107.8149634479999
 31
0.0
  0
LINE
  5
547
330
373
100
AcDbEntity
  8
0
  6
Continuous
 62
     1
100
AcDbLine
 10
75.207824308
 20
110.311279882
 30
0.0
 11
76.66606856199999
 21
108.531727573
 31
0.0
  0
LINE
  5
548
330
373
100
AcDbEntity
  8
0
  6
Continuous
 62
     1
100
AcDbLine
 10
79.805001109
 20
107.765531439
 30
0.0
 11
81.31267737199998
 21
109.1990596889998
 31
0.0
  0
LINE
  5
549
330
373
100
AcDbEntity
  8
0
  6
Continuous
 62
     1
100
AcDbLine
 10
81.31267737199998
 20
109.1990596889998
 30
0.0
 11
81.78228145299998
 21
108.951899646
 31
0.0
  0
LINE
  5
54A
330
373
100
AcDbEntity
  8
0
  6
Continuous
 62
     1
100
AcDbLine
 10
78.91522495399998
 20
108.581159581
 30
0.0
 11
80.768925277
 21
110.2371318699999
 31
0.0
  0
LINE
  5
54B
330
373
100
AcDbEntity
  8
0
  6
Continuous
 62
     1
100
AcDbLine
 10
74.36748016199999
 20
103.193070643
 30
0.0
 11
75.899872429
 21
104.6018828879998
 31
0.0
  0
LINE
  5
54C
330
373
100
AcDbEntity
  8
0
  6
Continuous
 62
     1
100
AcDbLine
 10
79.60727307499998
 20
105.6646710729997
 30
0.0
 11
80.966653311
 21
104.0828467979998
 31
0.0
  0
LINE
  5
54D
330
373
100
AcDbEntity
  8
0
  6
Continuous
 62
     1
100
AcDbLine
 10
78.98937296699999
 20
104.55245088
 30
0.0
 11
80.05216115199997
 21
103.5143786989999
 31
0.0
  0
LINE
  5
54E
330
373
100
AcDbEntity
  8
0
  6
Continuous
 62
     1
100
AcDbLine
 10
80.05216115199997
 20
103.5143786989999
 30
0.0
 11
78.93994095799998
 21
102.575170535
 31
0.0
  0
LINE
  5
54F
330
373
100
AcDbEntity
  8
0
  6
Continuous
 62
     1
100
AcDbLine
 10
73.98369747799998
 20
108.951899646
 30
0.0
 11
73.27951613999998
 21
104.022630277
 31
0.0
  0
LINE
  5
550
330
373
100
AcDbEntity
  8
0
  6
Continuous
 62
     1
100
AcDbLine
 10
75.207824308
 20
110.2628856639998
 30
0.0
 11
75.593850637
 21
110.5853093239998
 31
0.0
  0
LINE
  5
551
330
373
100
AcDbEntity
  8
0
  6
Continuous
 62
     1
100
AcDbLine
 10
75.357857331
 20
110.162983857
 30
0.0
 11
75.739287571
 21
110.5866050539999
 31
0.0
  0
LINE
  5
552
330
373
100
AcDbEntity
  8
0
  6
Continuous
 62
     1
100
AcDbLine
 10
76.55400872199999
 20
110.593863582
 30
0.0
 11
75.72095507
 21
109.6686637709999
 31
0.0
  0
LINE
  5
553
330
373
100
AcDbEntity
  8
0
  6
Continuous
 62
     1
100
AcDbLine
 10
76.106307199
 20
109.1990596889998
 30
0.0
 11
77.36872987399998
 21
110.60112211
 31
0.0
  0
LINE
  5
554
330
373
100
AcDbEntity
  8
0
  6
Continuous
 62
     1
100
AcDbLine
 10
74.93594826099998
 20
108.6820569209999
 30
0.0
 11
73.78001522699999
 21
107.526123887
 31
0.0
  0
LINE
  5
555
330
373
100
AcDbEntity
  8
0
  6
Continuous
 62
     1
100
AcDbLine
 10
73.638452708
 20
106.535186251
 30
0.0
 11
75.33140432999998
 21
108.228137873
 31
0.0
  0
LINE
  5
556
330
373
100
AcDbEntity
  8
0
  6
Continuous
 62
     1
100
AcDbLine
 10
75.19073636699999
 20
102.5568656779997
 30
0.0
 11
74.31804815300001
 21
103.209852225
 31
0.0
  0
LINE
  5
557
330
373
100
AcDbEntity
  8
0
  6
Continuous
 62
     1
100
AcDbLine
 10
75.82572441599999
 20
104.576997775
 30
0.0
 11
78.93994095799998
 21
104.576302732
 31
0.0
  0
LINE
  5
558
330
373
100
AcDbEntity
  8
0
  6
Continuous
 62
     1
100
AcDbLine
 10
81.63761689700001
 20
107.268129259
 30
0.0
 11
79.829717113
 21
105.460229475
 31
0.0
  0
LINE
  5
559
330
373
100
AcDbEntity
  8
0
  6
Continuous
 62
     1
100
AcDbLine
 10
80.29932119500001
 20
105.08045844
 30
0.0
 11
81.535691883
 21
106.316829128
 31
0.0
  0
LINE
  5
55A
330
373
100
AcDbEntity
  8
0
  6
Continuous
 62
     1
100
AcDbLine
 10
81.43376686899998
 20
105.3655289979999
 30
0.0
 11
80.64534525499999
 21
104.577107384
 31
0.0
  0
LINE
  5
55B
330
373
100
AcDbEntity
  8
0
  6
Continuous
 62
     1
100
AcDbLine
 10
81.81007643699999
 20
108.8777516329999
 30
0.0
 11
81.330762497
 21
104.404154854
 31
0.0
  0
LINE
  5
55C
330
373
100
AcDbEntity
  8
0
  6
Continuous
 62
     1
100
AcDbLine
 10
80.20260944499998
 20
110.6263697609999
 30
0.0
 11
80.62062925099999
 21
110.345790787
 31
0.0
  0
LINE
  5
55D
330
373
100
AcDbEntity
  8
0
  6
Continuous
 62
     1
100
AcDbLine
 10
78.98937296699999
 20
108.597938447
 30
0.0
 11
76.59192054899998
 21
108.605463182
 31
0.0
  0
LINE
  5
55E
330
373
100
AcDbEntity
  8
0
  6
Continuous
 62
     1
100
AcDbLine
 10
80.966653311
 20
104.0490403229999
 30
0.0
 11
81.33184185499997
 21
104.414228868
 31
0.0
  0
LINE
  5
55F
330
373
100
AcDbEntity
  8
0
  6
Continuous
 62
     1
100
AcDbLine
 10
75.603943923
 20
105.8623991079998
 30
0.0
 11
75.81911854800001
 21
107.6913834259999
 31
0.0
  0
LINE
  5
560
330
373
100
AcDbEntity
  8
0
  6
Continuous
 62
     1
100
AcDbLine
 10
79.56373858899998
 20
105.6646710729997
 30
0.0
 11
79.81671416199998
 21
107.8149634479999
 31
0.0
  0
LINE
  5
561
330
373
100
AcDbEntity
  8
0
  6
Continuous
 62
     1
100
AcDbLine
 10
76.394192515
 20
104.527734875
 30
0.0
 11
74.960664265
 21
102.8470465829997
 31
0.0
  0
LINE
  5
562
330
373
100
AcDbEntity
  8
0
  6
Continuous
 62
     1
100
AcDbLine
 10
79.187101001
 20
104.156994811
 30
0.0
 11
77.80300475999998
 21
102.5257385269999
 31
0.0
  0
LINE
  5
563
330
373
100
AcDbEntity
  8
0
  6
Continuous
 62
     1
100
AcDbLine
 10
79.681421087
 20
103.786254746
 30
0.0
 11
78.692780915
 21
102.575170535
 31
0.0
  0
LINE
  5
564
330
373
100
AcDbEntity
  8
0
  6
Continuous
 62
     1
100
AcDbLine
 10
81.63398542699999
 20
108.951899646
 30
0.0
 11
79.7555691
 21
107.122915327
 31
0.0
  0
LINE
  5
565
330
373
100
AcDbEntity
  8
0
  6
Continuous
 62
     1
100
AcDbLine
 10
80.398185212
 20
110.4595759079998
 30
0.0
 11
78.742212924
 21
108.6305915899999
 31
0.0
  0
LINE
  5
566
330
373
100
AcDbEntity
  8
0
  6
Continuous
 62
     1
100
AcDbLine
 10
78.91522495399998
 20
102.565809986
 30
0.0
 11
75.19073636699999
 21
102.5568656779997
 31
0.0
  0
LINE
  5
567
330
373
100
AcDbEntity
  8
0
  6
Continuous
 62
     1
100
AcDbLine
 10
78.766928928
 20
98.991349911
 30
0.0
 11
80.17574117399998
 21
97.36009362700002
 31
0.0
  0
LINE
  5
568
330
373
100
AcDbEntity
  8
0
  6
Continuous
 62
     1
100
AcDbLine
 10
77.82772076499998
 20
98.24986978200001
 30
0.0
 11
79.23653301
 21
96.84105753700002
 31
0.0
  0
LINE
  5
569
330
373
100
AcDbEntity
  8
0
  6
Continuous
 62
     1
100
AcDbLine
 10
79.23653301
 20
96.84105753700002
 30
0.0
 11
78.91522495399998
 21
96.396169459
 31
0.0
  0
LINE
  5
56A
330
373
100
AcDbEntity
  8
0
  6
Continuous
 62
     1
100
AcDbLine
 10
78.728945635
 20
98.991349911
 30
0.0
 11
78.97335945499998
 21
101.1910742939999
 31
0.0
  0
LINE
  5
56B
330
373
100
AcDbEntity
  8
0
  6
Continuous
 62
     1
100
AcDbLine
 10
79.08823698399999
 20
98.77312353100002
 30
0.0
 11
80.84406194600001
 21
100.528948492
 31
0.0
  0
LINE
  5
56C
330
373
100
AcDbEntity
  8
0
  6
Continuous
 62
     1
100
AcDbLine
 10
80.74213693199999
 20
99.577648362
 30
0.0
 11
79.458977049
 21
98.294488479
 31
0.0
  0
LINE
  5
56D
330
373
100
AcDbEntity
  8
0
  6
Continuous
 62
     1
100
AcDbLine
 10
79.903865126
 20
97.89000144
 30
0.0
 11
80.640211918
 21
98.62634823100002
 31
0.0
  0
LINE
  5
56E
330
373
100
AcDbEntity
  8
0
  6
Continuous
 62
     1
100
AcDbLine
 10
80.53828690400001
 20
97.675048101
 30
0.0
 11
80.249889186
 21
97.386650384
 31
0.0
  0
LINE
  5
56F
330
373
100
AcDbEntity
  8
0
  6
Continuous
 62
     1
100
AcDbLine
 10
81.08730190000001
 20
102.7991880639999
 30
0.0
 11
80.54426393099999
 21
97.73083369200001
 31
0.0
  0
LINE
  5
570
330
373
100
AcDbEntity
  8
0
  6
Continuous
 62
     1
100
AcDbLine
 10
74.965878715
 20
98.35843504499999
 30
0.0
 11
77.75357275199998
 21
98.330392873
 31
0.0
  0
LINE
  5
571
330
373
100
AcDbEntity
  8
0
  6
Continuous
 62
     1
100
AcDbLine
 10
76.860127801
 20
96.416114022
 30
0.0
 11
78.22194183
 21
97.928561726
 31
0.0
  0
LINE
  5
572
330
373
100
AcDbEntity
  8
0
  6
Continuous
 62
     1
100
AcDbLine
 10
78.607293959
 20
97.458957644
 30
0.0
 11
77.66105898300001
 21
96.40805723799999
 31
0.0
  0
LINE
  5
573
330
373
100
AcDbEntity
  8
0
  6
Continuous
 62
     1
100
AcDbLine
 10
78.461990165
 20
96.40000045299995
 30
0.0
 11
79.014900478
 21
97.01406956700001
 31
0.0
  0
LINE
  5
574
330
373
100
AcDbEntity
  8
0
  6
Continuous
 62
     1
100
AcDbLine
 10
78.89050894999998
 20
96.395689867
 30
0.0
 11
73.06092478700001
 21
96.454331238
 31
0.0
  0
LINE
  5
575
330
373
100
AcDbEntity
  8
0
  6
Continuous
 62
     1
100
AcDbLine
 10
60.624921936
 20
104.022630277
 30
0.0
 11
60.825121571
 21
103.822430642
 31
0.0
  0
LINE
  5
576
330
373
100
AcDbEntity
  8
0
  6
Continuous
 62
     1
100
AcDbLine
 10
63.187870151
 20
107.889822782
 30
0.0
 11
60.842295985
 21
105.544248615
 31
0.0
  0
LINE
  5
577
330
373
100
AcDbEntity
  8
0
  6
Continuous
 62
     1
100
AcDbLine
 10
60.700733465
 20
104.55331098
 30
0.0
 11
63.074620135
 21
106.92719765
 31
0.0
  0
LINE
  5
578
330
373
100
AcDbEntity
  8
0
  6
Continuous
 62
     1
100
AcDbLine
 10
62.96137011999999
 20
105.9645725179997
 30
0.0
 11
60.822174908
 21
103.825377306
 31
0.0
  0
LINE
  5
579
330
373
100
AcDbEntity
  8
0
  6
Continuous
 62
     1
100
AcDbLine
 10
60.406330583
 20
96.454331238
 30
0.0
 11
60.385375305
 21
96.854181774
 31
0.0
  0
LINE
  5
57A
330
373
100
AcDbEntity
  8
0
  6
Continuous
 62
     1
100
AcDbLine
 10
60.385375305
 20
96.854181774
 30
0.0
 11
62.311284512
 21
98.35843504499999
 31
0.0
  0
LINE
  5
57B
330
373
100
AcDbEntity
  8
0
  6
Continuous
 62
     1
100
AcDbLine
 10
60.970651566
 20
97.311318449
 30
0.0
 11
60.394927645
 21
96.67191225700001
 31
0.0
  0
LINE
  5
57C
330
373
100
AcDbEntity
  8
0
  6
Continuous
 62
     1
100
AcDbLine
 10
61.001808868
 20
96.44834116
 30
0.0
 11
62.717981507
 21
98.354343969
 31
0.0
  0
LINE
  5
57D
330
373
100
AcDbEntity
  8
0
  6
Continuous
 62
     1
100
AcDbLine
 10
63.518912689
 20
98.34628718499999
 30
0.0
 11
61.80274005
 21
96.44028437500001
 31
0.0
  0
LINE
  5
57E
330
373
100
AcDbEntity
  8
0
  6
Continuous
 62
     1
100
AcDbLine
 10
61.292713885
 20
108.902467637
 30
0.0
 11
61.737601963
 21
109.347355715
 31
0.0
  0
LINE
  5
57F
330
373
100
AcDbEntity
  8
0
  6
Continuous
 62
     1
100
AcDbLine
 10
61.737601963
 20
109.347355715
 30
0.0
 11
63.07226619499999
 21
107.8149634479999
 31
0.0
  0
LINE
  5
580
330
373
100
AcDbEntity
  8
0
  6
Continuous
 62
     1
100
AcDbLine
 10
61.712885958
 20
103.193070643
 30
0.0
 11
63.245278225
 21
104.6018828879998
 31
0.0
  0
LINE
  5
581
330
373
100
AcDbEntity
  8
0
  6
Continuous
 62
     1
100
AcDbLine
 10
61.329103275
 20
108.951899646
 30
0.0
 11
60.624921936
 21
104.022630277
 31
0.0
  0
LINE
  5
582
330
373
100
AcDbEntity
  8
0
  6
Continuous
 62
     1
100
AcDbLine
 10
62.281354057
 20
108.6820569209999
 30
0.0
 11
61.125421023
 21
107.526123887
 31
0.0
  0
LINE
  5
583
330
373
100
AcDbEntity
  8
0
  6
Continuous
 62
     1
100
AcDbLine
 10
60.98385850399999
 20
106.535186251
 30
0.0
 11
62.676810126
 21
108.228137873
 31
0.0
  0
LINE
  5
584
330
373
100
AcDbEntity
  8
0
  6
Continuous
 62
     1
100
AcDbLine
 10
62.536142163
 20
102.5568656779997
 30
0.0
 11
61.66345395
 21
103.209852225
 31
0.0
  0
LINE
  5
585
330
373
100
AcDbEntity
  8
0
  6
Continuous
 62
     1
100
AcDbLine
 10
66.23591474600001
 20
96.395689867
 30
0.0
 11
60.406330583
 21
96.454331238
 31
0.0
  0
LINE
  5
586
330
373
100
AcDbEntity
  8
0
  6
Continuous
 62
     1
100
AcDbLine
 10
90.0
 20
91.5
 30
0.0
 11
132.0
 21
91.5
 31
0.0
  0
LINE
  5
587
330
373
100
AcDbEntity
  8
0
  6
Continuous
 62
     1
100
AcDbLine
 10
93.539224868
 20
102.9993876989999
 30
0.0
 11
93.93962413800002
 21
102.7991880639999
 31
0.0
  0
LINE
  5
588
330
373
100
AcDbEntity
  8
0
  6
Continuous
 62
     1
100
AcDbLine
 10
92.466588159
 20
106.0941533989998
 30
0.0
 11
94.59186415000001
 21
108.2194293889999
 31
0.0
  0
LINE
  5
589
330
373
100
AcDbEntity
  8
0
  6
Continuous
 62
     1
100
AcDbLine
 10
93.59220698299999
 20
102.972896641
 30
0.0
 11
91.827593825
 21
101.2082834829999
 31
0.0
  0
LINE
  5
58A
330
373
100
AcDbEntity
  8
0
  6
Continuous
 62
     1
100
AcDbLine
 10
91.72142193600002
 20
100.252736477
 30
0.0
 11
93.900234212
 21
102.4315487529999
 31
0.0
  0
LINE
  5
58B
330
373
100
AcDbEntity
  8
0
  6
Continuous
 62
     1
100
AcDbLine
 10
93.79830919799999
 20
101.480248623
 30
0.0
 11
91.61525004599999
 21
99.29718947100001
 31
0.0
  0
LINE
  5
58C
330
373
100
AcDbEntity
  8
0
  6
Continuous
 62
     1
100
AcDbLine
 10
86.13183837799999
 20
104.022630277
 30
0.0
 11
86.33203801299996
 21
103.822430642
 31
0.0
  0
LINE
  5
58D
330
373
100
AcDbEntity
  8
0
  6
Continuous
 62
     1
100
AcDbLine
 10
88.69478659299998
 20
107.889822782
 30
0.0
 11
86.349212427
 21
105.544248615
 31
0.0
  0
LINE
  5
58E
330
373
100
AcDbEntity
  8
0
  6
Continuous
 62
     1
100
AcDbLine
 10
86.20764990700001
 20
104.55331098
 30
0.0
 11
88.58153657699999
 21
106.92719765
 31
0.0
  0
LINE
  5
58F
330
373
100
AcDbEntity
  8
0
  6
Continuous
 62
     1
100
AcDbLine
 10
88.46828656200001
 20
105.9645725179997
 30
0.0
 11
86.32909135
 21
103.825377306
 31
0.0
  0
LINE
  5
590
330
373
100
AcDbEntity
  8
0
  6
Continuous
 62
     1
100
AcDbLine
 10
88.446172875
 20
110.5853093239998
 30
0.0
 11
93.05493168399999
 21
110.6263697609999
 31
0.0
  0
LINE
  5
591
330
373
100
AcDbEntity
  8
0
  6
Continuous
 62
     1
100
AcDbLine
 10
91.03577326299999
 20
110.6083806389999
 30
0.0
 11
89.23293544899998
 21
108.606126399
 31
0.0
  0
LINE
  5
592
330
373
100
AcDbEntity
  8
0
  6
Continuous
 62
     1
100
AcDbLine
 10
90.03884346200001
 20
108.603596946
 30
0.0
 11
91.850494415
 21
110.615639167
 31
0.0
  0
LINE
  5
593
330
373
100
AcDbEntity
  8
0
  6
Continuous
 62
     1
100
AcDbLine
 10
92.665215567
 20
110.6228976949999
 30
0.0
 11
90.84475147499999
 21
108.601067492
 31
0.0
  0
LINE
  5
594
330
373
100
AcDbEntity
  8
0
  6
Continuous
 62
     1
100
AcDbLine
 10
90.23144879700002
 20
104.576651081
 30
0.0
 11
88.413627135
 21
102.5577555929997
 31
0.0
  0
LINE
  5
595
330
373
100
AcDbEntity
  8
0
  6
Continuous
 62
     1
100
AcDbLine
 10
89.22356401100001
 20
102.559700645
 30
0.0
 11
91.039471963
 21
104.5764707429998
 31
0.0
  0
LINE
  5
596
330
373
100
AcDbEntity
  8
0
  6
Continuous
 62
     1
100
AcDbLine
 10
91.84749512999998
 20
104.576290405
 30
0.0
 11
90.03350088799999
 21
102.5616456979998
 31
0.0
  0
LINE
  5
597
330
373
100
AcDbEntity
  8
0
  6
Continuous
 62
     1
100
AcDbLine
 10
85.91324702500001
 20
96.454331238
 30
0.0
 11
85.89229174699999
 21
96.854181774
 31
0.0
  0
LINE
  5
598
330
373
100
AcDbEntity
  8
0
  6
Continuous
 62
     1
100
AcDbLine
 10
85.89229174699999
 20
96.854181774
 30
0.0
 11
87.81820095299996
 21
98.35843504499999
 31
0.0
  0
LINE
  5
599
330
373
100
AcDbEntity
  8
0
  6
Continuous
 62
     1
100
AcDbLine
 10
86.47756800799999
 20
97.311318449
 30
0.0
 11
85.901844087
 21
96.67191225700001
 31
0.0
  0
LINE
  5
59A
330
373
100
AcDbEntity
  8
0
  6
Continuous
 62
     1
100
AcDbLine
 10
86.50872531
 20
96.44834116
 30
0.0
 11
88.22489794799999
 21
98.354343969
 31
0.0
  0
LINE
  5
59B
330
373
100
AcDbEntity
  8
0
  6
Continuous
 62
     1
100
AcDbLine
 10
89.02582913100003
 20
98.34628718499999
 30
0.0
 11
87.30965649199999
 21
96.44028437500001
 31
0.0
  0
LINE
  5
59C
330
373
100
AcDbEntity
  8
0
  6
Continuous
 62
     1
100
AcDbLine
 10
88.110587675
 20
96.432227591
 30
0.0
 11
89.826760313
 21
98.338230401
 31
0.0
  0
LINE
  5
59D
330
373
100
AcDbEntity
  8
0
  6
Continuous
 62
     1
100
AcDbLine
 10
90.62769149499999
 20
98.33017361600001
 30
0.0
 11
88.91151885700001
 21
96.42417080700001
 31
0.0
  0
LINE
  5
59E
330
373
100
AcDbEntity
  8
0
  6
Continuous
 62
     1
100
AcDbLine
 10
86.79963032699999
 20
108.902467637
 30
0.0
 11
87.24451840499998
 21
109.347355715
 31
0.0
  0
LINE
  5
59F
330
373
100
AcDbEntity
  8
0
  6
Continuous
 62
     1
100
AcDbLine
 10
87.24451840499998
 20
109.347355715
 30
0.0
 11
88.579182637
 21
107.8149634479999
 31
0.0
  0
LINE
  5
5A0
330
373
100
AcDbEntity
  8
0
  6
Continuous
 62
     1
100
AcDbLine
 10
88.060146547
 20
110.311279882
 30
0.0
 11
89.51839080099999
 21
108.531727573
 31
0.0
  0
LINE
  5
5A1
330
373
100
AcDbEntity
  8
0
  6
Continuous
 62
     1
100
AcDbLine
 10
92.657323347
 20
107.765531439
 30
0.0
 11
94.16499960999999
 21
109.1990596889998
 31
0.0
  0
LINE
  5
5A2
330
373
100
AcDbEntity
  8
0
  6
Continuous
 62
     1
100
AcDbLine
 10
94.16499960999999
 20
109.1990596889998
 30
0.0
 11
94.63460369100003
 21
108.951899646
 31
0.0
  0
LINE
  5
5A3
330
373
100
AcDbEntity
  8
0
  6
Continuous
 62
     1
100
AcDbLine
 10
91.76754719200001
 20
108.581159581
 30
0.0
 11
93.62124751499999
 21
110.2371318699999
 31
0.0
  0
LINE
  5
5A4
330
373
100
AcDbEntity
  8
0
  6
Continuous
 62
     1
100
AcDbLine
 10
87.2198024
 20
103.193070643
 30
0.0
 11
88.752194667
 21
104.6018828879998
 31
0.0
  0
LINE
  5
5A5
330
373
100
AcDbEntity
  8
0
  6
Continuous
 62
     1
100
AcDbLine
 10
92.459595313
 20
105.6646710729997
 30
0.0
 11
93.818975549
 21
104.0828467979998
 31
0.0
  0
LINE
  5
5A6
330
373
100
AcDbEntity
  8
0
  6
Continuous
 62
     1
100
AcDbLine
 10
91.84169520499999
 20
104.55245088
 30
0.0
 11
92.90448338999999
 21
103.5143786989999
 31
0.0
  0
LINE
  5
5A7
330
373
100
AcDbEntity
  8
0
  6
Continuous
 62
     1
100
AcDbLine
 10
92.90448338999999
 20
103.5143786989999
 30
0.0
 11
91.79226319700001
 21
102.575170535
 31
0.0
  0
LINE
  5
5A8
330
373
100
AcDbEntity
  8
0
  6
Continuous
 62
     1
100
AcDbLine
 10
86.83601971700001
 20
108.951899646
 30
0.0
 11
86.13183837799999
 21
104.022630277
 31
0.0
  0
LINE
  5
5A9
330
373
100
AcDbEntity
  8
0
  6
Continuous
 62
     1
100
AcDbLine
 10
88.060146547
 20
110.2628856639998
 30
0.0
 11
88.446172875
 21
110.5853093239998
 31
0.0
  0
LINE
  5
5AA
330
373
100
AcDbEntity
  8
0
  6
Continuous
 62
     1
100
AcDbLine
 10
88.21017956999998
 20
110.162983857
 30
0.0
 11
88.59160980899998
 21
110.5866050539999
 31
0.0
  0
LINE
  5
5AB
330
373
100
AcDbEntity
  8
0
  6
Continuous
 62
     1
100
AcDbLine
 10
89.40633096
 20
110.593863582
 30
0.0
 11
88.57327730799999
 21
109.6686637709999
 31
0.0
  0
LINE
  5
5AC
330
373
100
AcDbEntity
  8
0
  6
Continuous
 62
     1
100
AcDbLine
 10
88.958629437
 20
109.1990596889998
 30
0.0
 11
90.22105211200001
 21
110.60112211
 31
0.0
  0
LINE
  5
5AD
330
373
100
AcDbEntity
  8
0
  6
Continuous
 62
     1
100
AcDbLine
 10
87.788270499
 20
108.6820569209999
 30
0.0
 11
86.63233746500003
 21
107.526123887
 31
0.0
  0
LINE
  5
5AE
330
373
100
AcDbEntity
  8
0
  6
Continuous
 62
     1
100
AcDbLine
 10
86.490774946
 20
106.535186251
 30
0.0
 11
88.18372656799999
 21
108.228137873
 31
0.0
  0
LINE
  5
5AF
330
373
100
AcDbEntity
  8
0
  6
Continuous
 62
     1
100
AcDbLine
 10
88.04305860499999
 20
102.5568656779997
 30
0.0
 11
87.17037039199999
 21
103.209852225
 31
0.0
  0
LINE
  5
5B0
330
373
100
AcDbEntity
  8
0
  6
Continuous
 62
     1
100
AcDbLine
 10
88.67804665399997
 20
104.576997775
 30
0.0
 11
91.79226319700001
 21
104.576302732
 31
0.0
  0
LINE
  5
5B1
330
373
100
AcDbEntity
  8
0
  6
Continuous
 62
     1
100
AcDbLine
 10
94.489939136
 20
107.268129259
 30
0.0
 11
92.682039351
 21
105.460229475
 31
0.0
  0
LINE
  5
5B2
330
373
100
AcDbEntity
  8
0
  6
Continuous
 62
     1
100
AcDbLine
 10
93.15164343299999
 20
105.08045844
 30
0.0
 11
94.388014122
 21
106.316829128
 31
0.0
  0
LINE
  5
5B3
330
373
100
AcDbEntity
  8
0
  6
Continuous
 62
     1
100
AcDbLine
 10
94.28608910799999
 20
105.3655289979999
 30
0.0
 11
93.497667494
 21
104.577107384
 31
0.0
  0
LINE
  5
5B4
330
373
100
AcDbEntity
  8
0
  6
Continuous
 62
     1
100
AcDbLine
 10
94.662398676
 20
108.8777516329999
 30
0.0
 11
94.18308473499999
 21
104.404154854
 31
0.0
  0
LINE
  5
5B5
330
373
100
AcDbEntity
  8
0
  6
Continuous
 62
     1
100
AcDbLine
 10
93.05493168399999
 20
110.6263697609999
 30
0.0
 11
93.472951489
 21
110.345790787
 31
0.0
  0
LINE
  5
5B6
330
373
100
AcDbEntity
  8
0
  6
Continuous
 62
     1
100
AcDbLine
 10
91.84169520499999
 20
108.597938447
 30
0.0
 11
89.44424278799999
 21
108.605463182
 31
0.0
  0
LINE
  5
5B7
330
373
100
AcDbEntity
  8
0
  6
Continuous
 62
     1
100
AcDbLine
 10
93.818975549
 20
104.0490403229999
 30
0.0
 11
94.184164094
 21
104.414228868
 31
0.0
  0
LINE
  5
5B8
330
373
100
AcDbEntity
  8
0
  6
Continuous
 62
     1
100
AcDbLine
 10
88.456266161
 20
105.8623991079998
 30
0.0
 11
88.671440786
 21
107.6913834259999
 31
0.0
  0
LINE
  5
5B9
330
373
100
AcDbEntity
  8
0
  6
Continuous
 62
     1
100
AcDbLine
 10
92.416060827
 20
105.6646710729997
 30
0.0
 11
92.6690364
 21
107.8149634479999
 31
0.0
  0
LINE
  5
5BA
330
373
100
AcDbEntity
  8
0
  6
Continuous
 62
     1
100
AcDbLine
 10
89.24651475299999
 20
104.527734875
 30
0.0
 11
87.81298650399998
 21
102.8470465829997
 31
0.0
  0
LINE
  5
5BB
330
373
100
AcDbEntity
  8
0
  6
Continuous
 62
     1
100
AcDbLine
 10
92.03942324000001
 20
104.156994811
 30
0.0
 11
90.655326999
 21
102.5257385269999
 31
0.0
  0
LINE
  5
5BC
330
373
100
AcDbEntity
  8
0
  6
Continuous
 62
     1
100
AcDbLine
 10
92.53374332600001
 20
103.786254746
 30
0.0
 11
91.54510315299999
 21
102.575170535
 31
0.0
  0
LINE
  5
5BD
330
373
100
AcDbEntity
  8
0
  6
Continuous
 62
     1
100
AcDbLine
 10
94.486307666
 20
108.951899646
 30
0.0
 11
92.60789133899999
 21
107.122915327
 31
0.0
  0
LINE
  5
5BE
330
373
100
AcDbEntity
  8
0
  6
Continuous
 62
     1
100
AcDbLine
 10
93.25050745
 20
110.4595759079998
 30
0.0
 11
91.59453516200001
 21
108.6305915899999
 31
0.0
  0
LINE
  5
5BF
330
373
100
AcDbEntity
  8
0
  6
Continuous
 62
     1
100
AcDbLine
 10
91.76754719200001
 20
102.565809986
 30
0.0
 11
88.04305860499999
 21
102.5568656779997
 31
0.0
  0
LINE
  5
5C0
330
373
100
AcDbEntity
  8
0
  6
Continuous
 62
     1
100
AcDbLine
 10
91.619251166
 20
98.991349911
 30
0.0
 11
93.02806341200001
 21
97.36009362700002
 31
0.0
  0
LINE
  5
5C1
330
373
100
AcDbEntity
  8
0
  6
Continuous
 62
     1
100
AcDbLine
 10
90.680043003
 20
98.24986978200001
 30
0.0
 11
92.08885524799999
 21
96.84105753700002
 31
0.0
  0
LINE
  5
5C2
330
373
100
AcDbEntity
  8
0
  6
Continuous
 62
     1
100
AcDbLine
 10
92.08885524799999
 20
96.84105753700002
 30
0.0
 11
91.76754719200001
 21
96.396169459
 31
0.0
  0
LINE
  5
5C3
330
373
100
AcDbEntity
  8
0
  6
Continuous
 62
     1
100
AcDbLine
 10
91.58126787299996
 20
98.991349911
 30
0.0
 11
91.82568169299999
 21
101.1910742939999
 31
0.0
  0
LINE
  5
5C4
330
373
100
AcDbEntity
  8
0
  6
Continuous
 62
     1
100
AcDbLine
 10
91.940559222
 20
98.77312353100002
 30
0.0
 11
93.69638418399999
 21
100.528948492
 31
0.0
  0
LINE
  5
5C5
330
373
100
AcDbEntity
  8
0
  6
Continuous
 62
     1
100
AcDbLine
 10
93.59445917
 20
99.577648362
 30
0.0
 11
92.31129928700001
 21
98.294488479
 31
0.0
  0
LINE
  5
5C6
330
373
100
AcDbEntity
  8
0
  6
Continuous
 62
     1
100
AcDbLine
 10
92.75618736400002
 20
97.89000144
 30
0.0
 11
93.49253415600001
 21
98.62634823100002
 31
0.0
  0
LINE
  5
5C7
330
373
100
AcDbEntity
  8
0
  6
Continuous
 62
     1
100
AcDbLine
 10
93.390609142
 20
97.675048101
 30
0.0
 11
93.10221142499999
 21
97.386650384
 31
0.0
  0
LINE
  5
5C8
330
373
100
AcDbEntity
  8
0
  6
Continuous
 62
     1
100
AcDbLine
 10
93.93962413800002
 20
102.7991880639999
 30
0.0
 11
93.39658616900001
 21
97.73083369200001
 31
0.0
  0
LINE
  5
5C9
330
373
100
AcDbEntity
  8
0
  6
Continuous
 62
     1
100
AcDbLine
 10
87.81820095299996
 20
98.35843504499999
 30
0.0
 11
90.60589499
 21
98.330392873
 31
0.0
  0
LINE
  5
5CA
330
373
100
AcDbEntity
  8
0
  6
Continuous
 62
     1
100
AcDbLine
 10
89.712450039
 20
96.416114022
 30
0.0
 11
91.074264068
 21
97.928561726
 31
0.0
  0
LINE
  5
5CB
330
373
100
AcDbEntity
  8
0
  6
Continuous
 62
     1
100
AcDbLine
 10
91.45961619700001
 20
97.458957644
 30
0.0
 11
90.513381221
 21
96.40805723799999
 31
0.0
  0
LINE
  5
5CC
330
373
100
AcDbEntity
  8
0
  6
Continuous
 62
     1
100
AcDbLine
 10
91.31431240299999
 20
96.40000045299995
 30
0.0
 11
91.867222716
 21
97.01406956700001
 31
0.0
  0
LINE
  5
5CD
330
373
100
AcDbEntity
  8
0
  6
Continuous
 62
     1
100
AcDbLine
 10
91.742831188
 20
96.395689867
 30
0.0
 11
85.91324702500001
 21
96.454331238
 31
0.0
  0
LINE
  5
5CE
330
373
100
AcDbEntity
  8
0
  6
Continuous
 62
     1
100
AcDbLine
 10
106.342115098
 20
102.9993876989999
 30
0.0
 11
106.742514367
 21
102.7991880639999
 31
0.0
  0
LINE
  5
5CF
330
373
100
AcDbEntity
  8
0
  6
Continuous
 62
     1
100
AcDbLine
 10
105.269478389
 20
106.0941533989998
 30
0.0
 11
107.3947543789999
 21
108.2194293889999
 31
0.0
  0
LINE
  5
5D0
330
373
100
AcDbEntity
  8
0
  6
Continuous
 62
     1
100
AcDbLine
 10
106.3950972129999
 20
102.972896641
 30
0.0
 11
104.6304840549999
 21
101.2082834829999
 31
0.0
  0
LINE
  5
5D1
330
373
100
AcDbEntity
  8
0
  6
Continuous
 62
     1
100
AcDbLine
 10
104.5243121649999
 20
100.252736477
 30
0.0
 11
106.703124441
 21
102.4315487529999
 31
0.0
  0
LINE
  5
5D2
330
373
100
AcDbEntity
  8
0
  6
Continuous
 62
     1
100
AcDbLine
 10
106.601199427
 20
101.480248623
 30
0.0
 11
104.418140276
 21
99.29718947100001
 31
0.0
  0
LINE
  5
5D3
330
373
100
AcDbEntity
  8
0
  6
Continuous
 62
     1
100
AcDbLine
 10
98.93472860799999
 20
104.022630277
 30
0.0
 11
99.134928243
 21
103.822430642
 31
0.0
  0
LINE
  5
5D4
330
373
100
AcDbEntity
  8
0
  6
Continuous
 62
     1
100
AcDbLine
 10
101.4976768229999
 20
107.889822782
 30
0.0
 11
99.152102656
 21
105.544248615
 31
0.0
  0
LINE
  5
5D5
330
373
100
AcDbEntity
  8
0
  6
Continuous
 62
     1
100
AcDbLine
 10
99.01054013700001
 20
104.55331098
 30
0.0
 11
101.384426807
 21
106.92719765
 31
0.0
  0
LINE
  5
5D6
330
373
100
AcDbEntity
  8
0
  6
Continuous
 62
     1
100
AcDbLine
 10
101.2711767909999
 20
105.9645725179997
 30
0.0
 11
99.131981579
 21
103.825377306
 31
0.0
  0
LINE
  5
5D7
330
373
100
AcDbEntity
  8
0
  6
Continuous
 62
     1
100
AcDbLine
 10
101.249063105
 20
110.5853093239998
 30
0.0
 11
105.8578219129999
 21
110.6263697609999
 31
0.0
  0
LINE
  5
5D8
330
373
100
AcDbEntity
  8
0
  6
Continuous
 62
     1
100
AcDbLine
 10
103.8386634929999
 20
110.6083806389999
 30
0.0
 11
102.035825678
 21
108.606126399
 31
0.0
  0
LINE
  5
5D9
330
373
100
AcDbEntity
  8
0
  6
Continuous
 62
     1
100
AcDbLine
 10
102.841733691
 20
108.603596946
 30
0.0
 11
104.653384645
 21
110.615639167
 31
0.0
  0
LINE
  5
5DA
330
373
100
AcDbEntity
  8
0
  6
Continuous
 62
     1
100
AcDbLine
 10
105.468105796
 20
110.6228976949999
 30
0.0
 11
103.647641705
 21
108.601067492
 31
0.0
  0
LINE
  5
5DB
330
373
100
AcDbEntity
  8
0
  6
Continuous
 62
     1
100
AcDbLine
 10
103.034339026
 20
104.576651081
 30
0.0
 11
101.2165173639999
 21
102.5577555929997
 31
0.0
  0
LINE
  5
5DC
330
373
100
AcDbEntity
  8
0
  6
Continuous
 62
     1
100
AcDbLine
 10
102.026454241
 20
102.559700645
 30
0.0
 11
103.8423621929998
 21
104.5764707429998
 31
0.0
  0
LINE
  5
5DD
330
373
100
AcDbEntity
  8
0
  6
Continuous
 62
     1
100
AcDbLine
 10
104.6503853589999
 20
104.576290405
 30
0.0
 11
102.836391117
 21
102.5616456979998
 31
0.0
  0
LINE
  5
5DE
330
373
100
AcDbEntity
  8
0
  6
Continuous
 62
     1
100
AcDbLine
 10
98.71613725500001
 20
96.454331238
 30
0.0
 11
98.69518197600001
 21
96.854181774
 31
0.0
  0
LINE
  5
5DF
330
373
100
AcDbEntity
  8
0
  6
Continuous
 62
     1
100
AcDbLine
 10
98.69518197600001
 20
96.854181774
 30
0.0
 11
100.6210911829998
 21
98.35843504499999
 31
0.0
  0
LINE
  5
5E0
330
373
100
AcDbEntity
  8
0
  6
Continuous
 62
     1
100
AcDbLine
 10
99.28045823799999
 20
97.311318449
 30
0.0
 11
98.704734317
 21
96.67191225700001
 31
0.0
  0
LINE
  5
5E1
330
373
100
AcDbEntity
  8
0
  6
Continuous
 62
     1
100
AcDbLine
 10
99.31161554
 20
96.44834116
 30
0.0
 11
101.0277881779997
 21
98.354343969
 31
0.0
  0
LINE
  5
5E2
330
373
100
AcDbEntity
  8
0
  6
Continuous
 62
     1
100
AcDbLine
 10
101.8287193599996
 20
98.34628718499999
 30
0.0
 11
100.112546722
 21
96.44028437500001
 31
0.0
  0
LINE
  5
5E3
330
373
100
AcDbEntity
  8
0
  6
Continuous
 62
     1
100
AcDbLine
 10
100.9134779039999
 20
96.432227591
 30
0.0
 11
102.629650542
 21
98.338230401
 31
0.0
  0
LINE
  5
5E4
330
373
100
AcDbEntity
  8
0
  6
Continuous
 62
     1
100
AcDbLine
 10
103.4305817239998
 20
98.33017361600001
 30
0.0
 11
101.714409086
 21
96.42417080700001
 31
0.0
  0
LINE
  5
5E5
330
373
100
AcDbEntity
  8
0
  6
Continuous
 62
     1
100
AcDbLine
 10
99.60252055700001
 20
108.902467637
 30
0.0
 11
100.0474086339998
 21
109.347355715
 31
0.0
  0
LINE
  5
5E6
330
373
100
AcDbEntity
  8
0
  6
Continuous
 62
     1
100
AcDbLine
 10
100.0474086339998
 20
109.347355715
 30
0.0
 11
101.382072867
 21
107.8149634479999
 31
0.0
  0
LINE
  5
5E7
330
373
100
AcDbEntity
  8
0
  6
Continuous
 62
     1
100
AcDbLine
 10
100.8630367759999
 20
110.311279882
 30
0.0
 11
102.3212810299996
 21
108.531727573
 31
0.0
  0
LINE
  5
5E8
330
373
100
AcDbEntity
  8
0
  6
Continuous
 62
     1
100
AcDbLine
 10
105.460213577
 20
107.765531439
 30
0.0
 11
106.967889839
 21
109.1990596889998
 31
0.0
  0
LINE
  5
5E9
330
373
100
AcDbEntity
  8
0
  6
Continuous
 62
     1
100
AcDbLine
 10
106.967889839
 20
109.1990596889998
 30
0.0
 11
107.4374939209999
 21
108.951899646
 31
0.0
  0
LINE
  5
5EA
330
373
100
AcDbEntity
  8
0
  6
Continuous
 62
     1
100
AcDbLine
 10
104.570437422
 20
108.581159581
 30
0.0
 11
106.4241377449999
 21
110.2371318699999
 31
0.0
  0
LINE
  5
5EB
330
373
100
AcDbEntity
  8
0
  6
Continuous
 62
     1
100
AcDbLine
 10
100.0226926299999
 20
103.193070643
 30
0.0
 11
101.555084897
 21
104.6018828879998
 31
0.0
  0
LINE
  5
5EC
330
373
100
AcDbEntity
  8
0
  6
Continuous
 62
     1
100
AcDbLine
 10
105.262485542
 20
105.6646710729997
 30
0.0
 11
106.6218657789999
 21
104.0828467979998
 31
0.0
  0
LINE
  5
5ED
330
373
100
AcDbEntity
  8
0
  6
Continuous
 62
     1
100
AcDbLine
 10
104.6445854349999
 20
104.55245088
 30
0.0
 11
105.70737362
 21
103.5143786989999
 31
0.0
  0
LINE
  5
5EE
330
373
100
AcDbEntity
  8
0
  6
Continuous
 62
     1
100
AcDbLine
 10
105.70737362
 20
103.5143786989999
 30
0.0
 11
104.595153426
 21
102.575170535
 31
0.0
  0
LINE
  5
5EF
330
373
100
AcDbEntity
  8
0
  6
Continuous
 62
     1
100
AcDbLine
 10
99.63890994599999
 20
108.951899646
 30
0.0
 11
98.93472860799999
 21
104.022630277
 31
0.0
  0
LINE
  5
5F0
330
373
100
AcDbEntity
  8
0
  6
Continuous
 62
     1
100
AcDbLine
 10
100.8630367759999
 20
110.2628856639998
 30
0.0
 11
101.249063105
 21
110.5853093239998
 31
0.0
  0
LINE
  5
5F1
330
373
100
AcDbEntity
  8
0
  6
Continuous
 62
     1
100
AcDbLine
 10
101.0130697989997
 20
110.162983857
 30
0.0
 11
101.3945000379999
 21
110.5866050539999
 31
0.0
  0
LINE
  5
5F2
330
373
100
AcDbEntity
  8
0
  6
Continuous
 62
     1
100
AcDbLine
 10
102.2092211899996
 20
110.593863582
 30
0.0
 11
101.3761675379998
 21
109.6686637709999
 31
0.0
  0
LINE
  5
5F3
330
373
100
AcDbEntity
  8
0
  6
Continuous
 62
     1
100
AcDbLine
 10
101.7615196669999
 20
109.1990596889998
 30
0.0
 11
103.023942341
 21
110.60112211
 31
0.0
  0
LINE
  5
5F4
330
373
100
AcDbEntity
  8
0
  6
Continuous
 62
     1
100
AcDbLine
 10
100.591160729
 20
108.6820569209999
 30
0.0
 11
99.43522769499999
 21
107.526123887
 31
0.0
  0
LINE
  5
5F5
330
373
100
AcDbEntity
  8
0
  6
Continuous
 62
     1
100
AcDbLine
 10
99.29366517600001
 20
106.535186251
 30
0.0
 11
100.9866167979998
 21
108.228137873
 31
0.0
  0
LINE
  5
5F6
330
373
100
AcDbEntity
  8
0
  6
Continuous
 62
     1
100
AcDbLine
 10
100.8459488349999
 20
102.5568656779997
 30
0.0
 11
99.973260621
 21
103.209852225
 31
0.0
  0
LINE
  5
5F7
330
373
100
AcDbEntity
  8
0
  6
Continuous
 62
     1
100
AcDbLine
 10
101.4809368839999
 20
104.576997775
 30
0.0
 11
104.595153426
 21
104.576302732
 31
0.0
  0
LINE
  5
5F8
330
373
100
AcDbEntity
  8
0
  6
Continuous
 62
     1
100
AcDbLine
 10
107.2928293649999
 20
107.268129259
 30
0.0
 11
105.4849295809999
 21
105.460229475
 31
0.0
  0
LINE
  5
5F9
330
373
100
AcDbEntity
  8
0
  6
Continuous
 62
     1
100
AcDbLine
 10
105.9545336629998
 20
105.08045844
 30
0.0
 11
107.190904351
 21
106.316829128
 31
0.0
  0
LINE
  5
5FA
330
373
100
AcDbEntity
  8
0
  6
Continuous
 62
     1
100
AcDbLine
 10
107.088979337
 20
105.3655289979999
 30
0.0
 11
106.3005577229997
 21
104.577107384
 31
0.0
  0
LINE
  5
5FB
330
373
100
AcDbEntity
  8
0
  6
Continuous
 62
     1
100
AcDbLine
 10
107.465288905
 20
108.8777516329999
 30
0.0
 11
106.9859749649999
 21
104.404154854
 31
0.0
  0
LINE
  5
5FC
330
373
100
AcDbEntity
  8
0
  6
Continuous
 62
     1
100
AcDbLine
 10
105.8578219129999
 20
110.6263697609999
 30
0.0
 11
106.2758417189999
 21
110.345790787
 31
0.0
  0
LINE
  5
5FD
330
373
100
AcDbEntity
  8
0
  6
Continuous
 62
     1
100
AcDbLine
 10
104.6445854349999
 20
108.597938447
 30
0.0
 11
102.247133017
 21
108.605463182
 31
0.0
  0
LINE
  5
5FE
330
373
100
AcDbEntity
  8
0
  6
Continuous
 62
     1
100
AcDbLine
 10
106.6218657789999
 20
104.0490403229999
 30
0.0
 11
106.9870543229999
 21
104.414228868
 31
0.0
  0
LINE
  5
5FF
330
373
100
AcDbEntity
  8
0
  6
Continuous
 62
     1
100
AcDbLine
 10
101.25915639
 20
105.8623991079998
 30
0.0
 11
101.474331016
 21
107.6913834259999
 31
0.0
  0
LINE
  5
600
330
373
100
AcDbEntity
  8
0
  6
Continuous
 62
     1
100
AcDbLine
 10
105.218951056
 20
105.6646710729997
 30
0.0
 11
105.47192663
 21
107.8149634479999
 31
0.0
  0
LINE
  5
601
330
373
100
AcDbEntity
  8
0
  6
Continuous
 62
     1
100
AcDbLine
 10
102.0494049829999
 20
104.527734875
 30
0.0
 11
100.6158767329998
 21
102.8470465829997
 31
0.0
  0
LINE
  5
602
330
373
100
AcDbEntity
  8
0
  6
Continuous
 62
     1
100
AcDbLine
 10
104.8423134689999
 20
104.156994811
 30
0.0
 11
103.4582172279999
 21
102.5257385269999
 31
0.0
  0
LINE
  5
603
330
373
100
AcDbEntity
  8
0
  6
Continuous
 62
     1
100
AcDbLine
 10
105.336633555
 20
103.786254746
 30
0.0
 11
104.3479933829999
 21
102.575170535
 31
0.0
  0
LINE
  5
604
330
373
100
AcDbEntity
  8
0
  6
Continuous
 62
     1
100
AcDbLine
 10
107.2891978949999
 20
108.951899646
 30
0.0
 11
105.4107815679999
 21
107.122915327
 31
0.0
  0
LINE
  5
605
330
373
100
AcDbEntity
  8
0
  6
Continuous
 62
     1
100
AcDbLine
 10
106.0533976799999
 20
110.4595759079998
 30
0.0
 11
104.397425392
 21
108.6305915899999
 31
0.0
  0
LINE
  5
606
330
373
100
AcDbEntity
  8
0
  6
Continuous
 62
     1
100
AcDbLine
 10
104.570437422
 20
102.565809986
 30
0.0
 11
100.8459488349999
 21
102.5568656779997
 31
0.0
  0
LINE
  5
607
330
373
100
AcDbEntity
  8
0
  6
Continuous
 62
     1
100
AcDbLine
 10
104.422141396
 20
98.991349911
 30
0.0
 11
105.830953641
 21
97.36009362700002
 31
0.0
  0
LINE
  5
608
330
373
100
AcDbEntity
  8
0
  6
Continuous
 62
     1
100
AcDbLine
 10
103.482933232
 20
98.24986978200001
 30
0.0
 11
104.8917454779997
 21
96.84105753700002
 31
0.0
  0
LINE
  5
609
330
373
100
AcDbEntity
  8
0
  6
Continuous
 62
     1
100
AcDbLine
 10
104.8917454779997
 20
96.84105753700002
 30
0.0
 11
104.570437422
 21
96.396169459
 31
0.0
  0
LINE
  5
60A
330
373
100
AcDbEntity
  8
0
  6
Continuous
 62
     1
100
AcDbLine
 10
104.384158102
 20
98.991349911
 30
0.0
 11
104.6285719229999
 21
101.1910742939999
 31
0.0
  0
LINE
  5
60B
330
373
100
AcDbEntity
  8
0
  6
Continuous
 62
     1
100
AcDbLine
 10
104.743449452
 20
98.77312353100002
 30
0.0
 11
106.499274413
 21
100.528948492
 31
0.0
  0
LINE
  5
60C
330
373
100
AcDbEntity
  8
0
  6
Continuous
 62
     1
100
AcDbLine
 10
106.3973493989999
 20
99.577648362
 30
0.0
 11
105.114189516
 21
98.294488479
 31
0.0
  0
LINE
  5
60D
330
373
100
AcDbEntity
  8
0
  6
Continuous
 62
     1
100
AcDbLine
 10
105.559077594
 20
97.89000144
 30
0.0
 11
106.295424385
 21
98.62634823100002
 31
0.0
  0
LINE
  5
60E
330
373
100
AcDbEntity
  8
0
  6
Continuous
 62
     1
100
AcDbLine
 10
106.1934993709999
 20
97.675048101
 30
0.0
 11
105.905101654
 21
97.386650384
 31
0.0
  0
LINE
  5
60F
330
373
100
AcDbEntity
  8
0
  6
Continuous
 62
     1
100
AcDbLine
 10
106.742514367
 20
102.7991880639999
 30
0.0
 11
106.199476399
 21
97.73083369200001
 31
0.0
  0
LINE
  5
610
330
373
100
AcDbEntity
  8
0
  6
Continuous
 62
     1
100
AcDbLine
 10
100.6210911829998
 20
98.35843504499999
 30
0.0
 11
103.4087852189998
 21
98.330392873
 31
0.0
  0
LINE
  5
611
330
373
100
AcDbEntity
  8
0
  6
Continuous
 62
     1
100
AcDbLine
 10
102.5153402679999
 20
96.416114022
 30
0.0
 11
103.8771542979997
 21
97.928561726
 31
0.0
  0
LINE
  5
612
330
373
100
AcDbEntity
  8
0
  6
Continuous
 62
     1
100
AcDbLine
 10
104.262506427
 20
97.458957644
 30
0.0
 11
103.3162714509999
 21
96.40805723799999
 31
0.0
  0
LINE
  5
613
330
373
100
AcDbEntity
  8
0
  6
Continuous
 62
     1
100
AcDbLine
 10
104.1172026329998
 20
96.40000045299995
 30
0.0
 11
104.670112946
 21
97.01406956700001
 31
0.0
  0
LINE
  5
614
330
373
100
AcDbEntity
  8
0
  6
Continuous
 62
     1
100
AcDbLine
 10
104.545721417
 20
96.395689867
 30
0.0
 11
98.71613725500001
 21
96.454331238
 31
0.0
  0
LINE
  5
615
330
373
100
AcDbEntity
  8
0
  6
Continuous
 62
     1
100
AcDbLine
 10
36.0
 20
91.5
 30
0.0
 11
131.0
 21
91.5
 31
0.0
  0
LINE
  5
616
330
373
100
AcDbEntity
  8
0
  6
Continuous
 62
     1
100
AcDbLine
 10
130.0
 20
93.49999999999999
 30
0.0
 11
38.0
 21
93.49999999999999
 31
0.0
  0
LINE
  5
617
330
373
100
AcDbEntity
  8
0
  6
Continuous
 62
     1
100
AcDbLine
 10
38.0
 20
113.5
 30
0.0
 11
130.0
 21
113.5
 31
0.0
  0
LINE
  5
618
330
373
100
AcDbEntity
  8
0
  6
Continuous
 62
     1
100
AcDbLine
 10
38.0
 20
113.5
 30
0.0
 11
129.8
 21
113.5
 31
0.0
  0
LINE
  5
619
330
373
100
AcDbEntity
  8
0
  6
Continuous
 62
     1
100
AcDbLine
 10
132.0
 20
91.5
 30
0.0
 11
132.0
 21
115.5
 31
0.0
  0
LINE
  5
61A
330
373
100
AcDbEntity
  8
0
  6
Continuous
 62
     1
100
AcDbLine
 10
130.0
 20
113.5
 30
0.0
 11
130.0
 21
93.49999999999999
 31
0.0
  0
LINE
  5
61B
330
373
100
AcDbEntity
  8
0
  6
Continuous
 62
     1
100
AcDbLine
 10
129.999999996
 20
93.56999999999999
 30
0.0
 11
129.999999996
 21
113.5
 31
0.0
  0
LINE
  5
61C
330
373
100
AcDbEntity
  8
0
  6
Continuous
 62
     1
100
AcDbLine
 10
132.0
 20
115.5
 30
0.0
 11
132.0
 21
91.5
 31
0.0
  0
LINE
  5
61D
330
373
100
AcDbEntity
  8
0
  6
Continuous
 62
     1
100
AcDbLine
 10
132.05
 20
109.65
 30
0.0
 11
133.05
 21
109.65
 31
0.0
  0
LINE
  5
61E
330
373
100
AcDbEntity
  8
0
  6
Continuous
 62
     1
100
AcDbLine
 10
133.05
 20
97.25000000000001
 30
0.0
 11
132.05
 21
97.25000000000001
 31
0.0
  0
LINE
  5
61F
330
373
100
AcDbEntity
  8
0
  6
Continuous
 62
     1
100
AcDbLine
 10
133.05
 20
109.65
 30
0.0
 11
133.05
 21
97.25000000000001
 31
0.0
  0
LINE
  5
620
330
373
100
AcDbEntity
  8
0
  6
Continuous
 62
     1
100
AcDbLine
 10
46.323945576
 20
58.703702001
 30
0.0
 11
92.32394556
 21
58.703702001
 31
0.0
  0
LINE
  5
621
330
373
100
AcDbEntity
  8
0
  6
Continuous
 62
     1
100
AcDbLine
 10
92.32394556
 20
47.830974732
 30
0.0
 11
46.323945576
 21
47.830974732
 31
0.0
  0
LINE
  5
622
330
373
100
AcDbEntity
  8
0
  6
Continuous
 62
     1
100
AcDbLine
 10
46.323945576
 20
38.70370200099999
 30
0.0
 11
92.32394556
 21
38.70370200099999
 31
0.0
  0
LINE
  5
623
330
373
100
AcDbEntity
  8
0
  6
Continuous
 62
     1
100
AcDbLine
 10
46.323945576
 20
27.914611095
 30
0.0
 11
46.323945576
 21
38.70370200099999
 31
0.0
  0
LINE
  5
624
330
373
100
AcDbEntity
  8
0
  6
Continuous
 62
     1
100
AcDbLine
 10
92.32394556
 20
27.83097473199998
 30
0.0
 11
46.323945576
 21
27.83097473199998
 31
0.0
  0
LINE
  5
625
330
373
100
AcDbEntity
  8
0
  6
Continuous
 62
     1
100
AcDbLine
 10
46.323945576
 20
47.914611095
 30
0.0
 11
46.323945576
 21
58.703702001
 31
0.0
  0
LINE
  5
626
330
373
100
AcDbEntity
  8
0
  6
Continuous
 62
     1
100
AcDbLine
 10
92.32394556
 20
58.703702001
 30
0.0
 11
92.32394556
 21
47.914611095
 31
0.0
  0
LINE
  5
627
330
373
100
AcDbEntity
  8
0
  6
Continuous
 62
     1
100
AcDbLine
 10
106.323945576
 20
47.914611095
 30
0.0
 11
106.323945576
 21
58.703702001
 31
0.0
  0
LINE
  5
628
330
373
100
AcDbEntity
  8
0
  6
Continuous
 62
     1
100
AcDbLine
 10
92.32394556
 20
38.70370200099999
 30
0.0
 11
92.32394556
 21
27.914611095
 31
0.0
  0
LINE
  5
629
330
373
100
AcDbEntity
  8
0
  6
Continuous
 62
     1
100
AcDbLine
 10
106.323945576
 20
27.914611095
 30
0.0
 11
106.323945576
 21
38.70370200099999
 31
0.0
  0
LINE
  5
62A
330
373
100
AcDbEntity
  8
0
  6
Continuous
 62
     1
100
AcDbLine
 10
106.323945576
 20
38.70370200099999
 30
0.0
 11
152.3239455599999
 21
38.70370200099999
 31
0.0
  0
LINE
  5
62B
330
373
100
AcDbEntity
  8
0
  6
Continuous
 62
     1
100
AcDbLine
 10
106.323945576
 20
58.703702001
 30
0.0
 11
152.3239455599999
 21
58.703702001
 31
0.0
  0
LINE
  5
62C
330
373
100
AcDbEntity
  8
0
  6
Continuous
 62
     1
100
AcDbLine
 10
152.3239455599999
 20
27.83097473199998
 30
0.0
 11
106.323945576
 21
27.83097473199998
 31
0.0
  0
LINE
  5
62D
330
373
100
AcDbEntity
  8
0
  6
Continuous
 62
     1
100
AcDbLine
 10
152.3239455599999
 20
38.70370200099999
 30
0.0
 11
152.3239455599999
 21
27.914611095
 31
0.0
  0
LINE
  5
62E
330
373
100
AcDbEntity
  8
0
  6
Continuous
 62
     1
100
AcDbLine
 10
152.3239455599999
 20
58.703702001
 30
0.0
 11
152.3239455599999
 21
47.914611095
 31
0.0
  0
LINE
  5
62F
330
373
100
AcDbEntity
  8
0
  6
Continuous
 62
     1
100
AcDbLine
 10
152.3239455599999
 20
47.830974732
 30
0.0
 11
106.323945576
 21
47.830974732
 31
0.0
  0
LINE
  5
630
330
373
100
AcDbEntity
  8
0
  6
Continuous
 62
     1
100
AcDbLine
 10
192.687967527
 20
223.0
 30
0.0
 11
192.687967527
 21
219.4999999999998
 31
0.0
  0
LINE
  5
631
330
373
100
AcDbEntity
  8
0
  6
Continuous
 62
     1
100
AcDbLine
 10
187.687967527
 20
233.3
 30
0.0
 11
189.287967527
 21
233.3
 31
0.0
  0
LINE
  5
632
330
373
100
AcDbEntity
  8
0
  6
Continuous
 62
     1
100
AcDbLine
 10
189.287967527
 20
233.3
 30
0.0
 11
189.287967527
 21
226.5
 31
0.0
  0
LINE
  5
633
330
373
100
AcDbEntity
  8
0
  6
Continuous
 62
     1
100
AcDbLine
 10
192.687967527
 20
223.0
 30
0.0
 11
192.687967527
 21
223.3
 31
0.0
  0
LINE
  5
634
330
373
100
AcDbEntity
  8
0
  6
Continuous
 62
     1
100
AcDbLine
 10
192.387967527
 20
223.3
 30
0.0
 11
192.687967527
 21
223.3
 31
0.0
  0
LINE
  5
635
330
373
100
AcDbEntity
  8
0
  6
Continuous
 62
     1
100
AcDbLine
 10
192.317967527
 20
223.3
 30
0.0
 11
192.687967527
 21
223.3
 31
0.0
  0
LINE
  5
636
330
373
100
AcDbEntity
  8
0
  6
Continuous
 62
     1
100
AcDbLine
 10
191.4879675269998
 20
226.2
 30
0.0
 11
191.4879675269998
 21
223.3
 31
0.0
  0
ARC
  5
637
330
373
100
AcDbEntity
  8
0
  6
Continuous
 62
     1
100
AcDbCircle
 10
191.187967527
 20
226.2
 30
0.0
 40
0.3
100
AcDbArc
 50
0.0
 51
90.0
  0
LINE
  5
638
330
373
100
AcDbEntity
  8
0
  6
Continuous
 62
     1
100
AcDbLine
 10
192.687967527
 20
223.3
 30
0.0
 11
193.257967527
 21
223.3
 31
0.0
  0
LINE
  5
639
330
373
100
AcDbEntity
  8
0
  6
Continuous
 62
     1
100
AcDbLine
 10
193.257967527
 20
223.3
 30
0.0
 11
193.2679675269998
 21
223.3
 31
0.0
  0
LINE
  5
63A
330
373
100
AcDbEntity
  8
0
  6
Continuous
 62
     1
100
AcDbLine
 10
184.9
 20
223.3
 30
0.0
 11
185.1999999999999
 21
223.3
 31
0.0
  0
LINE
  5
63B
330
373
100
AcDbEntity
  8
0
  6
Continuous
 62
     1
100
AcDbLine
 10
186.3499999999999
 20
223.3
 30
0.0
 11
186.5
 21
223.3
 31
0.0
  0
LINE
  5
63C
330
373
100
AcDbEntity
  8
0
  6
Continuous
 62
     1
100
AcDbLine
 10
179.170598588
 20
223.3
 30
0.0
 11
179.7705985879999
 21
223.3
 31
0.0
  0
LINE
  5
63D
330
373
100
AcDbEntity
  8
0
  6
Continuous
 62
     1
100
AcDbLine
 10
179.7705985879999
 20
223.3
 30
0.0
 11
179.170598588
 21
223.3
 31
0.0
  0
LINE
  5
63E
330
373
100
AcDbEntity
  8
0
  6
Continuous
 62
     1
100
AcDbLine
 10
179.7705985879999
 20
223.3
 30
0.0
 11
179.920598588
 21
223.3
 31
0.0
  0
LINE
  5
63F
330
373
100
AcDbEntity
  8
0
  6
Continuous
 62
     1
100
AcDbLine
 10
179.920598588
 20
223.3
 30
0.0
 11
184.9
 21
223.3
 31
0.0
  0
LINE
  5
640
330
373
100
AcDbEntity
  8
0
  6
Continuous
 62
     1
100
AcDbLine
 10
185.1999999999999
 20
223.3
 30
0.0
 11
186.3499999999999
 21
223.3
 31
0.0
  0
LINE
  5
641
330
373
100
AcDbEntity
  8
0
  6
Continuous
 62
     1
100
AcDbLine
 10
186.3499999999999
 20
223.3
 30
0.0
 11
192.387967527
 21
223.3
 31
0.0
  0
LINE
  5
642
330
373
100
AcDbEntity
  8
0
  6
Continuous
 62
     1
100
AcDbLine
 10
187.687967527
 20
226.5
 30
0.0
 11
187.687967527
 21
233.3
 31
0.0
  0
LINE
  5
643
330
373
100
AcDbEntity
  8
0
  6
Continuous
 62
     1
100
AcDbLine
 10
185.487967527
 20
223.3
 30
0.0
 11
185.487967527
 21
226.2
 31
0.0
  0
ARC
  5
644
330
373
100
AcDbEntity
  8
0
  6
Continuous
 62
     1
100
AcDbCircle
 10
185.787967527
 20
226.2
 30
0.0
 40
0.3
100
AcDbArc
 50
90.0
 51
180.0
  0
LINE
  5
645
330
373
100
AcDbEntity
  8
0
  6
Continuous
 62
     1
100
AcDbLine
 10
185.787967527
 20
226.5
 30
0.0
 11
191.187967527
 21
226.5
 31
0.0
  0
ARC
  5
646
330
373
100
AcDbEntity
  8
0
  6
Continuous
 62
     1
100
AcDbCircle
 10
171.8685224879999
 20
223.0
 30
0.0
 40
0.3
100
AcDbArc
 50
90.0
 51
179.6021190379999
  0
LINE
  5
647
330
373
100
AcDbEntity
  8
0
  6
Continuous
 62
     1
100
AcDbLine
 10
172.5385423679999
 20
223.3
 30
0.0
 11
172.5385423679999
 21
226.5
 31
0.0
  0
LINE
  5
648
330
373
100
AcDbEntity
  8
0
  6
Continuous
 62
     1
100
AcDbLine
 10
177.6205985879998
 20
223.3
 30
0.0
 11
177.8205985879999
 21
223.3
 31
0.0
  0
LINE
  5
649
330
373
100
AcDbEntity
  8
0
  6
Continuous
 62
     1
100
AcDbLine
 10
177.8205985879999
 20
223.3
 30
0.0
 11
179.320598588
 21
223.3
 31
0.0
  0
LINE
  5
64A
330
373
100
AcDbEntity
  8
0
  6
Continuous
 62
     1
100
AcDbLine
 10
171.8685224879999
 20
223.3
 30
0.0
 11
177.6205985879998
 21
223.3
 31
0.0
  0
LINE
  5
64B
330
373
100
AcDbEntity
  8
0
  6
Continuous
 62
     1
100
AcDbLine
 10
177.6205985879998
 20
223.3
 30
0.0
 11
171.8499999999999
 21
223.3
 31
0.0
  0
LINE
  5
64C
330
373
100
AcDbEntity
  8
0
  6
Continuous
 62
     1
100
AcDbLine
 10
172.5385423679999
 20
226.5
 30
0.0
 11
178.5385423679999
 21
226.5
 31
0.0
  0
LINE
  5
64D
330
373
100
AcDbEntity
  8
0
  6
Continuous
 62
     1
100
AcDbLine
 10
178.9705985879996
 20
223.3
 30
0.0
 11
179.320598588
 21
223.3
 31
0.0
  0
LINE
  5
64E
330
373
100
AcDbEntity
  8
0
  6
Continuous
 62
     1
100
AcDbLine
 10
178.5385423679999
 20
226.5
 30
0.0
 11
178.5385423679999
 21
223.3
 31
0.0
  0
LINE
  5
64F
330
373
100
AcDbEntity
  8
0
  6
Continuous
 62
     1
100
AcDbLine
 10
192.68209952
 20
208.5601655759997
 30
0.0
 11
193.0705985879999
 21
151.3
 31
0.0
  0
ARC
  5
650
330
373
100
AcDbEntity
  8
0
  6
Continuous
 62
     1
100
AcDbCircle
 10
192.982092615
 20
208.5622009709998
 30
0.0
 40
0.3
100
AcDbArc
 50
180.0
 51
180.3887347359999
  0
LINE
  5
651
330
373
100
AcDbEntity
  8
0
  6
Continuous
 62
     1
100
AcDbLine
 10
192.682092615
 20
219.9
 30
0.0
 11
192.682092615
 21
208.5622009709998
 31
0.0
  0
LINE
  5
652
330
373
100
AcDbEntity
  8
0
  6
Continuous
 62
     1
100
AcDbLine
 10
171.568529721
 20
223.0020832829999
 30
0.0
 11
171.0705985879999
 21
151.3
 31
0.0
  0
ARC
  5
653
330
373
100
AcDbEntity
  8
0
  6
Continuous
 62
     1
100
AcDbCircle
 10
179.070598588
 20
204.000003815
 30
0.0
 40
0.7
100
AcDbArc
 50
180.000312237
 51
0.000312237
  0
ARC
  5
654
330
373
100
AcDbEntity
  8
0
  6
Continuous
 62
     1
100
AcDbCircle
 10
185.0705985879999
 20
204.000003815
 30
0.0
 40
0.7
100
AcDbArc
 50
179.9996877629999
 51
359.999687763
  0
LINE
  5
655
330
373
100
AcDbEntity
  8
0
  6
Continuous
 62
     1
100
AcDbLine
 10
179.7705985879999
 20
223.3
 30
0.0
 11
179.7705985869998
 21
204.000007629
 31
0.0
  0
LINE
  5
656
330
373
100
AcDbEntity
  8
0
  6
Continuous
 62
     1
100
AcDbLine
 10
184.3705985879998
 20
223.3
 30
0.0
 11
184.3705985879998
 21
204.000007629
 31
0.0
  0
LINE
  5
657
330
373
100
AcDbEntity
  8
0
  6
Continuous
 62
     1
100
AcDbLine
 10
185.7705985879999
 20
223.3
 30
0.0
 11
185.770598587
 21
204.0
 31
0.0
  0
LINE
  5
658
330
373
100
AcDbEntity
  8
0
  6
Continuous
 62
     1
100
AcDbLine
 10
178.3705985879998
 20
223.3
 30
0.0
 11
178.3705985879998
 21
204.0
 31
0.0
  0
LINE
  5
659
330
373
100
AcDbEntity
  8
0
  6
Continuous
 62
     1
100
AcDbLine
 10
194.1705985879996
 20
151.3
 30
0.0
 11
170.0205985879998
 21
151.3
 31
0.0
  0
LINE
  5
65A
330
373
100
AcDbEntity
  8
0
  6
Continuous
 62
     1
100
AcDbLine
 10
169.970598588
 20
151.3
 30
0.0
 11
170.25437065
 21
147.232600434
 31
0.0
  0
ARC
  5
65B
330
373
100
AcDbEntity
  8
0
  6
Continuous
 62
     1
100
AcDbCircle
 10
170.503764425
 20
147.2499999999998
 30
0.0
 40
0.25
100
AcDbArc
 50
183.9909130979999
 51
270.0
  0
ARC
  5
65C
330
373
100
AcDbEntity
  8
0
  6
Continuous
 62
     1
100
AcDbCircle
 10
193.6374327499999
 20
147.2499999999998
 30
0.0
 40
0.25
100
AcDbArc
 50
270.0
 51
356.0090869019995
  0
LINE
  5
65D
330
373
100
AcDbEntity
  8
0
  6
Continuous
 62
     1
100
AcDbLine
 10
194.1705985879996
 20
151.3
 30
0.0
 11
193.886826525
 21
147.232600434
 31
0.0
  0
LINE
  5
65E
330
373
100
AcDbEntity
  8
0
  6
Continuous
 62
     1
100
AcDbLine
 10
170.503764425
 20
147.0
 30
0.0
 11
193.6374327499999
 21
147.0
 31
0.0
  0
LINE
  5
65F
330
373
100
AcDbEntity
  8
0
  6
LTYPE1
 62
     1
100
AcDbLine
 10
183.8505985879999
 20
239.6999999999999
 30
0.0
 11
183.8505985879999
 21
223.3
 31
0.0
  0
LINE
  5
660
330
373
100
AcDbEntity
  8
0
  6
LTYPE1
 62
     1
100
AcDbLine
 10
193.2675525649999
 20
239.6999999999999
 30
0.0
 11
193.257967527
 21
223.3
 31
0.0
  0
LINE
  5
661
330
373
100
AcDbEntity
  8
0
  6
LTYPE1
 62
     1
100
AcDbLine
 10
183.8505985879999
 20
231.4999999999999
 30
0.0
 11
193.2679675269998
 21
231.4999999999999
 31
0.0
  0
LINE
  5
663
330
373
100
AcDbEntity
  8
0
  6
Continuous
 62
     1
100
AcDbLine
 10
175.8099984459996
 20
151.296156007
 30
0.0
 11
175.8099984459996
 21
171.08
 31
0.0
  0
LINE
  5
664
330
373
100
AcDbEntity
  8
0
  6
Continuous
 62
     1
100
AcDbLine
 10
176.88911721
 20
171.08
 30
0.0
 11
176.88911721
 21
151.296156007
 31
0.0
  0
LINE
  5
665
330
373
100
AcDbEntity
  8
0
  6
Continuous
 62
     1
100
AcDbLine
 10
180.16468728
 20
155.61263106
 30
0.0
 11
176.88911721
 21
155.61263106
 31
0.0
  0
LINE
  5
666
330
373
100
AcDbEntity
  8
0
  6
Continuous
 62
     1
100
AcDbLine
 10
176.88911721
 20
156.691749824
 30
0.0
 11
180.16468728
 21
156.691749824
 31
0.0
  0
LINE
  5
667
330
373
100
AcDbEntity
  8
0
  6
Continuous
 62
     1
100
AcDbLine
 10
176.88911721
 20
157.770868587
 30
0.0
 11
180.16468728
 21
157.770868587
 31
0.0
  0
LINE
  5
668
330
373
100
AcDbEntity
  8
0
  6
Continuous
 62
     1
100
AcDbLine
 10
176.88911721
 20
152.3752747709998
 30
0.0
 11
180.16468728
 21
152.3752747709998
 31
0.0
  0
LINE
  5
669
330
373
100
AcDbEntity
  8
0
  6
Continuous
 62
     1
100
AcDbLine
 10
180.16468728
 20
153.4543935339995
 30
0.0
 11
176.88911721
 21
153.4543935339995
 31
0.0
  0
LINE
  5
66A
330
373
100
AcDbEntity
  8
0
  6
Continuous
 62
     1
100
AcDbLine
 10
176.88911721
 20
154.533512297
 30
0.0
 11
180.16468728
 21
154.533512297
 31
0.0
  0
LINE
  5
66B
330
373
100
AcDbEntity
  8
0
  6
Continuous
 62
     1
100
AcDbLine
 10
175.8099984459996
 20
171.08
 30
0.0
 11
176.88911721
 21
171.08
 31
0.0
  0
LINE
  5
66C
330
373
100
AcDbEntity
  8
0
  6
Continuous
 62
     1
100
AcDbLine
 10
187.391479824
 20
151.296156007
 30
0.0
 11
187.391479824
 21
171.08
 31
0.0
  0
LINE
  5
66D
330
373
100
AcDbEntity
  8
0
  6
Continuous
 62
     1
100
AcDbLine
 10
187.391479824
 20
171.08
 30
0.0
 11
188.470598588
 21
171.08
 31
0.0
  0
LINE
  5
66E
330
373
100
AcDbEntity
  8
0
  6
Continuous
 62
     1
100
AcDbLine
 10
187.391479824
 20
155.61263106
 30
0.0
 11
181.3146872799999
 21
155.61263106
 31
0.0
  0
LINE
  5
66F
330
373
100
AcDbEntity
  8
0
  6
Continuous
 62
     1
100
AcDbLine
 10
181.3146872799999
 20
156.691749824
 30
0.0
 11
187.391479824
 21
156.691749824
 31
0.0
  0
LINE
  5
670
330
373
100
AcDbEntity
  8
0
  6
Continuous
 62
     1
100
AcDbLine
 10
181.3146872799999
 20
157.770868587
 30
0.0
 11
187.391479824
 21
157.770868587
 31
0.0
  0
LINE
  5
671
330
373
100
AcDbEntity
  8
0
  6
Continuous
 62
     1
100
AcDbLine
 10
181.3146872799999
 20
152.3752747709998
 30
0.0
 11
187.391479824
 21
152.3752747709998
 31
0.0
  0
LINE
  5
672
330
373
100
AcDbEntity
  8
0
  6
Continuous
 62
     1
100
AcDbLine
 10
187.391479824
 20
153.4543935339995
 30
0.0
 11
181.3146872799999
 21
153.4543935339995
 31
0.0
  0
LINE
  5
673
330
373
100
AcDbEntity
  8
0
  6
Continuous
 62
     1
100
AcDbLine
 10
181.3146872799999
 20
154.533512297
 30
0.0
 11
187.391479824
 21
154.533512297
 31
0.0
  0
LINE
  5
674
330
373
100
AcDbEntity
  8
0
  6
Continuous
 62
     1
100
AcDbLine
 10
180.16468728
 20
157.770868587
 30
0.0
 11
181.3146872799999
 21
157.770868587
 31
0.0
  0
LINE
  5
675
330
373
100
AcDbEntity
  8
0
  6
Continuous
 62
     1
100
AcDbLine
 10
180.16468728
 20
156.691749824
 30
0.0
 11
181.3146872799999
 21
156.691749824
 31
0.0
  0
LINE
  5
676
330
373
100
AcDbEntity
  8
0
  6
Continuous
 62
     1
100
AcDbLine
 10
180.16468728
 20
155.61263106
 30
0.0
 11
181.3146872799999
 21
155.61263106
 31
0.0
  0
LINE
  5
677
330
373
100
AcDbEntity
  8
0
  6
Continuous
 62
     1
100
AcDbLine
 10
181.3146872799999
 20
155.61263106
 30
0.0
 11
181.71468728
 21
155.61263106
 31
0.0
  0
LINE
  5
678
330
373
100
AcDbEntity
  8
0
  6
Continuous
 62
     1
100
AcDbLine
 10
180.16468728
 20
154.533512297
 30
0.0
 11
181.3146872799999
 21
154.533512297
 31
0.0
  0
LINE
  5
679
330
373
100
AcDbEntity
  8
0
  6
Continuous
 62
     1
100
AcDbLine
 10
180.16468728
 20
153.4543935339995
 30
0.0
 11
181.86468728
 21
153.4543935339995
 31
0.0
  0
LINE
  5
67A
330
373
100
AcDbEntity
  8
0
  6
Continuous
 62
     1
100
AcDbLine
 10
180.16468728
 20
152.3752747709998
 30
0.0
 11
181.3146872799999
 21
152.3752747709998
 31
0.0
  0
LINE
  5
67B
330
373
100
AcDbEntity
  8
0
  6
Continuous
 62
     1
100
AcDbLine
 10
188.470598588
 20
171.08
 30
0.0
 11
188.470598588
 21
151.3
 31
0.0
  0
TEXT
  5
67C
330
373
100
AcDbEntity
  8
0
  6
Continuous
 62
     3
100
AcDbText
 10
90.913945544
 20
11.41370200099999
 30
1.0
 40
3.5
  1
Ｍｉｎ.１２０
 41
0.428571429
  7
KANJI5
100
AcDbText
  0
TEXT
  5
67D
330
373
100
AcDbEntity
  8
0
  6
Continuous
 62
     3
100
AcDbText
 10
168.0139455599999
 20
36.293701985
 30
1.0
 40
3.5
  1
Ｍｉｎ.３５
 50
90.0
 41
0.428571429
  7
KANJI5
100
AcDbText
  0
LINE
  5
67E
330
373
100
AcDbEntity
  8
0
  6
LTYPE1
 62
     1
100
AcDbLine
 10
59.4
 20
223.3
 30
1.0
 11
59.4
 21
210.8
 31
1.0
  0
LINE
  5
67F
330
373
100
AcDbEntity
  8
0
  6
LTYPE1
 62
     1
100
AcDbLine
 10
59.4
 20
210.8
 30
0.0
 11
56.4
 21
210.8
 31
0.0
  0
LINE
  5
680
330
373
100
AcDbEntity
  8
0
  6
LTYPE1
 62
     1
100
AcDbLine
 10
56.4
 20
210.8
 30
0.0
 11
56.4
 21
223.3
 31
0.0
  0
LINE
  5
681
330
373
100
AcDbEntity
  8
0
  6
LTYPE1
 62
     1
100
AcDbLine
 10
56.4
 20
222.3
 30
0.0
 11
59.4
 21
222.3
 31
0.0
  0
LINE
  5
682
330
373
100
AcDbEntity
  8
0
  6
LTYPE1
 62
     1
100
AcDbLine
 10
56.4
 20
212.3
 30
0.0
 11
59.4
 21
212.3
 31
0.0
  0
LINE
  5
683
330
373
100
AcDbEntity
  8
0
  6
LTYPE1
 62
     1
100
AcDbLine
 10
108.4
 20
223.3
 30
0.0
 11
108.4
 21
210.8
 31
0.0
  0
LINE
  5
684
330
373
100
AcDbEntity
  8
0
  6
LTYPE1
 62
     1
100
AcDbLine
 10
108.4
 20
210.8
 30
0.0
 11
111.4
 21
210.8
 31
0.0
  0
LINE
  5
685
330
373
100
AcDbEntity
  8
0
  6
LTYPE1
 62
     1
100
AcDbLine
 10
111.4
 20
210.8
 30
0.0
 11
111.4
 21
223.3
 31
0.0
  0
LINE
  5
686
330
373
100
AcDbEntity
  8
0
  6
LTYPE1
 62
     1
100
AcDbLine
 10
111.4
 20
222.3
 30
0.0
 11
108.4
 21
222.3
 31
0.0
  0
LINE
  5
687
330
373
100
AcDbEntity
  8
0
  6
LTYPE1
 62
     1
100
AcDbLine
 10
111.4
 20
212.3
 30
0.0
 11
108.4
 21
212.3
 31
0.0
  0
LINE
  5
688
330
373
100
AcDbEntity
  8
0
  6
Continuous
 62
     1
100
AcDbLine
 10
56.4
 20
188.3
 30
0.0
 11
83.9
 21
188.3
 31
0.0
  0
ARC
  5
689
330
373
100
AcDbEntity
  8
0
  6
Continuous
 62
     1
100
AcDbCircle
 10
56.4
 20
189.3
 30
0.0
 40
1.0
100
AcDbArc
 50
180.0
 51
270.0
  0
LINE
  5
68A
330
373
100
AcDbEntity
  8
0
  6
Continuous
 62
     1
100
AcDbLine
 10
111.4
 20
188.3
 30
0.0
 11
83.9
 21
188.3
 31
0.0
  0
ARC
  5
68B
330
373
100
AcDbEntity
  8
0
  6
Continuous
 62
     1
100
AcDbCircle
 10
111.4
 20
189.3
 30
0.0
 40
1.0
100
AcDbArc
 50
270.0
 51
0.0
  0
LINE
  5
68C
330
373
100
AcDbEntity
  8
0
  6
Continuous
 62
     1
100
AcDbLine
 10
112.4
 20
223.3
 30
0.0
 11
129.4999999999996
 21
223.3
 31
0.0
  0
LINE
  5
68D
330
373
100
AcDbEntity
  8
0
  6
Continuous
 62
     1
100
AcDbLine
 10
38.5
 20
223.3
 30
0.0
 11
111.4
 21
223.3
 31
0.0
  0
LINE
  5
68E
330
373
100
AcDbEntity
  8
0
  6
Continuous
 62
     1
100
AcDbLine
 10
112.4
 20
222.3
 30
0.0
 11
112.4
 21
189.3
 31
0.0
  0
LINE
  5
68F
330
373
100
AcDbEntity
  8
0
  6
Continuous
 62
     1
100
AcDbLine
 10
111.4
 20
223.3
 30
0.0
 11
38.5
 21
223.3
 31
0.0
  0
LINE
  5
690
330
373
100
AcDbEntity
  8
0
  6
Continuous
 62
     1
100
AcDbLine
 10
129.4999999999996
 20
223.3
 30
0.0
 11
112.4
 21
223.3
 31
0.0
  0
LINE
  5
691
330
373
100
AcDbEntity
  8
0
  6
Continuous
 62
     1
100
AcDbLine
 10
111.4
 20
223.3
 30
0.0
 11
38.5
 21
223.3
 31
0.0
  0
LINE
  5
692
330
373
100
AcDbEntity
  8
0
  6
Continuous
 62
     1
100
AcDbLine
 10
129.4999999999996
 20
223.3
 30
0.0
 11
112.4
 21
223.3
 31
0.0
  0
ARC
  5
693
330
373
100
AcDbEntity
  8
0
  6
Continuous
 62
     1
100
AcDbCircle
 10
111.4
 20
222.3
 30
0.0
 40
1.0
100
AcDbArc
 50
0.0
 51
90.0
  0
LINE
  5
694
330
373
100
AcDbEntity
  8
0
  6
Continuous
 62
     1
100
AcDbLine
 10
55.4
 20
222.3
 30
0.0
 11
55.4
 21
189.3
 31
0.0
  0
ARC
  5
695
330
373
100
AcDbEntity
  8
0
  6
Continuous
 62
     1
100
AcDbCircle
 10
56.4
 20
222.3
 30
0.0
 40
1.0
100
AcDbArc
 50
90.0
 51
180.0
  0
TEXT
  5
696
330
373
100
AcDbEntity
  8
0
  6
Continuous
 62
     3
100
AcDbText
 10
139.55
 20
229.15
 30
-0.8
 40
3.0
  1
３.２
 50
90.0
 41
0.6
  7
KANJI6
100
AcDbText
  0
LINE
  5
697
330
373
100
AcDbEntity
  8
0
  6
Continuous
 62
     3
100
AcDbLine
 10
140.55
 20
235.25
 30
-0.8
 11
140.55
 21
226.5
 31
-0.8
  0
LINE
  5
698
330
373
100
AcDbEntity
  8
0
  6
LTYPE1
 62
     1
100
AcDbLine
 10
185.787967527
 20
226.5
 30
0.0
 11
183.787967527
 21
226.5
 31
0.0
  0
LINE
  5
699
330
373
100
AcDbEntity
  8
0
  6
LTYPE1
 62
     1
100
AcDbLine
 10
191.287967527
 20
226.5
 30
0.0
 11
193.287967527
 21
226.5
 31
0.0
  0
LINE
  5
69A
330
373
100
AcDbEntity
  8
0
  6
Continuous
 62
     1
100
AcDbLine
 10
188.15
 20
243.5
 30
0.0
 11
188.75
 21
243.5
 31
0.0
  0
LINE
  5
69B
330
373
100
AcDbEntity
  8
0
  6
LTYPE1
 62
     1
100
AcDbLine
 10
188.15
 20
239.6999999999999
 30
0.0
 11
188.15
 21
243.5
 31
0.0
  0
LINE
  5
69C
330
373
100
AcDbEntity
  8
0
  6
LTYPE1
 62
     1
100
AcDbLine
 10
188.75
 20
243.5
 30
0.0
 11
188.75
 21
239.6999999999999
 31
0.0
  0
LINE
  5
69D
330
373
100
AcDbEntity
  8
0
  6
LTYPE1
 62
     1
100
AcDbLine
 10
188.75
 20
239.6999999999999
 30
0.0
 11
193.2675525649999
 21
239.6999999999999
 31
0.0
  0
LINE
  5
69E
330
373
100
AcDbEntity
  8
0
  6
LTYPE1
 62
     1
100
AcDbLine
 10
183.8505985879999
 20
239.6999999999999
 30
0.0
 11
188.15
 21
239.6999999999999
 31
0.0
  0
ENDSEC
  0
SECTION
  2
OBJECTS
  0
DICTIONARY
  5
361
330
0
100
AcDbDictionary
281
     1
  3
ACAD_GROUP
350
362
  3
ACAD_PLOTSTYLENAME
350
363
  3
ACAD_MLINESTYLE
350
36B
  3
ACAD_PLOTSETTINGS
350
36D
  3
ACAD_LAYOUT
350
36E
  0
DICTIONARY
  5
362
102
{ACAD_REACTORS
330
361
102
}
330
361
100
AcDbDictionary
281
     1
  0
ACDBDICTIONARYWDFLT
  5
363
102
{ACAD_REACTORS
330
361
102
}
330
361
100
AcDbDictionary
281
     1
  3
Normal
350
364
100
AcDbDictionaryWithDefault
340
364
  0
DICTIONARY
  5
36B
102
{ACAD_REACTORS
330
361
102
}
330
361
100
AcDbDictionary
281
     1
  3
Standard
350
36C
  0
DICTIONARY
  5
36D
102
{ACAD_REACTORS
330
361
102
}
330
361
100
AcDbDictionary
281
     1
  0
DICTIONARY
  5
36E
102
{ACAD_REACTORS
330
361
102
}
330
361
100
AcDbDictionary
281
     1
  3
ﾚｲｱｳﾄ1
350
372
  3
Model
350
376
  0
ACDBPLACEHOLDER
  5
364
102
{ACAD_REACTORS
330
363
102
}
330
363
  0
MLINESTYLE
  5
36C
102
{ACAD_REACTORS
330
36B
102
}
330
36B
100
AcDbMlineStyle
  2
STANDARD
 70
     0
  3

 62
   256
 51
90.0
 52
90.0
 71
     2
 49
0.5
 62
   256
  6
BYLAYER
 49
-0.5
 62
   256
  6
BYLAYER
  0
LAYOUT
  5
372
102
{ACAD_REACTORS
330
36E
102
}
330
36E
100
AcDbPlotSettings
  1

  2
Canon LBP-880
  4

  6

 40
0.0
 41
0.0
 42
0.0
 43
0.0
 44
0.0
 45
0.0
 46
0.0
 47
0.0
 48
0.0
 49
0.0
140
0.0
141
0.0
142
1.0
143
1.0
 70
   688
 72
     0
 73
     0
 74
     5
  7

 75
    16
147
1.0
148
0.0
149
0.0
100
AcDbLayout
  1
ﾚｲｱｳﾄ1
 70
     1
 71
     1
 10
0.0
 20
0.0
 11
12.0
 21
9.0
 12
0.0
 22
0.0
 32
0.0
 14
1.000000000000000E+20
 24
1.000000000000000E+20
 34
1.000000000000000E+20
 15
-1.000000000000000E+20
 25
-1.000000000000000E+20
 35
-1.000000000000000E+20
146
0.0
 13
0.0
 23
0.0
 33
0.0
 16
1.0
 26
0.0
 36
0.0
 17
0.0
 27
1.0
 37
0.0
 76
     0
330
36F
  0
LAYOUT
  5
376
102
{ACAD_REACTORS
330
36E
102
}
330
36E
100
AcDbPlotSettings
  1

  2
Canon LBP-880
  4

  6

 40
0.0
 41
0.0
 42
0.0
 43
0.0
 44
0.0
 45
0.0
 46
0.0
 47
0.0
 48
0.0
 49
0.0
140
0.0
141
0.0
142
1.0
143
1.0
 70
  1712
 72
     0
 73
     0
 74
     0
  7

 75
     0
147
1.0
148
0.0
149
0.0
100
AcDbLayout
  1
Model
 70
     1
 71
     0
 10
0.0
 20
0.0
 11
12.0
 21
9.0
 12
0.0
 22
0.0
 32
0.0
 14
0.0
 24
0.0
 34
0.0
 15
0.0
 25
0.0
 35
0.0
146
0.0
 13
0.0
 23
0.0
 33
0.0
 16
1.0
 26
0.0
 36
0.0
 17
0.0
 27
1.0
 37
0.0
 76
     0
330
373
  0
ENDSEC
  0
EOF
