  0
SECTION
  2
HEADER
  9
$ACADVER
  1
AC1015
  9
$ACADMAINTVER
 70
     6
  9
$DWGCODEPAGE
  3
ANSI_932
  9
$INSBASE
 10
0.0
 20
0.0
 30
0.0
  9
$EXTMIN
 10
33.63799999999999
 20
41.5
 30
0.0
  9
$EXTMAX
 10
382.3
 20
277.0124999999998
 30
0.3
  9
$LIMMIN
 10
0.0
 20
0.0
  9
$LIMMAX
 10
12.0
 20
9.0
  9
$ORTHOMODE
 70
     0
  9
$REGENMODE
 70
     1
  9
$FILLMODE
 70
     1
  9
$QTEXTMODE
 70
     0
  9
$MIRRTEXT
 70
     1
  9
$LTSCALE
 40
1.0
  9
$ATTMODE
 70
     1
  9
$TEXTSIZE
 40
0.2
  9
$TRACEWID
 40
0.05
  9
$TEXTSTYLE
  7
STANDARD
  9
$CLAYER
  8
0
  9
$CELTYPE
  6
CONTINUOUS
  9
$CECOLOR
 62
   256
  9
$CELTSCALE
 40
1.0
  9
$DISPSILH
 70
     0
  9
$DIMSCALE
 40
1.0
  9
$DIMASZ
 40
0.18
  9
$DIMEXO
 40
0.0625
  9
$DIMDLI
 40
0.38
  9
$DIMRND
 40
0.0
  9
$DIMDLE
 40
0.0
  9
$DIMEXE
 40
0.18
  9
$DIMTP
 40
0.0
  9
$DIMTM
 40
0.0
  9
$DIMTXT
 40
0.18
  9
$DIMCEN
 40
0.09
  9
$DIMTSZ
 40
0.0
  9
$DIMTOL
 70
     0
  9
$DIMLIM
 70
     0
  9
$DIMTIH
 70
     1
  9
$DIMTOH
 70
     1
  9
$DIMSE1
 70
     0
  9
$DIMSE2
 70
     0
  9
$DIMTAD
 70
     0
  9
$DIMZIN
 70
     0
  9
$DIMBLK
  1

  9
$DIMASO
 70
     1
  9
$DIMSHO
 70
     1
  9
$DIMPOST
  1

  9
$DIMAPOST
  1

  9
$DIMALT
 70
     0
  9
$DIMALTD
 70
     2
  9
$DIMALTF
 40
25.4
  9
$DIMLFAC
 40
1.0
  9
$DIMTOFL
 70
     0
  9
$DIMTVP
 40
0.0
  9
$DIMTIX
 70
     0
  9
$DIMSOXD
 70
     0
  9
$DIMSAH
 70
     0
  9
$DIMBLK1
  1

  9
$DIMBLK2
  1

  9
$DIMSTYLE
  2
STANDARD
  9
$DIMCLRD
 70
     0
  9
$DIMCLRE
 70
     0
  9
$DIMCLRT
 70
     0
  9
$DIMTFAC
 40
1.0
  9
$DIMGAP
 40
0.09
  9
$DIMJUST
 70
     0
  9
$DIMSD1
 70
     0
  9
$DIMSD2
 70
     0
  9
$DIMTOLJ
 70
     1
  9
$DIMTZIN
 70
     0
  9
$DIMALTZ
 70
     0
  9
$DIMALTTZ
 70
     0
  9
$DIMUPT
 70
     0
  9
$DIMDEC
 70
     4
  9
$DIMTDEC
 70
     4
  9
$DIMALTU
 70
     2
  9
$DIMALTTD
 70
     2
  9
$DIMTXSTY
  7
STANDARD
  9
$DIMAUNIT
 70
     0
  9
$DIMADEC
 70
     0
  9
$DIMALTRND
 40
0.0
  9
$DIMAZIN
 70
     0
  9
$DIMDSEP
 70
    46
  9
$DIMATFIT
 70
     3
  9
$DIMFRAC
 70
     0
  9
$DIMLDRBLK
  1

  9
$DIMLUNIT
 70
     2
  9
$DIMLWD
 70
    -2
  9
$DIMLWE
 70
    -2
  9
$DIMTMOVE
 70
     0
  9
$LUNITS
 70
     2
  9
$LUPREC
 70
     4
  9
$SKETCHINC
 40
0.1
  9
$FILLETRAD
 40
0.0
  9
$AUNITS
 70
     0
  9
$AUPREC
 70
     0
  9
$MENU
  1
.
  9
$ELEVATION
 40
0.0
  9
$PELEVATION
 40
0.0
  9
$THICKNESS
 40
0.0
  9
$LIMCHECK
 70
     0
  9
$CHAMFERA
 40
0.0
  9
$CHAMFERB
 40
0.0
  9
$CHAMFERC
 40
0.0
  9
$CHAMFERD
 40
0.0
  9
$SKPOLY
 70
     0
  9
$TDCREATE
 40
2452152.861626134
  9
$TDUCREATE
 40
2452152.486626134
  9
$TDUPDATE
 40
2452719.575553009
  9
$TDUUPDATE
 40
2452719.200553009
  9
$TDINDWG
 40
0.0203852083
  9
$TDUSRTIMER
 40
0.0203824306
  9
$USRTIMER
 70
     1
  9
$ANGBASE
 50
0.0
  9
$ANGDIR
 70
     0
  9
$PDMODE
 70
     0
  9
$PDSIZE
 40
0.0
  9
$PLINEWID
 40
0.0
  9
$SPLFRAME
 70
     0
  9
$SPLINETYPE
 70
     6
  9
$SPLINESEGS
 70
     8
  9
$HANDSEED
  5
1AC9
  9
$SURFTAB1
 70
     6
  9
$SURFTAB2
 70
     6
  9
$SURFTYPE
 70
     6
  9
$SURFU
 70
     6
  9
$SURFV
 70
     6
  9
$UCSBASE
  2

  9
$UCSNAME
  2

  9
$UCSORG
 10
0.0
 20
0.0
 30
0.0
  9
$UCSXDIR
 10
1.0
 20
0.0
 30
0.0
  9
$UCSYDIR
 10
0.0
 20
1.0
 30
0.0
  9
$UCSORTHOREF
  2

  9
$UCSORTHOVIEW
 70
     0
  9
$UCSORGTOP
 10
0.0
 20
0.0
 30
0.0
  9
$UCSORGBOTTOM
 10
0.0
 20
0.0
 30
0.0
  9
$UCSORGLEFT
 10
0.0
 20
0.0
 30
0.0
  9
$UCSORGRIGHT
 10
0.0
 20
0.0
 30
0.0
  9
$UCSORGFRONT
 10
0.0
 20
0.0
 30
0.0
  9
$UCSORGBACK
 10
0.0
 20
0.0
 30
0.0
  9
$PUCSBASE
  2

  9
$PUCSNAME
  2

  9
$PUCSORG
 10
0.0
 20
0.0
 30
0.0
  9
$PUCSXDIR
 10
1.0
 20
0.0
 30
0.0
  9
$PUCSYDIR
 10
0.0
 20
1.0
 30
0.0
  9
$PUCSORTHOREF
  2

  9
$PUCSORTHOVIEW
 70
     0
  9
$PUCSORGTOP
 10
0.0
 20
0.0
 30
0.0
  9
$PUCSORGBOTTOM
 10
0.0
 20
0.0
 30
0.0
  9
$PUCSORGLEFT
 10
0.0
 20
0.0
 30
0.0
  9
$PUCSORGRIGHT
 10
0.0
 20
0.0
 30
0.0
  9
$PUCSORGFRONT
 10
0.0
 20
0.0
 30
0.0
  9
$PUCSORGBACK
 10
0.0
 20
0.0
 30
0.0
  9
$USERI1
 70
     0
  9
$USERI2
 70
     0
  9
$USERI3
 70
     0
  9
$USERI4
 70
     0
  9
$USERI5
 70
     0
  9
$USERR1
 40
0.0
  9
$USERR2
 40
0.0
  9
$USERR3
 40
0.0
  9
$USERR4
 40
0.0
  9
$USERR5
 40
0.0
  9
$WORLDVIEW
 70
     1
  9
$SHADEDGE
 70
     3
  9
$SHADEDIF
 70
    70
  9
$TILEMODE
 70
     1
  9
$MAXACTVP
 70
    64
  9
$PINSBASE
 10
0.0
 20
0.0
 30
0.0
  9
$PLIMCHECK
 70
     0
  9
$PEXTMIN
 10
1.000000000000000E+20
 20
1.000000000000000E+20
 30
1.000000000000000E+20
  9
$PEXTMAX
 10
-1.000000000000000E+20
 20
-1.000000000000000E+20
 30
-1.000000000000000E+20
  9
$PLIMMIN
 10
0.0
 20
0.0
  9
$PLIMMAX
 10
12.0
 20
9.0
  9
$UNITMODE
 70
     0
  9
$VISRETAIN
 70
     1
  9
$PLINEGEN
 70
     0
  9
$PSLTSCALE
 70
     1
  9
$TREEDEPTH
 70
  3020
  9
$CMLSTYLE
  2
Standard
  9
$CMLJUST
 70
     0
  9
$CMLSCALE
 40
1.0
  9
$PROXYGRAPHICS
 70
     1
  9
$MEASUREMENT
 70
     0
  9
$CELWEIGHT
370
    -1
  9
$ENDCAPS
280
     0
  9
$JOINSTYLE
280
     0
  9
$LWDISPLAY
290
     0
  9
$INSUNITS
 70
     0
  9
$HYPERLINKBASE
  1

  9
$STYLESHEET
  1

  9
$XEDIT
290
     1
  9
$CEPSNTYPE
380
     0
  9
$PSTYLEMODE
290
     1
  9
$FINGERPRINTGUID
  2
{98FBE2C2-4A81-11D7-9C19-0040267F10D4}
  9
$VERSIONGUID
  2
{746F4484-5AD2-11D7-9C19-0040267F10D4}
  9
$EXTNAMES
290
     1
  9
$PSVPSCALE
 40
0.0
  9
$OLESTARTUP
290
     0
  0
ENDSEC
  0
SECTION
  2
CLASSES
  0
CLASS
  1
ACDBDICTIONARYWDFLT
  2
AcDbDictionaryWithDefault
  3
AutoCAD 2000
 90
        0
280
     0
281
     0
  0
CLASS
  1
ACDBPLACEHOLDER
  2
AcDbPlaceHolder
  3
AutoCAD 2000
 90
        0
280
     0
281
     0
  0
CLASS
  1
LAYOUT
  2
AcDbLayout
  3
AutoCAD 2000
 90
        0
280
     0
281
     0
  0
ENDSEC
  0
SECTION
  2
TABLES
  0
TABLE
  2
VPORT
  5
D6A
330
0
100
AcDbSymbolTable
 70
     3
  0
VPORT
  5
1AC8
330
D6A
100
AcDbSymbolTableRecord
100
AcDbViewportTableRecord
  2
*Active
 70
     0
 10
0.0
 20
0.0
 11
1.0
 21
1.0
 12
220.9265685542174
 22
161.6560278628748
 13
0.0
 23
0.0
 14
1.0
 24
1.0
 15
0.0
 25
0.0
 16
0.0
 26
0.0
 36
1.0
 17
0.0
 27
0.0
 37
0.0
 40
245.7722528032903
 41
2.210374639769452
 42
50.0
 43
0.0
 44
0.0
 50
0.0
 51
0.0
 71
     0
 72
   100
 73
     1
 74
     1
 75
     0
 76
     0
 77
     0
 78
     0
281
     0
 65
     1
110
0.0
120
0.0
130
0.0
111
1.0
121
0.0
131
0.0
112
0.0
122
1.0
132
0.0
 79
     0
146
0.0
  0
ENDTAB
  0
TABLE
  2
LTYPE
  5
D67
330
0
100
AcDbSymbolTable
 70
     3
  0
LTYPE
  5
D75
330
D67
100
AcDbSymbolTableRecord
100
AcDbLinetypeTableRecord
  2
ByBlock
 70
     0
  3

 72
    65
 73
     0
 40
0.0
  0
LTYPE
  5
D76
330
D67
100
AcDbSymbolTableRecord
100
AcDbLinetypeTableRecord
  2
ByLayer
 70
     0
  3

 72
    65
 73
     0
 40
0.0
  0
LTYPE
  5
D77
330
D67
100
AcDbSymbolTableRecord
100
AcDbLinetypeTableRecord
  2
CONTINUOUS
 70
     0
  3
Solid line
 72
    65
 73
     0
 40
0.0
  0
LTYPE
  5
D85
330
D67
100
AcDbSymbolTableRecord
100
AcDbLinetypeTableRecord
  2
LTYPE1
 70
     0
  3
CENTER
 72
    65
 73
     4
 40
10.0
 49
7.0
 74
     0
 49
-1.0
 74
     0
 49
1.0
 74
     0
 49
-1.0
 74
     0
  0
LTYPE
  5
D86
330
D67
100
AcDbSymbolTableRecord
100
AcDbLinetypeTableRecord
  2
LTYPE2
 70
     0
  3
CENTER
 72
    65
 73
     4
 40
15.0
 49
10.5
 74
     0
 49
-1.5
 74
     0
 49
1.5
 74
     0
 49
-1.5
 74
     0
  0
ENDTAB
  0
TABLE
  2
LAYER
  5
D64
330
0
100
AcDbSymbolTable
 70
   128
  0
LAYER
  5
D72
330
D64
100
AcDbSymbolTableRecord
100
AcDbLayerTableRecord
  2
0
 70
     0
 62
     7
  6
CONTINUOUS
370
    -3
390
D71
  0
LAYER
  5
D87
330
D64
100
AcDbSymbolTableRecord
100
AcDbLayerTableRecord
  2
1
 70
     0
 62
     7
  6
CONTINUOUS
370
    -3
390
D71
  0
LAYER
  5
D88
330
D64
100
AcDbSymbolTableRecord
100
AcDbLayerTableRecord
  2
2
 70
     0
 62
     7
  6
CONTINUOUS
370
    -3
390
D71
  0
LAYER
  5
D89
330
D64
100
AcDbSymbolTableRecord
100
AcDbLayerTableRecord
  2
3
 70
     0
 62
     7
  6
CONTINUOUS
370
    -3
390
D71
  0
LAYER
  5
D8A
330
D64
100
AcDbSymbolTableRecord
100
AcDbLayerTableRecord
  2
4
 70
     0
 62
     7
  6
CONTINUOUS
370
    -3
390
D71
  0
LAYER
  5
D8B
330
D64
100
AcDbSymbolTableRecord
100
AcDbLayerTableRecord
  2
5
 70
     0
 62
     7
  6
CONTINUOUS
370
    -3
390
D71
  0
LAYER
  5
D8C
330
D64
100
AcDbSymbolTableRecord
100
AcDbLayerTableRecord
  2
6
 70
     0
 62
     7
  6
CONTINUOUS
370
    -3
390
D71
  0
LAYER
  5
D8D
330
D64
100
AcDbSymbolTableRecord
100
AcDbLayerTableRecord
  2
7
 70
     0
 62
     7
  6
CONTINUOUS
370
    -3
390
D71
  0
LAYER
  5
D8E
330
D64
100
AcDbSymbolTableRecord
100
AcDbLayerTableRecord
  2
8
 70
     0
 62
     7
  6
CONTINUOUS
370
    -3
390
D71
  0
LAYER
  5
D8F
330
D64
100
AcDbSymbolTableRecord
100
AcDbLayerTableRecord
  2
9
 70
     0
 62
     7
  6
CONTINUOUS
370
    -3
390
D71
  0
LAYER
  5
D90
330
D64
100
AcDbSymbolTableRecord
100
AcDbLayerTableRecord
  2
10
 70
     0
 62
     7
  6
CONTINUOUS
370
    -3
390
D71
  0
LAYER
  5
D91
330
D64
100
AcDbSymbolTableRecord
100
AcDbLayerTableRecord
  2
11
 70
     0
 62
     7
  6
CONTINUOUS
370
    -3
390
D71
  0
LAYER
  5
D92
330
D64
100
AcDbSymbolTableRecord
100
AcDbLayerTableRecord
  2
12
 70
     0
 62
     7
  6
CONTINUOUS
370
    -3
390
D71
  0
LAYER
  5
D93
330
D64
100
AcDbSymbolTableRecord
100
AcDbLayerTableRecord
  2
13
 70
     0
 62
     7
  6
CONTINUOUS
370
    -3
390
D71
  0
LAYER
  5
D94
330
D64
100
AcDbSymbolTableRecord
100
AcDbLayerTableRecord
  2
14
 70
     0
 62
     7
  6
CONTINUOUS
370
    -3
390
D71
  0
LAYER
  5
D95
330
D64
100
AcDbSymbolTableRecord
100
AcDbLayerTableRecord
  2
15
 70
     0
 62
     7
  6
CONTINUOUS
370
    -3
390
D71
  0
LAYER
  5
D96
330
D64
100
AcDbSymbolTableRecord
100
AcDbLayerTableRecord
  2
16
 70
     0
 62
     7
  6
CONTINUOUS
370
    -3
390
D71
  0
LAYER
  5
D97
330
D64
100
AcDbSymbolTableRecord
100
AcDbLayerTableRecord
  2
17
 70
     0
 62
     7
  6
CONTINUOUS
370
    -3
390
D71
  0
LAYER
  5
D98
330
D64
100
AcDbSymbolTableRecord
100
AcDbLayerTableRecord
  2
18
 70
     0
 62
     7
  6
CONTINUOUS
370
    -3
390
D71
  0
LAYER
  5
D99
330
D64
100
AcDbSymbolTableRecord
100
AcDbLayerTableRecord
  2
19
 70
     0
 62
     7
  6
CONTINUOUS
370
    -3
390
D71
  0
LAYER
  5
D9A
330
D64
100
AcDbSymbolTableRecord
100
AcDbLayerTableRecord
  2
20
 70
     0
 62
     7
  6
CONTINUOUS
370
    -3
390
D71
  0
LAYER
  5
D9B
330
D64
100
AcDbSymbolTableRecord
100
AcDbLayerTableRecord
  2
21
 70
     0
 62
     7
  6
CONTINUOUS
370
    -3
390
D71
  0
LAYER
  5
D9C
330
D64
100
AcDbSymbolTableRecord
100
AcDbLayerTableRecord
  2
22
 70
     0
 62
     7
  6
CONTINUOUS
370
    -3
390
D71
  0
LAYER
  5
D9D
330
D64
100
AcDbSymbolTableRecord
100
AcDbLayerTableRecord
  2
23
 70
     0
 62
     7
  6
CONTINUOUS
370
    -3
390
D71
  0
LAYER
  5
D9E
330
D64
100
AcDbSymbolTableRecord
100
AcDbLayerTableRecord
  2
24
 70
     0
 62
     7
  6
CONTINUOUS
370
    -3
390
D71
  0
LAYER
  5
D9F
330
D64
100
AcDbSymbolTableRecord
100
AcDbLayerTableRecord
  2
25
 70
     0
 62
     7
  6
CONTINUOUS
370
    -3
390
D71
  0
LAYER
  5
DA0
330
D64
100
AcDbSymbolTableRecord
100
AcDbLayerTableRecord
  2
26
 70
     0
 62
     7
  6
CONTINUOUS
370
    -3
390
D71
  0
LAYER
  5
DA1
330
D64
100
AcDbSymbolTableRecord
100
AcDbLayerTableRecord
  2
27
 70
     0
 62
     7
  6
CONTINUOUS
370
    -3
390
D71
  0
LAYER
  5
DA2
330
D64
100
AcDbSymbolTableRecord
100
AcDbLayerTableRecord
  2
28
 70
     0
 62
     7
  6
CONTINUOUS
370
    -3
390
D71
  0
LAYER
  5
DA3
330
D64
100
AcDbSymbolTableRecord
100
AcDbLayerTableRecord
  2
29
 70
     0
 62
     7
  6
CONTINUOUS
370
    -3
390
D71
  0
LAYER
  5
DA4
330
D64
100
AcDbSymbolTableRecord
100
AcDbLayerTableRecord
  2
30
 70
     0
 62
     7
  6
CONTINUOUS
370
    -3
390
D71
  0
LAYER
  5
DA5
330
D64
100
AcDbSymbolTableRecord
100
AcDbLayerTableRecord
  2
31
 70
     0
 62
     7
  6
CONTINUOUS
370
    -3
390
D71
  0
LAYER
  5
DA6
330
D64
100
AcDbSymbolTableRecord
100
AcDbLayerTableRecord
  2
32
 70
     0
 62
     7
  6
CONTINUOUS
370
    -3
390
D71
  0
LAYER
  5
DA7
330
D64
100
AcDbSymbolTableRecord
100
AcDbLayerTableRecord
  2
33
 70
     0
 62
     7
  6
CONTINUOUS
370
    -3
390
D71
  0
LAYER
  5
DA8
330
D64
100
AcDbSymbolTableRecord
100
AcDbLayerTableRecord
  2
34
 70
     0
 62
     7
  6
CONTINUOUS
370
    -3
390
D71
  0
LAYER
  5
DA9
330
D64
100
AcDbSymbolTableRecord
100
AcDbLayerTableRecord
  2
35
 70
     0
 62
     7
  6
CONTINUOUS
370
    -3
390
D71
  0
LAYER
  5
DAA
330
D64
100
AcDbSymbolTableRecord
100
AcDbLayerTableRecord
  2
36
 70
     0
 62
     7
  6
CONTINUOUS
370
    -3
390
D71
  0
LAYER
  5
DAB
330
D64
100
AcDbSymbolTableRecord
100
AcDbLayerTableRecord
  2
37
 70
     0
 62
     7
  6
CONTINUOUS
370
    -3
390
D71
  0
LAYER
  5
DAC
330
D64
100
AcDbSymbolTableRecord
100
AcDbLayerTableRecord
  2
38
 70
     0
 62
     7
  6
CONTINUOUS
370
    -3
390
D71
  0
LAYER
  5
DAD
330
D64
100
AcDbSymbolTableRecord
100
AcDbLayerTableRecord
  2
39
 70
     0
 62
     7
  6
CONTINUOUS
370
    -3
390
D71
  0
LAYER
  5
DAE
330
D64
100
AcDbSymbolTableRecord
100
AcDbLayerTableRecord
  2
40
 70
     0
 62
     7
  6
CONTINUOUS
370
    -3
390
D71
  0
LAYER
  5
DAF
330
D64
100
AcDbSymbolTableRecord
100
AcDbLayerTableRecord
  2
41
 70
     0
 62
     7
  6
CONTINUOUS
370
    -3
390
D71
  0
LAYER
  5
DB0
330
D64
100
AcDbSymbolTableRecord
100
AcDbLayerTableRecord
  2
42
 70
     0
 62
     7
  6
CONTINUOUS
370
    -3
390
D71
  0
LAYER
  5
DB1
330
D64
100
AcDbSymbolTableRecord
100
AcDbLayerTableRecord
  2
43
 70
     0
 62
     7
  6
CONTINUOUS
370
    -3
390
D71
  0
LAYER
  5
DB2
330
D64
100
AcDbSymbolTableRecord
100
AcDbLayerTableRecord
  2
44
 70
     0
 62
     7
  6
CONTINUOUS
370
    -3
390
D71
  0
LAYER
  5
DB3
330
D64
100
AcDbSymbolTableRecord
100
AcDbLayerTableRecord
  2
45
 70
     0
 62
     7
  6
CONTINUOUS
370
    -3
390
D71
  0
LAYER
  5
DB4
330
D64
100
AcDbSymbolTableRecord
100
AcDbLayerTableRecord
  2
46
 70
     0
 62
     7
  6
CONTINUOUS
370
    -3
390
D71
  0
LAYER
  5
DB5
330
D64
100
AcDbSymbolTableRecord
100
AcDbLayerTableRecord
  2
47
 70
     0
 62
     7
  6
CONTINUOUS
370
    -3
390
D71
  0
LAYER
  5
DB6
330
D64
100
AcDbSymbolTableRecord
100
AcDbLayerTableRecord
  2
48
 70
     0
 62
     7
  6
CONTINUOUS
370
    -3
390
D71
  0
LAYER
  5
DB7
330
D64
100
AcDbSymbolTableRecord
100
AcDbLayerTableRecord
  2
49
 70
     0
 62
     7
  6
CONTINUOUS
370
    -3
390
D71
  0
LAYER
  5
DB8
330
D64
100
AcDbSymbolTableRecord
100
AcDbLayerTableRecord
  2
50
 70
     0
 62
     7
  6
CONTINUOUS
370
    -3
390
D71
  0
LAYER
  5
DB9
330
D64
100
AcDbSymbolTableRecord
100
AcDbLayerTableRecord
  2
51
 70
     0
 62
     7
  6
CONTINUOUS
370
    -3
390
D71
  0
LAYER
  5
DBA
330
D64
100
AcDbSymbolTableRecord
100
AcDbLayerTableRecord
  2
52
 70
     0
 62
     7
  6
CONTINUOUS
370
    -3
390
D71
  0
LAYER
  5
DBB
330
D64
100
AcDbSymbolTableRecord
100
AcDbLayerTableRecord
  2
53
 70
     0
 62
     7
  6
CONTINUOUS
370
    -3
390
D71
  0
LAYER
  5
DBC
330
D64
100
AcDbSymbolTableRecord
100
AcDbLayerTableRecord
  2
54
 70
     0
 62
     7
  6
CONTINUOUS
370
    -3
390
D71
  0
LAYER
  5
DBD
330
D64
100
AcDbSymbolTableRecord
100
AcDbLayerTableRecord
  2
55
 70
     0
 62
     7
  6
CONTINUOUS
370
    -3
390
D71
  0
LAYER
  5
DBE
330
D64
100
AcDbSymbolTableRecord
100
AcDbLayerTableRecord
  2
56
 70
     0
 62
     7
  6
CONTINUOUS
370
    -3
390
D71
  0
LAYER
  5
DBF
330
D64
100
AcDbSymbolTableRecord
100
AcDbLayerTableRecord
  2
57
 70
     0
 62
     7
  6
CONTINUOUS
370
    -3
390
D71
  0
LAYER
  5
DC0
330
D64
100
AcDbSymbolTableRecord
100
AcDbLayerTableRecord
  2
58
 70
     0
 62
     7
  6
CONTINUOUS
370
    -3
390
D71
  0
LAYER
  5
DC1
330
D64
100
AcDbSymbolTableRecord
100
AcDbLayerTableRecord
  2
59
 70
     0
 62
     7
  6
CONTINUOUS
370
    -3
390
D71
  0
LAYER
  5
DC2
330
D64
100
AcDbSymbolTableRecord
100
AcDbLayerTableRecord
  2
60
 70
     0
 62
     7
  6
CONTINUOUS
370
    -3
390
D71
  0
LAYER
  5
DC3
330
D64
100
AcDbSymbolTableRecord
100
AcDbLayerTableRecord
  2
61
 70
     0
 62
     7
  6
CONTINUOUS
370
    -3
390
D71
  0
LAYER
  5
DC4
330
D64
100
AcDbSymbolTableRecord
100
AcDbLayerTableRecord
  2
62
 70
     0
 62
     7
  6
CONTINUOUS
370
    -3
390
D71
  0
LAYER
  5
DC5
330
D64
100
AcDbSymbolTableRecord
100
AcDbLayerTableRecord
  2
63
 70
     0
 62
     7
  6
CONTINUOUS
370
    -3
390
D71
  0
LAYER
  5
DC6
330
D64
100
AcDbSymbolTableRecord
100
AcDbLayerTableRecord
  2
64
 70
     0
 62
     7
  6
CONTINUOUS
370
    -3
390
D71
  0
LAYER
  5
DC7
330
D64
100
AcDbSymbolTableRecord
100
AcDbLayerTableRecord
  2
65
 70
     0
 62
     7
  6
CONTINUOUS
370
    -3
390
D71
  0
LAYER
  5
DC8
330
D64
100
AcDbSymbolTableRecord
100
AcDbLayerTableRecord
  2
66
 70
     0
 62
     7
  6
CONTINUOUS
370
    -3
390
D71
  0
LAYER
  5
DC9
330
D64
100
AcDbSymbolTableRecord
100
AcDbLayerTableRecord
  2
67
 70
     0
 62
     7
  6
CONTINUOUS
370
    -3
390
D71
  0
LAYER
  5
DCA
330
D64
100
AcDbSymbolTableRecord
100
AcDbLayerTableRecord
  2
68
 70
     0
 62
     7
  6
CONTINUOUS
370
    -3
390
D71
  0
LAYER
  5
DCB
330
D64
100
AcDbSymbolTableRecord
100
AcDbLayerTableRecord
  2
69
 70
     0
 62
     7
  6
CONTINUOUS
370
    -3
390
D71
  0
LAYER
  5
DCC
330
D64
100
AcDbSymbolTableRecord
100
AcDbLayerTableRecord
  2
70
 70
     0
 62
     7
  6
CONTINUOUS
370
    -3
390
D71
  0
LAYER
  5
DCD
330
D64
100
AcDbSymbolTableRecord
100
AcDbLayerTableRecord
  2
71
 70
     0
 62
     7
  6
CONTINUOUS
370
    -3
390
D71
  0
LAYER
  5
DCE
330
D64
100
AcDbSymbolTableRecord
100
AcDbLayerTableRecord
  2
72
 70
     0
 62
     7
  6
CONTINUOUS
370
    -3
390
D71
  0
LAYER
  5
DCF
330
D64
100
AcDbSymbolTableRecord
100
AcDbLayerTableRecord
  2
73
 70
     0
 62
     7
  6
CONTINUOUS
370
    -3
390
D71
  0
LAYER
  5
DD0
330
D64
100
AcDbSymbolTableRecord
100
AcDbLayerTableRecord
  2
74
 70
     0
 62
     7
  6
CONTINUOUS
370
    -3
390
D71
  0
LAYER
  5
DD1
330
D64
100
AcDbSymbolTableRecord
100
AcDbLayerTableRecord
  2
75
 70
     0
 62
     7
  6
CONTINUOUS
370
    -3
390
D71
  0
LAYER
  5
DD2
330
D64
100
AcDbSymbolTableRecord
100
AcDbLayerTableRecord
  2
76
 70
     0
 62
     7
  6
CONTINUOUS
370
    -3
390
D71
  0
LAYER
  5
DD3
330
D64
100
AcDbSymbolTableRecord
100
AcDbLayerTableRecord
  2
77
 70
     0
 62
     7
  6
CONTINUOUS
370
    -3
390
D71
  0
LAYER
  5
DD4
330
D64
100
AcDbSymbolTableRecord
100
AcDbLayerTableRecord
  2
78
 70
     0
 62
     7
  6
CONTINUOUS
370
    -3
390
D71
  0
LAYER
  5
DD5
330
D64
100
AcDbSymbolTableRecord
100
AcDbLayerTableRecord
  2
79
 70
     0
 62
     7
  6
CONTINUOUS
370
    -3
390
D71
  0
LAYER
  5
DD6
330
D64
100
AcDbSymbolTableRecord
100
AcDbLayerTableRecord
  2
80
 70
     0
 62
     7
  6
CONTINUOUS
370
    -3
390
D71
  0
LAYER
  5
DD7
330
D64
100
AcDbSymbolTableRecord
100
AcDbLayerTableRecord
  2
81
 70
     0
 62
     7
  6
CONTINUOUS
370
    -3
390
D71
  0
LAYER
  5
DD8
330
D64
100
AcDbSymbolTableRecord
100
AcDbLayerTableRecord
  2
82
 70
     0
 62
     7
  6
CONTINUOUS
370
    -3
390
D71
  0
LAYER
  5
DD9
330
D64
100
AcDbSymbolTableRecord
100
AcDbLayerTableRecord
  2
83
 70
     0
 62
     7
  6
CONTINUOUS
370
    -3
390
D71
  0
LAYER
  5
DDA
330
D64
100
AcDbSymbolTableRecord
100
AcDbLayerTableRecord
  2
84
 70
     0
 62
     7
  6
CONTINUOUS
370
    -3
390
D71
  0
LAYER
  5
DDB
330
D64
100
AcDbSymbolTableRecord
100
AcDbLayerTableRecord
  2
85
 70
     0
 62
     7
  6
CONTINUOUS
370
    -3
390
D71
  0
LAYER
  5
DDC
330
D64
100
AcDbSymbolTableRecord
100
AcDbLayerTableRecord
  2
86
 70
     0
 62
     7
  6
CONTINUOUS
370
    -3
390
D71
  0
LAYER
  5
DDD
330
D64
100
AcDbSymbolTableRecord
100
AcDbLayerTableRecord
  2
87
 70
     0
 62
     7
  6
CONTINUOUS
370
    -3
390
D71
  0
LAYER
  5
DDE
330
D64
100
AcDbSymbolTableRecord
100
AcDbLayerTableRecord
  2
88
 70
     0
 62
     7
  6
CONTINUOUS
370
    -3
390
D71
  0
LAYER
  5
DDF
330
D64
100
AcDbSymbolTableRecord
100
AcDbLayerTableRecord
  2
89
 70
     0
 62
     7
  6
CONTINUOUS
370
    -3
390
D71
  0
LAYER
  5
DE0
330
D64
100
AcDbSymbolTableRecord
100
AcDbLayerTableRecord
  2
90
 70
     0
 62
     7
  6
CONTINUOUS
370
    -3
390
D71
  0
LAYER
  5
DE1
330
D64
100
AcDbSymbolTableRecord
100
AcDbLayerTableRecord
  2
91
 70
     0
 62
     7
  6
CONTINUOUS
370
    -3
390
D71
  0
LAYER
  5
DE2
330
D64
100
AcDbSymbolTableRecord
100
AcDbLayerTableRecord
  2
92
 70
     0
 62
     7
  6
CONTINUOUS
370
    -3
390
D71
  0
LAYER
  5
DE3
330
D64
100
AcDbSymbolTableRecord
100
AcDbLayerTableRecord
  2
93
 70
     0
 62
     7
  6
CONTINUOUS
370
    -3
390
D71
  0
LAYER
  5
DE4
330
D64
100
AcDbSymbolTableRecord
100
AcDbLayerTableRecord
  2
94
 70
     0
 62
     7
  6
CONTINUOUS
370
    -3
390
D71
  0
LAYER
  5
DE5
330
D64
100
AcDbSymbolTableRecord
100
AcDbLayerTableRecord
  2
95
 70
     0
 62
     7
  6
CONTINUOUS
370
    -3
390
D71
  0
LAYER
  5
DE6
330
D64
100
AcDbSymbolTableRecord
100
AcDbLayerTableRecord
  2
96
 70
     0
 62
     7
  6
CONTINUOUS
370
    -3
390
D71
  0
LAYER
  5
DE7
330
D64
100
AcDbSymbolTableRecord
100
AcDbLayerTableRecord
  2
97
 70
     0
 62
     7
  6
CONTINUOUS
370
    -3
390
D71
  0
LAYER
  5
DE8
330
D64
100
AcDbSymbolTableRecord
100
AcDbLayerTableRecord
  2
98
 70
     0
 62
     7
  6
CONTINUOUS
370
    -3
390
D71
  0
LAYER
  5
DE9
330
D64
100
AcDbSymbolTableRecord
100
AcDbLayerTableRecord
  2
99
 70
     0
 62
     7
  6
CONTINUOUS
370
    -3
390
D71
  0
LAYER
  5
DEA
330
D64
100
AcDbSymbolTableRecord
100
AcDbLayerTableRecord
  2
100
 70
     0
 62
     7
  6
CONTINUOUS
370
    -3
390
D71
  0
LAYER
  5
DEB
330
D64
100
AcDbSymbolTableRecord
100
AcDbLayerTableRecord
  2
101
 70
     0
 62
     7
  6
CONTINUOUS
370
    -3
390
D71
  0
LAYER
  5
DEC
330
D64
100
AcDbSymbolTableRecord
100
AcDbLayerTableRecord
  2
102
 70
     0
 62
     7
  6
CONTINUOUS
370
    -3
390
D71
  0
LAYER
  5
DED
330
D64
100
AcDbSymbolTableRecord
100
AcDbLayerTableRecord
  2
103
 70
     0
 62
     7
  6
CONTINUOUS
370
    -3
390
D71
  0
LAYER
  5
DEE
330
D64
100
AcDbSymbolTableRecord
100
AcDbLayerTableRecord
  2
104
 70
     0
 62
     7
  6
CONTINUOUS
370
    -3
390
D71
  0
LAYER
  5
DEF
330
D64
100
AcDbSymbolTableRecord
100
AcDbLayerTableRecord
  2
105
 70
     0
 62
     7
  6
CONTINUOUS
370
    -3
390
D71
  0
LAYER
  5
DF0
330
D64
100
AcDbSymbolTableRecord
100
AcDbLayerTableRecord
  2
106
 70
     0
 62
     7
  6
CONTINUOUS
370
    -3
390
D71
  0
LAYER
  5
DF1
330
D64
100
AcDbSymbolTableRecord
100
AcDbLayerTableRecord
  2
107
 70
     0
 62
     7
  6
CONTINUOUS
370
    -3
390
D71
  0
LAYER
  5
DF2
330
D64
100
AcDbSymbolTableRecord
100
AcDbLayerTableRecord
  2
108
 70
     0
 62
     7
  6
CONTINUOUS
370
    -3
390
D71
  0
LAYER
  5
DF3
330
D64
100
AcDbSymbolTableRecord
100
AcDbLayerTableRecord
  2
109
 70
     0
 62
     7
  6
CONTINUOUS
370
    -3
390
D71
  0
LAYER
  5
DF4
330
D64
100
AcDbSymbolTableRecord
100
AcDbLayerTableRecord
  2
110
 70
     0
 62
     7
  6
CONTINUOUS
370
    -3
390
D71
  0
LAYER
  5
DF5
330
D64
100
AcDbSymbolTableRecord
100
AcDbLayerTableRecord
  2
111
 70
     0
 62
     7
  6
CONTINUOUS
370
    -3
390
D71
  0
LAYER
  5
DF6
330
D64
100
AcDbSymbolTableRecord
100
AcDbLayerTableRecord
  2
112
 70
     0
 62
     7
  6
CONTINUOUS
370
    -3
390
D71
  0
LAYER
  5
DF7
330
D64
100
AcDbSymbolTableRecord
100
AcDbLayerTableRecord
  2
113
 70
     0
 62
     7
  6
CONTINUOUS
370
    -3
390
D71
  0
LAYER
  5
DF8
330
D64
100
AcDbSymbolTableRecord
100
AcDbLayerTableRecord
  2
114
 70
     0
 62
     7
  6
CONTINUOUS
370
    -3
390
D71
  0
LAYER
  5
DF9
330
D64
100
AcDbSymbolTableRecord
100
AcDbLayerTableRecord
  2
115
 70
     0
 62
     7
  6
CONTINUOUS
370
    -3
390
D71
  0
LAYER
  5
DFA
330
D64
100
AcDbSymbolTableRecord
100
AcDbLayerTableRecord
  2
116
 70
     0
 62
     7
  6
CONTINUOUS
370
    -3
390
D71
  0
LAYER
  5
DFB
330
D64
100
AcDbSymbolTableRecord
100
AcDbLayerTableRecord
  2
117
 70
     0
 62
     7
  6
CONTINUOUS
370
    -3
390
D71
  0
LAYER
  5
DFC
330
D64
100
AcDbSymbolTableRecord
100
AcDbLayerTableRecord
  2
118
 70
     0
 62
     7
  6
CONTINUOUS
370
    -3
390
D71
  0
LAYER
  5
DFD
330
D64
100
AcDbSymbolTableRecord
100
AcDbLayerTableRecord
  2
119
 70
     0
 62
     7
  6
CONTINUOUS
370
    -3
390
D71
  0
LAYER
  5
DFE
330
D64
100
AcDbSymbolTableRecord
100
AcDbLayerTableRecord
  2
120
 70
     0
 62
     7
  6
CONTINUOUS
370
    -3
390
D71
  0
LAYER
  5
DFF
330
D64
100
AcDbSymbolTableRecord
100
AcDbLayerTableRecord
  2
121
 70
     0
 62
     7
  6
CONTINUOUS
370
    -3
390
D71
  0
LAYER
  5
E00
330
D64
100
AcDbSymbolTableRecord
100
AcDbLayerTableRecord
  2
122
 70
     0
 62
     7
  6
CONTINUOUS
370
    -3
390
D71
  0
LAYER
  5
E01
330
D64
100
AcDbSymbolTableRecord
100
AcDbLayerTableRecord
  2
123
 70
     0
 62
     7
  6
CONTINUOUS
370
    -3
390
D71
  0
LAYER
  5
E02
330
D64
100
AcDbSymbolTableRecord
100
AcDbLayerTableRecord
  2
124
 70
     0
 62
     7
  6
CONTINUOUS
370
    -3
390
D71
  0
LAYER
  5
E03
330
D64
100
AcDbSymbolTableRecord
100
AcDbLayerTableRecord
  2
125
 70
     0
 62
     7
  6
CONTINUOUS
370
    -3
390
D71
  0
LAYER
  5
E04
330
D64
100
AcDbSymbolTableRecord
100
AcDbLayerTableRecord
  2
126
 70
     0
 62
     7
  6
CONTINUOUS
370
    -3
390
D71
  0
LAYER
  5
E05
330
D64
100
AcDbSymbolTableRecord
100
AcDbLayerTableRecord
  2
127
 70
     0
 62
     7
  6
CONTINUOUS
370
    -3
390
D71
  0
ENDTAB
  0
TABLE
  2
STYLE
  5
D65
330
0
100
AcDbSymbolTable
 70
    16
  0
STYLE
  5
D73
330
D65
100
AcDbSymbolTableRecord
100
AcDbTextStyleTableRecord
  2
STANDARD
 70
     0
 40
0.0
 41
1.0
 50
0.0
 71
     0
 42
0.2
  3
txt
  4

  0
STYLE
  5
E06
330
D65
100
AcDbSymbolTableRecord
100
AcDbTextStyleTableRecord
  2
KANJI0
 70
     0
 40
2.5
 41
0.8
 50
0.0
 71
     0
 42
2.5
  3
txt
  4
bigfont
  0
STYLE
  5
E07
330
D65
100
AcDbSymbolTableRecord
100
AcDbTextStyleTableRecord
  2
KANJI1
 70
     0
 40
2.5
 41
0.8
 50
0.0
 71
     0
 42
2.5
  3
txt
  4
bigfont
  0
STYLE
  5
E08
330
D65
100
AcDbSymbolTableRecord
100
AcDbTextStyleTableRecord
  2
KANJI2
 70
     0
 40
3.0
 41
0.9
 50
0.0
 71
     0
 42
3.0
  3
txt
  4
bigfont
  0
STYLE
  5
E09
330
D65
100
AcDbSymbolTableRecord
100
AcDbTextStyleTableRecord
  2
KANJI3
 70
     0
 40
2.0
 41
1.0
 50
0.0
 71
     0
 42
2.0
  3
txt
  4
bigfont
  0
STYLE
  5
E0A
330
D65
100
AcDbSymbolTableRecord
100
AcDbTextStyleTableRecord
  2
KANJI4
 70
     0
 40
2.5
 41
0.8332
 50
0.0
 71
     0
 42
2.5
  3
txt
  4
bigfont
  0
STYLE
  5
E0B
330
D65
100
AcDbSymbolTableRecord
100
AcDbTextStyleTableRecord
  2
KANJI5
 70
     0
 40
2.5
 41
0.88
 50
0.0
 71
     0
 42
2.5
  3
txt
  4
bigfont
  0
STYLE
  5
E0C
330
D65
100
AcDbSymbolTableRecord
100
AcDbTextStyleTableRecord
  2
KANJI6
 70
     0
 40
2.399999999999999
 41
0.833333333
 50
0.0
 71
     0
 42
2.399999999999999
  3
txt
  4
bigfont
  0
STYLE
  5
E0D
330
D65
100
AcDbSymbolTableRecord
100
AcDbTextStyleTableRecord
  2
KANJI7
 70
     0
 40
2.399999999999999
 41
0.833333333
 50
0.0
 71
     0
 42
2.399999999999999
  3
txt
  4
bigfont
  0
STYLE
  5
E0E
330
D65
100
AcDbSymbolTableRecord
100
AcDbTextStyleTableRecord
  2
KANJI8
 70
     0
 40
2.2
 41
0.88
 50
0.0
 71
     0
 42
2.2
  3
txt
  4
bigfont
  0
STYLE
  5
E0F
330
D65
100
AcDbSymbolTableRecord
100
AcDbTextStyleTableRecord
  2
KANJI9
 70
     0
 40
2.5
 41
0.9336
 50
0.0
 71
     0
 42
2.5
  3
txt
  4
bigfont
  0
STYLE
  5
E10
330
D65
100
AcDbSymbolTableRecord
100
AcDbTextStyleTableRecord
  2
KANJI10
 70
     0
 40
2.5
 41
0.8
 50
0.0
 71
     0
 42
2.5
  3
txt
  4
bigfont
  0
STYLE
  5
E11
330
D65
100
AcDbSymbolTableRecord
100
AcDbTextStyleTableRecord
  2
KANJI11
 70
     0
 40
2.759999999999998
 41
0.739130435
 50
0.0
 71
     0
 42
2.759999999999998
  3
txt
  4
bigfont
  0
STYLE
  5
E12
330
D65
100
AcDbSymbolTableRecord
100
AcDbTextStyleTableRecord
  2
KANJI12
 70
     0
 40
2.483999999999999
 41
0.739130435
 50
0.0
 71
     0
 42
2.483999999999999
  3
txt
  4
bigfont
  0
STYLE
  5
E13
330
D65
100
AcDbSymbolTableRecord
100
AcDbTextStyleTableRecord
  2
KANJI13
 70
     0
 40
2.483999999999999
 41
0.739130435
 50
0.0
 71
     0
 42
2.483999999999999
  3
txt
  4
bigfont
  0
STYLE
  5
E14
330
D65
100
AcDbSymbolTableRecord
100
AcDbTextStyleTableRecord
  2
KANJI14
 70
     0
 40
3.0
 41
0.9
 50
10.0
 71
     0
 42
3.0
  3
txt
  4
bigfont
  0
ENDTAB
  0
TABLE
  2
VIEW
  5
D68
330
0
100
AcDbSymbolTable
 70
     0
  0
ENDTAB
  0
TABLE
  2
UCS
  5
D69
330
0
100
AcDbSymbolTable
 70
     0
  0
ENDTAB
  0
TABLE
  2
APPID
  5
D6B
330
0
100
AcDbSymbolTable
 70
     1
  0
APPID
  5
D74
330
D6B
100
AcDbSymbolTableRecord
100
AcDbRegAppTableRecord
  2
ACAD
 70
     0
  0
ENDTAB
  0
TABLE
  2
DIMSTYLE
  5
D6C
330
0
100
AcDbSymbolTable
 70
     1
100
AcDbDimStyleTable
 71
     0
  0
DIMSTYLE
105
E15
330
D6C
100
AcDbSymbolTableRecord
100
AcDbDimStyleTableRecord
  2
STANDARD
 70
     0
279
     2
340
D73
  0
ENDTAB
  0
TABLE
  2
BLOCK_RECORD
  5
D63
330
0
100
AcDbSymbolTable
 70
     2
  0
BLOCK_RECORD
  5
D80
330
D63
100
AcDbSymbolTableRecord
100
AcDbBlockTableRecord
  2
*Model_Space
340
D83
  0
BLOCK_RECORD
  5
D7C
330
D63
100
AcDbSymbolTableRecord
100
AcDbBlockTableRecord
  2
*Paper_Space
340
D7F
  0
BLOCK_RECORD
  5
E18
330
D63
100
AcDbSymbolTableRecord
100
AcDbBlockTableRecord
  2
$MODEL_SPACE
340
0
  0
BLOCK_RECORD
  5
E1B
330
D63
100
AcDbSymbolTableRecord
100
AcDbBlockTableRecord
  2
$PAPER_SPACE
340
0
  0
ENDTAB
  0
ENDSEC
  0
SECTION
  2
BLOCKS
  0
BLOCK
  5
D81
330
D80
100
AcDbEntity
  8
0
100
AcDbBlockBegin
  2
*Model_Space
 70
     0
 10
0.0
 20
0.0
 30
0.0
  3
*Model_Space
  1

  0
ENDBLK
  5
D82
330
D80
100
AcDbEntity
  8
0
100
AcDbBlockEnd
  0
BLOCK
  5
D7D
330
D7C
100
AcDbEntity
 67
     1
  8
0
100
AcDbBlockBegin
  2
*Paper_Space
 70
     0
 10
0.0
 20
0.0
 30
0.0
  3
*Paper_Space
  1

  0
ENDBLK
  5
D7E
330
D7C
100
AcDbEntity
 67
     1
  8
0
100
AcDbBlockEnd
  0
BLOCK
  5
E19
330
E18
100
AcDbEntity
  8
0
100
AcDbBlockBegin
  2
$MODEL_SPACE
 70
     0
 10
0.0
 20
0.0
 30
0.0
  3
$MODEL_SPACE
  1

  0
ENDBLK
  5
E1A
330
E18
100
AcDbEntity
  8
0
100
AcDbBlockEnd
  0
BLOCK
  5
E1C
330
E1B
100
AcDbEntity
  8
0
100
AcDbBlockBegin
  2
$PAPER_SPACE
 70
     0
 10
0.0
 20
0.0
 30
0.0
  3
$PAPER_SPACE
  1

  0
ENDBLK
  5
E1D
330
E1B
100
AcDbEntity
  8
0
100
AcDbBlockEnd
  0
ENDSEC
  0
SECTION
  2
ENTITIES
  0
LINE
  5
E1E
330
D80
100
AcDbEntity
  8
0
  6
Continuous
 62
     3
100
AcDbLine
 10
145.0
 20
122.0
 30
0.0
 11
145.0
 21
123.5
 31
0.0
  0
LINE
  5
E1F
330
D80
100
AcDbEntity
  8
0
  6
Continuous
 62
     3
100
AcDbLine
 10
145.0
 20
123.5
 30
0.0
 11
49.0
 21
123.5
 31
0.0
  0
LINE
  5
E20
330
D80
100
AcDbEntity
  8
0
  6
Continuous
 62
     3
100
AcDbLine
 10
49.0
 20
123.5
 30
0.0
 11
49.0
 21
122.0
 31
0.0
  0
POINT
  5
E21
330
D80
100
AcDbEntity
  8
0
  6
Continuous
 62
     3
100
AcDbPoint
 10
142.5
 20
193.5
 30
0.0
  0
LINE
  5
E22
330
D80
100
AcDbEntity
  8
0
  6
Continuous
 62
     3
100
AcDbLine
 10
49.0
 20
123.5
 30
0.0
 11
145.0
 21
123.5
 31
0.0
  0
POINT
  5
E23
330
D80
100
AcDbEntity
  8
0
  6
Continuous
 62
     3
100
AcDbPoint
 10
51.5
 20
194.0
 30
0.0
  0
LINE
  5
E24
330
D80
100
AcDbEntity
  8
0
  6
Continuous
 62
     3
100
AcDbLine
 10
50.6
 20
194.0
 30
0.0
 11
51.6
 21
194.0
 31
0.0
  0
LINE
  5
E25
330
D80
100
AcDbEntity
  8
0
  6
Continuous
 62
     3
100
AcDbLine
 10
143.4
 20
194.0
 30
0.0
 11
142.5
 21
194.0
 31
0.0
  0
LINE
  5
E26
330
D80
100
AcDbEntity
  8
0
  6
Continuous
 62
     3
100
AcDbLine
 10
50.6
 20
123.5999999999996
 30
0.0
 11
49.0
 21
123.5999999999996
 31
0.0
  0
ARC
  5
E27
330
D80
100
AcDbEntity
  8
0
  6
Continuous
 62
     3
100
AcDbCircle
 10
50.0
 20
194.5999999999999
 30
0.0
 40
1.0
100
AcDbArc
 50
90.0
 51
180.0
  0
LINE
  5
E28
330
D80
100
AcDbEntity
  8
0
  6
Continuous
 62
     3
100
AcDbLine
 10
49.0
 20
123.5999999999996
 30
0.0
 11
49.0
 21
194.5999999999999
 31
0.0
  0
ARC
  5
E29
330
D80
100
AcDbEntity
  8
0
  6
Continuous
 62
     3
100
AcDbCircle
 10
144.0
 20
194.5999999999999
 30
0.0
 40
1.0
100
AcDbArc
 50
0.0
 51
90.0
  0
LINE
  5
E2A
330
D80
100
AcDbEntity
  8
0
  6
Continuous
 62
     3
100
AcDbLine
 10
145.0
 20
194.5999999999999
 30
0.0
 11
145.0
 21
123.5999999999996
 31
0.0
  0
LINE
  5
E2B
330
D80
100
AcDbEntity
  8
0
  6
Continuous
 62
     3
100
AcDbLine
 10
145.0
 20
123.5999999999996
 30
0.0
 11
143.4
 21
123.5999999999996
 31
0.0
  0
LINE
  5
E2C
330
D80
100
AcDbEntity
  8
0
  6
Continuous
 62
     3
100
AcDbLine
 10
55.0
 20
206.5999999999999
 30
0.0
 11
61.0
 21
212.5999999999999
 31
0.0
  0
LINE
  5
E2D
330
D80
100
AcDbEntity
  8
0
  6
Continuous
 62
     3
100
AcDbLine
 10
61.0
 20
212.5999999999999
 30
0.0
 11
63.0
 21
212.5999999999999
 31
0.0
  0
LINE
  5
E2E
330
D80
100
AcDbEntity
  8
0
  6
Continuous
 62
     3
100
AcDbLine
 10
63.0
 20
212.5999999999999
 30
0.0
 11
63.0
 21
210.5999999999999
 31
0.0
  0
LINE
  5
E2F
330
D80
100
AcDbEntity
  8
0
  6
Continuous
 62
     3
100
AcDbLine
 10
63.0
 20
210.5999999999999
 30
0.0
 11
131.0
 21
210.5999999999999
 31
0.0
  0
LINE
  5
E30
330
D80
100
AcDbEntity
  8
0
  6
Continuous
 62
     3
100
AcDbLine
 10
131.0
 20
210.5999999999999
 30
0.0
 11
131.0
 21
212.5999999999999
 31
0.0
  0
LINE
  5
E31
330
D80
100
AcDbEntity
  8
0
  6
Continuous
 62
     3
100
AcDbLine
 10
131.0
 20
212.5999999999999
 30
0.0
 11
133.0
 21
212.5999999999999
 31
0.0
  0
LINE
  5
E32
330
D80
100
AcDbEntity
  8
0
  6
Continuous
 62
     3
100
AcDbLine
 10
133.0
 20
212.5999999999999
 30
0.0
 11
139.0
 21
206.5999999999999
 31
0.0
  0
ARC
  5
E33
330
D80
100
AcDbEntity
  8
0
  6
Continuous
 62
     3
100
AcDbCircle
 10
64.0
 20
187.0
 30
0.0
 40
2.0
100
AcDbArc
 50
90.0
 51
180.0
  0
LINE
  5
E34
330
D80
100
AcDbEntity
  8
0
  6
Continuous
 62
     3
100
AcDbLine
 10
49.0
 20
248.0125
 30
0.0
 11
49.0
 21
258.0124999999998
 31
0.0
  0
LINE
  5
E35
330
D80
100
AcDbEntity
  8
0
  6
Continuous
 62
     3
100
AcDbLine
 10
49.0
 20
258.0124999999998
 30
0.0
 11
49.0
 21
277.0124999999998
 31
0.0
  0
LINE
  5
E36
330
D80
100
AcDbEntity
  8
0
  6
Continuous
 62
     3
100
AcDbLine
 10
49.0
 20
277.0124999999998
 30
0.0
 11
145.0
 21
277.0124999999998
 31
0.0
  0
LINE
  5
E37
330
D80
100
AcDbEntity
  8
0
  6
Continuous
 62
     3
100
AcDbLine
 10
145.0
 20
229.0124999999999
 30
0.0
 11
49.0
 21
229.0124999999999
 31
0.0
  0
LINE
  5
E38
330
D80
100
AcDbEntity
  8
0
  6
Continuous
 62
     3
100
AcDbLine
 10
49.0
 20
229.0124999999999
 30
0.0
 11
49.0
 21
248.0125
 31
0.0
  0
LINE
  5
E39
330
D80
100
AcDbEntity
  8
0
  6
Continuous
 62
     3
100
AcDbLine
 10
51.6
 20
241.5124999999999
 30
0.0
 11
53.6
 21
241.5124999999999
 31
0.0
  0
LINE
  5
E3A
330
D80
100
AcDbEntity
  8
0
  6
Continuous
 62
     3
100
AcDbLine
 10
53.6
 20
241.5124999999999
 30
0.0
 11
53.6
 21
243.5124999999999
 31
0.0
  0
LINE
  5
E3B
330
D80
100
AcDbEntity
  8
0
  6
Continuous
 62
     3
100
AcDbLine
 10
53.6
 20
243.5124999999999
 30
0.0
 11
51.6
 21
243.5124999999999
 31
0.0
  0
LINE
  5
E3C
330
D80
100
AcDbEntity
  8
0
  6
Continuous
 62
     3
100
AcDbLine
 10
51.6
 20
246.7624999999999
 30
0.0
 11
53.6
 21
246.7624999999999
 31
0.0
  0
LINE
  5
E3D
330
D80
100
AcDbEntity
  8
0
  6
Continuous
 62
     3
100
AcDbLine
 10
53.6
 20
246.7624999999999
 30
0.0
 11
53.6
 21
248.0125
 31
0.0
  0
LINE
  5
E3E
330
D80
100
AcDbEntity
  8
0
  6
Continuous
 62
     3
100
AcDbLine
 10
51.6
 20
259.2624999999998
 30
0.0
 11
53.6
 21
259.2624999999998
 31
0.0
  0
LINE
  5
E3F
330
D80
100
AcDbEntity
  8
0
  6
Continuous
 62
     3
100
AcDbLine
 10
53.6
 20
259.2624999999998
 30
0.0
 11
53.6
 21
258.0124999999998
 31
0.0
  0
LINE
  5
E40
330
D80
100
AcDbEntity
  8
0
  6
Continuous
 62
     3
100
AcDbLine
 10
51.6
 20
264.5124999999998
 30
0.0
 11
53.6
 21
264.5124999999998
 31
0.0
  0
LINE
  5
E41
330
D80
100
AcDbEntity
  8
0
  6
Continuous
 62
     3
100
AcDbLine
 10
53.6
 20
264.5124999999998
 30
0.0
 11
53.6
 21
262.5125
 31
0.0
  0
LINE
  5
E42
330
D80
100
AcDbEntity
  8
0
  6
Continuous
 62
     3
100
AcDbLine
 10
53.6
 20
262.5125
 30
0.0
 11
51.6
 21
262.5125
 31
0.0
  0
LINE
  5
E43
330
D80
100
AcDbEntity
  8
0
  6
Continuous
 62
     3
100
AcDbLine
 10
51.6
 20
275.0125
 30
0.0
 11
51.6
 21
258.0124999999998
 31
0.0
  0
LINE
  5
E44
330
D80
100
AcDbEntity
  8
0
  6
Continuous
 62
     3
100
AcDbLine
 10
51.6
 20
248.0125
 30
0.0
 11
51.6
 21
231.0124999999999
 31
0.0
  0
LINE
  5
E45
330
D80
100
AcDbEntity
  8
0
  6
Continuous
 62
     3
100
AcDbLine
 10
51.6
 20
231.0124999999999
 30
0.0
 11
142.4
 21
231.0124999999999
 31
0.0
  0
LINE
  5
E46
330
D80
100
AcDbEntity
  8
0
  6
Continuous
 62
     3
100
AcDbLine
 10
142.4
 20
275.0125
 30
0.0
 11
51.6
 21
275.0125
 31
0.0
  0
LINE
  5
E47
330
D80
100
AcDbEntity
  8
0
  6
Continuous
 62
     3
100
AcDbLine
 10
58.0
 20
255.0124999999999
 30
0.0
 11
58.0
 21
251.0124999999999
 31
0.0
  0
LINE
  5
E48
330
D80
100
AcDbEntity
  8
0
  6
Continuous
 62
     3
100
AcDbLine
 10
56.0
 20
253.0124999999999
 30
0.0
 11
60.0
 21
253.0124999999999
 31
0.0
  0
CIRCLE
  5
E49
330
D80
100
AcDbEntity
  8
0
  6
Continuous
 62
     3
100
AcDbCircle
 10
58.0
 20
253.0124999999999
 30
0.0
 40
2.5
  0
LINE
  5
E4A
330
D80
100
AcDbEntity
  8
0
  6
Continuous
 62
     3
100
AcDbLine
 10
55.0
 20
275.0125
 30
0.0
 11
55.0
 21
262.5125
 31
0.0
  0
CIRCLE
  5
E4B
330
D80
100
AcDbEntity
  8
0
  6
Continuous
 62
     3
100
AcDbCircle
 10
58.9
 20
269.0125
 30
0.0
 40
2.5
  0
CIRCLE
  5
E4C
330
D80
100
AcDbEntity
  8
0
  6
Continuous
 62
     3
100
AcDbCircle
 10
66.52
 20
269.0125
 30
0.0
 40
2.5
  0
CIRCLE
  5
E4D
330
D80
100
AcDbEntity
  8
0
  6
Continuous
 62
     3
100
AcDbCircle
 10
74.14
 20
269.0125
 30
0.0
 40
2.5
  0
CIRCLE
  5
E4E
330
D80
100
AcDbEntity
  8
0
  6
Continuous
 62
     3
100
AcDbCircle
 10
81.76
 20
269.0125
 30
0.0
 40
2.5
  0
CIRCLE
  5
E4F
330
D80
100
AcDbEntity
  8
0
  6
Continuous
 62
     3
100
AcDbCircle
 10
89.37999999999998
 20
269.0125
 30
0.0
 40
2.5
  0
CIRCLE
  5
E50
330
D80
100
AcDbEntity
  8
0
  6
Continuous
 62
     3
100
AcDbCircle
 10
97.0
 20
269.0125
 30
0.0
 40
2.5
  0
CIRCLE
  5
E51
330
D80
100
AcDbEntity
  8
0
  6
Continuous
 62
     3
100
AcDbCircle
 10
104.62
 20
269.0125
 30
0.0
 40
2.5
  0
CIRCLE
  5
E52
330
D80
100
AcDbEntity
  8
0
  6
Continuous
 62
     3
100
AcDbCircle
 10
112.24
 20
269.0125
 30
0.0
 40
2.5
  0
LINE
  5
E53
330
D80
100
AcDbEntity
  8
0
  6
Continuous
 62
     3
100
AcDbLine
 10
116.6099999999999
 20
263.6324999999998
 30
0.0
 11
116.6099999999999
 21
275.0125
 31
0.0
  0
LINE
  5
E54
330
D80
100
AcDbEntity
  8
0
  6
Continuous
 62
     3
100
AcDbLine
 10
115.49
 20
275.0125
 30
0.0
 11
115.49
 21
263.6324999999998
 31
0.0
  0
LINE
  5
E55
330
D80
100
AcDbEntity
  8
0
  6
Continuous
 62
     3
100
AcDbLine
 10
115.49
 20
263.6324999999998
 30
0.0
 11
108.9899999999999
 21
263.6324999999998
 31
0.0
  0
LINE
  5
E56
330
D80
100
AcDbEntity
  8
0
  6
Continuous
 62
     3
100
AcDbLine
 10
108.9899999999999
 20
263.6324999999998
 30
0.0
 11
108.9899999999999
 21
275.0125
 31
0.0
  0
LINE
  5
E57
330
D80
100
AcDbEntity
  8
0
  6
Continuous
 62
     3
100
AcDbLine
 10
107.8699999999999
 20
275.0125
 30
0.0
 11
107.8699999999999
 21
263.6324999999998
 31
0.0
  0
LINE
  5
E58
330
D80
100
AcDbEntity
  8
0
  6
Continuous
 62
     3
100
AcDbLine
 10
107.8699999999999
 20
263.6324999999998
 30
0.0
 11
101.37
 21
263.6324999999998
 31
0.0
  0
LINE
  5
E59
330
D80
100
AcDbEntity
  8
0
  6
Continuous
 62
     3
100
AcDbLine
 10
101.37
 20
263.6324999999998
 30
0.0
 11
101.37
 21
275.0125
 31
0.0
  0
LINE
  5
E5A
330
D80
100
AcDbEntity
  8
0
  6
Continuous
 62
     3
100
AcDbLine
 10
100.2499999999999
 20
275.0125
 30
0.0
 11
100.2499999999999
 21
263.6324999999998
 31
0.0
  0
LINE
  5
E5B
330
D80
100
AcDbEntity
  8
0
  6
Continuous
 62
     3
100
AcDbLine
 10
100.2499999999999
 20
263.6324999999998
 30
0.0
 11
93.75
 21
263.6324999999998
 31
0.0
  0
LINE
  5
E5C
330
D80
100
AcDbEntity
  8
0
  6
Continuous
 62
     3
100
AcDbLine
 10
93.75
 20
263.6324999999998
 30
0.0
 11
93.75
 21
275.0125
 31
0.0
  0
LINE
  5
E5D
330
D80
100
AcDbEntity
  8
0
  6
Continuous
 62
     3
100
AcDbLine
 10
92.62999999999999
 20
275.0125
 30
0.0
 11
92.62999999999999
 21
263.6324999999998
 31
0.0
  0
LINE
  5
E5E
330
D80
100
AcDbEntity
  8
0
  6
Continuous
 62
     3
100
AcDbLine
 10
92.62999999999999
 20
263.6324999999998
 30
0.0
 11
86.12999999999997
 21
263.6324999999998
 31
0.0
  0
LINE
  5
E5F
330
D80
100
AcDbEntity
  8
0
  6
Continuous
 62
     3
100
AcDbLine
 10
86.12999999999997
 20
263.6324999999998
 30
0.0
 11
86.12999999999997
 21
275.0125
 31
0.0
  0
LINE
  5
E60
330
D80
100
AcDbEntity
  8
0
  6
Continuous
 62
     3
100
AcDbLine
 10
85.01000000000002
 20
275.0125
 30
0.0
 11
85.01000000000002
 21
263.6324999999998
 31
0.0
  0
LINE
  5
E61
330
D80
100
AcDbEntity
  8
0
  6
Continuous
 62
     3
100
AcDbLine
 10
85.01000000000002
 20
263.6324999999998
 30
0.0
 11
78.51
 21
263.6324999999998
 31
0.0
  0
LINE
  5
E62
330
D80
100
AcDbEntity
  8
0
  6
Continuous
 62
     3
100
AcDbLine
 10
78.51
 20
263.6324999999998
 30
0.0
 11
78.51
 21
275.0125
 31
0.0
  0
LINE
  5
E63
330
D80
100
AcDbEntity
  8
0
  6
Continuous
 62
     3
100
AcDbLine
 10
77.39
 20
275.0125
 30
0.0
 11
77.39
 21
263.6324999999998
 31
0.0
  0
LINE
  5
E64
330
D80
100
AcDbEntity
  8
0
  6
Continuous
 62
     3
100
AcDbLine
 10
77.39
 20
263.6324999999998
 30
0.0
 11
70.89
 21
263.6324999999998
 31
0.0
  0
LINE
  5
E65
330
D80
100
AcDbEntity
  8
0
  6
Continuous
 62
     3
100
AcDbLine
 10
70.89
 20
263.6324999999998
 30
0.0
 11
70.89
 21
275.0125
 31
0.0
  0
LINE
  5
E66
330
D80
100
AcDbEntity
  8
0
  6
Continuous
 62
     3
100
AcDbLine
 10
63.0
 20
262.5125
 30
0.0
 11
63.0
 21
275.0125
 31
0.0
  0
LINE
  5
E67
330
D80
100
AcDbEntity
  8
0
  6
Continuous
 62
     3
100
AcDbLine
 10
69.77
 20
275.0125
 30
0.0
 11
69.77
 21
263.6324999999998
 31
0.0
  0
LINE
  5
E68
330
D80
100
AcDbEntity
  8
0
  6
Continuous
 62
     3
100
AcDbLine
 10
69.77
 20
263.6324999999998
 30
0.0
 11
63.0
 21
263.6324999999998
 31
0.0
  0
LINE
  5
E69
330
D80
100
AcDbEntity
  8
0
  6
Continuous
 62
     3
100
AcDbLine
 10
58.9
 20
269.0125
 30
0.0
 11
60.597056275
 21
270.709556275
 31
0.0
  0
LINE
  5
E6A
330
D80
100
AcDbEntity
  8
0
  6
Continuous
 62
     3
100
AcDbLine
 10
58.9
 20
269.0125
 30
0.0
 11
57.20294372499999
 21
270.709556275
 31
0.0
  0
LINE
  5
E6B
330
D80
100
AcDbEntity
  8
0
  6
Continuous
 62
     3
100
AcDbLine
 10
58.9
 20
269.0125
 30
0.0
 11
57.20294372499999
 21
267.315443725
 31
0.0
  0
LINE
  5
E6C
330
D80
100
AcDbEntity
  8
0
  6
Continuous
 62
     3
100
AcDbLine
 10
58.9
 20
269.0125
 30
0.0
 11
60.597056275
 21
267.315443725
 31
0.0
  0
LINE
  5
E6D
330
D80
100
AcDbEntity
  8
0
  6
Continuous
 62
     3
100
AcDbLine
 10
117.86
 20
269.0125
 30
0.0
 11
121.86
 21
269.0125
 31
0.0
  0
LINE
  5
E6E
330
D80
100
AcDbEntity
  8
0
  6
Continuous
 62
     3
100
AcDbLine
 10
119.86
 20
270.5124999999998
 30
0.0
 11
119.86
 21
267.5124999999998
 31
0.0
  0
LINE
  5
E6F
330
D80
100
AcDbEntity
  8
0
  6
Continuous
 62
     3
100
AcDbLine
 10
112.24
 20
270.5124999999998
 30
0.0
 11
112.24
 21
267.5124999999998
 31
0.0
  0
LINE
  5
E70
330
D80
100
AcDbEntity
  8
0
  6
Continuous
 62
     3
100
AcDbLine
 10
110.24
 20
269.0125
 30
0.0
 11
114.24
 21
269.0125
 31
0.0
  0
LINE
  5
E71
330
D80
100
AcDbEntity
  8
0
  6
Continuous
 62
     3
100
AcDbLine
 10
104.62
 20
270.5124999999998
 30
0.0
 11
104.62
 21
267.5124999999998
 31
0.0
  0
LINE
  5
E72
330
D80
100
AcDbEntity
  8
0
  6
Continuous
 62
     3
100
AcDbLine
 10
106.62
 20
269.0125
 30
0.0
 11
102.62
 21
269.0125
 31
0.0
  0
LINE
  5
E73
330
D80
100
AcDbEntity
  8
0
  6
Continuous
 62
     3
100
AcDbLine
 10
97.0
 20
270.5124999999998
 30
0.0
 11
97.0
 21
267.5124999999998
 31
0.0
  0
LINE
  5
E74
330
D80
100
AcDbEntity
  8
0
  6
Continuous
 62
     3
100
AcDbLine
 10
99.0
 20
269.0125
 30
0.0
 11
95.0
 21
269.0125
 31
0.0
  0
LINE
  5
E75
330
D80
100
AcDbEntity
  8
0
  6
Continuous
 62
     3
100
AcDbLine
 10
89.37999999999998
 20
270.5124999999998
 30
0.0
 11
89.37999999999998
 21
267.5124999999998
 31
0.0
  0
LINE
  5
E76
330
D80
100
AcDbEntity
  8
0
  6
Continuous
 62
     3
100
AcDbLine
 10
91.37999999999999
 20
269.0125
 30
0.0
 11
87.37999999999997
 21
269.0125
 31
0.0
  0
LINE
  5
E77
330
D80
100
AcDbEntity
  8
0
  6
Continuous
 62
     3
100
AcDbLine
 10
81.76
 20
270.5124999999998
 30
0.0
 11
81.76
 21
267.5124999999998
 31
0.0
  0
LINE
  5
E78
330
D80
100
AcDbEntity
  8
0
  6
Continuous
 62
     3
100
AcDbLine
 10
83.76000000000002
 20
269.0125
 30
0.0
 11
79.76
 21
269.0125
 31
0.0
  0
LINE
  5
E79
330
D80
100
AcDbEntity
  8
0
  6
Continuous
 62
     3
100
AcDbLine
 10
76.14
 20
269.0125
 30
0.0
 11
72.14
 21
269.0125
 31
0.0
  0
LINE
  5
E7A
330
D80
100
AcDbEntity
  8
0
  6
Continuous
 62
     3
100
AcDbLine
 10
74.14
 20
270.5124999999998
 30
0.0
 11
74.14
 21
267.5124999999998
 31
0.0
  0
LINE
  5
E7B
330
D80
100
AcDbEntity
  8
0
  6
Continuous
 62
     3
100
AcDbLine
 10
68.52
 20
269.0125
 30
0.0
 11
64.51999999999999
 21
269.0125
 31
0.0
  0
LINE
  5
E7C
330
D80
100
AcDbEntity
  8
0
  6
Continuous
 62
     3
100
AcDbLine
 10
66.52
 20
270.5124999999998
 30
0.0
 11
66.52
 21
267.5124999999998
 31
0.0
  0
ARC
  5
E7D
330
D80
100
AcDbEntity
  8
0
  6
Continuous
 62
     3
100
AcDbCircle
 10
58.9
 20
269.0125
 30
0.0
 40
3.0
100
AcDbArc
 50
270.0
 51
90.0
  0
LINE
  5
E7E
330
D80
100
AcDbEntity
  8
0
  6
Continuous
 62
     3
100
AcDbLine
 10
58.9
 20
272.0124999999999
 30
0.0
 11
55.0
 21
272.0124999999999
 31
0.0
  0
LINE
  5
E7F
330
D80
100
AcDbEntity
  8
0
  6
Continuous
 62
     3
100
AcDbLine
 10
58.9
 20
266.0124999999998
 30
0.0
 11
55.0
 21
266.0124999999998
 31
0.0
  0
LINE
  5
E80
330
D80
100
AcDbEntity
  8
0
  6
Continuous
 62
     3
100
AcDbLine
 10
61.0
 20
262.5125
 30
0.0
 11
61.0
 21
266.9125
 31
0.0
  0
LINE
  5
E81
330
D80
100
AcDbEntity
  8
0
  6
Continuous
 62
     3
100
AcDbLine
 10
61.0
 20
271.154928529
 30
0.0
 11
61.0
 21
275.0125
 31
0.0
  0
POINT
  5
E82
330
D80
100
AcDbEntity
  8
0
  6
Continuous
 62
     3
100
AcDbPoint
 10
177.5999999999999
 20
194.0
 30
0.0
  0
POINT
  5
E83
330
D80
100
AcDbEntity
  8
0
  6
Continuous
 62
     3
100
AcDbPoint
 10
223.0
 20
123.5
 30
0.0
  0
POINT
  5
E84
330
D80
100
AcDbEntity
  8
0
  6
Continuous
 62
     3
100
AcDbPoint
 10
221.6
 20
194.0
 30
0.0
  0
LINE
  5
E85
330
D80
100
AcDbEntity
  8
0
  6
Continuous
 62
     3
100
AcDbLine
 10
211.6
 20
123.5
 30
0.0
 11
211.6
 21
126.5
 31
0.0
  0
LINE
  5
E86
330
D80
100
AcDbEntity
  8
0
  6
Continuous
 62
     3
100
AcDbLine
 10
211.6
 20
126.5
 30
0.0
 11
215.6
 21
126.5
 31
0.0
  0
LINE
  5
E87
330
D80
100
AcDbEntity
  8
0
  6
Continuous
 62
     3
100
AcDbLine
 10
215.6
 20
126.5
 30
0.0
 11
215.6
 21
123.5
 31
0.0
  0
LINE
  5
E88
330
D80
100
AcDbEntity
  8
0
  6
Continuous
 62
     3
100
AcDbLine
 10
187.5999999999999
 20
123.5
 30
0.0
 11
187.5999999999999
 21
126.5
 31
0.0
  0
LINE
  5
E89
330
D80
100
AcDbEntity
  8
0
  6
Continuous
 62
     3
100
AcDbLine
 10
187.5999999999999
 20
126.5
 30
0.0
 11
183.6
 21
126.5
 31
0.0
  0
LINE
  5
E8A
330
D80
100
AcDbEntity
  8
0
  6
Continuous
 62
     3
100
AcDbLine
 10
183.6
 20
126.5
 30
0.0
 11
183.6
 21
123.5
 31
0.0
  0
LINE
  5
E8B
330
D80
100
AcDbEntity
  8
0
  6
Continuous
 62
     3
100
AcDbLine
 10
194.5999999999999
 20
123.5999999999996
 30
0.0
 11
204.5999999999999
 21
123.5999999999996
 31
0.0
  0
LINE
  5
E8C
330
D80
100
AcDbEntity
  8
0
  6
Continuous
 62
     3
100
AcDbLine
 10
204.5999999999999
 20
195.5999999999999
 30
0.0
 11
194.5999999999999
 21
195.5999999999999
 31
0.0
  0
LINE
  5
E8D
330
D80
100
AcDbEntity
  8
0
  6
Continuous
 62
     3
100
AcDbLine
 10
194.5999999999999
 20
195.5999999999999
 30
0.0
 11
194.5999999999999
 21
123.5999999999996
 31
0.0
  0
LINE
  5
E8E
330
D80
100
AcDbEntity
  8
0
  6
Continuous
 62
     3
100
AcDbLine
 10
177.5999999999999
 20
194.0
 30
0.0
 11
194.5999999999999
 21
194.0
 31
0.0
  0
LINE
  5
E8F
330
D80
100
AcDbEntity
  8
0
  6
Continuous
 62
     3
100
AcDbLine
 10
197.1
 20
195.5999999999999
 30
0.0
 11
197.1
 21
196.1
 31
0.0
  0
LINE
  5
E90
330
D80
100
AcDbEntity
  8
0
  6
Continuous
 62
     3
100
AcDbLine
 10
197.1
 20
196.1
 30
0.0
 11
202.0999999999999
 21
196.1
 31
0.0
  0
LINE
  5
E91
330
D80
100
AcDbEntity
  8
0
  6
Continuous
 62
     3
100
AcDbLine
 10
202.0999999999999
 20
196.1
 30
0.0
 11
202.0999999999999
 21
195.5999999999999
 31
0.0
  0
ARC
  5
E92
330
D80
100
AcDbEntity
  8
0
  6
Continuous
 62
     3
100
AcDbCircle
 10
198.5999999999999
 20
196.1
 30
0.0
 40
1.5
100
AcDbArc
 50
90.0
 51
180.0
  0
ARC
  5
E93
330
D80
100
AcDbEntity
  8
0
  6
Continuous
 62
     3
100
AcDbCircle
 10
200.5999999999999
 20
196.1
 30
0.0
 40
1.5
100
AcDbArc
 50
0.0
 51
90.0
  0
LINE
  5
E94
330
D80
100
AcDbEntity
  8
0
  6
Continuous
 62
     3
100
AcDbLine
 10
200.5999999999999
 20
197.5999999999999
 30
0.0
 11
198.5999999999999
 21
197.5999999999999
 31
0.0
  0
LINE
  5
E95
330
D80
100
AcDbEntity
  8
0
  6
Continuous
 62
     3
100
AcDbLine
 10
221.6
 20
194.0
 30
0.0
 11
204.5999999999999
 21
194.0
 31
0.0
  0
LINE
  5
E96
330
D80
100
AcDbEntity
  8
0
  6
Continuous
 62
     3
100
AcDbLine
 10
209.1
 20
194.0
 30
0.0
 11
209.1
 21
212.5999999999999
 31
0.0
  0
LINE
  5
E97
330
D80
100
AcDbEntity
  8
0
  6
Continuous
 62
     3
100
AcDbLine
 10
221.6
 20
194.0
 30
0.0
 11
221.6
 21
212.5999999999999
 31
0.0
  0
LINE
  5
E98
330
D80
100
AcDbEntity
  8
0
  6
Continuous
 62
     3
100
AcDbLine
 10
221.6
 20
212.5999999999999
 30
0.0
 11
209.1
 21
212.5999999999999
 31
0.0
  0
LINE
  5
E99
330
D80
100
AcDbEntity
  8
0
  6
Continuous
 62
     3
100
AcDbLine
 10
219.0999999999999
 20
201.0
 30
0.0
 11
219.0999999999999
 21
212.55
 31
0.0
  0
LINE
  5
E9A
330
D80
100
AcDbEntity
  8
0
  6
Continuous
 62
     3
100
AcDbLine
 10
219.0999999999999
 20
201.0
 30
0.0
 11
212.0999999999999
 21
201.0
 31
0.0
  0
LINE
  5
E9B
330
D80
100
AcDbEntity
  8
0
  6
Continuous
 62
     3
100
AcDbLine
 10
212.0999999999999
 20
201.0
 30
0.0
 11
212.0999999999999
 21
212.55
 31
0.0
  0
LINE
  5
E9C
330
D80
100
AcDbEntity
  8
0
  6
Continuous
 62
     3
100
AcDbLine
 10
209.1
 20
206.5999999999999
 30
0.0
 11
212.0999999999999
 21
206.5999999999999
 31
0.0
  0
LINE
  5
E9D
330
D80
100
AcDbEntity
  8
0
  6
Continuous
 62
     3
100
AcDbLine
 10
219.0999999999999
 20
206.5999999999999
 30
0.0
 11
221.6
 21
206.5999999999999
 31
0.0
  0
LINE
  5
E9E
330
D80
100
AcDbEntity
  8
0
  6
Continuous
 62
     3
100
AcDbLine
 10
213.0999999999999
 20
201.0
 30
0.0
 11
213.0999999999999
 21
201.5
 31
0.0
  0
LINE
  5
E9F
330
D80
100
AcDbEntity
  8
0
  6
Continuous
 62
     3
100
AcDbLine
 10
213.0999999999999
 20
201.5
 30
0.0
 11
218.1
 21
201.5
 31
0.0
  0
LINE
  5
EA0
330
D80
100
AcDbEntity
  8
0
  6
Continuous
 62
     3
100
AcDbLine
 10
218.1
 20
201.5
 30
0.0
 11
218.1
 21
201.0
 31
0.0
  0
ARC
  5
EA1
330
D80
100
AcDbEntity
  8
0
  6
Continuous
 62
     3
100
AcDbCircle
 10
214.5999999999999
 20
201.5
 30
0.0
 40
1.5
100
AcDbArc
 50
90.0
 51
180.0
  0
ARC
  5
EA2
330
D80
100
AcDbEntity
  8
0
  6
Continuous
 62
     3
100
AcDbCircle
 10
216.5999999999999
 20
201.5
 30
0.0
 40
1.5
100
AcDbArc
 50
0.0
 51
90.0
  0
LINE
  5
EA3
330
D80
100
AcDbEntity
  8
0
  6
Continuous
 62
     3
100
AcDbLine
 10
216.5999999999999
 20
203.0
 30
0.0
 11
214.5999999999999
 21
203.0
 31
0.0
  0
LINE
  5
EA4
330
D80
100
AcDbEntity
  8
0
  6
Continuous
 62
     3
100
AcDbLine
 10
188.1
 20
194.0
 30
0.0
 11
188.1
 21
172.0
 31
0.0
  0
LINE
  5
EA5
330
D80
100
AcDbEntity
  8
0
  6
Continuous
 62
     3
100
AcDbLine
 10
190.0999999999999
 20
172.0
 30
0.0
 11
190.0999999999999
 21
194.0
 31
0.0
  0
LINE
  5
EA6
330
D80
100
AcDbEntity
  8
0
  6
Continuous
 62
     3
100
AcDbLine
 10
193.35
 20
194.0
 30
0.0
 11
193.35
 21
172.0
 31
0.0
  0
LINE
  5
EA7
330
D80
100
AcDbEntity
  8
0
  6
Continuous
 62
     3
100
AcDbLine
 10
205.8499999999999
 20
194.0
 30
0.0
 11
205.8499999999999
 21
172.0
 31
0.0
  0
LINE
  5
EA8
330
D80
100
AcDbEntity
  8
0
  6
Continuous
 62
     3
100
AcDbLine
 10
209.1
 20
194.0
 30
0.0
 11
209.1
 21
172.0
 31
0.0
  0
LINE
  5
EA9
330
D80
100
AcDbEntity
  8
0
  6
Continuous
 62
     3
100
AcDbLine
 10
211.0999999999999
 20
172.0
 30
0.0
 11
211.0999999999999
 21
194.0
 31
0.0
  0
ARC
  5
EAA
330
D80
100
AcDbEntity
  8
0
  6
Continuous
 62
     3
100
AcDbCircle
 10
210.0999999999999
 20
172.0
 30
0.0
 40
1.0
100
AcDbArc
 50
180.0
 51
0.0
  0
ARC
  5
EAB
330
D80
100
AcDbEntity
  8
0
  6
Continuous
 62
     3
100
AcDbCircle
 10
204.8499999999999
 20
172.0
 30
0.0
 40
1.0
100
AcDbArc
 50
255.522487814
 51
0.0
  0
ARC
  5
EAC
330
D80
100
AcDbEntity
  8
0
  6
Continuous
 62
     3
100
AcDbCircle
 10
194.35
 20
172.0
 30
0.0
 40
1.0
100
AcDbArc
 50
180.0
 51
284.477512187
  0
ARC
  5
EAD
330
D80
100
AcDbEntity
  8
0
  6
Continuous
 62
     3
100
AcDbCircle
 10
189.1
 20
172.0
 30
0.0
 40
1.0
100
AcDbArc
 50
180.0
 51
0.0
  0
LINE
  5
EAE
330
D80
100
AcDbEntity
  8
0
  6
Continuous
 62
     3
100
AcDbLine
 10
51.0
 20
123.5
 30
0.0
 11
51.5
 21
194.0
 31
0.0
  0
LINE
  5
EAF
330
D80
100
AcDbEntity
  8
0
  6
Continuous
 62
     3
100
AcDbLine
 10
50.6
 20
123.5999999999996
 30
0.0
 11
50.6
 21
194.0
 31
0.0
  0
LINE
  5
EB0
330
D80
100
AcDbEntity
  8
0
  6
Continuous
 62
     3
100
AcDbLine
 10
51.0
 20
123.5
 30
0.0
 11
51.0
 21
132.2124999999994
 31
0.0
  0
LINE
  5
EB1
330
D80
100
AcDbEntity
  8
0
  6
Continuous
 62
     3
100
AcDbLine
 10
143.0
 20
123.5
 30
0.0
 11
142.4964285709999
 21
194.0
 31
0.0
  0
LINE
  5
EB2
330
D80
100
AcDbEntity
  8
0
  6
Continuous
 62
     3
100
AcDbLine
 10
143.4
 20
123.5999999999996
 30
0.0
 11
143.4
 21
194.0
 31
0.0
  0
LINE
  5
EB3
330
D80
100
AcDbEntity
  8
0
  6
Continuous
 62
     3
100
AcDbLine
 10
143.0
 20
123.5
 30
0.0
 11
143.0
 21
132.2124999999994
 31
0.0
  0
POINT
  5
EB4
330
D80
100
AcDbEntity
  8
0
  6
Continuous
 62
     3
100
AcDbPoint
 10
137.5
 20
194.0
 30
0.0
  0
LINE
  5
EB5
330
D80
100
AcDbEntity
  8
0
  6
Continuous
 62
     3
100
AcDbLine
 10
51.5
 20
194.0
 30
0.0
 11
142.5
 21
194.0
 31
0.0
  0
LINE
  5
EB6
330
D80
100
AcDbEntity
  8
0
  6
Continuous
 62
     3
100
AcDbLine
 10
130.0
 20
189.0
 30
0.0
 11
64.0
 21
189.0
 31
0.0
  0
ARC
  5
EB7
330
D80
100
AcDbEntity
  8
0
  6
Continuous
 62
     3
100
AcDbCircle
 10
130.0
 20
187.0
 30
0.0
 40
2.0
100
AcDbArc
 50
0.0
 51
90.0
  0
LINE
  5
EB8
330
D80
100
AcDbEntity
  8
0
  6
Continuous
 62
     3
100
AcDbLine
 10
129.9964285709999
 20
194.0
 30
0.0
 11
139.4
 21
194.0
 31
0.0
  0
LINE
  5
EB9
330
D80
100
AcDbEntity
  8
0
  6
Continuous
 62
     3
100
AcDbLine
 10
49.0
 20
258.0124999999998
 30
0.0
 11
145.0
 21
258.0124999999998
 31
0.0
  0
LINE
  5
EBA
330
D80
100
AcDbEntity
  8
0
  6
Continuous
 62
     3
100
AcDbLine
 10
145.0
 20
258.0124999999998
 30
0.0
 11
145.0
 21
248.0125
 31
0.0
  0
LINE
  5
EBB
330
D80
100
AcDbEntity
  8
0
  6
Continuous
 62
     3
100
AcDbLine
 10
145.0
 20
248.0125
 30
0.0
 11
49.0
 21
248.0125
 31
0.0
  0
LINE
  5
EBC
330
D80
100
AcDbEntity
  8
0
  6
Continuous
 62
     3
100
AcDbLine
 10
145.0
 20
277.0124999999998
 30
0.0
 11
145.0
 21
258.0124999999998
 31
0.0
  0
LINE
  5
EBD
330
D80
100
AcDbEntity
  8
0
  6
Continuous
 62
     3
100
AcDbLine
 10
145.0
 20
248.0125
 30
0.0
 11
145.0
 21
229.0124999999999
 31
0.0
  0
LINE
  5
EBE
330
D80
100
AcDbEntity
  8
0
  6
Continuous
 62
     3
100
AcDbLine
 10
142.4
 20
264.5124999999998
 30
0.0
 11
140.4
 21
264.5124999999998
 31
0.0
  0
LINE
  5
EBF
330
D80
100
AcDbEntity
  8
0
  6
Continuous
 62
     3
100
AcDbLine
 10
140.4
 20
264.5124999999998
 30
0.0
 11
140.4
 21
262.5125
 31
0.0
  0
LINE
  5
EC0
330
D80
100
AcDbEntity
  8
0
  6
Continuous
 62
     3
100
AcDbLine
 10
140.4
 20
262.5125
 30
0.0
 11
142.4
 21
262.5125
 31
0.0
  0
LINE
  5
EC1
330
D80
100
AcDbEntity
  8
0
  6
Continuous
 62
     3
100
AcDbLine
 10
142.4
 20
259.2624999999998
 30
0.0
 11
140.4
 21
259.2624999999998
 31
0.0
  0
LINE
  5
EC2
330
D80
100
AcDbEntity
  8
0
  6
Continuous
 62
     3
100
AcDbLine
 10
140.4
 20
259.2624999999998
 30
0.0
 11
140.4
 21
258.0124999999998
 31
0.0
  0
LINE
  5
EC3
330
D80
100
AcDbEntity
  8
0
  6
Continuous
 62
     3
100
AcDbLine
 10
142.4
 20
246.7624999999999
 30
0.0
 11
140.4
 21
246.7624999999999
 31
0.0
  0
LINE
  5
EC4
330
D80
100
AcDbEntity
  8
0
  6
Continuous
 62
     3
100
AcDbLine
 10
140.4
 20
246.7624999999999
 30
0.0
 11
140.4
 21
248.0125
 31
0.0
  0
LINE
  5
EC5
330
D80
100
AcDbEntity
  8
0
  6
Continuous
 62
     3
100
AcDbLine
 10
142.4
 20
241.5124999999999
 30
0.0
 11
140.4
 21
241.5124999999999
 31
0.0
  0
LINE
  5
EC6
330
D80
100
AcDbEntity
  8
0
  6
Continuous
 62
     3
100
AcDbLine
 10
140.4
 20
241.5124999999999
 30
0.0
 11
140.4
 21
243.5124999999999
 31
0.0
  0
LINE
  5
EC7
330
D80
100
AcDbEntity
  8
0
  6
Continuous
 62
     3
100
AcDbLine
 10
140.4
 20
243.5124999999999
 30
0.0
 11
142.4
 21
243.5124999999999
 31
0.0
  0
LINE
  5
EC8
330
D80
100
AcDbEntity
  8
0
  6
Continuous
 62
     3
100
AcDbLine
 10
142.4
 20
231.0124999999999
 30
0.0
 11
142.4
 21
248.0125
 31
0.0
  0
LINE
  5
EC9
330
D80
100
AcDbEntity
  8
0
  6
Continuous
 62
     3
100
AcDbLine
 10
142.4
 20
258.0124999999998
 30
0.0
 11
142.4
 21
275.0125
 31
0.0
  0
CIRCLE
  5
ECA
330
D80
100
AcDbEntity
  8
0
  6
Continuous
 62
     3
100
AcDbCircle
 10
136.0
 20
253.0124999999999
 30
0.0
 40
2.5
  0
LINE
  5
ECB
330
D80
100
AcDbEntity
  8
0
  6
Continuous
 62
     3
100
AcDbLine
 10
134.0
 20
253.0124999999999
 30
0.0
 11
138.0
 21
253.0124999999999
 31
0.0
  0
LINE
  5
ECC
330
D80
100
AcDbEntity
  8
0
  6
Continuous
 62
     3
100
AcDbLine
 10
136.0
 20
255.0124999999999
 30
0.0
 11
136.0
 21
251.0124999999999
 31
0.0
  0
LINE
  5
ECD
330
D80
100
AcDbEntity
  8
0
  6
Continuous
 62
     3
100
AcDbLine
 10
55.0
 20
262.5125
 30
0.0
 11
139.0
 21
262.5125
 31
0.0
  0
LINE
  5
ECE
330
D80
100
AcDbEntity
  8
0
  6
Continuous
 62
     3
100
AcDbLine
 10
139.0
 20
262.5125
 30
0.0
 11
139.0
 21
275.0125
 31
0.0
  0
CIRCLE
  5
ECF
330
D80
100
AcDbEntity
  8
0
  6
Continuous
 62
     3
100
AcDbCircle
 10
119.86
 20
269.0125
 30
0.0
 40
2.5
  0
CIRCLE
  5
ED0
330
D80
100
AcDbEntity
  8
0
  6
Continuous
 62
     3
100
AcDbCircle
 10
127.48
 20
269.0125
 30
0.0
 40
2.5
  0
CIRCLE
  5
ED1
330
D80
100
AcDbEntity
  8
0
  6
Continuous
 62
     3
100
AcDbCircle
 10
135.0999999999999
 20
269.0125
 30
0.0
 40
2.5
  0
LINE
  5
ED2
330
D80
100
AcDbEntity
  8
0
  6
Continuous
 62
     3
100
AcDbLine
 10
131.0
 20
263.6324999999998
 30
0.0
 11
124.2299999999999
 21
263.6324999999998
 31
0.0
  0
LINE
  5
ED3
330
D80
100
AcDbEntity
  8
0
  6
Continuous
 62
     3
100
AcDbLine
 10
124.2299999999999
 20
263.6324999999998
 30
0.0
 11
124.2299999999999
 21
275.0125
 31
0.0
  0
LINE
  5
ED4
330
D80
100
AcDbEntity
  8
0
  6
Continuous
 62
     3
100
AcDbLine
 10
123.11
 20
275.0125
 30
0.0
 11
123.11
 21
263.6324999999998
 31
0.0
  0
LINE
  5
ED5
330
D80
100
AcDbEntity
  8
0
  6
Continuous
 62
     3
100
AcDbLine
 10
123.11
 20
263.6324999999998
 30
0.0
 11
116.6099999999999
 21
263.6324999999998
 31
0.0
  0
LINE
  5
ED6
330
D80
100
AcDbEntity
  8
0
  6
Continuous
 62
     3
100
AcDbLine
 10
131.0
 20
275.0125
 30
0.0
 11
131.0
 21
262.5125
 31
0.0
  0
LINE
  5
ED7
330
D80
100
AcDbEntity
  8
0
  6
Continuous
 62
     3
100
AcDbLine
 10
135.0999999999999
 20
269.0125
 30
0.0
 11
136.7970562749997
 21
267.315443725
 31
0.0
  0
LINE
  5
ED8
330
D80
100
AcDbEntity
  8
0
  6
Continuous
 62
     3
100
AcDbLine
 10
135.0999999999999
 20
269.0125
 30
0.0
 11
136.7970562749997
 21
270.709556275
 31
0.0
  0
LINE
  5
ED9
330
D80
100
AcDbEntity
  8
0
  6
Continuous
 62
     3
100
AcDbLine
 10
135.0999999999999
 20
269.0125
 30
0.0
 11
133.402943725
 21
270.709556275
 31
0.0
  0
LINE
  5
EDA
330
D80
100
AcDbEntity
  8
0
  6
Continuous
 62
     3
100
AcDbLine
 10
135.0999999999999
 20
269.0125
 30
0.0
 11
133.402943725
 21
267.315443725
 31
0.0
  0
LINE
  5
EDB
330
D80
100
AcDbEntity
  8
0
  6
Continuous
 62
     3
100
AcDbLine
 10
125.48
 20
269.0125
 30
0.0
 11
129.4799999999999
 21
269.0125
 31
0.0
  0
LINE
  5
EDC
330
D80
100
AcDbEntity
  8
0
  6
Continuous
 62
     3
100
AcDbLine
 10
127.48
 20
270.5124999999998
 30
0.0
 11
127.48
 21
267.5124999999998
 31
0.0
  0
ARC
  5
EDD
330
D80
100
AcDbEntity
  8
0
  6
Continuous
 62
     3
100
AcDbCircle
 10
135.0999999999999
 20
269.0125
 30
0.0
 40
3.0
100
AcDbArc
 50
90.0
 51
270.0
  0
LINE
  5
EDE
330
D80
100
AcDbEntity
  8
0
  6
Continuous
 62
     3
100
AcDbLine
 10
133.0
 20
262.5125
 30
0.0
 11
133.0
 21
266.8700714709999
 31
0.0
  0
LINE
  5
EDF
330
D80
100
AcDbEntity
  8
0
  6
Continuous
 62
     3
100
AcDbLine
 10
133.0
 20
271.154928529
 30
0.0
 11
133.0
 21
275.0125
 31
0.0
  0
LINE
  5
EE0
330
D80
100
AcDbEntity
  8
0
  6
Continuous
 62
     3
100
AcDbLine
 10
135.0999999999999
 20
272.0124999999999
 30
0.0
 11
139.0
 21
272.0124999999999
 31
0.0
  0
LINE
  5
EE1
330
D80
100
AcDbEntity
  8
0
  6
Continuous
 62
     3
100
AcDbLine
 10
135.0999999999999
 20
266.0124999999998
 30
0.0
 11
139.0
 21
266.0124999999998
 31
0.0
  0
LINE
  5
EE2
330
D80
100
AcDbEntity
  8
0
  6
Continuous
 62
     3
100
AcDbLine
 10
204.5999999999999
 20
123.5999999999996
 30
0.0
 11
204.5999999999999
 21
138.3
 31
0.0
  0
LINE
  5
EE5
330
D80
100
AcDbEntity
  8
0
  6
Continuous
 62
     1
100
AcDbLine
 10
143.0
 20
131.2124999999996
 30
0.0
 11
141.068148347
 21
131.73013809
 31
0.0
  0
LINE
  5
EE6
330
D80
100
AcDbEntity
  8
0
  6
Continuous
 62
     1
100
AcDbLine
 10
143.0
 20
131.2124999999996
 30
0.0
 11
141.068148347
 21
130.6948619099999
 31
0.0
  0
LINE
  5
EEB
330
D80
100
AcDbEntity
  8
0
  6
Continuous
 62
     1
100
AcDbLine
 10
51.0
 20
131.2124999999996
 30
0.0
 11
52.931851653
 21
130.6948619099999
 31
0.0
  0
LINE
  5
EEC
330
D80
100
AcDbEntity
  8
0
  6
Continuous
 62
     1
100
AcDbLine
 10
51.0
 20
131.2124999999996
 30
0.0
 11
52.931851653
 21
131.73013809
 31
0.0
  0
LINE
  5
EED
330
D80
100
AcDbEntity
  8
0
  6
Continuous
 62
     1
100
AcDbLine
 10
51.0
 20
131.2124999999996
 30
0.0
 11
143.0
 21
131.2124999999996
 31
0.0
  0
LINE
  5
EF3
330
D80
100
AcDbEntity
  8
0
  6
Continuous
 62
     1
100
AcDbLine
 10
138.4
 20
194.0
 30
0.0
 11
137.8823619099994
 21
192.068148347
 31
0.0
  0
LINE
  5
EF4
330
D80
100
AcDbEntity
  8
0
  6
Continuous
 62
     1
100
AcDbLine
 10
138.4
 20
194.0
 30
0.0
 11
138.9176380899999
 21
192.068148347
 31
0.0
  0
LINE
  5
EF5
330
D80
100
AcDbEntity
  8
0
  6
Continuous
 62
     1
100
AcDbLine
 10
138.4
 20
194.0
 30
0.0
 11
138.4
 21
189.0
 31
0.0
  0
LINE
  5
EF6
330
D80
100
AcDbEntity
  8
0
  6
Continuous
 62
     1
100
AcDbLine
 10
138.4
 20
189.0
 30
0.0
 11
138.9176380899999
 21
190.9318516529999
 31
0.0
  0
LINE
  5
EF7
330
D80
100
AcDbEntity
  8
0
  6
Continuous
 62
     1
100
AcDbLine
 10
138.4
 20
189.0
 30
0.0
 11
137.8823619099994
 21
190.9318516529999
 31
0.0
  0
LINE
  5
EF8
330
D80
100
AcDbEntity
  8
0
  6
Continuous
 62
     1
100
AcDbLine
 10
130.0
 20
189.0
 30
0.0
 11
139.4
 21
189.0
 31
0.0
  0
LINE
  5
EFE
330
D80
100
AcDbEntity
  8
0
  6
Continuous
 62
     3
100
AcDbLine
 10
49.5
 20
49.0
 30
0.0
 11
144.5
 21
49.0
 31
0.0
  0
POINT
  5
EFF
330
D80
100
AcDbEntity
  8
0
  6
Continuous
 62
     1
100
AcDbPoint
 10
64.5
 20
97.5
 30
0.0
  0
POINT
  5
F00
330
D80
100
AcDbEntity
  8
0
  6
Continuous
 62
     1
100
AcDbPoint
 10
129.4999999999996
 20
48.5
 30
0.0
  0
POINT
  5
F01
330
D80
100
AcDbEntity
  8
0
  6
Continuous
 62
     1
100
AcDbPoint
 10
64.5
 20
48.5
 30
0.0
  0
LINE
  5
F02
330
D80
100
AcDbEntity
  8
0
  6
Continuous
 62
     3
100
AcDbLine
 10
144.5
 20
97.0
 30
0.0
 11
49.5
 21
97.0
 31
0.0
  0
ARC
  5
F03
330
D80
100
AcDbEntity
  8
0
  6
Continuous
 62
     3
100
AcDbCircle
 10
49.5
 20
51.0
 30
0.0
 40
0.5
100
AcDbArc
 50
180.0000000009999
 51
270.0
  0
ARC
  5
F04
330
D80
100
AcDbEntity
  8
0
  6
Continuous
 62
     3
100
AcDbCircle
 10
49.5
 20
49.5
 30
0.0
 40
0.5
100
AcDbArc
 50
179.9999903409998
 51
270.0
  0
ARC
  5
F05
330
D80
100
AcDbEntity
  8
0
  6
Continuous
 62
     3
100
AcDbCircle
 10
49.5
 20
95.0
 30
0.0
 40
0.5
100
AcDbArc
 50
90.0
 51
180.0000000009999
  0
LINE
  5
F06
330
D80
100
AcDbEntity
  8
0
  6
Continuous
 62
     3
100
AcDbLine
 10
49.0
 20
96.500000675
 30
0.0
 11
49.0
 21
49.500000085
 31
0.0
  0
ARC
  5
F07
330
D80
100
AcDbEntity
  8
0
  6
Continuous
 62
     3
100
AcDbCircle
 10
49.5
 20
96.5
 30
0.0
 40
0.5
100
AcDbArc
 50
90.0
 51
179.999922726
  0
ARC
  5
F08
330
D80
100
AcDbEntity
  8
0
  6
Continuous
 62
     4
100
AcDbCircle
 10
144.5
 20
95.0
 30
0.0
 40
0.5
100
AcDbArc
 50
0.0
 51
90.0
  0
ARC
  5
F09
330
D80
100
AcDbEntity
  8
0
  6
Continuous
 62
     3
100
AcDbCircle
 10
144.5
 20
96.5
 30
0.0
 40
0.5
100
AcDbArc
 50
0.000077275
 51
90.0
  0
ARC
  5
F0A
330
D80
100
AcDbEntity
  8
0
  6
Continuous
 62
     4
100
AcDbCircle
 10
144.5
 20
51.0
 30
0.0
 40
0.5
100
AcDbArc
 50
270.0
 51
0.0
  0
ARC
  5
F0B
330
D80
100
AcDbEntity
  8
0
  6
Continuous
 62
     3
100
AcDbCircle
 10
144.5
 20
49.5
 30
0.0
 40
0.5
100
AcDbArc
 50
270.0
 51
0.000154851
  0
LINE
  5
F0C
330
D80
100
AcDbEntity
  8
0
  6
Continuous
 62
     3
100
AcDbLine
 10
145.0
 20
49.50000135199999
 30
0.0
 11
145.0
 21
96.500000675
 31
0.0
  0
ARC
  5
F0D
330
D80
100
AcDbEntity
  8
0
  6
Continuous
 62
     1
100
AcDbCircle
 10
49.75
 20
51.25
 30
0.0
 40
0.5
100
AcDbArc
 50
180.0
 51
270.0
  0
LINE
  5
F0E
330
D80
100
AcDbEntity
  8
0
  6
Continuous
 62
     1
100
AcDbLine
 10
49.75
 20
50.75
 30
0.0
 11
144.25
 21
50.75
 31
0.0
  0
ARC
  5
F0F
330
D80
100
AcDbEntity
  8
0
  6
Continuous
 62
     1
100
AcDbCircle
 10
144.25
 20
51.25
 30
0.0
 40
0.5
100
AcDbArc
 50
270.0
 51
0.0
  0
LINE
  5
F10
330
D80
100
AcDbEntity
  8
0
  6
Continuous
 62
     1
100
AcDbLine
 10
144.7499999999998
 20
51.25
 30
0.0
 11
144.7499999999998
 21
94.74999999999999
 31
0.0
  0
ARC
  5
F11
330
D80
100
AcDbEntity
  8
0
  6
Continuous
 62
     1
100
AcDbCircle
 10
144.25
 20
94.74999999999999
 30
0.0
 40
0.5
100
AcDbArc
 50
0.0
 51
90.0
  0
LINE
  5
F12
330
D80
100
AcDbEntity
  8
0
  6
Continuous
 62
     1
100
AcDbLine
 10
144.25
 20
95.25
 30
0.0
 11
49.75
 21
95.25
 31
0.0
  0
ARC
  5
F13
330
D80
100
AcDbEntity
  8
0
  6
Continuous
 62
     1
100
AcDbCircle
 10
49.75
 20
94.74999999999999
 30
0.0
 40
0.5
100
AcDbArc
 50
90.0
 51
180.0
  0
LINE
  5
F14
330
D80
100
AcDbEntity
  8
0
  6
Continuous
 62
     1
100
AcDbLine
 10
49.25
 20
94.74999999999999
 30
0.0
 11
49.25
 21
51.25
 31
0.0
  0
LINE
  5
F15
330
D80
100
AcDbEntity
  8
0
  6
Continuous
 62
     3
100
AcDbLine
 10
49.0
 20
50.5
 30
0.0
 11
97.0
 21
50.5
 31
0.0
  0
LINE
  5
F16
330
D80
100
AcDbEntity
  8
0
  6
Continuous
 62
     3
100
AcDbLine
 10
49.0
 20
95.5
 30
0.0
 11
97.0
 21
95.5
 31
0.0
  0
LINE
  5
F17
330
D80
100
AcDbEntity
  8
0
  6
Continuous
 62
     3
100
AcDbLine
 10
145.0
 20
95.5
 30
0.0
 11
97.0
 21
95.5
 31
0.0
  0
LINE
  5
F18
330
D80
100
AcDbEntity
  8
0
  6
Continuous
 62
     3
100
AcDbLine
 10
145.0
 20
50.5
 30
0.0
 11
97.0
 21
50.5
 31
0.0
  0
LINE
  5
F19
330
D80
100
AcDbEntity
  8
0
  6
Continuous
 62
     3
100
AcDbLine
 10
145.0
 20
115.5
 30
0.0
 11
145.0
 21
122.0
 31
0.0
  0
LINE
  5
F1A
330
D80
100
AcDbEntity
  8
0
  6
Continuous
 62
     3
100
AcDbLine
 10
49.0
 20
122.0
 30
0.0
 11
49.0
 21
115.5
 31
0.0
  0
LINE
  5
F1B
330
D80
100
AcDbEntity
  8
0
  6
Continuous
 62
     3
100
AcDbLine
 10
49.0
 20
115.5
 30
0.0
 11
145.0
 21
115.5
 31
0.0
  0
LINE
  5
F1C
330
D80
100
AcDbEntity
  8
0
  6
Continuous
 62
     3
100
AcDbLine
 10
144.929747829
 20
114.9379826329999
 30
0.0
 11
145.0
 21
115.5
 31
0.0
  0
ARC
  5
F1D
330
D80
100
AcDbEntity
  8
0
  6
Continuous
 62
     3
100
AcDbCircle
 10
144.433608891
 20
115.0
 30
0.0
 40
0.5
100
AcDbArc
 50
270.0
 51
352.8749836509999
  0
LINE
  5
F1E
330
D80
100
AcDbEntity
  8
0
  6
Continuous
 62
     3
100
AcDbLine
 10
49.0
 20
115.5
 30
0.0
 11
49.07025217100001
 21
114.9379826329999
 31
0.0
  0
ARC
  5
F1F
330
D80
100
AcDbEntity
  8
0
  6
Continuous
 62
     3
100
AcDbCircle
 10
49.56639110899999
 20
115.0
 30
0.0
 40
0.5
100
AcDbArc
 50
187.125016348
 51
270.0
  0
LINE
  5
F20
330
D80
100
AcDbEntity
  8
0
  6
Continuous
 62
     1
100
AcDbLine
 10
49.0
 20
122.0
 30
0.0
 11
145.0
 21
122.0
 31
0.0
  0
LINE
  5
F21
330
D80
100
AcDbEntity
  8
0
  6
Continuous
 62
     1
100
AcDbLine
 10
145.0
 20
122.0
 30
0.0
 11
49.0
 21
122.0
 31
0.0
  0
LINE
  5
F22
330
D80
100
AcDbEntity
  8
0
  6
Continuous
 62
     1
100
AcDbLine
 10
145.0
 20
122.0
 30
0.0
 11
49.0
 21
122.0
 31
0.0
  0
LINE
  5
F23
330
D80
100
AcDbEntity
  8
0
  6
Continuous
 62
     1
100
AcDbLine
 10
49.0
 20
122.0
 30
0.0
 11
145.0
 21
122.0
 31
0.0
  0
LINE
  5
F24
330
D80
100
AcDbEntity
  8
0
  6
Continuous
 62
     3
100
AcDbLine
 10
222.1
 20
123.5
 30
0.0
 11
221.6
 21
194.0
 31
0.0
  0
LINE
  5
F25
330
D80
100
AcDbEntity
  8
0
  6
Continuous
 62
     3
100
AcDbLine
 10
177.0999999999999
 20
123.5
 30
0.0
 11
177.5999999999999
 21
194.0
 31
0.0
  0
LINE
  5
F26
330
D80
100
AcDbEntity
  8
0
  6
Continuous
 62
     3
100
AcDbLine
 10
175.6
 20
122.0
 30
0.0
 11
175.6
 21
123.5
 31
0.0
  0
POINT
  5
F27
330
D80
100
AcDbEntity
  8
0
  6
Continuous
 62
     3
100
AcDbPoint
 10
175.6
 20
123.5
 30
0.0
  0
LINE
  5
F28
330
D80
100
AcDbEntity
  8
0
  6
Continuous
 62
     3
100
AcDbLine
 10
175.6
 20
123.5
 30
0.0
 11
177.2
 21
123.5
 31
0.0
  0
POINT
  5
F29
330
D80
100
AcDbEntity
  8
0
  6
Continuous
 62
     3
100
AcDbPoint
 10
177.2
 20
123.5
 30
0.0
  0
LINE
  5
F2A
330
D80
100
AcDbEntity
  8
0
  6
Continuous
 62
     3
100
AcDbLine
 10
177.2
 20
123.5
 30
0.0
 11
223.0
 21
123.5
 31
0.0
  0
LINE
  5
F2B
330
D80
100
AcDbEntity
  8
0
  6
Continuous
 62
     3
100
AcDbLine
 10
223.6
 20
122.0
 30
0.0
 11
223.6
 21
123.5
 31
0.0
  0
POINT
  5
F2C
330
D80
100
AcDbEntity
  8
0
  6
Continuous
 62
     3
100
AcDbPoint
 10
223.6
 20
123.5
 30
0.0
  0
LINE
  5
F2D
330
D80
100
AcDbEntity
  8
0
  6
Continuous
 62
     3
100
AcDbLine
 10
223.6
 20
123.5
 30
0.0
 11
222.0
 21
123.5
 31
0.0
  0
LINE
  5
F2E
330
D80
100
AcDbEntity
  8
0
  6
Continuous
 62
     3
100
AcDbLine
 10
223.6
 20
122.0
 30
0.0
 11
175.6
 21
122.0
 31
0.0
  0
LINE
  5
F2F
330
D80
100
AcDbEntity
  8
0
  6
Continuous
 62
     3
100
AcDbLine
 10
222.1
 20
117.5
 30
0.0
 11
199.6
 21
117.5
 31
0.0
  0
LINE
  5
F30
330
D80
100
AcDbEntity
  8
0
  6
Continuous
 62
     3
100
AcDbLine
 10
223.364793337
 20
115.8846267509999
 30
0.0
 11
223.6
 21
122.0
 31
0.0
  0
ARC
  5
F31
330
D80
100
AcDbEntity
  8
0
  6
Continuous
 62
     3
100
AcDbCircle
 10
222.965088867
 20
115.9
 30
0.0
 40
0.4
100
AcDbArc
 50
270.0
 51
357.797401838
  0
ARC
  5
F32
330
D80
100
AcDbEntity
  8
0
  6
Continuous
 62
     3
100
AcDbCircle
 10
221.6
 20
115.9
 30
0.0
 40
0.5
100
AcDbArc
 50
270.0
 51
0.0
  0
LINE
  5
F33
330
D80
100
AcDbEntity
  8
0
  6
Continuous
 62
     3
100
AcDbLine
 10
222.1
 20
115.7999999999999
 30
0.0
 11
222.1
 21
117.5
 31
0.0
  0
LINE
  5
F34
330
D80
100
AcDbEntity
  8
0
  6
Continuous
 62
     3
100
AcDbLine
 10
222.965088867
 20
115.5
 30
0.0
 11
222.4
 21
115.5
 31
0.0
  0
ARC
  5
F35
330
D80
100
AcDbEntity
  8
0
  6
Continuous
 62
     3
100
AcDbCircle
 10
222.4
 20
115.7999999999999
 30
0.0
 40
0.3
100
AcDbArc
 50
180.0000000009999
 51
270.0
  0
LINE
  5
F36
330
D80
100
AcDbEntity
  8
0
  6
Continuous
 62
     3
100
AcDbLine
 10
177.0999999999999
 20
117.5
 30
0.0
 11
199.6
 21
117.5
 31
0.0
  0
LINE
  5
F37
330
D80
100
AcDbEntity
  8
0
  6
Continuous
 62
     3
100
AcDbLine
 10
175.8352066629998
 20
115.8846267509999
 30
0.0
 11
175.6
 21
122.0
 31
0.0
  0
ARC
  5
F38
330
D80
100
AcDbEntity
  8
0
  6
Continuous
 62
     3
100
AcDbCircle
 10
176.234911133
 20
115.9
 30
0.0
 40
0.4
100
AcDbArc
 50
182.202598162
 51
270.0
  0
ARC
  5
F39
330
D80
100
AcDbEntity
  8
0
  6
Continuous
 62
     3
100
AcDbCircle
 10
177.5999999999999
 20
115.9
 30
0.0
 40
0.5
100
AcDbArc
 50
180.0
 51
270.0
  0
LINE
  5
F3A
330
D80
100
AcDbEntity
  8
0
  6
Continuous
 62
     3
100
AcDbLine
 10
177.0999999999999
 20
115.7999999999999
 30
0.0
 11
177.0999999999999
 21
117.5
 31
0.0
  0
LINE
  5
F3B
330
D80
100
AcDbEntity
  8
0
  6
Continuous
 62
     3
100
AcDbLine
 10
176.234911133
 20
115.5
 30
0.0
 11
176.8
 21
115.5
 31
0.0
  0
ARC
  5
F3C
330
D80
100
AcDbEntity
  8
0
  6
Continuous
 62
     3
100
AcDbCircle
 10
176.8
 20
115.7999999999999
 30
0.0
 40
0.3
100
AcDbArc
 50
270.0
 51
359.999999999
  0
ARC
  5
F3D
330
D80
100
AcDbEntity
  8
0
  6
Continuous
 62
     3
100
AcDbCircle
 10
199.6
 20
368.1249999999997
 30
0.0
 40
253.6249999999999
100
AcDbArc
 50
265.007512176
 51
270.000001207
  0
LINE
  5
F3E
330
D80
100
AcDbEntity
  8
0
  6
Continuous
 62
     3
100
AcDbLine
 10
187.5999999999999
 20
125.7
 30
0.0
 11
183.6
 21
125.7
 31
0.0
  0
LINE
  5
F3F
330
D80
100
AcDbEntity
  8
0
  6
Continuous
 62
     3
100
AcDbLine
 10
183.6
 20
123.7
 30
0.0
 11
187.5999999999999
 21
123.7
 31
0.0
  0
LINE
  5
F40
330
D80
100
AcDbEntity
  8
0
  6
Continuous
 62
     3
100
AcDbLine
 10
187.5999999999999
 20
124.7
 30
0.0
 11
183.6
 21
124.7
 31
0.0
  0
LINE
  5
F41
330
D80
100
AcDbEntity
  8
0
  6
Continuous
 62
     3
100
AcDbLine
 10
211.6
 20
125.7
 30
0.0
 11
215.6
 21
125.7
 31
0.0
  0
LINE
  5
F42
330
D80
100
AcDbEntity
  8
0
  6
Continuous
 62
     3
100
AcDbLine
 10
215.6
 20
123.7
 30
0.0
 11
211.6
 21
123.7
 31
0.0
  0
LINE
  5
F43
330
D80
100
AcDbEntity
  8
0
  6
Continuous
 62
     3
100
AcDbLine
 10
211.6
 20
124.7
 30
0.0
 11
215.6
 21
124.7
 31
0.0
  0
LINE
  5
F44
330
D80
100
AcDbEntity
  8
0
  6
Continuous
 62
     3
100
AcDbLine
 10
204.5999999999999
 20
137.1999999999995
 30
0.0
 11
204.5999999999999
 21
195.5999999999999
 31
0.0
  0
LINE
  5
F45
330
D80
100
AcDbEntity
  8
0
  6
Continuous
 62
     3
100
AcDbLine
 10
62.1
 20
164.8
 30
0.0
 11
63.57421875
 21
165.31875
 31
0.0
  0
LINE
  5
F46
330
D80
100
AcDbEntity
  8
0
  6
Continuous
 62
     3
100
AcDbLine
 10
63.57421875
 20
165.31875
 30
0.0
 11
65.11875
 21
165.8
 31
0.0
  0
LINE
  5
F47
330
D80
100
AcDbEntity
  8
0
  6
Continuous
 62
     3
100
AcDbLine
 10
65.11875
 20
165.8
 30
0.0
 11
66.80390625
 21
166.20625
 31
0.0
  0
LINE
  5
F48
330
D80
100
AcDbEntity
  8
0
  6
Continuous
 62
     3
100
AcDbLine
 10
62.0
 20
164.5999999999999
 30
0.0
 11
62.0
 21
188.2125
 31
0.0
  0
LINE
  5
F49
330
D80
100
AcDbEntity
  8
0
  6
Continuous
 62
     3
100
AcDbLine
 10
66.80390625
 20
166.20625
 30
0.0
 11
68.7
 21
166.5
 31
0.0
  0
LINE
  5
F4A
330
D80
100
AcDbEntity
  8
0
  6
Continuous
 62
     3
100
AcDbLine
 10
68.7
 20
166.5
 30
0.0
 11
71.19765624999998
 21
166.49140625
 31
0.0
  0
LINE
  5
F4B
330
D80
100
AcDbEntity
  8
0
  6
Continuous
 62
     3
100
AcDbLine
 10
71.19765624999998
 20
166.49140625
 30
0.0
 11
73.91875
 21
166.3562499999999
 31
0.0
  0
LINE
  5
F4C
330
D80
100
AcDbEntity
  8
0
  6
Continuous
 62
     3
100
AcDbLine
 10
82.85234374999998
 20
165.31640625
 30
0.0
 11
85.89374999999998
 21
164.84375
 31
0.0
  0
LINE
  5
F4D
330
D80
100
AcDbEntity
  8
0
  6
Continuous
 62
     3
100
AcDbLine
 10
85.89374999999998
 20
164.84375
 30
0.0
 11
88.86328125
 21
164.44921875
 31
0.0
  0
LINE
  5
F4E
330
D80
100
AcDbEntity
  8
0
  6
Continuous
 62
     3
100
AcDbLine
 10
88.86328125
 20
164.44921875
 30
0.0
 11
91.69999999999999
 21
164.1999999999999
 31
0.0
  0
LINE
  5
F4F
330
D80
100
AcDbEntity
  8
0
  6
Continuous
 62
     3
100
AcDbLine
 10
91.69999999999999
 20
164.1999999999999
 30
0.0
 11
93.95234374999999
 21
164.41328125
 31
0.0
  0
LINE
  5
F50
330
D80
100
AcDbEntity
  8
0
  6
Continuous
 62
     3
100
AcDbLine
 10
93.95234374999999
 20
164.41328125
 30
0.0
 11
96.10625
 21
164.8062499999998
 31
0.0
  0
LINE
  5
F51
330
D80
100
AcDbEntity
  8
0
  6
Continuous
 62
     3
100
AcDbLine
 10
79.79999999999998
 20
165.8
 30
0.0
 11
82.85234374999998
 21
165.31640625
 31
0.0
  0
LINE
  5
F52
330
D80
100
AcDbEntity
  8
0
  6
Continuous
 62
     3
100
AcDbLine
 10
73.91875
 20
166.3562499999999
 30
0.0
 11
76.80546875
 21
166.1179687499999
 31
0.0
  0
LINE
  5
F53
330
D80
100
AcDbEntity
  8
0
  6
Continuous
 62
     3
100
AcDbLine
 10
76.80546875
 20
166.1179687499999
 30
0.0
 11
79.79999999999998
 21
165.8
 31
0.0
  0
LINE
  5
F54
330
D80
100
AcDbEntity
  8
0
  6
Continuous
 62
     3
100
AcDbLine
 10
96.10625
 20
164.8062499999998
 30
0.0
 11
98.25703125
 21
165.34609375
 31
0.0
  0
LINE
  5
F55
330
D80
100
AcDbEntity
  8
0
  6
Continuous
 62
     3
100
AcDbLine
 10
98.25703125
 20
165.34609375
 30
0.0
 11
100.5
 21
166.0
 31
0.0
  0
LINE
  5
F56
330
D80
100
AcDbEntity
  8
0
  6
Continuous
 62
     3
100
AcDbLine
 10
100.5
 20
166.0
 30
0.0
 11
103.23515625
 21
166.92265625
 31
0.0
  0
LINE
  5
F57
330
D80
100
AcDbEntity
  8
0
  6
Continuous
 62
     3
100
AcDbLine
 10
106.1312499999996
 20
167.8187499999999
 30
0.0
 11
109.16171875
 21
168.5804687499999
 31
0.0
  0
LINE
  5
F58
330
D80
100
AcDbEntity
  8
0
  6
Continuous
 62
     3
100
AcDbLine
 10
109.16171875
 20
168.5804687499999
 30
0.0
 11
112.2999999999999
 21
169.1
 31
0.0
  0
LINE
  5
F59
330
D80
100
AcDbEntity
  8
0
  6
Continuous
 62
     3
100
AcDbLine
 10
103.23515625
 20
166.92265625
 30
0.0
 11
106.1312499999996
 21
167.8187499999999
 31
0.0
  0
LINE
  5
F5A
330
D80
100
AcDbEntity
  8
0
  6
Continuous
 62
     3
100
AcDbLine
 10
115.8203125
 20
168.6757812499998
 30
0.0
 11
119.2749999999999
 21
168.03125
 31
0.0
  0
LINE
  5
F5B
330
D80
100
AcDbEntity
  8
0
  6
Continuous
 62
     3
100
AcDbLine
 10
112.2999999999999
 20
169.1
 30
0.0
 11
115.8203125
 21
168.6757812499998
 31
0.0
  0
LINE
  5
F5C
330
D80
100
AcDbEntity
  8
0
  6
Continuous
 62
     3
100
AcDbLine
 10
122.5171875
 20
167.29609375
 30
0.0
 11
125.4
 21
166.5999999999999
 31
0.0
  0
LINE
  5
F5D
330
D80
100
AcDbEntity
  8
0
  6
Continuous
 62
     3
100
AcDbLine
 10
125.4
 20
166.5999999999999
 30
0.0
 11
127.2218749999999
 21
166.4828124999999
 31
0.0
  0
LINE
  5
F5E
330
D80
100
AcDbEntity
  8
0
  6
Continuous
 62
     3
100
AcDbLine
 10
127.2218749999999
 20
166.4828124999999
 30
0.0
 11
128.6125
 21
166.5
 31
0.0
  0
LINE
  5
F5F
330
D80
100
AcDbEntity
  8
0
  6
Continuous
 62
     3
100
AcDbLine
 10
128.6125
 20
166.5
 30
0.0
 11
129.646875
 21
166.6171875
 31
0.0
  0
LINE
  5
F60
330
D80
100
AcDbEntity
  8
0
  6
Continuous
 62
     3
100
AcDbLine
 10
129.646875
 20
166.6171875
 30
0.0
 11
130.4
 21
166.8
 31
0.0
  0
LINE
  5
F61
330
D80
100
AcDbEntity
  8
0
  6
Continuous
 62
     3
100
AcDbLine
 10
130.4
 20
166.8
 30
0.0
 11
131.00546875
 21
166.9476562499999
 31
0.0
  0
LINE
  5
F62
330
D80
100
AcDbEntity
  8
0
  6
Continuous
 62
     3
100
AcDbLine
 10
131.00546875
 20
166.9476562499999
 30
0.0
 11
131.45625
 21
167.11875
 31
0.0
  0
LINE
  5
F63
330
D80
100
AcDbEntity
  8
0
  6
Continuous
 62
     3
100
AcDbLine
 10
131.45625
 20
167.11875
 30
0.0
 11
131.80390625
 21
167.3054687499998
 31
0.0
  0
LINE
  5
F64
330
D80
100
AcDbEntity
  8
0
  6
Continuous
 62
     3
100
AcDbLine
 10
131.80390625
 20
167.3054687499998
 30
0.0
 11
132.0999999999999
 21
167.5
 31
0.0
  0
LINE
  5
F65
330
D80
100
AcDbEntity
  8
0
  6
Continuous
 62
     3
100
AcDbLine
 10
132.0
 20
187.2125
 30
0.0
 11
132.0
 21
167.1999999999998
 31
0.0
  0
LINE
  5
F66
330
D80
100
AcDbEntity
  8
0
  6
Continuous
 62
     3
100
AcDbLine
 10
119.2749999999999
 20
168.03125
 30
0.0
 11
122.5171875
 21
167.29609375
 31
0.0
  0
LINE
  5
F69
330
D80
100
AcDbEntity
  8
0
  6
Continuous
 62
     3
100
AcDbLine
 10
55.0
 20
231.0124999999999
 30
0.0
 11
55.0
 21
243.5124999999999
 31
0.0
  0
CIRCLE
  5
F6A
330
D80
100
AcDbEntity
  8
0
  6
Continuous
 62
     3
100
AcDbCircle
 10
58.9
 20
237.0124999999999
 30
0.0
 40
2.5
  0
CIRCLE
  5
F6B
330
D80
100
AcDbEntity
  8
0
  6
Continuous
 62
     3
100
AcDbCircle
 10
66.52
 20
237.0124999999999
 30
0.0
 40
2.5
  0
CIRCLE
  5
F6C
330
D80
100
AcDbEntity
  8
0
  6
Continuous
 62
     3
100
AcDbCircle
 10
74.14
 20
237.0124999999999
 30
0.0
 40
2.5
  0
CIRCLE
  5
F6D
330
D80
100
AcDbEntity
  8
0
  6
Continuous
 62
     3
100
AcDbCircle
 10
81.76
 20
237.0124999999999
 30
0.0
 40
2.5
  0
CIRCLE
  5
F6E
330
D80
100
AcDbEntity
  8
0
  6
Continuous
 62
     3
100
AcDbCircle
 10
89.37999999999998
 20
237.0124999999999
 30
0.0
 40
2.5
  0
CIRCLE
  5
F6F
330
D80
100
AcDbEntity
  8
0
  6
Continuous
 62
     3
100
AcDbCircle
 10
97.0
 20
237.0124999999999
 30
0.0
 40
2.5
  0
CIRCLE
  5
F70
330
D80
100
AcDbEntity
  8
0
  6
Continuous
 62
     3
100
AcDbCircle
 10
104.62
 20
237.0124999999999
 30
0.0
 40
2.5
  0
CIRCLE
  5
F71
330
D80
100
AcDbEntity
  8
0
  6
Continuous
 62
     3
100
AcDbCircle
 10
112.24
 20
237.0124999999999
 30
0.0
 40
2.5
  0
LINE
  5
F72
330
D80
100
AcDbEntity
  8
0
  6
Continuous
 62
     3
100
AcDbLine
 10
116.6099999999999
 20
242.3925
 30
0.0
 11
116.6099999999999
 21
231.0124999999999
 31
0.0
  0
LINE
  5
F73
330
D80
100
AcDbEntity
  8
0
  6
Continuous
 62
     3
100
AcDbLine
 10
115.49
 20
231.0124999999999
 30
0.0
 11
115.49
 21
242.3925
 31
0.0
  0
LINE
  5
F74
330
D80
100
AcDbEntity
  8
0
  6
Continuous
 62
     3
100
AcDbLine
 10
115.49
 20
242.3925
 30
0.0
 11
108.9899999999999
 21
242.3925
 31
0.0
  0
LINE
  5
F75
330
D80
100
AcDbEntity
  8
0
  6
Continuous
 62
     3
100
AcDbLine
 10
108.9899999999999
 20
242.3925
 30
0.0
 11
108.9899999999999
 21
231.0124999999999
 31
0.0
  0
LINE
  5
F76
330
D80
100
AcDbEntity
  8
0
  6
Continuous
 62
     3
100
AcDbLine
 10
107.8699999999999
 20
231.0124999999999
 30
0.0
 11
107.8699999999999
 21
242.3925
 31
0.0
  0
LINE
  5
F77
330
D80
100
AcDbEntity
  8
0
  6
Continuous
 62
     3
100
AcDbLine
 10
107.8699999999999
 20
242.3925
 30
0.0
 11
101.37
 21
242.3925
 31
0.0
  0
LINE
  5
F78
330
D80
100
AcDbEntity
  8
0
  6
Continuous
 62
     3
100
AcDbLine
 10
101.37
 20
242.3925
 30
0.0
 11
101.37
 21
231.0124999999999
 31
0.0
  0
LINE
  5
F79
330
D80
100
AcDbEntity
  8
0
  6
Continuous
 62
     3
100
AcDbLine
 10
100.2499999999999
 20
231.0124999999999
 30
0.0
 11
100.2499999999999
 21
242.3925
 31
0.0
  0
LINE
  5
F7A
330
D80
100
AcDbEntity
  8
0
  6
Continuous
 62
     3
100
AcDbLine
 10
100.2499999999999
 20
242.3925
 30
0.0
 11
93.75
 21
242.3925
 31
0.0
  0
LINE
  5
F7B
330
D80
100
AcDbEntity
  8
0
  6
Continuous
 62
     3
100
AcDbLine
 10
93.75
 20
242.3925
 30
0.0
 11
93.75
 21
231.0124999999999
 31
0.0
  0
LINE
  5
F7C
330
D80
100
AcDbEntity
  8
0
  6
Continuous
 62
     3
100
AcDbLine
 10
92.62999999999999
 20
231.0124999999999
 30
0.0
 11
92.62999999999999
 21
242.3925
 31
0.0
  0
LINE
  5
F7D
330
D80
100
AcDbEntity
  8
0
  6
Continuous
 62
     3
100
AcDbLine
 10
92.62999999999999
 20
242.3925
 30
0.0
 11
86.12999999999997
 21
242.3925
 31
0.0
  0
LINE
  5
F7E
330
D80
100
AcDbEntity
  8
0
  6
Continuous
 62
     3
100
AcDbLine
 10
86.12999999999997
 20
242.3925
 30
0.0
 11
86.12999999999997
 21
231.0124999999999
 31
0.0
  0
LINE
  5
F7F
330
D80
100
AcDbEntity
  8
0
  6
Continuous
 62
     3
100
AcDbLine
 10
85.01000000000002
 20
231.0124999999999
 30
0.0
 11
85.01000000000002
 21
242.3925
 31
0.0
  0
LINE
  5
F80
330
D80
100
AcDbEntity
  8
0
  6
Continuous
 62
     3
100
AcDbLine
 10
85.01000000000002
 20
242.3925
 30
0.0
 11
78.51
 21
242.3925
 31
0.0
  0
LINE
  5
F81
330
D80
100
AcDbEntity
  8
0
  6
Continuous
 62
     3
100
AcDbLine
 10
78.51
 20
242.3925
 30
0.0
 11
78.51
 21
231.0124999999999
 31
0.0
  0
LINE
  5
F82
330
D80
100
AcDbEntity
  8
0
  6
Continuous
 62
     3
100
AcDbLine
 10
77.39
 20
231.0124999999999
 30
0.0
 11
77.39
 21
242.3925
 31
0.0
  0
LINE
  5
F83
330
D80
100
AcDbEntity
  8
0
  6
Continuous
 62
     3
100
AcDbLine
 10
77.39
 20
242.3925
 30
0.0
 11
70.89
 21
242.3925
 31
0.0
  0
LINE
  5
F84
330
D80
100
AcDbEntity
  8
0
  6
Continuous
 62
     3
100
AcDbLine
 10
70.89
 20
242.3925
 30
0.0
 11
70.89
 21
231.0124999999999
 31
0.0
  0
LINE
  5
F85
330
D80
100
AcDbEntity
  8
0
  6
Continuous
 62
     3
100
AcDbLine
 10
63.0
 20
243.5124999999999
 30
0.0
 11
63.0
 21
231.0124999999999
 31
0.0
  0
LINE
  5
F86
330
D80
100
AcDbEntity
  8
0
  6
Continuous
 62
     3
100
AcDbLine
 10
69.77
 20
231.0124999999999
 30
0.0
 11
69.77
 21
242.3925
 31
0.0
  0
LINE
  5
F87
330
D80
100
AcDbEntity
  8
0
  6
Continuous
 62
     3
100
AcDbLine
 10
69.77
 20
242.3925
 30
0.0
 11
63.0
 21
242.3925
 31
0.0
  0
LINE
  5
F88
330
D80
100
AcDbEntity
  8
0
  6
Continuous
 62
     3
100
AcDbLine
 10
58.9
 20
237.0124999999999
 30
0.0
 11
60.597056275
 21
235.315443725
 31
0.0
  0
LINE
  5
F89
330
D80
100
AcDbEntity
  8
0
  6
Continuous
 62
     3
100
AcDbLine
 10
58.9
 20
237.0124999999999
 30
0.0
 11
57.20294372499999
 21
235.315443725
 31
0.0
  0
LINE
  5
F8A
330
D80
100
AcDbEntity
  8
0
  6
Continuous
 62
     3
100
AcDbLine
 10
58.9
 20
237.0124999999999
 30
0.0
 11
57.20294372499999
 21
238.709556275
 31
0.0
  0
LINE
  5
F8B
330
D80
100
AcDbEntity
  8
0
  6
Continuous
 62
     3
100
AcDbLine
 10
58.9
 20
237.0124999999999
 30
0.0
 11
60.597056275
 21
238.709556275
 31
0.0
  0
LINE
  5
F8C
330
D80
100
AcDbEntity
  8
0
  6
Continuous
 62
     3
100
AcDbLine
 10
117.86
 20
237.0124999999999
 30
0.0
 11
121.86
 21
237.0124999999999
 31
0.0
  0
LINE
  5
F8D
330
D80
100
AcDbEntity
  8
0
  6
Continuous
 62
     3
100
AcDbLine
 10
119.86
 20
235.5125
 30
0.0
 11
119.86
 21
238.5124999999999
 31
0.0
  0
LINE
  5
F8E
330
D80
100
AcDbEntity
  8
0
  6
Continuous
 62
     3
100
AcDbLine
 10
112.24
 20
235.5125
 30
0.0
 11
112.24
 21
238.5124999999999
 31
0.0
  0
LINE
  5
F8F
330
D80
100
AcDbEntity
  8
0
  6
Continuous
 62
     3
100
AcDbLine
 10
110.24
 20
237.0124999999999
 30
0.0
 11
114.24
 21
237.0124999999999
 31
0.0
  0
LINE
  5
F90
330
D80
100
AcDbEntity
  8
0
  6
Continuous
 62
     3
100
AcDbLine
 10
104.62
 20
235.5125
 30
0.0
 11
104.62
 21
238.5124999999999
 31
0.0
  0
LINE
  5
F91
330
D80
100
AcDbEntity
  8
0
  6
Continuous
 62
     3
100
AcDbLine
 10
106.62
 20
237.0124999999999
 30
0.0
 11
102.62
 21
237.0124999999999
 31
0.0
  0
LINE
  5
F92
330
D80
100
AcDbEntity
  8
0
  6
Continuous
 62
     3
100
AcDbLine
 10
97.0
 20
235.5125
 30
0.0
 11
97.0
 21
238.5124999999999
 31
0.0
  0
LINE
  5
F93
330
D80
100
AcDbEntity
  8
0
  6
Continuous
 62
     3
100
AcDbLine
 10
99.0
 20
237.0124999999999
 30
0.0
 11
95.0
 21
237.0124999999999
 31
0.0
  0
LINE
  5
F94
330
D80
100
AcDbEntity
  8
0
  6
Continuous
 62
     3
100
AcDbLine
 10
89.37999999999998
 20
235.5125
 30
0.0
 11
89.37999999999998
 21
238.5124999999999
 31
0.0
  0
LINE
  5
F95
330
D80
100
AcDbEntity
  8
0
  6
Continuous
 62
     3
100
AcDbLine
 10
91.37999999999999
 20
237.0124999999999
 30
0.0
 11
87.37999999999997
 21
237.0124999999999
 31
0.0
  0
LINE
  5
F96
330
D80
100
AcDbEntity
  8
0
  6
Continuous
 62
     3
100
AcDbLine
 10
81.76
 20
235.5125
 30
0.0
 11
81.76
 21
238.5124999999999
 31
0.0
  0
LINE
  5
F97
330
D80
100
AcDbEntity
  8
0
  6
Continuous
 62
     3
100
AcDbLine
 10
83.76000000000002
 20
237.0124999999999
 30
0.0
 11
79.76
 21
237.0124999999999
 31
0.0
  0
LINE
  5
F98
330
D80
100
AcDbEntity
  8
0
  6
Continuous
 62
     3
100
AcDbLine
 10
76.14
 20
237.0124999999999
 30
0.0
 11
72.14
 21
237.0124999999999
 31
0.0
  0
LINE
  5
F99
330
D80
100
AcDbEntity
  8
0
  6
Continuous
 62
     3
100
AcDbLine
 10
74.14
 20
235.5125
 30
0.0
 11
74.14
 21
238.5124999999999
 31
0.0
  0
LINE
  5
F9A
330
D80
100
AcDbEntity
  8
0
  6
Continuous
 62
     3
100
AcDbLine
 10
68.52
 20
237.0124999999999
 30
0.0
 11
64.51999999999999
 21
237.0124999999999
 31
0.0
  0
LINE
  5
F9B
330
D80
100
AcDbEntity
  8
0
  6
Continuous
 62
     3
100
AcDbLine
 10
66.52
 20
235.5125
 30
0.0
 11
66.52
 21
238.5124999999999
 31
0.0
  0
ARC
  5
F9C
330
D80
100
AcDbEntity
  8
0
  6
Continuous
 62
     3
100
AcDbCircle
 10
58.9
 20
237.0124999999999
 30
0.0
 40
3.0
100
AcDbArc
 50
270.0
 51
90.0
  0
LINE
  5
F9D
330
D80
100
AcDbEntity
  8
0
  6
Continuous
 62
     3
100
AcDbLine
 10
58.9
 20
234.0125
 30
0.0
 11
55.0
 21
234.0125
 31
0.0
  0
LINE
  5
F9E
330
D80
100
AcDbEntity
  8
0
  6
Continuous
 62
     3
100
AcDbLine
 10
58.9
 20
240.0125
 30
0.0
 11
55.0
 21
240.0125
 31
0.0
  0
LINE
  5
F9F
330
D80
100
AcDbEntity
  8
0
  6
Continuous
 62
     3
100
AcDbLine
 10
61.0
 20
243.5124999999999
 30
0.0
 11
61.0
 21
239.1125
 31
0.0
  0
LINE
  5
FA0
330
D80
100
AcDbEntity
  8
0
  6
Continuous
 62
     3
100
AcDbLine
 10
61.0
 20
234.870071471
 30
0.0
 11
61.0
 21
231.0124999999999
 31
0.0
  0
LINE
  5
FA1
330
D80
100
AcDbEntity
  8
0
  6
Continuous
 62
     3
100
AcDbLine
 10
55.0
 20
243.5124999999999
 30
0.0
 11
139.0
 21
243.5124999999999
 31
0.0
  0
LINE
  5
FA2
330
D80
100
AcDbEntity
  8
0
  6
Continuous
 62
     3
100
AcDbLine
 10
139.0
 20
243.5124999999999
 30
0.0
 11
139.0
 21
231.0124999999999
 31
0.0
  0
CIRCLE
  5
FA3
330
D80
100
AcDbEntity
  8
0
  6
Continuous
 62
     3
100
AcDbCircle
 10
119.86
 20
237.0124999999999
 30
0.0
 40
2.5
  0
CIRCLE
  5
FA4
330
D80
100
AcDbEntity
  8
0
  6
Continuous
 62
     3
100
AcDbCircle
 10
127.48
 20
237.0124999999999
 30
0.0
 40
2.5
  0
CIRCLE
  5
FA5
330
D80
100
AcDbEntity
  8
0
  6
Continuous
 62
     3
100
AcDbCircle
 10
135.0999999999999
 20
237.0124999999999
 30
0.0
 40
2.5
  0
LINE
  5
FA6
330
D80
100
AcDbEntity
  8
0
  6
Continuous
 62
     3
100
AcDbLine
 10
131.0
 20
242.3925
 30
0.0
 11
124.2299999999999
 21
242.3925
 31
0.0
  0
LINE
  5
FA7
330
D80
100
AcDbEntity
  8
0
  6
Continuous
 62
     3
100
AcDbLine
 10
124.2299999999999
 20
242.3925
 30
0.0
 11
124.2299999999999
 21
231.0124999999999
 31
0.0
  0
LINE
  5
FA8
330
D80
100
AcDbEntity
  8
0
  6
Continuous
 62
     3
100
AcDbLine
 10
123.11
 20
231.0124999999999
 30
0.0
 11
123.11
 21
242.3925
 31
0.0
  0
LINE
  5
FA9
330
D80
100
AcDbEntity
  8
0
  6
Continuous
 62
     3
100
AcDbLine
 10
123.11
 20
242.3925
 30
0.0
 11
116.6099999999999
 21
242.3925
 31
0.0
  0
LINE
  5
FAA
330
D80
100
AcDbEntity
  8
0
  6
Continuous
 62
     3
100
AcDbLine
 10
131.0
 20
231.0124999999999
 30
0.0
 11
131.0
 21
243.5124999999999
 31
0.0
  0
LINE
  5
FAB
330
D80
100
AcDbEntity
  8
0
  6
Continuous
 62
     3
100
AcDbLine
 10
135.0999999999999
 20
237.0124999999999
 30
0.0
 11
136.7970562749997
 21
238.709556275
 31
0.0
  0
LINE
  5
FAC
330
D80
100
AcDbEntity
  8
0
  6
Continuous
 62
     3
100
AcDbLine
 10
135.0999999999999
 20
237.0124999999999
 30
0.0
 11
136.7970562749997
 21
235.315443725
 31
0.0
  0
LINE
  5
FAD
330
D80
100
AcDbEntity
  8
0
  6
Continuous
 62
     3
100
AcDbLine
 10
135.0999999999999
 20
237.0124999999999
 30
0.0
 11
133.402943725
 21
235.315443725
 31
0.0
  0
LINE
  5
FAE
330
D80
100
AcDbEntity
  8
0
  6
Continuous
 62
     3
100
AcDbLine
 10
135.0999999999999
 20
237.0124999999999
 30
0.0
 11
133.402943725
 21
238.709556275
 31
0.0
  0
LINE
  5
FAF
330
D80
100
AcDbEntity
  8
0
  6
Continuous
 62
     3
100
AcDbLine
 10
125.48
 20
237.0124999999999
 30
0.0
 11
129.4799999999999
 21
237.0124999999999
 31
0.0
  0
LINE
  5
FB0
330
D80
100
AcDbEntity
  8
0
  6
Continuous
 62
     3
100
AcDbLine
 10
127.48
 20
235.5125
 30
0.0
 11
127.48
 21
238.5124999999999
 31
0.0
  0
ARC
  5
FB1
330
D80
100
AcDbEntity
  8
0
  6
Continuous
 62
     3
100
AcDbCircle
 10
135.0999999999999
 20
237.0124999999999
 30
0.0
 40
3.0
100
AcDbArc
 50
90.0
 51
270.0
  0
LINE
  5
FB2
330
D80
100
AcDbEntity
  8
0
  6
Continuous
 62
     3
100
AcDbLine
 10
133.0
 20
243.5124999999999
 30
0.0
 11
133.0
 21
239.154928529
 31
0.0
  0
LINE
  5
FB3
330
D80
100
AcDbEntity
  8
0
  6
Continuous
 62
     3
100
AcDbLine
 10
133.0
 20
234.870071471
 30
0.0
 11
133.0
 21
231.0124999999999
 31
0.0
  0
LINE
  5
FB4
330
D80
100
AcDbEntity
  8
0
  6
Continuous
 62
     3
100
AcDbLine
 10
135.0999999999999
 20
234.0125
 30
0.0
 11
139.0
 21
234.0125
 31
0.0
  0
LINE
  5
FB5
330
D80
100
AcDbEntity
  8
0
  6
Continuous
 62
     3
100
AcDbLine
 10
135.0999999999999
 20
240.0125
 30
0.0
 11
139.0
 21
240.0125
 31
0.0
  0
LINE
  5
FB8
330
D80
100
AcDbEntity
  8
0
  6
Continuous
 62
     3
100
AcDbLine
 10
190.0999999999999
 20
194.0
 30
0.0
 11
190.0999999999999
 21
212.5999999999999
 31
0.0
  0
LINE
  5
FB9
330
D80
100
AcDbEntity
  8
0
  6
Continuous
 62
     3
100
AcDbLine
 10
177.5999999999999
 20
194.0
 30
0.0
 11
177.5999999999999
 21
212.5999999999999
 31
0.0
  0
LINE
  5
FBA
330
D80
100
AcDbEntity
  8
0
  6
Continuous
 62
     3
100
AcDbLine
 10
177.5999999999999
 20
212.5999999999999
 30
0.0
 11
190.0999999999999
 21
212.5999999999999
 31
0.0
  0
LINE
  5
FBB
330
D80
100
AcDbEntity
  8
0
  6
Continuous
 62
     3
100
AcDbLine
 10
180.0999999999999
 20
201.0
 30
0.0
 11
180.0999999999999
 21
212.55
 31
0.0
  0
LINE
  5
FBC
330
D80
100
AcDbEntity
  8
0
  6
Continuous
 62
     3
100
AcDbLine
 10
180.0999999999999
 20
201.0
 30
0.0
 11
187.1
 21
201.0
 31
0.0
  0
LINE
  5
FBD
330
D80
100
AcDbEntity
  8
0
  6
Continuous
 62
     3
100
AcDbLine
 10
187.1
 20
201.0
 30
0.0
 11
187.1
 21
212.55
 31
0.0
  0
LINE
  5
FBE
330
D80
100
AcDbEntity
  8
0
  6
Continuous
 62
     3
100
AcDbLine
 10
190.0999999999999
 20
206.5999999999999
 30
0.0
 11
187.1
 21
206.5999999999999
 31
0.0
  0
LINE
  5
FBF
330
D80
100
AcDbEntity
  8
0
  6
Continuous
 62
     3
100
AcDbLine
 10
180.0999999999999
 20
206.5999999999999
 30
0.0
 11
177.5999999999999
 21
206.5999999999999
 31
0.0
  0
LINE
  5
FC0
330
D80
100
AcDbEntity
  8
0
  6
Continuous
 62
     3
100
AcDbLine
 10
186.0999999999999
 20
201.0
 30
0.0
 11
186.0999999999999
 21
201.5
 31
0.0
  0
LINE
  5
FC1
330
D80
100
AcDbEntity
  8
0
  6
Continuous
 62
     3
100
AcDbLine
 10
186.0999999999999
 20
201.5
 30
0.0
 11
181.0999999999999
 21
201.5
 31
0.0
  0
LINE
  5
FC2
330
D80
100
AcDbEntity
  8
0
  6
Continuous
 62
     3
100
AcDbLine
 10
181.0999999999999
 20
201.5
 30
0.0
 11
181.0999999999999
 21
201.0
 31
0.0
  0
ARC
  5
FC3
330
D80
100
AcDbEntity
  8
0
  6
Continuous
 62
     3
100
AcDbCircle
 10
184.6
 20
201.5
 30
0.0
 40
1.5
100
AcDbArc
 50
0.0
 51
90.0
  0
ARC
  5
FC4
330
D80
100
AcDbEntity
  8
0
  6
Continuous
 62
     3
100
AcDbCircle
 10
182.6
 20
201.5
 30
0.0
 40
1.5
100
AcDbArc
 50
90.0
 51
180.0
  0
LINE
  5
FC5
330
D80
100
AcDbEntity
  8
0
  6
Continuous
 62
     3
100
AcDbLine
 10
182.6
 20
203.0
 30
0.0
 11
184.6
 21
203.0
 31
0.0
  0
LINE
  5
FC9
330
D80
100
AcDbEntity
  8
0
  6
Continuous
 62
     1
100
AcDbLine
 10
49.0
 20
97.0
 30
0.0
 11
36.0
 21
97.0
 31
0.0
  0
LINE
  5
FCA
330
D80
100
AcDbEntity
  8
0
  6
Continuous
 62
     1
100
AcDbLine
 10
37.0
 20
97.0
 30
0.0
 11
36.48236191
 21
95.068148347
 31
0.0
  0
LINE
  5
FCB
330
D80
100
AcDbEntity
  8
0
  6
Continuous
 62
     1
100
AcDbLine
 10
37.0
 20
97.0
 30
0.0
 11
37.51763808999999
 21
95.068148347
 31
0.0
  0
LINE
  5
FCC
330
D80
100
AcDbEntity
  8
0
  6
Continuous
 62
     1
100
AcDbLine
 10
37.0
 20
97.0
 30
0.0
 11
37.0
 21
49.0
 31
0.0
  0
LINE
  5
FCD
330
D80
100
AcDbEntity
  8
0
  6
Continuous
 62
     1
100
AcDbLine
 10
37.0
 20
49.0
 30
0.0
 11
37.51763808999999
 21
50.931851653
 31
0.0
  0
LINE
  5
FCE
330
D80
100
AcDbEntity
  8
0
  6
Continuous
 62
     1
100
AcDbLine
 10
37.0
 20
49.0
 30
0.0
 11
36.48236191
 21
50.931851653
 31
0.0
  0
LINE
  5
FCF
330
D80
100
AcDbEntity
  8
0
  6
Continuous
 62
     1
100
AcDbLine
 10
49.0
 20
49.0
 30
0.0
 11
36.0
 21
49.0
 31
0.0
  0
LINE
  5
FD0
330
D80
100
AcDbEntity
  8
0
  6
Continuous
 62
     1
100
AcDbLine
 10
37.0
 20
212.5999999999999
 30
0.0
 11
36.48236191
 21
210.668148347
 31
0.0
  0
LINE
  5
FD1
330
D80
100
AcDbEntity
  8
0
  6
Continuous
 62
     1
100
AcDbLine
 10
37.0
 20
212.5999999999999
 30
0.0
 11
37.51763808999999
 21
210.668148347
 31
0.0
  0
LINE
  5
FD2
330
D80
100
AcDbEntity
  8
0
  6
Continuous
 62
     1
100
AcDbLine
 10
61.0
 20
212.5999999999999
 30
0.0
 11
36.0
 21
212.5999999999999
 31
0.0
  0
LINE
  5
FD3
330
D80
100
AcDbEntity
  8
0
  6
Continuous
 62
     1
100
AcDbLine
 10
49.0
 20
123.5
 30
0.0
 11
43.7
 21
123.5
 31
0.0
  0
LINE
  5
FD4
330
D80
100
AcDbEntity
  8
0
  6
Continuous
 62
     1
100
AcDbLine
 10
43.7
 20
194.0
 30
0.0
 11
43.18236190999999
 21
192.068148347
 31
0.0
  0
LINE
  5
FD5
330
D80
100
AcDbEntity
  8
0
  6
Continuous
 62
     1
100
AcDbLine
 10
43.7
 20
194.0
 30
0.0
 11
44.21763809
 21
192.068148347
 31
0.0
  0
LINE
  5
FD6
330
D80
100
AcDbEntity
  8
0
  6
Continuous
 62
     1
100
AcDbLine
 10
50.5
 20
194.0
 30
0.0
 11
42.7
 21
194.0
 31
0.0
  0
LINE
  5
FD7
330
D80
100
AcDbEntity
  8
0
  6
Continuous
 62
     1
100
AcDbLine
 10
43.7
 20
123.5
 30
0.0
 11
44.21763809
 21
125.4318516529999
 31
0.0
  0
LINE
  5
FD8
330
D80
100
AcDbEntity
  8
0
  6
Continuous
 62
     1
100
AcDbLine
 10
43.7
 20
123.5
 30
0.0
 11
43.18236190999999
 21
125.4318516529999
 31
0.0
  0
LINE
  5
FD9
330
D80
100
AcDbEntity
  8
0
  6
Continuous
 62
     1
100
AcDbLine
 10
43.7
 20
123.5
 30
0.0
 11
43.7
 21
194.0
 31
0.0
  0
LINE
  5
FDA
330
D80
100
AcDbEntity
  8
0
  6
Continuous
 62
     1
100
AcDbLine
 10
49.0
 20
114.5
 30
0.0
 11
36.0
 21
114.5
 31
0.0
  0
LINE
  5
FDB
330
D80
100
AcDbEntity
  8
0
  6
Continuous
 62
     4
100
AcDbLine
 10
223.9
 20
123.5
 30
0.0
 11
240.7
 21
123.5
 31
0.0
  0
LINE
  5
FDC
330
D80
100
AcDbEntity
  8
0
  6
Continuous
 62
     4
100
AcDbLine
 10
239.6999999999999
 20
123.5
 30
0.0
 11
239.234125719
 21
121.761333513
 31
0.0
  0
LINE
  5
FDD
330
D80
100
AcDbEntity
  8
0
  6
Continuous
 62
     4
100
AcDbLine
 10
239.6999999999999
 20
123.5
 30
0.0
 11
240.165874281
 21
121.761333513
 31
0.0
  0
LINE
  5
FDE
330
D80
100
AcDbEntity
  8
0
  6
Continuous
 62
     4
100
AcDbLine
 10
239.6999999999999
 20
123.5
 30
0.0
 11
239.6999999999999
 21
115.5
 31
0.0
  0
LINE
  5
FDF
330
D80
100
AcDbEntity
  8
0
  6
Continuous
 62
     4
100
AcDbLine
 10
239.6999999999999
 20
115.5
 30
0.0
 11
240.165874281
 21
117.238666487
 31
0.0
  0
LINE
  5
FE0
330
D80
100
AcDbEntity
  8
0
  6
Continuous
 62
     4
100
AcDbLine
 10
239.6999999999999
 20
115.5
 30
0.0
 11
239.234125719
 21
117.238666487
 31
0.0
  0
LINE
  5
FE1
330
D80
100
AcDbEntity
  8
0
  6
Continuous
 62
     4
100
AcDbLine
 10
223.9
 20
115.5
 30
0.0
 11
240.7
 21
115.5
 31
0.0
  0
TEXT
  5
FE2
330
D80
100
AcDbEntity
  8
0
  6
Continuous
 62
     4
100
AcDbText
 10
238.7
 20
118.5
 30
0.0
 40
2.0
  1
８
 50
90.0
  7
KANJI3
100
AcDbText
  0
LINE
  5
FE3
330
D80
100
AcDbEntity
  8
0
  6
Continuous
 62
     4
100
AcDbLine
 10
241.0
 20
123.5
 30
0.0
 11
244.95
 21
123.5
 31
0.0
  0
LINE
  5
FE4
330
D80
100
AcDbEntity
  8
0
  6
Continuous
 62
     4
100
AcDbLine
 10
243.9499999999999
 20
123.5
 30
0.0
 11
243.484125719
 21
121.761333513
 31
0.0
  0
LINE
  5
FE5
330
D80
100
AcDbEntity
  8
0
  6
Continuous
 62
     4
100
AcDbLine
 10
243.9499999999999
 20
123.5
 30
0.0
 11
244.415874281
 21
121.761333513
 31
0.0
  0
LINE
  5
FE6
330
D80
100
AcDbEntity
  8
0
  6
Continuous
 62
     4
100
AcDbLine
 10
243.9499999999999
 20
123.5
 30
0.0
 11
243.9499999999999
 21
114.5
 31
0.0
  0
LINE
  5
FE7
330
D80
100
AcDbEntity
  8
0
  6
Continuous
 62
     4
100
AcDbLine
 10
243.9499999999999
 20
114.5
 30
0.0
 11
244.415874281
 21
116.238666487
 31
0.0
  0
LINE
  5
FE8
330
D80
100
AcDbEntity
  8
0
  6
Continuous
 62
     4
100
AcDbLine
 10
243.9499999999999
 20
114.5
 30
0.0
 11
243.484125719
 21
116.238666487
 31
0.0
  0
TEXT
  5
FE9
330
D80
100
AcDbEntity
  8
0
  6
Continuous
 62
     4
100
AcDbText
 10
242.9499999999999
 20
118.0
 30
0.0
 40
2.0
  1
９
 50
90.0
  7
KANJI3
100
AcDbText
  0
LINE
  5
FEA
330
D80
100
AcDbEntity
  8
0
  6
Continuous
 62
     4
100
AcDbLine
 10
177.0999999999999
 20
105.0
 30
0.0
 11
178.838666487
 21
104.534125719
 31
0.0
  0
LINE
  5
FEB
330
D80
100
AcDbEntity
  8
0
  6
Continuous
 62
     4
100
AcDbLine
 10
177.0999999999999
 20
105.0
 30
0.0
 11
178.838666487
 21
105.465874281
 31
0.0
  0
LINE
  5
FEC
330
D80
100
AcDbEntity
  8
0
  6
Continuous
 62
     4
100
AcDbLine
 10
177.0999999999999
 20
105.0
 30
0.0
 11
222.1
 21
105.0
 31
0.0
  0
LINE
  5
FED
330
D80
100
AcDbEntity
  8
0
  6
Continuous
 62
     4
100
AcDbLine
 10
222.1
 20
105.0
 30
0.0
 11
220.361333513
 21
105.465874281
 31
0.0
  0
LINE
  5
FEE
330
D80
100
AcDbEntity
  8
0
  6
Continuous
 62
     4
100
AcDbLine
 10
222.1
 20
105.0
 30
0.0
 11
220.361333513
 21
104.534125719
 31
0.0
  0
TEXT
  5
FEF
330
D80
100
AcDbEntity
  8
0
  6
Continuous
 62
     4
100
AcDbText
 10
195.5999999999999
 20
106.0
 30
0.0
 40
2.0
  1
４４.８
  7
KANJI3
100
AcDbText
  0
LINE
  5
FF0
330
D80
100
AcDbEntity
  8
0
  6
Continuous
 62
     4
100
AcDbLine
 10
222.1
 20
113.0
 30
0.0
 11
222.1
 21
104.0
 31
0.0
  0
LINE
  5
FF1
330
D80
100
AcDbEntity
  8
0
  6
Continuous
 62
     4
100
AcDbLine
 10
222.1
 20
123.1999999999999
 30
0.0
 11
222.1
 21
120.0
 31
0.0
  0
LINE
  5
FF2
330
D80
100
AcDbEntity
  8
0
  6
Continuous
 62
     4
100
AcDbLine
 10
177.0999999999999
 20
113.5
 30
0.0
 11
177.0999999999999
 21
104.0
 31
0.0
  0
LINE
  5
FF3
330
D80
100
AcDbEntity
  8
0
  6
Continuous
 62
     4
100
AcDbLine
 10
177.0999999999999
 20
123.1999999999999
 30
0.0
 11
177.0999999999999
 21
118.5
 31
0.0
  0
LINE
  5
1002
330
D80
100
AcDbEntity
  8
0
  6
Continuous
 62
     1
100
AcDbLine
 10
49.0
 20
42.5
 30
0.0
 11
50.931851653
 21
41.98236191
 31
0.0
  0
LINE
  5
1003
330
D80
100
AcDbEntity
  8
0
  6
Continuous
 62
     1
100
AcDbLine
 10
49.0
 20
42.5
 30
0.0
 11
50.931851653
 21
43.01763808999999
 31
0.0
  0
LINE
  5
1004
330
D80
100
AcDbEntity
  8
0
  6
Continuous
 62
     1
100
AcDbLine
 10
145.0
 20
42.5
 30
0.0
 11
143.068148347
 21
43.01763808999999
 31
0.0
  0
LINE
  5
1005
330
D80
100
AcDbEntity
  8
0
  6
Continuous
 62
     1
100
AcDbLine
 10
145.0
 20
42.5
 30
0.0
 11
143.068148347
 21
41.98236191
 31
0.0
  0
LINE
  5
1006
330
D80
100
AcDbEntity
  8
0
  6
Continuous
 62
     1
100
AcDbLine
 10
49.0
 20
42.5
 30
0.0
 11
145.0
 21
42.5
 31
0.0
  0
LINE
  5
1007
330
D80
100
AcDbEntity
  8
0
  6
Continuous
 62
     1
100
AcDbLine
 10
145.0
 20
51.5
 30
0.0
 11
145.0
 21
41.5
 31
0.0
  0
LINE
  5
1008
330
D80
100
AcDbEntity
  8
0
  6
Continuous
 62
     1
100
AcDbLine
 10
49.0
 20
48.5
 30
0.0
 11
49.0
 21
41.74999999999999
 31
0.0
  0
TEXT
  5
101A
330
D80
100
AcDbEntity
  8
0
  6
Continuous
 62
     1
100
AcDbText
 10
94.99799999999996
 20
43.52
 30
0.24
 40
2.399999999999999
  1
９６
 41
0.833333333
  7
KANJI6
100
AcDbText
  0
TEXT
  5
101B
330
D80
100
AcDbEntity
  8
0
  6
Continuous
 62
     1
100
AcDbText
 10
35.878
 20
70.88
 30
0.24
 40
2.399999999999999
  1
４８
 50
90.0
 41
0.833333333
  7
KANJI6
100
AcDbText
  0
TEXT
  5
101C
330
D80
100
AcDbEntity
  8
0
  6
Continuous
 62
     1
100
AcDbText
 10
86.08
 20
132.23
 30
0.24
 40
2.399999999999999
  1
９１.８
 41
0.833333333
  7
KANJI7
100
AcDbText
  0
TEXT
  5
101D
330
D80
100
AcDbEntity
  8
0
  6
Continuous
 62
     1
100
AcDbText
 10
137.3
 20
190.59
 30
0.24
 40
2.399999999999999
  1
５
 50
90.0
 41
0.833333333
  7
KANJI7
100
AcDbText
  0
LINE
  5
101E
330
D80
100
AcDbEntity
  8
0
  6
Continuous
 62
     3
100
AcDbLine
 10
50.0
 20
195.5999999999999
 30
0.24
 11
55.0
 21
195.5999999999999
 31
0.24
  0
LINE
  5
101F
330
D80
100
AcDbEntity
  8
0
  6
Continuous
 62
     3
100
AcDbLine
 10
55.0
 20
194.0
 30
0.0
 11
55.0
 21
206.5999999999999
 31
0.0
  0
LINE
  5
1020
330
D80
100
AcDbEntity
  8
0
  6
Continuous
 62
     3
100
AcDbLine
 10
139.0
 20
195.5999999999999
 30
0.0
 11
144.0
 21
195.5999999999999
 31
0.0
  0
LINE
  5
1021
330
D80
100
AcDbEntity
  8
0
  6
Continuous
 62
     3
100
AcDbLine
 10
139.0
 20
206.5999999999999
 30
0.0
 11
139.0
 21
194.1
 31
0.0
  0
LINE
  5
1022
330
D80
100
AcDbEntity
  8
0
  6
Continuous
 62
     3
100
AcDbLine
 10
63.0
 20
210.5999999999999
 30
0.0
 11
131.0
 21
210.5999999999999
 31
0.0
  0
LINE
  5
1023
330
D80
100
AcDbEntity
  8
0
  6
Continuous
 62
     3
100
AcDbLine
 10
69.89499999999999
 20
203.6
 30
0.0
 11
63.125
 21
203.6
 31
0.0
  0
LINE
  5
1024
330
D80
100
AcDbEntity
  8
0
  6
Continuous
 62
     3
100
AcDbLine
 10
63.125
 20
210.5999999999999
 30
0.0
 11
63.125
 21
199.6999999999999
 31
0.0
  0
LINE
  5
1025
330
D80
100
AcDbEntity
  8
0
  6
Continuous
 62
     3
100
AcDbLine
 10
69.89499999999999
 20
210.5999999999999
 30
0.0
 11
69.89499999999999
 21
199.6999999999999
 31
0.0
  0
LINE
  5
1026
330
D80
100
AcDbEntity
  8
0
  6
Continuous
 62
     3
100
AcDbLine
 10
69.89499999999999
 20
199.6999999999999
 30
0.0
 11
63.125
 21
199.6999999999999
 31
0.0
  0
LINE
  5
1027
330
D80
100
AcDbEntity
  8
0
  6
Continuous
 62
     3
100
AcDbLine
 10
77.515
 20
203.6
 30
0.0
 11
70.74500000000002
 21
203.6
 31
0.0
  0
LINE
  5
1028
330
D80
100
AcDbEntity
  8
0
  6
Continuous
 62
     3
100
AcDbLine
 10
70.74500000000002
 20
210.5999999999999
 30
0.0
 11
70.74500000000002
 21
199.6999999999999
 31
0.0
  0
LINE
  5
1029
330
D80
100
AcDbEntity
  8
0
  6
Continuous
 62
     3
100
AcDbLine
 10
77.515
 20
210.5999999999999
 30
0.0
 11
77.515
 21
199.6999999999999
 31
0.0
  0
LINE
  5
102A
330
D80
100
AcDbEntity
  8
0
  6
Continuous
 62
     3
100
AcDbLine
 10
77.515
 20
199.6999999999999
 30
0.0
 11
70.74500000000002
 21
199.6999999999999
 31
0.0
  0
LINE
  5
102B
330
D80
100
AcDbEntity
  8
0
  6
Continuous
 62
     3
100
AcDbLine
 10
85.135
 20
203.6
 30
0.0
 11
78.36499999999998
 21
203.6
 31
0.0
  0
LINE
  5
102C
330
D80
100
AcDbEntity
  8
0
  6
Continuous
 62
     3
100
AcDbLine
 10
78.36499999999998
 20
210.5999999999999
 30
0.0
 11
78.36499999999998
 21
199.6999999999999
 31
0.0
  0
LINE
  5
102D
330
D80
100
AcDbEntity
  8
0
  6
Continuous
 62
     3
100
AcDbLine
 10
85.135
 20
210.5999999999999
 30
0.0
 11
85.135
 21
199.6999999999999
 31
0.0
  0
LINE
  5
102E
330
D80
100
AcDbEntity
  8
0
  6
Continuous
 62
     3
100
AcDbLine
 10
85.135
 20
199.6999999999999
 30
0.0
 11
78.36499999999998
 21
199.6999999999999
 31
0.0
  0
LINE
  5
102F
330
D80
100
AcDbEntity
  8
0
  6
Continuous
 62
     3
100
AcDbLine
 10
85.135
 20
203.6
 30
0.0
 11
78.36499999999998
 21
203.6
 31
0.0
  0
LINE
  5
1030
330
D80
100
AcDbEntity
  8
0
  6
Continuous
 62
     3
100
AcDbLine
 10
78.36499999999998
 20
210.5999999999999
 30
0.0
 11
78.36499999999998
 21
199.6999999999999
 31
0.0
  0
LINE
  5
1031
330
D80
100
AcDbEntity
  8
0
  6
Continuous
 62
     3
100
AcDbLine
 10
85.135
 20
210.5999999999999
 30
0.0
 11
85.135
 21
199.6999999999999
 31
0.0
  0
LINE
  5
1032
330
D80
100
AcDbEntity
  8
0
  6
Continuous
 62
     3
100
AcDbLine
 10
85.135
 20
199.6999999999999
 30
0.0
 11
78.36499999999998
 21
199.6999999999999
 31
0.0
  0
LINE
  5
1033
330
D80
100
AcDbEntity
  8
0
  6
Continuous
 62
     3
100
AcDbLine
 10
92.75499999999999
 20
203.6
 30
0.0
 11
85.98499999999999
 21
203.6
 31
0.0
  0
LINE
  5
1034
330
D80
100
AcDbEntity
  8
0
  6
Continuous
 62
     3
100
AcDbLine
 10
85.98499999999999
 20
210.5999999999999
 30
0.0
 11
85.98499999999999
 21
199.6999999999999
 31
0.0
  0
LINE
  5
1035
330
D80
100
AcDbEntity
  8
0
  6
Continuous
 62
     3
100
AcDbLine
 10
92.75499999999999
 20
210.5999999999999
 30
0.0
 11
92.75499999999999
 21
199.6999999999999
 31
0.0
  0
LINE
  5
1036
330
D80
100
AcDbEntity
  8
0
  6
Continuous
 62
     3
100
AcDbLine
 10
92.75499999999999
 20
199.6999999999999
 30
0.0
 11
85.98499999999999
 21
199.6999999999999
 31
0.0
  0
LINE
  5
1037
330
D80
100
AcDbEntity
  8
0
  6
Continuous
 62
     3
100
AcDbLine
 10
92.75499999999999
 20
203.6
 30
0.0
 11
85.98499999999999
 21
203.6
 31
0.0
  0
LINE
  5
1038
330
D80
100
AcDbEntity
  8
0
  6
Continuous
 62
     3
100
AcDbLine
 10
85.98499999999999
 20
210.5999999999999
 30
0.0
 11
85.98499999999999
 21
199.6999999999999
 31
0.0
  0
LINE
  5
1039
330
D80
100
AcDbEntity
  8
0
  6
Continuous
 62
     3
100
AcDbLine
 10
92.75499999999999
 20
210.5999999999999
 30
0.0
 11
92.75499999999999
 21
199.6999999999999
 31
0.0
  0
LINE
  5
103A
330
D80
100
AcDbEntity
  8
0
  6
Continuous
 62
     3
100
AcDbLine
 10
92.75499999999999
 20
199.6999999999999
 30
0.0
 11
85.98499999999999
 21
199.6999999999999
 31
0.0
  0
LINE
  5
103B
330
D80
100
AcDbEntity
  8
0
  6
Continuous
 62
     3
100
AcDbLine
 10
100.3749999999999
 20
203.6
 30
0.0
 11
93.605
 21
203.6
 31
0.0
  0
LINE
  5
103C
330
D80
100
AcDbEntity
  8
0
  6
Continuous
 62
     3
100
AcDbLine
 10
93.605
 20
210.5999999999999
 30
0.0
 11
93.605
 21
199.6999999999999
 31
0.0
  0
LINE
  5
103D
330
D80
100
AcDbEntity
  8
0
  6
Continuous
 62
     3
100
AcDbLine
 10
100.3749999999999
 20
210.5999999999999
 30
0.0
 11
100.3749999999999
 21
199.6999999999999
 31
0.0
  0
LINE
  5
103E
330
D80
100
AcDbEntity
  8
0
  6
Continuous
 62
     3
100
AcDbLine
 10
100.3749999999999
 20
199.6999999999999
 30
0.0
 11
93.605
 21
199.6999999999999
 31
0.0
  0
LINE
  5
103F
330
D80
100
AcDbEntity
  8
0
  6
Continuous
 62
     3
100
AcDbLine
 10
100.3749999999999
 20
203.6
 30
0.0
 11
93.605
 21
203.6
 31
0.0
  0
LINE
  5
1040
330
D80
100
AcDbEntity
  8
0
  6
Continuous
 62
     3
100
AcDbLine
 10
93.605
 20
210.5999999999999
 30
0.0
 11
93.605
 21
199.6999999999999
 31
0.0
  0
LINE
  5
1041
330
D80
100
AcDbEntity
  8
0
  6
Continuous
 62
     3
100
AcDbLine
 10
100.3749999999999
 20
210.5999999999999
 30
0.0
 11
100.3749999999999
 21
199.6999999999999
 31
0.0
  0
LINE
  5
1042
330
D80
100
AcDbEntity
  8
0
  6
Continuous
 62
     3
100
AcDbLine
 10
100.3749999999999
 20
199.6999999999999
 30
0.0
 11
93.605
 21
199.6999999999999
 31
0.0
  0
LINE
  5
1043
330
D80
100
AcDbEntity
  8
0
  6
Continuous
 62
     3
100
AcDbLine
 10
107.9949999999999
 20
203.6
 30
0.0
 11
101.2249999999996
 21
203.6
 31
0.0
  0
LINE
  5
1044
330
D80
100
AcDbEntity
  8
0
  6
Continuous
 62
     3
100
AcDbLine
 10
101.2249999999996
 20
210.5999999999999
 30
0.0
 11
101.2249999999996
 21
199.6999999999999
 31
0.0
  0
LINE
  5
1045
330
D80
100
AcDbEntity
  8
0
  6
Continuous
 62
     3
100
AcDbLine
 10
107.9949999999999
 20
210.5999999999999
 30
0.0
 11
107.9949999999999
 21
199.6999999999999
 31
0.0
  0
LINE
  5
1046
330
D80
100
AcDbEntity
  8
0
  6
Continuous
 62
     3
100
AcDbLine
 10
107.9949999999999
 20
199.6999999999999
 30
0.0
 11
101.2249999999996
 21
199.6999999999999
 31
0.0
  0
LINE
  5
1047
330
D80
100
AcDbEntity
  8
0
  6
Continuous
 62
     3
100
AcDbLine
 10
107.9949999999999
 20
203.6
 30
0.0
 11
101.2249999999996
 21
203.6
 31
0.0
  0
LINE
  5
1048
330
D80
100
AcDbEntity
  8
0
  6
Continuous
 62
     3
100
AcDbLine
 10
101.2249999999996
 20
210.5999999999999
 30
0.0
 11
101.2249999999996
 21
199.6999999999999
 31
0.0
  0
LINE
  5
1049
330
D80
100
AcDbEntity
  8
0
  6
Continuous
 62
     3
100
AcDbLine
 10
107.9949999999999
 20
210.5999999999999
 30
0.0
 11
107.9949999999999
 21
199.6999999999999
 31
0.0
  0
LINE
  5
104A
330
D80
100
AcDbEntity
  8
0
  6
Continuous
 62
     3
100
AcDbLine
 10
107.9949999999999
 20
199.6999999999999
 30
0.0
 11
101.2249999999996
 21
199.6999999999999
 31
0.0
  0
LINE
  5
104B
330
D80
100
AcDbEntity
  8
0
  6
Continuous
 62
     3
100
AcDbLine
 10
115.615
 20
203.6
 30
0.0
 11
108.8449999999999
 21
203.6
 31
0.0
  0
LINE
  5
104C
330
D80
100
AcDbEntity
  8
0
  6
Continuous
 62
     3
100
AcDbLine
 10
108.8449999999999
 20
210.5999999999999
 30
0.0
 11
108.8449999999999
 21
199.6999999999999
 31
0.0
  0
LINE
  5
104D
330
D80
100
AcDbEntity
  8
0
  6
Continuous
 62
     3
100
AcDbLine
 10
115.615
 20
210.5999999999999
 30
0.0
 11
115.615
 21
199.6999999999999
 31
0.0
  0
LINE
  5
104E
330
D80
100
AcDbEntity
  8
0
  6
Continuous
 62
     3
100
AcDbLine
 10
115.615
 20
199.6999999999999
 30
0.0
 11
108.8449999999999
 21
199.6999999999999
 31
0.0
  0
LINE
  5
104F
330
D80
100
AcDbEntity
  8
0
  6
Continuous
 62
     3
100
AcDbLine
 10
115.615
 20
203.6
 30
0.0
 11
108.8449999999999
 21
203.6
 31
0.0
  0
LINE
  5
1050
330
D80
100
AcDbEntity
  8
0
  6
Continuous
 62
     3
100
AcDbLine
 10
108.8449999999999
 20
210.5999999999999
 30
0.0
 11
108.8449999999999
 21
199.6999999999999
 31
0.0
  0
LINE
  5
1051
330
D80
100
AcDbEntity
  8
0
  6
Continuous
 62
     3
100
AcDbLine
 10
115.615
 20
210.5999999999999
 30
0.0
 11
115.615
 21
199.6999999999999
 31
0.0
  0
LINE
  5
1052
330
D80
100
AcDbEntity
  8
0
  6
Continuous
 62
     3
100
AcDbLine
 10
115.615
 20
199.6999999999999
 30
0.0
 11
108.8449999999999
 21
199.6999999999999
 31
0.0
  0
LINE
  5
1053
330
D80
100
AcDbEntity
  8
0
  6
Continuous
 62
     3
100
AcDbLine
 10
123.235
 20
203.6
 30
0.0
 11
116.4649999999999
 21
203.6
 31
0.0
  0
LINE
  5
1054
330
D80
100
AcDbEntity
  8
0
  6
Continuous
 62
     3
100
AcDbLine
 10
116.4649999999999
 20
210.5999999999999
 30
0.0
 11
116.4649999999999
 21
199.6999999999999
 31
0.0
  0
LINE
  5
1055
330
D80
100
AcDbEntity
  8
0
  6
Continuous
 62
     3
100
AcDbLine
 10
123.235
 20
210.5999999999999
 30
0.0
 11
123.235
 21
199.6999999999999
 31
0.0
  0
LINE
  5
1056
330
D80
100
AcDbEntity
  8
0
  6
Continuous
 62
     3
100
AcDbLine
 10
123.235
 20
199.6999999999999
 30
0.0
 11
116.4649999999999
 21
199.6999999999999
 31
0.0
  0
LINE
  5
1057
330
D80
100
AcDbEntity
  8
0
  6
Continuous
 62
     3
100
AcDbLine
 10
123.235
 20
203.6
 30
0.0
 11
116.4649999999999
 21
203.6
 31
0.0
  0
LINE
  5
1058
330
D80
100
AcDbEntity
  8
0
  6
Continuous
 62
     3
100
AcDbLine
 10
116.4649999999999
 20
210.5999999999999
 30
0.0
 11
116.4649999999999
 21
199.6999999999999
 31
0.0
  0
LINE
  5
1059
330
D80
100
AcDbEntity
  8
0
  6
Continuous
 62
     3
100
AcDbLine
 10
123.235
 20
210.5999999999999
 30
0.0
 11
123.235
 21
199.6999999999999
 31
0.0
  0
LINE
  5
105A
330
D80
100
AcDbEntity
  8
0
  6
Continuous
 62
     3
100
AcDbLine
 10
123.235
 20
199.6999999999999
 30
0.0
 11
116.4649999999999
 21
199.6999999999999
 31
0.0
  0
LINE
  5
105B
330
D80
100
AcDbEntity
  8
0
  6
Continuous
 62
     3
100
AcDbLine
 10
130.8549999999994
 20
203.6
 30
0.0
 11
124.085
 21
203.6
 31
0.0
  0
LINE
  5
105C
330
D80
100
AcDbEntity
  8
0
  6
Continuous
 62
     3
100
AcDbLine
 10
124.085
 20
210.5999999999999
 30
0.0
 11
124.085
 21
199.6999999999999
 31
0.0
  0
LINE
  5
105D
330
D80
100
AcDbEntity
  8
0
  6
Continuous
 62
     3
100
AcDbLine
 10
130.8549999999994
 20
210.5999999999999
 30
0.0
 11
130.8549999999994
 21
199.6999999999999
 31
0.0
  0
LINE
  5
105E
330
D80
100
AcDbEntity
  8
0
  6
Continuous
 62
     3
100
AcDbLine
 10
130.8549999999994
 20
199.6999999999999
 30
0.0
 11
124.085
 21
199.6999999999999
 31
0.0
  0
LINE
  5
105F
330
D80
100
AcDbEntity
  8
0
  6
Continuous
 62
     3
100
AcDbLine
 10
130.8549999999994
 20
203.6
 30
0.0
 11
124.085
 21
203.6
 31
0.0
  0
LINE
  5
1060
330
D80
100
AcDbEntity
  8
0
  6
Continuous
 62
     3
100
AcDbLine
 10
124.085
 20
210.5999999999999
 30
0.0
 11
124.085
 21
199.6999999999999
 31
0.0
  0
LINE
  5
1061
330
D80
100
AcDbEntity
  8
0
  6
Continuous
 62
     3
100
AcDbLine
 10
130.8549999999994
 20
210.5999999999999
 30
0.0
 11
130.8549999999994
 21
199.6999999999999
 31
0.0
  0
LINE
  5
1062
330
D80
100
AcDbEntity
  8
0
  6
Continuous
 62
     3
100
AcDbLine
 10
130.8549999999994
 20
199.6999999999999
 30
0.0
 11
124.085
 21
199.6999999999999
 31
0.0
  0
LINE
  5
1063
330
D80
100
AcDbEntity
  8
0
  6
Continuous
 62
     3
100
AcDbLine
 10
96.5
 20
204.475
 30
0.0
 11
96.5
 21
204.225
 31
0.0
  0
LINE
  5
1064
330
D80
100
AcDbEntity
  8
0
  6
Continuous
 62
     3
100
AcDbLine
 10
96.5
 20
204.225
 30
0.0
 11
97.5
 21
204.225
 31
0.0
  0
LINE
  5
1065
330
D80
100
AcDbEntity
  8
0
  6
Continuous
 62
     3
100
AcDbLine
 10
96.5
 20
204.475
 30
0.0
 11
93.75
 21
204.475
 31
0.0
  0
LINE
  5
1066
330
D80
100
AcDbEntity
  8
0
  6
Continuous
 62
     3
100
AcDbLine
 10
99.50000000000001
 20
205.4749999999999
 30
0.0
 11
99.50000000000001
 21
204.475
 31
0.0
  0
ARC
  5
1067
330
D80
100
AcDbEntity
  8
0
  6
Continuous
 62
     3
100
AcDbCircle
 10
98.50000000000001
 20
205.4749999999999
 30
0.0
 40
1.0
100
AcDbArc
 50
0.0
 51
90.0
  0
LINE
  5
1068
330
D80
100
AcDbEntity
  8
0
  6
Continuous
 62
     3
100
AcDbLine
 10
94.50000000000001
 20
204.475
 30
0.0
 11
94.50000000000001
 21
205.4749999999999
 31
0.0
  0
LINE
  5
1069
330
D80
100
AcDbEntity
  8
0
  6
Continuous
 62
     3
100
AcDbLine
 10
95.5
 20
206.475
 30
0.0
 11
98.50000000000001
 21
206.475
 31
0.0
  0
ARC
  5
106A
330
D80
100
AcDbEntity
  8
0
  6
Continuous
 62
     3
100
AcDbCircle
 10
95.5
 20
205.4749999999999
 30
0.0
 40
1.0
100
AcDbArc
 50
90.0
 51
180.0000000009999
  0
LINE
  5
106B
330
D80
100
AcDbEntity
  8
0
  6
Continuous
 62
     3
100
AcDbLine
 10
100.2499999999999
 20
204.475
 30
0.0
 11
100.2499999999999
 21
203.6
 31
0.0
  0
LINE
  5
106C
330
D80
100
AcDbEntity
  8
0
  6
Continuous
 62
     3
100
AcDbLine
 10
93.75
 20
203.6
 30
0.0
 11
93.75
 21
204.475
 31
0.0
  0
LINE
  5
106D
330
D80
100
AcDbEntity
  8
0
  6
Continuous
 62
     3
100
AcDbLine
 10
97.5
 20
204.225
 30
0.0
 11
97.5
 21
204.475
 31
0.0
  0
LINE
  5
106E
330
D80
100
AcDbEntity
  8
0
  6
Continuous
 62
     3
100
AcDbLine
 10
100.2499999999999
 20
204.475
 30
0.0
 11
97.5
 21
204.475
 31
0.0
  0
LINE
  5
106F
330
D80
100
AcDbEntity
  8
0
  6
Continuous
 62
     3
100
AcDbLine
 10
107.9949999999999
 20
203.6
 30
0.0
 11
101.2249999999996
 21
203.6
 31
0.0
  0
LINE
  5
1070
330
D80
100
AcDbEntity
  8
0
  6
Continuous
 62
     3
100
AcDbLine
 10
107.9949999999999
 20
203.6
 30
0.0
 11
101.2249999999996
 21
203.6
 31
0.0
  0
LINE
  5
1071
330
D80
100
AcDbEntity
  8
0
  6
Continuous
 62
     3
100
AcDbLine
 10
104.12
 20
204.475
 30
0.0
 11
104.12
 21
204.225
 31
0.0
  0
LINE
  5
1072
330
D80
100
AcDbEntity
  8
0
  6
Continuous
 62
     3
100
AcDbLine
 10
104.12
 20
204.225
 30
0.0
 11
105.12
 21
204.225
 31
0.0
  0
LINE
  5
1073
330
D80
100
AcDbEntity
  8
0
  6
Continuous
 62
     3
100
AcDbLine
 10
104.12
 20
204.475
 30
0.0
 11
101.37
 21
204.475
 31
0.0
  0
LINE
  5
1074
330
D80
100
AcDbEntity
  8
0
  6
Continuous
 62
     3
100
AcDbLine
 10
107.12
 20
205.4749999999999
 30
0.0
 11
107.12
 21
204.475
 31
0.0
  0
ARC
  5
1075
330
D80
100
AcDbEntity
  8
0
  6
Continuous
 62
     3
100
AcDbCircle
 10
106.12
 20
205.4749999999999
 30
0.0
 40
1.0
100
AcDbArc
 50
0.0
 51
90.0
  0
LINE
  5
1076
330
D80
100
AcDbEntity
  8
0
  6
Continuous
 62
     3
100
AcDbLine
 10
102.12
 20
204.475
 30
0.0
 11
102.12
 21
205.4749999999999
 31
0.0
  0
LINE
  5
1077
330
D80
100
AcDbEntity
  8
0
  6
Continuous
 62
     3
100
AcDbLine
 10
103.12
 20
206.475
 30
0.0
 11
106.12
 21
206.475
 31
0.0
  0
ARC
  5
1078
330
D80
100
AcDbEntity
  8
0
  6
Continuous
 62
     3
100
AcDbCircle
 10
103.12
 20
205.4749999999999
 30
0.0
 40
1.0
100
AcDbArc
 50
90.0
 51
180.0000000009999
  0
LINE
  5
1079
330
D80
100
AcDbEntity
  8
0
  6
Continuous
 62
     3
100
AcDbLine
 10
107.8699999999999
 20
204.475
 30
0.0
 11
107.8699999999999
 21
203.6
 31
0.0
  0
LINE
  5
107A
330
D80
100
AcDbEntity
  8
0
  6
Continuous
 62
     3
100
AcDbLine
 10
101.37
 20
203.6
 30
0.0
 11
101.37
 21
204.475
 31
0.0
  0
LINE
  5
107B
330
D80
100
AcDbEntity
  8
0
  6
Continuous
 62
     3
100
AcDbLine
 10
105.12
 20
204.225
 30
0.0
 11
105.12
 21
204.475
 31
0.0
  0
LINE
  5
107C
330
D80
100
AcDbEntity
  8
0
  6
Continuous
 62
     3
100
AcDbLine
 10
107.8699999999999
 20
204.475
 30
0.0
 11
105.12
 21
204.475
 31
0.0
  0
LINE
  5
107D
330
D80
100
AcDbEntity
  8
0
  6
Continuous
 62
     3
100
AcDbLine
 10
115.615
 20
203.6
 30
0.0
 11
108.8449999999999
 21
203.6
 31
0.0
  0
LINE
  5
107E
330
D80
100
AcDbEntity
  8
0
  6
Continuous
 62
     3
100
AcDbLine
 10
115.615
 20
203.6
 30
0.0
 11
108.8449999999999
 21
203.6
 31
0.0
  0
LINE
  5
107F
330
D80
100
AcDbEntity
  8
0
  6
Continuous
 62
     3
100
AcDbLine
 10
115.615
 20
203.6
 30
0.0
 11
108.8449999999999
 21
203.6
 31
0.0
  0
LINE
  5
1080
330
D80
100
AcDbEntity
  8
0
  6
Continuous
 62
     3
100
AcDbLine
 10
115.615
 20
203.6
 30
0.0
 11
108.8449999999999
 21
203.6
 31
0.0
  0
LINE
  5
1081
330
D80
100
AcDbEntity
  8
0
  6
Continuous
 62
     3
100
AcDbLine
 10
111.7399999999999
 20
204.475
 30
0.0
 11
111.7399999999999
 21
204.225
 31
0.0
  0
LINE
  5
1082
330
D80
100
AcDbEntity
  8
0
  6
Continuous
 62
     3
100
AcDbLine
 10
111.7399999999999
 20
204.225
 30
0.0
 11
112.7399999999999
 21
204.225
 31
0.0
  0
LINE
  5
1083
330
D80
100
AcDbEntity
  8
0
  6
Continuous
 62
     3
100
AcDbLine
 10
111.7399999999999
 20
204.475
 30
0.0
 11
108.9899999999999
 21
204.475
 31
0.0
  0
LINE
  5
1084
330
D80
100
AcDbEntity
  8
0
  6
Continuous
 62
     3
100
AcDbLine
 10
114.7399999999999
 20
205.4749999999999
 30
0.0
 11
114.7399999999999
 21
204.475
 31
0.0
  0
ARC
  5
1085
330
D80
100
AcDbEntity
  8
0
  6
Continuous
 62
     3
100
AcDbCircle
 10
113.7399999999999
 20
205.4749999999999
 30
0.0
 40
1.0
100
AcDbArc
 50
0.0
 51
90.0
  0
LINE
  5
1086
330
D80
100
AcDbEntity
  8
0
  6
Continuous
 62
     3
100
AcDbLine
 10
109.7399999999999
 20
204.475
 30
0.0
 11
109.7399999999999
 21
205.4749999999999
 31
0.0
  0
LINE
  5
1087
330
D80
100
AcDbEntity
  8
0
  6
Continuous
 62
     3
100
AcDbLine
 10
110.7399999999999
 20
206.475
 30
0.0
 11
113.7399999999999
 21
206.475
 31
0.0
  0
ARC
  5
1088
330
D80
100
AcDbEntity
  8
0
  6
Continuous
 62
     3
100
AcDbCircle
 10
110.7399999999999
 20
205.4749999999999
 30
0.0
 40
1.0
100
AcDbArc
 50
90.0
 51
180.0000000009999
  0
LINE
  5
1089
330
D80
100
AcDbEntity
  8
0
  6
Continuous
 62
     3
100
AcDbLine
 10
115.49
 20
204.475
 30
0.0
 11
115.49
 21
203.6
 31
0.0
  0
LINE
  5
108A
330
D80
100
AcDbEntity
  8
0
  6
Continuous
 62
     3
100
AcDbLine
 10
108.9899999999999
 20
203.6
 30
0.0
 11
108.9899999999999
 21
204.475
 31
0.0
  0
LINE
  5
108B
330
D80
100
AcDbEntity
  8
0
  6
Continuous
 62
     3
100
AcDbLine
 10
112.7399999999999
 20
204.225
 30
0.0
 11
112.7399999999999
 21
204.475
 31
0.0
  0
LINE
  5
108C
330
D80
100
AcDbEntity
  8
0
  6
Continuous
 62
     3
100
AcDbLine
 10
115.49
 20
204.475
 30
0.0
 11
112.7399999999999
 21
204.475
 31
0.0
  0
LINE
  5
108D
330
D80
100
AcDbEntity
  8
0
  6
Continuous
 62
     3
100
AcDbLine
 10
123.235
 20
203.6
 30
0.0
 11
116.4649999999999
 21
203.6
 31
0.0
  0
LINE
  5
108E
330
D80
100
AcDbEntity
  8
0
  6
Continuous
 62
     3
100
AcDbLine
 10
123.235
 20
203.6
 30
0.0
 11
116.4649999999999
 21
203.6
 31
0.0
  0
LINE
  5
108F
330
D80
100
AcDbEntity
  8
0
  6
Continuous
 62
     3
100
AcDbLine
 10
123.235
 20
203.6
 30
0.0
 11
116.4649999999999
 21
203.6
 31
0.0
  0
LINE
  5
1090
330
D80
100
AcDbEntity
  8
0
  6
Continuous
 62
     3
100
AcDbLine
 10
123.235
 20
203.6
 30
0.0
 11
116.4649999999999
 21
203.6
 31
0.0
  0
LINE
  5
1091
330
D80
100
AcDbEntity
  8
0
  6
Continuous
 62
     3
100
AcDbLine
 10
123.235
 20
203.6
 30
0.0
 11
116.4649999999999
 21
203.6
 31
0.0
  0
LINE
  5
1092
330
D80
100
AcDbEntity
  8
0
  6
Continuous
 62
     3
100
AcDbLine
 10
123.235
 20
203.6
 30
0.0
 11
116.4649999999999
 21
203.6
 31
0.0
  0
LINE
  5
1093
330
D80
100
AcDbEntity
  8
0
  6
Continuous
 62
     3
100
AcDbLine
 10
119.3599999999999
 20
204.475
 30
0.0
 11
119.3599999999999
 21
204.225
 31
0.0
  0
LINE
  5
1094
330
D80
100
AcDbEntity
  8
0
  6
Continuous
 62
     3
100
AcDbLine
 10
119.3599999999999
 20
204.225
 30
0.0
 11
120.36
 21
204.225
 31
0.0
  0
LINE
  5
1095
330
D80
100
AcDbEntity
  8
0
  6
Continuous
 62
     3
100
AcDbLine
 10
119.3599999999999
 20
204.475
 30
0.0
 11
116.6099999999999
 21
204.475
 31
0.0
  0
LINE
  5
1096
330
D80
100
AcDbEntity
  8
0
  6
Continuous
 62
     3
100
AcDbLine
 10
122.36
 20
205.4749999999999
 30
0.0
 11
122.36
 21
204.475
 31
0.0
  0
ARC
  5
1097
330
D80
100
AcDbEntity
  8
0
  6
Continuous
 62
     3
100
AcDbCircle
 10
121.36
 20
205.4749999999999
 30
0.0
 40
1.0
100
AcDbArc
 50
0.0
 51
90.0
  0
LINE
  5
1098
330
D80
100
AcDbEntity
  8
0
  6
Continuous
 62
     3
100
AcDbLine
 10
117.3599999999999
 20
204.475
 30
0.0
 11
117.3599999999999
 21
205.4749999999999
 31
0.0
  0
LINE
  5
1099
330
D80
100
AcDbEntity
  8
0
  6
Continuous
 62
     3
100
AcDbLine
 10
118.3599999999999
 20
206.475
 30
0.0
 11
121.36
 21
206.475
 31
0.0
  0
ARC
  5
109A
330
D80
100
AcDbEntity
  8
0
  6
Continuous
 62
     3
100
AcDbCircle
 10
118.3599999999999
 20
205.4749999999999
 30
0.0
 40
1.0
100
AcDbArc
 50
90.0
 51
180.0000000009999
  0
LINE
  5
109B
330
D80
100
AcDbEntity
  8
0
  6
Continuous
 62
     3
100
AcDbLine
 10
123.11
 20
204.475
 30
0.0
 11
123.11
 21
203.6
 31
0.0
  0
LINE
  5
109C
330
D80
100
AcDbEntity
  8
0
  6
Continuous
 62
     3
100
AcDbLine
 10
116.6099999999999
 20
203.6
 30
0.0
 11
116.6099999999999
 21
204.475
 31
0.0
  0
LINE
  5
109D
330
D80
100
AcDbEntity
  8
0
  6
Continuous
 62
     3
100
AcDbLine
 10
120.36
 20
204.225
 30
0.0
 11
120.36
 21
204.475
 31
0.0
  0
LINE
  5
109E
330
D80
100
AcDbEntity
  8
0
  6
Continuous
 62
     3
100
AcDbLine
 10
123.11
 20
204.475
 30
0.0
 11
120.36
 21
204.475
 31
0.0
  0
LINE
  5
109F
330
D80
100
AcDbEntity
  8
0
  6
Continuous
 62
     3
100
AcDbLine
 10
130.8549999999994
 20
203.6
 30
0.0
 11
124.085
 21
203.6
 31
0.0
  0
LINE
  5
10A0
330
D80
100
AcDbEntity
  8
0
  6
Continuous
 62
     3
100
AcDbLine
 10
130.8549999999994
 20
203.6
 30
0.0
 11
124.085
 21
203.6
 31
0.0
  0
LINE
  5
10A1
330
D80
100
AcDbEntity
  8
0
  6
Continuous
 62
     3
100
AcDbLine
 10
130.8549999999994
 20
203.6
 30
0.0
 11
124.085
 21
203.6
 31
0.0
  0
LINE
  5
10A2
330
D80
100
AcDbEntity
  8
0
  6
Continuous
 62
     3
100
AcDbLine
 10
130.8549999999994
 20
203.6
 30
0.0
 11
124.085
 21
203.6
 31
0.0
  0
LINE
  5
10A3
330
D80
100
AcDbEntity
  8
0
  6
Continuous
 62
     3
100
AcDbLine
 10
130.8549999999994
 20
203.6
 30
0.0
 11
124.085
 21
203.6
 31
0.0
  0
LINE
  5
10A4
330
D80
100
AcDbEntity
  8
0
  6
Continuous
 62
     3
100
AcDbLine
 10
130.8549999999994
 20
203.6
 30
0.0
 11
124.085
 21
203.6
 31
0.0
  0
LINE
  5
10A5
330
D80
100
AcDbEntity
  8
0
  6
Continuous
 62
     3
100
AcDbLine
 10
130.8549999999994
 20
203.6
 30
0.0
 11
124.085
 21
203.6
 31
0.0
  0
LINE
  5
10A6
330
D80
100
AcDbEntity
  8
0
  6
Continuous
 62
     3
100
AcDbLine
 10
130.8549999999994
 20
203.6
 30
0.0
 11
124.085
 21
203.6
 31
0.0
  0
LINE
  5
10A7
330
D80
100
AcDbEntity
  8
0
  6
Continuous
 62
     3
100
AcDbLine
 10
126.98
 20
204.475
 30
0.0
 11
126.98
 21
204.225
 31
0.0
  0
LINE
  5
10A8
330
D80
100
AcDbEntity
  8
0
  6
Continuous
 62
     3
100
AcDbLine
 10
126.98
 20
204.225
 30
0.0
 11
127.98
 21
204.225
 31
0.0
  0
LINE
  5
10A9
330
D80
100
AcDbEntity
  8
0
  6
Continuous
 62
     3
100
AcDbLine
 10
126.98
 20
204.475
 30
0.0
 11
124.2299999999999
 21
204.475
 31
0.0
  0
LINE
  5
10AA
330
D80
100
AcDbEntity
  8
0
  6
Continuous
 62
     3
100
AcDbLine
 10
129.9799999999999
 20
205.4749999999999
 30
0.0
 11
129.9799999999999
 21
204.475
 31
0.0
  0
ARC
  5
10AB
330
D80
100
AcDbEntity
  8
0
  6
Continuous
 62
     3
100
AcDbCircle
 10
128.9799999999999
 20
205.4749999999999
 30
0.0
 40
1.0
100
AcDbArc
 50
0.0
 51
90.0
  0
LINE
  5
10AC
330
D80
100
AcDbEntity
  8
0
  6
Continuous
 62
     3
100
AcDbLine
 10
124.98
 20
204.475
 30
0.0
 11
124.98
 21
205.4749999999999
 31
0.0
  0
LINE
  5
10AD
330
D80
100
AcDbEntity
  8
0
  6
Continuous
 62
     3
100
AcDbLine
 10
125.98
 20
206.475
 30
0.0
 11
128.9799999999999
 21
206.475
 31
0.0
  0
ARC
  5
10AE
330
D80
100
AcDbEntity
  8
0
  6
Continuous
 62
     3
100
AcDbCircle
 10
125.98
 20
205.4749999999999
 30
0.0
 40
1.0
100
AcDbArc
 50
90.0
 51
180.0000000009999
  0
LINE
  5
10AF
330
D80
100
AcDbEntity
  8
0
  6
Continuous
 62
     3
100
AcDbLine
 10
130.7299999999999
 20
204.475
 30
0.0
 11
130.7299999999999
 21
203.6
 31
0.0
  0
LINE
  5
10B0
330
D80
100
AcDbEntity
  8
0
  6
Continuous
 62
     3
100
AcDbLine
 10
124.2299999999999
 20
203.6
 30
0.0
 11
124.2299999999999
 21
204.475
 31
0.0
  0
LINE
  5
10B1
330
D80
100
AcDbEntity
  8
0
  6
Continuous
 62
     3
100
AcDbLine
 10
127.98
 20
204.225
 30
0.0
 11
127.98
 21
204.475
 31
0.0
  0
LINE
  5
10B2
330
D80
100
AcDbEntity
  8
0
  6
Continuous
 62
     3
100
AcDbLine
 10
130.7299999999999
 20
204.475
 30
0.0
 11
127.98
 21
204.475
 31
0.0
  0
LINE
  5
10B3
330
D80
100
AcDbEntity
  8
0
  6
Continuous
 62
     3
100
AcDbLine
 10
92.75499999999999
 20
203.6
 30
0.0
 11
85.98499999999999
 21
203.6
 31
0.0
  0
LINE
  5
10B4
330
D80
100
AcDbEntity
  8
0
  6
Continuous
 62
     3
100
AcDbLine
 10
92.75499999999999
 20
203.6
 30
0.0
 11
85.98499999999999
 21
203.6
 31
0.0
  0
LINE
  5
10B5
330
D80
100
AcDbEntity
  8
0
  6
Continuous
 62
     3
100
AcDbLine
 10
88.87999999999998
 20
204.475
 30
0.0
 11
88.87999999999998
 21
204.225
 31
0.0
  0
LINE
  5
10B6
330
D80
100
AcDbEntity
  8
0
  6
Continuous
 62
     3
100
AcDbLine
 10
88.87999999999998
 20
204.225
 30
0.0
 11
89.87999999999997
 21
204.225
 31
0.0
  0
LINE
  5
10B7
330
D80
100
AcDbEntity
  8
0
  6
Continuous
 62
     3
100
AcDbLine
 10
88.87999999999998
 20
204.475
 30
0.0
 11
86.12999999999997
 21
204.475
 31
0.0
  0
LINE
  5
10B8
330
D80
100
AcDbEntity
  8
0
  6
Continuous
 62
     3
100
AcDbLine
 10
91.88
 20
205.4749999999999
 30
0.0
 11
91.88
 21
204.475
 31
0.0
  0
ARC
  5
10B9
330
D80
100
AcDbEntity
  8
0
  6
Continuous
 62
     3
100
AcDbCircle
 10
90.87999999999999
 20
205.4749999999999
 30
0.0
 40
1.0
100
AcDbArc
 50
0.0
 51
90.0
  0
LINE
  5
10BA
330
D80
100
AcDbEntity
  8
0
  6
Continuous
 62
     3
100
AcDbLine
 10
86.87999999999998
 20
204.475
 30
0.0
 11
86.87999999999998
 21
205.4749999999999
 31
0.0
  0
LINE
  5
10BB
330
D80
100
AcDbEntity
  8
0
  6
Continuous
 62
     3
100
AcDbLine
 10
87.87999999999998
 20
206.475
 30
0.0
 11
90.87999999999999
 21
206.475
 31
0.0
  0
ARC
  5
10BC
330
D80
100
AcDbEntity
  8
0
  6
Continuous
 62
     3
100
AcDbCircle
 10
87.87999999999998
 20
205.4749999999999
 30
0.0
 40
1.0
100
AcDbArc
 50
90.0
 51
180.0000000009999
  0
LINE
  5
10BD
330
D80
100
AcDbEntity
  8
0
  6
Continuous
 62
     3
100
AcDbLine
 10
92.62999999999999
 20
204.475
 30
0.0
 11
92.62999999999999
 21
203.6
 31
0.0
  0
LINE
  5
10BE
330
D80
100
AcDbEntity
  8
0
  6
Continuous
 62
     3
100
AcDbLine
 10
86.12999999999997
 20
203.6
 30
0.0
 11
86.12999999999997
 21
204.475
 31
0.0
  0
LINE
  5
10BF
330
D80
100
AcDbEntity
  8
0
  6
Continuous
 62
     3
100
AcDbLine
 10
89.87999999999997
 20
204.225
 30
0.0
 11
89.87999999999997
 21
204.475
 31
0.0
  0
LINE
  5
10C0
330
D80
100
AcDbEntity
  8
0
  6
Continuous
 62
     3
100
AcDbLine
 10
92.62999999999999
 20
204.475
 30
0.0
 11
89.87999999999997
 21
204.475
 31
0.0
  0
LINE
  5
10C1
330
D80
100
AcDbEntity
  8
0
  6
Continuous
 62
     3
100
AcDbLine
 10
85.135
 20
203.6
 30
0.0
 11
78.36499999999998
 21
203.6
 31
0.0
  0
LINE
  5
10C2
330
D80
100
AcDbEntity
  8
0
  6
Continuous
 62
     3
100
AcDbLine
 10
85.135
 20
203.6
 30
0.0
 11
78.36499999999998
 21
203.6
 31
0.0
  0
LINE
  5
10C3
330
D80
100
AcDbEntity
  8
0
  6
Continuous
 62
     3
100
AcDbLine
 10
85.135
 20
203.6
 30
0.0
 11
78.36499999999998
 21
203.6
 31
0.0
  0
LINE
  5
10C4
330
D80
100
AcDbEntity
  8
0
  6
Continuous
 62
     3
100
AcDbLine
 10
85.135
 20
203.6
 30
0.0
 11
78.36499999999998
 21
203.6
 31
0.0
  0
LINE
  5
10C5
330
D80
100
AcDbEntity
  8
0
  6
Continuous
 62
     3
100
AcDbLine
 10
81.26000000000002
 20
204.475
 30
0.0
 11
81.26000000000002
 21
204.225
 31
0.0
  0
LINE
  5
10C6
330
D80
100
AcDbEntity
  8
0
  6
Continuous
 62
     3
100
AcDbLine
 10
81.26000000000002
 20
204.225
 30
0.0
 11
82.26
 21
204.225
 31
0.0
  0
LINE
  5
10C7
330
D80
100
AcDbEntity
  8
0
  6
Continuous
 62
     3
100
AcDbLine
 10
81.26000000000002
 20
204.475
 30
0.0
 11
78.51
 21
204.475
 31
0.0
  0
LINE
  5
10C8
330
D80
100
AcDbEntity
  8
0
  6
Continuous
 62
     3
100
AcDbLine
 10
84.26
 20
205.4749999999999
 30
0.0
 11
84.26
 21
204.475
 31
0.0
  0
ARC
  5
10C9
330
D80
100
AcDbEntity
  8
0
  6
Continuous
 62
     3
100
AcDbCircle
 10
83.26
 20
205.4749999999999
 30
0.0
 40
1.0
100
AcDbArc
 50
0.0
 51
90.0
  0
LINE
  5
10CA
330
D80
100
AcDbEntity
  8
0
  6
Continuous
 62
     3
100
AcDbLine
 10
79.26000000000001
 20
204.475
 30
0.0
 11
79.26000000000001
 21
205.4749999999999
 31
0.0
  0
LINE
  5
10CB
330
D80
100
AcDbEntity
  8
0
  6
Continuous
 62
     3
100
AcDbLine
 10
80.26000000000001
 20
206.475
 30
0.0
 11
83.26
 21
206.475
 31
0.0
  0
ARC
  5
10CC
330
D80
100
AcDbEntity
  8
0
  6
Continuous
 62
     3
100
AcDbCircle
 10
80.26000000000001
 20
205.4749999999999
 30
0.0
 40
1.0
100
AcDbArc
 50
90.0
 51
180.0000000009999
  0
LINE
  5
10CD
330
D80
100
AcDbEntity
  8
0
  6
Continuous
 62
     3
100
AcDbLine
 10
85.01000000000002
 20
204.475
 30
0.0
 11
85.01000000000002
 21
203.6
 31
0.0
  0
LINE
  5
10CE
330
D80
100
AcDbEntity
  8
0
  6
Continuous
 62
     3
100
AcDbLine
 10
78.51
 20
203.6
 30
0.0
 11
78.51
 21
204.475
 31
0.0
  0
LINE
  5
10CF
330
D80
100
AcDbEntity
  8
0
  6
Continuous
 62
     3
100
AcDbLine
 10
82.26
 20
204.225
 30
0.0
 11
82.26
 21
204.475
 31
0.0
  0
LINE
  5
10D0
330
D80
100
AcDbEntity
  8
0
  6
Continuous
 62
     3
100
AcDbLine
 10
85.01000000000002
 20
204.475
 30
0.0
 11
82.26
 21
204.475
 31
0.0
  0
LINE
  5
10D1
330
D80
100
AcDbEntity
  8
0
  6
Continuous
 62
     3
100
AcDbLine
 10
85.135
 20
203.6
 30
0.0
 11
78.36499999999998
 21
203.6
 31
0.0
  0
LINE
  5
10D2
330
D80
100
AcDbEntity
  8
0
  6
Continuous
 62
     3
100
AcDbLine
 10
85.135
 20
203.6
 30
0.0
 11
78.36499999999998
 21
203.6
 31
0.0
  0
LINE
  5
10D3
330
D80
100
AcDbEntity
  8
0
  6
Continuous
 62
     3
100
AcDbLine
 10
85.135
 20
203.6
 30
0.0
 11
78.36499999999998
 21
203.6
 31
0.0
  0
LINE
  5
10D4
330
D80
100
AcDbEntity
  8
0
  6
Continuous
 62
     3
100
AcDbLine
 10
85.135
 20
203.6
 30
0.0
 11
78.36499999999998
 21
203.6
 31
0.0
  0
LINE
  5
10D5
330
D80
100
AcDbEntity
  8
0
  6
Continuous
 62
     3
100
AcDbLine
 10
85.135
 20
203.6
 30
0.0
 11
78.36499999999998
 21
203.6
 31
0.0
  0
LINE
  5
10D6
330
D80
100
AcDbEntity
  8
0
  6
Continuous
 62
     3
100
AcDbLine
 10
85.135
 20
203.6
 30
0.0
 11
78.36499999999998
 21
203.6
 31
0.0
  0
LINE
  5
10D7
330
D80
100
AcDbEntity
  8
0
  6
Continuous
 62
     3
100
AcDbLine
 10
81.26000000000002
 20
204.475
 30
0.0
 11
81.26000000000002
 21
204.225
 31
0.0
  0
LINE
  5
10D8
330
D80
100
AcDbEntity
  8
0
  6
Continuous
 62
     3
100
AcDbLine
 10
81.26000000000002
 20
204.225
 30
0.0
 11
82.26
 21
204.225
 31
0.0
  0
LINE
  5
10D9
330
D80
100
AcDbEntity
  8
0
  6
Continuous
 62
     3
100
AcDbLine
 10
81.26000000000002
 20
204.475
 30
0.0
 11
78.51
 21
204.475
 31
0.0
  0
LINE
  5
10DA
330
D80
100
AcDbEntity
  8
0
  6
Continuous
 62
     3
100
AcDbLine
 10
84.26
 20
205.4749999999999
 30
0.0
 11
84.26
 21
204.475
 31
0.0
  0
ARC
  5
10DB
330
D80
100
AcDbEntity
  8
0
  6
Continuous
 62
     3
100
AcDbCircle
 10
83.26
 20
205.4749999999999
 30
0.0
 40
1.0
100
AcDbArc
 50
0.0
 51
90.0
  0
LINE
  5
10DC
330
D80
100
AcDbEntity
  8
0
  6
Continuous
 62
     3
100
AcDbLine
 10
79.26000000000001
 20
204.475
 30
0.0
 11
79.26000000000001
 21
205.4749999999999
 31
0.0
  0
LINE
  5
10DD
330
D80
100
AcDbEntity
  8
0
  6
Continuous
 62
     3
100
AcDbLine
 10
80.26000000000001
 20
206.475
 30
0.0
 11
83.26
 21
206.475
 31
0.0
  0
ARC
  5
10DE
330
D80
100
AcDbEntity
  8
0
  6
Continuous
 62
     3
100
AcDbCircle
 10
80.26000000000001
 20
205.4749999999999
 30
0.0
 40
1.0
100
AcDbArc
 50
90.0
 51
180.0000000009999
  0
LINE
  5
10DF
330
D80
100
AcDbEntity
  8
0
  6
Continuous
 62
     3
100
AcDbLine
 10
85.01000000000002
 20
204.475
 30
0.0
 11
85.01000000000002
 21
203.6
 31
0.0
  0
LINE
  5
10E0
330
D80
100
AcDbEntity
  8
0
  6
Continuous
 62
     3
100
AcDbLine
 10
78.51
 20
203.6
 30
0.0
 11
78.51
 21
204.475
 31
0.0
  0
LINE
  5
10E1
330
D80
100
AcDbEntity
  8
0
  6
Continuous
 62
     3
100
AcDbLine
 10
82.26
 20
204.225
 30
0.0
 11
82.26
 21
204.475
 31
0.0
  0
LINE
  5
10E2
330
D80
100
AcDbEntity
  8
0
  6
Continuous
 62
     3
100
AcDbLine
 10
85.01000000000002
 20
204.475
 30
0.0
 11
82.26
 21
204.475
 31
0.0
  0
LINE
  5
10E3
330
D80
100
AcDbEntity
  8
0
  6
Continuous
 62
     3
100
AcDbLine
 10
77.515
 20
203.6
 30
0.0
 11
70.74500000000002
 21
203.6
 31
0.0
  0
LINE
  5
10E4
330
D80
100
AcDbEntity
  8
0
  6
Continuous
 62
     3
100
AcDbLine
 10
77.515
 20
203.6
 30
0.0
 11
70.74500000000002
 21
203.6
 31
0.0
  0
LINE
  5
10E5
330
D80
100
AcDbEntity
  8
0
  6
Continuous
 62
     3
100
AcDbLine
 10
77.515
 20
203.6
 30
0.0
 11
70.74500000000002
 21
203.6
 31
0.0
  0
LINE
  5
10E6
330
D80
100
AcDbEntity
  8
0
  6
Continuous
 62
     3
100
AcDbLine
 10
77.515
 20
203.6
 30
0.0
 11
70.74500000000002
 21
203.6
 31
0.0
  0
LINE
  5
10E7
330
D80
100
AcDbEntity
  8
0
  6
Continuous
 62
     3
100
AcDbLine
 10
77.515
 20
203.6
 30
0.0
 11
70.74500000000002
 21
203.6
 31
0.0
  0
LINE
  5
10E8
330
D80
100
AcDbEntity
  8
0
  6
Continuous
 62
     3
100
AcDbLine
 10
77.515
 20
203.6
 30
0.0
 11
70.74500000000002
 21
203.6
 31
0.0
  0
LINE
  5
10E9
330
D80
100
AcDbEntity
  8
0
  6
Continuous
 62
     3
100
AcDbLine
 10
73.64
 20
204.475
 30
0.0
 11
73.64
 21
204.225
 31
0.0
  0
LINE
  5
10EA
330
D80
100
AcDbEntity
  8
0
  6
Continuous
 62
     3
100
AcDbLine
 10
73.64
 20
204.225
 30
0.0
 11
74.64
 21
204.225
 31
0.0
  0
LINE
  5
10EB
330
D80
100
AcDbEntity
  8
0
  6
Continuous
 62
     3
100
AcDbLine
 10
73.64
 20
204.475
 30
0.0
 11
70.89
 21
204.475
 31
0.0
  0
LINE
  5
10EC
330
D80
100
AcDbEntity
  8
0
  6
Continuous
 62
     3
100
AcDbLine
 10
76.64
 20
205.4749999999999
 30
0.0
 11
76.64
 21
204.475
 31
0.0
  0
ARC
  5
10ED
330
D80
100
AcDbEntity
  8
0
  6
Continuous
 62
     3
100
AcDbCircle
 10
75.64
 20
205.4749999999999
 30
0.0
 40
1.0
100
AcDbArc
 50
0.0
 51
90.0
  0
LINE
  5
10EE
330
D80
100
AcDbEntity
  8
0
  6
Continuous
 62
     3
100
AcDbLine
 10
71.64
 20
204.475
 30
0.0
 11
71.64
 21
205.4749999999999
 31
0.0
  0
LINE
  5
10EF
330
D80
100
AcDbEntity
  8
0
  6
Continuous
 62
     3
100
AcDbLine
 10
72.64
 20
206.475
 30
0.0
 11
75.64
 21
206.475
 31
0.0
  0
ARC
  5
10F0
330
D80
100
AcDbEntity
  8
0
  6
Continuous
 62
     3
100
AcDbCircle
 10
72.64
 20
205.4749999999999
 30
0.0
 40
1.0
100
AcDbArc
 50
90.0
 51
180.0000000009999
  0
LINE
  5
10F1
330
D80
100
AcDbEntity
  8
0
  6
Continuous
 62
     3
100
AcDbLine
 10
77.39
 20
204.475
 30
0.0
 11
77.39
 21
203.6
 31
0.0
  0
LINE
  5
10F2
330
D80
100
AcDbEntity
  8
0
  6
Continuous
 62
     3
100
AcDbLine
 10
70.89
 20
203.6
 30
0.0
 11
70.89
 21
204.475
 31
0.0
  0
LINE
  5
10F3
330
D80
100
AcDbEntity
  8
0
  6
Continuous
 62
     3
100
AcDbLine
 10
74.64
 20
204.225
 30
0.0
 11
74.64
 21
204.475
 31
0.0
  0
LINE
  5
10F4
330
D80
100
AcDbEntity
  8
0
  6
Continuous
 62
     3
100
AcDbLine
 10
77.39
 20
204.475
 30
0.0
 11
74.64
 21
204.475
 31
0.0
  0
LINE
  5
10F5
330
D80
100
AcDbEntity
  8
0
  6
Continuous
 62
     3
100
AcDbLine
 10
77.515
 20
203.6
 30
0.0
 11
70.74500000000002
 21
203.6
 31
0.0
  0
LINE
  5
10F6
330
D80
100
AcDbEntity
  8
0
  6
Continuous
 62
     3
100
AcDbLine
 10
77.515
 20
203.6
 30
0.0
 11
70.74500000000002
 21
203.6
 31
0.0
  0
LINE
  5
10F7
330
D80
100
AcDbEntity
  8
0
  6
Continuous
 62
     3
100
AcDbLine
 10
77.515
 20
203.6
 30
0.0
 11
70.74500000000002
 21
203.6
 31
0.0
  0
LINE
  5
10F8
330
D80
100
AcDbEntity
  8
0
  6
Continuous
 62
     3
100
AcDbLine
 10
77.515
 20
203.6
 30
0.0
 11
70.74500000000002
 21
203.6
 31
0.0
  0
LINE
  5
10F9
330
D80
100
AcDbEntity
  8
0
  6
Continuous
 62
     3
100
AcDbLine
 10
77.515
 20
203.6
 30
0.0
 11
70.74500000000002
 21
203.6
 31
0.0
  0
LINE
  5
10FA
330
D80
100
AcDbEntity
  8
0
  6
Continuous
 62
     3
100
AcDbLine
 10
77.515
 20
203.6
 30
0.0
 11
70.74500000000002
 21
203.6
 31
0.0
  0
LINE
  5
10FB
330
D80
100
AcDbEntity
  8
0
  6
Continuous
 62
     3
100
AcDbLine
 10
73.64
 20
204.475
 30
0.0
 11
73.64
 21
204.225
 31
0.0
  0
LINE
  5
10FC
330
D80
100
AcDbEntity
  8
0
  6
Continuous
 62
     3
100
AcDbLine
 10
73.64
 20
204.225
 30
0.0
 11
74.64
 21
204.225
 31
0.0
  0
LINE
  5
10FD
330
D80
100
AcDbEntity
  8
0
  6
Continuous
 62
     3
100
AcDbLine
 10
73.64
 20
204.475
 30
0.0
 11
70.89
 21
204.475
 31
0.0
  0
LINE
  5
10FE
330
D80
100
AcDbEntity
  8
0
  6
Continuous
 62
     3
100
AcDbLine
 10
76.64
 20
205.4749999999999
 30
0.0
 11
76.64
 21
204.475
 31
0.0
  0
ARC
  5
10FF
330
D80
100
AcDbEntity
  8
0
  6
Continuous
 62
     3
100
AcDbCircle
 10
75.64
 20
205.4749999999999
 30
0.0
 40
1.0
100
AcDbArc
 50
0.0
 51
90.0
  0
LINE
  5
1100
330
D80
100
AcDbEntity
  8
0
  6
Continuous
 62
     3
100
AcDbLine
 10
71.64
 20
204.475
 30
0.0
 11
71.64
 21
205.4749999999999
 31
0.0
  0
LINE
  5
1101
330
D80
100
AcDbEntity
  8
0
  6
Continuous
 62
     3
100
AcDbLine
 10
72.64
 20
206.475
 30
0.0
 11
75.64
 21
206.475
 31
0.0
  0
ARC
  5
1102
330
D80
100
AcDbEntity
  8
0
  6
Continuous
 62
     3
100
AcDbCircle
 10
72.64
 20
205.4749999999999
 30
0.0
 40
1.0
100
AcDbArc
 50
90.0
 51
180.0000000009999
  0
LINE
  5
1103
330
D80
100
AcDbEntity
  8
0
  6
Continuous
 62
     3
100
AcDbLine
 10
77.39
 20
204.475
 30
0.0
 11
77.39
 21
203.6
 31
0.0
  0
LINE
  5
1104
330
D80
100
AcDbEntity
  8
0
  6
Continuous
 62
     3
100
AcDbLine
 10
70.89
 20
203.6
 30
0.0
 11
70.89
 21
204.475
 31
0.0
  0
LINE
  5
1105
330
D80
100
AcDbEntity
  8
0
  6
Continuous
 62
     3
100
AcDbLine
 10
74.64
 20
204.225
 30
0.0
 11
74.64
 21
204.475
 31
0.0
  0
LINE
  5
1106
330
D80
100
AcDbEntity
  8
0
  6
Continuous
 62
     3
100
AcDbLine
 10
77.39
 20
204.475
 30
0.0
 11
74.64
 21
204.475
 31
0.0
  0
LINE
  5
1107
330
D80
100
AcDbEntity
  8
0
  6
Continuous
 62
     3
100
AcDbLine
 10
69.89499999999999
 20
203.6
 30
0.0
 11
63.125
 21
203.6
 31
0.0
  0
LINE
  5
1108
330
D80
100
AcDbEntity
  8
0
  6
Continuous
 62
     3
100
AcDbLine
 10
69.89499999999999
 20
203.6
 30
0.0
 11
63.125
 21
203.6
 31
0.0
  0
LINE
  5
1109
330
D80
100
AcDbEntity
  8
0
  6
Continuous
 62
     3
100
AcDbLine
 10
69.89499999999999
 20
203.6
 30
0.0
 11
63.125
 21
203.6
 31
0.0
  0
LINE
  5
110A
330
D80
100
AcDbEntity
  8
0
  6
Continuous
 62
     3
100
AcDbLine
 10
69.89499999999999
 20
203.6
 30
0.0
 11
63.125
 21
203.6
 31
0.0
  0
LINE
  5
110B
330
D80
100
AcDbEntity
  8
0
  6
Continuous
 62
     3
100
AcDbLine
 10
69.89499999999999
 20
203.6
 30
0.0
 11
63.125
 21
203.6
 31
0.0
  0
LINE
  5
110C
330
D80
100
AcDbEntity
  8
0
  6
Continuous
 62
     3
100
AcDbLine
 10
69.89499999999999
 20
203.6
 30
0.0
 11
63.125
 21
203.6
 31
0.0
  0
LINE
  5
110D
330
D80
100
AcDbEntity
  8
0
  6
Continuous
 62
     3
100
AcDbLine
 10
69.89499999999999
 20
203.6
 30
0.0
 11
63.125
 21
203.6
 31
0.0
  0
LINE
  5
110E
330
D80
100
AcDbEntity
  8
0
  6
Continuous
 62
     3
100
AcDbLine
 10
66.02
 20
204.475
 30
0.0
 11
66.02
 21
204.225
 31
0.0
  0
LINE
  5
110F
330
D80
100
AcDbEntity
  8
0
  6
Continuous
 62
     3
100
AcDbLine
 10
66.02
 20
204.225
 30
0.0
 11
67.01999999999999
 21
204.225
 31
0.0
  0
LINE
  5
1110
330
D80
100
AcDbEntity
  8
0
  6
Continuous
 62
     3
100
AcDbLine
 10
66.02
 20
204.475
 30
0.0
 11
63.27
 21
204.475
 31
0.0
  0
LINE
  5
1111
330
D80
100
AcDbEntity
  8
0
  6
Continuous
 62
     3
100
AcDbLine
 10
69.02
 20
205.4749999999999
 30
0.0
 11
69.02
 21
204.475
 31
0.0
  0
ARC
  5
1112
330
D80
100
AcDbEntity
  8
0
  6
Continuous
 62
     3
100
AcDbCircle
 10
68.01999999999999
 20
205.4749999999999
 30
0.0
 40
1.0
100
AcDbArc
 50
0.0
 51
90.0
  0
LINE
  5
1113
330
D80
100
AcDbEntity
  8
0
  6
Continuous
 62
     3
100
AcDbLine
 10
64.02
 20
204.475
 30
0.0
 11
64.02
 21
205.4749999999999
 31
0.0
  0
LINE
  5
1114
330
D80
100
AcDbEntity
  8
0
  6
Continuous
 62
     3
100
AcDbLine
 10
65.01999999999999
 20
206.475
 30
0.0
 11
68.01999999999999
 21
206.475
 31
0.0
  0
ARC
  5
1115
330
D80
100
AcDbEntity
  8
0
  6
Continuous
 62
     3
100
AcDbCircle
 10
65.01999999999999
 20
205.4749999999999
 30
0.0
 40
1.0
100
AcDbArc
 50
90.0
 51
180.0000000009999
  0
LINE
  5
1116
330
D80
100
AcDbEntity
  8
0
  6
Continuous
 62
     3
100
AcDbLine
 10
69.77
 20
204.475
 30
0.0
 11
69.77
 21
203.6
 31
0.0
  0
LINE
  5
1117
330
D80
100
AcDbEntity
  8
0
  6
Continuous
 62
     3
100
AcDbLine
 10
63.27
 20
203.6
 30
0.0
 11
63.27
 21
204.475
 31
0.0
  0
LINE
  5
1118
330
D80
100
AcDbEntity
  8
0
  6
Continuous
 62
     3
100
AcDbLine
 10
67.01999999999999
 20
204.225
 30
0.0
 11
67.01999999999999
 21
204.475
 31
0.0
  0
LINE
  5
1119
330
D80
100
AcDbEntity
  8
0
  6
Continuous
 62
     3
100
AcDbLine
 10
69.77
 20
204.475
 30
0.0
 11
67.01999999999999
 21
204.475
 31
0.0
  0
LINE
  5
111A
330
D80
100
AcDbEntity
  8
0
  6
Continuous
 62
     3
100
AcDbLine
 10
69.89499999999999
 20
203.6
 30
0.0
 11
63.125
 21
203.6
 31
0.0
  0
LINE
  5
111B
330
D80
100
AcDbEntity
  8
0
  6
Continuous
 62
     3
100
AcDbLine
 10
69.89499999999999
 20
203.6
 30
0.0
 11
63.125
 21
203.6
 31
0.0
  0
LINE
  5
111C
330
D80
100
AcDbEntity
  8
0
  6
Continuous
 62
     3
100
AcDbLine
 10
69.89499999999999
 20
203.6
 30
0.0
 11
63.125
 21
203.6
 31
0.0
  0
LINE
  5
111D
330
D80
100
AcDbEntity
  8
0
  6
Continuous
 62
     3
100
AcDbLine
 10
69.89499999999999
 20
203.6
 30
0.0
 11
63.125
 21
203.6
 31
0.0
  0
LINE
  5
111E
330
D80
100
AcDbEntity
  8
0
  6
Continuous
 62
     3
100
AcDbLine
 10
69.89499999999999
 20
203.6
 30
0.0
 11
63.125
 21
203.6
 31
0.0
  0
LINE
  5
111F
330
D80
100
AcDbEntity
  8
0
  6
Continuous
 62
     3
100
AcDbLine
 10
69.89499999999999
 20
203.6
 30
0.0
 11
63.125
 21
203.6
 31
0.0
  0
LINE
  5
1120
330
D80
100
AcDbEntity
  8
0
  6
Continuous
 62
     3
100
AcDbLine
 10
66.02
 20
204.475
 30
0.0
 11
66.02
 21
204.225
 31
0.0
  0
LINE
  5
1121
330
D80
100
AcDbEntity
  8
0
  6
Continuous
 62
     3
100
AcDbLine
 10
66.02
 20
204.225
 30
0.0
 11
67.01999999999999
 21
204.225
 31
0.0
  0
LINE
  5
1122
330
D80
100
AcDbEntity
  8
0
  6
Continuous
 62
     3
100
AcDbLine
 10
66.02
 20
204.475
 30
0.0
 11
63.27
 21
204.475
 31
0.0
  0
LINE
  5
1123
330
D80
100
AcDbEntity
  8
0
  6
Continuous
 62
     3
100
AcDbLine
 10
69.02
 20
205.4749999999999
 30
0.0
 11
69.02
 21
204.475
 31
0.0
  0
ARC
  5
1124
330
D80
100
AcDbEntity
  8
0
  6
Continuous
 62
     3
100
AcDbCircle
 10
68.01999999999999
 20
205.4749999999999
 30
0.0
 40
1.0
100
AcDbArc
 50
0.0
 51
90.0
  0
LINE
  5
1125
330
D80
100
AcDbEntity
  8
0
  6
Continuous
 62
     3
100
AcDbLine
 10
64.02
 20
204.475
 30
0.0
 11
64.02
 21
205.4749999999999
 31
0.0
  0
LINE
  5
1126
330
D80
100
AcDbEntity
  8
0
  6
Continuous
 62
     3
100
AcDbLine
 10
65.01999999999999
 20
206.475
 30
0.0
 11
68.01999999999999
 21
206.475
 31
0.0
  0
ARC
  5
1127
330
D80
100
AcDbEntity
  8
0
  6
Continuous
 62
     3
100
AcDbCircle
 10
65.01999999999999
 20
205.4749999999999
 30
0.0
 40
1.0
100
AcDbArc
 50
90.0
 51
180.0000000009999
  0
LINE
  5
1128
330
D80
100
AcDbEntity
  8
0
  6
Continuous
 62
     3
100
AcDbLine
 10
69.77
 20
204.475
 30
0.0
 11
69.77
 21
203.6
 31
0.0
  0
LINE
  5
1129
330
D80
100
AcDbEntity
  8
0
  6
Continuous
 62
     3
100
AcDbLine
 10
63.27
 20
203.6
 30
0.0
 11
63.27
 21
204.475
 31
0.0
  0
LINE
  5
112A
330
D80
100
AcDbEntity
  8
0
  6
Continuous
 62
     3
100
AcDbLine
 10
67.01999999999999
 20
204.225
 30
0.0
 11
67.01999999999999
 21
204.475
 31
0.0
  0
LINE
  5
112B
330
D80
100
AcDbEntity
  8
0
  6
Continuous
 62
     3
100
AcDbLine
 10
69.77
 20
204.475
 30
0.0
 11
67.01999999999999
 21
204.475
 31
0.0
  0
LINE
  5
169E
330
D80
100
AcDbEntity
  8
0
  6
Continuous
 62
     2
100
AcDbLine
 10
71.51250000100001
 20
79.339500003
 30
0.0
 11
71.72650000100002
 21
79.232500003
 31
0.0
  0
LINE
  5
169F
330
D80
100
AcDbEntity
  8
0
  6
Continuous
 62
     2
100
AcDbLine
 10
76.094500001
 20
79.60700000299998
 30
0.0
 11
75.827000001
 21
79.87450000299998
 31
0.0
  0
LINE
  5
16A0
330
D80
100
AcDbEntity
  8
0
  6
Continuous
 62
     2
100
AcDbLine
 10
109.012500001
 20
79.33950000199999
 30
0.0
 11
109.226500001
 21
79.23250000199999
 31
0.0
  0
POINT
  5
16A1
330
D80
100
AcDbEntity
  8
0
  6
Continuous
 62
     2
100
AcDbPoint
 10
126.600000001
 20
60.550000003
 30
0.0
  0
POINT
  5
16A2
330
D80
100
AcDbEntity
  8
0
  6
Continuous
 62
     2
100
AcDbPoint
 10
126.1750000009999
 20
68.00000000299999
 30
0.0
  0
POINT
  5
16A3
330
D80
100
AcDbEntity
  8
0
  6
Continuous
 62
     2
100
AcDbPoint
 10
129.425000001
 20
68.00000000299999
 30
0.0
  0
LINE
  5
16A4
330
D80
100
AcDbEntity
  8
0
  6
Continuous
 62
     2
100
AcDbLine
 10
126.173437501
 20
67.987500003
 30
0.0
 11
126.1750000009999
 21
68.00000000299999
 31
0.0
  0
POINT
  5
16A5
330
D80
100
AcDbEntity
  8
0
  6
Continuous
 62
     2
100
AcDbPoint
 10
118.6000000009999
 20
60.550000003
 30
0.0
  0
POINT
  5
16A6
330
D80
100
AcDbEntity
  8
0
  6
Continuous
 62
     2
100
AcDbPoint
 10
118.175000001
 20
68.00000000299999
 30
0.0
  0
LINE
  5
16A7
330
D80
100
AcDbEntity
  8
0
  6
Continuous
 62
     2
100
AcDbLine
 10
118.173437501
 20
67.987500003
 30
0.0
 11
118.175000001
 21
68.00000000299999
 31
0.0
  0
POINT
  5
16A8
330
D80
100
AcDbEntity
  8
0
  6
Continuous
 62
     2
100
AcDbPoint
 10
110.600000001
 20
60.550000003
 30
0.0
  0
POINT
  5
16A9
330
D80
100
AcDbEntity
  8
0
  6
Continuous
 62
     2
100
AcDbPoint
 10
110.175000001
 20
68.00000000299999
 30
0.0
  0
POINT
  5
16AA
330
D80
100
AcDbEntity
  8
0
  6
Continuous
 62
     2
100
AcDbPoint
 10
109.925000001
 20
60.000000003
 30
0.0
  0
LINE
  5
16AB
330
D80
100
AcDbEntity
  8
0
  6
Continuous
 62
     2
100
AcDbLine
 10
111.675000001
 20
64.350000003
 30
0.0
 11
110.525000001
 21
64.350000003
 31
0.0
  0
LINE
  5
16AC
330
D80
100
AcDbEntity
  8
0
  6
Continuous
 62
     2
100
AcDbLine
 10
110.173437501
 20
67.987500003
 30
0.0
 11
110.175000001
 21
68.00000000299999
 31
0.0
  0
POINT
  5
16AD
330
D80
100
AcDbEntity
  8
0
  6
Continuous
 62
     2
100
AcDbPoint
 10
102.600000001
 20
60.550000003
 30
0.0
  0
POINT
  5
16AE
330
D80
100
AcDbEntity
  8
0
  6
Continuous
 62
     2
100
AcDbPoint
 10
102.1750000009999
 20
68.00000000299999
 30
0.0
  0
LINE
  5
16AF
330
D80
100
AcDbEntity
  8
0
  6
Continuous
 62
     2
100
AcDbLine
 10
102.173437501
 20
67.987500003
 30
0.0
 11
102.1750000009999
 21
68.00000000299999
 31
0.0
  0
LINE
  5
16B0
330
D80
100
AcDbEntity
  8
0
  6
Continuous
 62
     2
100
AcDbLine
 10
100.475000001
 20
54.450000003
 30
0.0
 11
106.475000001
 21
54.450000003
 31
0.0
  0
LINE
  5
16B1
330
D80
100
AcDbEntity
  8
0
  6
Continuous
 62
     2
100
AcDbLine
 10
103.475000001
 20
56.950000003
 30
0.0
 11
101.9750000009999
 21
56.950000003
 31
0.0
  0
LINE
  5
16B2
330
D80
100
AcDbEntity
  8
0
  6
Continuous
 62
     2
100
AcDbLine
 10
101.9750000009999
 20
56.950000003
 30
0.0
 11
101.9750000009999
 21
55.45000000299999
 31
0.0
  0
LINE
  5
16B3
330
D80
100
AcDbEntity
  8
0
  6
Continuous
 62
     2
100
AcDbLine
 10
101.9750000009999
 20
55.45000000299999
 30
0.0
 11
104.9750000009999
 21
55.45000000299999
 31
0.0
  0
LINE
  5
16B4
330
D80
100
AcDbEntity
  8
0
  6
Continuous
 62
     2
100
AcDbLine
 10
104.9750000009999
 20
55.45000000299999
 30
0.0
 11
104.9750000009999
 21
56.950000003
 31
0.0
  0
LINE
  5
16B5
330
D80
100
AcDbEntity
  8
0
  6
Continuous
 62
     2
100
AcDbLine
 10
104.9750000009999
 20
56.950000003
 30
0.0
 11
103.475000001
 21
56.950000003
 31
0.0
  0
POINT
  5
16B6
330
D80
100
AcDbEntity
  8
0
  6
Continuous
 62
     2
100
AcDbPoint
 10
107.1000000009999
 20
56.200000003
 30
0.0
  0
LINE
  5
16B7
330
D80
100
AcDbEntity
  8
0
  6
Continuous
 62
     2
100
AcDbLine
 10
107.1000000009999
 20
56.200000003
 30
0.0
 11
107.1000000009999
 21
57.075000003
 31
0.0
  0
LINE
  5
16B8
330
D80
100
AcDbEntity
  8
0
  6
Continuous
 62
     2
100
AcDbLine
 10
107.1000000009999
 20
57.075000003
 30
0.0
 11
105.350000001
 21
57.075000003
 31
0.0
  0
LINE
  5
16B9
330
D80
100
AcDbEntity
  8
0
  6
Continuous
 62
     2
100
AcDbLine
 10
105.350000001
 20
57.075000003
 30
0.0
 11
105.350000001
 21
55.325000003
 31
0.0
  0
LINE
  5
16BA
330
D80
100
AcDbEntity
  8
0
  6
Continuous
 62
     2
100
AcDbLine
 10
105.350000001
 20
55.325000003
 30
0.0
 11
107.1000000009999
 21
55.325000003
 31
0.0
  0
LINE
  5
16BB
330
D80
100
AcDbEntity
  8
0
  6
Continuous
 62
     2
100
AcDbLine
 10
107.1000000009999
 20
55.325000003
 30
0.0
 11
107.1000000009999
 21
56.200000003
 31
0.0
  0
POINT
  5
16BC
330
D80
100
AcDbEntity
  8
0
  6
Continuous
 62
     2
100
AcDbPoint
 10
99.85000000100001
 20
56.200000003
 30
0.0
  0
LINE
  5
16BD
330
D80
100
AcDbEntity
  8
0
  6
Continuous
 62
     2
100
AcDbLine
 10
99.85000000100001
 20
56.200000003
 30
0.0
 11
99.85000000100001
 21
57.075000003
 31
0.0
  0
LINE
  5
16BE
330
D80
100
AcDbEntity
  8
0
  6
Continuous
 62
     2
100
AcDbLine
 10
99.85000000100001
 20
57.075000003
 30
0.0
 11
101.600000001
 21
57.075000003
 31
0.0
  0
LINE
  5
16BF
330
D80
100
AcDbEntity
  8
0
  6
Continuous
 62
     2
100
AcDbLine
 10
101.600000001
 20
57.075000003
 30
0.0
 11
101.600000001
 21
55.325000003
 31
0.0
  0
LINE
  5
16C0
330
D80
100
AcDbEntity
  8
0
  6
Continuous
 62
     2
100
AcDbLine
 10
101.600000001
 20
55.325000003
 30
0.0
 11
99.85000000100001
 21
55.325000003
 31
0.0
  0
LINE
  5
16C1
330
D80
100
AcDbEntity
  8
0
  6
Continuous
 62
     2
100
AcDbLine
 10
99.85000000100001
 20
55.325000003
 30
0.0
 11
99.85000000100001
 21
56.200000003
 31
0.0
  0
LINE
  5
16C2
330
D80
100
AcDbEntity
  8
0
  6
Continuous
 62
     2
100
AcDbLine
 10
108.475000001
 20
54.450000003
 30
0.0
 11
114.4750000009999
 21
54.450000003
 31
0.0
  0
LINE
  5
16C3
330
D80
100
AcDbEntity
  8
0
  6
Continuous
 62
     2
100
AcDbLine
 10
111.4750000009999
 20
56.950000003
 30
0.0
 11
109.975000001
 21
56.950000003
 31
0.0
  0
LINE
  5
16C4
330
D80
100
AcDbEntity
  8
0
  6
Continuous
 62
     2
100
AcDbLine
 10
109.975000001
 20
56.950000003
 30
0.0
 11
109.975000001
 21
55.45000000299999
 31
0.0
  0
LINE
  5
16C5
330
D80
100
AcDbEntity
  8
0
  6
Continuous
 62
     2
100
AcDbLine
 10
109.975000001
 20
55.45000000299999
 30
0.0
 11
112.975000001
 21
55.45000000299999
 31
0.0
  0
LINE
  5
16C6
330
D80
100
AcDbEntity
  8
0
  6
Continuous
 62
     2
100
AcDbLine
 10
112.975000001
 20
55.45000000299999
 30
0.0
 11
112.975000001
 21
56.950000003
 31
0.0
  0
LINE
  5
16C7
330
D80
100
AcDbEntity
  8
0
  6
Continuous
 62
     2
100
AcDbLine
 10
112.975000001
 20
56.950000003
 30
0.0
 11
111.4750000009999
 21
56.950000003
 31
0.0
  0
POINT
  5
16C8
330
D80
100
AcDbEntity
  8
0
  6
Continuous
 62
     2
100
AcDbPoint
 10
115.100000001
 20
56.200000003
 30
0.0
  0
LINE
  5
16C9
330
D80
100
AcDbEntity
  8
0
  6
Continuous
 62
     2
100
AcDbLine
 10
115.100000001
 20
56.200000003
 30
0.0
 11
115.100000001
 21
57.075000003
 31
0.0
  0
LINE
  5
16CA
330
D80
100
AcDbEntity
  8
0
  6
Continuous
 62
     2
100
AcDbLine
 10
115.100000001
 20
57.075000003
 30
0.0
 11
113.3500000009999
 21
57.075000003
 31
0.0
  0
LINE
  5
16CB
330
D80
100
AcDbEntity
  8
0
  6
Continuous
 62
     2
100
AcDbLine
 10
113.3500000009999
 20
57.075000003
 30
0.0
 11
113.3500000009999
 21
55.325000003
 31
0.0
  0
LINE
  5
16CC
330
D80
100
AcDbEntity
  8
0
  6
Continuous
 62
     2
100
AcDbLine
 10
113.3500000009999
 20
55.325000003
 30
0.0
 11
115.100000001
 21
55.325000003
 31
0.0
  0
LINE
  5
16CD
330
D80
100
AcDbEntity
  8
0
  6
Continuous
 62
     2
100
AcDbLine
 10
115.100000001
 20
55.325000003
 30
0.0
 11
115.100000001
 21
56.200000003
 31
0.0
  0
POINT
  5
16CE
330
D80
100
AcDbEntity
  8
0
  6
Continuous
 62
     2
100
AcDbPoint
 10
107.850000001
 20
56.200000003
 30
0.0
  0
LINE
  5
16CF
330
D80
100
AcDbEntity
  8
0
  6
Continuous
 62
     2
100
AcDbLine
 10
107.850000001
 20
56.200000003
 30
0.0
 11
107.850000001
 21
57.075000003
 31
0.0
  0
LINE
  5
16D0
330
D80
100
AcDbEntity
  8
0
  6
Continuous
 62
     2
100
AcDbLine
 10
107.850000001
 20
57.075000003
 30
0.0
 11
109.600000001
 21
57.075000003
 31
0.0
  0
LINE
  5
16D1
330
D80
100
AcDbEntity
  8
0
  6
Continuous
 62
     2
100
AcDbLine
 10
109.600000001
 20
57.075000003
 30
0.0
 11
109.600000001
 21
55.325000003
 31
0.0
  0
LINE
  5
16D2
330
D80
100
AcDbEntity
  8
0
  6
Continuous
 62
     2
100
AcDbLine
 10
109.600000001
 20
55.325000003
 30
0.0
 11
107.850000001
 21
55.325000003
 31
0.0
  0
LINE
  5
16D3
330
D80
100
AcDbEntity
  8
0
  6
Continuous
 62
     2
100
AcDbLine
 10
107.850000001
 20
55.325000003
 30
0.0
 11
107.850000001
 21
56.200000003
 31
0.0
  0
LINE
  5
16D4
330
D80
100
AcDbEntity
  8
0
  6
Continuous
 62
     2
100
AcDbLine
 10
116.4750000009999
 20
54.450000003
 30
0.0
 11
122.475000001
 21
54.450000003
 31
0.0
  0
LINE
  5
16D5
330
D80
100
AcDbEntity
  8
0
  6
Continuous
 62
     2
100
AcDbLine
 10
119.4750000009999
 20
56.950000003
 30
0.0
 11
117.975000001
 21
56.950000003
 31
0.0
  0
LINE
  5
16D6
330
D80
100
AcDbEntity
  8
0
  6
Continuous
 62
     2
100
AcDbLine
 10
117.975000001
 20
56.950000003
 30
0.0
 11
117.975000001
 21
55.45000000299999
 31
0.0
  0
LINE
  5
16D7
330
D80
100
AcDbEntity
  8
0
  6
Continuous
 62
     2
100
AcDbLine
 10
117.975000001
 20
55.45000000299999
 30
0.0
 11
120.975000001
 21
55.45000000299999
 31
0.0
  0
LINE
  5
16D8
330
D80
100
AcDbEntity
  8
0
  6
Continuous
 62
     2
100
AcDbLine
 10
120.975000001
 20
55.45000000299999
 30
0.0
 11
120.975000001
 21
56.950000003
 31
0.0
  0
LINE
  5
16D9
330
D80
100
AcDbEntity
  8
0
  6
Continuous
 62
     2
100
AcDbLine
 10
120.975000001
 20
56.950000003
 30
0.0
 11
119.4750000009999
 21
56.950000003
 31
0.0
  0
POINT
  5
16DA
330
D80
100
AcDbEntity
  8
0
  6
Continuous
 62
     2
100
AcDbPoint
 10
123.100000001
 20
56.200000003
 30
0.0
  0
LINE
  5
16DB
330
D80
100
AcDbEntity
  8
0
  6
Continuous
 62
     2
100
AcDbLine
 10
123.100000001
 20
56.200000003
 30
0.0
 11
123.100000001
 21
57.075000003
 31
0.0
  0
LINE
  5
16DC
330
D80
100
AcDbEntity
  8
0
  6
Continuous
 62
     2
100
AcDbLine
 10
123.100000001
 20
57.075000003
 30
0.0
 11
121.350000001
 21
57.075000003
 31
0.0
  0
LINE
  5
16DD
330
D80
100
AcDbEntity
  8
0
  6
Continuous
 62
     2
100
AcDbLine
 10
121.350000001
 20
57.075000003
 30
0.0
 11
121.350000001
 21
55.325000003
 31
0.0
  0
LINE
  5
16DE
330
D80
100
AcDbEntity
  8
0
  6
Continuous
 62
     2
100
AcDbLine
 10
121.350000001
 20
55.325000003
 30
0.0
 11
123.100000001
 21
55.325000003
 31
0.0
  0
LINE
  5
16DF
330
D80
100
AcDbEntity
  8
0
  6
Continuous
 62
     2
100
AcDbLine
 10
123.100000001
 20
55.325000003
 30
0.0
 11
123.100000001
 21
56.200000003
 31
0.0
  0
POINT
  5
16E0
330
D80
100
AcDbEntity
  8
0
  6
Continuous
 62
     2
100
AcDbPoint
 10
115.850000001
 20
56.200000003
 30
0.0
  0
LINE
  5
16E1
330
D80
100
AcDbEntity
  8
0
  6
Continuous
 62
     2
100
AcDbLine
 10
115.850000001
 20
56.200000003
 30
0.0
 11
115.850000001
 21
57.075000003
 31
0.0
  0
LINE
  5
16E2
330
D80
100
AcDbEntity
  8
0
  6
Continuous
 62
     2
100
AcDbLine
 10
115.850000001
 20
57.075000003
 30
0.0
 11
117.6000000009999
 21
57.075000003
 31
0.0
  0
LINE
  5
16E3
330
D80
100
AcDbEntity
  8
0
  6
Continuous
 62
     2
100
AcDbLine
 10
117.6000000009999
 20
57.075000003
 30
0.0
 11
117.6000000009999
 21
55.325000003
 31
0.0
  0
LINE
  5
16E4
330
D80
100
AcDbEntity
  8
0
  6
Continuous
 62
     2
100
AcDbLine
 10
117.6000000009999
 20
55.325000003
 30
0.0
 11
115.850000001
 21
55.325000003
 31
0.0
  0
LINE
  5
16E5
330
D80
100
AcDbEntity
  8
0
  6
Continuous
 62
     2
100
AcDbLine
 10
115.850000001
 20
55.325000003
 30
0.0
 11
115.850000001
 21
56.200000003
 31
0.0
  0
LINE
  5
16E6
330
D80
100
AcDbEntity
  8
0
  6
Continuous
 62
     2
100
AcDbLine
 10
100.475000001
 20
57.95000000299999
 30
0.0
 11
100.475000001
 21
54.450000003
 31
0.0
  0
LINE
  5
16E7
330
D80
100
AcDbEntity
  8
0
  6
Continuous
 62
     2
100
AcDbLine
 10
106.475000001
 20
54.450000003
 30
0.0
 11
106.475000001
 21
57.95000000299999
 31
0.0
  0
LINE
  5
16E8
330
D80
100
AcDbEntity
  8
0
  6
Continuous
 62
     2
100
AcDbLine
 10
108.475000001
 20
57.95000000299999
 30
0.0
 11
108.475000001
 21
54.450000003
 31
0.0
  0
LINE
  5
16E9
330
D80
100
AcDbEntity
  8
0
  6
Continuous
 62
     2
100
AcDbLine
 10
114.4750000009999
 20
54.450000003
 30
0.0
 11
114.4750000009999
 21
57.95000000299999
 31
0.0
  0
LINE
  5
16EA
330
D80
100
AcDbEntity
  8
0
  6
Continuous
 62
     2
100
AcDbLine
 10
116.4750000009999
 20
57.95000000299999
 30
0.0
 11
116.4750000009999
 21
54.450000003
 31
0.0
  0
LINE
  5
16EB
330
D80
100
AcDbEntity
  8
0
  6
Continuous
 62
     2
100
AcDbLine
 10
122.475000001
 20
54.450000003
 30
0.0
 11
122.475000001
 21
57.95000000299999
 31
0.0
  0
LINE
  5
16EC
330
D80
100
AcDbEntity
  8
0
  6
Continuous
 62
     2
100
AcDbLine
 10
119.4750000009999
 20
57.95000000299999
 30
0.0
 11
116.4750000009999
 21
57.95000000299999
 31
0.0
  0
LINE
  5
16ED
330
D80
100
AcDbEntity
  8
0
  6
Continuous
 62
     2
100
AcDbLine
 10
122.475000001
 20
57.95000000299999
 30
0.0
 11
119.4750000009999
 21
57.95000000299999
 31
0.0
  0
LINE
  5
16EE
330
D80
100
AcDbEntity
  8
0
  6
Continuous
 62
     2
100
AcDbLine
 10
111.4750000009999
 20
57.95000000299999
 30
0.0
 11
108.475000001
 21
57.95000000299999
 31
0.0
  0
LINE
  5
16EF
330
D80
100
AcDbEntity
  8
0
  6
Continuous
 62
     2
100
AcDbLine
 10
114.4750000009999
 20
57.95000000299999
 30
0.0
 11
111.4750000009999
 21
57.95000000299999
 31
0.0
  0
LINE
  5
16F0
330
D80
100
AcDbEntity
  8
0
  6
Continuous
 62
     2
100
AcDbLine
 10
103.475000001
 20
57.95000000299999
 30
0.0
 11
100.475000001
 21
57.95000000299999
 31
0.0
  0
LINE
  5
16F1
330
D80
100
AcDbEntity
  8
0
  6
Continuous
 62
     2
100
AcDbLine
 10
106.475000001
 20
57.95000000299999
 30
0.0
 11
103.475000001
 21
57.95000000299999
 31
0.0
  0
LINE
  5
16F2
330
D80
100
AcDbEntity
  8
0
  6
Continuous
 62
     2
100
AcDbLine
 10
124.475000001
 20
54.450000003
 30
0.0
 11
130.475000001
 21
54.450000003
 31
0.0
  0
LINE
  5
16F3
330
D80
100
AcDbEntity
  8
0
  6
Continuous
 62
     2
100
AcDbLine
 10
127.475000001
 20
56.950000003
 30
0.0
 11
125.9750000009999
 21
56.950000003
 31
0.0
  0
LINE
  5
16F4
330
D80
100
AcDbEntity
  8
0
  6
Continuous
 62
     2
100
AcDbLine
 10
125.9750000009999
 20
56.950000003
 30
0.0
 11
125.9750000009999
 21
55.45000000299999
 31
0.0
  0
LINE
  5
16F5
330
D80
100
AcDbEntity
  8
0
  6
Continuous
 62
     2
100
AcDbLine
 10
125.9750000009999
 20
55.45000000299999
 30
0.0
 11
128.975000001
 21
55.45000000299999
 31
0.0
  0
LINE
  5
16F6
330
D80
100
AcDbEntity
  8
0
  6
Continuous
 62
     2
100
AcDbLine
 10
128.975000001
 20
55.45000000299999
 30
0.0
 11
128.975000001
 21
56.950000003
 31
0.0
  0
LINE
  5
16F7
330
D80
100
AcDbEntity
  8
0
  6
Continuous
 62
     2
100
AcDbLine
 10
128.975000001
 20
56.950000003
 30
0.0
 11
127.475000001
 21
56.950000003
 31
0.0
  0
POINT
  5
16F8
330
D80
100
AcDbEntity
  8
0
  6
Continuous
 62
     2
100
AcDbPoint
 10
131.100000001
 20
56.200000003
 30
0.0
  0
LINE
  5
16F9
330
D80
100
AcDbEntity
  8
0
  6
Continuous
 62
     2
100
AcDbLine
 10
131.100000001
 20
56.200000003
 30
0.0
 11
131.100000001
 21
57.075000003
 31
0.0
  0
LINE
  5
16FA
330
D80
100
AcDbEntity
  8
0
  6
Continuous
 62
     2
100
AcDbLine
 10
131.100000001
 20
57.075000003
 30
0.0
 11
129.350000001
 21
57.075000003
 31
0.0
  0
LINE
  5
16FB
330
D80
100
AcDbEntity
  8
0
  6
Continuous
 62
     2
100
AcDbLine
 10
129.350000001
 20
57.075000003
 30
0.0
 11
129.350000001
 21
55.325000003
 31
0.0
  0
LINE
  5
16FC
330
D80
100
AcDbEntity
  8
0
  6
Continuous
 62
     2
100
AcDbLine
 10
129.350000001
 20
55.325000003
 30
0.0
 11
131.100000001
 21
55.325000003
 31
0.0
  0
LINE
  5
16FD
330
D80
100
AcDbEntity
  8
0
  6
Continuous
 62
     2
100
AcDbLine
 10
131.100000001
 20
55.325000003
 30
0.0
 11
131.100000001
 21
56.200000003
 31
0.0
  0
POINT
  5
16FE
330
D80
100
AcDbEntity
  8
0
  6
Continuous
 62
     2
100
AcDbPoint
 10
123.8500000009999
 20
56.200000003
 30
0.0
  0
LINE
  5
16FF
330
D80
100
AcDbEntity
  8
0
  6
Continuous
 62
     2
100
AcDbLine
 10
123.8500000009999
 20
56.200000003
 30
0.0
 11
123.8500000009999
 21
57.075000003
 31
0.0
  0
LINE
  5
1700
330
D80
100
AcDbEntity
  8
0
  6
Continuous
 62
     2
100
AcDbLine
 10
123.8500000009999
 20
57.075000003
 30
0.0
 11
125.600000001
 21
57.075000003
 31
0.0
  0
LINE
  5
1701
330
D80
100
AcDbEntity
  8
0
  6
Continuous
 62
     2
100
AcDbLine
 10
125.600000001
 20
57.075000003
 30
0.0
 11
125.600000001
 21
55.325000003
 31
0.0
  0
LINE
  5
1702
330
D80
100
AcDbEntity
  8
0
  6
Continuous
 62
     2
100
AcDbLine
 10
125.600000001
 20
55.325000003
 30
0.0
 11
123.8500000009999
 21
55.325000003
 31
0.0
  0
LINE
  5
1703
330
D80
100
AcDbEntity
  8
0
  6
Continuous
 62
     2
100
AcDbLine
 10
123.8500000009999
 20
55.325000003
 30
0.0
 11
123.8500000009999
 21
56.200000003
 31
0.0
  0
LINE
  5
1704
330
D80
100
AcDbEntity
  8
0
  6
Continuous
 62
     2
100
AcDbLine
 10
124.475000001
 20
57.95000000299999
 30
0.0
 11
124.475000001
 21
54.450000003
 31
0.0
  0
LINE
  5
1705
330
D80
100
AcDbEntity
  8
0
  6
Continuous
 62
     2
100
AcDbLine
 10
130.475000001
 20
54.450000003
 30
0.0
 11
130.475000001
 21
57.95000000299999
 31
0.0
  0
LINE
  5
1706
330
D80
100
AcDbEntity
  8
0
  6
Continuous
 62
     2
100
AcDbLine
 10
127.475000001
 20
57.95000000299999
 30
0.0
 11
124.475000001
 21
57.95000000299999
 31
0.0
  0
LINE
  5
1707
330
D80
100
AcDbEntity
  8
0
  6
Continuous
 62
     2
100
AcDbLine
 10
130.475000001
 20
57.95000000299999
 30
0.0
 11
127.475000001
 21
57.95000000299999
 31
0.0
  0
POINT
  5
1708
330
D80
100
AcDbEntity
  8
0
  6
Continuous
 62
     2
100
AcDbPoint
 10
63.850000001
 20
60.550000003
 30
0.0
  0
POINT
  5
1709
330
D80
100
AcDbEntity
  8
0
  6
Continuous
 62
     2
100
AcDbPoint
 10
63.425000001
 20
68.00000000299999
 30
0.0
  0
LINE
  5
170A
330
D80
100
AcDbEntity
  8
0
  6
Continuous
 62
     2
100
AcDbLine
 10
63.423437501
 20
67.987500003
 30
0.0
 11
63.425000001
 21
68.00000000299999
 31
0.0
  0
POINT
  5
170B
330
D80
100
AcDbEntity
  8
0
  6
Continuous
 62
     2
100
AcDbPoint
 10
71.850000001
 20
60.550000003
 30
0.0
  0
POINT
  5
170C
330
D80
100
AcDbEntity
  8
0
  6
Continuous
 62
     2
100
AcDbPoint
 10
71.425000001
 20
68.00000000299999
 30
0.0
  0
LINE
  5
170D
330
D80
100
AcDbEntity
  8
0
  6
Continuous
 62
     2
100
AcDbLine
 10
71.42343750100001
 20
67.987500003
 30
0.0
 11
71.425000001
 21
68.00000000299999
 31
0.0
  0
POINT
  5
170E
330
D80
100
AcDbEntity
  8
0
  6
Continuous
 62
     2
100
AcDbPoint
 10
79.850000001
 20
60.550000003
 30
0.0
  0
POINT
  5
170F
330
D80
100
AcDbEntity
  8
0
  6
Continuous
 62
     2
100
AcDbPoint
 10
79.425000001
 20
68.00000000299999
 30
0.0
  0
LINE
  5
1710
330
D80
100
AcDbEntity
  8
0
  6
Continuous
 62
     2
100
AcDbLine
 10
79.42343750099998
 20
67.987500003
 30
0.0
 11
79.425000001
 21
68.00000000299999
 31
0.0
  0
POINT
  5
1711
330
D80
100
AcDbEntity
  8
0
  6
Continuous
 62
     2
100
AcDbPoint
 10
87.850000001
 20
60.550000003
 30
0.0
  0
POINT
  5
1712
330
D80
100
AcDbEntity
  8
0
  6
Continuous
 62
     2
100
AcDbPoint
 10
87.42500000099999
 20
68.00000000299999
 30
0.0
  0
LINE
  5
1713
330
D80
100
AcDbEntity
  8
0
  6
Continuous
 62
     2
100
AcDbLine
 10
87.42343750100003
 20
67.987500003
 30
0.0
 11
87.42500000099999
 21
68.00000000299999
 31
0.0
  0
LINE
  5
1714
330
D80
100
AcDbEntity
  8
0
  6
Continuous
 62
     2
100
AcDbLine
 10
88.77500000100003
 20
57.95000000299999
 30
0.0
 11
85.77500000099998
 21
57.95000000299999
 31
0.0
  0
LINE
  5
1715
330
D80
100
AcDbEntity
  8
0
  6
Continuous
 62
     2
100
AcDbLine
 10
85.77500000099998
 20
57.95000000299999
 30
0.0
 11
85.77500000099998
 21
54.450000003
 31
0.0
  0
LINE
  5
1716
330
D80
100
AcDbEntity
  8
0
  6
Continuous
 62
     2
100
AcDbLine
 10
85.77500000099998
 20
54.450000003
 30
0.0
 11
91.77500000100001
 21
54.450000003
 31
0.0
  0
LINE
  5
1717
330
D80
100
AcDbEntity
  8
0
  6
Continuous
 62
     2
100
AcDbLine
 10
91.77500000100001
 20
54.450000003
 30
0.0
 11
91.77500000100001
 21
57.95000000299999
 31
0.0
  0
LINE
  5
1718
330
D80
100
AcDbEntity
  8
0
  6
Continuous
 62
     2
100
AcDbLine
 10
91.77500000100001
 20
57.95000000299999
 30
0.0
 11
88.77500000100003
 21
57.95000000299999
 31
0.0
  0
LINE
  5
1719
330
D80
100
AcDbEntity
  8
0
  6
Continuous
 62
     2
100
AcDbLine
 10
88.77500000100003
 20
56.950000003
 30
0.0
 11
87.27500000099999
 21
56.950000003
 31
0.0
  0
LINE
  5
171A
330
D80
100
AcDbEntity
  8
0
  6
Continuous
 62
     2
100
AcDbLine
 10
87.27500000099999
 20
56.950000003
 30
0.0
 11
87.27500000099999
 21
55.45000000299999
 31
0.0
  0
LINE
  5
171B
330
D80
100
AcDbEntity
  8
0
  6
Continuous
 62
     2
100
AcDbLine
 10
87.27500000099999
 20
55.45000000299999
 30
0.0
 11
90.27500000100003
 21
55.45000000299999
 31
0.0
  0
LINE
  5
171C
330
D80
100
AcDbEntity
  8
0
  6
Continuous
 62
     2
100
AcDbLine
 10
90.27500000100003
 20
55.45000000299999
 30
0.0
 11
90.27500000100003
 21
56.950000003
 31
0.0
  0
LINE
  5
171D
330
D80
100
AcDbEntity
  8
0
  6
Continuous
 62
     2
100
AcDbLine
 10
90.27500000100003
 20
56.950000003
 30
0.0
 11
88.77500000100003
 21
56.950000003
 31
0.0
  0
POINT
  5
171E
330
D80
100
AcDbEntity
  8
0
  6
Continuous
 62
     2
100
AcDbPoint
 10
92.40000000100001
 20
56.200000003
 30
0.0
  0
LINE
  5
171F
330
D80
100
AcDbEntity
  8
0
  6
Continuous
 62
     2
100
AcDbLine
 10
92.40000000100001
 20
56.200000003
 30
0.0
 11
92.40000000100001
 21
57.075000003
 31
0.0
  0
LINE
  5
1720
330
D80
100
AcDbEntity
  8
0
  6
Continuous
 62
     2
100
AcDbLine
 10
92.40000000100001
 20
57.075000003
 30
0.0
 11
90.65000000100004
 21
57.075000003
 31
0.0
  0
LINE
  5
1721
330
D80
100
AcDbEntity
  8
0
  6
Continuous
 62
     2
100
AcDbLine
 10
90.65000000100004
 20
57.075000003
 30
0.0
 11
90.65000000100004
 21
55.325000003
 31
0.0
  0
LINE
  5
1722
330
D80
100
AcDbEntity
  8
0
  6
Continuous
 62
     2
100
AcDbLine
 10
90.65000000100004
 20
55.325000003
 30
0.0
 11
92.40000000100001
 21
55.325000003
 31
0.0
  0
LINE
  5
1723
330
D80
100
AcDbEntity
  8
0
  6
Continuous
 62
     2
100
AcDbLine
 10
92.40000000100001
 20
55.325000003
 30
0.0
 11
92.40000000100001
 21
56.200000003
 31
0.0
  0
LINE
  5
1724
330
D80
100
AcDbEntity
  8
0
  6
Continuous
 62
     2
100
AcDbLine
 10
85.15000000099998
 20
57.075000003
 30
0.0
 11
86.90000000100003
 21
57.075000003
 31
0.0
  0
LINE
  5
1725
330
D80
100
AcDbEntity
  8
0
  6
Continuous
 62
     2
100
AcDbLine
 10
86.90000000100003
 20
57.075000003
 30
0.0
 11
86.90000000100003
 21
55.325000003
 31
0.0
  0
LINE
  5
1726
330
D80
100
AcDbEntity
  8
0
  6
Continuous
 62
     2
100
AcDbLine
 10
86.90000000100003
 20
55.325000003
 30
0.0
 11
85.15000000099998
 21
55.325000003
 31
0.0
  0
LINE
  5
1727
330
D80
100
AcDbEntity
  8
0
  6
Continuous
 62
     2
100
AcDbLine
 10
64.775000001
 20
57.95000000299999
 30
0.0
 11
61.775000001
 21
57.95000000299999
 31
0.0
  0
LINE
  5
1728
330
D80
100
AcDbEntity
  8
0
  6
Continuous
 62
     2
100
AcDbLine
 10
61.775000001
 20
57.95000000299999
 30
0.0
 11
61.775000001
 21
54.450000003
 31
0.0
  0
LINE
  5
1729
330
D80
100
AcDbEntity
  8
0
  6
Continuous
 62
     2
100
AcDbLine
 10
61.775000001
 20
54.450000003
 30
0.0
 11
67.77500000100001
 21
54.450000003
 31
0.0
  0
LINE
  5
172A
330
D80
100
AcDbEntity
  8
0
  6
Continuous
 62
     2
100
AcDbLine
 10
67.77500000100001
 20
54.450000003
 30
0.0
 11
67.77500000100001
 21
57.95000000299999
 31
0.0
  0
LINE
  5
172B
330
D80
100
AcDbEntity
  8
0
  6
Continuous
 62
     2
100
AcDbLine
 10
67.77500000100001
 20
57.95000000299999
 30
0.0
 11
64.775000001
 21
57.95000000299999
 31
0.0
  0
LINE
  5
172C
330
D80
100
AcDbEntity
  8
0
  6
Continuous
 62
     2
100
AcDbLine
 10
64.775000001
 20
56.950000003
 30
0.0
 11
63.275000001
 21
56.950000003
 31
0.0
  0
LINE
  5
172D
330
D80
100
AcDbEntity
  8
0
  6
Continuous
 62
     2
100
AcDbLine
 10
63.275000001
 20
56.950000003
 30
0.0
 11
63.275000001
 21
55.45000000299999
 31
0.0
  0
LINE
  5
172E
330
D80
100
AcDbEntity
  8
0
  6
Continuous
 62
     2
100
AcDbLine
 10
63.275000001
 20
55.45000000299999
 30
0.0
 11
66.27500000100001
 21
55.45000000299999
 31
0.0
  0
LINE
  5
172F
330
D80
100
AcDbEntity
  8
0
  6
Continuous
 62
     2
100
AcDbLine
 10
66.27500000100001
 20
55.45000000299999
 30
0.0
 11
66.27500000100001
 21
56.950000003
 31
0.0
  0
LINE
  5
1730
330
D80
100
AcDbEntity
  8
0
  6
Continuous
 62
     2
100
AcDbLine
 10
66.27500000100001
 20
56.950000003
 30
0.0
 11
64.775000001
 21
56.950000003
 31
0.0
  0
POINT
  5
1731
330
D80
100
AcDbEntity
  8
0
  6
Continuous
 62
     2
100
AcDbPoint
 10
68.40000000100001
 20
56.200000003
 30
0.0
  0
LINE
  5
1732
330
D80
100
AcDbEntity
  8
0
  6
Continuous
 62
     2
100
AcDbLine
 10
68.40000000100001
 20
56.200000003
 30
0.0
 11
68.40000000100001
 21
57.075000003
 31
0.0
  0
LINE
  5
1733
330
D80
100
AcDbEntity
  8
0
  6
Continuous
 62
     2
100
AcDbLine
 10
68.40000000100001
 20
57.075000003
 30
0.0
 11
66.650000001
 21
57.075000003
 31
0.0
  0
LINE
  5
1734
330
D80
100
AcDbEntity
  8
0
  6
Continuous
 62
     2
100
AcDbLine
 10
66.650000001
 20
57.075000003
 30
0.0
 11
66.650000001
 21
55.325000003
 31
0.0
  0
LINE
  5
1735
330
D80
100
AcDbEntity
  8
0
  6
Continuous
 62
     2
100
AcDbLine
 10
66.650000001
 20
55.325000003
 30
0.0
 11
68.40000000100001
 21
55.325000003
 31
0.0
  0
LINE
  5
1736
330
D80
100
AcDbEntity
  8
0
  6
Continuous
 62
     2
100
AcDbLine
 10
68.40000000100001
 20
55.325000003
 30
0.0
 11
68.40000000100001
 21
56.200000003
 31
0.0
  0
POINT
  5
1737
330
D80
100
AcDbEntity
  8
0
  6
Continuous
 62
     2
100
AcDbPoint
 10
61.150000001
 20
56.200000003
 30
0.0
  0
LINE
  5
1738
330
D80
100
AcDbEntity
  8
0
  6
Continuous
 62
     2
100
AcDbLine
 10
61.150000001
 20
56.200000003
 30
0.0
 11
61.150000001
 21
57.075000003
 31
0.0
  0
LINE
  5
1739
330
D80
100
AcDbEntity
  8
0
  6
Continuous
 62
     2
100
AcDbLine
 10
61.150000001
 20
57.075000003
 30
0.0
 11
62.900000001
 21
57.075000003
 31
0.0
  0
LINE
  5
173A
330
D80
100
AcDbEntity
  8
0
  6
Continuous
 62
     2
100
AcDbLine
 10
62.900000001
 20
57.075000003
 30
0.0
 11
62.900000001
 21
55.325000003
 31
0.0
  0
LINE
  5
173B
330
D80
100
AcDbEntity
  8
0
  6
Continuous
 62
     2
100
AcDbLine
 10
62.900000001
 20
55.325000003
 30
0.0
 11
61.150000001
 21
55.325000003
 31
0.0
  0
LINE
  5
173C
330
D80
100
AcDbEntity
  8
0
  6
Continuous
 62
     2
100
AcDbLine
 10
61.150000001
 20
55.325000003
 30
0.0
 11
61.150000001
 21
56.200000003
 31
0.0
  0
LINE
  5
173D
330
D80
100
AcDbEntity
  8
0
  6
Continuous
 62
     2
100
AcDbLine
 10
72.77500000100001
 20
57.95000000299999
 30
0.0
 11
69.775000001
 21
57.95000000299999
 31
0.0
  0
LINE
  5
173E
330
D80
100
AcDbEntity
  8
0
  6
Continuous
 62
     2
100
AcDbLine
 10
69.775000001
 20
57.95000000299999
 30
0.0
 11
69.775000001
 21
54.450000003
 31
0.0
  0
LINE
  5
173F
330
D80
100
AcDbEntity
  8
0
  6
Continuous
 62
     2
100
AcDbLine
 10
69.775000001
 20
54.450000003
 30
0.0
 11
75.77500000100001
 21
54.450000003
 31
0.0
  0
LINE
  5
1740
330
D80
100
AcDbEntity
  8
0
  6
Continuous
 62
     2
100
AcDbLine
 10
75.77500000100001
 20
54.450000003
 30
0.0
 11
75.77500000100001
 21
57.95000000299999
 31
0.0
  0
LINE
  5
1741
330
D80
100
AcDbEntity
  8
0
  6
Continuous
 62
     2
100
AcDbLine
 10
75.77500000100001
 20
57.95000000299999
 30
0.0
 11
72.77500000100001
 21
57.95000000299999
 31
0.0
  0
LINE
  5
1742
330
D80
100
AcDbEntity
  8
0
  6
Continuous
 62
     2
100
AcDbLine
 10
72.77500000100001
 20
56.950000003
 30
0.0
 11
71.27500000100001
 21
56.950000003
 31
0.0
  0
LINE
  5
1743
330
D80
100
AcDbEntity
  8
0
  6
Continuous
 62
     2
100
AcDbLine
 10
71.27500000100001
 20
56.950000003
 30
0.0
 11
71.27500000100001
 21
55.45000000299999
 31
0.0
  0
LINE
  5
1744
330
D80
100
AcDbEntity
  8
0
  6
Continuous
 62
     2
100
AcDbLine
 10
71.27500000100001
 20
55.45000000299999
 30
0.0
 11
74.27500000100001
 21
55.45000000299999
 31
0.0
  0
LINE
  5
1745
330
D80
100
AcDbEntity
  8
0
  6
Continuous
 62
     2
100
AcDbLine
 10
74.27500000100001
 20
55.45000000299999
 30
0.0
 11
74.27500000100001
 21
56.950000003
 31
0.0
  0
LINE
  5
1746
330
D80
100
AcDbEntity
  8
0
  6
Continuous
 62
     2
100
AcDbLine
 10
74.27500000100001
 20
56.950000003
 30
0.0
 11
72.77500000100001
 21
56.950000003
 31
0.0
  0
POINT
  5
1747
330
D80
100
AcDbEntity
  8
0
  6
Continuous
 62
     2
100
AcDbPoint
 10
76.40000000100001
 20
56.200000003
 30
0.0
  0
LINE
  5
1748
330
D80
100
AcDbEntity
  8
0
  6
Continuous
 62
     2
100
AcDbLine
 10
76.40000000100001
 20
56.200000003
 30
0.0
 11
76.40000000100001
 21
57.075000003
 31
0.0
  0
LINE
  5
1749
330
D80
100
AcDbEntity
  8
0
  6
Continuous
 62
     2
100
AcDbLine
 10
76.40000000100001
 20
57.075000003
 30
0.0
 11
74.65000000100001
 21
57.075000003
 31
0.0
  0
LINE
  5
174A
330
D80
100
AcDbEntity
  8
0
  6
Continuous
 62
     2
100
AcDbLine
 10
74.65000000100001
 20
57.075000003
 30
0.0
 11
74.65000000100001
 21
55.325000003
 31
0.0
  0
LINE
  5
174B
330
D80
100
AcDbEntity
  8
0
  6
Continuous
 62
     2
100
AcDbLine
 10
74.65000000100001
 20
55.325000003
 30
0.0
 11
76.40000000100001
 21
55.325000003
 31
0.0
  0
LINE
  5
174C
330
D80
100
AcDbEntity
  8
0
  6
Continuous
 62
     2
100
AcDbLine
 10
76.40000000100001
 20
55.325000003
 30
0.0
 11
76.40000000100001
 21
56.200000003
 31
0.0
  0
POINT
  5
174D
330
D80
100
AcDbEntity
  8
0
  6
Continuous
 62
     2
100
AcDbPoint
 10
69.150000001
 20
56.200000003
 30
0.0
  0
LINE
  5
174E
330
D80
100
AcDbEntity
  8
0
  6
Continuous
 62
     2
100
AcDbLine
 10
69.150000001
 20
56.200000003
 30
0.0
 11
69.150000001
 21
57.075000003
 31
0.0
  0
LINE
  5
174F
330
D80
100
AcDbEntity
  8
0
  6
Continuous
 62
     2
100
AcDbLine
 10
69.150000001
 20
57.075000003
 30
0.0
 11
70.90000000100001
 21
57.075000003
 31
0.0
  0
LINE
  5
1750
330
D80
100
AcDbEntity
  8
0
  6
Continuous
 62
     2
100
AcDbLine
 10
70.90000000100001
 20
57.075000003
 30
0.0
 11
70.90000000100001
 21
55.325000003
 31
0.0
  0
LINE
  5
1751
330
D80
100
AcDbEntity
  8
0
  6
Continuous
 62
     2
100
AcDbLine
 10
70.90000000100001
 20
55.325000003
 30
0.0
 11
69.150000001
 21
55.325000003
 31
0.0
  0
LINE
  5
1752
330
D80
100
AcDbEntity
  8
0
  6
Continuous
 62
     2
100
AcDbLine
 10
69.150000001
 20
55.325000003
 30
0.0
 11
69.150000001
 21
56.200000003
 31
0.0
  0
LINE
  5
1753
330
D80
100
AcDbEntity
  8
0
  6
Continuous
 62
     2
100
AcDbLine
 10
72.77500000100001
 20
57.95000000299999
 30
0.0
 11
69.775000001
 21
57.95000000299999
 31
0.0
  0
LINE
  5
1754
330
D80
100
AcDbEntity
  8
0
  6
Continuous
 62
     2
100
AcDbLine
 10
69.775000001
 20
57.95000000299999
 30
0.0
 11
69.775000001
 21
54.450000003
 31
0.0
  0
LINE
  5
1755
330
D80
100
AcDbEntity
  8
0
  6
Continuous
 62
     2
100
AcDbLine
 10
69.775000001
 20
54.450000003
 30
0.0
 11
75.77500000100001
 21
54.450000003
 31
0.0
  0
LINE
  5
1756
330
D80
100
AcDbEntity
  8
0
  6
Continuous
 62
     2
100
AcDbLine
 10
75.77500000100001
 20
54.450000003
 30
0.0
 11
75.77500000100001
 21
57.95000000299999
 31
0.0
  0
LINE
  5
1757
330
D80
100
AcDbEntity
  8
0
  6
Continuous
 62
     2
100
AcDbLine
 10
75.77500000100001
 20
57.95000000299999
 30
0.0
 11
72.77500000100001
 21
57.95000000299999
 31
0.0
  0
LINE
  5
1758
330
D80
100
AcDbEntity
  8
0
  6
Continuous
 62
     2
100
AcDbLine
 10
72.77500000100001
 20
56.950000003
 30
0.0
 11
71.27500000100001
 21
56.950000003
 31
0.0
  0
LINE
  5
1759
330
D80
100
AcDbEntity
  8
0
  6
Continuous
 62
     2
100
AcDbLine
 10
71.27500000100001
 20
56.950000003
 30
0.0
 11
71.27500000100001
 21
55.45000000299999
 31
0.0
  0
LINE
  5
175A
330
D80
100
AcDbEntity
  8
0
  6
Continuous
 62
     2
100
AcDbLine
 10
71.27500000100001
 20
55.45000000299999
 30
0.0
 11
74.27500000100001
 21
55.45000000299999
 31
0.0
  0
LINE
  5
175B
330
D80
100
AcDbEntity
  8
0
  6
Continuous
 62
     2
100
AcDbLine
 10
74.27500000100001
 20
55.45000000299999
 30
0.0
 11
74.27500000100001
 21
56.950000003
 31
0.0
  0
LINE
  5
175C
330
D80
100
AcDbEntity
  8
0
  6
Continuous
 62
     2
100
AcDbLine
 10
74.27500000100001
 20
56.950000003
 30
0.0
 11
72.77500000100001
 21
56.950000003
 31
0.0
  0
POINT
  5
175D
330
D80
100
AcDbEntity
  8
0
  6
Continuous
 62
     2
100
AcDbPoint
 10
76.40000000100001
 20
56.200000003
 30
0.0
  0
LINE
  5
175E
330
D80
100
AcDbEntity
  8
0
  6
Continuous
 62
     2
100
AcDbLine
 10
76.40000000100001
 20
56.200000003
 30
0.0
 11
76.40000000100001
 21
57.075000003
 31
0.0
  0
LINE
  5
175F
330
D80
100
AcDbEntity
  8
0
  6
Continuous
 62
     2
100
AcDbLine
 10
76.40000000100001
 20
57.075000003
 30
0.0
 11
74.65000000100001
 21
57.075000003
 31
0.0
  0
LINE
  5
1760
330
D80
100
AcDbEntity
  8
0
  6
Continuous
 62
     2
100
AcDbLine
 10
74.65000000100001
 20
57.075000003
 30
0.0
 11
74.65000000100001
 21
55.325000003
 31
0.0
  0
LINE
  5
1761
330
D80
100
AcDbEntity
  8
0
  6
Continuous
 62
     2
100
AcDbLine
 10
74.65000000100001
 20
55.325000003
 30
0.0
 11
76.40000000100001
 21
55.325000003
 31
0.0
  0
LINE
  5
1762
330
D80
100
AcDbEntity
  8
0
  6
Continuous
 62
     2
100
AcDbLine
 10
76.40000000100001
 20
55.325000003
 30
0.0
 11
76.40000000100001
 21
56.200000003
 31
0.0
  0
POINT
  5
1763
330
D80
100
AcDbEntity
  8
0
  6
Continuous
 62
     2
100
AcDbPoint
 10
69.150000001
 20
56.200000003
 30
0.0
  0
LINE
  5
1764
330
D80
100
AcDbEntity
  8
0
  6
Continuous
 62
     2
100
AcDbLine
 10
69.150000001
 20
56.200000003
 30
0.0
 11
69.150000001
 21
57.075000003
 31
0.0
  0
LINE
  5
1765
330
D80
100
AcDbEntity
  8
0
  6
Continuous
 62
     2
100
AcDbLine
 10
69.150000001
 20
57.075000003
 30
0.0
 11
70.90000000100001
 21
57.075000003
 31
0.0
  0
LINE
  5
1766
330
D80
100
AcDbEntity
  8
0
  6
Continuous
 62
     2
100
AcDbLine
 10
70.90000000100001
 20
57.075000003
 30
0.0
 11
70.90000000100001
 21
55.325000003
 31
0.0
  0
LINE
  5
1767
330
D80
100
AcDbEntity
  8
0
  6
Continuous
 62
     2
100
AcDbLine
 10
70.90000000100001
 20
55.325000003
 30
0.0
 11
69.150000001
 21
55.325000003
 31
0.0
  0
LINE
  5
1768
330
D80
100
AcDbEntity
  8
0
  6
Continuous
 62
     2
100
AcDbLine
 10
69.150000001
 20
55.325000003
 30
0.0
 11
69.150000001
 21
56.200000003
 31
0.0
  0
LINE
  5
1769
330
D80
100
AcDbEntity
  8
0
  6
Continuous
 62
     2
100
AcDbLine
 10
80.77500000099998
 20
57.95000000299999
 30
0.0
 11
77.77500000100001
 21
57.95000000299999
 31
0.0
  0
LINE
  5
176A
330
D80
100
AcDbEntity
  8
0
  6
Continuous
 62
     2
100
AcDbLine
 10
77.77500000100001
 20
57.95000000299999
 30
0.0
 11
77.77500000100001
 21
54.450000003
 31
0.0
  0
LINE
  5
176B
330
D80
100
AcDbEntity
  8
0
  6
Continuous
 62
     2
100
AcDbLine
 10
77.77500000100001
 20
54.450000003
 30
0.0
 11
83.77500000100001
 21
54.450000003
 31
0.0
  0
LINE
  5
176C
330
D80
100
AcDbEntity
  8
0
  6
Continuous
 62
     2
100
AcDbLine
 10
83.77500000100001
 20
54.450000003
 30
0.0
 11
83.77500000100001
 21
57.95000000299999
 31
0.0
  0
LINE
  5
176D
330
D80
100
AcDbEntity
  8
0
  6
Continuous
 62
     2
100
AcDbLine
 10
83.77500000100001
 20
57.95000000299999
 30
0.0
 11
80.77500000099998
 21
57.95000000299999
 31
0.0
  0
LINE
  5
176E
330
D80
100
AcDbEntity
  8
0
  6
Continuous
 62
     2
100
AcDbLine
 10
80.77500000099998
 20
56.950000003
 30
0.0
 11
79.27500000100001
 21
56.950000003
 31
0.0
  0
LINE
  5
176F
330
D80
100
AcDbEntity
  8
0
  6
Continuous
 62
     2
100
AcDbLine
 10
79.27500000100001
 20
56.950000003
 30
0.0
 11
79.27500000100001
 21
55.45000000299999
 31
0.0
  0
LINE
  5
1770
330
D80
100
AcDbEntity
  8
0
  6
Continuous
 62
     2
100
AcDbLine
 10
79.27500000100001
 20
55.45000000299999
 30
0.0
 11
82.27500000099999
 21
55.45000000299999
 31
0.0
  0
LINE
  5
1771
330
D80
100
AcDbEntity
  8
0
  6
Continuous
 62
     2
100
AcDbLine
 10
82.27500000099999
 20
55.45000000299999
 30
0.0
 11
82.27500000099999
 21
56.950000003
 31
0.0
  0
LINE
  5
1772
330
D80
100
AcDbEntity
  8
0
  6
Continuous
 62
     2
100
AcDbLine
 10
82.27500000099999
 20
56.950000003
 30
0.0
 11
80.77500000099998
 21
56.950000003
 31
0.0
  0
POINT
  5
1773
330
D80
100
AcDbEntity
  8
0
  6
Continuous
 62
     2
100
AcDbPoint
 10
84.40000000100001
 20
56.200000003
 30
0.0
  0
LINE
  5
1774
330
D80
100
AcDbEntity
  8
0
  6
Continuous
 62
     2
100
AcDbLine
 10
84.40000000100001
 20
56.200000003
 30
0.0
 11
84.40000000100001
 21
57.075000003
 31
0.0
  0
LINE
  5
1775
330
D80
100
AcDbEntity
  8
0
  6
Continuous
 62
     2
100
AcDbLine
 10
84.40000000100001
 20
57.075000003
 30
0.0
 11
82.65000000099998
 21
57.075000003
 31
0.0
  0
LINE
  5
1776
330
D80
100
AcDbEntity
  8
0
  6
Continuous
 62
     2
100
AcDbLine
 10
82.65000000099998
 20
57.075000003
 30
0.0
 11
82.65000000099998
 21
55.325000003
 31
0.0
  0
LINE
  5
1777
330
D80
100
AcDbEntity
  8
0
  6
Continuous
 62
     2
100
AcDbLine
 10
82.65000000099998
 20
55.325000003
 30
0.0
 11
84.40000000100001
 21
55.325000003
 31
0.0
  0
LINE
  5
1778
330
D80
100
AcDbEntity
  8
0
  6
Continuous
 62
     2
100
AcDbLine
 10
84.40000000100001
 20
55.325000003
 30
0.0
 11
84.40000000100001
 21
56.200000003
 31
0.0
  0
POINT
  5
1779
330
D80
100
AcDbEntity
  8
0
  6
Continuous
 62
     2
100
AcDbPoint
 10
77.15000000100001
 20
56.200000003
 30
0.0
  0
LINE
  5
177A
330
D80
100
AcDbEntity
  8
0
  6
Continuous
 62
     2
100
AcDbLine
 10
77.15000000100001
 20
56.200000003
 30
0.0
 11
77.15000000100001
 21
57.075000003
 31
0.0
  0
LINE
  5
177B
330
D80
100
AcDbEntity
  8
0
  6
Continuous
 62
     2
100
AcDbLine
 10
77.15000000100001
 20
57.075000003
 30
0.0
 11
78.90000000100001
 21
57.075000003
 31
0.0
  0
LINE
  5
177C
330
D80
100
AcDbEntity
  8
0
  6
Continuous
 62
     2
100
AcDbLine
 10
78.90000000100001
 20
57.075000003
 30
0.0
 11
78.90000000100001
 21
55.325000003
 31
0.0
  0
LINE
  5
177D
330
D80
100
AcDbEntity
  8
0
  6
Continuous
 62
     2
100
AcDbLine
 10
78.90000000100001
 20
55.325000003
 30
0.0
 11
77.15000000100001
 21
55.325000003
 31
0.0
  0
LINE
  5
177E
330
D80
100
AcDbEntity
  8
0
  6
Continuous
 62
     2
100
AcDbLine
 10
77.15000000100001
 20
55.325000003
 30
0.0
 11
77.15000000100001
 21
56.200000003
 31
0.0
  0
POINT
  5
177F
330
D80
100
AcDbEntity
  8
0
  6
Continuous
 62
     2
100
AcDbPoint
 10
85.15000000099998
 20
56.200000003
 30
0.0
  0
LINE
  5
1780
330
D80
100
AcDbEntity
  8
0
  6
Continuous
 62
     2
100
AcDbLine
 10
85.15000000099998
 20
56.200000003
 30
0.0
 11
85.15000000099998
 21
57.075000003
 31
0.0
  0
LINE
  5
1781
330
D80
100
AcDbEntity
  8
0
  6
Continuous
 62
     2
100
AcDbLine
 10
85.15000000099998
 20
55.325000003
 30
0.0
 11
85.15000000099998
 21
56.200000003
 31
0.0
  0
LINE
  5
1782
330
D80
100
AcDbEntity
  8
0
  6
Continuous
 62
     3
100
AcDbLine
 10
57.550000001
 20
78.900000003
 30
0.0
 11
57.550000001
 21
80.10000000300001
 31
0.0
  0
LINE
  5
1783
330
D80
100
AcDbEntity
  8
0
  6
Continuous
 62
     3
100
AcDbLine
 10
57.550000001
 20
80.10000000300001
 30
0.0
 11
58.450000001
 21
80.10000000300001
 31
0.0
  0
CIRCLE
  5
17BD
330
D80
100
AcDbEntity
  8
0
  6
Continuous
 62
     1
100
AcDbCircle
 10
127.475000001
 20
56.200000003
 30
0.0
 40
1.0
  0
LINE
  5
17BE
330
D80
100
AcDbEntity
  8
0
  6
Continuous
 62
     1
100
AcDbLine
 10
127.475000001
 20
56.610000003
 30
0.0
 11
127.475000001
 21
55.710000003
 31
0.0
  0
LINE
  5
17BF
330
D80
100
AcDbEntity
  8
0
  6
Continuous
 62
     1
100
AcDbLine
 10
126.675000001
 20
56.200000003
 30
0.0
 11
127.9750000009999
 21
56.200000003
 31
0.0
  0
CIRCLE
  5
17C0
330
D80
100
AcDbEntity
  8
0
  6
Continuous
 62
     3
100
AcDbCircle
 10
127.475000001
 20
56.200000003
 30
0.0
 40
1.5
  0
LINE
  5
17C1
330
D80
100
AcDbEntity
  8
0
  6
Continuous
 62
     4
100
AcDbLine
 10
100.025000001
 20
69.500000003
 30
0.0
 11
131.0250000009999
 21
69.500000003
 31
0.0
  0
LINE
  5
17C2
330
D80
100
AcDbEntity
  8
0
  6
Continuous
 62
     4
100
AcDbLine
 10
131.0250000009999
 20
59.000000003
 30
0.0
 11
100.025000001
 21
59.000000003
 31
0.0
  0
LINE
  5
17C3
330
D80
100
AcDbEntity
  8
0
  6
Continuous
 62
     4
100
AcDbLine
 10
92.275000001
 20
59.000000003
 30
0.0
 11
61.275000001
 21
59.000000003
 31
0.0
  0
LINE
  5
17C4
330
D80
100
AcDbEntity
  8
0
  6
Continuous
 62
     4
100
AcDbLine
 10
61.275000001
 20
69.500000003
 30
0.0
 11
92.275000001
 21
69.500000003
 31
0.0
  0
LINE
  5
17C5
330
D80
100
AcDbEntity
  8
0
  6
Continuous
 62
     4
100
AcDbLine
 10
92.275000001
 20
69.500000003
 30
0.0
 11
92.275000001
 21
59.000000003
 31
0.0
  0
LINE
  5
17C6
330
D80
100
AcDbEntity
  8
0
  6
Continuous
 62
     4
100
AcDbLine
 10
100.025000001
 20
59.000000003
 30
0.0
 11
100.025000001
 21
69.500000003
 31
0.0
  0
LINE
  5
17C7
330
D80
100
AcDbEntity
  8
0
  6
Continuous
 62
     4
100
AcDbLine
 10
61.275000001
 20
59.000000003
 30
0.0
 11
61.275000001
 21
69.500000003
 31
0.0
  0
LINE
  5
17C8
330
D80
100
AcDbEntity
  8
0
  6
Continuous
 62
     3
100
AcDbLine
 10
58.000000001
 20
65.000000003
 30
0.0
 11
60.000000001
 21
65.000000003
 31
0.0
  0
LINE
  5
17C9
330
D80
100
AcDbEntity
  8
0
  6
Continuous
 62
     3
100
AcDbLine
 10
58.000000001
 20
65.000000003
 30
0.0
 11
58.000000001
 21
64.000000003
 31
0.0
  0
LINE
  5
17CA
330
D80
100
AcDbEntity
  8
0
  6
Continuous
 62
     3
100
AcDbLine
 10
60.000000001
 20
64.000000003
 30
0.0
 11
58.000000001
 21
64.000000003
 31
0.0
  0
LINE
  5
17CB
330
D80
100
AcDbEntity
  8
0
  6
Continuous
 62
     3
100
AcDbLine
 10
60.000000001
 20
64.000000003
 30
0.0
 11
60.000000001
 21
65.000000003
 31
0.0
  0
LINE
  5
17CC
330
D80
100
AcDbEntity
  8
0
  6
Continuous
 62
     3
100
AcDbLine
 10
63.75468750100001
 20
64.637500003
 30
0.0
 11
64.060937501
 21
67.087500003
 31
0.0
  0
LINE
  5
17CD
330
D80
100
AcDbEntity
  8
0
  6
Continuous
 62
     3
100
AcDbLine
 10
64.225000001
 20
67.25000000299999
 30
0.0
 11
66.575000001
 21
67.25000000299999
 31
0.0
  0
POINT
  5
17CE
330
D80
100
AcDbEntity
  8
0
  6
Continuous
 62
     3
100
AcDbPoint
 10
66.675000001
 20
68.00000000299999
 30
0.0
  0
LINE
  5
17CF
330
D80
100
AcDbEntity
  8
0
  6
Continuous
 62
     3
100
AcDbLine
 10
63.775000001
 20
67.95000000299999
 30
0.0
 11
63.725000001
 21
67.90714286
 31
0.0
  0
LINE
  5
17D0
330
D80
100
AcDbEntity
  8
0
  6
Continuous
 62
     3
100
AcDbLine
 10
67.02500000100001
 20
67.95000000299999
 30
0.0
 11
67.07500000100001
 21
67.92142857399999
 31
0.0
  0
LINE
  5
17D1
330
D80
100
AcDbEntity
  8
0
  6
Continuous
 62
     3
100
AcDbLine
 10
63.82500000100001
 20
68.00000000299999
 30
0.0
 11
66.97500000099997
 21
68.00000000299999
 31
0.0
  0
LINE
  5
17D2
330
D80
100
AcDbEntity
  8
0
  6
Continuous
 62
     3
100
AcDbLine
 10
66.52500000100001
 20
67.25000000299999
 30
0.0
 11
67.02500000100001
 21
67.85000000300001
 31
0.0
  0
LINE
  5
17D3
330
D80
100
AcDbEntity
  8
0
  6
Continuous
 62
     3
100
AcDbLine
 10
67.225000001
 20
67.80000000300001
 30
0.0
 11
66.625000001
 21
67.050000003
 31
0.0
  0
LINE
  5
17D4
330
D80
100
AcDbEntity
  8
0
  6
Continuous
 62
     3
100
AcDbLine
 10
63.525000001
 20
67.735714288
 30
0.0
 11
63.425000001
 21
67.650000003
 31
0.0
  0
LINE
  5
17D5
330
D80
100
AcDbEntity
  8
0
  6
Continuous
 62
     3
100
AcDbLine
 10
64.175000001
 20
67.30000000300001
 30
0.0
 11
63.725000001
 21
67.85000000300001
 31
0.0
  0
LINE
  5
17D6
330
D80
100
AcDbEntity
  8
0
  6
Continuous
 62
     3
100
AcDbLine
 10
64.075000001
 20
67.100000003
 30
0.0
 11
63.575000001
 21
67.750000003
 31
0.0
  0
LINE
  5
17D7
330
D80
100
AcDbEntity
  8
0
  6
Continuous
 62
     3
100
AcDbLine
 10
63.725000001
 20
64.350000003
 30
0.0
 11
63.07500000100001
 21
64.05000000300001
 31
0.0
  0
LINE
  5
17D8
330
D80
100
AcDbEntity
  8
0
  6
Continuous
 62
     3
100
AcDbLine
 10
63.07500000100001
 20
64.05000000300001
 30
0.0
 11
63.675000001
 21
63.60000000300001
 31
0.0
  0
LINE
  5
17D9
330
D80
100
AcDbEntity
  8
0
  6
Continuous
 62
     3
100
AcDbLine
 10
63.575000001
 20
63.500000003
 30
0.0
 11
62.925000001
 21
63.950000003
 31
0.0
  0
LINE
  5
17DA
330
D80
100
AcDbEntity
  8
0
  6
Continuous
 62
     3
100
AcDbLine
 10
62.97500000100001
 20
64.150000003
 30
0.0
 11
63.725000001
 21
64.550000003
 31
0.0
  0
LINE
  5
17DB
330
D80
100
AcDbEntity
  8
0
  6
Continuous
 62
     3
100
AcDbLine
 10
62.942187501
 20
64.137500003
 30
0.0
 11
63.373437501
 21
67.587500003
 31
0.0
  0
LINE
  5
17DC
330
D80
100
AcDbEntity
  8
0
  6
Continuous
 62
     3
100
AcDbLine
 10
64.925000001
 20
64.350000003
 30
0.0
 11
63.775000001
 21
64.350000003
 31
0.0
  0
LINE
  5
17DD
330
D80
100
AcDbEntity
  8
0
  6
Continuous
 62
     3
100
AcDbLine
 10
66.225000001
 20
64.450000003
 30
0.0
 11
66.875000001
 21
63.950000003
 31
0.0
  0
LINE
  5
17DE
330
D80
100
AcDbEntity
  8
0
  6
Continuous
 62
     3
100
AcDbLine
 10
66.175000001
 20
64.30000000300001
 30
0.0
 11
66.82500000100001
 21
63.800000003
 31
0.0
  0
LINE
  5
17DF
330
D80
100
AcDbEntity
  8
0
  6
Continuous
 62
     3
100
AcDbLine
 10
66.82500000100001
 20
63.800000003
 30
0.0
 11
66.125000001
 21
63.60000000300001
 31
0.0
  0
LINE
  5
17E0
330
D80
100
AcDbEntity
  8
0
  6
Continuous
 62
     3
100
AcDbLine
 10
66.125000001
 20
63.450000003
 30
0.0
 11
66.875000001
 21
63.650000003
 31
0.0
  0
LINE
  5
17E1
330
D80
100
AcDbEntity
  8
0
  6
Continuous
 62
     3
100
AcDbLine
 10
66.09843750100001
 20
63.387500003
 30
0.0
 11
65.78593750100001
 21
60.887500003
 31
0.0
  0
LINE
  5
17E2
330
D80
100
AcDbEntity
  8
0
  6
Continuous
 62
     3
100
AcDbLine
 10
66.125000001
 20
64.350000003
 30
0.0
 11
64.975000001
 21
64.350000003
 31
0.0
  0
LINE
  5
17E3
330
D80
100
AcDbEntity
  8
0
  6
Continuous
 62
     3
100
AcDbLine
 10
66.54843750100001
 20
66.98750000300001
 30
0.0
 11
66.229687501
 21
64.43750000299999
 31
0.0
  0
LINE
  5
17E4
330
D80
100
AcDbEntity
  8
0
  6
Continuous
 62
     3
100
AcDbLine
 10
67.392187501
 20
67.73750000300001
 30
0.0
 11
66.917187501
 21
63.937500003
 31
0.0
  0
LINE
  5
17E5
330
D80
100
AcDbEntity
  8
0
  6
Continuous
 62
     3
100
AcDbLine
 10
63.725000001
 20
63.60000000300001
 30
0.0
 11
66.225000001
 21
63.60000000300001
 31
0.0
  0
POINT
  5
17E6
330
D80
100
AcDbEntity
  8
0
  6
Continuous
 62
     3
100
AcDbPoint
 10
63.175000001
 20
60.000000003
 30
0.0
  0
LINE
  5
17E7
330
D80
100
AcDbEntity
  8
0
  6
Continuous
 62
     3
100
AcDbLine
 10
63.275000001
 20
60.850000003
 30
0.0
 11
62.57500000100001
 21
60.35000000300001
 31
0.0
  0
LINE
  5
17E8
330
D80
100
AcDbEntity
  8
0
  6
Continuous
 62
     3
100
AcDbLine
 10
62.675000001
 20
60.250000003
 30
0.0
 11
63.275000001
 21
60.700000003
 31
0.0
  0
LINE
  5
17E9
330
D80
100
AcDbEntity
  8
0
  6
Continuous
 62
     3
100
AcDbLine
 10
62.64166666699999
 20
60.200000003
 30
0.0
 11
62.775000001
 21
60.000000003
 31
0.0
  0
LINE
  5
17EA
330
D80
100
AcDbEntity
  8
0
  6
Continuous
 62
     3
100
AcDbLine
 10
62.475000001
 20
60.45000000299999
 30
0.0
 11
62.57500000100001
 21
60.300000003
 31
0.0
  0
LINE
  5
17EB
330
D80
100
AcDbEntity
  8
0
  6
Continuous
 62
     3
100
AcDbLine
 10
65.675000001
 20
60.75000000300001
 30
0.0
 11
63.275000001
 21
60.75000000300001
 31
0.0
  0
LINE
  5
17EC
330
D80
100
AcDbEntity
  8
0
  6
Continuous
 62
     3
100
AcDbLine
 10
65.975000001
 20
60.000000003
 30
0.0
 11
62.725000001
 21
60.000000003
 31
0.0
  0
LINE
  5
17ED
330
D80
100
AcDbEntity
  8
0
  6
Continuous
 62
     3
100
AcDbLine
 10
62.481250001
 20
60.45000000299999
 30
0.0
 11
62.925000001
 21
64.000000003
 31
0.0
  0
LINE
  5
17EE
330
D80
100
AcDbEntity
  8
0
  6
Continuous
 62
     3
100
AcDbLine
 10
63.28593750100001
 20
60.887500003
 30
0.0
 11
63.604687501
 21
63.437500003
 31
0.0
  0
LINE
  5
17EF
330
D80
100
AcDbEntity
  8
0
  6
Continuous
 62
     3
100
AcDbLine
 10
65.77500000100001
 20
60.850000003
 30
0.0
 11
66.32500000100001
 21
60.300000003
 31
0.0
  0
LINE
  5
17F0
330
D80
100
AcDbEntity
  8
0
  6
Continuous
 62
     3
100
AcDbLine
 10
65.675000001
 20
60.75000000300001
 30
0.0
 11
66.225000001
 21
60.200000003
 31
0.0
  0
LINE
  5
17F1
330
D80
100
AcDbEntity
  8
0
  6
Continuous
 62
     3
100
AcDbLine
 10
66.32500000100001
 20
60.272222225
 30
0.0
 11
66.425000001
 21
60.35000000300001
 31
0.0
  0
LINE
  5
17F2
330
D80
100
AcDbEntity
  8
0
  6
Continuous
 62
     3
100
AcDbLine
 10
65.975000001
 20
60.000000003
 30
0.0
 11
66.225000001
 21
60.19444444699999
 31
0.0
  0
LINE
  5
17F3
330
D80
100
AcDbEntity
  8
0
  6
Continuous
 62
     3
100
AcDbLine
 10
66.87968750100001
 20
63.637500003
 30
0.0
 11
66.46718750099997
 21
60.337500003
 31
0.0
  0
POINT
  5
17F4
330
D80
100
AcDbEntity
  8
0
  6
Continuous
 62
     3
100
AcDbPoint
 10
74.675000001
 20
68.00000000299999
 30
0.0
  0
LINE
  5
17F5
330
D80
100
AcDbEntity
  8
0
  6
Continuous
 62
     3
100
AcDbLine
 10
74.52500000100001
 20
67.25000000299999
 30
0.0
 11
75.02500000100001
 21
67.85000000300001
 31
0.0
  0
LINE
  5
17F6
330
D80
100
AcDbEntity
  8
0
  6
Continuous
 62
     3
100
AcDbLine
 10
75.22500000099999
 20
67.80000000300001
 30
0.0
 11
74.625000001
 21
67.050000003
 31
0.0
  0
LINE
  5
17F7
330
D80
100
AcDbEntity
  8
0
  6
Continuous
 62
     3
100
AcDbLine
 10
75.02500000100001
 20
67.95000000299999
 30
0.0
 11
75.07500000100001
 21
67.92142857399999
 31
0.0
  0
LINE
  5
17F8
330
D80
100
AcDbEntity
  8
0
  6
Continuous
 62
     3
100
AcDbLine
 10
72.225000001
 20
67.25000000299999
 30
0.0
 11
74.57500000100001
 21
67.25000000299999
 31
0.0
  0
LINE
  5
17F9
330
D80
100
AcDbEntity
  8
0
  6
Continuous
 62
     3
100
AcDbLine
 10
71.52500000100001
 20
67.735714288
 30
0.0
 11
71.425000001
 21
67.650000003
 31
0.0
  0
LINE
  5
17FA
330
D80
100
AcDbEntity
  8
0
  6
Continuous
 62
     3
100
AcDbLine
 10
71.77500000100001
 20
67.95000000299999
 30
0.0
 11
71.725000001
 21
67.90714286
 31
0.0
  0
LINE
  5
17FB
330
D80
100
AcDbEntity
  8
0
  6
Continuous
 62
     3
100
AcDbLine
 10
71.82500000100001
 20
68.00000000299999
 30
0.0
 11
74.975000001
 21
68.00000000299999
 31
0.0
  0
LINE
  5
17FC
330
D80
100
AcDbEntity
  8
0
  6
Continuous
 62
     3
100
AcDbLine
 10
72.175000001
 20
67.30000000300001
 30
0.0
 11
71.725000001
 21
67.85000000300001
 31
0.0
  0
LINE
  5
17FD
330
D80
100
AcDbEntity
  8
0
  6
Continuous
 62
     3
100
AcDbLine
 10
72.07500000100001
 20
67.100000003
 30
0.0
 11
71.575000001
 21
67.750000003
 31
0.0
  0
LINE
  5
17FE
330
D80
100
AcDbEntity
  8
0
  6
Continuous
 62
     3
100
AcDbLine
 10
71.075000001
 20
64.05000000300001
 30
0.0
 11
71.675000001
 21
63.60000000300001
 31
0.0
  0
LINE
  5
17FF
330
D80
100
AcDbEntity
  8
0
  6
Continuous
 62
     3
100
AcDbLine
 10
71.575000001
 20
63.500000003
 30
0.0
 11
70.925000001
 21
63.950000003
 31
0.0
  0
LINE
  5
1800
330
D80
100
AcDbEntity
  8
0
  6
Continuous
 62
     3
100
AcDbLine
 10
70.94218750100001
 20
64.137500003
 30
0.0
 11
71.373437501
 21
67.587500003
 31
0.0
  0
LINE
  5
1801
330
D80
100
AcDbEntity
  8
0
  6
Continuous
 62
     3
100
AcDbLine
 10
74.225000001
 20
64.450000003
 30
0.0
 11
74.875000001
 21
63.950000003
 31
0.0
  0
LINE
  5
1802
330
D80
100
AcDbEntity
  8
0
  6
Continuous
 62
     3
100
AcDbLine
 10
74.175000001
 20
64.30000000300001
 30
0.0
 11
74.825000001
 21
63.800000003
 31
0.0
  0
LINE
  5
1803
330
D80
100
AcDbEntity
  8
0
  6
Continuous
 62
     3
100
AcDbLine
 10
74.825000001
 20
63.800000003
 30
0.0
 11
74.125000001
 21
63.60000000300001
 31
0.0
  0
LINE
  5
1804
330
D80
100
AcDbEntity
  8
0
  6
Continuous
 62
     3
100
AcDbLine
 10
74.125000001
 20
63.450000003
 30
0.0
 11
74.875000001
 21
63.650000003
 31
0.0
  0
LINE
  5
1805
330
D80
100
AcDbEntity
  8
0
  6
Continuous
 62
     3
100
AcDbLine
 10
73.77500000100001
 20
60.850000003
 30
0.0
 11
74.32500000100001
 21
60.300000003
 31
0.0
  0
LINE
  5
1806
330
D80
100
AcDbEntity
  8
0
  6
Continuous
 62
     3
100
AcDbLine
 10
73.675000001
 20
60.75000000300001
 30
0.0
 11
74.225000001
 21
60.200000003
 31
0.0
  0
LINE
  5
1807
330
D80
100
AcDbEntity
  8
0
  6
Continuous
 62
     3
100
AcDbLine
 10
74.32500000100001
 20
60.272222225
 30
0.0
 11
74.425000001
 21
60.35000000300001
 31
0.0
  0
LINE
  5
1808
330
D80
100
AcDbEntity
  8
0
  6
Continuous
 62
     3
100
AcDbLine
 10
73.97500000099999
 20
60.000000003
 30
0.0
 11
74.225000001
 21
60.19444444699999
 31
0.0
  0
LINE
  5
1809
330
D80
100
AcDbEntity
  8
0
  6
Continuous
 62
     3
100
AcDbLine
 10
74.87968750100001
 20
63.637500003
 30
0.0
 11
74.467187501
 21
60.337500003
 31
0.0
  0
LINE
  5
180A
330
D80
100
AcDbEntity
  8
0
  6
Continuous
 62
     3
100
AcDbLine
 10
74.09843750100001
 20
63.387500003
 30
0.0
 11
73.78593750100001
 21
60.887500003
 31
0.0
  0
LINE
  5
180B
330
D80
100
AcDbEntity
  8
0
  6
Continuous
 62
     3
100
AcDbLine
 10
74.125000001
 20
64.350000003
 30
0.0
 11
72.975000001
 21
64.350000003
 31
0.0
  0
LINE
  5
180C
330
D80
100
AcDbEntity
  8
0
  6
Continuous
 62
     3
100
AcDbLine
 10
74.54843750100001
 20
66.98750000300001
 30
0.0
 11
74.229687501
 21
64.43750000299999
 31
0.0
  0
LINE
  5
180D
330
D80
100
AcDbEntity
  8
0
  6
Continuous
 62
     3
100
AcDbLine
 10
75.39218750100001
 20
67.73750000300001
 30
0.0
 11
74.917187501
 21
63.937500003
 31
0.0
  0
LINE
  5
180E
330
D80
100
AcDbEntity
  8
0
  6
Continuous
 62
     3
100
AcDbLine
 10
71.725000001
 20
63.60000000300001
 30
0.0
 11
74.225000001
 21
63.60000000300001
 31
0.0
  0
LINE
  5
180F
330
D80
100
AcDbEntity
  8
0
  6
Continuous
 62
     3
100
AcDbLine
 10
72.925000001
 20
64.350000003
 30
0.0
 11
71.77500000100001
 21
64.350000003
 31
0.0
  0
LINE
  5
1810
330
D80
100
AcDbEntity
  8
0
  6
Continuous
 62
     3
100
AcDbLine
 10
71.75468750100001
 20
64.637500003
 30
0.0
 11
72.06093750099999
 21
67.087500003
 31
0.0
  0
LINE
  5
1811
330
D80
100
AcDbEntity
  8
0
  6
Continuous
 62
     3
100
AcDbLine
 10
71.725000001
 20
64.350000003
 30
0.0
 11
71.075000001
 21
64.05000000300001
 31
0.0
  0
LINE
  5
1812
330
D80
100
AcDbEntity
  8
0
  6
Continuous
 62
     3
100
AcDbLine
 10
70.975000001
 20
64.150000003
 30
0.0
 11
71.725000001
 21
64.550000003
 31
0.0
  0
POINT
  5
1813
330
D80
100
AcDbEntity
  8
0
  6
Continuous
 62
     3
100
AcDbPoint
 10
71.175000001
 20
60.000000003
 30
0.0
  0
LINE
  5
1814
330
D80
100
AcDbEntity
  8
0
  6
Continuous
 62
     3
100
AcDbLine
 10
71.27500000100001
 20
60.850000003
 30
0.0
 11
70.57500000100001
 21
60.35000000300001
 31
0.0
  0
LINE
  5
1815
330
D80
100
AcDbEntity
  8
0
  6
Continuous
 62
     3
100
AcDbLine
 10
70.675000001
 20
60.250000003
 30
0.0
 11
71.27500000100001
 21
60.700000003
 31
0.0
  0
LINE
  5
1816
330
D80
100
AcDbEntity
  8
0
  6
Continuous
 62
     3
100
AcDbLine
 10
70.641666667
 20
60.200000003
 30
0.0
 11
70.77500000100001
 21
60.000000003
 31
0.0
  0
LINE
  5
1817
330
D80
100
AcDbEntity
  8
0
  6
Continuous
 62
     3
100
AcDbLine
 10
70.475000001
 20
60.45000000299999
 30
0.0
 11
70.57500000100001
 21
60.300000003
 31
0.0
  0
LINE
  5
1818
330
D80
100
AcDbEntity
  8
0
  6
Continuous
 62
     3
100
AcDbLine
 10
73.675000001
 20
60.75000000300001
 30
0.0
 11
71.27500000100001
 21
60.75000000300001
 31
0.0
  0
LINE
  5
1819
330
D80
100
AcDbEntity
  8
0
  6
Continuous
 62
     3
100
AcDbLine
 10
73.97500000099999
 20
60.000000003
 30
0.0
 11
70.72500000099998
 21
60.000000003
 31
0.0
  0
LINE
  5
181A
330
D80
100
AcDbEntity
  8
0
  6
Continuous
 62
     3
100
AcDbLine
 10
70.481250001
 20
60.45000000299999
 30
0.0
 11
70.925000001
 21
64.000000003
 31
0.0
  0
LINE
  5
181B
330
D80
100
AcDbEntity
  8
0
  6
Continuous
 62
     3
100
AcDbLine
 10
71.28593750100001
 20
60.887500003
 30
0.0
 11
71.604687501
 21
63.437500003
 31
0.0
  0
POINT
  5
181C
330
D80
100
AcDbEntity
  8
0
  6
Continuous
 62
     3
100
AcDbPoint
 10
79.175000001
 20
60.000000003
 30
0.0
  0
LINE
  5
181D
330
D80
100
AcDbEntity
  8
0
  6
Continuous
 62
     3
100
AcDbLine
 10
78.641666667
 20
60.200000003
 30
0.0
 11
78.77500000100001
 21
60.000000003
 31
0.0
  0
LINE
  5
181E
330
D80
100
AcDbEntity
  8
0
  6
Continuous
 62
     3
100
AcDbLine
 10
78.475000001
 20
60.45000000299999
 30
0.0
 11
78.575000001
 21
60.300000003
 31
0.0
  0
LINE
  5
181F
330
D80
100
AcDbEntity
  8
0
  6
Continuous
 62
     3
100
AcDbLine
 10
79.27500000100001
 20
60.850000003
 30
0.0
 11
78.575000001
 21
60.35000000300001
 31
0.0
  0
LINE
  5
1820
330
D80
100
AcDbEntity
  8
0
  6
Continuous
 62
     3
100
AcDbLine
 10
78.675000001
 20
60.250000003
 30
0.0
 11
79.27500000100001
 21
60.700000003
 31
0.0
  0
LINE
  5
1821
330
D80
100
AcDbEntity
  8
0
  6
Continuous
 62
     3
100
AcDbLine
 10
80.92500000100001
 20
64.350000003
 30
0.0
 11
79.77500000099998
 21
64.350000003
 31
0.0
  0
LINE
  5
1822
330
D80
100
AcDbEntity
  8
0
  6
Continuous
 62
     3
100
AcDbLine
 10
79.725000001
 20
63.60000000300001
 30
0.0
 11
82.225000001
 21
63.60000000300001
 31
0.0
  0
LINE
  5
1823
330
D80
100
AcDbEntity
  8
0
  6
Continuous
 62
     3
100
AcDbLine
 10
79.725000001
 20
64.350000003
 30
0.0
 11
79.075000001
 21
64.05000000300001
 31
0.0
  0
LINE
  5
1824
330
D80
100
AcDbEntity
  8
0
  6
Continuous
 62
     3
100
AcDbLine
 10
79.075000001
 20
64.05000000300001
 30
0.0
 11
79.675000001
 21
63.60000000300001
 31
0.0
  0
LINE
  5
1825
330
D80
100
AcDbEntity
  8
0
  6
Continuous
 62
     3
100
AcDbLine
 10
79.57500000100001
 20
63.500000003
 30
0.0
 11
78.925000001
 21
63.950000003
 31
0.0
  0
LINE
  5
1826
330
D80
100
AcDbEntity
  8
0
  6
Continuous
 62
     3
100
AcDbLine
 10
78.97500000099999
 20
64.150000003
 30
0.0
 11
79.725000001
 21
64.550000003
 31
0.0
  0
LINE
  5
1827
330
D80
100
AcDbEntity
  8
0
  6
Continuous
 62
     3
100
AcDbLine
 10
79.75468750100001
 20
64.637500003
 30
0.0
 11
80.06093750099998
 21
67.087500003
 31
0.0
  0
LINE
  5
1828
330
D80
100
AcDbEntity
  8
0
  6
Continuous
 62
     3
100
AcDbLine
 10
78.94218750100001
 20
64.137500003
 30
0.0
 11
79.373437501
 21
67.587500003
 31
0.0
  0
LINE
  5
1829
330
D80
100
AcDbEntity
  8
0
  6
Continuous
 62
     3
100
AcDbLine
 10
79.28593750100001
 20
60.887500003
 30
0.0
 11
79.604687501
 21
63.437500003
 31
0.0
  0
LINE
  5
182A
330
D80
100
AcDbEntity
  8
0
  6
Continuous
 62
     3
100
AcDbLine
 10
78.48125000100001
 20
60.45000000299999
 30
0.0
 11
78.925000001
 21
64.000000003
 31
0.0
  0
LINE
  5
182B
330
D80
100
AcDbEntity
  8
0
  6
Continuous
 62
     3
100
AcDbLine
 10
80.175000001
 20
67.30000000300001
 30
0.0
 11
79.725000001
 21
67.85000000300001
 31
0.0
  0
LINE
  5
182C
330
D80
100
AcDbEntity
  8
0
  6
Continuous
 62
     3
100
AcDbLine
 10
80.075000001
 20
67.100000003
 30
0.0
 11
79.57500000100001
 21
67.750000003
 31
0.0
  0
LINE
  5
182D
330
D80
100
AcDbEntity
  8
0
  6
Continuous
 62
     3
100
AcDbLine
 10
79.52500000100001
 20
67.735714288
 30
0.0
 11
79.425000001
 21
67.650000003
 31
0.0
  0
LINE
  5
182E
330
D80
100
AcDbEntity
  8
0
  6
Continuous
 62
     3
100
AcDbLine
 10
79.77500000099998
 20
67.95000000299999
 30
0.0
 11
79.725000001
 21
67.90714286
 31
0.0
  0
POINT
  5
182F
330
D80
100
AcDbEntity
  8
0
  6
Continuous
 62
     3
100
AcDbPoint
 10
82.675000001
 20
68.00000000299999
 30
0.0
  0
LINE
  5
1830
330
D80
100
AcDbEntity
  8
0
  6
Continuous
 62
     3
100
AcDbLine
 10
82.52500000100001
 20
67.25000000299999
 30
0.0
 11
83.02500000100001
 21
67.85000000300001
 31
0.0
  0
LINE
  5
1831
330
D80
100
AcDbEntity
  8
0
  6
Continuous
 62
     3
100
AcDbLine
 10
83.22500000099998
 20
67.80000000300001
 30
0.0
 11
82.62500000100002
 21
67.050000003
 31
0.0
  0
LINE
  5
1832
330
D80
100
AcDbEntity
  8
0
  6
Continuous
 62
     3
100
AcDbLine
 10
82.825000001
 20
63.800000003
 30
0.0
 11
82.125000001
 21
63.60000000300001
 31
0.0
  0
LINE
  5
1833
330
D80
100
AcDbEntity
  8
0
  6
Continuous
 62
     3
100
AcDbLine
 10
82.125000001
 20
63.450000003
 30
0.0
 11
82.87500000100001
 21
63.650000003
 31
0.0
  0
LINE
  5
1834
330
D80
100
AcDbEntity
  8
0
  6
Continuous
 62
     3
100
AcDbLine
 10
83.02500000100001
 20
67.95000000299999
 30
0.0
 11
83.07500000100001
 21
67.92142857399999
 31
0.0
  0
LINE
  5
1835
330
D80
100
AcDbEntity
  8
0
  6
Continuous
 62
     3
100
AcDbLine
 10
83.39218750099998
 20
67.73750000300001
 30
0.0
 11
82.91718750100001
 21
63.937500003
 31
0.0
  0
LINE
  5
1836
330
D80
100
AcDbEntity
  8
0
  6
Continuous
 62
     3
100
AcDbLine
 10
80.225000001
 20
67.25000000299999
 30
0.0
 11
82.575000001
 21
67.25000000299999
 31
0.0
  0
LINE
  5
1837
330
D80
100
AcDbEntity
  8
0
  6
Continuous
 62
     3
100
AcDbLine
 10
79.825000001
 20
68.00000000299999
 30
0.0
 11
82.97500000099999
 21
68.00000000299999
 31
0.0
  0
LINE
  5
1838
330
D80
100
AcDbEntity
  8
0
  6
Continuous
 62
     3
100
AcDbLine
 10
82.125000001
 20
64.350000003
 30
0.0
 11
80.975000001
 21
64.350000003
 31
0.0
  0
LINE
  5
1839
330
D80
100
AcDbEntity
  8
0
  6
Continuous
 62
     3
100
AcDbLine
 10
82.225000001
 20
64.450000003
 30
0.0
 11
82.87500000100001
 21
63.950000003
 31
0.0
  0
LINE
  5
183A
330
D80
100
AcDbEntity
  8
0
  6
Continuous
 62
     3
100
AcDbLine
 10
82.17500000100001
 20
64.30000000300001
 30
0.0
 11
82.825000001
 21
63.800000003
 31
0.0
  0
LINE
  5
183B
330
D80
100
AcDbEntity
  8
0
  6
Continuous
 62
     3
100
AcDbLine
 10
82.54843750099999
 20
66.98750000300001
 30
0.0
 11
82.22968750099999
 21
64.43750000299999
 31
0.0
  0
LINE
  5
183C
330
D80
100
AcDbEntity
  8
0
  6
Continuous
 62
     3
100
AcDbLine
 10
81.77500000100001
 20
60.850000003
 30
0.0
 11
82.32500000100001
 21
60.300000003
 31
0.0
  0
LINE
  5
183D
330
D80
100
AcDbEntity
  8
0
  6
Continuous
 62
     3
100
AcDbLine
 10
81.675000001
 20
60.75000000300001
 30
0.0
 11
82.225000001
 21
60.200000003
 31
0.0
  0
LINE
  5
183E
330
D80
100
AcDbEntity
  8
0
  6
Continuous
 62
     3
100
AcDbLine
 10
82.32500000100001
 20
60.272222225
 30
0.0
 11
82.42500000099999
 21
60.35000000300001
 31
0.0
  0
LINE
  5
183F
330
D80
100
AcDbEntity
  8
0
  6
Continuous
 62
     3
100
AcDbLine
 10
81.97500000099998
 20
60.000000003
 30
0.0
 11
82.225000001
 21
60.19444444699999
 31
0.0
  0
LINE
  5
1840
330
D80
100
AcDbEntity
  8
0
  6
Continuous
 62
     3
100
AcDbLine
 10
82.09843750100001
 20
63.387500003
 30
0.0
 11
81.78593750100001
 21
60.887500003
 31
0.0
  0
LINE
  5
1841
330
D80
100
AcDbEntity
  8
0
  6
Continuous
 62
     3
100
AcDbLine
 10
81.675000001
 20
60.75000000300001
 30
0.0
 11
79.27500000100001
 21
60.75000000300001
 31
0.0
  0
LINE
  5
1842
330
D80
100
AcDbEntity
  8
0
  6
Continuous
 62
     3
100
AcDbLine
 10
81.97500000099998
 20
60.000000003
 30
0.0
 11
78.725000001
 21
60.000000003
 31
0.0
  0
LINE
  5
1843
330
D80
100
AcDbEntity
  8
0
  6
Continuous
 62
     3
100
AcDbLine
 10
82.87968750100001
 20
63.637500003
 30
0.0
 11
82.46718750099999
 21
60.337500003
 31
0.0
  0
LINE
  5
1844
330
D80
100
AcDbEntity
  8
0
  6
Continuous
 62
     3
100
AcDbLine
 10
87.725000001
 20
64.350000003
 30
0.0
 11
87.07500000100003
 21
64.05000000300001
 31
0.0
  0
LINE
  5
1845
330
D80
100
AcDbEntity
  8
0
  6
Continuous
 62
     3
100
AcDbLine
 10
87.07500000100003
 20
64.05000000300001
 30
0.0
 11
87.675000001
 21
63.60000000300001
 31
0.0
  0
LINE
  5
1846
330
D80
100
AcDbEntity
  8
0
  6
Continuous
 62
     3
100
AcDbLine
 10
87.575000001
 20
63.500000003
 30
0.0
 11
86.925000001
 21
63.950000003
 31
0.0
  0
LINE
  5
1847
330
D80
100
AcDbEntity
  8
0
  6
Continuous
 62
     3
100
AcDbLine
 10
86.97500000099998
 20
64.150000003
 30
0.0
 11
87.725000001
 21
64.550000003
 31
0.0
  0
LINE
  5
1848
330
D80
100
AcDbEntity
  8
0
  6
Continuous
 62
     3
100
AcDbLine
 10
87.28593750100001
 20
60.887500003
 30
0.0
 11
87.60468750100002
 21
63.437500003
 31
0.0
  0
POINT
  5
1849
330
D80
100
AcDbEntity
  8
0
  6
Continuous
 62
     3
100
AcDbPoint
 10
87.17500000100002
 20
60.000000003
 30
0.0
  0
LINE
  5
184A
330
D80
100
AcDbEntity
  8
0
  6
Continuous
 62
     3
100
AcDbLine
 10
87.27500000099999
 20
60.850000003
 30
0.0
 11
86.575000001
 21
60.35000000300001
 31
0.0
  0
LINE
  5
184B
330
D80
100
AcDbEntity
  8
0
  6
Continuous
 62
     3
100
AcDbLine
 10
86.675000001
 20
60.250000003
 30
0.0
 11
87.27500000099999
 21
60.700000003
 31
0.0
  0
LINE
  5
184C
330
D80
100
AcDbEntity
  8
0
  6
Continuous
 62
     3
100
AcDbLine
 10
86.64166666700001
 20
60.200000003
 30
0.0
 11
86.77500000100001
 21
60.000000003
 31
0.0
  0
LINE
  5
184D
330
D80
100
AcDbEntity
  8
0
  6
Continuous
 62
     3
100
AcDbLine
 10
86.475000001
 20
60.45000000299999
 30
0.0
 11
86.575000001
 21
60.300000003
 31
0.0
  0
LINE
  5
184E
330
D80
100
AcDbEntity
  8
0
  6
Continuous
 62
     3
100
AcDbLine
 10
86.481250001
 20
60.45000000299999
 30
0.0
 11
86.925000001
 21
64.000000003
 31
0.0
  0
LINE
  5
184F
330
D80
100
AcDbEntity
  8
0
  6
Continuous
 62
     3
100
AcDbLine
 10
89.77500000099999
 20
60.850000003
 30
0.0
 11
90.325000001
 21
60.300000003
 31
0.0
  0
LINE
  5
1850
330
D80
100
AcDbEntity
  8
0
  6
Continuous
 62
     3
100
AcDbLine
 10
89.67500000100002
 20
60.75000000300001
 30
0.0
 11
90.225000001
 21
60.200000003
 31
0.0
  0
LINE
  5
1851
330
D80
100
AcDbEntity
  8
0
  6
Continuous
 62
     3
100
AcDbLine
 10
90.325000001
 20
60.272222225
 30
0.0
 11
90.425000001
 21
60.35000000300001
 31
0.0
  0
LINE
  5
1852
330
D80
100
AcDbEntity
  8
0
  6
Continuous
 62
     3
100
AcDbLine
 10
89.975000001
 20
60.000000003
 30
0.0
 11
90.225000001
 21
60.19444444699999
 31
0.0
  0
LINE
  5
1853
330
D80
100
AcDbEntity
  8
0
  6
Continuous
 62
     3
100
AcDbLine
 10
89.67500000100002
 20
60.75000000300001
 30
0.0
 11
87.27500000099999
 21
60.75000000300001
 31
0.0
  0
LINE
  5
1854
330
D80
100
AcDbEntity
  8
0
  6
Continuous
 62
     3
100
AcDbLine
 10
89.975000001
 20
60.000000003
 30
0.0
 11
86.72500000099999
 21
60.000000003
 31
0.0
  0
LINE
  5
1855
330
D80
100
AcDbEntity
  8
0
  6
Continuous
 62
     3
100
AcDbLine
 10
87.725000001
 20
63.60000000300001
 30
0.0
 11
90.225000001
 21
63.60000000300001
 31
0.0
  0
LINE
  5
1856
330
D80
100
AcDbEntity
  8
0
  6
Continuous
 62
     3
100
AcDbLine
 10
90.225000001
 20
64.450000003
 30
0.0
 11
90.875000001
 21
63.950000003
 31
0.0
  0
LINE
  5
1857
330
D80
100
AcDbEntity
  8
0
  6
Continuous
 62
     3
100
AcDbLine
 10
90.175000001
 20
64.30000000300001
 30
0.0
 11
90.82500000100001
 21
63.800000003
 31
0.0
  0
LINE
  5
1858
330
D80
100
AcDbEntity
  8
0
  6
Continuous
 62
     3
100
AcDbLine
 10
90.82500000100001
 20
63.800000003
 30
0.0
 11
90.12500000100001
 21
63.60000000300001
 31
0.0
  0
LINE
  5
1859
330
D80
100
AcDbEntity
  8
0
  6
Continuous
 62
     3
100
AcDbLine
 10
90.12500000100001
 20
63.450000003
 30
0.0
 11
90.875000001
 21
63.650000003
 31
0.0
  0
LINE
  5
185A
330
D80
100
AcDbEntity
  8
0
  6
Continuous
 62
     3
100
AcDbLine
 10
90.12500000100001
 20
64.350000003
 30
0.0
 11
88.975000001
 21
64.350000003
 31
0.0
  0
LINE
  5
185B
330
D80
100
AcDbEntity
  8
0
  6
Continuous
 62
     3
100
AcDbLine
 10
90.87968750100001
 20
63.637500003
 30
0.0
 11
90.467187501
 21
60.337500003
 31
0.0
  0
LINE
  5
185C
330
D80
100
AcDbEntity
  8
0
  6
Continuous
 62
     3
100
AcDbLine
 10
90.09843750100001
 20
63.387500003
 30
0.0
 11
89.78593750100001
 21
60.887500003
 31
0.0
  0
LINE
  5
185D
330
D80
100
AcDbEntity
  8
0
  6
Continuous
 62
     3
100
AcDbLine
 10
88.925000001
 20
64.350000003
 30
0.0
 11
87.77500000100003
 21
64.350000003
 31
0.0
  0
POINT
  5
185E
330
D80
100
AcDbEntity
  8
0
  6
Continuous
 62
     3
100
AcDbPoint
 10
90.675000001
 20
68.00000000299999
 30
0.0
  0
LINE
  5
185F
330
D80
100
AcDbEntity
  8
0
  6
Continuous
 62
     3
100
AcDbLine
 10
90.52500000100001
 20
67.25000000299999
 30
0.0
 11
91.025000001
 21
67.85000000300001
 31
0.0
  0
LINE
  5
1860
330
D80
100
AcDbEntity
  8
0
  6
Continuous
 62
     3
100
AcDbLine
 10
91.225000001
 20
67.80000000300001
 30
0.0
 11
90.625000001
 21
67.050000003
 31
0.0
  0
LINE
  5
1861
330
D80
100
AcDbEntity
  8
0
  6
Continuous
 62
     3
100
AcDbLine
 10
87.77500000100003
 20
67.95000000299999
 30
0.0
 11
87.725000001
 21
67.90714286
 31
0.0
  0
LINE
  5
1862
330
D80
100
AcDbEntity
  8
0
  6
Continuous
 62
     3
100
AcDbLine
 10
91.025000001
 20
67.95000000299999
 30
0.0
 11
91.07500000100001
 21
67.92142857399999
 31
0.0
  0
LINE
  5
1863
330
D80
100
AcDbEntity
  8
0
  6
Continuous
 62
     3
100
AcDbLine
 10
87.825000001
 20
68.00000000299999
 30
0.0
 11
90.975000001
 21
68.00000000299999
 31
0.0
  0
LINE
  5
1864
330
D80
100
AcDbEntity
  8
0
  6
Continuous
 62
     3
100
AcDbLine
 10
90.54843750100003
 20
66.98750000300001
 30
0.0
 11
90.229687501
 21
64.43750000299999
 31
0.0
  0
LINE
  5
1865
330
D80
100
AcDbEntity
  8
0
  6
Continuous
 62
     3
100
AcDbLine
 10
91.39218750100004
 20
67.73750000300001
 30
0.0
 11
90.917187501
 21
63.937500003
 31
0.0
  0
LINE
  5
1866
330
D80
100
AcDbEntity
  8
0
  6
Continuous
 62
     3
100
AcDbLine
 10
87.52500000100003
 20
67.735714288
 30
0.0
 11
87.42500000099999
 21
67.650000003
 31
0.0
  0
LINE
  5
1867
330
D80
100
AcDbEntity
  8
0
  6
Continuous
 62
     3
100
AcDbLine
 10
86.94218750100002
 20
64.137500003
 30
0.0
 11
87.373437501
 21
67.587500003
 31
0.0
  0
LINE
  5
1868
330
D80
100
AcDbEntity
  8
0
  6
Continuous
 62
     3
100
AcDbLine
 10
88.175000001
 20
67.30000000300001
 30
0.0
 11
87.725000001
 21
67.85000000300001
 31
0.0
  0
LINE
  5
1869
330
D80
100
AcDbEntity
  8
0
  6
Continuous
 62
     3
100
AcDbLine
 10
88.07500000100002
 20
67.100000003
 30
0.0
 11
87.575000001
 21
67.750000003
 31
0.0
  0
LINE
  5
186A
330
D80
100
AcDbEntity
  8
0
  6
Continuous
 62
     3
100
AcDbLine
 10
88.22500000099998
 20
67.25000000299999
 30
0.0
 11
90.57500000100001
 21
67.25000000299999
 31
0.0
  0
LINE
  5
186B
330
D80
100
AcDbEntity
  8
0
  6
Continuous
 62
     3
100
AcDbLine
 10
87.75468750100001
 20
64.637500003
 30
0.0
 11
88.060937501
 21
67.087500003
 31
0.0
  0
LINE
  5
186C
330
D80
100
AcDbEntity
  8
0
  6
Continuous
 62
     3
100
AcDbLine
 10
96.750000001
 20
64.500000003
 30
0.0
 11
96.750000001
 21
63.500000003
 31
0.0
  0
LINE
  5
186D
330
D80
100
AcDbEntity
  8
0
  6
Continuous
 62
     3
100
AcDbLine
 10
98.75000000100001
 20
63.500000003
 30
0.0
 11
98.75000000100001
 21
64.500000003
 31
0.0
  0
LINE
  5
186E
330
D80
100
AcDbEntity
  8
0
  6
Continuous
 62
     3
100
AcDbLine
 10
96.750000001
 20
64.500000003
 30
0.0
 11
98.75000000100001
 21
64.500000003
 31
0.0
  0
LINE
  5
186F
330
D80
100
AcDbEntity
  8
0
  6
Continuous
 62
     3
100
AcDbLine
 10
98.75000000100001
 20
63.500000003
 30
0.0
 11
96.750000001
 21
63.500000003
 31
0.0
  0
LINE
  5
1870
330
D80
100
AcDbEntity
  8
0
  6
Continuous
 62
     3
100
AcDbLine
 10
102.9250000009999
 20
67.30000000300001
 30
0.0
 11
102.475000001
 21
67.85000000300001
 31
0.0
  0
LINE
  5
1871
330
D80
100
AcDbEntity
  8
0
  6
Continuous
 62
     3
100
AcDbLine
 10
102.275000001
 20
67.735714288
 30
0.0
 11
102.1750000009999
 21
67.650000003
 31
0.0
  0
LINE
  5
1872
330
D80
100
AcDbEntity
  8
0
  6
Continuous
 62
     3
100
AcDbLine
 10
102.525000001
 20
67.95000000299999
 30
0.0
 11
102.475000001
 21
67.90714286
 31
0.0
  0
LINE
  5
1873
330
D80
100
AcDbEntity
  8
0
  6
Continuous
 62
     3
100
AcDbLine
 10
102.825000001
 20
67.100000003
 30
0.0
 11
102.3250000009999
 21
67.750000003
 31
0.0
  0
LINE
  5
1874
330
D80
100
AcDbEntity
  8
0
  6
Continuous
 62
     3
100
AcDbLine
 10
101.825000001
 20
64.05000000300001
 30
0.0
 11
102.425000001
 21
63.60000000300001
 31
0.0
  0
LINE
  5
1875
330
D80
100
AcDbEntity
  8
0
  6
Continuous
 62
     3
100
AcDbLine
 10
102.3250000009999
 20
63.500000003
 30
0.0
 11
101.675000001
 21
63.950000003
 31
0.0
  0
LINE
  5
1876
330
D80
100
AcDbEntity
  8
0
  6
Continuous
 62
     3
100
AcDbLine
 10
101.6921875009999
 20
64.137500003
 30
0.0
 11
102.1234375009999
 21
67.587500003
 31
0.0
  0
POINT
  5
1877
330
D80
100
AcDbEntity
  8
0
  6
Continuous
 62
     3
100
AcDbPoint
 10
101.9250000009999
 20
60.000000003
 30
0.0
  0
LINE
  5
1878
330
D80
100
AcDbEntity
  8
0
  6
Continuous
 62
     3
100
AcDbLine
 10
102.025000001
 20
60.850000003
 30
0.0
 11
101.3250000009999
 21
60.35000000300001
 31
0.0
  0
LINE
  5
1879
330
D80
100
AcDbEntity
  8
0
  6
Continuous
 62
     3
100
AcDbLine
 10
101.425000001
 20
60.250000003
 30
0.0
 11
102.025000001
 21
60.700000003
 31
0.0
  0
LINE
  5
187A
330
D80
100
AcDbEntity
  8
0
  6
Continuous
 62
     3
100
AcDbLine
 10
101.391666667
 20
60.200000003
 30
0.0
 11
101.525000001
 21
60.000000003
 31
0.0
  0
LINE
  5
187B
330
D80
100
AcDbEntity
  8
0
  6
Continuous
 62
     3
100
AcDbLine
 10
101.225000001
 20
60.45000000299999
 30
0.0
 11
101.3250000009999
 21
60.300000003
 31
0.0
  0
LINE
  5
187C
330
D80
100
AcDbEntity
  8
0
  6
Continuous
 62
     3
100
AcDbLine
 10
101.231250001
 20
60.45000000299999
 30
0.0
 11
101.675000001
 21
64.000000003
 31
0.0
  0
LINE
  5
187D
330
D80
100
AcDbEntity
  8
0
  6
Continuous
 62
     3
100
AcDbLine
 10
102.035937501
 20
60.887500003
 30
0.0
 11
102.354687501
 21
63.437500003
 31
0.0
  0
LINE
  5
187E
330
D80
100
AcDbEntity
  8
0
  6
Continuous
 62
     3
100
AcDbLine
 10
104.525000001
 20
60.850000003
 30
0.0
 11
105.075000001
 21
60.300000003
 31
0.0
  0
LINE
  5
187F
330
D80
100
AcDbEntity
  8
0
  6
Continuous
 62
     3
100
AcDbLine
 10
104.425000001
 20
60.75000000300001
 30
0.0
 11
104.9750000009999
 21
60.200000003
 31
0.0
  0
LINE
  5
1880
330
D80
100
AcDbEntity
  8
0
  6
Continuous
 62
     3
100
AcDbLine
 10
105.075000001
 20
60.272222225
 30
0.0
 11
105.1750000009999
 21
60.35000000300001
 31
0.0
  0
LINE
  5
1881
330
D80
100
AcDbEntity
  8
0
  6
Continuous
 62
     3
100
AcDbLine
 10
104.725000001
 20
60.000000003
 30
0.0
 11
104.9750000009999
 21
60.19444444699999
 31
0.0
  0
LINE
  5
1882
330
D80
100
AcDbEntity
  8
0
  6
Continuous
 62
     3
100
AcDbLine
 10
104.848437501
 20
63.387500003
 30
0.0
 11
104.535937501
 21
60.887500003
 31
0.0
  0
LINE
  5
1883
330
D80
100
AcDbEntity
  8
0
  6
Continuous
 62
     3
100
AcDbLine
 10
104.425000001
 20
60.75000000300001
 30
0.0
 11
102.025000001
 21
60.75000000300001
 31
0.0
  0
LINE
  5
1884
330
D80
100
AcDbEntity
  8
0
  6
Continuous
 62
     3
100
AcDbLine
 10
104.725000001
 20
60.000000003
 30
0.0
 11
101.475000001
 21
60.000000003
 31
0.0
  0
LINE
  5
1885
330
D80
100
AcDbEntity
  8
0
  6
Continuous
 62
     3
100
AcDbLine
 10
104.9750000009999
 20
64.450000003
 30
0.0
 11
105.625000001
 21
63.950000003
 31
0.0
  0
LINE
  5
1886
330
D80
100
AcDbEntity
  8
0
  6
Continuous
 62
     3
100
AcDbLine
 10
104.925000001
 20
64.30000000300001
 30
0.0
 11
105.575000001
 21
63.800000003
 31
0.0
  0
LINE
  5
1887
330
D80
100
AcDbEntity
  8
0
  6
Continuous
 62
     3
100
AcDbLine
 10
105.575000001
 20
63.800000003
 30
0.0
 11
104.875000001
 21
63.60000000300001
 31
0.0
  0
LINE
  5
1888
330
D80
100
AcDbEntity
  8
0
  6
Continuous
 62
     3
100
AcDbLine
 10
104.875000001
 20
63.450000003
 30
0.0
 11
105.625000001
 21
63.650000003
 31
0.0
  0
LINE
  5
1889
330
D80
100
AcDbEntity
  8
0
  6
Continuous
 62
     3
100
AcDbLine
 10
104.875000001
 20
64.350000003
 30
0.0
 11
103.725000001
 21
64.350000003
 31
0.0
  0
LINE
  5
188A
330
D80
100
AcDbEntity
  8
0
  6
Continuous
 62
     3
100
AcDbLine
 10
102.475000001
 20
63.60000000300001
 30
0.0
 11
104.9750000009999
 21
63.60000000300001
 31
0.0
  0
LINE
  5
188B
330
D80
100
AcDbEntity
  8
0
  6
Continuous
 62
     3
100
AcDbLine
 10
105.629687501
 20
63.637500003
 30
0.0
 11
105.2171875009999
 21
60.337500003
 31
0.0
  0
LINE
  5
188C
330
D80
100
AcDbEntity
  8
0
  6
Continuous
 62
     3
100
AcDbLine
 10
103.675000001
 20
64.350000003
 30
0.0
 11
102.525000001
 21
64.350000003
 31
0.0
  0
LINE
  5
188D
330
D80
100
AcDbEntity
  8
0
  6
Continuous
 62
     3
100
AcDbLine
 10
102.475000001
 20
64.350000003
 30
0.0
 11
101.825000001
 21
64.05000000300001
 31
0.0
  0
LINE
  5
188E
330
D80
100
AcDbEntity
  8
0
  6
Continuous
 62
     3
100
AcDbLine
 10
101.7250000009999
 20
64.150000003
 30
0.0
 11
102.475000001
 21
64.550000003
 31
0.0
  0
LINE
  5
188F
330
D80
100
AcDbEntity
  8
0
  6
Continuous
 62
     3
100
AcDbLine
 10
102.504687501
 20
64.637500003
 30
0.0
 11
102.810937501
 21
67.087500003
 31
0.0
  0
POINT
  5
1890
330
D80
100
AcDbEntity
  8
0
  6
Continuous
 62
     3
100
AcDbPoint
 10
105.425000001
 20
68.00000000299999
 30
0.0
  0
LINE
  5
1891
330
D80
100
AcDbEntity
  8
0
  6
Continuous
 62
     3
100
AcDbLine
 10
105.275000001
 20
67.25000000299999
 30
0.0
 11
105.775000001
 21
67.85000000300001
 31
0.0
  0
LINE
  5
1892
330
D80
100
AcDbEntity
  8
0
  6
Continuous
 62
     3
100
AcDbLine
 10
105.9750000009999
 20
67.80000000300001
 30
0.0
 11
105.3750000009999
 21
67.050000003
 31
0.0
  0
LINE
  5
1893
330
D80
100
AcDbEntity
  8
0
  6
Continuous
 62
     3
100
AcDbLine
 10
105.775000001
 20
67.95000000299999
 30
0.0
 11
105.825000001
 21
67.92142857399999
 31
0.0
  0
LINE
  5
1894
330
D80
100
AcDbEntity
  8
0
  6
Continuous
 62
     3
100
AcDbLine
 10
102.9750000009999
 20
67.25000000299999
 30
0.0
 11
105.325000001
 21
67.25000000299999
 31
0.0
  0
LINE
  5
1895
330
D80
100
AcDbEntity
  8
0
  6
Continuous
 62
     3
100
AcDbLine
 10
102.575000001
 20
68.00000000299999
 30
0.0
 11
105.725000001
 21
68.00000000299999
 31
0.0
  0
LINE
  5
1896
330
D80
100
AcDbEntity
  8
0
  6
Continuous
 62
     3
100
AcDbLine
 10
105.298437501
 20
66.98750000300001
 30
0.0
 11
104.9796875009999
 21
64.43750000299999
 31
0.0
  0
LINE
  5
1897
330
D80
100
AcDbEntity
  8
0
  6
Continuous
 62
     3
100
AcDbLine
 10
106.142187501
 20
67.73750000300001
 30
0.0
 11
105.6671875009999
 21
63.937500003
 31
0.0
  0
LINE
  5
1898
330
D80
100
AcDbEntity
  8
0
  6
Continuous
 62
     3
100
AcDbLine
 10
110.5046875009999
 20
64.637500003
 30
0.0
 11
110.8109375009999
 21
67.087500003
 31
0.0
  0
LINE
  5
1899
330
D80
100
AcDbEntity
  8
0
  6
Continuous
 62
     3
100
AcDbLine
 10
110.975000001
 20
67.25000000299999
 30
0.0
 11
113.325000001
 21
67.25000000299999
 31
0.0
  0
POINT
  5
189A
330
D80
100
AcDbEntity
  8
0
  6
Continuous
 62
     3
100
AcDbPoint
 10
113.4250000009999
 20
68.00000000299999
 30
0.0
  0
LINE
  5
189B
330
D80
100
AcDbEntity
  8
0
  6
Continuous
 62
     3
100
AcDbLine
 10
113.775000001
 20
67.95000000299999
 30
0.0
 11
113.8250000009999
 21
67.92142857399999
 31
0.0
  0
LINE
  5
189C
330
D80
100
AcDbEntity
  8
0
  6
Continuous
 62
     3
100
AcDbLine
 10
113.275000001
 20
67.25000000299999
 30
0.0
 11
113.775000001
 21
67.85000000300001
 31
0.0
  0
LINE
  5
189D
330
D80
100
AcDbEntity
  8
0
  6
Continuous
 62
     3
100
AcDbLine
 10
113.975000001
 20
67.80000000300001
 30
0.0
 11
113.375000001
 21
67.050000003
 31
0.0
  0
LINE
  5
189E
330
D80
100
AcDbEntity
  8
0
  6
Continuous
 62
     3
100
AcDbLine
 10
114.142187501
 20
67.73750000300001
 30
0.0
 11
113.6671875009999
 21
63.937500003
 31
0.0
  0
LINE
  5
189F
330
D80
100
AcDbEntity
  8
0
  6
Continuous
 62
     3
100
AcDbLine
 10
110.525000001
 20
67.95000000299999
 30
0.0
 11
110.4750000009999
 21
67.90714286
 31
0.0
  0
LINE
  5
18A0
330
D80
100
AcDbEntity
  8
0
  6
Continuous
 62
     3
100
AcDbLine
 10
110.275000001
 20
67.735714288
 30
0.0
 11
110.175000001
 21
67.650000003
 31
0.0
  0
LINE
  5
18A1
330
D80
100
AcDbEntity
  8
0
  6
Continuous
 62
     3
100
AcDbLine
 10
110.575000001
 20
68.00000000299999
 30
0.0
 11
113.725000001
 21
68.00000000299999
 31
0.0
  0
LINE
  5
18A2
330
D80
100
AcDbEntity
  8
0
  6
Continuous
 62
     3
100
AcDbLine
 10
110.925000001
 20
67.30000000300001
 30
0.0
 11
110.4750000009999
 21
67.85000000300001
 31
0.0
  0
LINE
  5
18A3
330
D80
100
AcDbEntity
  8
0
  6
Continuous
 62
     3
100
AcDbLine
 10
110.825000001
 20
67.100000003
 30
0.0
 11
110.325000001
 21
67.750000003
 31
0.0
  0
LINE
  5
18A4
330
D80
100
AcDbEntity
  8
0
  6
Continuous
 62
     3
100
AcDbLine
 10
110.4750000009999
 20
63.60000000300001
 30
0.0
 11
112.975000001
 21
63.60000000300001
 31
0.0
  0
LINE
  5
18A5
330
D80
100
AcDbEntity
  8
0
  6
Continuous
 62
     3
100
AcDbLine
 10
110.4750000009999
 20
64.350000003
 30
0.0
 11
109.825000001
 21
64.05000000300001
 31
0.0
  0
LINE
  5
18A6
330
D80
100
AcDbEntity
  8
0
  6
Continuous
 62
     3
100
AcDbLine
 10
109.825000001
 20
64.05000000300001
 30
0.0
 11
110.4250000009999
 21
63.60000000300001
 31
0.0
  0
LINE
  5
18A7
330
D80
100
AcDbEntity
  8
0
  6
Continuous
 62
     3
100
AcDbLine
 10
110.325000001
 20
63.500000003
 30
0.0
 11
109.675000001
 21
63.950000003
 31
0.0
  0
LINE
  5
18A8
330
D80
100
AcDbEntity
  8
0
  6
Continuous
 62
     3
100
AcDbLine
 10
109.725000001
 20
64.150000003
 30
0.0
 11
110.4750000009999
 21
64.550000003
 31
0.0
  0
LINE
  5
18A9
330
D80
100
AcDbEntity
  8
0
  6
Continuous
 62
     3
100
AcDbLine
 10
110.035937501
 20
60.887500003
 30
0.0
 11
110.3546875009999
 21
63.437500003
 31
0.0
  0
LINE
  5
18AA
330
D80
100
AcDbEntity
  8
0
  6
Continuous
 62
     3
100
AcDbLine
 10
109.692187501
 20
64.137500003
 30
0.0
 11
110.1234375009999
 21
67.587500003
 31
0.0
  0
LINE
  5
18AB
330
D80
100
AcDbEntity
  8
0
  6
Continuous
 62
     3
100
AcDbLine
 10
112.975000001
 20
64.450000003
 30
0.0
 11
113.6250000009999
 21
63.950000003
 31
0.0
  0
LINE
  5
18AC
330
D80
100
AcDbEntity
  8
0
  6
Continuous
 62
     3
100
AcDbLine
 10
112.875000001
 20
64.350000003
 30
0.0
 11
111.725000001
 21
64.350000003
 31
0.0
  0
LINE
  5
18AD
330
D80
100
AcDbEntity
  8
0
  6
Continuous
 62
     3
100
AcDbLine
 10
113.298437501
 20
66.98750000300001
 30
0.0
 11
112.979687501
 21
64.43750000299999
 31
0.0
  0
LINE
  5
18AE
330
D80
100
AcDbEntity
  8
0
  6
Continuous
 62
     3
100
AcDbLine
 10
113.575000001
 20
63.800000003
 30
0.0
 11
112.875000001
 21
63.60000000300001
 31
0.0
  0
LINE
  5
18AF
330
D80
100
AcDbEntity
  8
0
  6
Continuous
 62
     3
100
AcDbLine
 10
112.875000001
 20
63.450000003
 30
0.0
 11
113.6250000009999
 21
63.650000003
 31
0.0
  0
LINE
  5
18B0
330
D80
100
AcDbEntity
  8
0
  6
Continuous
 62
     3
100
AcDbLine
 10
112.925000001
 20
64.30000000300001
 30
0.0
 11
113.575000001
 21
63.800000003
 31
0.0
  0
LINE
  5
18B1
330
D80
100
AcDbEntity
  8
0
  6
Continuous
 62
     3
100
AcDbLine
 10
112.525000001
 20
60.850000003
 30
0.0
 11
113.075000001
 21
60.300000003
 31
0.0
  0
LINE
  5
18B2
330
D80
100
AcDbEntity
  8
0
  6
Continuous
 62
     3
100
AcDbLine
 10
112.4250000009999
 20
60.75000000300001
 30
0.0
 11
112.975000001
 21
60.200000003
 31
0.0
  0
LINE
  5
18B3
330
D80
100
AcDbEntity
  8
0
  6
Continuous
 62
     3
100
AcDbLine
 10
112.4250000009999
 20
60.75000000300001
 30
0.0
 11
110.025000001
 21
60.75000000300001
 31
0.0
  0
LINE
  5
18B4
330
D80
100
AcDbEntity
  8
0
  6
Continuous
 62
     3
100
AcDbLine
 10
113.075000001
 20
60.272222225
 30
0.0
 11
113.175000001
 21
60.35000000300001
 31
0.0
  0
LINE
  5
18B5
330
D80
100
AcDbEntity
  8
0
  6
Continuous
 62
     3
100
AcDbLine
 10
112.725000001
 20
60.000000003
 30
0.0
 11
112.975000001
 21
60.19444444699999
 31
0.0
  0
LINE
  5
18B6
330
D80
100
AcDbEntity
  8
0
  6
Continuous
 62
     3
100
AcDbLine
 10
112.8484375009999
 20
63.387500003
 30
0.0
 11
112.535937501
 21
60.887500003
 31
0.0
  0
LINE
  5
18B7
330
D80
100
AcDbEntity
  8
0
  6
Continuous
 62
     3
100
AcDbLine
 10
113.6296875009999
 20
63.637500003
 30
0.0
 11
113.217187501
 21
60.337500003
 31
0.0
  0
LINE
  5
18B8
330
D80
100
AcDbEntity
  8
0
  6
Continuous
 62
     3
100
AcDbLine
 10
110.025000001
 20
60.850000003
 30
0.0
 11
109.325000001
 21
60.35000000300001
 31
0.0
  0
LINE
  5
18B9
330
D80
100
AcDbEntity
  8
0
  6
Continuous
 62
     3
100
AcDbLine
 10
109.4250000009999
 20
60.250000003
 30
0.0
 11
110.025000001
 21
60.700000003
 31
0.0
  0
LINE
  5
18BA
330
D80
100
AcDbEntity
  8
0
  6
Continuous
 62
     3
100
AcDbLine
 10
109.391666667
 20
60.200000003
 30
0.0
 11
109.525000001
 21
60.000000003
 31
0.0
  0
LINE
  5
18BB
330
D80
100
AcDbEntity
  8
0
  6
Continuous
 62
     3
100
AcDbLine
 10
109.2250000009999
 20
60.45000000299999
 30
0.0
 11
109.325000001
 21
60.300000003
 31
0.0
  0
LINE
  5
18BC
330
D80
100
AcDbEntity
  8
0
  6
Continuous
 62
     3
100
AcDbLine
 10
109.231250001
 20
60.45000000299999
 30
0.0
 11
109.675000001
 21
64.000000003
 31
0.0
  0
LINE
  5
18BD
330
D80
100
AcDbEntity
  8
0
  6
Continuous
 62
     3
100
AcDbLine
 10
112.725000001
 20
60.000000003
 30
0.0
 11
109.475000001
 21
60.000000003
 31
0.0
  0
POINT
  5
18BE
330
D80
100
AcDbEntity
  8
0
  6
Continuous
 62
     3
100
AcDbPoint
 10
121.425000001
 20
68.00000000299999
 30
0.0
  0
LINE
  5
18BF
330
D80
100
AcDbEntity
  8
0
  6
Continuous
 62
     3
100
AcDbLine
 10
121.775000001
 20
67.95000000299999
 30
0.0
 11
121.825000001
 21
67.92142857399999
 31
0.0
  0
LINE
  5
18C0
330
D80
100
AcDbEntity
  8
0
  6
Continuous
 62
     3
100
AcDbLine
 10
121.275000001
 20
67.25000000299999
 30
0.0
 11
121.775000001
 21
67.85000000300001
 31
0.0
  0
LINE
  5
18C1
330
D80
100
AcDbEntity
  8
0
  6
Continuous
 62
     3
100
AcDbLine
 10
121.975000001
 20
67.80000000300001
 30
0.0
 11
121.375000001
 21
67.050000003
 31
0.0
  0
LINE
  5
18C2
330
D80
100
AcDbEntity
  8
0
  6
Continuous
 62
     3
100
AcDbLine
 10
118.525000001
 20
67.95000000299999
 30
0.0
 11
118.4750000009999
 21
67.90714286
 31
0.0
  0
LINE
  5
18C3
330
D80
100
AcDbEntity
  8
0
  6
Continuous
 62
     3
100
AcDbLine
 10
118.575000001
 20
68.00000000299999
 30
0.0
 11
121.7250000009999
 21
68.00000000299999
 31
0.0
  0
LINE
  5
18C4
330
D80
100
AcDbEntity
  8
0
  6
Continuous
 62
     3
100
AcDbLine
 10
118.975000001
 20
67.25000000299999
 30
0.0
 11
121.325000001
 21
67.25000000299999
 31
0.0
  0
LINE
  5
18C5
330
D80
100
AcDbEntity
  8
0
  6
Continuous
 62
     3
100
AcDbLine
 10
118.925000001
 20
67.30000000300001
 30
0.0
 11
118.4750000009999
 21
67.85000000300001
 31
0.0
  0
LINE
  5
18C6
330
D80
100
AcDbEntity
  8
0
  6
Continuous
 62
     3
100
AcDbLine
 10
118.825000001
 20
67.100000003
 30
0.0
 11
118.325000001
 21
67.750000003
 31
0.0
  0
LINE
  5
18C7
330
D80
100
AcDbEntity
  8
0
  6
Continuous
 62
     3
100
AcDbLine
 10
118.275000001
 20
67.735714288
 30
0.0
 11
118.175000001
 21
67.650000003
 31
0.0
  0
LINE
  5
18C8
330
D80
100
AcDbEntity
  8
0
  6
Continuous
 62
     3
100
AcDbLine
 10
118.4750000009999
 20
64.350000003
 30
0.0
 11
117.825000001
 21
64.05000000300001
 31
0.0
  0
LINE
  5
18C9
330
D80
100
AcDbEntity
  8
0
  6
Continuous
 62
     3
100
AcDbLine
 10
117.825000001
 20
64.05000000300001
 30
0.0
 11
118.425000001
 21
63.60000000300001
 31
0.0
  0
LINE
  5
18CA
330
D80
100
AcDbEntity
  8
0
  6
Continuous
 62
     3
100
AcDbLine
 10
118.325000001
 20
63.500000003
 30
0.0
 11
117.6750000009999
 21
63.950000003
 31
0.0
  0
LINE
  5
18CB
330
D80
100
AcDbEntity
  8
0
  6
Continuous
 62
     3
100
AcDbLine
 10
117.7250000009999
 20
64.150000003
 30
0.0
 11
118.4750000009999
 21
64.550000003
 31
0.0
  0
LINE
  5
18CC
330
D80
100
AcDbEntity
  8
0
  6
Continuous
 62
     3
100
AcDbLine
 10
118.4750000009999
 20
63.60000000300001
 30
0.0
 11
120.975000001
 21
63.60000000300001
 31
0.0
  0
LINE
  5
18CD
330
D80
100
AcDbEntity
  8
0
  6
Continuous
 62
     3
100
AcDbLine
 10
117.692187501
 20
64.137500003
 30
0.0
 11
118.123437501
 21
67.587500003
 31
0.0
  0
LINE
  5
18CE
330
D80
100
AcDbEntity
  8
0
  6
Continuous
 62
     3
100
AcDbLine
 10
118.025000001
 20
60.850000003
 30
0.0
 11
117.325000001
 21
60.35000000300001
 31
0.0
  0
LINE
  5
18CF
330
D80
100
AcDbEntity
  8
0
  6
Continuous
 62
     3
100
AcDbLine
 10
117.425000001
 20
60.250000003
 30
0.0
 11
118.025000001
 21
60.700000003
 31
0.0
  0
LINE
  5
18D0
330
D80
100
AcDbEntity
  8
0
  6
Continuous
 62
     3
100
AcDbLine
 10
117.391666667
 20
60.200000003
 30
0.0
 11
117.525000001
 21
60.000000003
 31
0.0
  0
LINE
  5
18D1
330
D80
100
AcDbEntity
  8
0
  6
Continuous
 62
     3
100
AcDbLine
 10
117.225000001
 20
60.45000000299999
 30
0.0
 11
117.325000001
 21
60.300000003
 31
0.0
  0
LINE
  5
18D2
330
D80
100
AcDbEntity
  8
0
  6
Continuous
 62
     3
100
AcDbLine
 10
117.231250001
 20
60.45000000299999
 30
0.0
 11
117.6750000009999
 21
64.000000003
 31
0.0
  0
LINE
  5
18D3
330
D80
100
AcDbEntity
  8
0
  6
Continuous
 62
     3
100
AcDbLine
 10
118.035937501
 20
60.887500003
 30
0.0
 11
118.354687501
 21
63.437500003
 31
0.0
  0
LINE
  5
18D4
330
D80
100
AcDbEntity
  8
0
  6
Continuous
 62
     3
100
AcDbLine
 10
120.525000001
 20
60.850000003
 30
0.0
 11
121.0750000009999
 21
60.300000003
 31
0.0
  0
LINE
  5
18D5
330
D80
100
AcDbEntity
  8
0
  6
Continuous
 62
     3
100
AcDbLine
 10
120.425000001
 20
60.75000000300001
 30
0.0
 11
120.975000001
 21
60.200000003
 31
0.0
  0
LINE
  5
18D6
330
D80
100
AcDbEntity
  8
0
  6
Continuous
 62
     3
100
AcDbLine
 10
121.0750000009999
 20
60.272222225
 30
0.0
 11
121.175000001
 21
60.35000000300001
 31
0.0
  0
LINE
  5
18D7
330
D80
100
AcDbEntity
  8
0
  6
Continuous
 62
     3
100
AcDbLine
 10
120.7250000009999
 20
60.000000003
 30
0.0
 11
120.975000001
 21
60.19444444699999
 31
0.0
  0
LINE
  5
18D8
330
D80
100
AcDbEntity
  8
0
  6
Continuous
 62
     3
100
AcDbLine
 10
120.848437501
 20
63.387500003
 30
0.0
 11
120.535937501
 21
60.887500003
 31
0.0
  0
LINE
  5
18D9
330
D80
100
AcDbEntity
  8
0
  6
Continuous
 62
     3
100
AcDbLine
 10
120.425000001
 20
60.75000000300001
 30
0.0
 11
118.025000001
 21
60.75000000300001
 31
0.0
  0
LINE
  5
18DA
330
D80
100
AcDbEntity
  8
0
  6
Continuous
 62
     3
100
AcDbLine
 10
120.7250000009999
 20
60.000000003
 30
0.0
 11
117.4750000009999
 21
60.000000003
 31
0.0
  0
LINE
  5
18DB
330
D80
100
AcDbEntity
  8
0
  6
Continuous
 62
     3
100
AcDbLine
 10
121.575000001
 20
63.800000003
 30
0.0
 11
120.8750000009999
 21
63.60000000300001
 31
0.0
  0
LINE
  5
18DC
330
D80
100
AcDbEntity
  8
0
  6
Continuous
 62
     3
100
AcDbLine
 10
120.8750000009999
 20
63.450000003
 30
0.0
 11
121.625000001
 21
63.650000003
 31
0.0
  0
LINE
  5
18DD
330
D80
100
AcDbEntity
  8
0
  6
Continuous
 62
     3
100
AcDbLine
 10
122.142187501
 20
67.73750000300001
 30
0.0
 11
121.667187501
 21
63.937500003
 31
0.0
  0
LINE
  5
18DE
330
D80
100
AcDbEntity
  8
0
  6
Continuous
 62
     3
100
AcDbLine
 10
121.629687501
 20
63.637500003
 30
0.0
 11
121.2171875009999
 21
60.337500003
 31
0.0
  0
LINE
  5
18E0
330
D80
100
AcDbEntity
  8
0
  6
Continuous
 62
     3
100
AcDbLine
 10
120.975000001
 20
64.450000003
 30
0.0
 11
121.625000001
 21
63.950000003
 31
0.0
  0
LINE
  5
18E1
330
D80
100
AcDbEntity
  8
0
  6
Continuous
 62
     3
100
AcDbLine
 10
120.9250000009999
 20
64.30000000300001
 30
0.0
 11
121.575000001
 21
63.800000003
 31
0.0
  0
LINE
  5
18E2
330
D80
100
AcDbEntity
  8
0
  6
Continuous
 62
     3
100
AcDbLine
 10
121.298437501
 20
66.98750000300001
 30
0.0
 11
120.979687501
 21
64.43750000299999
 31
0.0
  0
LINE
  5
18E3
330
D80
100
AcDbEntity
  8
0
  6
Continuous
 62
     3
100
AcDbLine
 10
119.6750000009999
 20
64.350000003
 30
0.0
 11
118.525000001
 21
64.350000003
 31
0.0
  0
LINE
  5
18E4
330
D80
100
AcDbEntity
  8
0
  6
Continuous
 62
     3
100
AcDbLine
 10
118.504687501
 20
64.637500003
 30
0.0
 11
118.810937501
 21
67.087500003
 31
0.0
  0
LINE
  5
18E5
330
D80
100
AcDbEntity
  8
0
  6
Continuous
 62
     3
100
AcDbLine
 10
126.525000001
 20
67.95000000299999
 30
0.0
 11
126.475000001
 21
67.90714286
 31
0.0
  0
LINE
  5
18E6
330
D80
100
AcDbEntity
  8
0
  6
Continuous
 62
     3
100
AcDbLine
 10
126.275000001
 20
67.735714288
 30
0.0
 11
126.1750000009999
 21
67.650000003
 31
0.0
  0
LINE
  5
18E7
330
D80
100
AcDbEntity
  8
0
  6
Continuous
 62
     3
100
AcDbLine
 10
126.9250000009999
 20
67.30000000300001
 30
0.0
 11
126.475000001
 21
67.85000000300001
 31
0.0
  0
LINE
  5
18E8
330
D80
100
AcDbEntity
  8
0
  6
Continuous
 62
     3
100
AcDbLine
 10
126.825000001
 20
67.100000003
 30
0.0
 11
126.3250000009999
 21
67.750000003
 31
0.0
  0
LINE
  5
18E9
330
D80
100
AcDbEntity
  8
0
  6
Continuous
 62
     3
100
AcDbLine
 10
127.675000001
 20
64.350000003
 30
0.0
 11
126.525000001
 21
64.350000003
 31
0.0
  0
LINE
  5
18EA
330
D80
100
AcDbEntity
  8
0
  6
Continuous
 62
     3
100
AcDbLine
 10
126.475000001
 20
64.350000003
 30
0.0
 11
125.825000001
 21
64.05000000300001
 31
0.0
  0
LINE
  5
18EB
330
D80
100
AcDbEntity
  8
0
  6
Continuous
 62
     3
100
AcDbLine
 10
125.825000001
 20
64.05000000300001
 30
0.0
 11
126.425000001
 21
63.60000000300001
 31
0.0
  0
LINE
  5
18EC
330
D80
100
AcDbEntity
  8
0
  6
Continuous
 62
     3
100
AcDbLine
 10
126.3250000009999
 20
63.500000003
 30
0.0
 11
125.675000001
 21
63.950000003
 31
0.0
  0
LINE
  5
18ED
330
D80
100
AcDbEntity
  8
0
  6
Continuous
 62
     3
100
AcDbLine
 10
125.7250000009999
 20
64.150000003
 30
0.0
 11
126.475000001
 21
64.550000003
 31
0.0
  0
LINE
  5
18EE
330
D80
100
AcDbEntity
  8
0
  6
Continuous
 62
     3
100
AcDbLine
 10
125.692187501
 20
64.137500003
 30
0.0
 11
126.1234375009999
 21
67.587500003
 31
0.0
  0
LINE
  5
18EF
330
D80
100
AcDbEntity
  8
0
  6
Continuous
 62
     3
100
AcDbLine
 10
126.504687501
 20
64.637500003
 30
0.0
 11
126.810937501
 21
67.087500003
 31
0.0
  0
POINT
  5
18F0
330
D80
100
AcDbEntity
  8
0
  6
Continuous
 62
     3
100
AcDbPoint
 10
125.9250000009999
 20
60.000000003
 30
0.0
  0
LINE
  5
18F1
330
D80
100
AcDbEntity
  8
0
  6
Continuous
 62
     3
100
AcDbLine
 10
126.025000001
 20
60.850000003
 30
0.0
 11
125.325000001
 21
60.35000000300001
 31
0.0
  0
LINE
  5
18F2
330
D80
100
AcDbEntity
  8
0
  6
Continuous
 62
     3
100
AcDbLine
 10
125.425000001
 20
60.250000003
 30
0.0
 11
126.025000001
 21
60.700000003
 31
0.0
  0
LINE
  5
18F3
330
D80
100
AcDbEntity
  8
0
  6
Continuous
 62
     3
100
AcDbLine
 10
125.391666667
 20
60.200000003
 30
0.0
 11
125.525000001
 21
60.000000003
 31
0.0
  0
LINE
  5
18F4
330
D80
100
AcDbEntity
  8
0
  6
Continuous
 62
     3
100
AcDbLine
 10
125.225000001
 20
60.45000000299999
 30
0.0
 11
125.325000001
 21
60.300000003
 31
0.0
  0
LINE
  5
18F5
330
D80
100
AcDbEntity
  8
0
  6
Continuous
 62
     3
100
AcDbLine
 10
125.231250001
 20
60.45000000299999
 30
0.0
 11
125.675000001
 21
64.000000003
 31
0.0
  0
LINE
  5
18F6
330
D80
100
AcDbEntity
  8
0
  6
Continuous
 62
     3
100
AcDbLine
 10
126.035937501
 20
60.887500003
 30
0.0
 11
126.354687501
 21
63.437500003
 31
0.0
  0
LINE
  5
18F7
330
D80
100
AcDbEntity
  8
0
  6
Continuous
 62
     3
100
AcDbLine
 10
128.975000001
 20
64.450000003
 30
0.0
 11
129.625000001
 21
63.950000003
 31
0.0
  0
LINE
  5
18F8
330
D80
100
AcDbEntity
  8
0
  6
Continuous
 62
     3
100
AcDbLine
 10
128.875000001
 20
64.350000003
 30
0.0
 11
127.7250000009999
 21
64.350000003
 31
0.0
  0
LINE
  5
18F9
330
D80
100
AcDbEntity
  8
0
  6
Continuous
 62
     3
100
AcDbLine
 10
129.575000001
 20
63.800000003
 30
0.0
 11
128.875000001
 21
63.60000000300001
 31
0.0
  0
LINE
  5
18FA
330
D80
100
AcDbEntity
  8
0
  6
Continuous
 62
     3
100
AcDbLine
 10
128.875000001
 20
63.450000003
 30
0.0
 11
129.625000001
 21
63.650000003
 31
0.0
  0
LINE
  5
18FB
330
D80
100
AcDbEntity
  8
0
  6
Continuous
 62
     3
100
AcDbLine
 10
126.475000001
 20
63.60000000300001
 30
0.0
 11
128.975000001
 21
63.60000000300001
 31
0.0
  0
LINE
  5
18FC
330
D80
100
AcDbEntity
  8
0
  6
Continuous
 62
     3
100
AcDbLine
 10
128.925000001
 20
64.30000000300001
 30
0.0
 11
129.575000001
 21
63.800000003
 31
0.0
  0
LINE
  5
18FD
330
D80
100
AcDbEntity
  8
0
  6
Continuous
 62
     3
100
AcDbLine
 10
128.525000001
 20
60.850000003
 30
0.0
 11
129.075000001
 21
60.300000003
 31
0.0
  0
LINE
  5
18FE
330
D80
100
AcDbEntity
  8
0
  6
Continuous
 62
     3
100
AcDbLine
 10
128.425000001
 20
60.75000000300001
 30
0.0
 11
128.975000001
 21
60.200000003
 31
0.0
  0
LINE
  5
18FF
330
D80
100
AcDbEntity
  8
0
  6
Continuous
 62
     3
100
AcDbLine
 10
129.075000001
 20
60.272222225
 30
0.0
 11
129.1750000009996
 21
60.35000000300001
 31
0.0
  0
LINE
  5
1900
330
D80
100
AcDbEntity
  8
0
  6
Continuous
 62
     3
100
AcDbLine
 10
128.725000001
 20
60.000000003
 30
0.0
 11
128.975000001
 21
60.19444444699999
 31
0.0
  0
LINE
  5
1901
330
D80
100
AcDbEntity
  8
0
  6
Continuous
 62
     3
100
AcDbLine
 10
128.848437501
 20
63.387500003
 30
0.0
 11
128.535937501
 21
60.887500003
 31
0.0
  0
LINE
  5
1902
330
D80
100
AcDbEntity
  8
0
  6
Continuous
 62
     3
100
AcDbLine
 10
128.425000001
 20
60.75000000300001
 30
0.0
 11
126.025000001
 21
60.75000000300001
 31
0.0
  0
LINE
  5
1903
330
D80
100
AcDbEntity
  8
0
  6
Continuous
 62
     3
100
AcDbLine
 10
128.725000001
 20
60.000000003
 30
0.0
 11
125.475000001
 21
60.000000003
 31
0.0
  0
LINE
  5
1904
330
D80
100
AcDbEntity
  8
0
  6
Continuous
 62
     3
100
AcDbLine
 10
129.629687501
 20
63.637500003
 30
0.0
 11
129.217187501
 21
60.337500003
 31
0.0
  0
LINE
  5
1905
330
D80
100
AcDbEntity
  8
0
  6
Continuous
 62
     3
100
AcDbLine
 10
126.9750000009999
 20
67.25000000299999
 30
0.0
 11
129.325000001
 21
67.25000000299999
 31
0.0
  0
LINE
  5
1906
330
D80
100
AcDbEntity
  8
0
  6
Continuous
 62
     3
100
AcDbLine
 10
129.298437501
 20
66.98750000300001
 30
0.0
 11
128.9796875009996
 21
64.43750000299999
 31
0.0
  0
LINE
  5
1907
330
D80
100
AcDbEntity
  8
0
  6
Continuous
 62
     3
100
AcDbLine
 10
129.7750000009999
 20
67.95000000299999
 30
0.0
 11
129.825000001
 21
67.92142857399999
 31
0.0
  0
LINE
  5
1908
330
D80
100
AcDbEntity
  8
0
  6
Continuous
 62
     3
100
AcDbLine
 10
126.575000001
 20
68.00000000299999
 30
0.0
 11
129.725000001
 21
68.00000000299999
 31
0.0
  0
LINE
  5
1909
330
D80
100
AcDbEntity
  8
0
  6
Continuous
 62
     3
100
AcDbLine
 10
130.1421875009999
 20
67.73750000300001
 30
0.0
 11
129.667187501
 21
63.937500003
 31
0.0
  0
LINE
  5
190A
330
D80
100
AcDbEntity
  8
0
  6
Continuous
 62
     3
100
AcDbLine
 10
129.275000001
 20
67.25000000299999
 30
0.0
 11
129.7750000009999
 21
67.85000000300001
 31
0.0
  0
LINE
  5
190B
330
D80
100
AcDbEntity
  8
0
  6
Continuous
 62
     3
100
AcDbLine
 10
129.975000001
 20
67.80000000300001
 30
0.0
 11
129.375000001
 21
67.050000003
 31
0.0
  0
LINE
  5
190C
330
D80
100
AcDbEntity
  8
0
  6
Continuous
 62
     4
100
AcDbLine
 10
131.0250000009999
 20
69.500000003
 30
0.0
 11
131.0250000009999
 21
59.000000003
 31
0.0
  0
LINE
  5
190D
330
D80
100
AcDbEntity
  8
0
  6
Continuous
 62
     4
100
AcDbLine
 10
111.5000000009999
 20
89.000000002
 30
0.0
 11
98.75000000100001
 21
89.000000003
 31
0.0
  0
LINE
  5
190E
330
D80
100
AcDbEntity
  8
0
  6
Continuous
 62
     4
100
AcDbLine
 10
61.000000001
 20
89.000000003
 30
0.0
 11
61.000000001
 21
70.50000000199999
 31
0.0
  0
LINE
  5
190F
330
D80
100
AcDbEntity
  8
0
  6
Continuous
 62
     4
100
AcDbLine
 10
111.5000000009999
 20
70.50000000199999
 30
0.0
 11
111.5000000009999
 21
89.000000002
 31
0.0
  0
LINE
  5
1910
330
D80
100
AcDbEntity
  8
0
  6
Continuous
 62
     4
100
AcDbLine
 10
111.5000000009999
 20
70.50000000199999
 30
0.0
 11
61.000000001
 21
70.50000000199999
 31
0.0
  0
LINE
  5
1911
330
D80
100
AcDbEntity
  8
0
  6
Continuous
 62
     4
100
AcDbLine
 10
98.75000000100001
 20
89.000000003
 30
0.0
 11
61.000000001
 21
89.000000003
 31
0.0
  0
LINE
  5
1912
330
D80
100
AcDbEntity
  8
0
  6
Continuous
 62
     3
100
AcDbLine
 10
108.584500001
 20
85.70600000199998
 30
0.0
 11
109.868500001
 21
86.77600000199999
 31
0.0
  0
LINE
  5
1913
330
D80
100
AcDbEntity
  8
0
  6
Continuous
 62
     3
100
AcDbLine
 10
110.0290000009999
 20
86.562000002
 30
0.0
 11
108.798500001
 21
85.49200000199999
 31
0.0
  0
LINE
  5
1914
330
D80
100
AcDbEntity
  8
0
  6
Continuous
 62
     3
100
AcDbLine
 10
108.531000001
 20
85.65250000199998
 30
0.0
 11
103.0740000009999
 21
85.65250000199998
 31
0.0
  0
LINE
  5
1915
330
D80
100
AcDbEntity
  8
0
  6
Continuous
 62
     3
100
AcDbLine
 10
102.378500001
 20
86.99000000199999
 30
0.0
 11
109.8150000009999
 21
86.99000000199999
 31
0.0
  0
LINE
  5
1916
330
D80
100
AcDbEntity
  8
0
  6
Continuous
 62
     3
100
AcDbLine
 10
102.004000001
 20
86.67723077199999
 30
0.0
 11
101.683000001
 21
86.455000003
 31
0.0
  0
LINE
  5
1917
330
D80
100
AcDbEntity
  8
0
  6
Continuous
 62
     3
100
AcDbLine
 10
103.181000001
 20
85.65250000199998
 30
0.0
 11
102.271500001
 21
86.722500002
 31
0.0
  0
LINE
  5
1918
330
D80
100
AcDbEntity
  8
0
  6
Continuous
 62
     3
100
AcDbLine
 10
102.913500001
 20
85.59900000199998
 30
0.0
 11
102.057500001
 21
86.562000003
 31
0.0
  0
LINE
  5
1919
330
D80
100
AcDbEntity
  8
0
  6
Continuous
 62
     3
100
AcDbLine
 10
102.378500001
 20
86.93650000199999
 30
0.0
 11
102.3250000009999
 21
86.89946154100002
 31
0.0
  0
LINE
  5
191A
330
D80
100
AcDbEntity
  8
0
  6
Continuous
 62
     3
100
AcDbLine
 10
102.271500001
 20
86.722500002
 30
0.0
 11
102.218000001
 21
86.77600000199999
 31
0.0
  0
LINE
  5
191B
330
D80
100
AcDbEntity
  8
0
  6
Continuous
 62
     3
100
AcDbLine
 10
102.218000001
 20
86.77600000199999
 30
0.0
 11
102.3250000009999
 21
86.88300000199999
 31
0.0
  0
LINE
  5
191C
330
D80
100
AcDbEntity
  8
0
  6
Continuous
 62
     3
100
AcDbLine
 10
102.057500001
 20
86.562000003
 30
0.0
 11
102.004000001
 21
86.669000003
 31
0.0
  0
LINE
  5
191D
330
D80
100
AcDbEntity
  8
0
  6
Continuous
 62
     3
100
AcDbLine
 10
109.761500001
 20
86.99000000199999
 30
0.0
 11
109.980363637
 21
86.722500002
 31
0.0
  0
LINE
  5
191E
330
D80
100
AcDbEntity
  8
0
  6
Continuous
 62
     3
100
AcDbLine
 10
102.111000001
 20
80.08850000299998
 30
0.0
 11
101.0945000009999
 21
79.674370373
 31
0.0
  0
LINE
  5
191F
330
D80
100
AcDbEntity
  8
0
  6
Continuous
 62
     3
100
AcDbLine
 10
102.646000001
 20
80.088500002
 30
0.0
 11
101.3620000009999
 21
79.44650000299998
 31
0.0
  0
LINE
  5
1920
330
D80
100
AcDbEntity
  8
0
  6
Continuous
 62
     3
100
AcDbLine
 10
107.5680000009999
 20
80.142000002
 30
0.0
 11
102.699500001
 21
80.142000002
 31
0.0
  0
LINE
  5
1921
330
D80
100
AcDbEntity
  8
0
  6
Continuous
 62
     3
100
AcDbLine
 10
102.9329545459999
 20
85.65250000199998
 30
0.0
 11
102.1469909099999
 21
79.98150000299998
 31
0.0
  0
LINE
  5
1922
330
D80
100
AcDbEntity
  8
0
  6
Continuous
 62
     3
100
AcDbLine
 10
100.987500001
 20
79.286000003
 30
0.0
 11
100.666500001
 21
79.018500003
 31
0.0
  0
LINE
  5
1923
330
D80
100
AcDbEntity
  8
0
  6
Continuous
 62
     3
100
AcDbLine
 10
100.987500001
 20
79.25925000300001
 30
0.0
 11
101.950500001
 21
78.697500003
 31
0.0
  0
LINE
  5
1924
330
D80
100
AcDbEntity
  8
0
  6
Continuous
 62
     3
100
AcDbLine
 10
102.218000001
 20
78.85800000199998
 30
0.0
 11
101.4155000009999
 21
79.339500003
 31
0.0
  0
LINE
  5
1925
330
D80
100
AcDbEntity
  8
0
  6
Continuous
 62
     3
100
AcDbLine
 10
102.271500001
 20
78.80450000199998
 30
0.0
 11
107.354000001
 21
78.80450000199998
 31
0.0
  0
LINE
  5
1926
330
D80
100
AcDbEntity
  8
0
  6
Continuous
 62
     3
100
AcDbLine
 10
101.0945000009999
 20
79.60700000299998
 30
0.0
 11
100.827000001
 21
79.87450000299998
 31
0.0
  0
LINE
  5
1927
330
D80
100
AcDbEntity
  8
0
  6
Continuous
 62
     3
100
AcDbLine
 10
100.8117142859999
 20
79.87450000299998
 30
0.0
 11
101.7135714289999
 21
86.455000003
 31
0.0
  0
LINE
  5
1928
330
D80
100
AcDbEntity
  8
0
  6
Continuous
 62
     3
100
AcDbLine
 10
109.066000001
 20
79.66050000199999
 30
0.0
 11
109.387000001
 21
79.874500002
 31
0.0
  0
LINE
  5
1929
330
D80
100
AcDbEntity
  8
0
  6
Continuous
 62
     3
100
AcDbLine
 10
107.621500001
 20
80.035000002
 30
0.0
 11
108.638000001
 21
79.50000000199999
 31
0.0
  0
LINE
  5
192A
330
D80
100
AcDbEntity
  8
0
  6
Continuous
 62
     3
100
AcDbLine
 10
109.066000001
 20
79.587545457
 30
0.0
 11
108.0495000009999
 21
80.142000002
 31
0.0
  0
LINE
  5
192B
330
D80
100
AcDbEntity
  8
0
  6
Continuous
 62
     3
100
AcDbLine
 10
110.2566181829998
 20
86.348000002
 30
0.0
 11
109.346145455
 21
79.82100000199999
 31
0.0
  0
LINE
  5
192C
330
D80
100
AcDbEntity
  8
0
  6
Continuous
 62
     3
100
AcDbLine
 10
108.0397727279999
 20
80.035000002
 30
0.0
 11
108.794609092
 21
85.49200000199999
 31
0.0
  0
POINT
  5
192D
330
D80
100
AcDbEntity
  8
0
  6
Continuous
 62
     3
100
AcDbPoint
 10
107.8763545459999
 20
78.91150000199998
 30
0.0
  0
LINE
  5
192E
330
D80
100
AcDbEntity
  8
0
  6
Continuous
 62
     3
100
AcDbLine
 10
107.675000001
 20
72.010000002
 30
0.0
 11
107.8355000009999
 21
72.13840000199998
 31
0.0
  0
LINE
  5
192F
330
D80
100
AcDbEntity
  8
0
  6
Continuous
 62
     3
100
AcDbLine
 10
107.996000001
 20
72.26680000199998
 30
0.0
 11
108.210000001
 21
72.438000002
 31
0.0
  0
LINE
  5
1930
330
D80
100
AcDbEntity
  8
0
  6
Continuous
 62
     3
100
AcDbLine
 10
108.638000001
 20
79.50000000199999
 30
0.0
 11
107.354000001
 21
78.80450000199998
 31
0.0
  0
LINE
  5
1931
330
D80
100
AcDbEntity
  8
0
  6
Continuous
 62
     3
100
AcDbLine
 10
109.252763637
 20
79.17900000199999
 30
0.0
 11
108.280036364
 21
72.491500002
 31
0.0
  0
LINE
  5
1932
330
D80
100
AcDbEntity
  8
0
  6
Continuous
 62
     3
100
AcDbLine
 10
107.8355000009999
 20
78.75100000199998
 30
0.0
 11
109.012500001
 21
79.36304000199999
 31
0.0
  0
LINE
  5
1933
330
D80
100
AcDbEntity
  8
0
  6
Continuous
 62
     3
100
AcDbLine
 10
101.1480000009999
 20
73.29400000300001
 30
0.0
 11
99.97100000100001
 21
72.252807695
 31
0.0
  0
LINE
  5
1934
330
D80
100
AcDbEntity
  8
0
  6
Continuous
 62
     3
100
AcDbLine
 10
99.81050000100001
 20
72.545000003
 30
0.0
 11
99.99775000100001
 21
72.277500003
 31
0.0
  0
LINE
  5
1935
330
D80
100
AcDbEntity
  8
0
  6
Continuous
 62
     3
100
AcDbLine
 10
101.629500001
 20
73.34750000300001
 30
0.0
 11
100.185000001
 21
72.063500003
 31
0.0
  0
LINE
  5
1936
330
D80
100
AcDbEntity
  8
0
  6
Continuous
 62
     3
100
AcDbLine
 10
100.185000001
 20
72.010000003
 30
0.0
 11
100.185000001
 21
72.010000003
 31
0.0
  0
LINE
  5
1937
330
D80
100
AcDbEntity
  8
0
  6
Continuous
 62
     3
100
AcDbLine
 10
106.926000001
 20
73.347500002
 30
0.0
 11
101.629500001
 21
73.34750000300001
 31
0.0
  0
LINE
  5
1938
330
D80
100
AcDbEntity
  8
0
  6
Continuous
 62
     3
100
AcDbLine
 10
101.9602272729998
 20
78.697500003
 30
0.0
 11
101.174263637
 21
73.29400000300001
 31
0.0
  0
LINE
  5
1939
330
D80
100
AcDbEntity
  8
0
  6
Continuous
 62
     3
100
AcDbLine
 10
99.73407142900001
 20
72.598500003
 30
0.0
 11
100.6512142859999
 21
79.018500003
 31
0.0
  0
LINE
  5
193A
330
D80
100
AcDbEntity
  8
0
  6
Continuous
 62
     3
100
AcDbLine
 10
107.1137363639999
 20
73.668500002
 30
0.0
 11
107.8452272729998
 21
78.69750000199998
 31
0.0
  0
LINE
  5
193B
330
D80
100
AcDbEntity
  8
0
  6
Continuous
 62
     3
100
AcDbLine
 10
107.140000001
 20
73.615000002
 30
0.0
 11
107.996000001
 21
72.33100000199998
 31
0.0
  0
LINE
  5
193C
330
D80
100
AcDbEntity
  8
0
  6
Continuous
 62
     3
100
AcDbLine
 10
106.926000001
 20
73.401000002
 30
0.0
 11
107.782000001
 21
72.063500002
 31
0.0
  0
LINE
  5
193D
330
D80
100
AcDbEntity
  8
0
  6
Continuous
 62
     3
100
AcDbLine
 10
107.675000001
 20
72.010000002
 30
0.0
 11
100.185000001
 21
72.010000003
 31
0.0
  0
LINE
  5
193E
330
D80
100
AcDbEntity
  8
0
  6
Continuous
 62
     3
100
AcDbLine
 10
88.487500001
 20
79.286000003
 30
0.0
 11
88.166500001
 21
79.018500003
 31
0.0
  0
LINE
  5
193F
330
D80
100
AcDbEntity
  8
0
  6
Continuous
 62
     3
100
AcDbLine
 10
88.487500001
 20
79.25925000300001
 30
0.0
 11
89.45050000100001
 21
78.697500003
 31
0.0
  0
LINE
  5
1940
330
D80
100
AcDbEntity
  8
0
  6
Continuous
 62
     3
100
AcDbLine
 10
89.71800000100001
 20
78.858000003
 30
0.0
 11
88.915500001
 21
79.339500003
 31
0.0
  0
POINT
  5
1941
330
D80
100
AcDbEntity
  8
0
  6
Continuous
 62
     3
100
AcDbPoint
 10
95.376354546
 20
78.911500003
 30
0.0
  0
LINE
  5
1942
330
D80
100
AcDbEntity
  8
0
  6
Continuous
 62
     3
100
AcDbLine
 10
96.13800000100004
 20
79.50000000299998
 30
0.0
 11
94.854000001
 21
78.804500003
 31
0.0
  0
LINE
  5
1943
330
D80
100
AcDbEntity
  8
0
  6
Continuous
 62
     3
100
AcDbLine
 10
89.77150000100001
 20
78.804500003
 30
0.0
 11
94.854000001
 21
78.804500003
 31
0.0
  0
LINE
  5
1944
330
D80
100
AcDbEntity
  8
0
  6
Continuous
 62
     3
100
AcDbLine
 10
96.51250000100001
 20
79.339500003
 30
0.0
 11
96.726500001
 21
79.232500003
 31
0.0
  0
LINE
  5
1945
330
D80
100
AcDbEntity
  8
0
  6
Continuous
 62
     3
100
AcDbLine
 10
96.752763637
 20
79.179000003
 30
0.0
 11
95.780036364
 21
72.491500003
 31
0.0
  0
LINE
  5
1946
330
D80
100
AcDbEntity
  8
0
  6
Continuous
 62
     3
100
AcDbLine
 10
95.33550000099998
 20
78.751000003
 30
0.0
 11
96.51250000100001
 21
79.36304000300001
 31
0.0
  0
LINE
  5
1947
330
D80
100
AcDbEntity
  8
0
  6
Continuous
 62
     3
100
AcDbLine
 10
94.426000001
 20
73.34750000300001
 30
0.0
 11
89.12950000100002
 21
73.34750000300001
 31
0.0
  0
LINE
  5
1948
330
D80
100
AcDbEntity
  8
0
  6
Continuous
 62
     3
100
AcDbLine
 10
89.12950000100002
 20
73.34750000300001
 30
0.0
 11
87.68500000100003
 21
72.063500003
 31
0.0
  0
LINE
  5
1949
330
D80
100
AcDbEntity
  8
0
  6
Continuous
 62
     3
100
AcDbLine
 10
94.640000001
 20
73.61500000300001
 30
0.0
 11
95.49600000099998
 21
72.331000003
 31
0.0
  0
LINE
  5
194A
330
D80
100
AcDbEntity
  8
0
  6
Continuous
 62
     3
100
AcDbLine
 10
95.175000001
 20
72.010000003
 30
0.0
 11
95.33550000099998
 21
72.138400003
 31
0.0
  0
LINE
  5
194B
330
D80
100
AcDbEntity
  8
0
  6
Continuous
 62
     3
100
AcDbLine
 10
95.49600000099998
 20
72.266800003
 30
0.0
 11
95.71000000099994
 21
72.438000003
 31
0.0
  0
LINE
  5
194C
330
D80
100
AcDbEntity
  8
0
  6
Continuous
 62
     3
100
AcDbLine
 10
94.426000001
 20
73.40100000300001
 30
0.0
 11
95.282000001
 21
72.063500003
 31
0.0
  0
LINE
  5
194D
330
D80
100
AcDbEntity
  8
0
  6
Continuous
 62
     3
100
AcDbLine
 10
95.175000001
 20
72.010000003
 30
0.0
 11
87.68500000100003
 21
72.010000003
 31
0.0
  0
LINE
  5
194E
330
D80
100
AcDbEntity
  8
0
  6
Continuous
 62
     3
100
AcDbLine
 10
87.31050000100003
 20
72.545000003
 30
0.0
 11
87.49775000099999
 21
72.277500003
 31
0.0
  0
LINE
  5
194F
330
D80
100
AcDbEntity
  8
0
  6
Continuous
 62
     3
100
AcDbLine
 10
87.68500000100003
 20
72.010000003
 30
0.0
 11
87.68500000100003
 21
72.010000003
 31
0.0
  0
LINE
  5
1950
330
D80
100
AcDbEntity
  8
0
  6
Continuous
 62
     3
100
AcDbLine
 10
88.648000001
 20
73.29400000300001
 30
0.0
 11
87.47100000100003
 21
72.252807695
 31
0.0
  0
LINE
  5
1951
330
D80
100
AcDbEntity
  8
0
  6
Continuous
 62
     3
100
AcDbLine
 10
89.46022727299999
 20
78.697500003
 30
0.0
 11
88.67426363700001
 21
73.29400000300001
 31
0.0
  0
LINE
  5
1952
330
D80
100
AcDbEntity
  8
0
  6
Continuous
 62
     3
100
AcDbLine
 10
87.23407142899999
 20
72.598500003
 30
0.0
 11
88.15121428599999
 21
79.018500003
 31
0.0
  0
LINE
  5
1953
330
D80
100
AcDbEntity
  8
0
  6
Continuous
 62
     3
100
AcDbLine
 10
94.61373636399999
 20
73.66850000300001
 30
0.0
 11
95.34522727299995
 21
78.697500003
 31
0.0
  0
LINE
  5
1954
330
D80
100
AcDbEntity
  8
0
  6
Continuous
 62
     3
100
AcDbLine
 10
90.68100000100001
 20
85.652500003
 30
0.0
 11
89.77150000100001
 21
86.722500003
 31
0.0
  0
LINE
  5
1955
330
D80
100
AcDbEntity
  8
0
  6
Continuous
 62
     3
100
AcDbLine
 10
90.41350000100001
 20
85.599000003
 30
0.0
 11
89.55750000100001
 21
86.562000003
 31
0.0
  0
LINE
  5
1956
330
D80
100
AcDbEntity
  8
0
  6
Continuous
 62
     3
100
AcDbLine
 10
96.08450000100004
 20
85.706000003
 30
0.0
 11
97.368500001
 21
86.776000003
 31
0.0
  0
LINE
  5
1957
330
D80
100
AcDbEntity
  8
0
  6
Continuous
 62
     3
100
AcDbLine
 10
97.529000001
 20
86.562000003
 30
0.0
 11
96.29850000100001
 21
85.492000003
 31
0.0
  0
LINE
  5
1958
330
D80
100
AcDbEntity
  8
0
  6
Continuous
 62
     3
100
AcDbLine
 10
97.65545454600001
 20
86.508500003
 30
0.0
 11
97.74300000100005
 21
86.401500003
 31
0.0
  0
LINE
  5
1959
330
D80
100
AcDbEntity
  8
0
  6
Continuous
 62
     3
100
AcDbLine
 10
97.261500001
 20
86.99000000299999
 30
0.0
 11
97.48036363700002
 21
86.722500003
 31
0.0
  0
LINE
  5
195A
330
D80
100
AcDbEntity
  8
0
  6
Continuous
 62
     3
100
AcDbLine
 10
96.03100000100001
 20
85.652500003
 30
0.0
 11
90.57400000100001
 21
85.652500003
 31
0.0
  0
LINE
  5
195B
330
D80
100
AcDbEntity
  8
0
  6
Continuous
 62
     3
100
AcDbLine
 10
89.87850000100001
 20
86.99000000299999
 30
0.0
 11
97.315000001
 21
86.99000000299999
 31
0.0
  0
LINE
  5
195C
330
D80
100
AcDbEntity
  8
0
  6
Continuous
 62
     3
100
AcDbLine
 10
89.87850000100001
 20
86.93650000299999
 30
0.0
 11
89.82500000100001
 21
86.89946154100002
 31
0.0
  0
LINE
  5
195D
330
D80
100
AcDbEntity
  8
0
  6
Continuous
 62
     3
100
AcDbLine
 10
89.50400000100001
 20
86.67723077199999
 30
0.0
 11
89.18300000100002
 21
86.455000003
 31
0.0
  0
LINE
  5
195E
330
D80
100
AcDbEntity
  8
0
  6
Continuous
 62
     3
100
AcDbLine
 10
89.77150000100001
 20
86.722500003
 30
0.0
 11
89.71800000100001
 21
86.776000003
 31
0.0
  0
LINE
  5
195F
330
D80
100
AcDbEntity
  8
0
  6
Continuous
 62
     3
100
AcDbLine
 10
89.71800000100001
 20
86.776000003
 30
0.0
 11
89.82500000100001
 21
86.88300000299999
 31
0.0
  0
LINE
  5
1960
330
D80
100
AcDbEntity
  8
0
  6
Continuous
 62
     3
100
AcDbLine
 10
89.55750000100001
 20
86.562000003
 30
0.0
 11
89.50400000100001
 21
86.669000003
 31
0.0
  0
LINE
  5
1961
330
D80
100
AcDbEntity
  8
0
  6
Continuous
 62
     3
100
AcDbLine
 10
95.121500001
 20
80.03500000299998
 30
0.0
 11
96.13800000100004
 21
79.50000000299998
 31
0.0
  0
LINE
  5
1962
330
D80
100
AcDbEntity
  8
0
  6
Continuous
 62
     3
100
AcDbLine
 10
96.566000001
 20
79.587545457
 30
0.0
 11
95.54950000099998
 21
80.142000003
 31
0.0
  0
LINE
  5
1963
330
D80
100
AcDbEntity
  8
0
  6
Continuous
 62
     3
100
AcDbLine
 10
95.53977272799999
 20
80.03500000299998
 30
0.0
 11
96.294609092
 21
85.492000003
 31
0.0
  0
LINE
  5
1964
330
D80
100
AcDbEntity
  8
0
  6
Continuous
 62
     3
100
AcDbLine
 10
96.566000001
 20
79.66050000299998
 30
0.0
 11
96.887000001
 21
79.87450000299998
 31
0.0
  0
LINE
  5
1965
330
D80
100
AcDbEntity
  8
0
  6
Continuous
 62
     3
100
AcDbLine
 10
97.75661818299999
 20
86.348000003
 30
0.0
 11
96.846145455
 21
79.82100000299998
 31
0.0
  0
LINE
  5
1966
330
D80
100
AcDbEntity
  8
0
  6
Continuous
 62
     3
100
AcDbLine
 10
88.594500001
 20
79.60700000299998
 30
0.0
 11
88.327000001
 21
79.87450000299998
 31
0.0
  0
LINE
  5
1967
330
D80
100
AcDbEntity
  8
0
  6
Continuous
 62
     3
100
AcDbLine
 10
89.61100000100001
 20
80.08850000299998
 30
0.0
 11
88.594500001
 21
79.674370373
 31
0.0
  0
LINE
  5
1968
330
D80
100
AcDbEntity
  8
0
  6
Continuous
 62
     3
100
AcDbLine
 10
90.14600000100001
 20
80.08850000299998
 30
0.0
 11
88.862000001
 21
79.44650000299998
 31
0.0
  0
LINE
  5
1969
330
D80
100
AcDbEntity
  8
0
  6
Continuous
 62
     3
100
AcDbLine
 10
90.432954546
 20
85.652500003
 30
0.0
 11
89.64699090999998
 21
79.98150000299998
 31
0.0
  0
LINE
  5
196A
330
D80
100
AcDbEntity
  8
0
  6
Continuous
 62
     3
100
AcDbLine
 10
88.31171428599999
 20
79.87450000299998
 30
0.0
 11
89.21357142899998
 21
86.455000003
 31
0.0
  0
LINE
  5
196B
330
D80
100
AcDbEntity
  8
0
  6
Continuous
 62
     3
100
AcDbLine
 10
95.068000001
 20
80.142000003
 30
0.0
 11
90.19950000100001
 21
80.142000003
 31
0.0
  0
LINE
  5
196C
330
D80
100
AcDbEntity
  8
0
  6
Continuous
 62
     3
100
AcDbLine
 10
78.181000001
 20
85.652500003
 30
0.0
 11
77.271500001
 21
86.722500003
 31
0.0
  0
LINE
  5
196D
330
D80
100
AcDbEntity
  8
0
  6
Continuous
 62
     3
100
AcDbLine
 10
77.913500001
 20
85.599000003
 30
0.0
 11
77.05750000099998
 21
86.562000003
 31
0.0
  0
LINE
  5
196E
330
D80
100
AcDbEntity
  8
0
  6
Continuous
 62
     3
100
AcDbLine
 10
83.58450000100001
 20
85.706000003
 30
0.0
 11
84.868500001
 21
86.776000003
 31
0.0
  0
LINE
  5
196F
330
D80
100
AcDbEntity
  8
0
  6
Continuous
 62
     3
100
AcDbLine
 10
85.029000001
 20
86.562000003
 30
0.0
 11
83.79850000100001
 21
85.492000003
 31
0.0
  0
LINE
  5
1970
330
D80
100
AcDbEntity
  8
0
  6
Continuous
 62
     3
100
AcDbLine
 10
84.761500001
 20
86.99000000299999
 30
0.0
 11
84.98036363699998
 21
86.722500003
 31
0.0
  0
LINE
  5
1971
330
D80
100
AcDbEntity
  8
0
  6
Continuous
 62
     3
100
AcDbLine
 10
83.53100000100001
 20
85.652500003
 30
0.0
 11
78.074000001
 21
85.652500003
 31
0.0
  0
LINE
  5
1972
330
D80
100
AcDbEntity
  8
0
  6
Continuous
 62
     3
100
AcDbLine
 10
77.378500001
 20
86.99000000299999
 30
0.0
 11
84.815000001
 21
86.99000000299999
 31
0.0
  0
LINE
  5
1973
330
D80
100
AcDbEntity
  8
0
  6
Continuous
 62
     3
100
AcDbLine
 10
77.378500001
 20
86.93650000299999
 30
0.0
 11
77.325000001
 21
86.89946154100002
 31
0.0
  0
LINE
  5
1974
330
D80
100
AcDbEntity
  8
0
  6
Continuous
 62
     3
100
AcDbLine
 10
77.00400000100001
 20
86.67723077199999
 30
0.0
 11
76.68300000100001
 21
86.455000003
 31
0.0
  0
LINE
  5
1975
330
D80
100
AcDbEntity
  8
0
  6
Continuous
 62
     3
100
AcDbLine
 10
77.271500001
 20
86.722500003
 30
0.0
 11
77.21800000099998
 21
86.776000003
 31
0.0
  0
LINE
  5
1976
330
D80
100
AcDbEntity
  8
0
  6
Continuous
 62
     3
100
AcDbLine
 10
77.21800000099998
 20
86.776000003
 30
0.0
 11
77.325000001
 21
86.88300000299999
 31
0.0
  0
LINE
  5
1977
330
D80
100
AcDbEntity
  8
0
  6
Continuous
 62
     3
100
AcDbLine
 10
77.05750000099998
 20
86.562000003
 30
0.0
 11
77.00400000100001
 21
86.669000003
 31
0.0
  0
LINE
  5
1978
330
D80
100
AcDbEntity
  8
0
  6
Continuous
 62
     3
100
AcDbLine
 10
75.81171428599998
 20
79.87450000299998
 30
0.0
 11
76.71357142899998
 21
86.455000003
 31
0.0
  0
LINE
  5
1979
330
D80
100
AcDbEntity
  8
0
  6
Continuous
 62
     3
100
AcDbLine
 10
77.11100000099998
 20
80.08850000299998
 30
0.0
 11
76.094500001
 21
79.674370373
 31
0.0
  0
LINE
  5
197A
330
D80
100
AcDbEntity
  8
0
  6
Continuous
 62
     3
100
AcDbLine
 10
77.646000001
 20
80.08850000299998
 30
0.0
 11
76.362000001
 21
79.44650000299998
 31
0.0
  0
LINE
  5
197B
330
D80
100
AcDbEntity
  8
0
  6
Continuous
 62
     3
100
AcDbLine
 10
77.932954546
 20
85.652500003
 30
0.0
 11
77.14699090999999
 21
79.98150000299998
 31
0.0
  0
LINE
  5
197C
330
D80
100
AcDbEntity
  8
0
  6
Continuous
 62
     3
100
AcDbLine
 10
82.621500001
 20
80.03500000299998
 30
0.0
 11
83.63800000100001
 21
79.50000000299998
 31
0.0
  0
LINE
  5
197D
330
D80
100
AcDbEntity
  8
0
  6
Continuous
 62
     3
100
AcDbLine
 10
84.066000001
 20
79.587545457
 30
0.0
 11
83.04950000099998
 21
80.142000003
 31
0.0
  0
LINE
  5
197E
330
D80
100
AcDbEntity
  8
0
  6
Continuous
 62
     3
100
AcDbLine
 10
83.039772728
 20
80.03500000299998
 30
0.0
 11
83.794609092
 21
85.492000003
 31
0.0
  0
LINE
  5
197F
330
D80
100
AcDbEntity
  8
0
  6
Continuous
 62
     3
100
AcDbLine
 10
82.568000001
 20
80.142000003
 30
0.0
 11
77.699500001
 21
80.142000003
 31
0.0
  0
LINE
  5
1980
330
D80
100
AcDbEntity
  8
0
  6
Continuous
 62
     3
100
AcDbLine
 10
84.066000001
 20
79.66050000299998
 30
0.0
 11
84.387000001
 21
79.87450000299998
 31
0.0
  0
LINE
  5
1981
330
D80
100
AcDbEntity
  8
0
  6
Continuous
 62
     3
100
AcDbLine
 10
85.25661818299999
 20
86.348000003
 30
0.0
 11
84.346145455
 21
79.82100000299998
 31
0.0
  0
POINT
  5
1982
330
D80
100
AcDbEntity
  8
0
  6
Continuous
 62
     3
100
AcDbPoint
 10
82.876354546
 20
78.911500003
 30
0.0
  0
LINE
  5
1983
330
D80
100
AcDbEntity
  8
0
  6
Continuous
 62
     3
100
AcDbLine
 10
83.63800000100001
 20
79.50000000299998
 30
0.0
 11
82.354000001
 21
78.804500003
 31
0.0
  0
LINE
  5
1984
330
D80
100
AcDbEntity
  8
0
  6
Continuous
 62
     3
100
AcDbLine
 10
84.01250000100001
 20
79.339500003
 30
0.0
 11
84.226500001
 21
79.232500003
 31
0.0
  0
LINE
  5
1985
330
D80
100
AcDbEntity
  8
0
  6
Continuous
 62
     3
100
AcDbLine
 10
82.83550000099998
 20
78.751000003
 30
0.0
 11
84.01250000100001
 21
79.36304000300001
 31
0.0
  0
LINE
  5
1986
330
D80
100
AcDbEntity
  8
0
  6
Continuous
 62
     3
100
AcDbLine
 10
75.987500001
 20
79.286000003
 30
0.0
 11
75.666500001
 21
79.018500003
 31
0.0
  0
LINE
  5
1987
330
D80
100
AcDbEntity
  8
0
  6
Continuous
 62
     3
100
AcDbLine
 10
77.21800000099998
 20
78.858000003
 30
0.0
 11
76.415500001
 21
79.339500003
 31
0.0
  0
LINE
  5
1988
330
D80
100
AcDbEntity
  8
0
  6
Continuous
 62
     3
100
AcDbLine
 10
75.987500001
 20
79.25925000300001
 30
0.0
 11
76.95050000100001
 21
78.697500003
 31
0.0
  0
LINE
  5
1989
330
D80
100
AcDbEntity
  8
0
  6
Continuous
 62
     3
100
AcDbLine
 10
77.271500001
 20
78.804500003
 30
0.0
 11
82.354000001
 21
78.804500003
 31
0.0
  0
LINE
  5
198A
330
D80
100
AcDbEntity
  8
0
  6
Continuous
 62
     3
100
AcDbLine
 10
74.81050000100001
 20
72.545000003
 30
0.0
 11
74.997750001
 21
72.277500003
 31
0.0
  0
LINE
  5
198B
330
D80
100
AcDbEntity
  8
0
  6
Continuous
 62
     3
100
AcDbLine
 10
75.18500000100002
 20
72.010000003
 30
0.0
 11
75.18500000100002
 21
72.010000003
 31
0.0
  0
LINE
  5
198C
330
D80
100
AcDbEntity
  8
0
  6
Continuous
 62
     3
100
AcDbLine
 10
76.148000001
 20
73.29400000300001
 30
0.0
 11
74.97100000100001
 21
72.252807695
 31
0.0
  0
LINE
  5
198D
330
D80
100
AcDbEntity
  8
0
  6
Continuous
 62
     3
100
AcDbLine
 10
76.62950000100001
 20
73.34750000300001
 30
0.0
 11
75.18500000100002
 21
72.063500003
 31
0.0
  0
LINE
  5
198E
330
D80
100
AcDbEntity
  8
0
  6
Continuous
 62
     3
100
AcDbLine
 10
82.140000001
 20
73.61500000300001
 30
0.0
 11
82.99600000099998
 21
72.331000003
 31
0.0
  0
LINE
  5
198F
330
D80
100
AcDbEntity
  8
0
  6
Continuous
 62
     3
100
AcDbLine
 10
82.675000001
 20
72.010000003
 30
0.0
 11
82.83550000099998
 21
72.138400003
 31
0.0
  0
LINE
  5
1990
330
D80
100
AcDbEntity
  8
0
  6
Continuous
 62
     3
100
AcDbLine
 10
82.99600000099998
 20
72.266800003
 30
0.0
 11
83.21000000099997
 21
72.438000003
 31
0.0
  0
LINE
  5
1991
330
D80
100
AcDbEntity
  8
0
  6
Continuous
 62
     3
100
AcDbLine
 10
81.926000001
 20
73.40100000300001
 30
0.0
 11
82.782000001
 21
72.063500003
 31
0.0
  0
LINE
  5
1992
330
D80
100
AcDbEntity
  8
0
  6
Continuous
 62
     3
100
AcDbLine
 10
82.675000001
 20
72.010000003
 30
0.0
 11
75.18500000100002
 21
72.010000003
 31
0.0
  0
LINE
  5
1993
330
D80
100
AcDbEntity
  8
0
  6
Continuous
 62
     3
100
AcDbLine
 10
81.926000001
 20
73.34750000300001
 30
0.0
 11
76.62950000100001
 21
73.34750000300001
 31
0.0
  0
LINE
  5
1994
330
D80
100
AcDbEntity
  8
0
  6
Continuous
 62
     3
100
AcDbLine
 10
82.11373636399999
 20
73.66850000300001
 30
0.0
 11
82.845227273
 21
78.697500003
 31
0.0
  0
LINE
  5
1995
330
D80
100
AcDbEntity
  8
0
  6
Continuous
 62
     3
100
AcDbLine
 10
84.252763637
 20
79.179000003
 30
0.0
 11
83.28003636399998
 21
72.491500003
 31
0.0
  0
LINE
  5
1996
330
D80
100
AcDbEntity
  8
0
  6
Continuous
 62
     3
100
AcDbLine
 10
74.73407142899998
 20
72.598500003
 30
0.0
 11
75.651214286
 21
79.018500003
 31
0.0
  0
LINE
  5
1997
330
D80
100
AcDbEntity
  8
0
  6
Continuous
 62
     3
100
AcDbLine
 10
76.960227273
 20
78.697500003
 30
0.0
 11
76.17426363699998
 21
73.29400000300001
 31
0.0
  0
LINE
  5
1998
330
D80
100
AcDbEntity
  8
0
  6
Continuous
 62
     3
100
AcDbLine
 10
71.08450000100001
 20
85.706000003
 30
0.0
 11
72.368500001
 21
86.776000003
 31
0.0
  0
LINE
  5
1999
330
D80
100
AcDbEntity
  8
0
  6
Continuous
 62
     3
100
AcDbLine
 10
72.529000001
 20
86.562000003
 30
0.0
 11
71.29850000100001
 21
85.492000003
 31
0.0
  0
LINE
  5
199A
330
D80
100
AcDbEntity
  8
0
  6
Continuous
 62
     3
100
AcDbLine
 10
72.261500001
 20
86.99000000299999
 30
0.0
 11
72.48036363699998
 21
86.722500003
 31
0.0
  0
LINE
  5
199B
330
D80
100
AcDbEntity
  8
0
  6
Continuous
 62
     3
100
AcDbLine
 10
71.56600000100002
 20
79.66050000299998
 30
0.0
 11
71.887000001
 21
79.87450000299998
 31
0.0
  0
LINE
  5
199C
330
D80
100
AcDbEntity
  8
0
  6
Continuous
 62
     3
100
AcDbLine
 10
70.121500001
 20
80.03500000299998
 30
0.0
 11
71.13800000100001
 21
79.50000000299998
 31
0.0
  0
LINE
  5
199D
330
D80
100
AcDbEntity
  8
0
  6
Continuous
 62
     3
100
AcDbLine
 10
71.56600000100002
 20
79.58754545800001
 30
0.0
 11
70.54950000099998
 21
80.142000003
 31
0.0
  0
LINE
  5
199E
330
D80
100
AcDbEntity
  8
0
  6
Continuous
 62
     3
100
AcDbLine
 10
72.756618183
 20
86.348000003
 30
0.0
 11
71.846145455
 21
79.82100000299998
 31
0.0
  0
LINE
  5
199F
330
D80
100
AcDbEntity
  8
0
  6
Continuous
 62
     3
100
AcDbLine
 10
70.539772728
 20
80.03500000299998
 30
0.0
 11
71.294609092
 21
85.492000003
 31
0.0
  0
LINE
  5
19A0
330
D80
100
AcDbEntity
  8
0
  6
Continuous
 62
     3
100
AcDbLine
 10
65.681000001
 20
85.652500003
 30
0.0
 11
64.771500001
 21
86.722500003
 31
0.0
  0
LINE
  5
19A1
330
D80
100
AcDbEntity
  8
0
  6
Continuous
 62
     3
100
AcDbLine
 10
65.413500001
 20
85.599000003
 30
0.0
 11
64.557500001
 21
86.562000003
 31
0.0
  0
LINE
  5
19A2
330
D80
100
AcDbEntity
  8
0
  6
Continuous
 62
     3
100
AcDbLine
 10
64.878500001
 20
86.93650000299999
 30
0.0
 11
64.825000001
 21
86.89946154200001
 31
0.0
  0
LINE
  5
19A3
330
D80
100
AcDbEntity
  8
0
  6
Continuous
 62
     3
100
AcDbLine
 10
64.50400000100001
 20
86.67723077199999
 30
0.0
 11
64.18300000100001
 21
86.455000003
 31
0.0
  0
LINE
  5
19A4
330
D80
100
AcDbEntity
  8
0
  6
Continuous
 62
     3
100
AcDbLine
 10
64.771500001
 20
86.722500003
 30
0.0
 11
64.718000001
 21
86.776000003
 31
0.0
  0
LINE
  5
19A5
330
D80
100
AcDbEntity
  8
0
  6
Continuous
 62
     3
100
AcDbLine
 10
64.718000001
 20
86.776000003
 30
0.0
 11
64.825000001
 21
86.88300000299999
 31
0.0
  0
LINE
  5
19A6
330
D80
100
AcDbEntity
  8
0
  6
Continuous
 62
     3
100
AcDbLine
 10
64.557500001
 20
86.562000003
 30
0.0
 11
64.50400000100001
 21
86.669000003
 31
0.0
  0
LINE
  5
19A7
330
D80
100
AcDbEntity
  8
0
  6
Continuous
 62
     3
100
AcDbLine
 10
63.594500001
 20
79.60700000299998
 30
0.0
 11
63.327000001
 21
79.87450000299998
 31
0.0
  0
LINE
  5
19A8
330
D80
100
AcDbEntity
  8
0
  6
Continuous
 62
     3
100
AcDbLine
 10
64.611000001
 20
80.08850000299998
 30
0.0
 11
63.594500001
 21
79.67437037399999
 31
0.0
  0
LINE
  5
19A9
330
D80
100
AcDbEntity
  8
0
  6
Continuous
 62
     3
100
AcDbLine
 10
65.146000001
 20
80.08850000299998
 30
0.0
 11
63.862000001
 21
79.44650000299998
 31
0.0
  0
LINE
  5
19AA
330
D80
100
AcDbEntity
  8
0
  6
Continuous
 62
     3
100
AcDbLine
 10
65.432954546
 20
85.652500003
 30
0.0
 11
64.64699090999999
 21
79.98150000299998
 31
0.0
  0
LINE
  5
19AB
330
D80
100
AcDbEntity
  8
0
  6
Continuous
 62
     3
100
AcDbLine
 10
63.31171428600001
 20
79.87450000299998
 30
0.0
 11
64.21357142899998
 21
86.455000003
 31
0.0
  0
LINE
  5
19AC
330
D80
100
AcDbEntity
  8
0
  6
Continuous
 62
     3
100
AcDbLine
 10
71.03100000100001
 20
85.652500003
 30
0.0
 11
65.574000001
 21
85.652500003
 31
0.0
  0
LINE
  5
19AD
330
D80
100
AcDbEntity
  8
0
  6
Continuous
 62
     3
100
AcDbLine
 10
64.878500001
 20
86.99000000299999
 30
0.0
 11
72.315000001
 21
86.99000000299999
 31
0.0
  0
LINE
  5
19AE
330
D80
100
AcDbEntity
  8
0
  6
Continuous
 62
     3
100
AcDbLine
 10
70.068000001
 20
80.142000003
 30
0.0
 11
65.199500001
 21
80.142000003
 31
0.0
  0
LINE
  5
19AF
330
D80
100
AcDbEntity
  8
0
  6
Continuous
 62
     3
100
AcDbLine
 10
63.487500001
 20
79.286000003
 30
0.0
 11
63.166500001
 21
79.018500003
 31
0.0
  0
LINE
  5
19B0
330
D80
100
AcDbEntity
  8
0
  6
Continuous
 62
     3
100
AcDbLine
 10
63.487500001
 20
79.25925000300001
 30
0.0
 11
64.45050000100001
 21
78.697500003
 31
0.0
  0
LINE
  5
19B1
330
D80
100
AcDbEntity
  8
0
  6
Continuous
 62
     3
100
AcDbLine
 10
64.718000001
 20
78.858000003
 30
0.0
 11
63.915500001
 21
79.339500003
 31
0.0
  0
LINE
  5
19B2
330
D80
100
AcDbEntity
  8
0
  6
Continuous
 62
     3
100
AcDbLine
 10
64.771500001
 20
78.804500003
 30
0.0
 11
69.854000001
 21
78.804500003
 31
0.0
  0
POINT
  5
19B3
330
D80
100
AcDbEntity
  8
0
  6
Continuous
 62
     3
100
AcDbPoint
 10
70.376354546
 20
78.911500003
 30
0.0
  0
LINE
  5
19B4
330
D80
100
AcDbEntity
  8
0
  6
Continuous
 62
     3
100
AcDbLine
 10
69.61373636399999
 20
73.66850000300001
 30
0.0
 11
70.345227273
 21
78.697500003
 31
0.0
  0
LINE
  5
19B5
330
D80
100
AcDbEntity
  8
0
  6
Continuous
 62
     3
100
AcDbLine
 10
71.13800000100001
 20
79.50000000299998
 30
0.0
 11
69.854000001
 21
78.804500003
 31
0.0
  0
LINE
  5
19B6
330
D80
100
AcDbEntity
  8
0
  6
Continuous
 62
     3
100
AcDbLine
 10
70.33550000099999
 20
78.751000003
 30
0.0
 11
71.51250000100001
 21
79.36304000300001
 31
0.0
  0
LINE
  5
19B7
330
D80
100
AcDbEntity
  8
0
  6
Continuous
 62
     3
100
AcDbLine
 10
69.640000001
 20
73.61500000300001
 30
0.0
 11
70.49600000099998
 21
72.331000003
 31
0.0
  0
LINE
  5
19B8
330
D80
100
AcDbEntity
  8
0
  6
Continuous
 62
     3
100
AcDbLine
 10
70.175000001
 20
72.010000003
 30
0.0
 11
70.33550000099999
 21
72.138400003
 31
0.0
  0
LINE
  5
19B9
330
D80
100
AcDbEntity
  8
0
  6
Continuous
 62
     3
100
AcDbLine
 10
70.49600000099998
 20
72.266800003
 30
0.0
 11
70.71000000099998
 21
72.438000003
 31
0.0
  0
LINE
  5
19BA
330
D80
100
AcDbEntity
  8
0
  6
Continuous
 62
     3
100
AcDbLine
 10
69.426000001
 20
73.40100000300001
 30
0.0
 11
70.282000001
 21
72.063500003
 31
0.0
  0
LINE
  5
19BB
330
D80
100
AcDbEntity
  8
0
  6
Continuous
 62
     3
100
AcDbLine
 10
71.752763637
 20
79.179000003
 30
0.0
 11
70.780036364
 21
72.491500003
 31
0.0
  0
LINE
  5
19BC
330
D80
100
AcDbEntity
  8
0
  6
Continuous
 62
     3
100
AcDbLine
 10
63.648000001
 20
73.29400000300001
 30
0.0
 11
62.47100000100001
 21
72.25280769600003
 31
0.0
  0
LINE
  5
19BD
330
D80
100
AcDbEntity
  8
0
  6
Continuous
 62
     3
100
AcDbLine
 10
62.310500001
 20
72.545000003
 30
0.0
 11
62.49775000100001
 21
72.277500003
 31
0.0
  0
LINE
  5
19BE
330
D80
100
AcDbEntity
  8
0
  6
Continuous
 62
     3
100
AcDbLine
 10
64.12950000100001
 20
73.34750000300001
 30
0.0
 11
62.68500000100001
 21
72.063500003
 31
0.0
  0
LINE
  5
19BF
330
D80
100
AcDbEntity
  8
0
  6
Continuous
 62
     3
100
AcDbLine
 10
62.68500000100001
 20
72.010000003
 30
0.0
 11
62.68500000100001
 21
72.010000003
 31
0.0
  0
LINE
  5
19C0
330
D80
100
AcDbEntity
  8
0
  6
Continuous
 62
     3
100
AcDbLine
 10
64.460227273
 20
78.697500003
 30
0.0
 11
63.67426363699999
 21
73.29400000300001
 31
0.0
  0
LINE
  5
19C1
330
D80
100
AcDbEntity
  8
0
  6
Continuous
 62
     3
100
AcDbLine
 10
62.234071429
 20
72.598500003
 30
0.0
 11
63.15121428600001
 21
79.018500003
 31
0.0
  0
LINE
  5
19C2
330
D80
100
AcDbEntity
  8
0
  6
Continuous
 62
     3
100
AcDbLine
 10
70.175000001
 20
72.010000003
 30
0.0
 11
62.68500000100001
 21
72.010000003
 31
0.0
  0
LINE
  5
19C3
330
D80
100
AcDbEntity
  8
0
  6
Continuous
 62
     3
100
AcDbLine
 10
69.426000001
 20
73.34750000300001
 30
0.0
 11
64.12950000100001
 21
73.34750000300001
 31
0.0
  0
LINE
  5
19C4
330
D80
100
AcDbEntity
  8
0
  6
Continuous
 62
     3
100
AcDbLine
 10
65.000000001
 20
89.800000003
 30
0.0
 11
70.000000001
 21
89.800000003
 31
0.0
  0
LINE
  5
19C5
330
D80
100
AcDbEntity
  8
0
  6
Continuous
 62
     3
100
AcDbLine
 10
70.000000001
 20
91.80000000299999
 30
0.0
 11
65.000000001
 21
91.80000000299999
 31
0.0
  0
LINE
  5
19C6
330
D80
100
AcDbEntity
  8
0
  6
Continuous
 62
     3
100
AcDbLine
 10
65.000000001
 20
91.80000000299999
 30
0.0
 11
65.000000001
 21
89.800000003
 31
0.0
  0
LINE
  5
19C7
330
D80
100
AcDbEntity
  8
0
  6
Continuous
 62
     3
100
AcDbLine
 10
70.000000001
 20
89.800000003
 30
0.0
 11
70.000000001
 21
91.80000000299999
 31
0.0
  0
LINE
  5
19C8
330
D80
100
AcDbEntity
  8
0
  6
Continuous
 62
     3
100
AcDbLine
 10
90.000000001
 20
89.800000003
 30
0.0
 11
85.000000001
 21
89.800000003
 31
0.0
  0
LINE
  5
19C9
330
D80
100
AcDbEntity
  8
0
  6
Continuous
 62
     3
100
AcDbLine
 10
85.000000001
 20
91.80000000299999
 30
0.0
 11
85.000000001
 21
89.800000003
 31
0.0
  0
LINE
  5
19CA
330
D80
100
AcDbEntity
  8
0
  6
Continuous
 62
     3
100
AcDbLine
 10
90.000000001
 20
89.800000003
 30
0.0
 11
90.000000001
 21
91.80000000299999
 31
0.0
  0
LINE
  5
19CB
330
D80
100
AcDbEntity
  8
0
  6
Continuous
 62
     3
100
AcDbLine
 10
85.000000001
 20
91.80000000299999
 30
0.0
 11
90.000000001
 21
91.80000000299999
 31
0.0
  0
LINE
  5
19CC
330
D80
100
AcDbEntity
  8
0
  6
Continuous
 62
     3
100
AcDbLine
 10
110.000000001
 20
91.80000000299999
 30
0.0
 11
105.000000001
 21
91.80000000299999
 31
0.0
  0
LINE
  5
19CD
330
D80
100
AcDbEntity
  8
0
  6
Continuous
 62
     3
100
AcDbLine
 10
105.000000001
 20
91.80000000299999
 30
0.0
 11
105.000000001
 21
89.800000003
 31
0.0
  0
LINE
  5
19CE
330
D80
100
AcDbEntity
  8
0
  6
Continuous
 62
     3
100
AcDbLine
 10
105.000000001
 20
89.800000003
 30
0.0
 11
110.000000001
 21
89.800000003
 31
0.0
  0
LINE
  5
19CF
330
D80
100
AcDbEntity
  8
0
  6
Continuous
 62
     3
100
AcDbLine
 10
110.000000001
 20
89.800000003
 30
0.0
 11
110.000000001
 21
91.80000000299999
 31
0.0
  0
CIRCLE
  5
19D0
330
D80
100
AcDbEntity
  8
0
  6
Continuous
 62
     1
100
AcDbCircle
 10
119.4750000009999
 20
56.200000003
 30
0.0
 40
1.0
  0
LINE
  5
19D1
330
D80
100
AcDbEntity
  8
0
  6
Continuous
 62
     1
100
AcDbLine
 10
119.4750000009999
 20
56.610000003
 30
0.0
 11
119.4750000009999
 21
55.710000003
 31
0.0
  0
LINE
  5
19D2
330
D80
100
AcDbEntity
  8
0
  6
Continuous
 62
     1
100
AcDbLine
 10
118.6750000009999
 20
56.200000003
 30
0.0
 11
119.975000001
 21
56.200000003
 31
0.0
  0
CIRCLE
  5
19D3
330
D80
100
AcDbEntity
  8
0
  6
Continuous
 62
     3
100
AcDbCircle
 10
119.4750000009999
 20
56.200000003
 30
0.0
 40
1.5
  0
CIRCLE
  5
19D4
330
D80
100
AcDbEntity
  8
0
  6
Continuous
 62
     1
100
AcDbCircle
 10
111.4750000009999
 20
56.200000003
 30
0.0
 40
1.0
  0
LINE
  5
19D5
330
D80
100
AcDbEntity
  8
0
  6
Continuous
 62
     1
100
AcDbLine
 10
111.4750000009999
 20
56.610000003
 30
0.0
 11
111.4750000009999
 21
55.710000003
 31
0.0
  0
LINE
  5
19D6
330
D80
100
AcDbEntity
  8
0
  6
Continuous
 62
     1
100
AcDbLine
 10
110.675000001
 20
56.200000003
 30
0.0
 11
111.975000001
 21
56.200000003
 31
0.0
  0
CIRCLE
  5
19D7
330
D80
100
AcDbEntity
  8
0
  6
Continuous
 62
     3
100
AcDbCircle
 10
111.4750000009999
 20
56.200000003
 30
0.0
 40
1.5
  0
CIRCLE
  5
19D8
330
D80
100
AcDbEntity
  8
0
  6
Continuous
 62
     1
100
AcDbCircle
 10
103.475000001
 20
56.200000003
 30
0.0
 40
1.0
  0
LINE
  5
19D9
330
D80
100
AcDbEntity
  8
0
  6
Continuous
 62
     1
100
AcDbLine
 10
103.475000001
 20
56.610000003
 30
0.0
 11
103.475000001
 21
55.710000003
 31
0.0
  0
LINE
  5
19DA
330
D80
100
AcDbEntity
  8
0
  6
Continuous
 62
     1
100
AcDbLine
 10
102.675000001
 20
56.200000003
 30
0.0
 11
103.9750000009999
 21
56.200000003
 31
0.0
  0
CIRCLE
  5
19DB
330
D80
100
AcDbEntity
  8
0
  6
Continuous
 62
     3
100
AcDbCircle
 10
103.475000001
 20
56.200000003
 30
0.0
 40
1.5
  0
CIRCLE
  5
19DC
330
D80
100
AcDbEntity
  8
0
  6
Continuous
 62
     1
100
AcDbCircle
 10
88.725000001
 20
56.200000003
 30
0.0
 40
1.0
  0
LINE
  5
19DD
330
D80
100
AcDbEntity
  8
0
  6
Continuous
 62
     1
100
AcDbLine
 10
88.725000001
 20
56.610000003
 30
0.0
 11
88.725000001
 21
55.710000003
 31
0.0
  0
LINE
  5
19DE
330
D80
100
AcDbEntity
  8
0
  6
Continuous
 62
     1
100
AcDbLine
 10
87.925000001
 20
56.200000003
 30
0.0
 11
89.22500000099999
 21
56.200000003
 31
0.0
  0
CIRCLE
  5
19DF
330
D80
100
AcDbEntity
  8
0
  6
Continuous
 62
     3
100
AcDbCircle
 10
88.725000001
 20
56.200000003
 30
0.0
 40
1.5
  0
CIRCLE
  5
19E0
330
D80
100
AcDbEntity
  8
0
  6
Continuous
 62
     1
100
AcDbCircle
 10
80.72500000099998
 20
56.200000003
 30
0.0
 40
1.0
  0
LINE
  5
19E1
330
D80
100
AcDbEntity
  8
0
  6
Continuous
 62
     1
100
AcDbLine
 10
80.72500000099998
 20
56.610000003
 30
0.0
 11
80.72500000099998
 21
55.710000003
 31
0.0
  0
LINE
  5
19E2
330
D80
100
AcDbEntity
  8
0
  6
Continuous
 62
     1
100
AcDbLine
 10
79.925000001
 20
56.200000003
 30
0.0
 11
81.225000001
 21
56.200000003
 31
0.0
  0
CIRCLE
  5
19E3
330
D80
100
AcDbEntity
  8
0
  6
Continuous
 62
     3
100
AcDbCircle
 10
80.72500000099998
 20
56.200000003
 30
0.0
 40
1.5
  0
CIRCLE
  5
19E4
330
D80
100
AcDbEntity
  8
0
  6
Continuous
 62
     1
100
AcDbCircle
 10
72.72500000099999
 20
56.200000003
 30
0.0
 40
1.0
  0
LINE
  5
19E5
330
D80
100
AcDbEntity
  8
0
  6
Continuous
 62
     1
100
AcDbLine
 10
72.72500000099999
 20
56.610000003
 30
0.0
 11
72.72500000099999
 21
55.710000003
 31
0.0
  0
LINE
  5
19E6
330
D80
100
AcDbEntity
  8
0
  6
Continuous
 62
     1
100
AcDbLine
 10
71.925000001
 20
56.200000003
 30
0.0
 11
73.22500000099998
 21
56.200000003
 31
0.0
  0
CIRCLE
  5
19E7
330
D80
100
AcDbEntity
  8
0
  6
Continuous
 62
     3
100
AcDbCircle
 10
72.72500000099999
 20
56.200000003
 30
0.0
 40
1.5
  0
CIRCLE
  5
19E8
330
D80
100
AcDbEntity
  8
0
  6
Continuous
 62
     1
100
AcDbCircle
 10
64.725000001
 20
56.200000003
 30
0.0
 40
1.0
  0
LINE
  5
19E9
330
D80
100
AcDbEntity
  8
0
  6
Continuous
 62
     1
100
AcDbLine
 10
64.725000001
 20
56.610000003
 30
0.0
 11
64.725000001
 21
55.710000003
 31
0.0
  0
LINE
  5
19EA
330
D80
100
AcDbEntity
  8
0
  6
Continuous
 62
     1
100
AcDbLine
 10
63.925000001
 20
56.200000003
 30
0.0
 11
65.22500000099997
 21
56.200000003
 31
0.0
  0
CIRCLE
  5
19EB
330
D80
100
AcDbEntity
  8
0
  6
Continuous
 62
     3
100
AcDbCircle
 10
64.725000001
 20
56.200000003
 30
0.0
 40
1.5
  0
TEXT
  5
19EC
330
D80
100
AcDbEntity
  8
0
  6
Continuous
 62
     3
100
AcDbText
 10
60.375
 20
89.800000003
 30
0.0
 40
2.2
  1
ＨＩ
 41
0.88
  7
KANJI8
100
AcDbText
  0
TEXT
  5
19ED
330
D80
100
AcDbEntity
  8
0
  6
Continuous
 62
     3
100
AcDbText
 10
99.75000000100001
 20
89.800000003
 30
0.0
 40
2.2
  1
ＬＯ
 41
0.88
  7
KANJI8
100
AcDbText
  0
TEXT
  5
19EE
330
D80
100
AcDbEntity
  8
0
  6
Continuous
 62
     3
100
AcDbText
 10
80.12500000000001
 20
89.800000003
 30
0.0
 40
2.2
  1
ＧＯ
 41
0.88
  7
KANJI8
100
AcDbText
  0
TEXT
  5
19EF
330
D80
100
AcDbEntity
  8
0
  6
Continuous
 62
     3
100
AcDbText
 10
110.125000001
 20
51.875
 30
0.0
 40
2.2
  1
ＬＯ　ＳＥＴ
 41
0.88
  7
KANJI8
100
AcDbText
  0
LINE
  5
19F0
330
D80
100
AcDbEntity
  8
0
  6
Continuous
 62
     3
100
AcDbLine
 10
100.000000001
 20
52.875
 30
0.0
 11
108.375000001
 21
52.875
 31
0.0
  0
LINE
  5
19F1
330
D80
100
AcDbEntity
  8
0
  6
Continuous
 62
     3
100
AcDbLine
 10
122.875000001
 20
52.875
 30
0.0
 11
131.125000001
 21
52.875
 31
0.0
  0
LINE
  5
19F2
330
D80
100
AcDbEntity
  8
0
  6
Continuous
 62
     3
100
AcDbLine
 10
61.250000001
 20
52.875
 30
0.0
 11
69.625000001
 21
52.875
 31
0.0
  0
LINE
  5
19F3
330
D80
100
AcDbEntity
  8
0
  6
Continuous
 62
     3
100
AcDbLine
 10
84.12500000100001
 20
52.875
 30
0.0
 11
92.375000001
 21
52.875
 31
0.0
  0
TEXT
  5
19F4
330
D80
100
AcDbEntity
  8
0
  6
Continuous
 62
     3
100
AcDbText
 10
71.37500000100001
 20
51.875
 30
0.0
 40
2.2
  1
ＨＩ　ＳＥＴ
 41
0.88
  7
KANJI8
100
AcDbText
  0
LINE
  5
19F7
330
D80
100
AcDbEntity
  8
0
  6
Continuous
 62
     3
100
AcDbLine
 10
123.250000001
 20
85.500000001
 30
0.0
 11
123.250000001
 21
87.500000001
 31
0.0
  0
LINE
  5
19F8
330
D80
100
AcDbEntity
  8
0
  6
Continuous
 62
     3
100
AcDbLine
 10
128.250000001
 20
87.50000000200001
 30
0.0
 11
128.250000001
 21
85.50000000199998
 31
0.0
  0
LINE
  5
19F9
330
D80
100
AcDbEntity
  8
0
  6
Continuous
 62
     3
100
AcDbLine
 10
123.250000001
 20
87.500000001
 30
0.0
 11
128.250000001
 21
87.50000000200001
 31
0.0
  0
LINE
  5
19FA
330
D80
100
AcDbEntity
  8
0
  6
Continuous
 62
     3
100
AcDbLine
 10
128.250000001
 20
85.50000000199998
 30
0.0
 11
123.250000001
 21
85.500000001
 31
0.0
  0
TEXT
  5
19FB
330
D80
100
AcDbEntity
  8
0
  6
Continuous
 62
     3
100
AcDbText
 10
125.750000001
 20
89.800000003
 30
0.0
 40
2.2
  1
ＤＺ
 41
0.88
  7
KANJI8
100
AcDbText
  0
LINE
  5
19FC
330
D80
100
AcDbEntity
  8
0
  6
Continuous
 62
     3
100
AcDbLine
 10
124.375000001
 20
91.55000000299999
 30
0.0
 11
124.375000001
 21
88.17500000299999
 31
0.0
  0
CIRCLE
  5
1A06
330
D80
100
AcDbEntity
  8
0
  6
Continuous
 62
     1
100
AcDbCircle
 10
116.7500000009999
 20
79.50000000299998
 30
0.0
 40
1.25
  0
CIRCLE
  5
1A07
330
D80
100
AcDbEntity
  8
0
  6
Continuous
 62
     3
100
AcDbCircle
 10
116.7500000009999
 20
79.5
 30
0.0
 40
1.75
  0
TEXT
  5
1A08
330
D80
100
AcDbEntity
  8
0
  6
Continuous
 62
     3
100
AcDbText
 10
115.875000001
 20
73.0
 30
0.0
 40
2.2
  1
Ｅ
 41
0.88
  7
KANJI8
100
AcDbText
  0
LINE
  5
1A0B
330
D80
100
AcDbEntity
  8
0
  6
Continuous
 62
     3
100
AcDbLine
 10
114.250000001
 20
87.50000000200001
 30
0.0
 11
114.250000001
 21
85.50000000199998
 31
0.0
  0
LINE
  5
1A0C
330
D80
100
AcDbEntity
  8
0
  6
Continuous
 62
     3
100
AcDbLine
 10
119.250000001
 20
85.500000001
 30
0.0
 11
119.250000001
 21
87.500000001
 31
0.0
  0
LINE
  5
1A0D
330
D80
100
AcDbEntity
  8
0
  6
Continuous
 62
     3
100
AcDbLine
 10
119.250000001
 20
87.500000001
 30
0.0
 11
114.250000001
 21
87.50000000200001
 31
0.0
  0
LINE
  5
1A0E
330
D80
100
AcDbEntity
  8
0
  6
Continuous
 62
     3
100
AcDbLine
 10
114.250000001
 20
85.50000000199998
 30
0.0
 11
119.250000001
 21
85.500000001
 31
0.0
  0
TEXT
  5
1A0F
330
D80
100
AcDbEntity
  8
0
  6
Continuous
 62
     3
100
AcDbText
 10
116.7500000009999
 20
89.800000003
 30
0.0
 40
2.2
  1
ＰＨ
 41
0.88
  7
KANJI8
100
AcDbText
  0
LINE
  5
1A10
330
D80
100
AcDbEntity
  8
0
  6
Continuous
 62
     3
100
AcDbLine
 10
115.500000001
 20
91.80000000299999
 30
0.0
 11
115.500000001
 21
88.05000000299999
 31
0.0
  0
CIRCLE
  5
1A11
330
D80
100
AcDbEntity
  8
0
  6
Continuous
 62
     1
100
AcDbCircle
 10
122.750000001
 20
79.50000000299998
 30
0.0
 40
1.25
  0
CIRCLE
  5
1A12
330
D80
100
AcDbEntity
  8
0
  6
Continuous
 62
     3
100
AcDbCircle
 10
122.750000001
 20
79.5
 30
0.0
 40
1.75
  0
TEXT
  5
1A13
330
D80
100
AcDbEntity
  8
0
  6
Continuous
 62
     3
100
AcDbText
 10
121.875000001
 20
73.0
 30
0.0
 40
2.2
  1
Ｍ
 41
0.88
  7
KANJI8
100
AcDbText
  0
CIRCLE
  5
1A14
330
D80
100
AcDbEntity
  8
0
  6
Continuous
 62
     1
100
AcDbCircle
 10
128.750000001
 20
79.50000000299998
 30
0.0
 40
1.25
  0
CIRCLE
  5
1A15
330
D80
100
AcDbEntity
  8
0
  6
Continuous
 62
     3
100
AcDbCircle
 10
128.750000001
 20
79.5
 30
0.0
 40
1.75
  0
LINE
  5
1A16
330
D80
100
AcDbEntity
  8
0
  6
Continuous
 62
     3
100
AcDbLine
 10
128.750000001
 20
73.0
 30
0.0
 11
127.750000001
 21
73.0
 31
0.0
  0
LINE
  5
1A17
330
D80
100
AcDbEntity
  8
0
  6
Continuous
 62
     3
100
AcDbLine
 10
127.750000001
 20
73.0
 30
0.0
 11
128.750000001
 21
75.0
 31
0.0
  0
LINE
  5
1A18
330
D80
100
AcDbEntity
  8
0
  6
Continuous
 62
     3
100
AcDbLine
 10
128.750000001
 20
75.0
 30
0.0
 11
129.750000001
 21
73.0
 31
0.0
  0
LINE
  5
1A19
330
D80
100
AcDbEntity
  8
0
  6
Continuous
 62
     3
100
AcDbLine
 10
129.750000001
 20
73.0
 30
0.0
 11
128.750000001
 21
73.0
 31
0.0
  0
CIRCLE
  5
1A1A
330
D80
100
AcDbEntity
  8
0
  6
Continuous
 62
     1
100
AcDbCircle
 10
134.750000001
 20
79.50000000299998
 30
0.0
 40
1.25
  0
CIRCLE
  5
1A1B
330
D80
100
AcDbEntity
  8
0
  6
Continuous
 62
     3
100
AcDbCircle
 10
134.750000001
 20
79.5
 30
0.0
 40
1.75
  0
LINE
  5
1A1C
330
D80
100
AcDbEntity
  8
0
  6
Continuous
 62
     3
100
AcDbLine
 10
133.750000001
 20
73.0
 30
0.0
 11
133.750000001
 21
75.0
 31
0.0
  0
LINE
  5
1A1D
330
D80
100
AcDbEntity
  8
0
  6
Continuous
 62
     3
100
AcDbLine
 10
133.750000001
 20
75.0
 30
0.0
 11
135.750000001
 21
74.0
 31
0.0
  0
LINE
  5
1A1E
330
D80
100
AcDbEntity
  8
0
  6
Continuous
 62
     3
100
AcDbLine
 10
135.750000001
 20
74.0
 30
0.0
 11
133.750000001
 21
73.0
 31
0.0
  0
LINE
  5
1A21
330
D80
100
AcDbEntity
  8
0
  6
Continuous
 62
     3
100
AcDbLine
 10
132.250000001
 20
85.500000001
 30
0.0
 11
132.250000001
 21
87.500000001
 31
0.0
  0
LINE
  5
1A22
330
D80
100
AcDbEntity
  8
0
  6
Continuous
 62
     3
100
AcDbLine
 10
137.250000001
 20
87.50000000200001
 30
0.0
 11
137.250000001
 21
85.50000000199998
 31
0.0
  0
LINE
  5
1A23
330
D80
100
AcDbEntity
  8
0
  6
Continuous
 62
     3
100
AcDbLine
 10
132.250000001
 20
87.500000001
 30
0.0
 11
137.250000001
 21
87.50000000200001
 31
0.0
  0
LINE
  5
1A24
330
D80
100
AcDbEntity
  8
0
  6
Continuous
 62
     3
100
AcDbLine
 10
137.250000001
 20
85.50000000199998
 30
0.0
 11
132.250000001
 21
85.500000001
 31
0.0
  0
LINE
  5
1A25
330
D80
100
AcDbEntity
  8
0
  6
Continuous
 62
     3
100
AcDbLine
 10
133.375000001
 20
91.55000000299999
 30
0.0
 11
133.375000001
 21
88.17500000299999
 31
0.0
  0
TEXT
  5
1A26
330
D80
100
AcDbEntity
  8
0
  6
Continuous
 62
     3
100
AcDbText
 10
134.750000001
 20
89.800000003
 30
0.0
 40
2.2
  1
ＭＥ
 41
0.88
  7
KANJI8
100
AcDbText
  0
LINE
  5
1A27
330
D80
100
AcDbEntity
  8
0
  6
Continuous
 62
     3
100
AcDbLine
 10
133.750000001
 20
114.7499999999999
 30
0.0
 11
133.750000001
 21
114.25
 31
0.0
  0
LINE
  5
1A28
330
D80
100
AcDbEntity
  8
0
  6
Continuous
 62
     3
100
AcDbLine
 10
133.750000001
 20
114.25
 30
0.0
 11
135.750000001
 21
114.25
 31
0.0
  0
LINE
  5
1A29
330
D80
100
AcDbEntity
  8
0
  6
Continuous
 62
     3
100
AcDbLine
 10
135.750000001
 20
114.25
 30
0.0
 11
135.750000001
 21
114.7499999999999
 31
0.0
  0
LINE
  5
1A2A
330
D80
100
AcDbEntity
  8
0
  6
Continuous
 62
     3
100
AcDbLine
 10
135.750000001
 20
114.7499999999999
 30
0.0
 11
133.750000001
 21
114.7499999999999
 31
0.0
  0
LINE
  5
1A2B
330
D80
100
AcDbEntity
  8
0
  6
Continuous
 62
     3
100
AcDbLine
 10
127.750000001
 20
114.7499999999999
 30
0.0
 11
127.750000001
 21
114.25
 31
0.0
  0
LINE
  5
1A2C
330
D80
100
AcDbEntity
  8
0
  6
Continuous
 62
     3
100
AcDbLine
 10
127.750000001
 20
114.25
 30
0.0
 11
129.750000001
 21
114.25
 31
0.0
  0
LINE
  5
1A2D
330
D80
100
AcDbEntity
  8
0
  6
Continuous
 62
     3
100
AcDbLine
 10
129.750000001
 20
114.25
 30
0.0
 11
129.750000001
 21
114.7499999999999
 31
0.0
  0
LINE
  5
1A2E
330
D80
100
AcDbEntity
  8
0
  6
Continuous
 62
     3
100
AcDbLine
 10
129.750000001
 20
114.7499999999999
 30
0.0
 11
127.750000001
 21
114.7499999999999
 31
0.0
  0
LINE
  5
1A2F
330
D80
100
AcDbEntity
  8
0
  6
Continuous
 62
     3
100
AcDbLine
 10
121.750000001
 20
114.7499999999999
 30
0.0
 11
121.750000001
 21
114.25
 31
0.0
  0
LINE
  5
1A30
330
D80
100
AcDbEntity
  8
0
  6
Continuous
 62
     3
100
AcDbLine
 10
121.750000001
 20
114.25
 30
0.0
 11
123.750000001
 21
114.25
 31
0.0
  0
LINE
  5
1A31
330
D80
100
AcDbEntity
  8
0
  6
Continuous
 62
     3
100
AcDbLine
 10
123.750000001
 20
114.25
 30
0.0
 11
123.750000001
 21
114.7499999999999
 31
0.0
  0
LINE
  5
1A32
330
D80
100
AcDbEntity
  8
0
  6
Continuous
 62
     3
100
AcDbLine
 10
123.750000001
 20
114.7499999999999
 30
0.0
 11
121.750000001
 21
114.7499999999999
 31
0.0
  0
LINE
  5
1A33
330
D80
100
AcDbEntity
  8
0
  6
Continuous
 62
     3
100
AcDbLine
 10
115.7500000009999
 20
114.7499999999999
 30
0.0
 11
115.7500000009999
 21
114.25
 31
0.0
  0
LINE
  5
1A34
330
D80
100
AcDbEntity
  8
0
  6
Continuous
 62
     3
100
AcDbLine
 10
115.7500000009999
 20
114.25
 30
0.0
 11
117.7500000009999
 21
114.25
 31
0.0
  0
LINE
  5
1A35
330
D80
100
AcDbEntity
  8
0
  6
Continuous
 62
     3
100
AcDbLine
 10
117.7500000009999
 20
114.25
 30
0.0
 11
117.7500000009999
 21
114.7499999999999
 31
0.0
  0
LINE
  5
1A36
330
D80
100
AcDbEntity
  8
0
  6
Continuous
 62
     3
100
AcDbLine
 10
117.7500000009999
 20
114.7499999999999
 30
0.0
 11
115.7500000009999
 21
114.7499999999999
 31
0.0
  0
LINE
  5
1A37
330
D80
100
AcDbEntity
  8
0
  6
Continuous
 62
     3
100
AcDbLine
 10
49.56639110899999
 20
114.5
 30
0.0
 11
115.7500000009999
 21
114.5
 31
0.0
  0
LINE
  5
1A38
330
D80
100
AcDbEntity
  8
0
  6
Continuous
 62
     3
100
AcDbLine
 10
117.7500000009999
 20
114.5
 30
0.0
 11
121.750000001
 21
114.5
 31
0.0
  0
LINE
  5
1A39
330
D80
100
AcDbEntity
  8
0
  6
Continuous
 62
     3
100
AcDbLine
 10
123.750000001
 20
114.5
 30
0.0
 11
127.750000001
 21
114.5
 31
0.0
  0
LINE
  5
1A3A
330
D80
100
AcDbEntity
  8
0
  6
Continuous
 62
     3
100
AcDbLine
 10
135.750000001
 20
114.5
 30
0.0
 11
144.433608891
 21
114.5
 31
0.0
  0
LINE
  5
1A3B
330
D80
100
AcDbEntity
  8
0
  6
Continuous
 62
     3
100
AcDbLine
 10
129.750000001
 20
114.5
 30
0.0
 11
133.750000001
 21
114.5
 31
0.0
  0
LINE
  5
1A3C
330
D80
100
AcDbEntity
  8
0
  6
Continuous
 62
     3
100
AcDbLine
 10
192.1
 20
114.6249999999999
 30
0.0
 11
192.1
 21
114.3
 31
0.0
  0
LINE
  5
1A3D
330
D80
100
AcDbEntity
  8
0
  6
Continuous
 62
     3
100
AcDbLine
 10
192.4
 20
114.0
 30
0.0
 11
192.1
 21
114.3
 31
0.0
  0
LINE
  5
1A3E
330
D80
100
AcDbEntity
  8
0
  6
Continuous
 62
     3
100
AcDbLine
 10
194.1
 20
114.3
 30
0.0
 11
194.1
 21
114.5
 31
0.0
  0
LINE
  5
1A3F
330
D80
100
AcDbEntity
  8
0
  6
Continuous
 62
     3
100
AcDbLine
 10
192.4
 20
114.0
 30
0.0
 11
193.8
 21
114.0
 31
0.0
  0
LINE
  5
1A40
330
D80
100
AcDbEntity
  8
0
  6
Continuous
 62
     3
100
AcDbLine
 10
194.1
 20
114.3
 30
0.0
 11
193.8
 21
114.0
 31
0.0
  0
LINE
  5
1A42
330
D80
100
AcDbEntity
  8
0
  6
Continuous
 62
     4
100
AcDbLine
 10
217.8
 20
114.5
 30
0.0
 11
244.95
 21
114.5
 31
0.0
  0
LINE
  5
1A43
330
D80
100
AcDbEntity
  8
0
  6
Continuous
 62
     4
100
AcDbLine
 10
207.2999999999999
 20
114.5
 30
0.0
 11
215.0
 21
114.5
 31
0.0
  0
LINE
  5
1A44
330
D80
100
AcDbEntity
  8
0
  6
Continuous
 62
     1
100
AcDbLine
 10
217.3999999999999
 20
114.7
 30
0.0
 11
215.3999999999999
 21
114.7
 31
0.0
  0
LINE
  5
1A45
330
D80
100
AcDbEntity
  8
0
  6
Continuous
 62
     3
100
AcDbLine
 10
217.3999999999999
 20
114.7
 30
0.0
 11
217.0999999999999
 21
114.4
 31
0.0
  0
LINE
  5
1A46
330
D80
100
AcDbEntity
  8
0
  6
Continuous
 62
     3
100
AcDbLine
 10
217.3999999999999
 20
114.7
 30
0.0
 11
217.3999999999999
 21
115.1
 31
0.0
  0
ARC
  5
1A47
330
D80
100
AcDbEntity
  8
0
  6
Continuous
 62
     3
100
AcDbCircle
 10
199.6
 20
368.1249999999997
 30
0.0
 40
253.6249999999999
100
AcDbArc
 50
269.9999987929999
 51
274.992487824
  0
LINE
  5
1A48
330
D80
100
AcDbEntity
  8
0
  6
Continuous
 62
     3
100
AcDbLine
 10
215.3999999999999
 20
114.9
 30
0.0
 11
215.3999999999999
 21
114.7
 31
0.0
  0
LINE
  5
1A49
330
D80
100
AcDbEntity
  8
0
  6
Continuous
 62
     3
100
AcDbLine
 10
215.3999999999999
 20
114.7
 30
0.0
 11
215.7
 21
114.4
 31
0.0
  0
LINE
  5
1A4A
330
D80
100
AcDbEntity
  8
0
  6
Continuous
 62
     3
100
AcDbLine
 10
215.7
 20
114.4
 30
0.0
 11
217.0999999999999
 21
114.4
 31
0.0
  0
LINE
  5
1A4B
330
D80
100
AcDbEntity
  8
0
  6
Continuous
 62
     4
100
AcDbLine
 10
192.1
 20
114.0
 30
0.0
 11
186.0
 21
114.0
 31
0.0
  0
LINE
  5
1A4C
330
D80
100
AcDbEntity
  8
0
  6
Continuous
 62
     4
100
AcDbLine
 10
187.0
 20
114.0
 30
0.0
 11
186.534125719
 21
112.261333513
 31
0.0
  0
LINE
  5
1A4D
330
D80
100
AcDbEntity
  8
0
  6
Continuous
 62
     4
100
AcDbLine
 10
187.0
 20
114.0
 30
0.0
 11
187.465874281
 21
112.261333513
 31
0.0
  0
LINE
  5
1A4E
330
D80
100
AcDbEntity
  8
0
  6
Continuous
 62
     4
100
AcDbLine
 10
187.0
 20
105.2999999999999
 30
0.0
 11
187.0
 21
114.0
 31
0.0
  0
LINE
  5
1A4F
330
D80
100
AcDbEntity
  8
0
  6
Continuous
 62
     4
100
AcDbLine
 10
187.0
 20
114.0
 30
0.0
 11
187.0
 21
114.610916318
 31
0.0
  0
LINE
  5
1A50
330
D80
100
AcDbEntity
  8
0
  6
Continuous
 62
     4
100
AcDbLine
 10
187.0
 20
114.610916318
 30
0.0
 11
187.0
 21
117.3109163179999
 31
0.0
  0
LINE
  5
1A51
330
D80
100
AcDbEntity
  8
0
  6
Continuous
 62
     4
100
AcDbLine
 10
187.0
 20
114.610916318
 30
0.0
 11
187.465874281
 21
116.349582806
 31
0.0
  0
LINE
  5
1A52
330
D80
100
AcDbEntity
  8
0
  6
Continuous
 62
     4
100
AcDbLine
 10
187.0
 20
114.610916318
 30
0.0
 11
186.534125719
 21
116.349582806
 31
0.0
  0
TEXT
  5
1A53
330
D80
100
AcDbEntity
  8
0
  6
Continuous
 62
     4
100
AcDbText
 10
186.0
 20
105.9
 30
0.0
 40
2.0
  1
０.５
 50
90.0
  7
KANJI3
100
AcDbText
  0
TEXT
  5
1A54
330
D80
100
AcDbEntity
  8
0
  6
Continuous
 62
     1
100
AcDbText
 10
42.578
 20
156.12
 30
0.24
 40
2.399999999999999
  1
７１
 50
90.0
 41
0.833333333
  7
KANJI7
100
AcDbText
  0
LINE
  5
1A55
330
D80
100
AcDbEntity
  8
0
  6
Continuous
 62
     1
100
AcDbLine
 10
43.7
 20
123.5
 30
0.24
 11
43.18236190999999
 21
121.568148347
 31
0.24
  0
LINE
  5
1A56
330
D80
100
AcDbEntity
  8
0
  6
Continuous
 62
     1
100
AcDbLine
 10
43.7
 20
123.5
 30
0.0
 11
44.21763809
 21
121.568148347
 31
0.0
  0
TEXT
  5
1A57
330
D80
100
AcDbEntity
  8
0
  6
Continuous
 62
     1
100
AcDbText
 10
42.7
 20
118.0
 30
0.25
 40
2.5
  1
９
 50
90.0
 41
0.8
  7
KANJI10
100
AcDbText
  0
LINE
  5
1A58
330
D80
100
AcDbEntity
  8
0
  6
Continuous
 62
     1
100
AcDbLine
 10
43.7
 20
114.5
 30
0.25
 11
44.21763809
 21
116.431851653
 31
0.25
  0
LINE
  5
1A59
330
D80
100
AcDbEntity
  8
0
  6
Continuous
 62
     1
100
AcDbLine
 10
43.7
 20
114.5
 30
0.0
 11
43.18236190999999
 21
116.431851653
 31
0.0
  0
LINE
  5
1A5A
330
D80
100
AcDbEntity
  8
0
  6
Continuous
 62
     1
100
AcDbLine
 10
37.0
 20
114.5
 30
0.0
 11
37.51763808999999
 21
116.431851653
 31
0.0
  0
LINE
  5
1A5B
330
D80
100
AcDbEntity
  8
0
  6
Continuous
 62
     1
100
AcDbLine
 10
37.0
 20
114.5
 30
0.0
 11
36.48236191
 21
116.431851653
 31
0.0
  0
LINE
  5
1A5C
330
D80
100
AcDbEntity
  8
0
  6
Continuous
 62
     1
100
AcDbLine
 10
49.0
 20
123.5
 30
0.0
 11
41.2
 21
123.5
 31
0.0
  0
LINE
  5
1A5D
330
D80
100
AcDbEntity
  8
0
  6
Continuous
 62
     1
100
AcDbLine
 10
49.0
 20
123.5
 30
0.0
 11
42.2
 21
123.5
 31
0.0
  0
LINE
  5
1A5E
330
D80
100
AcDbEntity
  8
0
  6
Continuous
 62
     1
100
AcDbLine
 10
43.7
 20
122.9
 30
0.0
 11
43.7
 21
114.5
 31
0.0
  0
TEXT
  5
1A5F
330
D80
100
AcDbEntity
  8
0
  6
Continuous
 62
     1
100
AcDbText
 10
35.998
 20
164.9399999999999
 30
0.24
 40
2.399999999999999
  1
９８
 50
90.0
 41
0.833333333
  7
KANJI7
100
AcDbText
  0
LINE
  5
1A60
330
D80
100
AcDbEntity
  8
0
  6
Continuous
 62
     1
100
AcDbLine
 10
37.0
 20
114.5
 30
0.24
 11
37.0
 21
211.6
 31
0.24
  0
CIRCLE
  5
1A61
330
D80
100
AcDbEntity
  8
0
  6
Continuous
 62
     1
100
AcDbCircle
 10
134.750000001
 20
79.5
 30
0.0
 40
0.5
  0
CIRCLE
  5
1A62
330
D80
100
AcDbEntity
  8
0
  6
Continuous
 62
     1
100
AcDbCircle
 10
128.750000001
 20
79.5
 30
0.0
 40
0.5
  0
CIRCLE
  5
1A63
330
D80
100
AcDbEntity
  8
0
  6
Continuous
 62
     1
100
AcDbCircle
 10
122.750000001
 20
79.5
 30
0.0
 40
0.5
  0
CIRCLE
  5
1A64
330
D80
100
AcDbEntity
  8
0
  6
Continuous
 62
     1
100
AcDbCircle
 10
116.7500000009999
 20
79.5
 30
0.0
 40
0.5
  0
CIRCLE
  5
1A65
330
D80
100
AcDbEntity
  8
0
  6
Continuous
 62
     1
100
AcDbCircle
 10
127.475000001
 20
56.200000003
 30
0.0
 40
0.5
  0
CIRCLE
  5
1A66
330
D80
100
AcDbEntity
  8
0
  6
Continuous
 62
     1
100
AcDbCircle
 10
119.4750000009999
 20
56.200000003
 30
0.0
 40
0.5
  0
CIRCLE
  5
1A67
330
D80
100
AcDbEntity
  8
0
  6
Continuous
 62
     1
100
AcDbCircle
 10
111.4750000009999
 20
56.200000003
 30
0.0
 40
0.5
  0
CIRCLE
  5
1A68
330
D80
100
AcDbEntity
  8
0
  6
Continuous
 62
     1
100
AcDbCircle
 10
103.475000001
 20
56.200000003
 30
0.0
 40
0.5
  0
CIRCLE
  5
1A69
330
D80
100
AcDbEntity
  8
0
  6
Continuous
 62
     1
100
AcDbCircle
 10
88.725000001
 20
56.200000003
 30
0.0
 40
0.5
  0
CIRCLE
  5
1A6A
330
D80
100
AcDbEntity
  8
0
  6
Continuous
 62
     1
100
AcDbCircle
 10
80.72500000099998
 20
56.200000003
 30
0.0
 40
0.5
  0
CIRCLE
  5
1A6B
330
D80
100
AcDbEntity
  8
0
  6
Continuous
 62
     1
100
AcDbCircle
 10
72.72500000099999
 20
56.200000003
 30
0.0
 40
0.5
  0
CIRCLE
  5
1A6C
330
D80
100
AcDbEntity
  8
0
  6
Continuous
 62
     1
100
AcDbCircle
 10
64.725000001
 20
56.200000003
 30
0.0
 40
0.5
  0
LINE
  5
1A71
330
D80
100
AcDbEntity
  8
0
  6
Continuous
 62
     3
100
AcDbLine
 10
58.550000001
 20
80.10000000300001
 30
0.0
 11
59.95000000100001
 21
80.10000000300001
 31
0.0
  0
LINE
  5
1A72
330
D80
100
AcDbEntity
  8
0
  6
Continuous
 62
     3
100
AcDbLine
 10
59.95000000100001
 20
80.10000000300001
 30
0.0
 11
59.95000000100001
 21
78.900000003
 31
0.0
  0
LINE
  5
1A73
330
D80
100
AcDbEntity
  8
0
  6
Continuous
 62
     3
100
AcDbLine
 10
59.95000000100001
 20
78.900000003
 30
0.0
 11
57.550000001
 21
78.900000003
 31
0.0
  0
LINE
  5
1A74
330
D80
100
AcDbEntity
  8
0
  6
Continuous
 62
     3
100
AcDbLine
 10
283.06
 20
156.8319999999999
 30
0.0
 11
283.06
 21
174.8319999999999
 31
0.0
  0
LINE
  5
1A75
330
D80
100
AcDbEntity
  8
0
  6
Continuous
 62
     3
100
AcDbLine
 10
283.06
 20
174.8319999999999
 30
0.0
 11
319.0599999999997
 21
174.8319999999999
 31
0.0
  0
LINE
  5
1A76
330
D80
100
AcDbEntity
  8
0
  6
Continuous
 62
     3
100
AcDbLine
 10
319.0599999999997
 20
174.8319999999999
 30
0.0
 11
319.0599999999997
 21
156.8319999999999
 31
0.0
  0
LINE
  5
1A77
330
D80
100
AcDbEntity
  8
0
  6
Continuous
 62
     3
100
AcDbLine
 10
319.0599999999997
 20
156.8319999999999
 30
0.0
 11
283.06
 21
156.8319999999999
 31
0.0
  0
LINE
  5
1A78
330
D80
100
AcDbEntity
  8
0
  6
Continuous
 62
     3
100
AcDbLine
 10
331.0599999999999
 20
174.8319999999999
 30
0.0
 11
367.06
 21
174.8319999999999
 31
0.0
  0
LINE
  5
1A79
330
D80
100
AcDbEntity
  8
0
  6
Continuous
 62
     3
100
AcDbLine
 10
331.0599999999999
 20
156.8319999999999
 30
0.0
 11
331.0599999999999
 21
174.8319999999999
 31
0.0
  0
LINE
  5
1A7A
330
D80
100
AcDbEntity
  8
0
  6
Continuous
 62
     3
100
AcDbLine
 10
367.06
 20
174.8319999999999
 30
0.0
 11
367.06
 21
156.8319999999999
 31
0.0
  0
LINE
  5
1A7B
330
D80
100
AcDbEntity
  8
0
  6
Continuous
 62
     3
100
AcDbLine
 10
367.06
 20
156.8319999999999
 30
0.0
 11
331.0599999999999
 21
156.8319999999999
 31
0.0
  0
LINE
  5
1A7C
330
D80
100
AcDbEntity
  8
0
  6
Continuous
 62
     3
100
AcDbLine
 10
367.06
 20
147.232
 30
0.0
 11
367.06
 21
129.2319999999999
 31
0.0
  0
LINE
  5
1A7D
330
D80
100
AcDbEntity
  8
0
  6
Continuous
 62
     3
100
AcDbLine
 10
331.0599999999999
 20
147.232
 30
0.0
 11
367.06
 21
147.232
 31
0.0
  0
LINE
  5
1A7E
330
D80
100
AcDbEntity
  8
0
  6
Continuous
 62
     3
100
AcDbLine
 10
367.06
 20
129.2319999999999
 30
0.0
 11
331.0599999999999
 21
129.2319999999999
 31
0.0
  0
LINE
  5
1A7F
330
D80
100
AcDbEntity
  8
0
  6
Continuous
 62
     3
100
AcDbLine
 10
331.0599999999999
 20
129.2319999999999
 30
0.0
 11
331.0599999999999
 21
147.232
 31
0.0
  0
LINE
  5
1A80
330
D80
100
AcDbEntity
  8
0
  6
Continuous
 62
     3
100
AcDbLine
 10
319.0599999999997
 20
147.232
 30
0.0
 11
319.0599999999997
 21
129.2319999999999
 31
0.0
  0
LINE
  5
1A81
330
D80
100
AcDbEntity
  8
0
  6
Continuous
 62
     3
100
AcDbLine
 10
319.0599999999997
 20
129.2319999999999
 30
0.0
 11
283.06
 21
129.2319999999999
 31
0.0
  0
LINE
  5
1A82
330
D80
100
AcDbEntity
  8
0
  6
Continuous
 62
     3
100
AcDbLine
 10
283.06
 20
147.232
 30
0.0
 11
319.0599999999997
 21
147.232
 31
0.0
  0
LINE
  5
1A83
330
D80
100
AcDbEntity
  8
0
  6
Continuous
 62
     3
100
AcDbLine
 10
283.06
 20
129.2319999999999
 30
0.0
 11
283.06
 21
147.232
 31
0.0
  0
TEXT
  5
1A84
330
D80
100
AcDbEntity
  8
0
  6
Continuous
 62
     1
100
AcDbText
 10
380.14
 20
145.612
 30
0.12
 40
2.759999999999998
  1
ＭＩＮ.７０
 50
90.0
 41
0.739130435
  7
KANJI11
100
AcDbText
  0
LINE
  5
1A85
330
D80
100
AcDbEntity
  8
0
  6
Continuous
 62
     1
100
AcDbLine
 10
381.1
 20
165.8319999999999
 30
0.12
 11
380.4788342919998
 21
163.513778017
 31
0.12
  0
LINE
  5
1A86
330
D80
100
AcDbEntity
  8
0
  6
Continuous
 62
     1
100
AcDbLine
 10
381.1
 20
165.8319999999999
 30
0.0
 11
381.721165708
 21
163.513778017
 31
0.0
  0
LINE
  5
1A87
330
D80
100
AcDbEntity
  8
0
  6
Continuous
 62
     1
100
AcDbLine
 10
381.1
 20
138.2319999999999
 30
0.0
 11
381.721165708
 21
140.5502219829998
 31
0.0
  0
LINE
  5
1A88
330
D80
100
AcDbEntity
  8
0
  6
Continuous
 62
     1
100
AcDbLine
 10
381.1
 20
138.2319999999999
 30
0.0
 11
380.4788342919998
 21
140.5502219829998
 31
0.0
  0
LINE
  5
1A89
330
D80
100
AcDbEntity
  8
0
  6
Continuous
 62
     1
100
AcDbLine
 10
381.1
 20
165.8319999999999
 30
0.0
 11
381.1
 21
138.2319999999999
 31
0.0
  0
LINE
  5
1A8A
330
D80
100
AcDbEntity
  8
0
  6
Continuous
 62
     1
100
AcDbLine
 10
281.8599999999999
 20
174.8319999999999
 30
0.0
 11
272.2599999999999
 21
174.8319999999999
 31
0.0
  0
LINE
  5
1A8B
330
D80
100
AcDbEntity
  8
0
  6
Continuous
 62
     1
100
AcDbLine
 10
274.66
 20
174.8319999999999
 30
0.0
 11
274.0388342919998
 21
172.513778017
 31
0.0
  0
LINE
  5
1A8C
330
D80
100
AcDbEntity
  8
0
  6
Continuous
 62
     1
100
AcDbLine
 10
274.66
 20
174.8319999999999
 30
0.0
 11
275.281165708
 21
172.513778017
 31
0.0
  0
LINE
  5
1A8D
330
D80
100
AcDbEntity
  8
0
  6
Continuous
 62
     1
100
AcDbLine
 10
274.66
 20
174.8319999999999
 30
0.0
 11
274.66
 21
156.8319999999999
 31
0.0
  0
LINE
  5
1A8E
330
D80
100
AcDbEntity
  8
0
  6
Continuous
 62
     1
100
AcDbLine
 10
274.66
 20
156.8319999999999
 30
0.0
 11
275.281165708
 21
159.1502219829999
 31
0.0
  0
LINE
  5
1A8F
330
D80
100
AcDbEntity
  8
0
  6
Continuous
 62
     1
100
AcDbLine
 10
274.66
 20
156.8319999999999
 30
0.0
 11
274.0388342919998
 21
159.1502219829999
 31
0.0
  0
LINE
  5
1A90
330
D80
100
AcDbEntity
  8
0
  6
Continuous
 62
     1
100
AcDbLine
 10
281.8599999999999
 20
156.8319999999999
 30
0.0
 11
272.2599999999999
 21
156.8319999999999
 31
0.0
  0
TEXT
  5
1A91
330
D80
100
AcDbEntity
  8
0
  6
Continuous
 62
     1
100
AcDbText
 10
274.168
 20
165.1659999999999
 30
0.108
 40
2.483999999999999
  1
－０
 50
90.0
 41
0.739130435
  7
KANJI12
100
AcDbText
  0
TEXT
  5
1A92
330
D80
100
AcDbEntity
  8
0
  6
Continuous
 62
     1
100
AcDbText
 10
271.336
 20
165.1659999999999
 30
0.108
 40
2.483999999999999
  1
＋０.６
 50
90.0
 41
0.739130435
  7
KANJI12
100
AcDbText
  0
TEXT
  5
1A93
330
D80
100
AcDbEntity
  8
0
  6
Continuous
 62
     1
100
AcDbText
 10
272.6199999999999
 20
160.6119999999999
 30
0.12
 40
2.759999999999998
  1
４５
 50
90.0
 41
0.739130435
  7
KANJI11
100
AcDbText
  0
TEXT
  5
1A94
330
D80
100
AcDbEntity
  8
0
  6
Continuous
 62
     1
100
AcDbText
 10
295.96
 20
151.792
 30
0.12
 40
2.759999999999998
  1
９２
 41
0.739130435
  7
KANJI11
100
AcDbText
  0
TEXT
  5
1A95
330
D80
100
AcDbEntity
  8
0
  6
Continuous
 62
     1
100
AcDbText
 10
302.6739999999997
 20
150.844
 30
0.108
 40
2.483999999999999
  1
－０
 41
0.739130435
  7
KANJI12
100
AcDbText
  0
LINE
  5
1A96
330
D80
100
AcDbEntity
  8
0
  6
Continuous
 62
     1
100
AcDbLine
 10
283.06
 20
150.232
 30
0.108
 11
285.378221983
 21
149.610834292
 31
0.108
  0
LINE
  5
1A97
330
D80
100
AcDbEntity
  8
0
  6
Continuous
 62
     1
100
AcDbLine
 10
283.06
 20
150.232
 30
0.0
 11
285.378221983
 21
150.8531657079998
 31
0.0
  0
LINE
  5
1A98
330
D80
100
AcDbEntity
  8
0
  6
Continuous
 62
     1
100
AcDbLine
 10
283.06
 20
150.232
 30
0.0
 11
319.0599999999997
 21
150.232
 31
0.0
  0
LINE
  5
1A99
330
D80
100
AcDbEntity
  8
0
  6
Continuous
 62
     1
100
AcDbLine
 10
319.0599999999997
 20
150.232
 30
0.0
 11
316.741778017
 21
150.8531657079998
 31
0.0
  0
LINE
  5
1A9A
330
D80
100
AcDbEntity
  8
0
  6
Continuous
 62
     1
100
AcDbLine
 10
319.0599999999997
 20
150.232
 30
0.0
 11
316.741778017
 21
149.610834292
 31
0.0
  0
LINE
  5
1A9B
330
D80
100
AcDbEntity
  8
0
  6
Continuous
 62
     1
100
AcDbLine
 10
319.0599999999997
 20
155.632
 30
0.0
 11
319.0599999999997
 21
149.032
 31
0.0
  0
LINE
  5
1A9C
330
D80
100
AcDbEntity
  8
0
  6
Continuous
 62
     1
100
AcDbLine
 10
283.06
 20
155.632
 30
0.0
 11
283.06
 21
149.032
 31
0.0
  0
LINE
  5
1A9D
330
D80
100
AcDbEntity
  8
0
  6
Continuous
 62
     1
100
AcDbLine
 10
349.06
 20
180.472
 30
0.0
 11
349.06
 21
171.6879999999999
 31
0.0
  0
LINE
  5
1A9E
330
D80
100
AcDbEntity
  8
0
  6
Continuous
 62
     1
100
AcDbLine
 10
306.4359999999997
 20
138.2319999999999
 30
0.0
 11
341.3199999999998
 21
138.2319999999999
 31
0.0
  0
LINE
  5
1A9F
330
D80
100
AcDbEntity
  8
0
  6
Continuous
 62
     1
100
AcDbLine
 10
301.06
 20
180.472
 30
0.0
 11
301.06
 21
169.888
 31
0.0
  0
LINE
  5
1AA0
330
D80
100
AcDbEntity
  8
0
  6
Continuous
 62
     1
100
AcDbLine
 10
301.06
 20
160.888
 30
0.0
 11
301.06
 21
144.0879999999999
 31
0.0
  0
LINE
  5
1AA1
330
D80
100
AcDbEntity
  8
0
  6
Continuous
 62
     1
100
AcDbLine
 10
355.0359999999997
 20
165.8319999999999
 30
0.0
 11
382.3
 21
165.8319999999999
 31
0.0
  0
LINE
  5
1AA2
330
D80
100
AcDbEntity
  8
0
  6
Continuous
 62
     1
100
AcDbLine
 10
358.1199999999997
 20
138.2319999999999
 30
0.0
 11
382.3
 21
138.2319999999999
 31
0.0
  0
TEXT
  5
1AA3
330
D80
100
AcDbEntity
  8
0
  6
Continuous
 62
     1
100
AcDbText
 10
302.6739999999997
 20
153.6759999999999
 30
0.0
 40
2.483999999999999
  1
＋０.８
 41
0.739130435
  7
KANJI13
100
AcDbText
  0
LINE
  5
1AA4
330
D80
100
AcDbEntity
  8
0
  6
Continuous
 62
     1
100
AcDbLine
 10
349.06
 20
118.7119999999999
 30
0.0
 11
346.7417780169999
 21
119.3331657079997
 31
0.0
  0
LINE
  5
1AA5
330
D80
100
AcDbEntity
  8
0
  6
Continuous
 62
     1
100
AcDbLine
 10
349.06
 20
118.7119999999999
 30
0.0
 11
346.7417780169999
 21
118.090834292
 31
0.0
  0
LINE
  5
1AA6
330
D80
100
AcDbEntity
  8
0
  6
Continuous
 62
     1
100
AcDbLine
 10
349.06
 20
118.7119999999999
 30
0.0
 11
301.06
 21
118.7119999999999
 31
0.0
  0
LINE
  5
1AA7
330
D80
100
AcDbEntity
  8
0
  6
Continuous
 62
     1
100
AcDbLine
 10
301.06
 20
118.7119999999999
 30
0.0
 11
303.3782219829999
 21
118.090834292
 31
0.0
  0
LINE
  5
1AA8
330
D80
100
AcDbEntity
  8
0
  6
Continuous
 62
     1
100
AcDbLine
 10
301.06
 20
118.7119999999999
 30
0.0
 11
303.3782219829999
 21
119.3331657079997
 31
0.0
  0
TEXT
  5
1AA9
330
D80
100
AcDbEntity
  8
0
  6
Continuous
 62
     1
100
AcDbText
 10
317.56
 20
119.672
 30
0.12
 40
2.759999999999998
  1
ＭＩＮ.１２０
 41
0.739130435
  7
KANJI11
100
AcDbText
  0
LINE
  5
1AAA
330
D80
100
AcDbEntity
  8
0
  6
Continuous
 62
     1
100
AcDbLine
 10
301.06
 20
132.217
 30
0.12
 11
301.06
 21
116.312
 31
0.12
  0
LINE
  5
1AAB
330
D80
100
AcDbEntity
  8
0
  6
Continuous
 62
     1
100
AcDbLine
 10
277.156
 20
138.2319999999999
 30
0.0
 11
296.2359999999998
 21
138.2319999999999
 31
0.0
  0
LINE
  5
1AAC
330
D80
100
AcDbEntity
  8
0
  6
Continuous
 62
     1
100
AcDbLine
 10
298.036
 20
138.2319999999999
 30
0.0
 11
304.6359999999999
 21
138.2319999999999
 31
0.0
  0
LINE
  5
1AAD
330
D80
100
AcDbEntity
  8
0
  6
Continuous
 62
     1
100
AcDbLine
 10
301.06
 20
142.2879999999999
 30
0.0
 11
301.06
 21
134.217
 31
0.0
  0
LINE
  5
1AAE
330
D80
100
AcDbEntity
  8
0
  6
Continuous
 62
     1
100
AcDbLine
 10
349.06
 20
132.217
 30
0.0
 11
349.06
 21
116.312
 31
0.0
  0
LINE
  5
1AAF
330
D80
100
AcDbEntity
  8
0
  6
Continuous
 62
     1
100
AcDbLine
 10
343.72
 20
138.2319999999999
 30
0.0
 11
355.72
 21
138.2319999999999
 31
0.0
  0
LINE
  5
1AB0
330
D80
100
AcDbEntity
  8
0
  6
Continuous
 62
     1
100
AcDbLine
 10
349.06
 20
141.0879999999998
 30
0.0
 11
349.06
 21
134.6879999999994
 31
0.0
  0
LINE
  5
1AB1
330
D80
100
AcDbEntity
  8
0
  6
Continuous
 62
     1
100
AcDbLine
 10
349.06
 20
161.7279999999998
 30
0.0
 11
349.06
 21
142.888
 31
0.0
  0
LINE
  5
1AB2
330
D80
100
AcDbEntity
  8
0
  6
Continuous
 62
     1
100
AcDbLine
 10
305.836
 20
165.8319999999999
 30
0.0
 11
344.836
 21
165.8319999999999
 31
0.0
  0
LINE
  5
1AB3
330
D80
100
AcDbEntity
  8
0
  6
Continuous
 62
     1
100
AcDbLine
 10
349.06
 20
170.1279999999998
 30
0.0
 11
349.06
 21
163.4079999999999
 31
0.0
  0
LINE
  5
1AB4
330
D80
100
AcDbEntity
  8
0
  6
Continuous
 62
     1
100
AcDbLine
 10
346.6359999999998
 20
165.8319999999999
 30
0.0
 11
353.236
 21
165.8319999999999
 31
0.0
  0
LINE
  5
1AB5
330
D80
100
AcDbEntity
  8
0
  6
Continuous
 62
     1
100
AcDbLine
 10
277.3
 20
165.8319999999999
 30
0.0
 11
296.836
 21
165.8319999999999
 31
0.0
  0
LINE
  5
1AB6
330
D80
100
AcDbEntity
  8
0
  6
Continuous
 62
     1
100
AcDbLine
 10
298.6359999999999
 20
165.8319999999999
 30
0.0
 11
304.036
 21
165.8319999999999
 31
0.0
  0
LINE
  5
1AB7
330
D80
100
AcDbEntity
  8
0
  6
Continuous
 62
     1
100
AcDbLine
 10
301.06
 20
168.0879999999999
 30
0.0
 11
301.06
 21
162.6879999999998
 31
0.0
  0
TEXT
  5
1AB8
330
D80
100
AcDbEntity
  8
0
  6
Continuous
 62
     3
100
AcDbText
 10
312.5
 20
180.0375
 30
0.3
 40
3.0
  1
ＰＡＮＥＬ　ＣＵＴ
 41
0.9
 51
10.0
  7
KANJI14
100
AcDbText
  0
ENDSEC
  0
SECTION
  2
OBJECTS
  0
DICTIONARY
  5
D6E
330
0
100
AcDbDictionary
281
     1
  3
ACAD_GROUP
350
D6F
  3
ACAD_PLOTSTYLENAME
350
D70
  3
ACAD_MLINESTYLE
350
D78
  3
ACAD_PLOTSETTINGS
350
D7A
  3
ACAD_LAYOUT
350
D7B
  0
DICTIONARY
  5
D6F
102
{ACAD_REACTORS
330
D6E
102
}
330
D6E
100
AcDbDictionary
281
     1
  0
ACDBDICTIONARYWDFLT
  5
D70
102
{ACAD_REACTORS
330
D6E
102
}
330
D6E
100
AcDbDictionary
281
     1
  3
Normal
350
D71
100
AcDbDictionaryWithDefault
340
D71
  0
DICTIONARY
  5
D78
102
{ACAD_REACTORS
330
D6E
102
}
330
D6E
100
AcDbDictionary
281
     1
  3
Standard
350
D79
  0
DICTIONARY
  5
D7A
102
{ACAD_REACTORS
330
D6E
102
}
330
D6E
100
AcDbDictionary
281
     1
  0
DICTIONARY
  5
D7B
102
{ACAD_REACTORS
330
D6E
102
}
330
D6E
100
AcDbDictionary
281
     1
  3
ﾚｲｱｳﾄ1
350
D7F
  3
Model
350
D83
  0
ACDBPLACEHOLDER
  5
D71
102
{ACAD_REACTORS
330
D70
102
}
330
D70
  0
MLINESTYLE
  5
D79
102
{ACAD_REACTORS
330
D78
102
}
330
D78
100
AcDbMlineStyle
  2
STANDARD
 70
     0
  3

 62
   256
 51
90.0
 52
90.0
 71
     2
 49
0.5
 62
   256
  6
BYLAYER
 49
-0.5
 62
   256
  6
BYLAYER
  0
LAYOUT
  5
D7F
102
{ACAD_REACTORS
330
D7B
102
}
330
D7B
100
AcDbPlotSettings
  1

  2
Canon LBP-880
  4

  6

 40
0.0
 41
0.0
 42
0.0
 43
0.0
 44
0.0
 45
0.0
 46
0.0
 47
0.0
 48
0.0
 49
0.0
140
0.0
141
0.0
142
1.0
143
1.0
 70
   688
 72
     0
 73
     0
 74
     5
  7

 75
    16
147
1.0
148
0.0
149
0.0
100
AcDbLayout
  1
ﾚｲｱｳﾄ1
 70
     1
 71
     1
 10
0.0
 20
0.0
 11
12.0
 21
9.0
 12
0.0
 22
0.0
 32
0.0
 14
1.000000000000000E+20
 24
1.000000000000000E+20
 34
1.000000000000000E+20
 15
-1.000000000000000E+20
 25
-1.000000000000000E+20
 35
-1.000000000000000E+20
146
0.0
 13
0.0
 23
0.0
 33
0.0
 16
1.0
 26
0.0
 36
0.0
 17
0.0
 27
1.0
 37
0.0
 76
     0
330
D7C
  0
LAYOUT
  5
D83
102
{ACAD_REACTORS
330
D7B
102
}
330
D7B
100
AcDbPlotSettings
  1

  2
Canon LBP-880
  4

  6

 40
0.0
 41
0.0
 42
0.0
 43
0.0
 44
0.0
 45
0.0
 46
0.0
 47
0.0
 48
0.0
 49
0.0
140
0.0
141
0.0
142
1.0
143
1.0
 70
  1712
 72
     0
 73
     0
 74
     0
  7

 75
     0
147
1.0
148
0.0
149
0.0
100
AcDbLayout
  1
Model
 70
     1
 71
     0
 10
0.0
 20
0.0
 11
12.0
 21
9.0
 12
0.0
 22
0.0
 32
0.0
 14
0.0
 24
0.0
 34
0.0
 15
0.0
 25
0.0
 35
0.0
146
0.0
 13
0.0
 23
0.0
 33
0.0
 16
1.0
 26
0.0
 36
0.0
 17
0.0
 27
1.0
 37
0.0
 76
     0
330
D80
  0
ENDSEC
  0
EOF
