  0
SECTION
  2
HEADER
  9
$ACADVER
  1
AC1015
  9
$ACADMAINTVER
 70
     6
  9
$DWGCODEPAGE
  3
ANSI_932
  9
$INSBASE
 10
0.0
 20
0.0
 30
0.0
  9
$EXTMIN
 10
-966.5667349844319
 20
-486.1091390083851
 30
0.0
  9
$EXTMAX
 10
229.000000001
 20
242.799999999
 30
0.3
  9
$LIMMIN
 10
0.0
 20
0.0
  9
$LIMMAX
 10
420.0
 20
297.0
  9
$ORTHOMODE
 70
     0
  9
$REGENMODE
 70
     1
  9
$FILLMODE
 70
     1
  9
$QTEXTMODE
 70
     0
  9
$MIRRTEXT
 70
     1
  9
$LTSCALE
 40
1.0
  9
$ATTMODE
 70
     1
  9
$TEXTSIZE
 40
0.2
  9
$TRACEWID
 40
0.05
  9
$TEXTSTYLE
  7
STANDARD
  9
$CLAYER
  8
0
  9
$CELTYPE
  6
CONTINUOUS
  9
$CECOLOR
 62
   256
  9
$CELTSCALE
 40
1.0
  9
$DISPSILH
 70
     0
  9
$DIMSCALE
 40
1.0
  9
$DIMASZ
 40
0.18
  9
$DIMEXO
 40
0.0625
  9
$DIMDLI
 40
0.38
  9
$DIMRND
 40
0.0
  9
$DIMDLE
 40
0.0
  9
$DIMEXE
 40
0.18
  9
$DIMTP
 40
0.0
  9
$DIMTM
 40
0.0
  9
$DIMTXT
 40
0.18
  9
$DIMCEN
 40
0.09
  9
$DIMTSZ
 40
0.0
  9
$DIMTOL
 70
     0
  9
$DIMLIM
 70
     0
  9
$DIMTIH
 70
     1
  9
$DIMTOH
 70
     1
  9
$DIMSE1
 70
     0
  9
$DIMSE2
 70
     0
  9
$DIMTAD
 70
     0
  9
$DIMZIN
 70
     0
  9
$DIMBLK
  1

  9
$DIMASO
 70
     1
  9
$DIMSHO
 70
     1
  9
$DIMPOST
  1

  9
$DIMAPOST
  1

  9
$DIMALT
 70
     0
  9
$DIMALTD
 70
     2
  9
$DIMALTF
 40
25.4
  9
$DIMLFAC
 40
1.0
  9
$DIMTOFL
 70
     0
  9
$DIMTVP
 40
0.0
  9
$DIMTIX
 70
     0
  9
$DIMSOXD
 70
     0
  9
$DIMSAH
 70
     0
  9
$DIMBLK1
  1

  9
$DIMBLK2
  1

  9
$DIMSTYLE
  2
Standard
  9
$DIMCLRD
 70
     0
  9
$DIMCLRE
 70
     0
  9
$DIMCLRT
 70
     0
  9
$DIMTFAC
 40
1.0
  9
$DIMGAP
 40
0.09
  9
$DIMJUST
 70
     0
  9
$DIMSD1
 70
     0
  9
$DIMSD2
 70
     0
  9
$DIMTOLJ
 70
     1
  9
$DIMTZIN
 70
     0
  9
$DIMALTZ
 70
     0
  9
$DIMALTTZ
 70
     0
  9
$DIMUPT
 70
     0
  9
$DIMDEC
 70
     4
  9
$DIMTDEC
 70
     4
  9
$DIMALTU
 70
     2
  9
$DIMALTTD
 70
     2
  9
$DIMTXSTY
  7
STANDARD
  9
$DIMAUNIT
 70
     0
  9
$DIMADEC
 70
     0
  9
$DIMALTRND
 40
0.0
  9
$DIMAZIN
 70
     0
  9
$DIMDSEP
 70
    46
  9
$DIMATFIT
 70
     3
  9
$DIMFRAC
 70
     0
  9
$DIMLDRBLK
  1

  9
$DIMLUNIT
 70
     2
  9
$DIMLWD
 70
    -2
  9
$DIMLWE
 70
    -2
  9
$DIMTMOVE
 70
     0
  9
$LUNITS
 70
     2
  9
$LUPREC
 70
     4
  9
$SKETCHINC
 40
0.1
  9
$FILLETRAD
 40
0.0
  9
$AUNITS
 70
     0
  9
$AUPREC
 70
     0
  9
$MENU
  1
.
  9
$ELEVATION
 40
0.0
  9
$PELEVATION
 40
0.0
  9
$THICKNESS
 40
0.0
  9
$LIMCHECK
 70
     0
  9
$CHAMFERA
 40
0.0
  9
$CHAMFERB
 40
0.0
  9
$CHAMFERC
 40
0.0
  9
$CHAMFERD
 40
0.0
  9
$SKPOLY
 70
     0
  9
$TDCREATE
 40
2452699.648227546
  9
$TDUCREATE
 40
2452699.273227546
  9
$TDUPDATE
 40
2452699.653298032
  9
$TDUUPDATE
 40
2452699.278298032
  9
$TDINDWG
 40
0.0050704861
  9
$TDUSRTIMER
 40
0.0050704861
  9
$USRTIMER
 70
     1
  9
$ANGBASE
 50
0.0
  9
$ANGDIR
 70
     0
  9
$PDMODE
 70
     0
  9
$PDSIZE
 40
0.0
  9
$PLINEWID
 40
0.0
  9
$SPLFRAME
 70
     0
  9
$SPLINETYPE
 70
     6
  9
$SPLINESEGS
 70
     8
  9
$HANDSEED
  5
334
  9
$SURFTAB1
 70
     6
  9
$SURFTAB2
 70
     6
  9
$SURFTYPE
 70
     6
  9
$SURFU
 70
     6
  9
$SURFV
 70
     6
  9
$UCSBASE
  2

  9
$UCSNAME
  2

  9
$UCSORG
 10
0.0
 20
0.0
 30
0.0
  9
$UCSXDIR
 10
1.0
 20
0.0
 30
0.0
  9
$UCSYDIR
 10
0.0
 20
1.0
 30
0.0
  9
$UCSORTHOREF
  2

  9
$UCSORTHOVIEW
 70
     0
  9
$UCSORGTOP
 10
0.0
 20
0.0
 30
0.0
  9
$UCSORGBOTTOM
 10
0.0
 20
0.0
 30
0.0
  9
$UCSORGLEFT
 10
0.0
 20
0.0
 30
0.0
  9
$UCSORGRIGHT
 10
0.0
 20
0.0
 30
0.0
  9
$UCSORGFRONT
 10
0.0
 20
0.0
 30
0.0
  9
$UCSORGBACK
 10
0.0
 20
0.0
 30
0.0
  9
$PUCSBASE
  2

  9
$PUCSNAME
  2

  9
$PUCSORG
 10
0.0
 20
0.0
 30
0.0
  9
$PUCSXDIR
 10
1.0
 20
0.0
 30
0.0
  9
$PUCSYDIR
 10
0.0
 20
1.0
 30
0.0
  9
$PUCSORTHOREF
  2

  9
$PUCSORTHOVIEW
 70
     0
  9
$PUCSORGTOP
 10
0.0
 20
0.0
 30
0.0
  9
$PUCSORGBOTTOM
 10
0.0
 20
0.0
 30
0.0
  9
$PUCSORGLEFT
 10
0.0
 20
0.0
 30
0.0
  9
$PUCSORGRIGHT
 10
0.0
 20
0.0
 30
0.0
  9
$PUCSORGFRONT
 10
0.0
 20
0.0
 30
0.0
  9
$PUCSORGBACK
 10
0.0
 20
0.0
 30
0.0
  9
$USERI1
 70
     0
  9
$USERI2
 70
     0
  9
$USERI3
 70
     0
  9
$USERI4
 70
     0
  9
$USERI5
 70
     0
  9
$USERR1
 40
0.0
  9
$USERR2
 40
0.0
  9
$USERR3
 40
0.0
  9
$USERR4
 40
0.0
  9
$USERR5
 40
0.0
  9
$WORLDVIEW
 70
     1
  9
$SHADEDGE
 70
     3
  9
$SHADEDIF
 70
    70
  9
$TILEMODE
 70
     1
  9
$MAXACTVP
 70
    64
  9
$PINSBASE
 10
0.0
 20
0.0
 30
0.0
  9
$PLIMCHECK
 70
     0
  9
$PEXTMIN
 10
1.000000000000000E+20
 20
1.000000000000000E+20
 30
1.000000000000000E+20
  9
$PEXTMAX
 10
-1.000000000000000E+20
 20
-1.000000000000000E+20
 30
-1.000000000000000E+20
  9
$PLIMMIN
 10
0.0
 20
0.0
  9
$PLIMMAX
 10
12.0
 20
9.0
  9
$UNITMODE
 70
     0
  9
$VISRETAIN
 70
     1
  9
$PLINEGEN
 70
     0
  9
$PSLTSCALE
 70
     1
  9
$TREEDEPTH
 70
  3020
  9
$CMLSTYLE
  2
Standard
  9
$CMLJUST
 70
     0
  9
$CMLSCALE
 40
1.0
  9
$PROXYGRAPHICS
 70
     1
  9
$MEASUREMENT
 70
     0
  9
$CELWEIGHT
370
    -1
  9
$ENDCAPS
280
     0
  9
$JOINSTYLE
280
     0
  9
$LWDISPLAY
290
     0
  9
$INSUNITS
 70
     0
  9
$HYPERLINKBASE
  1

  9
$STYLESHEET
  1

  9
$XEDIT
290
     1
  9
$CEPSNTYPE
380
     0
  9
$PSTYLEMODE
290
     1
  9
$FINGERPRINTGUID
  2
{86783F52-D7A6-47F3-B33C-84A449A975D3}
  9
$VERSIONGUID
  2
{2A3640C1-EAE4-4967-9391-BEA4FAC1A9BF}
  9
$EXTNAMES
290
     1
  9
$PSVPSCALE
 40
0.0
  9
$OLESTARTUP
290
     0
  0
ENDSEC
  0
SECTION
  2
CLASSES
  0
CLASS
  1
ACDBDICTIONARYWDFLT
  2
AcDbDictionaryWithDefault
  3
AutoCAD 2000
 90
        0
280
     0
281
     0
  0
CLASS
  1
ACDBPLACEHOLDER
  2
AcDbPlaceHolder
  3
AutoCAD 2000
 90
        0
280
     0
281
     0
  0
CLASS
  1
LAYOUT
  2
AcDbLayout
  3
AutoCAD 2000
 90
        0
280
     0
281
     0
  0
ENDSEC
  0
SECTION
  2
TABLES
  0
TABLE
  2
VPORT
  5
8
330
0
100
AcDbSymbolTable
 70
     2
  0
VPORT
  5
333
330
8
100
AcDbSymbolTableRecord
100
AcDbViewportTableRecord
  2
*Active
 70
     0
 10
0.0
 20
0.0
 11
1.0
 21
1.0
 12
-861.8786339243756
 22
-400.1399569163472
 13
0.0
 23
0.0
 14
1.0
 24
1.0
 15
0.0
 25
0.0
 16
0.0
 26
0.0
 36
1.0
 17
0.0
 27
0.0
 37
0.0
 40
288.0000008298085
 41
1.761278195488721
 42
50.0
 43
0.0
 44
0.0
 50
0.0
 51
0.0
 71
     0
 72
   100
 73
     1
 74
     1
 75
     0
 76
     0
 77
     0
 78
     0
281
     0
 65
     1
110
0.0
120
0.0
130
0.0
111
1.0
121
0.0
131
0.0
112
0.0
122
1.0
132
0.0
 79
     0
146
0.0
  0
ENDTAB
  0
TABLE
  2
LTYPE
  5
5
330
0
100
AcDbSymbolTable
 70
     1
  0
LTYPE
  5
13
330
5
100
AcDbSymbolTableRecord
100
AcDbLinetypeTableRecord
  2
ByBlock
 70
     0
  3

 72
    65
 73
     0
 40
0.0
  0
LTYPE
  5
14
330
5
100
AcDbSymbolTableRecord
100
AcDbLinetypeTableRecord
  2
ByLayer
 70
     0
  3

 72
    65
 73
     0
 40
0.0
  0
LTYPE
  5
15
330
5
100
AcDbSymbolTableRecord
100
AcDbLinetypeTableRecord
  2
CONTINUOUS
 70
     0
  3
Solid line
 72
    65
 73
     0
 40
0.0
  0
ENDTAB
  0
TABLE
  2
LAYER
  5
2
330
0
100
AcDbSymbolTable
 70
   128
  0
LAYER
  5
10
330
2
100
AcDbSymbolTableRecord
100
AcDbLayerTableRecord
  2
0
 70
     0
 62
     7
  6
CONTINUOUS
370
    -3
390
F
  0
LAYER
  5
22
330
2
100
AcDbSymbolTableRecord
100
AcDbLayerTableRecord
  2
1
 70
     0
 62
     7
  6
CONTINUOUS
370
    -3
390
F
  0
LAYER
  5
23
330
2
100
AcDbSymbolTableRecord
100
AcDbLayerTableRecord
  2
2
 70
     0
 62
     7
  6
CONTINUOUS
370
    -3
390
F
  0
LAYER
  5
24
330
2
100
AcDbSymbolTableRecord
100
AcDbLayerTableRecord
  2
3
 70
     0
 62
     7
  6
CONTINUOUS
370
    -3
390
F
  0
LAYER
  5
25
330
2
100
AcDbSymbolTableRecord
100
AcDbLayerTableRecord
  2
4
 70
     0
 62
     7
  6
CONTINUOUS
370
    -3
390
F
  0
LAYER
  5
26
330
2
100
AcDbSymbolTableRecord
100
AcDbLayerTableRecord
  2
5
 70
     0
 62
     7
  6
CONTINUOUS
370
    -3
390
F
  0
LAYER
  5
27
330
2
100
AcDbSymbolTableRecord
100
AcDbLayerTableRecord
  2
6
 70
     0
 62
     7
  6
CONTINUOUS
370
    -3
390
F
  0
LAYER
  5
28
330
2
100
AcDbSymbolTableRecord
100
AcDbLayerTableRecord
  2
7
 70
     0
 62
     7
  6
CONTINUOUS
370
    -3
390
F
  0
LAYER
  5
29
330
2
100
AcDbSymbolTableRecord
100
AcDbLayerTableRecord
  2
8
 70
     0
 62
     7
  6
CONTINUOUS
370
    -3
390
F
  0
LAYER
  5
2A
330
2
100
AcDbSymbolTableRecord
100
AcDbLayerTableRecord
  2
9
 70
     0
 62
     7
  6
CONTINUOUS
370
    -3
390
F
  0
LAYER
  5
2B
330
2
100
AcDbSymbolTableRecord
100
AcDbLayerTableRecord
  2
10
 70
     0
 62
     7
  6
CONTINUOUS
370
    -3
390
F
  0
LAYER
  5
2C
330
2
100
AcDbSymbolTableRecord
100
AcDbLayerTableRecord
  2
11
 70
     0
 62
     7
  6
CONTINUOUS
370
    -3
390
F
  0
LAYER
  5
2D
330
2
100
AcDbSymbolTableRecord
100
AcDbLayerTableRecord
  2
12
 70
     0
 62
     7
  6
CONTINUOUS
370
    -3
390
F
  0
LAYER
  5
2E
330
2
100
AcDbSymbolTableRecord
100
AcDbLayerTableRecord
  2
13
 70
     0
 62
     7
  6
CONTINUOUS
370
    -3
390
F
  0
LAYER
  5
2F
330
2
100
AcDbSymbolTableRecord
100
AcDbLayerTableRecord
  2
14
 70
     0
 62
     7
  6
CONTINUOUS
370
    -3
390
F
  0
LAYER
  5
30
330
2
100
AcDbSymbolTableRecord
100
AcDbLayerTableRecord
  2
15
 70
     0
 62
     7
  6
CONTINUOUS
370
    -3
390
F
  0
LAYER
  5
31
330
2
100
AcDbSymbolTableRecord
100
AcDbLayerTableRecord
  2
16
 70
     0
 62
     7
  6
CONTINUOUS
370
    -3
390
F
  0
LAYER
  5
32
330
2
100
AcDbSymbolTableRecord
100
AcDbLayerTableRecord
  2
17
 70
     0
 62
     7
  6
CONTINUOUS
370
    -3
390
F
  0
LAYER
  5
33
330
2
100
AcDbSymbolTableRecord
100
AcDbLayerTableRecord
  2
18
 70
     0
 62
     7
  6
CONTINUOUS
370
    -3
390
F
  0
LAYER
  5
34
330
2
100
AcDbSymbolTableRecord
100
AcDbLayerTableRecord
  2
19
 70
     0
 62
     7
  6
CONTINUOUS
370
    -3
390
F
  0
LAYER
  5
35
330
2
100
AcDbSymbolTableRecord
100
AcDbLayerTableRecord
  2
20
 70
     0
 62
     7
  6
CONTINUOUS
370
    -3
390
F
  0
LAYER
  5
36
330
2
100
AcDbSymbolTableRecord
100
AcDbLayerTableRecord
  2
21
 70
     0
 62
     7
  6
CONTINUOUS
370
    -3
390
F
  0
LAYER
  5
37
330
2
100
AcDbSymbolTableRecord
100
AcDbLayerTableRecord
  2
22
 70
     0
 62
     7
  6
CONTINUOUS
370
    -3
390
F
  0
LAYER
  5
38
330
2
100
AcDbSymbolTableRecord
100
AcDbLayerTableRecord
  2
23
 70
     0
 62
     7
  6
CONTINUOUS
370
    -3
390
F
  0
LAYER
  5
39
330
2
100
AcDbSymbolTableRecord
100
AcDbLayerTableRecord
  2
24
 70
     0
 62
     7
  6
CONTINUOUS
370
    -3
390
F
  0
LAYER
  5
3A
330
2
100
AcDbSymbolTableRecord
100
AcDbLayerTableRecord
  2
25
 70
     0
 62
     7
  6
CONTINUOUS
370
    -3
390
F
  0
LAYER
  5
3B
330
2
100
AcDbSymbolTableRecord
100
AcDbLayerTableRecord
  2
26
 70
     0
 62
     7
  6
CONTINUOUS
370
    -3
390
F
  0
LAYER
  5
3C
330
2
100
AcDbSymbolTableRecord
100
AcDbLayerTableRecord
  2
27
 70
     0
 62
     7
  6
CONTINUOUS
370
    -3
390
F
  0
LAYER
  5
3D
330
2
100
AcDbSymbolTableRecord
100
AcDbLayerTableRecord
  2
28
 70
     0
 62
     7
  6
CONTINUOUS
370
    -3
390
F
  0
LAYER
  5
3E
330
2
100
AcDbSymbolTableRecord
100
AcDbLayerTableRecord
  2
29
 70
     0
 62
     7
  6
CONTINUOUS
370
    -3
390
F
  0
LAYER
  5
3F
330
2
100
AcDbSymbolTableRecord
100
AcDbLayerTableRecord
  2
30
 70
     0
 62
     7
  6
CONTINUOUS
370
    -3
390
F
  0
LAYER
  5
40
330
2
100
AcDbSymbolTableRecord
100
AcDbLayerTableRecord
  2
31
 70
     0
 62
     7
  6
CONTINUOUS
370
    -3
390
F
  0
LAYER
  5
41
330
2
100
AcDbSymbolTableRecord
100
AcDbLayerTableRecord
  2
32
 70
     0
 62
     7
  6
CONTINUOUS
370
    -3
390
F
  0
LAYER
  5
42
330
2
100
AcDbSymbolTableRecord
100
AcDbLayerTableRecord
  2
33
 70
     0
 62
     7
  6
CONTINUOUS
370
    -3
390
F
  0
LAYER
  5
43
330
2
100
AcDbSymbolTableRecord
100
AcDbLayerTableRecord
  2
34
 70
     0
 62
     7
  6
CONTINUOUS
370
    -3
390
F
  0
LAYER
  5
44
330
2
100
AcDbSymbolTableRecord
100
AcDbLayerTableRecord
  2
35
 70
     0
 62
     7
  6
CONTINUOUS
370
    -3
390
F
  0
LAYER
  5
45
330
2
100
AcDbSymbolTableRecord
100
AcDbLayerTableRecord
  2
36
 70
     0
 62
     7
  6
CONTINUOUS
370
    -3
390
F
  0
LAYER
  5
46
330
2
100
AcDbSymbolTableRecord
100
AcDbLayerTableRecord
  2
37
 70
     0
 62
     7
  6
CONTINUOUS
370
    -3
390
F
  0
LAYER
  5
47
330
2
100
AcDbSymbolTableRecord
100
AcDbLayerTableRecord
  2
38
 70
     0
 62
     7
  6
CONTINUOUS
370
    -3
390
F
  0
LAYER
  5
48
330
2
100
AcDbSymbolTableRecord
100
AcDbLayerTableRecord
  2
39
 70
     0
 62
     7
  6
CONTINUOUS
370
    -3
390
F
  0
LAYER
  5
49
330
2
100
AcDbSymbolTableRecord
100
AcDbLayerTableRecord
  2
40
 70
     0
 62
     7
  6
CONTINUOUS
370
    -3
390
F
  0
LAYER
  5
4A
330
2
100
AcDbSymbolTableRecord
100
AcDbLayerTableRecord
  2
41
 70
     0
 62
     7
  6
CONTINUOUS
370
    -3
390
F
  0
LAYER
  5
4B
330
2
100
AcDbSymbolTableRecord
100
AcDbLayerTableRecord
  2
42
 70
     0
 62
     7
  6
CONTINUOUS
370
    -3
390
F
  0
LAYER
  5
4C
330
2
100
AcDbSymbolTableRecord
100
AcDbLayerTableRecord
  2
43
 70
     0
 62
     7
  6
CONTINUOUS
370
    -3
390
F
  0
LAYER
  5
4D
330
2
100
AcDbSymbolTableRecord
100
AcDbLayerTableRecord
  2
44
 70
     0
 62
     7
  6
CONTINUOUS
370
    -3
390
F
  0
LAYER
  5
4E
330
2
100
AcDbSymbolTableRecord
100
AcDbLayerTableRecord
  2
45
 70
     0
 62
     7
  6
CONTINUOUS
370
    -3
390
F
  0
LAYER
  5
4F
330
2
100
AcDbSymbolTableRecord
100
AcDbLayerTableRecord
  2
46
 70
     0
 62
     7
  6
CONTINUOUS
370
    -3
390
F
  0
LAYER
  5
50
330
2
100
AcDbSymbolTableRecord
100
AcDbLayerTableRecord
  2
47
 70
     0
 62
     7
  6
CONTINUOUS
370
    -3
390
F
  0
LAYER
  5
51
330
2
100
AcDbSymbolTableRecord
100
AcDbLayerTableRecord
  2
48
 70
     0
 62
     7
  6
CONTINUOUS
370
    -3
390
F
  0
LAYER
  5
52
330
2
100
AcDbSymbolTableRecord
100
AcDbLayerTableRecord
  2
49
 70
     0
 62
     7
  6
CONTINUOUS
370
    -3
390
F
  0
LAYER
  5
53
330
2
100
AcDbSymbolTableRecord
100
AcDbLayerTableRecord
  2
50
 70
     0
 62
     7
  6
CONTINUOUS
370
    -3
390
F
  0
LAYER
  5
54
330
2
100
AcDbSymbolTableRecord
100
AcDbLayerTableRecord
  2
51
 70
     0
 62
     7
  6
CONTINUOUS
370
    -3
390
F
  0
LAYER
  5
55
330
2
100
AcDbSymbolTableRecord
100
AcDbLayerTableRecord
  2
52
 70
     0
 62
     7
  6
CONTINUOUS
370
    -3
390
F
  0
LAYER
  5
56
330
2
100
AcDbSymbolTableRecord
100
AcDbLayerTableRecord
  2
53
 70
     0
 62
     7
  6
CONTINUOUS
370
    -3
390
F
  0
LAYER
  5
57
330
2
100
AcDbSymbolTableRecord
100
AcDbLayerTableRecord
  2
54
 70
     0
 62
     7
  6
CONTINUOUS
370
    -3
390
F
  0
LAYER
  5
58
330
2
100
AcDbSymbolTableRecord
100
AcDbLayerTableRecord
  2
55
 70
     0
 62
     7
  6
CONTINUOUS
370
    -3
390
F
  0
LAYER
  5
59
330
2
100
AcDbSymbolTableRecord
100
AcDbLayerTableRecord
  2
56
 70
     0
 62
     7
  6
CONTINUOUS
370
    -3
390
F
  0
LAYER
  5
5A
330
2
100
AcDbSymbolTableRecord
100
AcDbLayerTableRecord
  2
57
 70
     0
 62
     7
  6
CONTINUOUS
370
    -3
390
F
  0
LAYER
  5
5B
330
2
100
AcDbSymbolTableRecord
100
AcDbLayerTableRecord
  2
58
 70
     0
 62
     7
  6
CONTINUOUS
370
    -3
390
F
  0
LAYER
  5
5C
330
2
100
AcDbSymbolTableRecord
100
AcDbLayerTableRecord
  2
59
 70
     0
 62
     7
  6
CONTINUOUS
370
    -3
390
F
  0
LAYER
  5
5D
330
2
100
AcDbSymbolTableRecord
100
AcDbLayerTableRecord
  2
60
 70
     0
 62
     7
  6
CONTINUOUS
370
    -3
390
F
  0
LAYER
  5
5E
330
2
100
AcDbSymbolTableRecord
100
AcDbLayerTableRecord
  2
61
 70
     0
 62
     7
  6
CONTINUOUS
370
    -3
390
F
  0
LAYER
  5
5F
330
2
100
AcDbSymbolTableRecord
100
AcDbLayerTableRecord
  2
62
 70
     0
 62
     7
  6
CONTINUOUS
370
    -3
390
F
  0
LAYER
  5
60
330
2
100
AcDbSymbolTableRecord
100
AcDbLayerTableRecord
  2
63
 70
     0
 62
     7
  6
CONTINUOUS
370
    -3
390
F
  0
LAYER
  5
61
330
2
100
AcDbSymbolTableRecord
100
AcDbLayerTableRecord
  2
64
 70
     0
 62
     7
  6
CONTINUOUS
370
    -3
390
F
  0
LAYER
  5
62
330
2
100
AcDbSymbolTableRecord
100
AcDbLayerTableRecord
  2
65
 70
     0
 62
     7
  6
CONTINUOUS
370
    -3
390
F
  0
LAYER
  5
63
330
2
100
AcDbSymbolTableRecord
100
AcDbLayerTableRecord
  2
66
 70
     0
 62
     7
  6
CONTINUOUS
370
    -3
390
F
  0
LAYER
  5
64
330
2
100
AcDbSymbolTableRecord
100
AcDbLayerTableRecord
  2
67
 70
     0
 62
     7
  6
CONTINUOUS
370
    -3
390
F
  0
LAYER
  5
65
330
2
100
AcDbSymbolTableRecord
100
AcDbLayerTableRecord
  2
68
 70
     0
 62
     7
  6
CONTINUOUS
370
    -3
390
F
  0
LAYER
  5
66
330
2
100
AcDbSymbolTableRecord
100
AcDbLayerTableRecord
  2
69
 70
     0
 62
     7
  6
CONTINUOUS
370
    -3
390
F
  0
LAYER
  5
67
330
2
100
AcDbSymbolTableRecord
100
AcDbLayerTableRecord
  2
70
 70
     0
 62
     7
  6
CONTINUOUS
370
    -3
390
F
  0
LAYER
  5
68
330
2
100
AcDbSymbolTableRecord
100
AcDbLayerTableRecord
  2
71
 70
     0
 62
     7
  6
CONTINUOUS
370
    -3
390
F
  0
LAYER
  5
69
330
2
100
AcDbSymbolTableRecord
100
AcDbLayerTableRecord
  2
72
 70
     0
 62
     7
  6
CONTINUOUS
370
    -3
390
F
  0
LAYER
  5
6A
330
2
100
AcDbSymbolTableRecord
100
AcDbLayerTableRecord
  2
73
 70
     0
 62
     7
  6
CONTINUOUS
370
    -3
390
F
  0
LAYER
  5
6B
330
2
100
AcDbSymbolTableRecord
100
AcDbLayerTableRecord
  2
74
 70
     0
 62
     7
  6
CONTINUOUS
370
    -3
390
F
  0
LAYER
  5
6C
330
2
100
AcDbSymbolTableRecord
100
AcDbLayerTableRecord
  2
75
 70
     0
 62
     7
  6
CONTINUOUS
370
    -3
390
F
  0
LAYER
  5
6D
330
2
100
AcDbSymbolTableRecord
100
AcDbLayerTableRecord
  2
76
 70
     0
 62
     7
  6
CONTINUOUS
370
    -3
390
F
  0
LAYER
  5
6E
330
2
100
AcDbSymbolTableRecord
100
AcDbLayerTableRecord
  2
77
 70
     0
 62
     7
  6
CONTINUOUS
370
    -3
390
F
  0
LAYER
  5
6F
330
2
100
AcDbSymbolTableRecord
100
AcDbLayerTableRecord
  2
78
 70
     0
 62
     7
  6
CONTINUOUS
370
    -3
390
F
  0
LAYER
  5
70
330
2
100
AcDbSymbolTableRecord
100
AcDbLayerTableRecord
  2
79
 70
     0
 62
     7
  6
CONTINUOUS
370
    -3
390
F
  0
LAYER
  5
71
330
2
100
AcDbSymbolTableRecord
100
AcDbLayerTableRecord
  2
80
 70
     0
 62
     7
  6
CONTINUOUS
370
    -3
390
F
  0
LAYER
  5
72
330
2
100
AcDbSymbolTableRecord
100
AcDbLayerTableRecord
  2
81
 70
     0
 62
     7
  6
CONTINUOUS
370
    -3
390
F
  0
LAYER
  5
73
330
2
100
AcDbSymbolTableRecord
100
AcDbLayerTableRecord
  2
82
 70
     0
 62
     7
  6
CONTINUOUS
370
    -3
390
F
  0
LAYER
  5
74
330
2
100
AcDbSymbolTableRecord
100
AcDbLayerTableRecord
  2
83
 70
     0
 62
     7
  6
CONTINUOUS
370
    -3
390
F
  0
LAYER
  5
75
330
2
100
AcDbSymbolTableRecord
100
AcDbLayerTableRecord
  2
84
 70
     0
 62
     7
  6
CONTINUOUS
370
    -3
390
F
  0
LAYER
  5
76
330
2
100
AcDbSymbolTableRecord
100
AcDbLayerTableRecord
  2
85
 70
     0
 62
     7
  6
CONTINUOUS
370
    -3
390
F
  0
LAYER
  5
77
330
2
100
AcDbSymbolTableRecord
100
AcDbLayerTableRecord
  2
86
 70
     0
 62
     7
  6
CONTINUOUS
370
    -3
390
F
  0
LAYER
  5
78
330
2
100
AcDbSymbolTableRecord
100
AcDbLayerTableRecord
  2
87
 70
     0
 62
     7
  6
CONTINUOUS
370
    -3
390
F
  0
LAYER
  5
79
330
2
100
AcDbSymbolTableRecord
100
AcDbLayerTableRecord
  2
88
 70
     0
 62
     7
  6
CONTINUOUS
370
    -3
390
F
  0
LAYER
  5
7A
330
2
100
AcDbSymbolTableRecord
100
AcDbLayerTableRecord
  2
89
 70
     0
 62
     7
  6
CONTINUOUS
370
    -3
390
F
  0
LAYER
  5
7B
330
2
100
AcDbSymbolTableRecord
100
AcDbLayerTableRecord
  2
90
 70
     0
 62
     7
  6
CONTINUOUS
370
    -3
390
F
  0
LAYER
  5
7C
330
2
100
AcDbSymbolTableRecord
100
AcDbLayerTableRecord
  2
91
 70
     0
 62
     7
  6
CONTINUOUS
370
    -3
390
F
  0
LAYER
  5
7D
330
2
100
AcDbSymbolTableRecord
100
AcDbLayerTableRecord
  2
92
 70
     0
 62
     7
  6
CONTINUOUS
370
    -3
390
F
  0
LAYER
  5
7E
330
2
100
AcDbSymbolTableRecord
100
AcDbLayerTableRecord
  2
93
 70
     0
 62
     7
  6
CONTINUOUS
370
    -3
390
F
  0
LAYER
  5
7F
330
2
100
AcDbSymbolTableRecord
100
AcDbLayerTableRecord
  2
94
 70
     0
 62
     7
  6
CONTINUOUS
370
    -3
390
F
  0
LAYER
  5
80
330
2
100
AcDbSymbolTableRecord
100
AcDbLayerTableRecord
  2
95
 70
     0
 62
     7
  6
CONTINUOUS
370
    -3
390
F
  0
LAYER
  5
81
330
2
100
AcDbSymbolTableRecord
100
AcDbLayerTableRecord
  2
96
 70
     0
 62
     7
  6
CONTINUOUS
370
    -3
390
F
  0
LAYER
  5
82
330
2
100
AcDbSymbolTableRecord
100
AcDbLayerTableRecord
  2
97
 70
     0
 62
     7
  6
CONTINUOUS
370
    -3
390
F
  0
LAYER
  5
83
330
2
100
AcDbSymbolTableRecord
100
AcDbLayerTableRecord
  2
98
 70
     0
 62
     7
  6
CONTINUOUS
370
    -3
390
F
  0
LAYER
  5
84
330
2
100
AcDbSymbolTableRecord
100
AcDbLayerTableRecord
  2
99
 70
     0
 62
     7
  6
CONTINUOUS
370
    -3
390
F
  0
LAYER
  5
85
330
2
100
AcDbSymbolTableRecord
100
AcDbLayerTableRecord
  2
100
 70
     0
 62
     7
  6
CONTINUOUS
370
    -3
390
F
  0
LAYER
  5
86
330
2
100
AcDbSymbolTableRecord
100
AcDbLayerTableRecord
  2
101
 70
     0
 62
     7
  6
CONTINUOUS
370
    -3
390
F
  0
LAYER
  5
87
330
2
100
AcDbSymbolTableRecord
100
AcDbLayerTableRecord
  2
102
 70
     0
 62
     7
  6
CONTINUOUS
370
    -3
390
F
  0
LAYER
  5
88
330
2
100
AcDbSymbolTableRecord
100
AcDbLayerTableRecord
  2
103
 70
     0
 62
     7
  6
CONTINUOUS
370
    -3
390
F
  0
LAYER
  5
89
330
2
100
AcDbSymbolTableRecord
100
AcDbLayerTableRecord
  2
104
 70
     0
 62
     7
  6
CONTINUOUS
370
    -3
390
F
  0
LAYER
  5
8A
330
2
100
AcDbSymbolTableRecord
100
AcDbLayerTableRecord
  2
105
 70
     0
 62
     7
  6
CONTINUOUS
370
    -3
390
F
  0
LAYER
  5
8B
330
2
100
AcDbSymbolTableRecord
100
AcDbLayerTableRecord
  2
106
 70
     0
 62
     7
  6
CONTINUOUS
370
    -3
390
F
  0
LAYER
  5
8C
330
2
100
AcDbSymbolTableRecord
100
AcDbLayerTableRecord
  2
107
 70
     0
 62
     7
  6
CONTINUOUS
370
    -3
390
F
  0
LAYER
  5
8D
330
2
100
AcDbSymbolTableRecord
100
AcDbLayerTableRecord
  2
108
 70
     0
 62
     7
  6
CONTINUOUS
370
    -3
390
F
  0
LAYER
  5
8E
330
2
100
AcDbSymbolTableRecord
100
AcDbLayerTableRecord
  2
109
 70
     0
 62
     7
  6
CONTINUOUS
370
    -3
390
F
  0
LAYER
  5
8F
330
2
100
AcDbSymbolTableRecord
100
AcDbLayerTableRecord
  2
110
 70
     0
 62
     7
  6
CONTINUOUS
370
    -3
390
F
  0
LAYER
  5
90
330
2
100
AcDbSymbolTableRecord
100
AcDbLayerTableRecord
  2
111
 70
     0
 62
     7
  6
CONTINUOUS
370
    -3
390
F
  0
LAYER
  5
91
330
2
100
AcDbSymbolTableRecord
100
AcDbLayerTableRecord
  2
112
 70
     0
 62
     7
  6
CONTINUOUS
370
    -3
390
F
  0
LAYER
  5
92
330
2
100
AcDbSymbolTableRecord
100
AcDbLayerTableRecord
  2
113
 70
     0
 62
     7
  6
CONTINUOUS
370
    -3
390
F
  0
LAYER
  5
93
330
2
100
AcDbSymbolTableRecord
100
AcDbLayerTableRecord
  2
114
 70
     0
 62
     7
  6
CONTINUOUS
370
    -3
390
F
  0
LAYER
  5
94
330
2
100
AcDbSymbolTableRecord
100
AcDbLayerTableRecord
  2
115
 70
     0
 62
     7
  6
CONTINUOUS
370
    -3
390
F
  0
LAYER
  5
95
330
2
100
AcDbSymbolTableRecord
100
AcDbLayerTableRecord
  2
116
 70
     0
 62
     7
  6
CONTINUOUS
370
    -3
390
F
  0
LAYER
  5
96
330
2
100
AcDbSymbolTableRecord
100
AcDbLayerTableRecord
  2
117
 70
     0
 62
     7
  6
CONTINUOUS
370
    -3
390
F
  0
LAYER
  5
97
330
2
100
AcDbSymbolTableRecord
100
AcDbLayerTableRecord
  2
118
 70
     0
 62
     7
  6
CONTINUOUS
370
    -3
390
F
  0
LAYER
  5
98
330
2
100
AcDbSymbolTableRecord
100
AcDbLayerTableRecord
  2
119
 70
     0
 62
     7
  6
CONTINUOUS
370
    -3
390
F
  0
LAYER
  5
99
330
2
100
AcDbSymbolTableRecord
100
AcDbLayerTableRecord
  2
120
 70
     0
 62
     7
  6
CONTINUOUS
370
    -3
390
F
  0
LAYER
  5
9A
330
2
100
AcDbSymbolTableRecord
100
AcDbLayerTableRecord
  2
121
 70
     0
 62
     7
  6
CONTINUOUS
370
    -3
390
F
  0
LAYER
  5
9B
330
2
100
AcDbSymbolTableRecord
100
AcDbLayerTableRecord
  2
122
 70
     0
 62
     7
  6
CONTINUOUS
370
    -3
390
F
  0
LAYER
  5
9C
330
2
100
AcDbSymbolTableRecord
100
AcDbLayerTableRecord
  2
123
 70
     0
 62
     7
  6
CONTINUOUS
370
    -3
390
F
  0
LAYER
  5
9D
330
2
100
AcDbSymbolTableRecord
100
AcDbLayerTableRecord
  2
124
 70
     0
 62
     7
  6
CONTINUOUS
370
    -3
390
F
  0
LAYER
  5
9E
330
2
100
AcDbSymbolTableRecord
100
AcDbLayerTableRecord
  2
125
 70
     0
 62
     7
  6
CONTINUOUS
370
    -3
390
F
  0
LAYER
  5
9F
330
2
100
AcDbSymbolTableRecord
100
AcDbLayerTableRecord
  2
126
 70
     0
 62
     7
  6
CONTINUOUS
370
    -3
390
F
  0
LAYER
  5
A0
330
2
100
AcDbSymbolTableRecord
100
AcDbLayerTableRecord
  2
127
 70
     0
 62
     7
  6
CONTINUOUS
370
    -3
390
F
  0
ENDTAB
  0
TABLE
  2
STYLE
  5
3
330
0
100
AcDbSymbolTable
 70
     4
  0
STYLE
  5
11
330
3
100
AcDbSymbolTableRecord
100
AcDbTextStyleTableRecord
  2
STANDARD
 70
     0
 40
0.0
 41
1.0
 50
0.0
 71
     0
 42
0.2
  3
txt
  4

  0
STYLE
  5
A1
330
3
100
AcDbSymbolTableRecord
100
AcDbTextStyleTableRecord
  2
KANJI0
 70
     0
 40
4.355999999999999
 41
0.88
 50
0.0
 71
     0
 42
4.355999999999999
  3

  4
bigfont
  0
STYLE
  5
A2
330
3
100
AcDbSymbolTableRecord
100
AcDbTextStyleTableRecord
  2
KANJI1
 70
     0
 40
2.6
 41
1.0
 50
0.0
 71
     0
 42
2.6
  3

  4
bigfont
  0
STYLE
  5
A3
330
3
100
AcDbSymbolTableRecord
100
AcDbTextStyleTableRecord
  2
KANJI2
 70
     0
 40
3.0
 41
0.6
 50
0.0
 71
     0
 42
3.0
  3

  4
bigfont
  0
ENDTAB
  0
TABLE
  2
VIEW
  5
6
330
0
100
AcDbSymbolTable
 70
     0
  0
ENDTAB
  0
TABLE
  2
UCS
  5
7
330
0
100
AcDbSymbolTable
 70
     0
  0
ENDTAB
  0
TABLE
  2
APPID
  5
9
330
0
100
AcDbSymbolTable
 70
     1
  0
APPID
  5
12
330
9
100
AcDbSymbolTableRecord
100
AcDbRegAppTableRecord
  2
ACAD
 70
     0
  0
ENDTAB
  0
TABLE
  2
DIMSTYLE
  5
A
330
0
100
AcDbSymbolTable
 70
     1
100
AcDbDimStyleTable
 71
     0
  0
DIMSTYLE
105
331
330
A
100
AcDbSymbolTableRecord
100
AcDbDimStyleTableRecord
  2
Standard
 70
     0
340
11
  0
ENDTAB
  0
TABLE
  2
BLOCK_RECORD
  5
1
330
0
100
AcDbSymbolTable
 70
     0
  0
BLOCK_RECORD
  5
1E
330
1
100
AcDbSymbolTableRecord
100
AcDbBlockTableRecord
  2
*Model_Space
340
21
  0
BLOCK_RECORD
  5
1A
330
1
100
AcDbSymbolTableRecord
100
AcDbBlockTableRecord
  2
*Paper_Space
340
1D
  0
ENDTAB
  0
ENDSEC
  0
SECTION
  2
BLOCKS
  0
BLOCK
  5
1F
330
1E
100
AcDbEntity
  8
0
100
AcDbBlockBegin
  2
*Model_Space
 70
     0
 10
0.0
 20
0.0
 30
0.0
  3
*Model_Space
  1

  0
ENDBLK
  5
20
330
1E
100
AcDbEntity
  8
0
100
AcDbBlockEnd
  0
BLOCK
  5
1B
330
1A
100
AcDbEntity
 67
     1
  8
0
100
AcDbBlockBegin
  2
*Paper_Space
 70
     0
 10
0.0
 20
0.0
 30
0.0
  3
*Paper_Space
  1

  0
ENDBLK
  5
1C
330
1A
100
AcDbEntity
 67
     1
  8
0
100
AcDbBlockEnd
  0
ENDSEC
  0
SECTION
  2
ENTITIES
  0
POINT
  5
A7
330
1E
100
AcDbEntity
  8
0
  6
Continuous
 62
     3
100
AcDbPoint
 10
-908.7667349854319
 20
-456.1091390053851
 30
0.0
  0
LINE
  5
A8
330
1E
100
AcDbEntity
  8
0
  6
Continuous
 62
     3
100
AcDbLine
 10
-819.766734985432
 20
-456.909139004385
 30
0.0
 11
-824.7667349854319
 21
-456.909139004385
 31
0.0
  0
LINE
  5
A9
330
1E
100
AcDbEntity
  8
0
  6
Continuous
 62
     3
100
AcDbLine
 10
-824.7667349854319
 20
-458.1091390043851
 30
0.0
 11
-824.7667349854319
 21
-456.909139004385
 31
0.0
  0
LINE
  5
AA
330
1E
100
AcDbEntity
  8
0
  6
Continuous
 62
     3
100
AcDbLine
 10
-844.066734985432
 20
-459.3091390053851
 30
0.0
 11
-844.066734985432
 21
-458.1091390053851
 31
0.0
  0
ARC
  5
AB
330
1E
100
AcDbEntity
  8
0
  6
Continuous
 62
     3
100
AcDbCircle
 10
-841.7667349854319
 20
-459.3091390043851
 30
0.0
 40
2.299999999999999
100
AcDbArc
 50
179.9999999989999
 51
270.0
  0
LINE
  5
AC
330
1E
100
AcDbEntity
  8
0
  6
Continuous
 62
     3
100
AcDbLine
 10
-837.066734985432
 20
-458.1091390043851
 30
0.0
 11
-837.066734985432
 21
-459.3091390043851
 31
0.0
  0
LINE
  5
AD
330
1E
100
AcDbEntity
  8
0
  6
Continuous
 62
     3
100
AcDbLine
 10
-841.7667349854319
 20
-461.6091390043851
 30
0.0
 11
-839.366734985432
 21
-461.6091390043851
 31
0.0
  0
ARC
  5
AE
330
1E
100
AcDbEntity
  8
0
  6
Continuous
 62
     3
100
AcDbCircle
 10
-839.366734985432
 20
-459.3091390043851
 30
0.0
 40
2.299999999999999
100
AcDbArc
 50
270.0
 51
0.0
  0
ARC
  5
AF
330
1E
100
AcDbEntity
  8
0
  6
Continuous
 62
     3
100
AcDbCircle
 10
-841.766734986432
 20
-384.9091390043851
 30
0.0
 40
2.299999999999999
100
AcDbArc
 50
90.0
 51
180.0000000009999
  0
LINE
  5
B0
330
1E
100
AcDbEntity
  8
0
  6
Continuous
 62
     3
100
AcDbLine
 10
-844.066734986432
 20
-384.9091390053851
 30
0.0
 11
-844.066734986432
 21
-386.1091390053851
 31
0.0
  0
LINE
  5
B1
330
1E
100
AcDbEntity
  8
0
  6
Continuous
 62
     3
100
AcDbLine
 10
-837.0667349864319
 20
-386.1091390043851
 30
0.0
 11
-837.0667349864319
 21
-384.9091390043851
 31
0.0
  0
ARC
  5
B2
330
1E
100
AcDbEntity
  8
0
  6
Continuous
 62
     3
100
AcDbCircle
 10
-839.3667349864319
 20
-384.9091390043851
 30
0.0
 40
2.299999999999999
100
AcDbArc
 50
0.0
 51
90.0
  0
LINE
  5
B3
330
1E
100
AcDbEntity
  8
0
  6
Continuous
 62
     3
100
AcDbLine
 10
-841.766734986432
 20
-382.6091390043851
 30
0.0
 11
-839.3667349864319
 21
-382.6091390043851
 31
0.0
  0
LINE
  5
B4
330
1E
100
AcDbEntity
  8
0
  6
Continuous
 62
     3
100
AcDbLine
 10
-819.766734985432
 20
-456.9091390073851
 30
0.0
 11
-819.766734985432
 21
-458.1091390043851
 31
0.0
  0
LINE
  5
B5
330
1E
100
AcDbEntity
  8
0
  6
Continuous
 62
     3
100
AcDbLine
 10
-824.766734988432
 20
-458.1091390043851
 30
0.0
 11
-819.7667349884321
 21
-458.1091390043851
 31
0.0
  0
LINE
  5
B6
330
1E
100
AcDbEntity
  8
0
  6
Continuous
 62
     3
100
AcDbLine
 10
-824.7667349894321
 20
-387.3091390033851
 30
0.0
 11
-819.766734989432
 21
-387.3091390033851
 31
0.0
  0
LINE
  5
B7
330
1E
100
AcDbEntity
  8
0
  6
Continuous
 62
     3
100
AcDbLine
 10
-819.766734989432
 20
-386.109139003385
 30
0.0
 11
-819.766734989432
 21
-387.3091390033851
 31
0.0
  0
LINE
  5
B8
330
1E
100
AcDbEntity
  8
0
  6
Continuous
 62
     3
100
AcDbLine
 10
-824.7667349894321
 20
-387.3091390003851
 30
0.0
 11
-824.7667349894321
 21
-386.109139003385
 31
0.0
  0
LINE
  5
B9
330
1E
100
AcDbEntity
  8
0
  6
Continuous
 62
     3
100
AcDbLine
 10
-832.766734986432
 20
-386.1091390043851
 30
0.0
 11
-837.0667349864319
 21
-386.1091390043851
 31
0.0
  0
LINE
  5
BA
330
1E
100
AcDbEntity
  8
0
  6
Continuous
 62
     3
100
AcDbLine
 10
-824.766734988432
 20
-458.1091390043851
 30
0.0
 11
-824.7667349854319
 21
-458.1091390043851
 31
0.0
  0
LINE
  5
BB
330
1E
100
AcDbEntity
  8
0
  6
Continuous
 62
     3
100
AcDbLine
 10
-826.266734987432
 20
-443.3591390043851
 30
0.0
 11
-891.7667349874319
 21
-443.3591390023851
 31
0.0
  0
LINE
  5
BC
330
1E
100
AcDbEntity
  8
0
  6
Continuous
 62
     3
100
AcDbLine
 10
-891.7667349874319
 20
-443.3591390023851
 30
0.0
 11
-891.766734986432
 21
-400.8591390023851
 31
0.0
  0
LINE
  5
BD
330
1E
100
AcDbEntity
  8
0
  6
Continuous
 62
     3
100
AcDbLine
 10
-891.766734986432
 20
-400.8591390023851
 30
0.0
 11
-826.2667349864319
 21
-400.8591390043851
 31
0.0
  0
LINE
  5
BE
330
1E
100
AcDbEntity
  8
0
  6
Continuous
 62
     3
100
AcDbLine
 10
-826.2667349864319
 20
-400.8591390043851
 30
0.0
 11
-826.266734987432
 21
-443.3591390043851
 31
0.0
  0
LINE
  5
BF
330
1E
100
AcDbEntity
  8
0
  6
Continuous
 62
     3
100
AcDbLine
 10
-827.5667349804319
 20
-386.1091390103851
 30
0.0
 11
-827.566734981432
 21
-392.1091390103851
 31
0.0
  0
LINE
  5
C0
330
1E
100
AcDbEntity
  8
0
  6
Continuous
 62
     3
100
AcDbLine
 10
-827.566734981432
 20
-392.1091390103851
 30
0.0
 11
-829.5667349814319
 21
-392.1091390103851
 31
0.0
  0
LINE
  5
C1
330
1E
100
AcDbEntity
  8
0
  6
Continuous
 62
     3
100
AcDbLine
 10
-829.5667349814319
 20
-392.1091390103851
 30
0.0
 11
-829.566734980432
 21
-386.1091390103851
 31
0.0
  0
LINE
  5
C2
330
1E
100
AcDbEntity
  8
0
  6
Continuous
 62
     3
100
AcDbLine
 10
-833.8667349804321
 20
-386.109139009385
 30
0.0
 11
-833.866734981432
 21
-392.1091390093851
 31
0.0
  0
LINE
  5
C3
330
1E
100
AcDbEntity
  8
0
  6
Continuous
 62
     3
100
AcDbLine
 10
-833.866734981432
 20
-392.1091390093851
 30
0.0
 11
-835.866734981432
 21
-392.1091390093851
 31
0.0
  0
LINE
  5
C4
330
1E
100
AcDbEntity
  8
0
  6
Continuous
 62
     3
100
AcDbLine
 10
-835.866734981432
 20
-392.1091390093851
 30
0.0
 11
-835.8667349804321
 21
-386.109139009385
 31
0.0
  0
LINE
  5
C5
330
1E
100
AcDbEntity
  8
0
  6
Continuous
 62
     3
100
AcDbLine
 10
-846.0667349804319
 20
-386.1091390083851
 30
0.0
 11
-846.066734981432
 21
-392.1091390083851
 31
0.0
  0
LINE
  5
C6
330
1E
100
AcDbEntity
  8
0
  6
Continuous
 62
     3
100
AcDbLine
 10
-846.066734981432
 20
-392.1091390083851
 30
0.0
 11
-848.066734981432
 21
-392.1091390083851
 31
0.0
  0
LINE
  5
C7
330
1E
100
AcDbEntity
  8
0
  6
Continuous
 62
     3
100
AcDbLine
 10
-848.066734981432
 20
-392.1091390083851
 30
0.0
 11
-848.0667349804319
 21
-386.1091390083851
 31
0.0
  0
LINE
  5
C8
330
1E
100
AcDbEntity
  8
0
  6
Continuous
 62
     3
100
AcDbLine
 10
-886.066734980432
 20
-386.1091390053851
 30
0.0
 11
-886.0667349814319
 21
-392.1091390053851
 31
0.0
  0
LINE
  5
C9
330
1E
100
AcDbEntity
  8
0
  6
Continuous
 62
     3
100
AcDbLine
 10
-886.0667349814319
 20
-392.1091390053851
 30
0.0
 11
-888.066734981432
 21
-392.1091390053851
 31
0.0
  0
LINE
  5
CA
330
1E
100
AcDbEntity
  8
0
  6
Continuous
 62
     3
100
AcDbLine
 10
-888.066734981432
 20
-392.1091390053851
 30
0.0
 11
-888.0667349804319
 21
-386.1091390053851
 31
0.0
  0
LINE
  5
CB
330
1E
100
AcDbEntity
  8
0
  6
Continuous
 62
     3
100
AcDbLine
 10
-884.066734980432
 20
-386.1091390063851
 30
0.0
 11
-884.0667349814319
 21
-392.1091390063851
 31
0.0
  0
LINE
  5
CC
330
1E
100
AcDbEntity
  8
0
  6
Continuous
 62
     3
100
AcDbLine
 10
-884.0667349814319
 20
-392.1091390063851
 30
0.0
 11
-882.0667349814319
 21
-392.1091390063851
 31
0.0
  0
LINE
  5
CD
330
1E
100
AcDbEntity
  8
0
  6
Continuous
 62
     3
100
AcDbLine
 10
-882.0667349814319
 20
-392.1091390063851
 30
0.0
 11
-882.066734980432
 21
-386.1091390063851
 31
0.0
  0
LINE
  5
CE
330
1E
100
AcDbEntity
  8
0
  6
Continuous
 62
     3
100
AcDbLine
 10
-880.0667349804319
 20
-386.1091390063851
 30
0.0
 11
-880.066734981432
 21
-392.1091390063851
 31
0.0
  0
LINE
  5
CF
330
1E
100
AcDbEntity
  8
0
  6
Continuous
 62
     3
100
AcDbLine
 10
-880.066734981432
 20
-392.1091390063851
 30
0.0
 11
-878.066734981432
 21
-392.1091390063851
 31
0.0
  0
LINE
  5
D0
330
1E
100
AcDbEntity
  8
0
  6
Continuous
 62
     3
100
AcDbLine
 10
-878.066734981432
 20
-392.1091390063851
 30
0.0
 11
-878.0667349804319
 21
-386.1091390063851
 31
0.0
  0
LINE
  5
D1
330
1E
100
AcDbEntity
  8
0
  6
Continuous
 62
     3
100
AcDbLine
 10
-876.066734980432
 20
-386.1091390063851
 30
0.0
 11
-876.0667349814319
 21
-392.1091390063851
 31
0.0
  0
LINE
  5
D2
330
1E
100
AcDbEntity
  8
0
  6
Continuous
 62
     3
100
AcDbLine
 10
-876.0667349814319
 20
-392.1091390063851
 30
0.0
 11
-874.0667349814319
 21
-392.1091390063851
 31
0.0
  0
LINE
  5
D3
330
1E
100
AcDbEntity
  8
0
  6
Continuous
 62
     3
100
AcDbLine
 10
-874.0667349814319
 20
-392.1091390063851
 30
0.0
 11
-874.066734980432
 21
-386.1091390063851
 31
0.0
  0
LINE
  5
D4
330
1E
100
AcDbEntity
  8
0
  6
Continuous
 62
     3
100
AcDbLine
 10
-872.0667349804319
 20
-386.1091390073851
 30
0.0
 11
-872.066734981432
 21
-392.1091390073851
 31
0.0
  0
LINE
  5
D5
330
1E
100
AcDbEntity
  8
0
  6
Continuous
 62
     3
100
AcDbLine
 10
-872.066734981432
 20
-392.1091390073851
 30
0.0
 11
-870.066734981432
 21
-392.1091390073851
 31
0.0
  0
LINE
  5
D6
330
1E
100
AcDbEntity
  8
0
  6
Continuous
 62
     3
100
AcDbLine
 10
-870.066734981432
 20
-392.1091390073851
 30
0.0
 11
-870.0667349804319
 21
-386.1091390073851
 31
0.0
  0
LINE
  5
D7
330
1E
100
AcDbEntity
  8
0
  6
Continuous
 62
     3
100
AcDbLine
 10
-868.066734980432
 20
-386.1091390073851
 30
0.0
 11
-868.0667349814319
 21
-392.1091390073851
 31
0.0
  0
LINE
  5
D8
330
1E
100
AcDbEntity
  8
0
  6
Continuous
 62
     3
100
AcDbLine
 10
-868.0667349814319
 20
-392.1091390073851
 30
0.0
 11
-866.0667349814319
 21
-392.1091390073851
 31
0.0
  0
LINE
  5
D9
330
1E
100
AcDbEntity
  8
0
  6
Continuous
 62
     3
100
AcDbLine
 10
-866.0667349814319
 20
-392.1091390073851
 30
0.0
 11
-866.066734980432
 21
-386.1091390073851
 31
0.0
  0
LINE
  5
DA
330
1E
100
AcDbEntity
  8
0
  6
Continuous
 62
     3
100
AcDbLine
 10
-864.0667349804319
 20
-386.1091390073851
 30
0.0
 11
-864.066734981432
 21
-392.1091390073851
 31
0.0
  0
LINE
  5
DB
330
1E
100
AcDbEntity
  8
0
  6
Continuous
 62
     3
100
AcDbLine
 10
-864.066734981432
 20
-392.1091390073851
 30
0.0
 11
-862.066734981432
 21
-392.1091390073851
 31
0.0
  0
LINE
  5
DC
330
1E
100
AcDbEntity
  8
0
  6
Continuous
 62
     3
100
AcDbLine
 10
-862.066734981432
 20
-392.1091390073851
 30
0.0
 11
-862.0667349804319
 21
-386.1091390073851
 31
0.0
  0
LINE
  5
DD
330
1E
100
AcDbEntity
  8
0
  6
Continuous
 62
     3
100
AcDbLine
 10
-860.066734980432
 20
-386.1091390073851
 30
0.0
 11
-860.0667349814319
 21
-392.1091390073851
 31
0.0
  0
LINE
  5
DE
330
1E
100
AcDbEntity
  8
0
  6
Continuous
 62
     3
100
AcDbLine
 10
-860.0667349814319
 20
-392.1091390073851
 30
0.0
 11
-858.0667349814319
 21
-392.1091390083851
 31
0.0
  0
LINE
  5
DF
330
1E
100
AcDbEntity
  8
0
  6
Continuous
 62
     3
100
AcDbLine
 10
-858.0667349814319
 20
-392.1091390083851
 30
0.0
 11
-858.066734980432
 21
-386.1091390083851
 31
0.0
  0
LINE
  5
E0
330
1E
100
AcDbEntity
  8
0
  6
Continuous
 62
     3
100
AcDbLine
 10
-856.0667349804319
 20
-386.1091390083851
 30
0.0
 11
-856.066734981432
 21
-392.1091390083851
 31
0.0
  0
LINE
  5
E1
330
1E
100
AcDbEntity
  8
0
  6
Continuous
 62
     3
100
AcDbLine
 10
-856.066734981432
 20
-392.1091390083851
 30
0.0
 11
-854.066734981432
 21
-392.1091390083851
 31
0.0
  0
LINE
  5
E2
330
1E
100
AcDbEntity
  8
0
  6
Continuous
 62
     3
100
AcDbLine
 10
-854.066734981432
 20
-392.1091390083851
 30
0.0
 11
-854.0667349804319
 21
-386.1091390083851
 31
0.0
  0
LINE
  5
E3
330
1E
100
AcDbEntity
  8
0
  6
Continuous
 62
     3
100
AcDbLine
 10
-852.066734980432
 20
-386.1091390083851
 30
0.0
 11
-852.0667349814319
 21
-392.1091390083851
 31
0.0
  0
LINE
  5
E4
330
1E
100
AcDbEntity
  8
0
  6
Continuous
 62
     3
100
AcDbLine
 10
-852.0667349814319
 20
-392.1091390083851
 30
0.0
 11
-850.0667349814319
 21
-392.1091390083851
 31
0.0
  0
LINE
  5
E5
330
1E
100
AcDbEntity
  8
0
  6
Continuous
 62
     3
100
AcDbLine
 10
-850.0667349814319
 20
-392.1091390083851
 30
0.0
 11
-850.066734980432
 21
-386.1091390083851
 31
0.0
  0
LINE
  5
E6
330
1E
100
AcDbEntity
  8
0
  6
Continuous
 62
     3
100
AcDbLine
 10
-906.766734986432
 20
-394.6091390053851
 30
0.0
 11
-906.766734986432
 21
-390.6091390053851
 31
0.0
  0
LINE
  5
E7
330
1E
100
AcDbEntity
  8
0
  6
Continuous
 62
     3
100
AcDbLine
 10
-906.7667349854319
 20
-453.6091390053851
 30
0.0
 11
-906.7667349854319
 21
-449.6091390053851
 31
0.0
  0
LINE
  5
E8
330
1E
100
AcDbEntity
  8
0
  6
Continuous
 62
     3
100
AcDbLine
 10
-827.566734982432
 20
-458.1091390043851
 30
0.0
 11
-827.566734982432
 21
-452.1091390043851
 31
0.0
  0
LINE
  5
E9
330
1E
100
AcDbEntity
  8
0
  6
Continuous
 62
     3
100
AcDbLine
 10
-827.566734982432
 20
-452.1091390043851
 30
0.0
 11
-829.566734982432
 21
-452.1091390043851
 31
0.0
  0
LINE
  5
EA
330
1E
100
AcDbEntity
  8
0
  6
Continuous
 62
     3
100
AcDbLine
 10
-829.566734982432
 20
-452.1091390043851
 30
0.0
 11
-829.566734982432
 21
-458.1091390043851
 31
0.0
  0
LINE
  5
EB
330
1E
100
AcDbEntity
  8
0
  6
Continuous
 62
     3
100
AcDbLine
 10
-833.8667349824319
 20
-458.1091390053851
 30
0.0
 11
-833.8667349824319
 21
-452.1091390053851
 31
0.0
  0
LINE
  5
EC
330
1E
100
AcDbEntity
  8
0
  6
Continuous
 62
     3
100
AcDbLine
 10
-833.8667349824319
 20
-452.1091390053851
 30
0.0
 11
-835.8667349824321
 21
-452.1091390053851
 31
0.0
  0
LINE
  5
ED
330
1E
100
AcDbEntity
  8
0
  6
Continuous
 62
     3
100
AcDbLine
 10
-835.8667349824321
 20
-452.1091390053851
 30
0.0
 11
-835.8667349824321
 21
-458.1091390053851
 31
0.0
  0
LINE
  5
EE
330
1E
100
AcDbEntity
  8
0
  6
Continuous
 62
     3
100
AcDbLine
 10
-846.0667349824319
 20
-458.1091390053851
 30
0.0
 11
-846.0667349824319
 21
-452.1091390053851
 31
0.0
  0
LINE
  5
EF
330
1E
100
AcDbEntity
  8
0
  6
Continuous
 62
     3
100
AcDbLine
 10
-846.0667349824319
 20
-452.1091390053851
 30
0.0
 11
-848.0667349824319
 21
-452.1091390053851
 31
0.0
  0
LINE
  5
F0
330
1E
100
AcDbEntity
  8
0
  6
Continuous
 62
     3
100
AcDbLine
 10
-848.0667349824319
 20
-452.1091390053851
 30
0.0
 11
-848.0667349824319
 21
-458.1091390053851
 31
0.0
  0
LINE
  5
F1
330
1E
100
AcDbEntity
  8
0
  6
Continuous
 62
     3
100
AcDbLine
 10
-886.066734982432
 20
-458.1091390063851
 30
0.0
 11
-886.066734982432
 21
-452.1091390063851
 31
0.0
  0
LINE
  5
F2
330
1E
100
AcDbEntity
  8
0
  6
Continuous
 62
     3
100
AcDbLine
 10
-886.066734982432
 20
-452.1091390063851
 30
0.0
 11
-888.0667349824319
 21
-452.1091390063851
 31
0.0
  0
LINE
  5
F3
330
1E
100
AcDbEntity
  8
0
  6
Continuous
 62
     3
100
AcDbLine
 10
-888.0667349824319
 20
-452.1091390063851
 30
0.0
 11
-888.0667349824319
 21
-458.1091390063851
 31
0.0
  0
LINE
  5
F4
330
1E
100
AcDbEntity
  8
0
  6
Continuous
 62
     3
100
AcDbLine
 10
-884.066734982432
 20
-458.1091390063851
 30
0.0
 11
-884.066734982432
 21
-452.1091390063851
 31
0.0
  0
LINE
  5
F5
330
1E
100
AcDbEntity
  8
0
  6
Continuous
 62
     3
100
AcDbLine
 10
-884.066734982432
 20
-452.1091390063851
 30
0.0
 11
-882.0667349824319
 21
-452.1091390063851
 31
0.0
  0
LINE
  5
F6
330
1E
100
AcDbEntity
  8
0
  6
Continuous
 62
     3
100
AcDbLine
 10
-882.0667349824319
 20
-452.1091390063851
 30
0.0
 11
-882.0667349824319
 21
-458.1091390063851
 31
0.0
  0
LINE
  5
F7
330
1E
100
AcDbEntity
  8
0
  6
Continuous
 62
     3
100
AcDbLine
 10
-880.0667349824319
 20
-458.1091390063851
 30
0.0
 11
-880.0667349824319
 21
-452.1091390063851
 31
0.0
  0
LINE
  5
F8
330
1E
100
AcDbEntity
  8
0
  6
Continuous
 62
     3
100
AcDbLine
 10
-880.0667349824319
 20
-452.1091390063851
 30
0.0
 11
-878.0667349824319
 21
-452.1091390063851
 31
0.0
  0
LINE
  5
F9
330
1E
100
AcDbEntity
  8
0
  6
Continuous
 62
     3
100
AcDbLine
 10
-878.0667349824319
 20
-452.1091390063851
 30
0.0
 11
-878.0667349824319
 21
-458.1091390063851
 31
0.0
  0
LINE
  5
FA
330
1E
100
AcDbEntity
  8
0
  6
Continuous
 62
     3
100
AcDbLine
 10
-876.066734982432
 20
-458.1091390063851
 30
0.0
 11
-876.066734982432
 21
-452.1091390063851
 31
0.0
  0
LINE
  5
FB
330
1E
100
AcDbEntity
  8
0
  6
Continuous
 62
     3
100
AcDbLine
 10
-876.066734982432
 20
-452.1091390063851
 30
0.0
 11
-874.0667349824319
 21
-452.1091390063851
 31
0.0
  0
LINE
  5
FC
330
1E
100
AcDbEntity
  8
0
  6
Continuous
 62
     3
100
AcDbLine
 10
-874.0667349824319
 20
-452.1091390063851
 30
0.0
 11
-874.0667349824319
 21
-458.1091390063851
 31
0.0
  0
LINE
  5
FD
330
1E
100
AcDbEntity
  8
0
  6
Continuous
 62
     3
100
AcDbLine
 10
-872.0667349824319
 20
-458.1091390063851
 30
0.0
 11
-872.0667349824319
 21
-452.1091390063851
 31
0.0
  0
LINE
  5
FE
330
1E
100
AcDbEntity
  8
0
  6
Continuous
 62
     3
100
AcDbLine
 10
-872.0667349824319
 20
-452.1091390063851
 30
0.0
 11
-870.0667349824319
 21
-452.1091390063851
 31
0.0
  0
LINE
  5
FF
330
1E
100
AcDbEntity
  8
0
  6
Continuous
 62
     3
100
AcDbLine
 10
-870.0667349824319
 20
-452.1091390063851
 30
0.0
 11
-870.0667349824319
 21
-458.1091390063851
 31
0.0
  0
LINE
  5
100
330
1E
100
AcDbEntity
  8
0
  6
Continuous
 62
     3
100
AcDbLine
 10
-868.066734982432
 20
-458.1091390053851
 30
0.0
 11
-868.066734982432
 21
-452.1091390053851
 31
0.0
  0
LINE
  5
101
330
1E
100
AcDbEntity
  8
0
  6
Continuous
 62
     3
100
AcDbLine
 10
-868.066734982432
 20
-452.1091390053851
 30
0.0
 11
-866.066734982432
 21
-452.1091390053851
 31
0.0
  0
LINE
  5
102
330
1E
100
AcDbEntity
  8
0
  6
Continuous
 62
     3
100
AcDbLine
 10
-866.066734982432
 20
-452.1091390053851
 30
0.0
 11
-866.066734982432
 21
-458.1091390053851
 31
0.0
  0
LINE
  5
103
330
1E
100
AcDbEntity
  8
0
  6
Continuous
 62
     3
100
AcDbLine
 10
-864.0667349824319
 20
-458.1091390053851
 30
0.0
 11
-864.0667349824319
 21
-452.1091390053851
 31
0.0
  0
LINE
  5
104
330
1E
100
AcDbEntity
  8
0
  6
Continuous
 62
     3
100
AcDbLine
 10
-864.0667349824319
 20
-452.1091390053851
 30
0.0
 11
-862.0667349824319
 21
-452.1091390053851
 31
0.0
  0
LINE
  5
105
330
1E
100
AcDbEntity
  8
0
  6
Continuous
 62
     3
100
AcDbLine
 10
-862.0667349824319
 20
-452.1091390053851
 30
0.0
 11
-862.0667349824319
 21
-458.1091390053851
 31
0.0
  0
LINE
  5
106
330
1E
100
AcDbEntity
  8
0
  6
Continuous
 62
     3
100
AcDbLine
 10
-860.066734982432
 20
-458.1091390053851
 30
0.0
 11
-860.066734982432
 21
-452.1091390053851
 31
0.0
  0
LINE
  5
107
330
1E
100
AcDbEntity
  8
0
  6
Continuous
 62
     3
100
AcDbLine
 10
-860.066734982432
 20
-452.1091390053851
 30
0.0
 11
-858.066734982432
 21
-452.1091390053851
 31
0.0
  0
LINE
  5
108
330
1E
100
AcDbEntity
  8
0
  6
Continuous
 62
     3
100
AcDbLine
 10
-858.066734982432
 20
-452.1091390053851
 30
0.0
 11
-858.066734982432
 21
-458.1091390053851
 31
0.0
  0
LINE
  5
109
330
1E
100
AcDbEntity
  8
0
  6
Continuous
 62
     3
100
AcDbLine
 10
-856.0667349824319
 20
-458.1091390053851
 30
0.0
 11
-856.0667349824319
 21
-452.1091390053851
 31
0.0
  0
LINE
  5
10A
330
1E
100
AcDbEntity
  8
0
  6
Continuous
 62
     3
100
AcDbLine
 10
-856.0667349824319
 20
-452.1091390053851
 30
0.0
 11
-854.0667349824319
 21
-452.1091390053851
 31
0.0
  0
LINE
  5
10B
330
1E
100
AcDbEntity
  8
0
  6
Continuous
 62
     3
100
AcDbLine
 10
-854.0667349824319
 20
-452.1091390053851
 30
0.0
 11
-854.0667349824319
 21
-458.1091390053851
 31
0.0
  0
LINE
  5
10C
330
1E
100
AcDbEntity
  8
0
  6
Continuous
 62
     3
100
AcDbLine
 10
-852.066734982432
 20
-458.1091390053851
 30
0.0
 11
-852.066734982432
 21
-452.1091390053851
 31
0.0
  0
LINE
  5
10D
330
1E
100
AcDbEntity
  8
0
  6
Continuous
 62
     3
100
AcDbLine
 10
-852.066734982432
 20
-452.1091390053851
 30
0.0
 11
-850.066734982432
 21
-452.1091390053851
 31
0.0
  0
LINE
  5
10E
330
1E
100
AcDbEntity
  8
0
  6
Continuous
 62
     3
100
AcDbLine
 10
-850.066734982432
 20
-452.1091390053851
 30
0.0
 11
-850.066734982432
 21
-458.1091390053851
 31
0.0
  0
LINE
  5
10F
330
1E
100
AcDbEntity
  8
0
  6
Continuous
 62
     3
100
AcDbLine
 10
-896.7667349844319
 20
-458.1091390053851
 30
0.0
 11
-896.7667349844319
 21
-456.6091390053851
 31
0.0
  0
LINE
  5
110
330
1E
100
AcDbEntity
  8
0
  6
Continuous
 62
     3
100
AcDbLine
 10
-896.7667349844319
 20
-456.6091390053851
 30
0.0
 11
-901.766734984432
 21
-456.6091390053851
 31
0.0
  0
LINE
  5
111
330
1E
100
AcDbEntity
  8
0
  6
Continuous
 62
     3
100
AcDbLine
 10
-901.766734984432
 20
-458.1091390053851
 30
0.0
 11
-901.766734984432
 21
-456.6091390053851
 31
0.0
  0
LINE
  5
112
330
1E
100
AcDbEntity
  8
0
  6
Continuous
 62
     3
100
AcDbLine
 10
-896.7667349824321
 20
-386.1091390053851
 30
0.0
 11
-896.7667349824321
 21
-387.5091390053851
 31
0.0
  0
LINE
  5
113
330
1E
100
AcDbEntity
  8
0
  6
Continuous
 62
     3
100
AcDbLine
 10
-896.7667349824321
 20
-387.5091390053851
 30
0.0
 11
-901.766734982432
 21
-387.5091390053851
 31
0.0
  0
LINE
  5
114
330
1E
100
AcDbEntity
  8
0
  6
Continuous
 62
     3
100
AcDbLine
 10
-901.766734982432
 20
-387.5091390053851
 30
0.0
 11
-901.766734982432
 21
-386.1091390053851
 31
0.0
  0
CIRCLE
  5
115
330
1E
100
AcDbEntity
  8
0
  6
Continuous
 62
     3
100
AcDbCircle
 10
-906.766734984432
 20
-457.1091390053851
 30
0.0
 40
0.5
  0
CIRCLE
  5
116
330
1E
100
AcDbEntity
  8
0
  6
Continuous
 62
     3
100
AcDbCircle
 10
-906.766734982432
 20
-387.1091390053851
 30
0.0
 40
0.5
  0
LINE
  5
117
330
1E
100
AcDbEntity
  8
0
  6
Continuous
 62
     3
100
AcDbLine
 10
-905.766734983432
 20
-449.6091390053851
 30
0.0
 11
-906.7667349854319
 21
-449.6091390053851
 31
0.0
  0
LINE
  5
118
330
1E
100
AcDbEntity
  8
0
  6
Continuous
 62
     3
100
AcDbLine
 10
-905.766734983432
 20
-449.6091390053851
 30
0.0
 11
-905.766734984432
 21
-453.6091390053851
 31
0.0
  0
LINE
  5
119
330
1E
100
AcDbEntity
  8
0
  6
Continuous
 62
     3
100
AcDbLine
 10
-906.7667349854319
 20
-453.6091390053851
 30
0.0
 11
-905.766734984432
 21
-453.6091390053851
 31
0.0
  0
LINE
  5
11A
330
1E
100
AcDbEntity
  8
0
  6
Continuous
 62
     3
100
AcDbLine
 10
-906.766734986432
 20
-394.6091390053851
 30
0.0
 11
-905.766734982432
 21
-394.6091390053851
 31
0.0
  0
LINE
  5
11B
330
1E
100
AcDbEntity
  8
0
  6
Continuous
 62
     3
100
AcDbLine
 10
-905.766734982432
 20
-390.6091390053851
 30
0.0
 11
-906.766734986432
 21
-390.6091390053851
 31
0.0
  0
LINE
  5
11C
330
1E
100
AcDbEntity
  8
0
  6
Continuous
 62
     3
100
AcDbLine
 10
-905.766734982432
 20
-390.6091390053851
 30
0.0
 11
-905.766734982432
 21
-394.6091390053851
 31
0.0
  0
LINE
  5
11D
330
1E
100
AcDbEntity
  8
0
  6
Continuous
 62
     3
100
AcDbLine
 10
-808.7667349834319
 20
-385.1088890083851
 30
0.0
 11
-809.7667349834321
 21
-386.1088890083851
 31
0.0
  0
LINE
  5
11E
330
1E
100
AcDbEntity
  8
0
  6
Continuous
 62
     3
100
AcDbLine
 10
-808.7667349834319
 20
-385.1088890083851
 30
0.0
 11
-808.7667349834319
 21
-383.1088890083851
 31
0.0
  0
LINE
  5
11F
330
1E
100
AcDbEntity
  8
0
  6
Continuous
 62
     3
100
AcDbLine
 10
-816.666734983432
 20
-386.1088890073851
 30
0.0
 11
-816.666734983432
 21
-383.1088890073851
 31
0.0
  0
ARC
  5
120
330
1E
100
AcDbEntity
  8
0
  6
Continuous
 62
     3
100
AcDbCircle
 10
-872.766734983432
 20
-380.4088890073851
 30
0.0
 40
1.0
100
AcDbArc
 50
0.0
 51
180.0
  0
ARC
  5
121
330
1E
100
AcDbEntity
  8
0
  6
Continuous
 62
     3
100
AcDbCircle
 10
-872.766734983432
 20
-383.9088890073851
 30
0.0
 40
1.0
100
AcDbArc
 50
180.0
 51
0.0
  0
LINE
  5
122
330
1E
100
AcDbEntity
  8
0
  6
Continuous
 62
     3
100
AcDbLine
 10
-873.7667349834319
 20
-380.4088890073851
 30
0.0
 11
-873.7667349834319
 21
-383.9088890073851
 31
0.0
  0
LINE
  5
123
330
1E
100
AcDbEntity
  8
0
  6
Continuous
 62
     3
100
AcDbLine
 10
-871.766734983432
 20
-383.9088890073851
 30
0.0
 11
-871.766734983432
 21
-382.6588890073851
 31
0.0
  0
LINE
  5
124
330
1E
100
AcDbEntity
  8
0
  6
Continuous
 62
     3
100
AcDbLine
 10
-871.766734983432
 20
-380.9088890073851
 30
0.0
 11
-871.766734983432
 21
-380.4088890073851
 31
0.0
  0
LINE
  5
125
330
1E
100
AcDbEntity
  8
0
  6
Continuous
 62
     3
100
AcDbLine
 10
-870.766734983432
 20
-380.9088890073851
 30
0.0
 11
-870.766734983432
 21
-380.4088890073851
 31
0.0
  0
LINE
  5
126
330
1E
100
AcDbEntity
  8
0
  6
Continuous
 62
     3
100
AcDbLine
 10
-870.766734983432
 20
-380.4088890073851
 30
0.0
 11
-871.766734983432
 21
-380.9088890073851
 31
0.0
  0
LINE
  5
127
330
1E
100
AcDbEntity
  8
0
  6
Continuous
 62
     3
100
AcDbLine
 10
-869.766734983432
 20
-380.9088890073851
 30
0.0
 11
-869.766734983432
 21
-380.4088890073851
 31
0.0
  0
LINE
  5
128
330
1E
100
AcDbEntity
  8
0
  6
Continuous
 62
     3
100
AcDbLine
 10
-869.766734983432
 20
-380.4088890073851
 30
0.0
 11
-870.766734983432
 21
-380.9088890073851
 31
0.0
  0
LINE
  5
129
330
1E
100
AcDbEntity
  8
0
  6
Continuous
 62
     3
100
AcDbLine
 10
-869.766734983432
 20
-380.9088890073851
 30
0.0
 11
-868.766734983432
 21
-380.4088890073851
 31
0.0
  0
LINE
  5
12A
330
1E
100
AcDbEntity
  8
0
  6
Continuous
 62
     3
100
AcDbLine
 10
-868.766734983432
 20
-380.4088890073851
 30
0.0
 11
-868.766734983432
 21
-380.9088890073851
 31
0.0
  0
LINE
  5
12B
330
1E
100
AcDbEntity
  8
0
  6
Continuous
 62
     3
100
AcDbLine
 10
-868.766734983432
 20
-380.9088890073851
 30
0.0
 11
-867.7667349834321
 21
-380.4088890073851
 31
0.0
  0
LINE
  5
12C
330
1E
100
AcDbEntity
  8
0
  6
Continuous
 62
     3
100
AcDbLine
 10
-867.7667349834321
 20
-380.4088890073851
 30
0.0
 11
-867.7667349834321
 21
-380.9088890073851
 31
0.0
  0
LINE
  5
12D
330
1E
100
AcDbEntity
  8
0
  6
Continuous
 62
     3
100
AcDbLine
 10
-867.7667349834321
 20
-380.9088890073851
 30
0.0
 11
-866.7667349834319
 21
-380.4088890073851
 31
0.0
  0
LINE
  5
12E
330
1E
100
AcDbEntity
  8
0
  6
Continuous
 62
     3
100
AcDbLine
 10
-866.7667349834319
 20
-380.4088890073851
 30
0.0
 11
-866.7667349834319
 21
-380.9088890073851
 31
0.0
  0
LINE
  5
12F
330
1E
100
AcDbEntity
  8
0
  6
Continuous
 62
     3
100
AcDbLine
 10
-866.7667349834319
 20
-380.9088890073851
 30
0.0
 11
-865.7667349834319
 21
-380.4088890073851
 31
0.0
  0
LINE
  5
130
330
1E
100
AcDbEntity
  8
0
  6
Continuous
 62
     3
100
AcDbLine
 10
-865.7667349834319
 20
-380.4088890073851
 30
0.0
 11
-865.7667349834319
 21
-380.9088890073851
 31
0.0
  0
LINE
  5
131
330
1E
100
AcDbEntity
  8
0
  6
Continuous
 62
     3
100
AcDbLine
 10
-865.7667349834319
 20
-380.9088890073851
 30
0.0
 11
-864.7667349834319
 21
-380.4088890073851
 31
0.0
  0
LINE
  5
132
330
1E
100
AcDbEntity
  8
0
  6
Continuous
 62
     3
100
AcDbLine
 10
-864.7667349834319
 20
-380.4088890073851
 30
0.0
 11
-864.7667349834319
 21
-380.9088890073851
 31
0.0
  0
LINE
  5
133
330
1E
100
AcDbEntity
  8
0
  6
Continuous
 62
     3
100
AcDbLine
 10
-864.7667349834319
 20
-380.9088890073851
 30
0.0
 11
-863.766734983432
 21
-380.4088890073851
 31
0.0
  0
LINE
  5
134
330
1E
100
AcDbEntity
  8
0
  6
Continuous
 62
     3
100
AcDbLine
 10
-863.766734983432
 20
-380.4088890073851
 30
0.0
 11
-863.766734983432
 21
-380.9088890073851
 31
0.0
  0
LINE
  5
135
330
1E
100
AcDbEntity
  8
0
  6
Continuous
 62
     3
100
AcDbLine
 10
-863.766734983432
 20
-380.9088890073851
 30
0.0
 11
-862.766734983432
 21
-380.4088890073851
 31
0.0
  0
LINE
  5
136
330
1E
100
AcDbEntity
  8
0
  6
Continuous
 62
     3
100
AcDbLine
 10
-862.766734983432
 20
-380.4088890073851
 30
0.0
 11
-862.766734983432
 21
-380.9088890073851
 31
0.0
  0
LINE
  5
137
330
1E
100
AcDbEntity
  8
0
  6
Continuous
 62
     3
100
AcDbLine
 10
-862.766734983432
 20
-380.9088890073851
 30
0.0
 11
-861.766734983432
 21
-380.4088890073851
 31
0.0
  0
LINE
  5
138
330
1E
100
AcDbEntity
  8
0
  6
Continuous
 62
     3
100
AcDbLine
 10
-861.766734983432
 20
-380.4088890073851
 30
0.0
 11
-861.766734983432
 21
-380.9088890073851
 31
0.0
  0
LINE
  5
139
330
1E
100
AcDbEntity
  8
0
  6
Continuous
 62
     3
100
AcDbLine
 10
-861.766734983432
 20
-380.9088890073851
 30
0.0
 11
-860.766734983432
 21
-380.4088890073851
 31
0.0
  0
LINE
  5
13A
330
1E
100
AcDbEntity
  8
0
  6
Continuous
 62
     3
100
AcDbLine
 10
-860.766734983432
 20
-380.9088890073851
 30
0.0
 11
-860.766734983432
 21
-380.4088890073851
 31
0.0
  0
LINE
  5
13B
330
1E
100
AcDbEntity
  8
0
  6
Continuous
 62
     3
100
AcDbLine
 10
-860.766734983432
 20
-380.9088890073851
 30
0.0
 11
-859.7667349834321
 21
-380.4088890073851
 31
0.0
  0
LINE
  5
13C
330
1E
100
AcDbEntity
  8
0
  6
Continuous
 62
     3
100
AcDbLine
 10
-859.7667349834321
 20
-380.4088890073851
 30
0.0
 11
-859.7667349834321
 21
-380.9088890073851
 31
0.0
  0
LINE
  5
13D
330
1E
100
AcDbEntity
  8
0
  6
Continuous
 62
     3
100
AcDbLine
 10
-859.7667349834321
 20
-380.9088890073851
 30
0.0
 11
-858.7667349834319
 21
-380.4088890073851
 31
0.0
  0
LINE
  5
13E
330
1E
100
AcDbEntity
  8
0
  6
Continuous
 62
     3
100
AcDbLine
 10
-858.7667349834319
 20
-380.4088890073851
 30
0.0
 11
-858.7667349834319
 21
-380.9088890073851
 31
0.0
  0
LINE
  5
13F
330
1E
100
AcDbEntity
  8
0
  6
Continuous
 62
     3
100
AcDbLine
 10
-857.266734983432
 20
-385.8088890073851
 30
0.0
 11
-857.266734983432
 21
-384.3088890073851
 31
0.0
  0
LINE
  5
140
330
1E
100
AcDbEntity
  8
0
  6
Continuous
 62
     3
100
AcDbLine
 10
-855.2667349834321
 20
-385.8088890073851
 30
0.0
 11
-855.2667349834321
 21
-384.5588890073851
 31
0.0
  0
ARC
  5
141
330
1E
100
AcDbEntity
  8
0
  6
Continuous
 62
     3
100
AcDbCircle
 10
-840.7667349834319
 20
-385.1088890073851
 30
0.0
 40
4.2
100
AcDbArc
 50
28.393019421
 51
90.0
  0
LINE
  5
142
330
1E
100
AcDbEntity
  8
0
  6
Continuous
 62
     3
100
AcDbLine
 10
-840.7667349834319
 20
-380.9088890073851
 30
0.0
 11
-871.766734983432
 21
-380.9088890073851
 31
0.0
  0
LINE
  5
143
330
1E
100
AcDbEntity
  8
0
  6
Continuous
 62
     3
100
AcDbLine
 10
-808.766734984432
 20
-459.109389008385
 30
0.0
 11
-809.766734984432
 21
-458.1093890083851
 31
0.0
  0
LINE
  5
144
330
1E
100
AcDbEntity
  8
0
  6
Continuous
 62
     3
100
AcDbLine
 10
-808.766734984432
 20
-459.109389008385
 30
0.0
 11
-808.766734984432
 21
-461.1093890083851
 31
0.0
  0
LINE
  5
145
330
1E
100
AcDbEntity
  8
0
  6
Continuous
 62
     3
100
AcDbLine
 10
-816.6667349844319
 20
-458.1093890073851
 30
0.0
 11
-816.6667349844319
 21
-461.1093890073851
 31
0.0
  0
ARC
  5
146
330
1E
100
AcDbEntity
  8
0
  6
Continuous
 62
     3
100
AcDbCircle
 10
-872.766734984432
 20
-463.8093890073851
 30
0.0
 40
1.0
100
AcDbArc
 50
180.0
 51
0.0
  0
ARC
  5
147
330
1E
100
AcDbEntity
  8
0
  6
Continuous
 62
     3
100
AcDbCircle
 10
-872.766734984432
 20
-460.3093890073851
 30
0.0
 40
1.0
100
AcDbArc
 50
0.0
 51
180.0
  0
LINE
  5
148
330
1E
100
AcDbEntity
  8
0
  6
Continuous
 62
     3
100
AcDbLine
 10
-873.766734984432
 20
-463.8093890073851
 30
0.0
 11
-873.766734984432
 21
-460.3093890073851
 31
0.0
  0
LINE
  5
149
330
1E
100
AcDbEntity
  8
0
  6
Continuous
 62
     3
100
AcDbLine
 10
-871.7667349844319
 20
-460.3093890073851
 30
0.0
 11
-871.7667349844319
 21
-461.5593890073851
 31
0.0
  0
LINE
  5
14A
330
1E
100
AcDbEntity
  8
0
  6
Continuous
 62
     3
100
AcDbLine
 10
-871.7667349844319
 20
-463.309389007385
 30
0.0
 11
-871.7667349844319
 21
-463.8093890073851
 31
0.0
  0
LINE
  5
14B
330
1E
100
AcDbEntity
  8
0
  6
Continuous
 62
     3
100
AcDbLine
 10
-870.7667349844319
 20
-463.309389007385
 30
0.0
 11
-870.7667349844319
 21
-463.8093890073851
 31
0.0
  0
LINE
  5
14C
330
1E
100
AcDbEntity
  8
0
  6
Continuous
 62
     3
100
AcDbLine
 10
-870.7667349844319
 20
-463.8093890073851
 30
0.0
 11
-871.7667349844319
 21
-463.309389007385
 31
0.0
  0
LINE
  5
14D
330
1E
100
AcDbEntity
  8
0
  6
Continuous
 62
     3
100
AcDbLine
 10
-869.7667349844319
 20
-463.309389007385
 30
0.0
 11
-869.7667349844319
 21
-463.8093890073851
 31
0.0
  0
LINE
  5
14E
330
1E
100
AcDbEntity
  8
0
  6
Continuous
 62
     3
100
AcDbLine
 10
-869.7667349844319
 20
-463.8093890073851
 30
0.0
 11
-870.7667349844319
 21
-463.309389007385
 31
0.0
  0
LINE
  5
14F
330
1E
100
AcDbEntity
  8
0
  6
Continuous
 62
     3
100
AcDbLine
 10
-869.7667349844319
 20
-463.309389007385
 30
0.0
 11
-868.7667349844319
 21
-463.8093890073851
 31
0.0
  0
LINE
  5
150
330
1E
100
AcDbEntity
  8
0
  6
Continuous
 62
     3
100
AcDbLine
 10
-868.7667349844319
 20
-463.8093890073851
 30
0.0
 11
-868.7667349844319
 21
-463.309389007385
 31
0.0
  0
LINE
  5
151
330
1E
100
AcDbEntity
  8
0
  6
Continuous
 62
     3
100
AcDbLine
 10
-868.7667349844319
 20
-463.309389007385
 30
0.0
 11
-867.766734984432
 21
-463.8093890073851
 31
0.0
  0
LINE
  5
152
330
1E
100
AcDbEntity
  8
0
  6
Continuous
 62
     3
100
AcDbLine
 10
-867.766734984432
 20
-463.8093890073851
 30
0.0
 11
-867.766734984432
 21
-463.309389007385
 31
0.0
  0
LINE
  5
153
330
1E
100
AcDbEntity
  8
0
  6
Continuous
 62
     3
100
AcDbLine
 10
-867.766734984432
 20
-463.309389007385
 30
0.0
 11
-866.766734984432
 21
-463.8093890073851
 31
0.0
  0
LINE
  5
154
330
1E
100
AcDbEntity
  8
0
  6
Continuous
 62
     3
100
AcDbLine
 10
-866.766734984432
 20
-463.8093890073851
 30
0.0
 11
-866.766734984432
 21
-463.309389007385
 31
0.0
  0
LINE
  5
155
330
1E
100
AcDbEntity
  8
0
  6
Continuous
 62
     3
100
AcDbLine
 10
-866.766734984432
 20
-463.309389007385
 30
0.0
 11
-865.766734984432
 21
-463.8093890073851
 31
0.0
  0
LINE
  5
156
330
1E
100
AcDbEntity
  8
0
  6
Continuous
 62
     3
100
AcDbLine
 10
-865.766734984432
 20
-463.8093890073851
 30
0.0
 11
-865.766734984432
 21
-463.309389007385
 31
0.0
  0
LINE
  5
157
330
1E
100
AcDbEntity
  8
0
  6
Continuous
 62
     3
100
AcDbLine
 10
-865.766734984432
 20
-463.309389007385
 30
0.0
 11
-864.766734984432
 21
-463.8093890073851
 31
0.0
  0
LINE
  5
158
330
1E
100
AcDbEntity
  8
0
  6
Continuous
 62
     3
100
AcDbLine
 10
-864.766734984432
 20
-463.8093890073851
 30
0.0
 11
-864.766734984432
 21
-463.309389007385
 31
0.0
  0
LINE
  5
159
330
1E
100
AcDbEntity
  8
0
  6
Continuous
 62
     3
100
AcDbLine
 10
-864.766734984432
 20
-463.309389007385
 30
0.0
 11
-863.7667349844319
 21
-463.8093890073851
 31
0.0
  0
LINE
  5
15A
330
1E
100
AcDbEntity
  8
0
  6
Continuous
 62
     3
100
AcDbLine
 10
-863.7667349844319
 20
-463.8093890073851
 30
0.0
 11
-863.7667349844319
 21
-463.309389007385
 31
0.0
  0
LINE
  5
15B
330
1E
100
AcDbEntity
  8
0
  6
Continuous
 62
     3
100
AcDbLine
 10
-863.7667349844319
 20
-463.309389007385
 30
0.0
 11
-862.7667349844319
 21
-463.8093890073851
 31
0.0
  0
LINE
  5
15C
330
1E
100
AcDbEntity
  8
0
  6
Continuous
 62
     3
100
AcDbLine
 10
-862.7667349844319
 20
-463.8093890073851
 30
0.0
 11
-862.7667349844319
 21
-463.309389007385
 31
0.0
  0
LINE
  5
15D
330
1E
100
AcDbEntity
  8
0
  6
Continuous
 62
     3
100
AcDbLine
 10
-862.7667349844319
 20
-463.309389007385
 30
0.0
 11
-861.7667349844319
 21
-463.8093890073851
 31
0.0
  0
LINE
  5
15E
330
1E
100
AcDbEntity
  8
0
  6
Continuous
 62
     3
100
AcDbLine
 10
-861.7667349844319
 20
-463.8093890073851
 30
0.0
 11
-861.7667349844319
 21
-463.309389007385
 31
0.0
  0
LINE
  5
15F
330
1E
100
AcDbEntity
  8
0
  6
Continuous
 62
     3
100
AcDbLine
 10
-861.7667349844319
 20
-463.309389007385
 30
0.0
 11
-860.7667349844319
 21
-463.8093890073851
 31
0.0
  0
LINE
  5
160
330
1E
100
AcDbEntity
  8
0
  6
Continuous
 62
     3
100
AcDbLine
 10
-860.7667349844319
 20
-463.309389007385
 30
0.0
 11
-860.7667349844319
 21
-463.8093890073851
 31
0.0
  0
LINE
  5
161
330
1E
100
AcDbEntity
  8
0
  6
Continuous
 62
     3
100
AcDbLine
 10
-860.7667349844319
 20
-463.309389007385
 30
0.0
 11
-859.766734984432
 21
-463.8093890073851
 31
0.0
  0
LINE
  5
162
330
1E
100
AcDbEntity
  8
0
  6
Continuous
 62
     3
100
AcDbLine
 10
-859.766734984432
 20
-463.8093890073851
 30
0.0
 11
-859.766734984432
 21
-463.309389007385
 31
0.0
  0
LINE
  5
163
330
1E
100
AcDbEntity
  8
0
  6
Continuous
 62
     3
100
AcDbLine
 10
-859.766734984432
 20
-463.309389007385
 30
0.0
 11
-858.766734984432
 21
-463.8093890073851
 31
0.0
  0
LINE
  5
164
330
1E
100
AcDbEntity
  8
0
  6
Continuous
 62
     3
100
AcDbLine
 10
-858.766734984432
 20
-463.8093890073851
 30
0.0
 11
-858.766734984432
 21
-463.309389007385
 31
0.0
  0
LINE
  5
165
330
1E
100
AcDbEntity
  8
0
  6
Continuous
 62
     3
100
AcDbLine
 10
-857.2667349844319
 20
-458.4093890073851
 30
0.0
 11
-857.2667349844319
 21
-459.9093890073851
 31
0.0
  0
LINE
  5
166
330
1E
100
AcDbEntity
  8
0
  6
Continuous
 62
     3
100
AcDbLine
 10
-855.266734984432
 20
-458.4093890073851
 30
0.0
 11
-855.266734984432
 21
-459.6593890073851
 31
0.0
  0
POINT
  5
167
330
1E
100
AcDbEntity
  8
0
  6
Continuous
 62
     3
100
AcDbPoint
 10
-856.2667349844319
 20
-457.4093890073851
 30
0.0
  0
ARC
  5
168
330
1E
100
AcDbEntity
  8
0
  6
Continuous
 62
     3
100
AcDbCircle
 10
-840.766734984432
 20
-459.109389007385
 30
0.0
 40
4.2
100
AcDbArc
 50
270.0
 51
331.606980579
  0
LINE
  5
169
330
1E
100
AcDbEntity
  8
0
  6
Continuous
 62
     3
100
AcDbLine
 10
-840.766734984432
 20
-463.309389007385
 30
0.0
 11
-871.7667349844319
 21
-463.309389007385
 31
0.0
  0
LINE
  5
16A
330
1E
100
AcDbEntity
  8
0
  6
Continuous
 62
     3
100
AcDbLine
 10
-824.766734984432
 20
-458.1093890073851
 30
0.0
 11
-819.7667349844319
 21
-458.1093890073851
 31
0.0
  0
ARC
  5
16B
330
1E
100
AcDbEntity
  8
0
  6
Continuous
 62
     3
100
AcDbCircle
 10
-856.2667349844319
 20
-458.4093890073851
 30
0.0
 40
1.0
100
AcDbArc
 50
163.287615436
 51
179.9999999989999
  0
ARC
  5
16C
330
1E
100
AcDbEntity
  8
0
  6
Continuous
 62
     3
100
AcDbCircle
 10
-856.2667349844319
 20
-458.4093890073851
 30
0.0
 40
1.0
100
AcDbArc
 50
0.0
 51
16.712384564
  0
ARC
  5
16D
330
1E
100
AcDbEntity
  8
0
  6
Continuous
 62
     3
100
AcDbCircle
 10
-856.266734983432
 20
-385.8088890073851
 30
0.0
 40
1.0
100
AcDbArc
 50
343.287615436
 51
0.0
  0
ARC
  5
16E
330
1E
100
AcDbEntity
  8
0
  6
Continuous
 62
     3
100
AcDbCircle
 10
-856.266734983432
 20
-385.8088890073851
 30
0.0
 40
1.0
100
AcDbArc
 50
180.0000000009999
 51
196.712384564
  0
LINE
  5
16F
330
1E
100
AcDbEntity
  8
0
  6
Continuous
 62
     3
100
AcDbLine
 10
-844.0167349844319
 20
-458.3695452573851
 30
0.0
 11
-873.766734984432
 21
-461.8093890073851
 31
0.0
  0
LINE
  5
170
330
1E
100
AcDbEntity
  8
0
  6
Continuous
 62
     3
100
AcDbLine
 10
-844.016734983432
 20
-385.8487327573851
 30
0.0
 11
-873.7667349834319
 21
-382.4088890073851
 31
0.0
  0
LINE
  5
171
330
1E
100
AcDbEntity
  8
0
  6
Continuous
 62
     3
100
AcDbLine
 10
-832.7667349834319
 20
-383.1088890073851
 30
0.0
 11
-837.066734983432
 21
-383.1088890073851
 31
0.0
  0
LINE
  5
172
330
1E
100
AcDbEntity
  8
0
  6
Continuous
 62
     3
100
AcDbLine
 10
-826.5167349834319
 20
-383.1088890073851
 30
0.0
 11
-830.766734983432
 21
-383.1088890073851
 31
0.0
  0
LINE
  5
173
330
1E
100
AcDbEntity
  8
0
  6
Continuous
 62
     3
100
AcDbLine
 10
-819.766734983432
 20
-383.1088890073851
 30
0.0
 11
-824.7667349834319
 21
-383.1088890073851
 31
0.0
  0
LINE
  5
174
330
1E
100
AcDbEntity
  8
0
  6
Continuous
 62
     3
100
AcDbLine
 10
-808.7667349834319
 20
-383.1088890083851
 30
0.0
 11
-818.166734983432
 21
-383.1088890073851
 31
0.0
  0
LINE
  5
175
330
1E
100
AcDbEntity
  8
0
  6
Continuous
 62
     3
100
AcDbLine
 10
-808.766734984432
 20
-461.1093890083851
 30
0.0
 11
-818.066734984432
 21
-461.1093890073851
 31
0.0
  0
LINE
  5
176
330
1E
100
AcDbEntity
  8
0
  6
Continuous
 62
     3
100
AcDbLine
 10
-819.7667349844319
 20
-461.1093890073851
 30
0.0
 11
-824.766734984432
 21
-461.1093890073851
 31
0.0
  0
LINE
  5
177
330
1E
100
AcDbEntity
  8
0
  6
Continuous
 62
     3
100
AcDbLine
 10
-832.766734984432
 20
-461.1093890073851
 30
0.0
 11
-837.0667349844321
 21
-461.1093890073851
 31
0.0
  0
LINE
  5
178
330
1E
100
AcDbEntity
  8
0
  6
Continuous
 62
     3
100
AcDbLine
 10
-826.516734984432
 20
-461.1093890073851
 30
0.0
 11
-830.7667349844319
 21
-461.1093890073851
 31
0.0
  0
LINE
  5
179
330
1E
100
AcDbEntity
  8
0
  6
Continuous
 62
     3
100
AcDbLine
 10
-808.7667349834319
 20
-410.6091390083851
 30
0.0
 11
-799.766734983432
 21
-410.6091390083851
 31
0.0
  0
LINE
  5
17A
330
1E
100
AcDbEntity
  8
0
  6
Continuous
 62
     3
100
AcDbLine
 10
-799.766734983432
 20
-410.6091390083851
 30
0.0
 11
-799.766734983432
 21
-433.6091390083851
 31
0.0
  0
LINE
  5
17B
330
1E
100
AcDbEntity
  8
0
  6
Continuous
 62
     3
100
AcDbLine
 10
-799.766734983432
 20
-433.6091390083851
 30
0.0
 11
-808.7667349834319
 21
-433.6091390083851
 31
0.0
  0
ARC
  5
17C
330
1E
100
AcDbEntity
  8
0
  6
Continuous
 62
     3
100
AcDbCircle
 10
-799.766734983432
 20
-417.1091390083851
 30
0.0
 40
1.0
100
AcDbArc
 50
90.0
 51
180.0
  0
LINE
  5
17D
330
1E
100
AcDbEntity
  8
0
  6
Continuous
 62
     3
100
AcDbLine
 10
-800.7667349834319
 20
-417.1091390083851
 30
0.0
 11
-800.7667349834319
 21
-419.1091390083851
 31
0.0
  0
ARC
  5
17E
330
1E
100
AcDbEntity
  8
0
  6
Continuous
 62
     3
100
AcDbCircle
 10
-799.766734983432
 20
-419.1091390083851
 30
0.0
 40
1.0
100
AcDbArc
 50
180.0
 51
270.0
  0
ARC
  5
17F
330
1E
100
AcDbEntity
  8
0
  6
Continuous
 62
     3
100
AcDbCircle
 10
-799.766734983432
 20
-425.1091390083851
 30
0.0
 40
1.0
100
AcDbArc
 50
90.0
 51
180.0
  0
LINE
  5
180
330
1E
100
AcDbEntity
  8
0
  6
Continuous
 62
     3
100
AcDbLine
 10
-800.7667349834319
 20
-425.1091390083851
 30
0.0
 11
-800.7667349834319
 21
-427.1091390083851
 31
0.0
  0
ARC
  5
181
330
1E
100
AcDbEntity
  8
0
  6
Continuous
 62
     3
100
AcDbCircle
 10
-799.766734983432
 20
-427.1091390083851
 30
0.0
 40
1.0
100
AcDbArc
 50
180.0
 51
270.0
  0
LINE
  5
182
330
1E
100
AcDbEntity
  8
0
  6
Continuous
 62
     3
100
AcDbLine
 10
-808.7667349834319
 20
-386.1091390083851
 30
0.0
 11
-809.266734983432
 21
-386.1091390083851
 31
0.0
  0
LINE
  5
183
330
1E
100
AcDbEntity
  8
0
  6
Continuous
 62
     3
100
AcDbLine
 10
-859.266734983432
 20
-403.1091390073851
 30
0.0
 11
-880.2667349834321
 21
-403.1091390073851
 31
0.0
  0
LINE
  5
184
330
1E
100
AcDbEntity
  8
0
  6
Continuous
 62
     3
100
AcDbLine
 10
-859.266734983432
 20
-441.1091390073851
 30
0.0
 11
-859.266734983432
 21
-403.1091390073851
 31
0.0
  0
LINE
  5
185
330
1E
100
AcDbEntity
  8
0
  6
Continuous
 62
     3
100
AcDbLine
 10
-859.266734983432
 20
-403.1091390073851
 30
0.0
 11
-859.266734983432
 21
-441.1091390073851
 31
0.0
  0
LINE
  5
186
330
1E
100
AcDbEntity
  8
0
  6
Continuous
 62
     3
100
AcDbLine
 10
-839.266734983432
 20
-403.1091390073851
 30
0.0
 11
-859.266734983432
 21
-403.1091390073851
 31
0.0
  0
LINE
  5
187
330
1E
100
AcDbEntity
  8
0
  6
Continuous
 62
     3
100
AcDbLine
 10
-839.266734983432
 20
-441.1091390073851
 30
0.0
 11
-839.266734983432
 21
-403.1091390073851
 31
0.0
  0
LINE
  5
188
330
1E
100
AcDbEntity
  8
0
  6
Continuous
 62
     3
100
AcDbLine
 10
-859.266734983432
 20
-441.1091390073851
 30
0.0
 11
-839.266734983432
 21
-441.1091390073851
 31
0.0
  0
LINE
  5
189
330
1E
100
AcDbEntity
  8
0
  6
Continuous
 62
     3
100
AcDbLine
 10
-880.2667349834321
 20
-441.1091390073851
 30
0.0
 11
-859.266734983432
 21
-441.1091390073851
 31
0.0
  0
LINE
  5
18A
330
1E
100
AcDbEntity
  8
0
  6
Continuous
 62
     3
100
AcDbLine
 10
-880.2667349834321
 20
-403.1091390073851
 30
0.0
 11
-880.2667349834321
 21
-441.1091390073851
 31
0.0
  0
ARC
  5
18B
330
1E
100
AcDbEntity
  8
0
  6
Continuous
 62
     3
100
AcDbCircle
 10
-880.2667349834321
 20
-403.1091390073851
 30
0.0
 40
1.0
100
AcDbArc
 50
90.0
 51
180.0
  0
LINE
  5
18C
330
1E
100
AcDbEntity
  8
1
  6
Continuous
 62
     3
100
AcDbLine
 10
-881.266734983432
 20
-441.1091390073851
 30
0.0
 11
-881.266734983432
 21
-403.1091390073851
 31
0.0
  0
ARC
  5
18D
330
1E
100
AcDbEntity
  8
0
  6
Continuous
 62
     3
100
AcDbCircle
 10
-880.2667349834321
 20
-441.1091390073851
 30
0.0
 40
1.0
100
AcDbArc
 50
180.0
 51
270.0
  0
LINE
  5
18E
330
1E
100
AcDbEntity
  8
1
  6
Continuous
 62
     3
100
AcDbLine
 10
-880.2667349834321
 20
-442.1091390073851
 30
0.0
 11
-839.266734983432
 21
-442.1091390073851
 31
0.0
  0
ARC
  5
18F
330
1E
100
AcDbEntity
  8
0
  6
Continuous
 62
     3
100
AcDbCircle
 10
-839.266734983432
 20
-441.1091390073851
 30
0.0
 40
1.0
100
AcDbArc
 50
270.0
 51
0.0
  0
LINE
  5
190
330
1E
100
AcDbEntity
  8
1
  6
Continuous
 62
     3
100
AcDbLine
 10
-880.2667349834321
 20
-402.1091390073851
 30
0.0
 11
-839.266734983432
 21
-402.1091390073851
 31
0.0
  0
LINE
  5
191
330
1E
100
AcDbEntity
  8
1
  6
Continuous
 62
     3
100
AcDbLine
 10
-838.2667349834319
 20
-403.1091390073851
 30
0.0
 11
-838.2667349834319
 21
-441.1091390073851
 31
0.0
  0
ARC
  5
192
330
1E
100
AcDbEntity
  8
0
  6
Continuous
 62
     3
100
AcDbCircle
 10
-839.266734983432
 20
-403.1091390073851
 30
0.0
 40
1.0
100
AcDbArc
 50
0.0
 51
90.0
  0
POINT
  5
193
330
1E
100
AcDbEntity
  8
0
  6
Continuous
 62
     3
100
AcDbPoint
 10
-908.766734986432
 20
-388.1091390053851
 30
0.0
  0
LINE
  5
194
330
1E
100
AcDbEntity
  8
0
  6
Continuous
 62
     3
100
AcDbLine
 10
-908.766734986432
 20
-387.1091390053851
 30
0.0
 11
-908.7667349854319
 21
-457.1091390053851
 31
0.0
  0
ARC
  5
195
330
1E
100
AcDbEntity
  8
0
  6
Continuous
 62
     3
100
AcDbCircle
 10
-906.766734986432
 20
-387.1091390053851
 30
0.0
 40
2.0
100
AcDbArc
 50
30.465544868
 51
180.0
  0
LINE
  5
196
330
1E
100
AcDbEntity
  8
0
  6
Continuous
 62
     3
100
AcDbLine
 10
-844.066734986432
 20
-386.1091390053851
 30
0.0
 11
-905.0667349824319
 21
-386.1091390053851
 31
0.0
  0
LINE
  5
197
330
1E
100
AcDbEntity
  8
0
  6
Continuous
 62
     3
100
AcDbLine
 10
-844.066734982432
 20
-386.1091390073851
 30
0.0
 11
-837.0667349824319
 21
-386.1091390073851
 31
0.0
  0
LINE
  5
198
330
1E
100
AcDbEntity
  8
0
  6
Continuous
 62
     3
100
AcDbLine
 10
-841.7667349834319
 20
-386.1088890073851
 30
0.0
 11
-832.7667349834319
 21
-386.1088890073851
 31
0.0
  0
LINE
  5
199
330
1E
100
AcDbEntity
  8
0
  6
Continuous
 62
     3
100
AcDbLine
 10
-824.766734986432
 20
-386.1091390043851
 30
0.0
 11
-824.766734986432
 21
-382.6091390043851
 31
0.0
  0
LINE
  5
19A
330
1E
100
AcDbEntity
  8
0
  6
Continuous
 62
     3
100
AcDbLine
 10
-826.516734986432
 20
-383.4091390043851
 30
0.0
 11
-826.516734986432
 21
-386.1091390043851
 31
0.0
  0
LINE
  5
19B
330
1E
100
AcDbEntity
  8
0
  6
Continuous
 62
     3
100
AcDbLine
 10
-832.766734986432
 20
-386.1091390043851
 30
0.0
 11
-832.766734986432
 21
-382.6091390043851
 31
0.0
  0
LINE
  5
19C
330
1E
100
AcDbEntity
  8
0
  6
Continuous
 62
     3
100
AcDbLine
 10
-832.766734986432
 20
-382.6091390043851
 30
0.0
 11
-830.7667349864319
 21
-382.6091390043851
 31
0.0
  0
LINE
  5
19D
330
1E
100
AcDbEntity
  8
0
  6
Continuous
 62
     3
100
AcDbLine
 10
-826.516734986432
 20
-386.1091390043851
 30
0.0
 11
-830.7667349864319
 21
-386.1091390043851
 31
0.0
  0
LINE
  5
19E
330
1E
100
AcDbEntity
  8
0
  6
Continuous
 62
     3
100
AcDbLine
 10
-830.766734983432
 20
-386.1088890073851
 30
0.0
 11
-826.5167349834319
 21
-386.1088890073851
 31
0.0
  0
LINE
  5
19F
330
1E
100
AcDbEntity
  8
0
  6
Continuous
 62
     3
100
AcDbLine
 10
-830.7667349864319
 20
-382.6091390043851
 30
0.0
 11
-830.7667349864319
 21
-386.1091390043851
 31
0.0
  0
LINE
  5
1A0
330
1E
100
AcDbEntity
  8
0
  6
Continuous
 62
     3
100
AcDbLine
 10
-825.7167349864319
 20
-382.6091390043851
 30
0.0
 11
-824.766734986432
 21
-382.6091390043851
 31
0.0
  0
ARC
  5
1A1
330
1E
100
AcDbEntity
  8
0
  6
Continuous
 62
     3
100
AcDbCircle
 10
-825.7167349864319
 20
-383.4091390043851
 30
0.0
 40
0.8
100
AcDbArc
 50
90.0
 51
179.9999999989999
  0
LINE
  5
1A2
330
1E
100
AcDbEntity
  8
0
  6
Continuous
 62
     3
100
AcDbLine
 10
-819.7667349864319
 20
-386.1091390043851
 30
0.0
 11
-824.766734986432
 21
-386.1091390043851
 31
0.0
  0
LINE
  5
1A3
330
1E
100
AcDbEntity
  8
0
  6
Continuous
 62
     3
100
AcDbLine
 10
-819.7667349864319
 20
-386.1091390043851
 30
0.0
 11
-824.766734986432
 21
-386.1091390043851
 31
0.0
  0
LINE
  5
1A4
330
1E
100
AcDbEntity
  8
0
  6
Continuous
 62
     3
100
AcDbLine
 10
-824.7667349834319
 20
-386.1088890073851
 30
0.0
 11
-819.766734983432
 21
-386.1088890073851
 31
0.0
  0
LINE
  5
1A5
330
1E
100
AcDbEntity
  8
0
  6
Continuous
 62
     3
100
AcDbLine
 10
-819.7667349864319
 20
-382.6091390043851
 30
0.0
 11
-819.7667349864319
 21
-386.1091390043851
 31
0.0
  0
LINE
  5
1A6
330
1E
100
AcDbEntity
  8
0
  6
Continuous
 62
     3
100
AcDbLine
 10
-818.0167349864319
 20
-386.1091390043851
 30
0.0
 11
-818.0167349864319
 21
-383.4091390043851
 31
0.0
  0
LINE
  5
1A7
330
1E
100
AcDbEntity
  8
0
  6
Continuous
 62
     3
100
AcDbLine
 10
-818.816734986432
 20
-382.6091390043851
 30
0.0
 11
-819.7667349864319
 21
-382.6091390043851
 31
0.0
  0
ARC
  5
1A8
330
1E
100
AcDbEntity
  8
0
  6
Continuous
 62
     3
100
AcDbCircle
 10
-818.816734986432
 20
-383.4091390043851
 30
0.0
 40
0.8
100
AcDbArc
 50
0.0
 51
90.0
  0
LINE
  5
1A9
330
1E
100
AcDbEntity
  8
0
  6
Continuous
 62
     3
100
AcDbLine
 10
-809.2667349864319
 20
-386.1091390043851
 30
0.0
 11
-818.0167349864319
 21
-386.1091390043851
 31
0.0
  0
LINE
  5
1AA
330
1E
100
AcDbEntity
  8
0
  6
Continuous
 62
     3
100
AcDbLine
 10
-818.016734983432
 20
-386.1088890073851
 30
0.0
 11
-809.7667349834321
 21
-386.1088890083851
 31
0.0
  0
ARC
  5
1AB
330
1E
100
AcDbEntity
  8
0
  6
Continuous
 62
     3
100
AcDbCircle
 10
-809.2667349864319
 20
-386.6091390043851
 30
0.0
 40
0.5
100
AcDbArc
 50
0.0
 51
90.0
  0
LINE
  5
1AC
330
1E
100
AcDbEntity
  8
0
  6
Continuous
 62
     3
100
AcDbLine
 10
-818.0167349884321
 20
-458.1091390043851
 30
0.0
 11
-809.266734985432
 21
-458.1091390043851
 31
0.0
  0
LINE
  5
1AD
330
1E
100
AcDbEntity
  8
0
  6
Continuous
 62
     3
100
AcDbLine
 10
-818.0167349844319
 20
-458.1093890073851
 30
0.0
 11
-809.766734984432
 21
-458.1093890083851
 31
0.0
  0
LINE
  5
1AE
330
1E
100
AcDbEntity
  8
0
  6
Continuous
 62
     3
100
AcDbLine
 10
-824.7667349854319
 20
-458.1091390043851
 30
0.0
 11
-824.7667349854319
 21
-461.6091390043851
 31
0.0
  0
LINE
  5
1AF
330
1E
100
AcDbEntity
  8
0
  6
Continuous
 62
     3
100
AcDbLine
 10
-819.766734985432
 20
-461.6091390043851
 30
0.0
 11
-819.766734985432
 21
-458.1091390043851
 31
0.0
  0
ARC
  5
1B0
330
1E
100
AcDbEntity
  8
0
  6
Continuous
 62
     3
100
AcDbCircle
 10
-818.8167349854321
 20
-460.8091390043851
 30
0.0
 40
0.8
100
AcDbArc
 50
270.0
 51
0.0
  0
LINE
  5
1B1
330
1E
100
AcDbEntity
  8
0
  6
Continuous
 62
     3
100
AcDbLine
 10
-818.016734985432
 20
-458.1091390043851
 30
0.0
 11
-818.016734985432
 21
-460.8091390043851
 31
0.0
  0
LINE
  5
1B2
330
1E
100
AcDbEntity
  8
0
  6
Continuous
 62
     3
100
AcDbLine
 10
-818.8167349854321
 20
-461.6091390043851
 30
0.0
 11
-819.766734985432
 21
-461.6091390043851
 31
0.0
  0
LINE
  5
1B3
330
1E
100
AcDbEntity
  8
0
  6
Continuous
 62
     3
100
AcDbLine
 10
-826.5167349854319
 20
-460.8091390043851
 30
0.0
 11
-826.5167349854319
 21
-458.1091390043851
 31
0.0
  0
LINE
  5
1B4
330
1E
100
AcDbEntity
  8
0
  6
Continuous
 62
     3
100
AcDbLine
 10
-825.716734985432
 20
-461.6091390043851
 30
0.0
 11
-824.7667349854319
 21
-461.6091390043851
 31
0.0
  0
ARC
  5
1B5
330
1E
100
AcDbEntity
  8
0
  6
Continuous
 62
     3
100
AcDbCircle
 10
-825.716734985432
 20
-460.8091390043851
 30
0.0
 40
0.8
100
AcDbArc
 50
180.0000000009999
 51
270.0
  0
LINE
  5
1B6
330
1E
100
AcDbEntity
  8
0
  6
Continuous
 62
     3
100
AcDbLine
 10
-830.766734985432
 20
-461.6091390043851
 30
0.0
 11
-830.766734985432
 21
-458.1091390043851
 31
0.0
  0
LINE
  5
1B7
330
1E
100
AcDbEntity
  8
0
  6
Continuous
 62
     3
100
AcDbLine
 10
-832.7667349854319
 20
-461.6091390043851
 30
0.0
 11
-830.766734985432
 21
-461.6091390043851
 31
0.0
  0
LINE
  5
1B8
330
1E
100
AcDbEntity
  8
0
  6
Continuous
 62
     3
100
AcDbLine
 10
-830.766734988432
 20
-458.1091390043851
 30
0.0
 11
-826.516734988432
 21
-458.1091390043851
 31
0.0
  0
LINE
  5
1B9
330
1E
100
AcDbEntity
  8
0
  6
Continuous
 62
     3
100
AcDbLine
 10
-830.7667349844319
 20
-458.1093890073851
 30
0.0
 11
-826.516734984432
 21
-458.1093890073851
 31
0.0
  0
LINE
  5
1BA
330
1E
100
AcDbEntity
  8
0
  6
Continuous
 62
     3
100
AcDbLine
 10
-832.7667349854319
 20
-458.1091390043851
 30
0.0
 11
-832.7667349854319
 21
-461.6091390043851
 31
0.0
  0
LINE
  5
1BB
330
1E
100
AcDbEntity
  8
0
  6
Continuous
 62
     3
100
AcDbLine
 10
-837.0667349884319
 20
-458.1091390043851
 30
0.0
 11
-832.766734988432
 21
-458.1091390043851
 31
0.0
  0
LINE
  5
1BC
330
1E
100
AcDbEntity
  8
0
  6
Continuous
 62
     3
100
AcDbLine
 10
-837.0667349844321
 20
-458.1091390073851
 30
0.0
 11
-844.066734984432
 21
-458.1091390073851
 31
0.0
  0
LINE
  5
1BD
330
1E
100
AcDbEntity
  8
0
  6
Continuous
 62
     3
100
AcDbLine
 10
-841.766734984432
 20
-458.1093890073851
 30
0.0
 11
-832.766734984432
 21
-458.1093890073851
 31
0.0
  0
LINE
  5
1BE
330
1E
100
AcDbEntity
  8
0
  6
Continuous
 62
     3
100
AcDbLine
 10
-896.766734985432
 20
-458.1091390053851
 30
0.0
 11
-844.066734988432
 21
-458.1091390053851
 31
0.0
  0
ARC
  5
1BF
330
1E
100
AcDbEntity
  8
0
  6
Continuous
 62
     3
100
AcDbCircle
 10
-906.766734988432
 20
-457.1091390053851
 30
0.0
 40
2.0
100
AcDbArc
 50
180.0
 51
329.534455132
  0
LINE
  5
1C0
330
1E
100
AcDbEntity
  8
0
  6
Continuous
 62
     3
100
AcDbLine
 10
-905.1167349854321
 20
-458.1091390053851
 30
0.0
 11
-901.7667349854319
 21
-458.1091390053851
 31
0.0
  0
LINE
  5
1C1
330
1E
100
AcDbEntity
  8
0
  6
Continuous
 62
     3
100
AcDbLine
 10
-901.766734988432
 20
-458.1091390023851
 30
0.0
 11
-896.7667349884321
 21
-458.1091390023851
 31
0.0
  0
LINE
  5
1C2
330
1E
100
AcDbEntity
  8
0
  6
Continuous
 62
     3
100
AcDbLine
 10
-808.766734984432
 20
-458.1091390083851
 30
0.0
 11
-809.2667349844319
 21
-458.1091390083851
 31
0.0
  0
ARC
  5
1C3
330
1E
100
AcDbEntity
  8
0
  6
Continuous
 62
     3
100
AcDbCircle
 10
-809.266734985432
 20
-457.6091390043851
 30
0.0
 40
0.5
100
AcDbArc
 50
270.0
 51
0.0
  0
LINE
  5
1C4
330
1E
100
AcDbEntity
  8
0
  6
Continuous
 62
     3
100
AcDbLine
 10
-808.7667349854319
 20
-457.6091390043851
 30
0.0
 11
-808.766734986432
 21
-386.6091390043851
 31
0.0
  0
LINE
  5
1C5
330
1E
100
AcDbEntity
  8
0
  6
Continuous
 62
     3
100
AcDbLine
 10
-808.7667349834319
 20
-415.1091390083851
 30
0.0
 11
-799.766734983432
 21
-415.1091390083851
 31
0.0
  0
LINE
  5
1C6
330
1E
100
AcDbEntity
  8
0
  6
Continuous
 62
     3
100
AcDbLine
 10
-799.766734983432
 20
-429.1091390083851
 30
0.0
 11
-808.7667349834319
 21
-429.1091390083851
 31
0.0
  0
LINE
  5
1C7
330
1E
100
AcDbEntity
  8
0
  6
Continuous
 62
     3
100
AcDbLine
 10
-804.516734983432
 20
-422.6403890083851
 30
0.0
 11
-800.7667349834319
 21
-423.1091390083851
 31
0.0
  0
ARC
  5
1C8
330
1E
100
AcDbEntity
  8
0
  6
Continuous
 62
     3
100
AcDbCircle
 10
-804.391734983432
 20
-421.9841390083851
 30
0.0
 40
0.395284708
100
AcDbArc
 50
108.434948823
 51
198.4349488219999
  0
ARC
  5
1C9
330
1E
100
AcDbEntity
  8
0
  6
Continuous
 62
     3
100
AcDbCircle
 10
-804.391734983432
 20
-422.2341390083851
 30
0.0
 40
0.395284708
100
AcDbArc
 50
161.565051178
 51
251.565051177
  0
LWPOLYLINE
  5
1CA
330
1E
100
AcDbEntity
  8
0
 62
     3
100
AcDbPolyline
 90
        3
 70
     0
 43
0.0
 10
-799.766734983432
 20
-420.6091390083851
 10
-800.7667349834319
 20
-420.6091390083851
 10
-800.7667349834319
 20
-421.1091390083851
  0
LINE
  5
1CF
330
1E
100
AcDbEntity
  8
0
  6
Continuous
 62
     3
100
AcDbLine
 10
-804.516734983432
 20
-421.5778890083851
 30
0.0
 11
-800.7667349834319
 21
-421.1091390083851
 31
0.0
  0
LWPOLYLINE
  5
1D0
330
1E
100
AcDbEntity
  8
0
 62
     3
100
AcDbPolyline
 90
        3
 70
     0
 43
0.0
 10
-799.766734983432
 20
-423.6091390083851
 10
-800.7667349834319
 20
-423.6091390083851
 10
-800.7667349834319
 20
-423.1091390083851
  0
LINE
  5
1D5
330
1E
100
AcDbEntity
  8
0
  6
Continuous
 62
     3
100
AcDbLine
 10
-799.766734983432
 20
-429.1091390083851
 30
0.0
 11
-799.766734983432
 21
-415.1091390083851
 31
0.0
  0
LINE
  5
1D6
330
1E
100
AcDbEntity
  8
0
  6
Continuous
 62
     3
100
AcDbLine
 10
-808.766734982432
 20
-356.1091390083851
 30
0.0
 11
-811.181549548432
 21
-355.4620913953851
 31
0.0
  0
LINE
  5
1D7
330
1E
100
AcDbEntity
  8
0
  6
Continuous
 62
     3
100
AcDbLine
 10
-808.766734982432
 20
-356.1091390083851
 30
0.0
 11
-811.181549548432
 21
-356.7561866213851
 31
0.0
  0
LWPOLYLINE
  5
1D8
330
1E
100
AcDbEntity
  8
0
 62
     3
100
AcDbPolyline
 90
        4
 70
     0
 43
0.0
 10
-937.7667349844319
 20
-469.1091390083851
 10
-937.7667349844319
 20
-471.1091390083851
 10
-945.7667349844319
 20
-471.1091390083851
 10
-945.7667349844319
 20
-469.1091390083851
  0
LINE
  5
1DE
330
1E
100
AcDbEntity
  8
0
  6
Continuous
 62
     3
100
AcDbLine
 10
-929.766734983432
 20
-443.6091390083851
 30
0.0
 11
-928.766734983432
 21
-443.6091390083851
 31
0.0
  0
LINE
  5
1DF
330
1E
100
AcDbEntity
  8
0
  6
Continuous
 62
     3
100
AcDbLine
 10
-928.766734983432
 20
-443.6091390083851
 30
0.0
 11
-928.766734983432
 21
-439.6091390083851
 31
0.0
  0
LINE
  5
1E0
330
1E
100
AcDbEntity
  8
0
  6
Continuous
 62
     3
100
AcDbLine
 10
-928.766734983432
 20
-439.6091390083851
 30
0.0
 11
-929.766734983432
 21
-439.6091390083851
 31
0.0
  0
LINE
  5
1E1
330
1E
100
AcDbEntity
  8
0
  6
Continuous
 62
     3
100
AcDbLine
 10
-929.766734983432
 20
-400.6091390083851
 30
0.0
 11
-928.766734983432
 21
-400.6091390083851
 31
0.0
  0
LINE
  5
1E2
330
1E
100
AcDbEntity
  8
0
  6
Continuous
 62
     3
100
AcDbLine
 10
-928.766734983432
 20
-400.6091390083851
 30
0.0
 11
-928.766734983432
 21
-404.6091390083851
 31
0.0
  0
LINE
  5
1E3
330
1E
100
AcDbEntity
  8
0
  6
Continuous
 62
     3
100
AcDbLine
 10
-928.766734983432
 20
-404.6091390083851
 30
0.0
 11
-929.766734983432
 21
-404.6091390083851
 31
0.0
  0
LINE
  5
1E4
330
1E
100
AcDbEntity
  8
0
  6
Continuous
 62
     3
100
AcDbLine
 10
-953.766734983432
 20
-404.6091390083851
 30
0.0
 11
-954.766734983432
 21
-404.6091390083851
 31
0.0
  0
LINE
  5
1E5
330
1E
100
AcDbEntity
  8
0
  6
Continuous
 62
     3
100
AcDbLine
 10
-954.766734983432
 20
-404.6091390083851
 30
0.0
 11
-954.766734983432
 21
-400.6091390083851
 31
0.0
  0
LINE
  5
1E6
330
1E
100
AcDbEntity
  8
0
  6
Continuous
 62
     3
100
AcDbLine
 10
-954.766734983432
 20
-400.6091390083851
 30
0.0
 11
-953.766734983432
 21
-400.6091390083851
 31
0.0
  0
LINE
  5
1E7
330
1E
100
AcDbEntity
  8
0
  6
Continuous
 62
     3
100
AcDbLine
 10
-953.766734983432
 20
-439.6091390083851
 30
0.0
 11
-954.766734983432
 21
-439.6091390083851
 31
0.0
  0
LINE
  5
1E8
330
1E
100
AcDbEntity
  8
0
  6
Continuous
 62
     3
100
AcDbLine
 10
-954.766734983432
 20
-439.6091390083851
 30
0.0
 11
-954.766734983432
 21
-443.6091390083851
 31
0.0
  0
LINE
  5
1E9
330
1E
100
AcDbEntity
  8
0
  6
Continuous
 62
     3
100
AcDbLine
 10
-954.766734983432
 20
-443.6091390083851
 30
0.0
 11
-953.766734983432
 21
-443.6091390083851
 31
0.0
  0
LINE
  5
1EA
330
1E
100
AcDbEntity
  8
0
  6
Continuous
 62
     3
100
AcDbLine
 10
-951.766734984432
 20
-458.1091390083851
 30
0.0
 11
-951.766734984432
 21
-469.1091390083851
 31
0.0
  0
LINE
  5
1EB
330
1E
100
AcDbEntity
  8
0
  6
Continuous
 62
     3
100
AcDbLine
 10
-931.766734984432
 20
-469.1091390083851
 30
0.0
 11
-931.766734984432
 21
-458.1091390083851
 31
0.0
  0
LINE
  5
1EC
330
1E
100
AcDbEntity
  8
0
  6
Continuous
 62
     3
100
AcDbLine
 10
-940.766734984432
 20
-467.1091390083851
 30
0.0
 11
-931.766734984432
 21
-467.1091390083851
 31
0.0
  0
LINE
  5
1ED
330
1E
100
AcDbEntity
  8
0
  6
Continuous
 62
     3
100
AcDbLine
 10
-951.766734984432
 20
-467.1091390083851
 30
0.0
 11
-942.766734984432
 21
-467.1091390083851
 31
0.0
  0
LINE
  5
1EE
330
1E
100
AcDbEntity
  8
0
  6
Continuous
 62
     3
100
AcDbLine
 10
-936.7667349844319
 20
-463.1091390083851
 30
0.0
 11
-936.7667349844319
 21
-461.6091390083851
 31
0.0
  0
LINE
  5
1EF
330
1E
100
AcDbEntity
  8
0
  6
Continuous
 62
     3
100
AcDbLine
 10
-936.7667349844319
 20
-461.6091390083851
 30
0.0
 11
-935.7667349844319
 21
-461.6091390083851
 31
0.0
  0
LINE
  5
1F0
330
1E
100
AcDbEntity
  8
0
  6
Continuous
 62
     3
100
AcDbLine
 10
-935.7667349844319
 20
-461.6091390083851
 30
0.0
 11
-935.7667349844319
 21
-463.1091390083851
 31
0.0
  0
LINE
  5
1F1
330
1E
100
AcDbEntity
  8
0
  6
Continuous
 62
     3
100
AcDbLine
 10
-935.7667349844319
 20
-463.1091390083851
 30
0.0
 11
-934.2667349844319
 21
-463.1091390083851
 31
0.0
  0
LINE
  5
1F2
330
1E
100
AcDbEntity
  8
0
  6
Continuous
 62
     3
100
AcDbLine
 10
-934.2667349844319
 20
-463.1091390083851
 30
0.0
 11
-934.2667349844319
 21
-464.109139008385
 31
0.0
  0
LINE
  5
1F3
330
1E
100
AcDbEntity
  8
0
  6
Continuous
 62
     3
100
AcDbLine
 10
-934.2667349844319
 20
-464.109139008385
 30
0.0
 11
-935.7667349844319
 21
-464.109139008385
 31
0.0
  0
LINE
  5
1F4
330
1E
100
AcDbEntity
  8
0
  6
Continuous
 62
     3
100
AcDbLine
 10
-935.7667349844319
 20
-464.109139008385
 30
0.0
 11
-935.7667349844319
 21
-465.6091390083851
 31
0.0
  0
LINE
  5
1F5
330
1E
100
AcDbEntity
  8
0
  6
Continuous
 62
     3
100
AcDbLine
 10
-935.7667349844319
 20
-465.6091390083851
 30
0.0
 11
-936.7667349844319
 21
-465.6091390083851
 31
0.0
  0
LINE
  5
1F6
330
1E
100
AcDbEntity
  8
0
  6
Continuous
 62
     3
100
AcDbLine
 10
-936.7667349844319
 20
-465.6091390083851
 30
0.0
 11
-936.7667349844319
 21
-464.109139008385
 31
0.0
  0
LINE
  5
1F7
330
1E
100
AcDbEntity
  8
0
  6
Continuous
 62
     3
100
AcDbLine
 10
-936.7667349844319
 20
-464.109139008385
 30
0.0
 11
-938.266734984432
 21
-464.109139008385
 31
0.0
  0
LINE
  5
1F8
330
1E
100
AcDbEntity
  8
0
  6
Continuous
 62
     3
100
AcDbLine
 10
-938.266734984432
 20
-464.109139008385
 30
0.0
 11
-938.266734984432
 21
-463.1091390083851
 31
0.0
  0
LINE
  5
1F9
330
1E
100
AcDbEntity
  8
0
  6
Continuous
 62
     3
100
AcDbLine
 10
-938.266734984432
 20
-463.1091390083851
 30
0.0
 11
-936.7667349844319
 21
-463.1091390083851
 31
0.0
  0
LINE
  5
1FA
330
1E
100
AcDbEntity
  8
0
  6
Continuous
 62
     3
100
AcDbLine
 10
-947.766734984432
 20
-463.1091390083851
 30
0.0
 11
-947.766734984432
 21
-461.6091390083851
 31
0.0
  0
LINE
  5
1FB
330
1E
100
AcDbEntity
  8
0
  6
Continuous
 62
     3
100
AcDbLine
 10
-947.766734984432
 20
-461.6091390083851
 30
0.0
 11
-946.7667349844319
 21
-461.6091390083851
 31
0.0
  0
LINE
  5
1FC
330
1E
100
AcDbEntity
  8
0
  6
Continuous
 62
     3
100
AcDbLine
 10
-946.7667349844319
 20
-461.6091390083851
 30
0.0
 11
-946.7667349844319
 21
-463.1091390083851
 31
0.0
  0
LINE
  5
1FD
330
1E
100
AcDbEntity
  8
0
  6
Continuous
 62
     3
100
AcDbLine
 10
-946.7667349844319
 20
-463.1091390083851
 30
0.0
 11
-945.266734984432
 21
-463.1091390083851
 31
0.0
  0
LINE
  5
1FE
330
1E
100
AcDbEntity
  8
0
  6
Continuous
 62
     3
100
AcDbLine
 10
-945.266734984432
 20
-463.1091390083851
 30
0.0
 11
-945.266734984432
 21
-464.109139008385
 31
0.0
  0
LINE
  5
1FF
330
1E
100
AcDbEntity
  8
0
  6
Continuous
 62
     3
100
AcDbLine
 10
-945.266734984432
 20
-464.109139008385
 30
0.0
 11
-946.7667349844319
 21
-464.109139008385
 31
0.0
  0
LINE
  5
200
330
1E
100
AcDbEntity
  8
0
  6
Continuous
 62
     3
100
AcDbLine
 10
-946.7667349844319
 20
-464.109139008385
 30
0.0
 11
-946.7667349844319
 21
-465.6091390083851
 31
0.0
  0
LINE
  5
201
330
1E
100
AcDbEntity
  8
0
  6
Continuous
 62
     3
100
AcDbLine
 10
-946.7667349844319
 20
-465.6091390083851
 30
0.0
 11
-947.766734984432
 21
-465.6091390083851
 31
0.0
  0
LINE
  5
202
330
1E
100
AcDbEntity
  8
0
  6
Continuous
 62
     3
100
AcDbLine
 10
-947.766734984432
 20
-465.6091390083851
 30
0.0
 11
-947.766734984432
 21
-464.109139008385
 31
0.0
  0
LINE
  5
203
330
1E
100
AcDbEntity
  8
0
  6
Continuous
 62
     3
100
AcDbLine
 10
-947.766734984432
 20
-464.109139008385
 30
0.0
 11
-949.2667349844319
 21
-464.109139008385
 31
0.0
  0
LINE
  5
204
330
1E
100
AcDbEntity
  8
0
  6
Continuous
 62
     3
100
AcDbLine
 10
-949.2667349844319
 20
-464.109139008385
 30
0.0
 11
-949.2667349844319
 21
-463.1091390083851
 31
0.0
  0
LINE
  5
205
330
1E
100
AcDbEntity
  8
0
  6
Continuous
 62
     3
100
AcDbLine
 10
-949.2667349844319
 20
-463.1091390083851
 30
0.0
 11
-947.766734984432
 21
-463.1091390083851
 31
0.0
  0
LINE
  5
206
330
1E
100
AcDbEntity
  8
0
  6
Continuous
 62
     3
100
AcDbLine
 10
-940.766734984432
 20
-469.1091390083851
 30
0.0
 11
-940.766734984432
 21
-462.1091390083851
 31
0.0
  0
LINE
  5
207
330
1E
100
AcDbEntity
  8
0
  6
Continuous
 62
     3
100
AcDbLine
 10
-942.766734984432
 20
-462.1091390083851
 30
0.0
 11
-942.766734984432
 21
-469.1091390083851
 31
0.0
  0
ARC
  5
208
330
1E
100
AcDbEntity
  8
0
  6
Continuous
 62
     3
100
AcDbCircle
 10
-936.266734984432
 20
-463.609139008385
 30
0.0
 40
3.0
100
AcDbArc
 50
149.0362434679999
 51
120.9637565319999
  0
ARC
  5
209
330
1E
100
AcDbEntity
  8
0
  6
Continuous
 62
     3
100
AcDbCircle
 10
-947.266734984432
 20
-463.609139008385
 30
0.0
 40
3.0
100
AcDbArc
 50
59.036243468
 51
30.963756532
  0
LINE
  5
20A
330
1E
100
AcDbEntity
  8
0
  6
Continuous
 62
     3
100
AcDbLine
 10
-951.766734983432
 20
-386.1091390083851
 30
0.0
 11
-951.766734982432
 21
-375.1091390083851
 31
0.0
  0
LINE
  5
20B
330
1E
100
AcDbEntity
  8
0
  6
Continuous
 62
     3
100
AcDbLine
 10
-931.766734982432
 20
-375.1091390083851
 30
0.0
 11
-931.7667349834319
 21
-386.1091390083851
 31
0.0
  0
LINE
  5
20C
330
1E
100
AcDbEntity
  8
0
  6
Continuous
 62
     3
100
AcDbLine
 10
-940.766734982432
 20
-377.1091390083851
 30
0.0
 11
-931.766734982432
 21
-377.1091390083851
 31
0.0
  0
LINE
  5
20D
330
1E
100
AcDbEntity
  8
0
  6
Continuous
 62
     3
100
AcDbLine
 10
-951.766734982432
 20
-377.1091390083851
 30
0.0
 11
-942.766734982432
 21
-377.1091390083851
 31
0.0
  0
LINE
  5
20E
330
1E
100
AcDbEntity
  8
0
  6
Continuous
 62
     3
100
AcDbLine
 10
-936.766734983432
 20
-381.1091390083851
 30
0.0
 11
-936.766734983432
 21
-382.6091390083851
 31
0.0
  0
LINE
  5
20F
330
1E
100
AcDbEntity
  8
0
  6
Continuous
 62
     3
100
AcDbLine
 10
-936.766734983432
 20
-382.6091390083851
 30
0.0
 11
-935.766734983432
 21
-382.6091390083851
 31
0.0
  0
LINE
  5
210
330
1E
100
AcDbEntity
  8
0
  6
Continuous
 62
     3
100
AcDbLine
 10
-935.766734983432
 20
-382.6091390083851
 30
0.0
 11
-935.766734983432
 21
-381.1091390083851
 31
0.0
  0
LINE
  5
211
330
1E
100
AcDbEntity
  8
0
  6
Continuous
 62
     3
100
AcDbLine
 10
-935.766734983432
 20
-381.1091390083851
 30
0.0
 11
-934.266734983432
 21
-381.1091390083851
 31
0.0
  0
LINE
  5
212
330
1E
100
AcDbEntity
  8
0
  6
Continuous
 62
     3
100
AcDbLine
 10
-934.266734983432
 20
-381.1091390083851
 30
0.0
 11
-934.2667349824321
 21
-380.109139008385
 31
0.0
  0
LINE
  5
213
330
1E
100
AcDbEntity
  8
0
  6
Continuous
 62
     3
100
AcDbLine
 10
-934.2667349824321
 20
-380.109139008385
 30
0.0
 11
-935.7667349824319
 21
-380.109139008385
 31
0.0
  0
LINE
  5
214
330
1E
100
AcDbEntity
  8
0
  6
Continuous
 62
     3
100
AcDbLine
 10
-935.7667349824319
 20
-380.109139008385
 30
0.0
 11
-935.7667349824319
 21
-378.6091390083851
 31
0.0
  0
LINE
  5
215
330
1E
100
AcDbEntity
  8
0
  6
Continuous
 62
     3
100
AcDbLine
 10
-935.7667349824319
 20
-378.6091390083851
 30
0.0
 11
-936.7667349824319
 21
-378.6091390083851
 31
0.0
  0
LINE
  5
216
330
1E
100
AcDbEntity
  8
0
  6
Continuous
 62
     3
100
AcDbLine
 10
-936.7667349824319
 20
-378.6091390083851
 30
0.0
 11
-936.7667349824319
 21
-380.109139008385
 31
0.0
  0
LINE
  5
217
330
1E
100
AcDbEntity
  8
0
  6
Continuous
 62
     3
100
AcDbLine
 10
-936.7667349824319
 20
-380.109139008385
 30
0.0
 11
-938.266734982432
 21
-380.109139008385
 31
0.0
  0
LINE
  5
218
330
1E
100
AcDbEntity
  8
0
  6
Continuous
 62
     3
100
AcDbLine
 10
-938.266734982432
 20
-380.109139008385
 30
0.0
 11
-938.2667349834319
 21
-381.1091390083851
 31
0.0
  0
LINE
  5
219
330
1E
100
AcDbEntity
  8
0
  6
Continuous
 62
     3
100
AcDbLine
 10
-938.2667349834319
 20
-381.1091390083851
 30
0.0
 11
-936.766734983432
 21
-381.1091390083851
 31
0.0
  0
LINE
  5
21A
330
1E
100
AcDbEntity
  8
0
  6
Continuous
 62
     3
100
AcDbLine
 10
-947.766734983432
 20
-381.1091390083851
 30
0.0
 11
-947.766734983432
 21
-382.6091390083851
 31
0.0
  0
LINE
  5
21B
330
1E
100
AcDbEntity
  8
0
  6
Continuous
 62
     3
100
AcDbLine
 10
-947.766734983432
 20
-382.6091390083851
 30
0.0
 11
-946.766734983432
 21
-382.6091390083851
 31
0.0
  0
LINE
  5
21C
330
1E
100
AcDbEntity
  8
0
  6
Continuous
 62
     3
100
AcDbLine
 10
-946.766734983432
 20
-382.6091390083851
 30
0.0
 11
-946.766734983432
 21
-381.1091390083851
 31
0.0
  0
LINE
  5
21D
330
1E
100
AcDbEntity
  8
0
  6
Continuous
 62
     3
100
AcDbLine
 10
-946.766734983432
 20
-381.1091390083851
 30
0.0
 11
-945.2667349834319
 21
-381.1091390083851
 31
0.0
  0
LINE
  5
21E
330
1E
100
AcDbEntity
  8
0
  6
Continuous
 62
     3
100
AcDbLine
 10
-945.2667349834319
 20
-381.1091390083851
 30
0.0
 11
-945.266734982432
 21
-380.109139008385
 31
0.0
  0
LINE
  5
21F
330
1E
100
AcDbEntity
  8
0
  6
Continuous
 62
     3
100
AcDbLine
 10
-945.266734982432
 20
-380.109139008385
 30
0.0
 11
-946.7667349824321
 21
-380.109139008385
 31
0.0
  0
LINE
  5
220
330
1E
100
AcDbEntity
  8
0
  6
Continuous
 62
     3
100
AcDbLine
 10
-946.7667349824321
 20
-380.109139008385
 30
0.0
 11
-946.7667349824321
 21
-378.6091390083851
 31
0.0
  0
LINE
  5
221
330
1E
100
AcDbEntity
  8
0
  6
Continuous
 62
     3
100
AcDbLine
 10
-946.7667349824321
 20
-378.6091390083851
 30
0.0
 11
-947.766734982432
 21
-378.6091390083851
 31
0.0
  0
LINE
  5
222
330
1E
100
AcDbEntity
  8
0
  6
Continuous
 62
     3
100
AcDbLine
 10
-947.766734982432
 20
-378.6091390083851
 30
0.0
 11
-947.766734982432
 21
-380.109139008385
 31
0.0
  0
LINE
  5
223
330
1E
100
AcDbEntity
  8
0
  6
Continuous
 62
     3
100
AcDbLine
 10
-947.766734982432
 20
-380.109139008385
 30
0.0
 11
-949.2667349824319
 21
-380.109139008385
 31
0.0
  0
LINE
  5
224
330
1E
100
AcDbEntity
  8
0
  6
Continuous
 62
     3
100
AcDbLine
 10
-949.2667349824319
 20
-380.109139008385
 30
0.0
 11
-949.266734983432
 21
-381.1091390083851
 31
0.0
  0
LINE
  5
225
330
1E
100
AcDbEntity
  8
0
  6
Continuous
 62
     3
100
AcDbLine
 10
-949.266734983432
 20
-381.1091390083851
 30
0.0
 11
-947.766734983432
 21
-381.1091390083851
 31
0.0
  0
LINE
  5
226
330
1E
100
AcDbEntity
  8
0
  6
Continuous
 62
     3
100
AcDbLine
 10
-940.766734982432
 20
-375.1091390083851
 30
0.0
 11
-940.7667349834319
 21
-382.109139008385
 31
0.0
  0
LINE
  5
227
330
1E
100
AcDbEntity
  8
0
  6
Continuous
 62
     3
100
AcDbLine
 10
-942.7667349834321
 20
-382.109139008385
 30
0.0
 11
-942.766734982432
 21
-375.1091390083851
 31
0.0
  0
ARC
  5
228
330
1E
100
AcDbEntity
  8
0
  6
Continuous
 62
     3
100
AcDbCircle
 10
-936.266734982432
 20
-380.6091390083851
 30
0.0
 40
3.0
100
AcDbArc
 50
239.0362434679999
 51
210.963756532
  0
ARC
  5
229
330
1E
100
AcDbEntity
  8
0
  6
Continuous
 62
     3
100
AcDbCircle
 10
-947.266734982432
 20
-380.6091390083851
 30
0.0
 40
3.0
100
AcDbArc
 50
329.036243468
 51
300.9637565319999
  0
LINE
  5
22A
330
1E
100
AcDbEntity
  8
0
  6
Continuous
 62
     3
100
AcDbLine
 10
-931.766734984432
 20
-455.109139008385
 30
0.0
 11
-931.7667349834319
 21
-389.1091390083851
 31
0.0
  0
LINE
  5
22B
330
1E
100
AcDbEntity
  8
0
  6
Continuous
 62
     3
100
AcDbLine
 10
-951.766734983432
 20
-389.1091390083851
 30
0.0
 11
-951.766734984432
 21
-455.109139008385
 31
0.0
  0
TEXT
  5
22C
330
1E
100
AcDbEntity
  8
0
  6
Continuous
 62
     3
100
AcDbText
 10
-940.313198303432
 20
-447.4290023263851
 30
0.0
 40
4.355999999999999
  1
Ｍ
 50
90.0
 41
0.88
  7
KANJI0
100
AcDbText
  0
LWPOLYLINE
  5
22D
330
1E
100
AcDbEntity
  8
0
 62
     3
100
AcDbPolyline
 90
        3
 70
     1
 43
0.0
 10
-943.616734983432
 20
-438.7991390063851
 10
-941.116734983432
 20
-438.7991390063851
 10
-942.3667349834319
 20
-435.7991390063851
  0
LINE
  5
232
330
1E
100
AcDbEntity
  8
0
  6
Continuous
 62
     3
100
AcDbLine
 10
-943.3667349834321
 20
-438.7991390063851
 30
0.0
 11
-943.3667349834321
 21
-438.1991390063851
 31
0.0
  0
LINE
  5
233
330
1E
100
AcDbEntity
  8
0
  6
Continuous
 62
     3
100
AcDbLine
 10
-943.116734983432
 20
-437.5991390063851
 30
0.0
 11
-943.116734983432
 21
-438.7991390063851
 31
0.0
  0
LINE
  5
234
330
1E
100
AcDbEntity
  8
0
  6
Continuous
 62
     3
100
AcDbLine
 10
-942.866734983432
 20
-438.7991390063851
 30
0.0
 11
-942.866734983432
 21
-436.9991390063851
 31
0.0
  0
LINE
  5
235
330
1E
100
AcDbEntity
  8
0
  6
Continuous
 62
     3
100
AcDbLine
 10
-942.6167349834321
 20
-436.399139006385
 30
0.0
 11
-942.6167349834321
 21
-438.7991390063851
 31
0.0
  0
LINE
  5
236
330
1E
100
AcDbEntity
  8
0
  6
Continuous
 62
     3
100
AcDbLine
 10
-942.3667349834319
 20
-438.7991390063851
 30
0.0
 11
-942.3667349834319
 21
-435.7991390063851
 31
0.0
  0
LINE
  5
237
330
1E
100
AcDbEntity
  8
0
  6
Continuous
 62
     3
100
AcDbLine
 10
-942.116734983432
 20
-436.399139006385
 30
0.0
 11
-942.116734983432
 21
-438.7991390063851
 31
0.0
  0
LINE
  5
238
330
1E
100
AcDbEntity
  8
0
  6
Continuous
 62
     3
100
AcDbLine
 10
-941.866734983432
 20
-438.7991390063851
 30
0.0
 11
-941.866734983432
 21
-436.9991390063851
 31
0.0
  0
LINE
  5
239
330
1E
100
AcDbEntity
  8
0
  6
Continuous
 62
     3
100
AcDbLine
 10
-941.6167349834321
 20
-437.5991390063851
 30
0.0
 11
-941.6167349834321
 21
-438.7991390063851
 31
0.0
  0
LINE
  5
23A
330
1E
100
AcDbEntity
  8
0
  6
Continuous
 62
     3
100
AcDbLine
 10
-941.3667349834319
 20
-438.7991390063851
 30
0.0
 11
-941.3667349834319
 21
-438.1991390063851
 31
0.0
  0
LINE
  5
23B
330
1E
100
AcDbEntity
  8
0
  6
Continuous
 62
     3
100
AcDbLine
 10
-943.616734983432
 20
-438.7991390063851
 30
0.0
 11
-941.116734983432
 21
-438.7991390063851
 31
0.0
  0
LINE
  5
23C
330
1E
100
AcDbEntity
  8
0
  6
Continuous
 62
     3
100
AcDbLine
 10
-941.220901650432
 20
-438.5491390063851
 30
0.0
 11
-943.5125683164319
 21
-438.5491390063851
 31
0.0
  0
LINE
  5
23D
330
1E
100
AcDbEntity
  8
0
  6
Continuous
 62
     3
100
AcDbLine
 10
-943.408401650432
 20
-438.2991390063851
 30
0.0
 11
-941.3250683164319
 21
-438.2991390063851
 31
0.0
  0
LINE
  5
23E
330
1E
100
AcDbEntity
  8
0
  6
Continuous
 62
     3
100
AcDbLine
 10
-941.4292349834321
 20
-438.0491390063851
 30
0.0
 11
-943.304234983432
 21
-438.0491390063851
 31
0.0
  0
LINE
  5
23F
330
1E
100
AcDbEntity
  8
0
  6
Continuous
 62
     3
100
AcDbLine
 10
-943.200068316432
 20
-437.7991390063851
 30
0.0
 11
-941.5334016504319
 21
-437.7991390063851
 31
0.0
  0
LINE
  5
240
330
1E
100
AcDbEntity
  8
0
  6
Continuous
 62
     3
100
AcDbLine
 10
-941.637568316432
 20
-437.5491390063851
 30
0.0
 11
-943.0959016504319
 21
-437.5491390063851
 31
0.0
  0
LINE
  5
241
330
1E
100
AcDbEntity
  8
0
  6
Continuous
 62
     3
100
AcDbLine
 10
-942.9917349834321
 20
-437.2991390063851
 30
0.0
 11
-941.741734983432
 21
-437.2991390063851
 31
0.0
  0
LINE
  5
242
330
1E
100
AcDbEntity
  8
0
  6
Continuous
 62
     3
100
AcDbLine
 10
-941.845901650432
 20
-437.0491390063851
 30
0.0
 11
-942.8875683164319
 21
-437.0491390063851
 31
0.0
  0
LINE
  5
243
330
1E
100
AcDbEntity
  8
0
  6
Continuous
 62
     3
100
AcDbLine
 10
-942.783401650432
 20
-436.7991390063851
 30
0.0
 11
-941.9500683164319
 21
-436.7991390063851
 31
0.0
  0
LINE
  5
244
330
1E
100
AcDbEntity
  8
0
  6
Continuous
 62
     3
100
AcDbLine
 10
-942.054234983432
 20
-436.5491390063851
 30
0.0
 11
-942.679234983432
 21
-436.5491390063851
 31
0.0
  0
LINE
  5
245
330
1E
100
AcDbEntity
  8
0
  6
Continuous
 62
     3
100
AcDbLine
 10
-942.575068316432
 20
-436.2991390063851
 30
0.0
 11
-942.158401650432
 21
-436.2991390063851
 31
0.0
  0
LINE
  5
246
330
1E
100
AcDbEntity
  8
0
  6
Continuous
 62
     3
100
AcDbLine
 10
-942.2625683164319
 20
-436.0491390063851
 30
0.0
 11
-942.4709016504319
 21
-436.0491390063851
 31
0.0
  0
LINE
  5
247
330
1E
100
AcDbEntity
  8
1
  6
Continuous
 62
     3
100
AcDbLine
 10
-946.766734983432
 20
-389.1091390063851
 30
0.0
 11
-946.766734983432
 21
-419.1091390063851
 31
0.0
  0
LINE
  5
248
330
1E
100
AcDbEntity
  8
1
  6
Continuous
 62
     3
100
AcDbLine
 10
-946.766734983432
 20
-419.1091390063851
 30
0.0
 11
-950.7667349834319
 21
-423.1091390063851
 31
0.0
  0
LINE
  5
249
330
1E
100
AcDbEntity
  8
1
  6
Continuous
 62
     3
100
AcDbLine
 10
-950.7667349834319
 20
-423.1091390063851
 30
0.0
 11
-950.7667349834319
 21
-455.1091390063851
 31
0.0
  0
LINE
  5
24A
330
1E
100
AcDbEntity
  8
1
  6
Continuous
 62
     3
100
AcDbLine
 10
-946.2667349834319
 20
-455.1091390063851
 30
0.0
 11
-931.7667349834319
 21
-455.1091390063851
 31
0.0
  0
LINE
  5
24B
330
1E
100
AcDbEntity
  8
1
  6
Continuous
 62
     3
100
AcDbLine
 10
-951.766734983432
 20
-455.1091390063851
 30
0.0
 11
-946.2667349834319
 21
-455.1091390063851
 31
0.0
  0
LINE
  5
24C
330
1E
100
AcDbEntity
  8
1
  6
Continuous
 62
     3
100
AcDbLine
 10
-946.2667349834319
 20
-389.1091390063851
 30
0.0
 11
-931.7667349834319
 21
-389.1091390063851
 31
0.0
  0
LINE
  5
24D
330
1E
100
AcDbEntity
  8
1
  6
Continuous
 62
     3
100
AcDbLine
 10
-931.7667349834319
 20
-389.1091390063851
 30
0.0
 11
-931.7667349834319
 21
-455.1091390063851
 31
0.0
  0
LINE
  5
24E
330
1E
100
AcDbEntity
  8
1
  6
Continuous
 62
     3
100
AcDbLine
 10
-931.7667349834319
 20
-453.8591390063851
 30
0.0
 11
-931.7667349834319
 21
-390.3591390063851
 31
0.0
  0
LINE
  5
24F
330
1E
100
AcDbEntity
  8
1
  6
Continuous
 62
     3
100
AcDbLine
 10
-951.766734983432
 20
-389.1091390063851
 30
0.0
 11
-951.766734983432
 21
-455.1091390063851
 31
0.0
  0
LINE
  5
250
330
1E
100
AcDbEntity
  8
1
  6
Continuous
 62
     3
100
AcDbLine
 10
-951.766734983432
 20
-389.1091390063851
 30
0.0
 11
-946.2667349834319
 21
-389.1091390063851
 31
0.0
  0
LINE
  5
251
330
1E
100
AcDbEntity
  8
1
  6
Continuous
 62
     3
100
AcDbLine
 10
-932.7667349834319
 20
-455.1091390063851
 30
0.0
 11
-932.7667349834319
 21
-389.1091390063851
 31
0.0
  0
TEXT
  5
252
330
1E
100
AcDbEntity
  8
1
  6
Continuous
 62
     3
100
AcDbText
 10
-947.766734983432
 20
-417.1091390063851
 30
0.1
 40
2.6
  1
MODEL TF-6
 50
90.0
  7
KANJI1
100
AcDbText
  0
LINE
  5
253
330
1E
100
AcDbEntity
  8
1
  6
Continuous
 62
     3
100
AcDbLine
 10
-945.466734983432
 20
-427.6091390063851
 30
0.1
 11
-935.9667349834321
 21
-427.6091390063851
 31
0.1
  0
LINE
  5
254
330
1E
100
AcDbEntity
  8
1
  6
Continuous
 62
     3
100
AcDbLine
 10
-935.9667349834321
 20
-398.6091390063851
 30
0.0
 11
-945.466734983432
 21
-398.6091390063851
 31
0.0
  0
LINE
  5
255
330
1E
100
AcDbEntity
  8
1
  6
Continuous
 62
     3
100
AcDbLine
 10
-945.466734983432
 20
-398.6091390063851
 30
0.0
 11
-945.466734983432
 21
-427.6091390063851
 31
0.0
  0
LINE
  5
256
330
1E
100
AcDbEntity
  8
1
  6
Continuous
 62
     3
100
AcDbLine
 10
-935.9667349834321
 20
-427.6091390063851
 30
0.0
 11
-935.9667349834321
 21
-398.6091390063851
 31
0.0
  0
LINE
  5
257
330
1E
100
AcDbEntity
  8
1
  6
Continuous
 62
     3
100
AcDbLine
 10
-945.308618075432
 20
-427.6091390063851
 30
0.0
 11
-945.466734983432
 21
-427.4510220983851
 31
0.0
  0
LINE
  5
258
330
1E
100
AcDbEntity
  8
1
  6
Continuous
 62
     3
100
AcDbLine
 10
-945.466734983432
 20
-426.7439153173851
 30
0.0
 11
-944.6015112944321
 21
-427.6091390063851
 31
0.0
  0
LINE
  5
259
330
1E
100
AcDbEntity
  8
1
  6
Continuous
 62
     3
100
AcDbLine
 10
-943.894404513432
 20
-427.6091390063851
 30
0.0
 11
-945.466734983432
 21
-426.0368085363851
 31
0.0
  0
LINE
  5
25A
330
1E
100
AcDbEntity
  8
1
  6
Continuous
 62
     3
100
AcDbLine
 10
-945.466734983432
 20
-425.3297017543851
 30
0.0
 11
-943.1872977324319
 21
-427.6091390063851
 31
0.0
  0
LINE
  5
25B
330
1E
100
AcDbEntity
  8
1
  6
Continuous
 62
     3
100
AcDbLine
 10
-942.4801909504319
 20
-427.6091390063851
 30
0.0
 11
-945.466734983432
 21
-424.6225949733851
 31
0.0
  0
LINE
  5
25C
330
1E
100
AcDbEntity
  8
1
  6
Continuous
 62
     3
100
AcDbLine
 10
-945.466734983432
 20
-423.9154881923851
 30
0.0
 11
-941.773084169432
 21
-427.6091390063851
 31
0.0
  0
LINE
  5
25D
330
1E
100
AcDbEntity
  8
1
  6
Continuous
 62
     3
100
AcDbLine
 10
-941.0659773884319
 20
-427.6091390063851
 30
0.0
 11
-945.466734983432
 21
-423.2083814113851
 31
0.0
  0
LINE
  5
25E
330
1E
100
AcDbEntity
  8
1
  6
Continuous
 62
     3
100
AcDbLine
 10
-945.466734983432
 20
-422.5012746303851
 30
0.0
 11
-940.3588706074319
 21
-427.6091390063851
 31
0.0
  0
LINE
  5
25F
330
1E
100
AcDbEntity
  8
1
  6
Continuous
 62
     3
100
AcDbLine
 10
-939.651763826432
 20
-427.6091390063851
 30
0.0
 11
-945.466734983432
 21
-421.7941678493851
 31
0.0
  0
LINE
  5
260
330
1E
100
AcDbEntity
  8
1
  6
Continuous
 62
     3
100
AcDbLine
 10
-945.466734983432
 20
-421.087061067385
 30
0.0
 11
-938.944657044432
 21
-427.6091390063851
 31
0.0
  0
LINE
  5
261
330
1E
100
AcDbEntity
  8
1
  6
Continuous
 62
     3
100
AcDbLine
 10
-938.2375502634319
 20
-427.6091390063851
 30
0.0
 11
-945.466734983432
 21
-420.379954286385
 31
0.0
  0
LINE
  5
262
330
1E
100
AcDbEntity
  8
1
  6
Continuous
 62
     3
100
AcDbLine
 10
-945.466734983432
 20
-419.672847505385
 30
0.0
 11
-937.530443482432
 21
-427.6091390063851
 31
0.0
  0
LINE
  5
263
330
1E
100
AcDbEntity
  8
1
  6
Continuous
 62
     3
100
AcDbLine
 10
-936.8233367014321
 20
-427.6091390063851
 30
0.0
 11
-945.466734983432
 21
-418.9657407243851
 31
0.0
  0
LINE
  5
264
330
1E
100
AcDbEntity
  8
1
  6
Continuous
 62
     3
100
AcDbLine
 10
-945.466734983432
 20
-418.2586339433851
 30
0.0
 11
-936.116229920432
 21
-427.6091390063851
 31
0.0
  0
LINE
  5
265
330
1E
100
AcDbEntity
  8
1
  6
Continuous
 62
     3
100
AcDbLine
 10
-935.9667349834321
 20
-427.0515271613851
 30
0.0
 11
-945.466734983432
 21
-417.5515271613851
 31
0.0
  0
LINE
  5
266
330
1E
100
AcDbEntity
  8
1
  6
Continuous
 62
     3
100
AcDbLine
 10
-945.466734983432
 20
-416.8444203803851
 30
0.0
 11
-935.9667349834321
 21
-426.3444203803851
 31
0.0
  0
LINE
  5
267
330
1E
100
AcDbEntity
  8
1
  6
Continuous
 62
     3
100
AcDbLine
 10
-935.9667349834321
 20
-425.6373135993851
 30
0.0
 11
-945.466734983432
 21
-416.1373135993851
 31
0.0
  0
LINE
  5
268
330
1E
100
AcDbEntity
  8
1
  6
Continuous
 62
     3
100
AcDbLine
 10
-945.466734983432
 20
-415.4302068183851
 30
0.0
 11
-935.9667349834321
 21
-424.9302068183851
 31
0.0
  0
LINE
  5
269
330
1E
100
AcDbEntity
  8
1
  6
Continuous
 62
     3
100
AcDbLine
 10
-935.9667349834321
 20
-424.2231000373851
 30
0.0
 11
-945.466734983432
 21
-414.7231000373851
 31
0.0
  0
LINE
  5
26A
330
1E
100
AcDbEntity
  8
1
  6
Continuous
 62
     3
100
AcDbLine
 10
-945.466734983432
 20
-414.0159932553851
 30
0.0
 11
-935.9667349834321
 21
-423.5159932553851
 31
0.0
  0
LINE
  5
26B
330
1E
100
AcDbEntity
  8
1
  6
Continuous
 62
     3
100
AcDbLine
 10
-935.9667349834321
 20
-422.8088864743851
 30
0.0
 11
-945.466734983432
 21
-413.3088864743851
 31
0.0
  0
LINE
  5
26C
330
1E
100
AcDbEntity
  8
1
  6
Continuous
 62
     3
100
AcDbLine
 10
-945.466734983432
 20
-412.6017796933851
 30
0.0
 11
-935.9667349834321
 21
-422.1017796933851
 31
0.0
  0
LINE
  5
26D
330
1E
100
AcDbEntity
  8
1
  6
Continuous
 62
     3
100
AcDbLine
 10
-935.9667349834321
 20
-421.3946729123851
 30
0.0
 11
-945.466734983432
 21
-411.8946729123851
 31
0.0
  0
LINE
  5
26E
330
1E
100
AcDbEntity
  8
1
  6
Continuous
 62
     3
100
AcDbLine
 10
-945.466734983432
 20
-411.1875661313851
 30
0.0
 11
-935.9667349834321
 21
-420.687566131385
 31
0.0
  0
LINE
  5
26F
330
1E
100
AcDbEntity
  8
1
  6
Continuous
 62
     3
100
AcDbLine
 10
-935.9667349834321
 20
-419.980459350385
 30
0.0
 11
-945.466734983432
 21
-410.4804593503851
 31
0.0
  0
LINE
  5
270
330
1E
100
AcDbEntity
  8
1
  6
Continuous
 62
     3
100
AcDbLine
 10
-945.466734983432
 20
-409.773352568385
 30
0.0
 11
-935.9667349834321
 21
-419.2733525683851
 31
0.0
  0
LINE
  5
271
330
1E
100
AcDbEntity
  8
1
  6
Continuous
 62
     3
100
AcDbLine
 10
-935.9667349834321
 20
-418.5662457873851
 30
0.0
 11
-945.466734983432
 21
-409.0662457873851
 31
0.0
  0
LINE
  5
272
330
1E
100
AcDbEntity
  8
1
  6
Continuous
 62
     3
100
AcDbLine
 10
-945.466734983432
 20
-408.3591390063851
 30
0.0
 11
-935.9667349834321
 21
-417.8591390063851
 31
0.0
  0
LINE
  5
273
330
1E
100
AcDbEntity
  8
1
  6
Continuous
 62
     3
100
AcDbLine
 10
-935.9667349834321
 20
-417.1520322253851
 30
0.0
 11
-945.466734983432
 21
-407.6520322253851
 31
0.0
  0
LINE
  5
274
330
1E
100
AcDbEntity
  8
1
  6
Continuous
 62
     3
100
AcDbLine
 10
-945.466734983432
 20
-406.9449254443851
 30
0.0
 11
-935.9667349834321
 21
-416.4449254443851
 31
0.0
  0
LINE
  5
275
330
1E
100
AcDbEntity
  8
1
  6
Continuous
 62
     3
100
AcDbLine
 10
-935.9667349834321
 20
-415.7378186623851
 30
0.0
 11
-945.466734983432
 21
-406.2378186623851
 31
0.0
  0
LINE
  5
276
330
1E
100
AcDbEntity
  8
1
  6
Continuous
 62
     3
100
AcDbLine
 10
-945.466734983432
 20
-405.5307118813851
 30
0.0
 11
-935.9667349834321
 21
-415.030711881385
 31
0.0
  0
LINE
  5
277
330
1E
100
AcDbEntity
  8
1
  6
Continuous
 62
     3
100
AcDbLine
 10
-935.9667349834321
 20
-414.3236051003851
 30
0.0
 11
-945.466734983432
 21
-404.8236051003851
 31
0.0
  0
LINE
  5
278
330
1E
100
AcDbEntity
  8
1
  6
Continuous
 62
     3
100
AcDbLine
 10
-945.466734983432
 20
-404.116498319385
 30
0.0
 11
-935.9667349834321
 21
-413.6164983193851
 31
0.0
  0
LINE
  5
279
330
1E
100
AcDbEntity
  8
1
  6
Continuous
 62
     3
100
AcDbLine
 10
-935.9667349834321
 20
-412.9093915383851
 30
0.0
 11
-945.466734983432
 21
-403.4093915383851
 31
0.0
  0
LINE
  5
27A
330
1E
100
AcDbEntity
  8
1
  6
Continuous
 62
     3
100
AcDbLine
 10
-945.466734983432
 20
-402.702284756385
 30
0.0
 11
-935.9667349834321
 21
-412.2022847563851
 31
0.0
  0
LINE
  5
27B
330
1E
100
AcDbEntity
  8
1
  6
Continuous
 62
     3
100
AcDbLine
 10
-935.9667349834321
 20
-411.4951779753851
 30
0.0
 11
-945.466734983432
 21
-401.9951779753851
 31
0.0
  0
LINE
  5
27C
330
1E
100
AcDbEntity
  8
1
  6
Continuous
 62
     3
100
AcDbLine
 10
-945.466734983432
 20
-401.2880711943851
 30
0.0
 11
-935.9667349834321
 21
-410.7880711943851
 31
0.0
  0
LINE
  5
27D
330
1E
100
AcDbEntity
  8
1
  6
Continuous
 62
     3
100
AcDbLine
 10
-935.9667349834321
 20
-410.0809644133851
 30
0.0
 11
-945.466734983432
 21
-400.5809644133851
 31
0.0
  0
LINE
  5
27E
330
1E
100
AcDbEntity
  8
1
  6
Continuous
 62
     3
100
AcDbLine
 10
-945.466734983432
 20
-399.8738576323851
 30
0.0
 11
-935.9667349834321
 21
-409.373857632385
 31
0.0
  0
LINE
  5
27F
330
1E
100
AcDbEntity
  8
1
  6
Continuous
 62
     3
100
AcDbLine
 10
-935.9667349834321
 20
-408.6667508513851
 30
0.0
 11
-945.466734983432
 21
-399.1667508513851
 31
0.0
  0
LINE
  5
280
330
1E
100
AcDbEntity
  8
1
  6
Continuous
 62
     3
100
AcDbLine
 10
-945.317240047432
 20
-398.6091390063851
 30
0.0
 11
-935.9667349834321
 21
-407.9596440693851
 31
0.0
  0
LINE
  5
281
330
1E
100
AcDbEntity
  8
1
  6
Continuous
 62
     3
100
AcDbLine
 10
-935.9667349834321
 20
-407.2525372883851
 30
0.0
 11
-944.610133265432
 21
-398.6091390063851
 31
0.0
  0
LINE
  5
282
330
1E
100
AcDbEntity
  8
1
  6
Continuous
 62
     3
100
AcDbLine
 10
-943.9030264844319
 20
-398.6091390063851
 30
0.0
 11
-935.9667349834321
 21
-406.5454305073851
 31
0.0
  0
LINE
  5
283
330
1E
100
AcDbEntity
  8
1
  6
Continuous
 62
     3
100
AcDbLine
 10
-935.9667349834321
 20
-405.8383237263851
 30
0.0
 11
-943.195919703432
 21
-398.6091390063851
 31
0.0
  0
LINE
  5
284
330
1E
100
AcDbEntity
  8
1
  6
Continuous
 62
     3
100
AcDbLine
 10
-942.4888129224319
 20
-398.6091390063851
 30
0.0
 11
-935.9667349834321
 21
-405.1312169453851
 31
0.0
  0
LINE
  5
285
330
1E
100
AcDbEntity
  8
1
  6
Continuous
 62
     3
100
AcDbLine
 10
-935.9667349834321
 20
-404.4241101633851
 30
0.0
 11
-941.781706141432
 21
-398.6091390063851
 31
0.0
  0
LINE
  5
286
330
1E
100
AcDbEntity
  8
1
  6
Continuous
 62
     3
100
AcDbLine
 10
-941.074599359432
 20
-398.6091390063851
 30
0.0
 11
-935.9667349834321
 21
-403.717003382385
 31
0.0
  0
LINE
  5
287
330
1E
100
AcDbEntity
  8
1
  6
Continuous
 62
     3
100
AcDbLine
 10
-935.9667349834321
 20
-403.009896601385
 30
0.0
 11
-940.367492578432
 21
-398.6091390063851
 31
0.0
  0
LINE
  5
288
330
1E
100
AcDbEntity
  8
1
  6
Continuous
 62
     3
100
AcDbLine
 10
-939.6603857974319
 20
-398.6091390063851
 30
0.0
 11
-935.9667349834321
 21
-402.302789820385
 31
0.0
  0
LINE
  5
289
330
1E
100
AcDbEntity
  8
1
  6
Continuous
 62
     3
100
AcDbLine
 10
-935.9667349834321
 20
-401.5956830393851
 30
0.0
 11
-938.953279016432
 21
-398.6091390063851
 31
0.0
  0
LINE
  5
28A
330
1E
100
AcDbEntity
  8
1
  6
Continuous
 62
     3
100
AcDbLine
 10
-938.2461722354319
 20
-398.6091390063851
 30
0.0
 11
-935.9667349834321
 21
-400.8885762573851
 31
0.0
  0
LINE
  5
28B
330
1E
100
AcDbEntity
  8
1
  6
Continuous
 62
     3
100
AcDbLine
 10
-935.9667349834321
 20
-400.1814694763851
 30
0.0
 11
-937.5390654534321
 21
-398.6091390063851
 31
0.0
  0
LINE
  5
28C
330
1E
100
AcDbEntity
  8
1
  6
Continuous
 62
     3
100
AcDbLine
 10
-936.831958672432
 20
-398.6091390063851
 30
0.0
 11
-935.9667349834321
 21
-399.4743626953851
 31
0.0
  0
LINE
  5
28D
330
1E
100
AcDbEntity
  8
1
  6
Continuous
 62
     3
100
AcDbLine
 10
-935.9667349834321
 20
-398.7672559143851
 30
0.0
 11
-936.1248518914319
 21
-398.6091390063851
 31
0.0
  0
LWPOLYLINE
  5
28E
330
1E
100
AcDbEntity
  8
1
 62
     3
100
AcDbPolyline
 90
        4
 70
     1
 43
0.0
 10
-940.266734983432
 20
-430.6091390063851
 10
-940.266734983432
 20
-428.6091390063851
 10
-941.266734983432
 20
-428.6091390063851
 10
-941.266734983432
 20
-430.6091390063851
  0
LINE
  5
294
330
1E
100
AcDbEntity
  8
1
  6
Continuous
 62
     3
100
AcDbLine
 10
-941.180948545432
 20
-430.6091390063851
 30
0.0
 11
-941.266734983432
 21
-430.5233525683851
 31
0.0
  0
LINE
  5
295
330
1E
100
AcDbEntity
  8
1
  6
Continuous
 62
     3
100
AcDbLine
 10
-941.266734983432
 20
-429.8162457873851
 30
0.0
 11
-940.473841764432
 21
-430.6091390063851
 31
0.0
  0
LINE
  5
296
330
1E
100
AcDbEntity
  8
1
  6
Continuous
 62
     3
100
AcDbLine
 10
-940.266734983432
 20
-430.1091390063851
 30
0.0
 11
-941.266734983432
 21
-429.1091390063851
 31
0.0
  0
LINE
  5
297
330
1E
100
AcDbEntity
  8
1
  6
Continuous
 62
     3
100
AcDbLine
 10
-941.059628202432
 20
-428.6091390063851
 30
0.0
 11
-940.266734983432
 21
-429.4020322253851
 31
0.0
  0
LINE
  5
298
330
1E
100
AcDbEntity
  8
1
  6
Continuous
 62
     3
100
AcDbLine
 10
-940.266734983432
 20
-428.6949254443851
 30
0.0
 11
-940.3525214214321
 21
-428.6091390063851
 31
0.0
  0
ARC
  5
299
330
1E
100
AcDbEntity
  8
0
  6
Continuous
 62
     3
100
AcDbCircle
 10
-948.2667349844319
 20
-472.609139008385
 30
0.0
 40
0.5
100
AcDbArc
 50
180.0
 51
270.0
  0
ARC
  5
29A
330
1E
100
AcDbEntity
  8
0
  6
Continuous
 62
     3
100
AcDbCircle
 10
-935.266734984432
 20
-472.609139008385
 30
0.0
 40
0.5
100
AcDbArc
 50
270.0
 51
0.0
  0
LINE
  5
29B
330
1E
100
AcDbEntity
  8
0
  6
Continuous
 62
     3
100
AcDbLine
 10
-948.2667349844319
 20
-473.1091390083851
 30
0.0
 11
-935.266734984432
 21
-473.1091390083851
 31
0.0
  0
LINE
  5
29C
330
1E
100
AcDbEntity
  8
0
  6
Continuous
 62
     3
100
AcDbLine
 10
-934.766734984432
 20
-472.609139008385
 30
0.0
 11
-934.766734984432
 21
-469.1091390083851
 31
0.0
  0
LINE
  5
29D
330
1E
100
AcDbEntity
  8
0
  6
Continuous
 62
     3
100
AcDbLine
 10
-948.766734984432
 20
-472.609139008385
 30
0.0
 11
-948.766734984432
 21
-469.1091390083851
 31
0.0
  0
CIRCLE
  5
29E
330
1E
100
AcDbEntity
  8
1
  6
Continuous
 62
     3
100
AcDbCircle
 10
-937.766734983432
 20
-437.3591390063851
 30
0.0
 40
2.0
  0
CIRCLE
  5
29F
330
1E
100
AcDbEntity
  8
1
  6
Continuous
 62
     3
100
AcDbCircle
 10
-937.766734983432
 20
-445.3591390063851
 30
0.0
 40
2.0
  0
LWPOLYLINE
  5
2A0
330
1E
100
AcDbEntity
  8
0
 62
     3
100
AcDbPolyline
 90
        3
 70
     0
 43
0.0
 10
-953.7667349844319
 20
-469.1091390083851
 10
-953.7667349824319
 20
-375.1091390083851
 10
-929.7667349824321
 20
-375.1091390083851
  0
LINE
  5
2A5
330
1E
100
AcDbEntity
  8
0
  6
Continuous
 62
     3
100
AcDbLine
 10
-929.7667349824321
 20
-375.1091390083851
 30
0.0
 11
-929.7667349844319
 21
-469.1091390083851
 31
0.0
  0
LINE
  5
2A6
330
1E
100
AcDbEntity
  8
0
  6
Continuous
 62
     3
100
AcDbLine
 10
-929.7667349844319
 20
-469.1091390083851
 30
0.0
 11
-953.7667349844319
 21
-469.1091390083851
 31
0.0
  0
LWPOLYLINE
  5
2A7
330
1E
100
AcDbEntity
  8
0
 62
     3
100
AcDbPolyline
 90
        3
 70
     0
 43
0.0
 10
-937.766734983432
 20
-382.109139008385
 10
-945.766734983432
 20
-382.109139008385
 10
-945.766734983432
 20
-384.1091390083851
  0
LINE
  5
2AC
330
1E
100
AcDbEntity
  8
0
  6
Continuous
 62
     3
100
AcDbLine
 10
-945.766734983432
 20
-384.1091390083851
 30
0.0
 11
-945.766734983432
 21
-386.1091390083851
 31
0.0
  0
LINE
  5
2AD
330
1E
100
AcDbEntity
  8
0
  6
Continuous
 62
     3
100
AcDbLine
 10
-937.766734983432
 20
-386.1091390083851
 30
0.0
 11
-937.766734983432
 21
-384.1091390083851
 31
0.0
  0
LINE
  5
2AE
330
1E
100
AcDbEntity
  8
0
  6
Continuous
 62
     3
100
AcDbLine
 10
-937.766734983432
 20
-384.1091390083851
 30
0.0
 11
-937.766734983432
 21
-382.109139008385
 31
0.0
  0
LINE
  5
2AF
330
1E
100
AcDbEntity
  8
0
  6
Continuous
 62
     3
100
AcDbLine
 10
-945.766734983432
 20
-384.1091390083851
 30
0.0
 11
-953.766734983432
 21
-384.1091390083851
 31
0.0
  0
LINE
  5
2B0
330
1E
100
AcDbEntity
  8
0
  6
Continuous
 62
     3
100
AcDbLine
 10
-929.766734983432
 20
-384.1091390083851
 30
0.0
 11
-937.766734983432
 21
-384.1091390083851
 31
0.0
  0
LINE
  5
2B1
330
1E
100
AcDbEntity
  8
0
  6
Continuous
 62
     3
100
AcDbLine
 10
-929.766734983432
 20
-386.1091390083851
 30
0.0
 11
-953.766734983432
 21
-386.1091390083851
 31
0.0
  0
LINE
  5
2B2
330
1E
100
AcDbEntity
  8
0
  6
Continuous
 62
     3
100
AcDbLine
 10
-945.7667349844319
 20
-460.109139008385
 30
0.0
 11
-953.7667349844319
 21
-460.109139008385
 31
0.0
  0
LINE
  5
2B3
330
1E
100
AcDbEntity
  8
0
  6
Continuous
 62
     3
100
AcDbLine
 10
-929.7667349844319
 20
-460.109139008385
 30
0.0
 11
-937.7667349844319
 21
-460.109139008385
 31
0.0
  0
LINE
  5
2B4
330
1E
100
AcDbEntity
  8
0
  6
Continuous
 62
     3
100
AcDbLine
 10
-929.7667349844319
 20
-458.1091390083851
 30
0.0
 11
-953.7667349844319
 21
-458.1091390083851
 31
0.0
  0
LINE
  5
2B5
330
1E
100
AcDbEntity
  8
0
  6
Continuous
 62
     3
100
AcDbLine
 10
-945.7667349844319
 20
-460.109139008385
 30
0.0
 11
-945.7667349844319
 21
-458.1091390083851
 31
0.0
  0
LINE
  5
2B6
330
1E
100
AcDbEntity
  8
0
  6
Continuous
 62
     3
100
AcDbLine
 10
-937.7667349844319
 20
-462.1091390083851
 30
0.0
 11
-945.7667349844319
 21
-462.1091390083851
 31
0.0
  0
LINE
  5
2B7
330
1E
100
AcDbEntity
  8
0
  6
Continuous
 62
     3
100
AcDbLine
 10
-937.7667349844319
 20
-460.109139008385
 30
0.0
 11
-937.7667349844319
 21
-462.1091390083851
 31
0.0
  0
LINE
  5
2B8
330
1E
100
AcDbEntity
  8
0
  6
Continuous
 62
     3
100
AcDbLine
 10
-945.7667349844319
 20
-462.1091390083851
 30
0.0
 11
-945.7667349844319
 21
-460.109139008385
 31
0.0
  0
LINE
  5
2B9
330
1E
100
AcDbEntity
  8
0
  6
Continuous
 62
     3
100
AcDbLine
 10
-937.7667349844319
 20
-458.1091390083851
 30
0.0
 11
-937.7667349844319
 21
-460.109139008385
 31
0.0
  0
LWPOLYLINE
  5
2BA
330
1E
100
AcDbEntity
  8
0
 62
     3
100
AcDbPolyline
 90
        4
 70
     0
 43
0.0
 10
-808.7667349834319
 20
-410.6091390083851
 10
-799.766734983432
 20
-410.6091390083851
 10
-799.766734983432
 20
-433.6091390083851
 10
-808.7667349834319
 20
-433.6091390083851
  0
LINE
  5
2C0
330
1E
100
AcDbEntity
  8
0
  6
Continuous
 62
     3
100
AcDbLine
 10
-799.766734983432
 20
-418.109139008385
 30
0.0
 11
-789.7667349834319
 21
-418.109139008385
 31
0.0
  0
LINE
  5
2C1
330
1E
100
AcDbEntity
  8
0
  6
Continuous
 62
     3
100
AcDbLine
 10
-789.7667349834319
 20
-418.109139008385
 30
0.0
 11
-789.7667349834319
 21
-426.109139008385
 31
0.0
  0
LINE
  5
2C2
330
1E
100
AcDbEntity
  8
0
  6
Continuous
 62
     3
100
AcDbLine
 10
-789.7667349834319
 20
-426.109139008385
 30
0.0
 11
-799.766734983432
 21
-426.109139008385
 31
0.0
  0
LINE
  5
2C3
330
1E
100
AcDbEntity
  8
0
  6
Continuous
 62
     3
100
AcDbLine
 10
-798.7667349844319
 20
-464.109139008385
 30
0.0
 11
-798.7667349844319
 21
-468.109139008385
 31
0.0
  0
LINE
  5
2C4
330
1E
100
AcDbEntity
  8
0
  6
Continuous
 62
     3
100
AcDbLine
 10
-797.766734984432
 20
-468.109139008385
 30
0.0
 11
-797.766734984432
 21
-464.109139008385
 31
0.0
  0
LINE
  5
2C5
330
1E
100
AcDbEntity
  8
0
  6
Continuous
 62
     3
100
AcDbLine
 10
-798.7667349844319
 20
-464.109139008385
 30
0.0
 11
-778.766734984432
 21
-464.109139008385
 31
0.0
  0
LINE
  5
2C6
330
1E
100
AcDbEntity
  8
0
  6
Continuous
 62
     3
100
AcDbLine
 10
-778.766734984432
 20
-468.109139008385
 30
0.0
 11
-798.7667349844319
 21
-468.109139008385
 31
0.0
  0
LINE
  5
2C7
330
1E
100
AcDbEntity
  8
0
  6
Continuous
 62
     3
100
AcDbLine
 10
-798.7667349834319
 20
-386.1091390083851
 30
0.0
 11
-798.7667349834319
 21
-382.109139008385
 31
0.0
  0
LINE
  5
2C8
330
1E
100
AcDbEntity
  8
0
  6
Continuous
 62
     3
100
AcDbLine
 10
-798.7667349834319
 20
-382.109139008385
 30
0.0
 11
-778.766734983432
 21
-382.109139008385
 31
0.0
  0
LINE
  5
2C9
330
1E
100
AcDbEntity
  8
0
  6
Continuous
 62
     3
100
AcDbLine
 10
-797.766734983432
 20
-382.109139008385
 30
0.0
 11
-797.766734983432
 21
-386.1091390083851
 31
0.0
  0
LINE
  5
2CA
330
1E
100
AcDbEntity
  8
0
  6
Continuous
 62
     3
100
AcDbLine
 10
-798.7667349834319
 20
-386.1091390083851
 30
0.0
 11
-778.766734983432
 21
-386.1091390083851
 31
0.0
  0
LINE
  5
2CB
330
1E
100
AcDbEntity
  8
0
  6
Continuous
 62
     3
100
AcDbLine
 10
-782.766734983432
 20
-439.6091390083851
 30
0.0
 11
-782.766734983432
 21
-443.6091390083851
 31
0.0
  0
LINE
  5
2CC
330
1E
100
AcDbEntity
  8
0
  6
Continuous
 62
     3
100
AcDbLine
 10
-782.766734983432
 20
-443.6091390083851
 30
0.0
 11
-778.766734983432
 21
-443.6091390083851
 31
0.0
  0
LINE
  5
2CD
330
1E
100
AcDbEntity
  8
0
  6
Continuous
 62
     3
100
AcDbLine
 10
-778.766734983432
 20
-400.6091390083851
 30
0.0
 11
-782.766734983432
 21
-400.6091390083851
 31
0.0
  0
LINE
  5
2CE
330
1E
100
AcDbEntity
  8
0
  6
Continuous
 62
     3
100
AcDbLine
 10
-782.766734983432
 20
-400.6091390083851
 30
0.0
 11
-782.766734983432
 21
-404.6091390083851
 31
0.0
  0
LINE
  5
2CF
330
1E
100
AcDbEntity
  8
0
  6
Continuous
 62
     3
100
AcDbLine
 10
-778.766734984432
 20
-473.1091390083851
 30
0.0
 11
-778.766734984432
 21
-469.1091390083851
 31
0.0
  0
LINE
  5
2D0
330
1E
100
AcDbEntity
  8
0
  6
Continuous
 62
     3
100
AcDbLine
 10
-782.7667349844319
 20
-473.1091390083851
 30
0.0
 11
-782.7667349844319
 21
-469.1091390083851
 31
0.0
  0
LINE
  5
2D1
330
1E
100
AcDbEntity
  8
0
  6
Continuous
 62
     3
100
AcDbLine
 10
-782.7667349844319
 20
-473.1091390083851
 30
0.0
 11
-778.766734984432
 21
-473.1091390083851
 31
0.0
  0
LINE
  5
2D2
330
1E
100
AcDbEntity
  8
0
  6
Continuous
 62
     3
100
AcDbLine
 10
-808.7667349834319
 20
-386.1091390083851
 30
0.0
 11
-799.766734983432
 21
-386.1091390083851
 31
0.0
  0
LINE
  5
2D3
330
1E
100
AcDbEntity
  8
0
  6
Continuous
 62
     3
100
AcDbLine
 10
-808.766734984432
 20
-458.1091390083851
 30
0.0
 11
-808.766734984432
 21
-457.6091390083851
 31
0.0
  0
LINE
  5
2D4
330
1E
100
AcDbEntity
  8
0
  6
Continuous
 62
     3
100
AcDbLine
 10
-799.766734984432
 20
-458.1091390083851
 30
0.0
 11
-808.766734984432
 21
-458.1091390083851
 31
0.0
  0
LINE
  5
2D5
330
1E
100
AcDbEntity
  8
0
  6
Continuous
 62
     3
100
AcDbLine
 10
-778.766734984432
 20
-469.1091390083851
 30
0.0
 11
-799.766734984432
 21
-469.1091390083851
 31
0.0
  0
LINE
  5
2D6
330
1E
100
AcDbEntity
  8
0
  6
Continuous
 62
     3
100
AcDbLine
 10
-799.766734984432
 20
-469.1091390083851
 30
0.0
 11
-799.766734984432
 21
-458.1091390083851
 31
0.0
  0
LINE
  5
2D7
330
1E
100
AcDbEntity
  8
0
  6
Continuous
 62
     3
100
AcDbLine
 10
-778.766734983432
 20
-439.6091390083851
 30
0.0
 11
-778.766734984432
 21
-469.1091390083851
 31
0.0
  0
LINE
  5
2D8
330
1E
100
AcDbEntity
  8
0
  6
Continuous
 62
     3
100
AcDbLine
 10
-782.766734983432
 20
-404.6091390083851
 30
0.0
 11
-782.766734983432
 21
-439.6091390083851
 31
0.0
  0
LINE
  5
2D9
330
1E
100
AcDbEntity
  8
0
  6
Continuous
 62
     3
100
AcDbLine
 10
-782.766734983432
 20
-439.6091390083851
 30
0.0
 11
-778.766734983432
 21
-439.6091390083851
 31
0.0
  0
LINE
  5
2DA
330
1E
100
AcDbEntity
  8
0
  6
Continuous
 62
     3
100
AcDbLine
 10
-778.766734983432
 20
-404.6091390083851
 30
0.0
 11
-782.766734983432
 21
-404.6091390083851
 31
0.0
  0
LINE
  5
2DB
330
1E
100
AcDbEntity
  8
0
  6
Continuous
 62
     3
100
AcDbLine
 10
-778.766734982432
 20
-375.1091390083851
 30
0.0
 11
-778.766734983432
 21
-404.6091390083851
 31
0.0
  0
LINE
  5
2DC
330
1E
100
AcDbEntity
  8
0
  6
Continuous
 62
     3
100
AcDbLine
 10
-778.766734982432
 20
-375.1091390083851
 30
0.0
 11
-799.766734982432
 21
-375.1091390083851
 31
0.0
  0
LINE
  5
2DD
330
1E
100
AcDbEntity
  8
0
  6
Continuous
 62
     3
100
AcDbLine
 10
-799.766734982432
 20
-375.1091390083851
 30
0.0
 11
-799.766734983432
 21
-386.1091390083851
 31
0.0
  0
LWPOLYLINE
  5
2DE
330
1E
100
AcDbEntity
  8
0
 62
     3
100
AcDbPolyline
 90
        4
 70
     0
 43
0.0
 10
-778.766734983432
 20
-404.6091390083851
 10
-779.766734983432
 20
-406.6091390083851
 10
-780.766734983432
 20
-406.6091390083851
 10
-780.766734983432
 20
-404.6091390083851
  0
LWPOLYLINE
  5
2E4
330
1E
100
AcDbEntity
  8
0
 62
     3
100
AcDbPolyline
 90
        4
 70
     0
 43
0.0
 10
-778.766734983432
 20
-439.6091390083851
 10
-779.766734983432
 20
-437.6091390083851
 10
-780.766734983432
 20
-437.6091390083851
 10
-780.766734983432
 20
-439.6091390083851
  0
LWPOLYLINE
  5
2EA
330
1E
100
AcDbEntity
  8
0
 62
     3
100
AcDbPolyline
 90
        4
 70
     0
 43
0.0
 10
-782.766734983432
 20
-417.1091390083851
 10
-778.766734983432
 20
-416.6091390083851
 10
-778.766734983432
 20
-412.6091390083851
 10
-782.766734983432
 20
-412.1091390083851
  0
LWPOLYLINE
  5
2F0
330
1E
100
AcDbEntity
  8
0
 62
     3
100
AcDbPolyline
 90
        4
 70
     0
 43
0.0
 10
-782.766734983432
 20
-432.1091390083851
 10
-778.766734983432
 20
-431.6091390083851
 10
-778.766734983432
 20
-427.6091390083851
 10
-782.766734983432
 20
-427.1091390083851
  0
LINE
  5
2F6
330
1E
100
AcDbEntity
  8
1
  6
Continuous
 62
     3
100
AcDbLine
 10
-795.566734982432
 20
-370.6091390083851
 30
0.0
 11
-795.566734982432
 21
-343.1091390083851
 31
0.0
  0
LINE
  5
2F7
330
1E
100
AcDbEntity
  8
1
  6
Continuous
 62
     3
100
AcDbLine
 10
-805.566734982432
 20
-370.6091390083851
 30
0.0
 11
-805.566734982432
 21
-343.1091390083851
 31
0.0
  0
LINE
  5
2F8
330
1E
100
AcDbEntity
  8
1
  6
Continuous
 62
     3
100
AcDbLine
 10
-795.566734982432
 20
-370.6091390083851
 30
0.0
 11
-805.566734982432
 21
-370.6091390083851
 31
0.0
  0
LINE
  5
2F9
330
1E
100
AcDbEntity
  8
1
  6
Continuous
 62
     3
100
AcDbLine
 10
-795.566734982432
 20
-343.1091390083851
 30
0.0
 11
-805.566734982432
 21
-343.1091390083851
 31
0.0
  0
LINE
  5
2FA
330
1E
100
AcDbEntity
  8
1
  6
Continuous
 62
     3
100
AcDbLine
 10
-801.366734982432
 20
-386.1091390083851
 30
0.0
 11
-801.366734982432
 21
-370.6091390083851
 31
0.0
  0
LINE
  5
2FB
330
1E
100
AcDbEntity
  8
1
  6
Continuous
 62
     3
100
AcDbLine
 10
-799.766734982432
 20
-370.6091390083851
 30
0.0
 11
-799.766734982432
 21
-386.1091390083851
 31
0.0
  0
LINE
  5
2FC
330
1E
100
AcDbEntity
  8
0
  6
Continuous
 62
     3
100
AcDbLine
 10
-808.7667349834319
 20
-386.1091390083851
 30
0.0
 11
-808.7667349834319
 21
-410.6091390083851
 31
0.0
  0
LINE
  5
2FD
330
1E
100
AcDbEntity
  8
0
  6
Continuous
 62
     3
100
AcDbLine
 10
-808.7667349834319
 20
-433.6091390083851
 30
0.0
 11
-808.766734984432
 21
-457.6091390083851
 31
0.0
  0
LINE
  5
2FE
330
1E
100
AcDbEntity
  8
0
  6
Continuous
 62
     3
100
AcDbLine
 10
-787.766734982432
 20
-375.1091390083851
 30
0.0
 11
-787.119687370432
 21
-372.694324442385
 31
0.0
  0
LINE
  5
2FF
330
1E
100
AcDbEntity
  8
0
  6
Continuous
 62
     3
100
AcDbLine
 10
-787.766734982432
 20
-375.1091390083851
 30
0.0
 11
-788.413782595432
 21
-372.694324442385
 31
0.0
  0
LINE
  5
300
330
1E
100
AcDbEntity
  8
0
  6
Continuous
 62
     3
100
AcDbLine
 10
-787.766734982432
 20
-375.1091390083851
 30
0.0
 11
-787.119687370432
 21
-372.694324442385
 31
0.0
  0
LINE
  5
301
330
1E
100
AcDbEntity
  8
0
  6
Continuous
 62
     3
100
AcDbLine
 10
-787.766734982432
 20
-375.1091390083851
 30
0.0
 11
-788.413782595432
 21
-372.694324442385
 31
0.0
  0
LINE
  5
302
330
1E
100
AcDbEntity
  8
0
  6
Continuous
 62
     5
100
AcDbLine
 10
-808.766734982432
 20
-329.7561866213851
 30
0.0
 11
-808.766734982432
 21
-382.109139008385
 31
0.0
  0
LINE
  5
303
330
1E
100
AcDbEntity
  8
0
  6
Continuous
 62
     5
100
AcDbLine
 10
-808.766734982432
 20
-330.6091390083851
 30
0.0
 11
-806.3519204174319
 21
-331.2561866213851
 31
0.0
  0
LINE
  5
304
330
1E
100
AcDbEntity
  8
0
  6
Continuous
 62
     5
100
AcDbLine
 10
-808.766734982432
 20
-330.6091390083851
 30
0.0
 11
-806.3519204174319
 21
-329.9620913953851
 31
0.0
  0
LINE
  5
305
330
1E
100
AcDbEntity
  8
0
  6
Continuous
 62
     5
100
AcDbLine
 10
-808.766734982432
 20
-330.6091390083851
 30
0.0
 11
-778.766734982432
 21
-330.6091390083851
 31
0.0
  0
LINE
  5
306
330
1E
100
AcDbEntity
  8
0
  6
Continuous
 62
     5
100
AcDbLine
 10
-778.766734982432
 20
-330.6091390083851
 30
0.0
 11
-781.181549548432
 21
-329.9620913953851
 31
0.0
  0
LINE
  5
307
330
1E
100
AcDbEntity
  8
0
  6
Continuous
 62
     5
100
AcDbLine
 10
-778.766734982432
 20
-330.6091390083851
 30
0.0
 11
-781.181549548432
 21
-331.2561866213851
 31
0.0
  0
TEXT
  5
308
330
1E
100
AcDbEntity
  8
0
  6
Continuous
 62
     5
100
AcDbText
 10
-795.716734982432
 20
-329.6091390083851
 30
0.3
 40
3.0
  1
３０
 41
0.6
  7
KANJI2
100
AcDbText
  0
LINE
  5
309
330
1E
100
AcDbEntity
  8
0
  6
Continuous
 62
     5
100
AcDbLine
 10
-908.766734982432
 20
-355.109139008385
 30
0.3
 11
-908.766734982432
 21
-384.6091390083851
 31
0.3
  0
LINE
  5
30A
330
1E
100
AcDbEntity
  8
0
  6
Continuous
 62
     5
100
AcDbLine
 10
-908.766734982432
 20
-356.1091390083851
 30
0.0
 11
-906.3519204174319
 21
-356.7561866213851
 31
0.0
  0
LINE
  5
30B
330
1E
100
AcDbEntity
  8
0
  6
Continuous
 62
     5
100
AcDbLine
 10
-908.766734982432
 20
-356.1091390083851
 30
0.0
 11
-906.3519204174319
 21
-355.4620913953851
 31
0.0
  0
LINE
  5
30C
330
1E
100
AcDbEntity
  8
0
  6
Continuous
 62
     5
100
AcDbLine
 10
-908.766734982432
 20
-356.1091390083851
 30
0.0
 11
-808.766734982432
 21
-356.1091390083851
 31
0.0
  0
TEXT
  5
30D
330
1E
100
AcDbEntity
  8
0
  6
Continuous
 62
     5
100
AcDbText
 10
-861.7667349824319
 20
-355.109139008385
 30
0.3
 40
3.0
  1
１００
 41
0.6
  7
KANJI2
100
AcDbText
  0
LINE
  5
30E
330
1E
100
AcDbEntity
  8
0
  6
Continuous
 62
     5
100
AcDbLine
 10
-953.7667349824319
 20
-374.1091390083851
 30
0.3
 11
-953.7667349824319
 21
-365.1091390083851
 31
0.3
  0
LINE
  5
30F
330
1E
100
AcDbEntity
  8
0
  6
Continuous
 62
     5
100
AcDbLine
 10
-929.7667349824321
 20
-365.1091390083851
 30
0.0
 11
-929.7667349824321
 21
-374.1091390083851
 31
0.0
  0
LINE
  5
310
330
1E
100
AcDbEntity
  8
0
  6
Continuous
 62
     5
100
AcDbLine
 10
-928.7667349824319
 20
-377.1091390083851
 30
0.0
 11
-928.7667349824319
 21
-355.109139008385
 31
0.0
  0
LINE
  5
311
330
1E
100
AcDbEntity
  8
0
  6
Continuous
 62
     5
100
AcDbLine
 10
-954.7667349824321
 20
-377.1091390073851
 30
0.0
 11
-954.7667349824321
 21
-355.1091390073851
 31
0.0
  0
LINE
  5
312
330
1E
100
AcDbEntity
  8
0
  6
Continuous
 62
     5
100
AcDbLine
 10
-953.7667349824319
 20
-366.1091390083851
 30
0.0
 11
-951.351920417432
 21
-366.7561866213851
 31
0.0
  0
LINE
  5
313
330
1E
100
AcDbEntity
  8
0
  6
Continuous
 62
     5
100
AcDbLine
 10
-953.7667349824319
 20
-366.1091390083851
 30
0.0
 11
-951.351920417432
 21
-365.4620913953851
 31
0.0
  0
LINE
  5
314
330
1E
100
AcDbEntity
  8
0
  6
Continuous
 62
     5
100
AcDbLine
 10
-953.7667349824319
 20
-366.1091390083851
 30
0.0
 11
-929.7667349824321
 21
-366.1091390083851
 31
0.0
  0
LINE
  5
315
330
1E
100
AcDbEntity
  8
0
  6
Continuous
 62
     5
100
AcDbLine
 10
-929.7667349824321
 20
-366.1091390083851
 30
0.0
 11
-932.1815495484321
 21
-365.4620913953851
 31
0.0
  0
LINE
  5
316
330
1E
100
AcDbEntity
  8
0
  6
Continuous
 62
     5
100
AcDbLine
 10
-929.7667349824321
 20
-366.1091390083851
 30
0.0
 11
-932.1815495484321
 21
-366.7561866213851
 31
0.0
  0
TEXT
  5
317
330
1E
100
AcDbEntity
  8
0
  6
Continuous
 62
     5
100
AcDbText
 10
-943.7167349824319
 20
-365.1091390083851
 30
0.3
 40
3.0
  1
２４
 41
0.6
  7
KANJI2
100
AcDbText
  0
LINE
  5
318
330
1E
100
AcDbEntity
  8
0
  6
Continuous
 62
     5
100
AcDbLine
 10
-954.7667349824321
 20
-356.1091390073851
 30
0.3
 11
-952.351920417432
 21
-356.7561866203851
 31
0.3
  0
LINE
  5
319
330
1E
100
AcDbEntity
  8
0
  6
Continuous
 62
     5
100
AcDbLine
 10
-954.7667349824321
 20
-356.1091390073851
 30
0.0
 11
-952.351920417432
 21
-355.4620913953851
 31
0.0
  0
LINE
  5
31A
330
1E
100
AcDbEntity
  8
0
  6
Continuous
 62
     5
100
AcDbLine
 10
-954.7667349824321
 20
-356.1091390073851
 30
0.0
 11
-928.7667349824319
 21
-356.1091390083851
 31
0.0
  0
LINE
  5
31B
330
1E
100
AcDbEntity
  8
0
  6
Continuous
 62
     5
100
AcDbLine
 10
-928.7667349824319
 20
-356.1091390083851
 30
0.0
 11
-931.1815495484321
 21
-355.4620913953851
 31
0.0
  0
LINE
  5
31C
330
1E
100
AcDbEntity
  8
0
  6
Continuous
 62
     5
100
AcDbLine
 10
-928.7667349824319
 20
-356.1091390083851
 30
0.0
 11
-931.1815495484321
 21
-356.7561866213851
 31
0.0
  0
TEXT
  5
31D
330
1E
100
AcDbEntity
  8
0
  6
Continuous
 62
     5
100
AcDbText
 10
-943.7167349824319
 20
-355.109139008385
 30
0.3
 40
3.0
  1
２６
 41
0.6
  7
KANJI2
100
AcDbText
  0
TEXT
  5
31E
330
1E
100
AcDbEntity
  8
0
  6
Continuous
 62
     5
100
AcDbText
 10
-963.7667349844319
 20
-424.0591390083851
 30
0.3
 40
3.0
  1
９４
 50
90.0
 41
0.6
  7
KANJI2
100
AcDbText
  0
LINE
  5
31F
330
1E
100
AcDbEntity
  8
0
  6
Continuous
 62
     5
100
AcDbLine
 10
-963.7667349844319
 20
-375.1091390083851
 30
0.3
 11
-955.266734984432
 21
-375.1091390083851
 31
0.3
  0
LINE
  5
320
330
1E
100
AcDbEntity
  8
0
  6
Continuous
 62
     5
100
AcDbLine
 10
-962.7667349844319
 20
-375.1091390083851
 30
0.0
 11
-963.413782597432
 21
-377.5239535733851
 31
0.0
  0
LINE
  5
321
330
1E
100
AcDbEntity
  8
0
  6
Continuous
 62
     5
100
AcDbLine
 10
-962.7667349844319
 20
-375.1091390083851
 30
0.0
 11
-962.1196873714319
 21
-377.5239535733851
 31
0.0
  0
LINE
  5
322
330
1E
100
AcDbEntity
  8
0
  6
Continuous
 62
     5
100
AcDbLine
 10
-954.7667349844319
 20
-469.1091390083851
 30
0.0
 11
-963.7667349844319
 21
-469.1091390083851
 31
0.0
  0
LINE
  5
323
330
1E
100
AcDbEntity
  8
0
  6
Continuous
 62
     5
100
AcDbLine
 10
-962.7667349844319
 20
-469.1091390083851
 30
0.0
 11
-962.1196873714319
 21
-466.694324442385
 31
0.0
  0
LINE
  5
324
330
1E
100
AcDbEntity
  8
0
  6
Continuous
 62
     5
100
AcDbLine
 10
-962.7667349844319
 20
-469.1091390083851
 30
0.0
 11
-963.413782597432
 21
-466.694324442385
 31
0.0
  0
LINE
  5
325
330
1E
100
AcDbEntity
  8
0
  6
Continuous
 62
     5
100
AcDbLine
 10
-963.7667349844319
 20
-473.1091390083851
 30
0.0
 11
-949.766734984432
 21
-473.1091390083851
 31
0.0
  0
LINE
  5
326
330
1E
100
AcDbEntity
  8
0
  6
Continuous
 62
     5
100
AcDbLine
 10
-962.7667349844319
 20
-473.1091390083851
 30
0.0
 11
-963.413782597432
 21
-475.5239535733851
 31
0.0
  0
LINE
  5
327
330
1E
100
AcDbEntity
  8
0
  6
Continuous
 62
     5
100
AcDbLine
 10
-962.7667349844319
 20
-473.1091390083851
 30
0.0
 11
-962.1196873714319
 21
-475.5239535733851
 31
0.0
  0
LINE
  5
328
330
1E
100
AcDbEntity
  8
0
  6
Continuous
 62
     5
100
AcDbLine
 10
-962.7667349844319
 20
-469.1091390083851
 30
0.0
 11
-962.7667349844319
 21
-486.1091390083851
 31
0.0
  0
TEXT
  5
329
330
1E
100
AcDbEntity
  8
0
  6
Continuous
 62
     5
100
AcDbText
 10
-963.7667349844319
 20
-483.5591390083851
 30
0.3
 40
3.0
  1
６ｍａｘ
 50
90.0
 41
0.6
  7
KANJI2
100
AcDbText
  0
LINE
  5
32A
330
1E
100
AcDbEntity
  8
0
  6
Continuous
 62
     5
100
AcDbLine
 10
-962.7667349844319
 20
-375.1091390083851
 30
0.3
 11
-962.7667349844319
 21
-469.1091390083851
 31
0.3
  0
LINE
  5
32B
330
1E
100
AcDbEntity
  8
0
  6
Continuous
 62
     5
100
AcDbLine
 10
-787.766734982432
 20
-375.1091390083851
 30
0.0
 11
-787.766734982432
 21
-343.1091390083851
 31
0.0
  0
LINE
  5
32C
330
1E
100
AcDbEntity
  8
0
  6
Continuous
 62
     5
100
AcDbLine
 10
-787.766734982432
 20
-343.1091390083851
 30
0.0
 11
-788.413782595432
 21
-345.5239535733851
 31
0.0
  0
LINE
  5
32D
330
1E
100
AcDbEntity
  8
0
  6
Continuous
 62
     5
100
AcDbLine
 10
-787.766734982432
 20
-343.1091390083851
 30
0.0
 11
-787.119687370432
 21
-345.5239535733851
 31
0.0
  0
TEXT
  5
32E
330
1E
100
AcDbEntity
  8
0
  6
Continuous
 62
     5
100
AcDbText
 10
-788.766734982432
 20
-362.259139008385
 30
0.3
 40
3.0
  1
３２ｍａｘ
 50
90.0
 41
0.6
  7
KANJI2
100
AcDbText
  0
LINE
  5
32F
330
1E
100
AcDbEntity
  8
0
  6
Continuous
 62
     5
100
AcDbLine
 10
-794.566734982432
 20
-343.1091390083851
 30
0.3
 11
-787.766734982432
 21
-343.1091390083851
 31
0.3
  0
LINE
  5
330
330
1E
100
AcDbEntity
  8
0
  6
Continuous
 62
     5
100
AcDbLine
 10
-778.766734982432
 20
-374.1091390083851
 30
0.0
 11
-778.766734982432
 21
-329.6091390083851
 31
0.0
  0
ENDSEC
  0
SECTION
  2
OBJECTS
  0
DICTIONARY
  5
C
330
0
100
AcDbDictionary
281
     1
  3
ACAD_GROUP
350
D
  3
ACAD_PLOTSTYLENAME
350
E
  3
ACAD_MLINESTYLE
350
16
  3
ACAD_PLOTSETTINGS
350
18
  3
ACAD_LAYOUT
350
19
  0
DICTIONARY
  5
D
102
{ACAD_REACTORS
330
C
102
}
330
C
100
AcDbDictionary
281
     1
  0
ACDBDICTIONARYWDFLT
  5
E
102
{ACAD_REACTORS
330
C
102
}
330
C
100
AcDbDictionary
281
     1
  3
Normal
350
F
100
AcDbDictionaryWithDefault
340
F
  0
DICTIONARY
  5
16
102
{ACAD_REACTORS
330
C
102
}
330
C
100
AcDbDictionary
281
     1
  3
Standard
350
17
  0
DICTIONARY
  5
18
102
{ACAD_REACTORS
330
C
102
}
330
C
100
AcDbDictionary
281
     1
  0
DICTIONARY
  5
19
102
{ACAD_REACTORS
330
C
102
}
330
C
100
AcDbDictionary
281
     1
  3
ﾚｲｱｳﾄ1
350
1D
  3
Model
350
21
  0
ACDBPLACEHOLDER
  5
F
102
{ACAD_REACTORS
330
E
102
}
330
E
  0
MLINESTYLE
  5
17
102
{ACAD_REACTORS
330
16
102
}
330
16
100
AcDbMlineStyle
  2
STANDARD
 70
     0
  3

 62
   256
 51
90.0
 52
90.0
 71
     2
 49
0.5
 62
   256
  6
BYLAYER
 49
-0.5
 62
   256
  6
BYLAYER
  0
LAYOUT
  5
1D
102
{ACAD_REACTORS
330
19
102
}
330
19
100
AcDbPlotSettings
  1

  2
Canon LASER SHOT LBP-880
  4

  6

 40
0.0
 41
0.0
 42
0.0
 43
0.0
 44
0.0
 45
0.0
 46
0.0
 47
0.0
 48
0.0
 49
0.0
140
0.0
141
0.0
142
1.0
143
1.0
 70
   688
 72
     0
 73
     0
 74
     5
  7

 75
    16
147
1.0
148
0.0
149
0.0
100
AcDbLayout
  1
ﾚｲｱｳﾄ1
 70
     1
 71
     1
 10
0.0
 20
0.0
 11
12.0
 21
9.0
 12
0.0
 22
0.0
 32
0.0
 14
1.000000000000000E+20
 24
1.000000000000000E+20
 34
1.000000000000000E+20
 15
-1.000000000000000E+20
 25
-1.000000000000000E+20
 35
-1.000000000000000E+20
146
0.0
 13
0.0
 23
0.0
 33
0.0
 16
1.0
 26
0.0
 36
0.0
 17
0.0
 27
1.0
 37
0.0
 76
     0
330
1A
  0
LAYOUT
  5
21
102
{ACAD_REACTORS
330
19
102
}
330
19
100
AcDbPlotSettings
  1

  2
Canon LASER SHOT LBP-880
  4

  6

 40
0.0
 41
0.0
 42
0.0
 43
0.0
 44
0.0
 45
0.0
 46
0.0
 47
0.0
 48
0.0
 49
0.0
140
0.0
141
0.0
142
1.0
143
1.0
 70
  1712
 72
     0
 73
     0
 74
     0
  7

 75
     0
147
1.0
148
0.0
149
0.0
100
AcDbLayout
  1
Model
 70
     1
 71
     0
 10
0.0
 20
0.0
 11
12.0
 21
9.0
 12
0.0
 22
0.0
 32
0.0
 14
0.0
 24
0.0
 34
0.0
 15
0.0
 25
0.0
 35
0.0
146
0.0
 13
0.0
 23
0.0
 33
0.0
 16
1.0
 26
0.0
 36
0.0
 17
0.0
 27
1.0
 37
0.0
 76
     0
330
1E
  0
ENDSEC
  0
EOF
