  0
SECTION
  2
HEADER
  9
$ACADVER
  1
AC1009
  9
$INSBASE
 10
0.0
 20
0.0
 30
0.0
  9
$EXTMIN
 10
112.199999999
 20
95.499999998999996
 30
0.0
  9
$EXTMAX
 10
318.0
 20
229.29999999900011
 30
0.3
  9
$LIMMIN
 10
0.0
 20
0.0
  9
$LIMMAX
 10
420.0
 20
297.0
  9
$ORTHOMODE
 70
     0
  9
$REGENMODE
 70
     1
  9
$FILLMODE
 70
     1
  9
$QTEXTMODE
 70
     0
  9
$MIRRTEXT
 70
     0
  9
$DRAGMODE
 70
     2
  9
$LTSCALE
 40
1.0
  9
$OSMODE
 70
   167
  9
$ATTMODE
 70
     1
  9
$TEXTSIZE
 40
0.2
  9
$TRACEWID
 40
0.05
  9
$TEXTSTYLE
  7
STANDARD
  9
$CLAYER
  8
0
  9
$CELTYPE
  6
CONTINUOUS
  9
$CECOLOR
 62
   256
  9
$DIMSCALE
 40
1.0
  9
$DIMASZ
 40
0.18
  9
$DIMEXO
 40
0.0625
  9
$DIMDLI
 40
0.38
  9
$DIMRND
 40
0.0
  9
$DIMDLE
 40
0.0
  9
$DIMEXE
 40
0.18
  9
$DIMTP
 40
0.0
  9
$DIMTM
 40
0.0
  9
$DIMTXT
 40
0.18
  9
$DIMCEN
 40
0.09
  9
$DIMTSZ
 40
0.0
  9
$DIMTOL
 70
     0
  9
$DIMLIM
 70
     0
  9
$DIMTIH
 70
     1
  9
$DIMTOH
 70
     1
  9
$DIMSE1
 70
     0
  9
$DIMSE2
 70
     0
  9
$DIMTAD
 70
     0
  9
$DIMZIN
 70
     0
  9
$DIMBLK
  1

  9
$DIMASO
 70
     1
  9
$DIMSHO
 70
     1
  9
$DIMPOST
  1

  9
$DIMAPOST
  1

  9
$DIMALT
 70
     0
  9
$DIMALTD
 70
     2
  9
$DIMALTF
 40
25.399999999999999
  9
$DIMLFAC
 40
1.0
  9
$DIMTOFL
 70
     0
  9
$DIMTVP
 40
0.0
  9
$DIMTIX
 70
     0
  9
$DIMSOXD
 70
     0
  9
$DIMSAH
 70
     0
  9
$DIMBLK1
  1

  9
$DIMBLK2
  1

  9
$DIMSTYLE
  2
STANDARD
  9
$DIMCLRD
 70
     0
  9
$DIMCLRE
 70
     0
  9
$DIMCLRT
 70
     0
  9
$DIMTFAC
 40
1.0
  9
$DIMGAP
 40
0.09
  9
$LUNITS
 70
     2
  9
$LUPREC
 70
     4
  9
$SKETCHINC
 40
0.1
  9
$FILLETRAD
 40
0.0
  9
$AUNITS
 70
     0
  9
$AUPREC
 70
     0
  9
$MENU
  1
.
  9
$ELEVATION
 40
0.0
  9
$PELEVATION
 40
0.0
  9
$THICKNESS
 40
0.0
  9
$LIMCHECK
 70
     0
  9
$BLIPMODE
 70
     0
  9
$CHAMFERA
 40
0.0
  9
$CHAMFERB
 40
0.0
  9
$SKPOLY
 70
     0
  9
$TDCREATE
 40
2456716.5594145721
  9
$TDUPDATE
 40
2456716.560941794
  9
$TDINDWG
 40
0.0015279398
  9
$TDUSRTIMER
 40
0.0015279398
  9
$USRTIMER
 70
     1
  9
$ANGBASE
 50
0.0
  9
$ANGDIR
 70
     0
  9
$PDMODE
 70
     0
  9
$PDSIZE
 40
0.0
  9
$PLINEWID
 40
0.0
  9
$COORDS
 70
     2
  9
$SPLFRAME
 70
     0
  9
$SPLINETYPE
 70
     6
  9
$SPLINESEGS
 70
     8
  9
$ATTDIA
 70
     0
  9
$ATTREQ
 70
     1
  9
$HANDLING
 70
     1
  9
$HANDSEED
  5
64E
  9
$SURFTAB1
 70
     6
  9
$SURFTAB2
 70
     6
  9
$SURFTYPE
 70
     6
  9
$SURFU
 70
     6
  9
$SURFV
 70
     6
  9
$UCSNAME
  2

  9
$UCSORG
 10
0.0
 20
0.0
 30
0.0
  9
$UCSXDIR
 10
1.0
 20
0.0
 30
0.0
  9
$UCSYDIR
 10
0.0
 20
1.0
 30
0.0
  9
$PUCSNAME
  2

  9
$PUCSORG
 10
0.0
 20
0.0
 30
0.0
  9
$PUCSXDIR
 10
1.0
 20
0.0
 30
0.0
  9
$PUCSYDIR
 10
0.0
 20
1.0
 30
0.0
  9
$USERI1
 70
     0
  9
$USERI2
 70
     0
  9
$USERI3
 70
     0
  9
$USERI4
 70
     0
  9
$USERI5
 70
     0
  9
$USERR1
 40
0.0
  9
$USERR2
 40
0.0
  9
$USERR3
 40
0.0
  9
$USERR4
 40
0.0
  9
$USERR5
 40
0.0
  9
$WORLDVIEW
 70
     1
  9
$SHADEDGE
 70
     3
  9
$SHADEDIF
 70
    70
  9
$TILEMODE
 70
     1
  9
$MAXACTVP
 70
    64
  9
$PLIMCHECK
 70
     0
  9
$PEXTMIN
 10
1.0000000000000000E+020
 20
1.0000000000000000E+020
 30
1.0000000000000000E+020
  9
$PEXTMAX
 10
-1.0000000000000000E+020
 20
-1.0000000000000000E+020
 30
-1.0000000000000000E+020
  9
$PLIMMIN
 10
0.0
 20
0.0
  9
$PLIMMAX
 10
12.0
 20
9.0
  9
$UNITMODE
 70
     0
  9
$VISRETAIN
 70
     1
  9
$PLINEGEN
 70
     0
  9
$PSLTSCALE
 70
     1
  0
ENDSEC
  0
SECTION
  2
TABLES
  0
TABLE
  2
VPORT
 70
     1
  0
VPORT
  2
*ACTIVE
 70
     0
 10
0.0
 20
0.0
 11
1.0
 21
1.0
 12
190.35095610041719
 22
161.0606858486409
 13
0.0
 23
0.0
 14
1.0
 24
1.0
 15
0.0
 25
0.0
 16
0.0
 26
0.0
 36
1.0
 17
0.0
 27
0.0
 37
0.0
 40
129.42019257640479
 41
1.807916181606519
 42
50.0
 43
0.0
 44
0.0
 50
0.0
 51
0.0
 71
     0
 72
   100
 73
     1
 74
     1
 75
     0
 76
     0
 77
     0
 78
     0
  0
ENDTAB
  0
TABLE
  2
LTYPE
 70
     2
  0
LTYPE
  2
CONTINUOUS
 70
     0
  3
Solid line
 72
    65
 73
     0
 40
0.0
  0
LTYPE
  2
LTYPE1
 70
     0
  3
CENTER
 72
    65
 73
     4
 40
15.0
 49
10.5
 49
-1.5
 49
1.5
 49
-1.5
  0
ENDTAB
  0
TABLE
  2
LAYER
 70
   128
  0
LAYER
  2
0
 70
     0
 62
     7
  6
CONTINUOUS
  0
LAYER
  2
1
 70
     0
 62
     7
  6
CONTINUOUS
  0
LAYER
  2
2
 70
     0
 62
     7
  6
CONTINUOUS
  0
LAYER
  2
3
 70
     0
 62
     7
  6
CONTINUOUS
  0
LAYER
  2
4
 70
     0
 62
     7
  6
CONTINUOUS
  0
LAYER
  2
5
 70
     0
 62
     7
  6
CONTINUOUS
  0
LAYER
  2
6
 70
     0
 62
     7
  6
CONTINUOUS
  0
LAYER
  2
7
 70
     0
 62
     7
  6
CONTINUOUS
  0
LAYER
  2
8
 70
     0
 62
     7
  6
CONTINUOUS
  0
LAYER
  2
9
 70
     0
 62
     7
  6
CONTINUOUS
  0
LAYER
  2
10
 70
     0
 62
     7
  6
CONTINUOUS
  0
LAYER
  2
11
 70
     0
 62
     7
  6
CONTINUOUS
  0
LAYER
  2
12
 70
     0
 62
     7
  6
CONTINUOUS
  0
LAYER
  2
13
 70
     0
 62
     7
  6
CONTINUOUS
  0
LAYER
  2
14
 70
     0
 62
     7
  6
CONTINUOUS
  0
LAYER
  2
15
 70
     0
 62
     7
  6
CONTINUOUS
  0
LAYER
  2
16
 70
     0
 62
     7
  6
CONTINUOUS
  0
LAYER
  2
17
 70
     0
 62
     7
  6
CONTINUOUS
  0
LAYER
  2
18
 70
     0
 62
     7
  6
CONTINUOUS
  0
LAYER
  2
19
 70
     0
 62
     7
  6
CONTINUOUS
  0
LAYER
  2
20
 70
     0
 62
     7
  6
CONTINUOUS
  0
LAYER
  2
21
 70
     0
 62
     7
  6
CONTINUOUS
  0
LAYER
  2
22
 70
     0
 62
     7
  6
CONTINUOUS
  0
LAYER
  2
23
 70
     0
 62
     7
  6
CONTINUOUS
  0
LAYER
  2
24
 70
     0
 62
     7
  6
CONTINUOUS
  0
LAYER
  2
25
 70
     0
 62
     7
  6
CONTINUOUS
  0
LAYER
  2
26
 70
     0
 62
     7
  6
CONTINUOUS
  0
LAYER
  2
27
 70
     0
 62
     7
  6
CONTINUOUS
  0
LAYER
  2
28
 70
     0
 62
     7
  6
CONTINUOUS
  0
LAYER
  2
29
 70
     0
 62
     7
  6
CONTINUOUS
  0
LAYER
  2
30
 70
     0
 62
     7
  6
CONTINUOUS
  0
LAYER
  2
31
 70
     0
 62
     7
  6
CONTINUOUS
  0
LAYER
  2
32
 70
     0
 62
     7
  6
CONTINUOUS
  0
LAYER
  2
33
 70
     0
 62
     7
  6
CONTINUOUS
  0
LAYER
  2
34
 70
     0
 62
     7
  6
CONTINUOUS
  0
LAYER
  2
35
 70
     0
 62
     7
  6
CONTINUOUS
  0
LAYER
  2
36
 70
     0
 62
     7
  6
CONTINUOUS
  0
LAYER
  2
37
 70
     0
 62
     7
  6
CONTINUOUS
  0
LAYER
  2
38
 70
     0
 62
     7
  6
CONTINUOUS
  0
LAYER
  2
39
 70
     0
 62
     7
  6
CONTINUOUS
  0
LAYER
  2
40
 70
     0
 62
     7
  6
CONTINUOUS
  0
LAYER
  2
41
 70
     0
 62
     7
  6
CONTINUOUS
  0
LAYER
  2
42
 70
     0
 62
     7
  6
CONTINUOUS
  0
LAYER
  2
43
 70
     0
 62
     7
  6
CONTINUOUS
  0
LAYER
  2
44
 70
     0
 62
     7
  6
CONTINUOUS
  0
LAYER
  2
45
 70
     0
 62
     7
  6
CONTINUOUS
  0
LAYER
  2
46
 70
     0
 62
     7
  6
CONTINUOUS
  0
LAYER
  2
47
 70
     0
 62
     7
  6
CONTINUOUS
  0
LAYER
  2
48
 70
     0
 62
     7
  6
CONTINUOUS
  0
LAYER
  2
49
 70
     0
 62
     7
  6
CONTINUOUS
  0
LAYER
  2
50
 70
     0
 62
     7
  6
CONTINUOUS
  0
LAYER
  2
51
 70
     0
 62
     7
  6
CONTINUOUS
  0
LAYER
  2
52
 70
     0
 62
     7
  6
CONTINUOUS
  0
LAYER
  2
53
 70
     0
 62
     7
  6
CONTINUOUS
  0
LAYER
  2
54
 70
     0
 62
     7
  6
CONTINUOUS
  0
LAYER
  2
55
 70
     0
 62
     7
  6
CONTINUOUS
  0
LAYER
  2
56
 70
     0
 62
     7
  6
CONTINUOUS
  0
LAYER
  2
57
 70
     0
 62
     7
  6
CONTINUOUS
  0
LAYER
  2
58
 70
     0
 62
     7
  6
CONTINUOUS
  0
LAYER
  2
59
 70
     0
 62
     7
  6
CONTINUOUS
  0
LAYER
  2
60
 70
     0
 62
     7
  6
CONTINUOUS
  0
LAYER
  2
61
 70
     0
 62
     7
  6
CONTINUOUS
  0
LAYER
  2
62
 70
     0
 62
     7
  6
CONTINUOUS
  0
LAYER
  2
63
 70
     0
 62
     7
  6
CONTINUOUS
  0
LAYER
  2
64
 70
     0
 62
     7
  6
CONTINUOUS
  0
LAYER
  2
65
 70
     0
 62
     7
  6
CONTINUOUS
  0
LAYER
  2
66
 70
     0
 62
     7
  6
CONTINUOUS
  0
LAYER
  2
67
 70
     0
 62
     7
  6
CONTINUOUS
  0
LAYER
  2
68
 70
     0
 62
     7
  6
CONTINUOUS
  0
LAYER
  2
69
 70
     0
 62
     7
  6
CONTINUOUS
  0
LAYER
  2
70
 70
     0
 62
     7
  6
CONTINUOUS
  0
LAYER
  2
71
 70
     0
 62
     7
  6
CONTINUOUS
  0
LAYER
  2
72
 70
     0
 62
     7
  6
CONTINUOUS
  0
LAYER
  2
73
 70
     0
 62
     7
  6
CONTINUOUS
  0
LAYER
  2
74
 70
     0
 62
     7
  6
CONTINUOUS
  0
LAYER
  2
75
 70
     0
 62
     7
  6
CONTINUOUS
  0
LAYER
  2
76
 70
     0
 62
     7
  6
CONTINUOUS
  0
LAYER
  2
77
 70
     0
 62
     7
  6
CONTINUOUS
  0
LAYER
  2
78
 70
     0
 62
     7
  6
CONTINUOUS
  0
LAYER
  2
79
 70
     0
 62
     7
  6
CONTINUOUS
  0
LAYER
  2
80
 70
     0
 62
     7
  6
CONTINUOUS
  0
LAYER
  2
81
 70
     0
 62
     7
  6
CONTINUOUS
  0
LAYER
  2
82
 70
     0
 62
     7
  6
CONTINUOUS
  0
LAYER
  2
83
 70
     0
 62
     7
  6
CONTINUOUS
  0
LAYER
  2
84
 70
     0
 62
     7
  6
CONTINUOUS
  0
LAYER
  2
85
 70
     0
 62
     7
  6
CONTINUOUS
  0
LAYER
  2
86
 70
     0
 62
     7
  6
CONTINUOUS
  0
LAYER
  2
87
 70
     0
 62
     7
  6
CONTINUOUS
  0
LAYER
  2
88
 70
     0
 62
     7
  6
CONTINUOUS
  0
LAYER
  2
89
 70
     0
 62
     7
  6
CONTINUOUS
  0
LAYER
  2
90
 70
     0
 62
     7
  6
CONTINUOUS
  0
LAYER
  2
91
 70
     0
 62
     7
  6
CONTINUOUS
  0
LAYER
  2
92
 70
     0
 62
     7
  6
CONTINUOUS
  0
LAYER
  2
93
 70
     0
 62
     7
  6
CONTINUOUS
  0
LAYER
  2
94
 70
     0
 62
     7
  6
CONTINUOUS
  0
LAYER
  2
95
 70
     0
 62
     7
  6
CONTINUOUS
  0
LAYER
  2
96
 70
     0
 62
     7
  6
CONTINUOUS
  0
LAYER
  2
97
 70
     0
 62
     7
  6
CONTINUOUS
  0
LAYER
  2
98
 70
     0
 62
     7
  6
CONTINUOUS
  0
LAYER
  2
99
 70
     0
 62
     7
  6
CONTINUOUS
  0
LAYER
  2
100
 70
     0
 62
     7
  6
CONTINUOUS
  0
LAYER
  2
101
 70
     0
 62
     7
  6
CONTINUOUS
  0
LAYER
  2
102
 70
     0
 62
     7
  6
CONTINUOUS
  0
LAYER
  2
103
 70
     0
 62
     7
  6
CONTINUOUS
  0
LAYER
  2
104
 70
     0
 62
     7
  6
CONTINUOUS
  0
LAYER
  2
105
 70
     0
 62
     7
  6
CONTINUOUS
  0
LAYER
  2
106
 70
     0
 62
     7
  6
CONTINUOUS
  0
LAYER
  2
107
 70
     0
 62
     7
  6
CONTINUOUS
  0
LAYER
  2
108
 70
     0
 62
     7
  6
CONTINUOUS
  0
LAYER
  2
109
 70
     0
 62
     7
  6
CONTINUOUS
  0
LAYER
  2
110
 70
     0
 62
     7
  6
CONTINUOUS
  0
LAYER
  2
111
 70
     0
 62
     7
  6
CONTINUOUS
  0
LAYER
  2
112
 70
     0
 62
     7
  6
CONTINUOUS
  0
LAYER
  2
113
 70
     0
 62
     7
  6
CONTINUOUS
  0
LAYER
  2
114
 70
     0
 62
     7
  6
CONTINUOUS
  0
LAYER
  2
115
 70
     0
 62
     7
  6
CONTINUOUS
  0
LAYER
  2
116
 70
     0
 62
     7
  6
CONTINUOUS
  0
LAYER
  2
117
 70
     0
 62
     7
  6
CONTINUOUS
  0
LAYER
  2
118
 70
     0
 62
     7
  6
CONTINUOUS
  0
LAYER
  2
119
 70
     0
 62
     7
  6
CONTINUOUS
  0
LAYER
  2
120
 70
     0
 62
     7
  6
CONTINUOUS
  0
LAYER
  2
121
 70
     0
 62
     7
  6
CONTINUOUS
  0
LAYER
  2
122
 70
     0
 62
     7
  6
CONTINUOUS
  0
LAYER
  2
123
 70
     0
 62
     7
  6
CONTINUOUS
  0
LAYER
  2
124
 70
     0
 62
     7
  6
CONTINUOUS
  0
LAYER
  2
125
 70
     0
 62
     7
  6
CONTINUOUS
  0
LAYER
  2
126
 70
     0
 62
     7
  6
CONTINUOUS
  0
LAYER
  2
127
 70
     0
 62
     7
  6
CONTINUOUS
  0
ENDTAB
  0
TABLE
  2
STYLE
 70
    14
  0
STYLE
  2
STANDARD
 70
     0
 40
0.0
 41
1.0
 50
0.0
 71
     0
 42
0.2
  3
txt
  4

  0
STYLE
  2
ANNOTATIVE
 70
     0
 40
0.0
 41
1.0
 50
0.0
 71
     0
 42
0.2
  3
txt
  4

  0
STYLE
  2
KANJI0
 70
     0
 40
3.0
 41
0.6
 50
0.0
 71
     0
 42
3.0
  3
txt
  4
bigfont
  0
STYLE
  2
KANJI1
 70
     0
 40
1.5
 41
0.666666667
 50
0.0
 71
     0
 42
1.5
  3
txt
  4
bigfont
  0
STYLE
  2
KANJI2
 70
     0
 40
3.0
 41
0.666666667
 50
0.0
 71
     0
 42
3.0
  3
txt
  4
bigfont
  0
STYLE
  2
KANJI3
 70
     0
 40
2.5
 41
0.6
 50
0.0
 71
     0
 42
2.5
  3
txt
  4
bigfont
  0
STYLE
  2
KANJI4
 70
     0
 40
2.0
 41
1.0
 50
0.0
 71
     0
 42
2.0
  3
txt
  4
bigfont
  0
STYLE
  2
KANJI5
 70
     0
 40
2.0
 41
0.45
 50
0.0
 71
     0
 42
2.0
  3
txt
  4
bigfont
  0
STYLE
  2
KANJI6
 70
     0
 40
4.0
 41
0.3125
 50
0.0
 71
     0
 42
4.0
  3
txt
  4
bigfont
  0
STYLE
  2
KANJI7
 70
     0
 40
1.5
 41
0.5
 50
0.0
 71
     0
 42
1.5
  3
txt
  4
bigfont
  0
STYLE
  2
KANJI8
 70
     0
 40
1.6000000000000001
 41
0.45
 50
0.0
 71
     0
 42
1.6000000000000001
  3
txt
  4
bigfont
  0
STYLE
  2
KANJI9
 70
     0
 40
2.0
 41
0.25
 50
0.0
 71
     0
 42
2.0
  3
txt
  4
bigfont
  0
STYLE
  2
KANJI10
 70
     0
 40
1.6000000000000001
 41
0.9
 50
0.0
 71
     0
 42
1.6000000000000001
  3
txt
  4
bigfont
  0
STYLE
  2
KANJI11
 70
     0
 40
2.0
 41
0.9
 50
0.0
 71
     0
 42
2.0
  3
txt
  4
bigfont
  0
ENDTAB
  0
TABLE
  2
VIEW
 70
     0
  0
ENDTAB
  0
TABLE
  2
UCS
 70
     0
  0
ENDTAB
  0
TABLE
  2
APPID
 70
     3
  0
APPID
  2
ACAD
 70
     0
  0
APPID
  2
ACADANNOTATIVE
 70
     0
  0
APPID
  2
ACAD_MLEADERVER
 70
     0
  0
ENDTAB
  0
TABLE
  2
DIMSTYLE
 70
     2
  0
DIMSTYLE
  2
STANDARD
 70
     0
  3

  4

  5

  6

  7

 40
1.0
 41
0.18
 42
0.0625
 43
0.38
 44
0.18
 45
0.0
 46
0.0
 47
0.0
 48
0.0
140
0.18
141
0.09
142
0.0
143
25.399999999999999
144
1.0
145
0.0
146
1.0
147
0.09
 71
     0
 72
     0
 73
     1
 74
     1
 75
     0
 76
     0
 77
     0
 78
     0
170
     0
171
     2
172
     0
173
     0
174
     0
175
     0
176
     0
177
     0
178
     0
  0
DIMSTYLE
  2
ANNOTATIVE
 70
     0
  3

  4

  5

  6

  7

 40
1.0
 41
0.18
 42
0.0625
 43
0.38
 44
0.18
 45
0.0
 46
0.0
 47
0.0
 48
0.0
140
0.18
141
0.09
142
0.0
143
25.399999999999999
144
1.0
145
0.0
146
1.0
147
0.09
 71
     0
 72
     0
 73
     1
 74
     1
 75
     0
 76
     0
 77
     0
 78
     0
170
     0
171
     2
172
     0
173
     0
174
     0
175
     0
176
     0
177
     0
178
     0
  0
ENDTAB
  0
ENDSEC
  0
SECTION
  2
BLOCKS
  0
BLOCK
  8
0
  2
$MODEL_SPACE
 70
     0
 10
0.0
 20
0.0
 30
0.0
  3
$MODEL_SPACE
  1

  0
ENDBLK
  5
6D
  8
0
  0
BLOCK
 67
     1
  8
0
  2
$PAPER_SPACE
 70
     0
 10
0.0
 20
0.0
 30
0.0
  3
$PAPER_SPACE
  1

  0
ENDBLK
  5
69
 67
     1
  8
0
  0
ENDSEC
  0
SECTION
  2
ENTITIES
  0
LINE
  5
FE
  8
0
  6
CONTINUOUS
 62
     3
 10
177.99999999799999
 20
125.50000000199999
 30
0.0
 11
177.99999999799999
 21
125.50000000199999
 31
0.0
  0
LINE
  5
FF
  8
0
  6
CONTINUOUS
 62
     3
 10
177.999999997
 20
193.50000000200001
 30
0.0
 11
177.999999997
 21
193.50000000200001
 31
0.0
  0
LINE
  5
100
  8
0
  6
CONTINUOUS
 62
     3
 10
266.99999999799991
 20
124.700000003
 30
0.0
 11
261.99999999800002
 21
124.700000003
 31
0.0
  0
LINE
  5
101
  8
0
  6
CONTINUOUS
 62
     3
 10
261.99999999800002
 20
123.500000003
 30
0.0
 11
261.99999999800002
 21
124.700000003
 31
0.0
  0
LINE
  5
102
  8
0
  6
CONTINUOUS
 62
     3
 10
242.69999999800001
 20
122.300000002
 30
0.0
 11
242.69999999800001
 21
123.50000000199999
 31
0.0
  0
ARC
  5
103
  8
0
  6
CONTINUOUS
 62
     3
 10
244.99999999799999
 20
122.30000000299999
 30
0.0
 40
2.2999999999999989
 50
179.99999999900001
 51
270.0
  0
LINE
  5
104
  8
0
  6
CONTINUOUS
 62
     3
 10
249.69999999800001
 20
123.500000003
 30
0.0
 11
249.69999999800001
 21
122.30000000299999
 31
0.0
  0
LINE
  5
105
  8
0
  6
CONTINUOUS
 62
     3
 10
244.99999999799999
 20
120.000000003
 30
0.0
 11
247.399999998
 21
120.000000003
 31
0.0
  0
ARC
  5
106
  8
0
  6
CONTINUOUS
 62
     3
 10
247.399999998
 20
122.30000000299999
 30
0.0
 40
2.2999999999999989
 50
270.0
 51
0.0
  0
ARC
  5
107
  8
0
  6
CONTINUOUS
 62
     3
 10
244.999999997
 20
196.7000000029999
 30
0.0
 40
2.2999999999999989
 50
90.0
 51
180.00000000099999
  0
LINE
  5
108
  8
0
  6
CONTINUOUS
 62
     3
 10
242.69999999699999
 20
196.700000002
 30
0.0
 11
242.69999999699999
 21
195.50000000200001
 31
0.0
  0
LINE
  5
109
  8
0
  6
CONTINUOUS
 62
     3
 10
249.69999999699999
 20
195.500000003
 30
0.0
 11
249.69999999699999
 21
196.7000000029999
 31
0.0
  0
ARC
  5
10A
  8
0
  6
CONTINUOUS
 62
     3
 10
247.39999999700001
 20
196.7000000029999
 30
0.0
 40
2.2999999999999989
 50
0.0
 51
90.0
  0
LINE
  5
10B
  8
0
  6
CONTINUOUS
 62
     3
 10
244.999999997
 20
199.000000003
 30
0.0
 11
247.39999999700001
 21
199.000000003
 31
0.0
  0
LINE
  5
10C
  8
0
  6
CONTINUOUS
 62
     3
 10
266.99999999799991
 20
124.7
 30
0.0
 11
266.99999999799991
 21
123.500000003
 31
0.0
  0
LINE
  5
10D
  8
0
  6
CONTINUOUS
 62
     3
 10
261.99999999400001
 20
194.300000004
 30
0.0
 11
266.99999999400001
 21
194.300000004
 31
0.0
  0
LINE
  5
10E
  8
0
  6
CONTINUOUS
 62
     3
 10
266.99999999400001
 20
195.50000000399999
 30
0.0
 11
266.99999999400001
 21
194.300000004
 31
0.0
  0
LINE
  5
10F
  8
0
  6
CONTINUOUS
 62
     3
 10
261.99999999400001
 20
194.30000000699999
 30
0.0
 11
261.99999999400001
 21
195.50000000399999
 31
0.0
  0
LINE
  5
110
  8
0
  6
CONTINUOUS
 62
     3
 10
253.999999997
 20
195.500000003
 30
0.0
 11
249.69999999699999
 21
195.500000003
 31
0.0
  0
LINE
  5
111
  8
0
  6
CONTINUOUS
 62
     3
 10
261.999999995
 20
123.500000003
 30
0.0
 11
261.99999999800002
 21
123.500000003
 31
0.0
  0
LINE
  5
112
  8
0
  6
CONTINUOUS
 62
     3
 10
259.20000000300001
 20
195.499999997
 30
0.0
 11
259.20000000200002
 21
189.499999997
 31
0.0
  0
LINE
  5
113
  8
0
  6
CONTINUOUS
 62
     3
 10
259.20000000200002
 20
189.499999997
 30
0.0
 11
257.20000000200002
 21
189.499999997
 31
0.0
  0
LINE
  5
114
  8
0
  6
CONTINUOUS
 62
     3
 10
257.20000000200002
 20
189.499999997
 30
0.0
 11
257.20000000300001
 21
195.499999997
 31
0.0
  0
LINE
  5
115
  8
0
  6
CONTINUOUS
 62
     3
 10
252.900000003
 20
195.49999999799999
 30
0.0
 11
252.90000000200001
 21
189.49999999799999
 31
0.0
  0
LINE
  5
116
  8
0
  6
CONTINUOUS
 62
     3
 10
252.90000000200001
 20
189.49999999799999
 30
0.0
 11
250.90000000200001
 21
189.49999999799999
 31
0.0
  0
LINE
  5
117
  8
0
  6
CONTINUOUS
 62
     3
 10
250.90000000200001
 20
189.49999999799999
 30
0.0
 11
250.900000003
 21
195.49999999799999
 31
0.0
  0
LINE
  5
118
  8
0
  6
CONTINUOUS
 62
     3
 10
240.70000000300001
 20
195.49999999900001
 30
0.0
 11
240.700000002
 21
189.49999999900001
 31
0.0
  0
LINE
  5
119
  8
0
  6
CONTINUOUS
 62
     3
 10
240.700000002
 20
189.49999999900001
 30
0.0
 11
238.700000002
 21
189.49999999900001
 31
0.0
  0
LINE
  5
11A
  8
0
  6
CONTINUOUS
 62
     3
 10
238.700000002
 20
189.49999999900001
 30
0.0
 11
238.70000000300001
 21
195.49999999900001
 31
0.0
  0
LINE
  5
11B
  8
0
  6
CONTINUOUS
 62
     3
 10
200.70000000300001
 20
195.50000000200001
 30
0.0
 11
200.700000002
 21
189.50000000200001
 31
0.0
  0
LINE
  5
11C
  8
0
  6
CONTINUOUS
 62
     3
 10
200.700000002
 20
189.50000000200001
 30
0.0
 11
198.700000002
 21
189.50000000200001
 31
0.0
  0
LINE
  5
11D
  8
0
  6
CONTINUOUS
 62
     3
 10
198.700000002
 20
189.50000000200001
 30
0.0
 11
198.70000000300001
 21
195.50000000200001
 31
0.0
  0
LINE
  5
11E
  8
0
  6
CONTINUOUS
 62
     3
 10
202.70000000300001
 20
195.50000000099999
 30
0.0
 11
202.700000002
 21
189.50000000099999
 31
0.0
  0
LINE
  5
11F
  8
0
  6
CONTINUOUS
 62
     3
 10
202.700000002
 20
189.50000000099999
 30
0.0
 11
204.700000002
 21
189.50000000099999
 31
0.0
  0
LINE
  5
120
  8
0
  6
CONTINUOUS
 62
     3
 10
204.700000002
 20
189.50000000099999
 30
0.0
 11
204.70000000300001
 21
195.50000000099999
 31
0.0
  0
LINE
  5
121
  8
0
  6
CONTINUOUS
 62
     3
 10
206.70000000300001
 20
195.50000000099999
 30
0.0
 11
206.700000002
 21
189.50000000099999
 31
0.0
  0
LINE
  5
122
  8
0
  6
CONTINUOUS
 62
     3
 10
206.700000002
 20
189.50000000099999
 30
0.0
 11
208.700000002
 21
189.50000000099999
 31
0.0
  0
LINE
  5
123
  8
0
  6
CONTINUOUS
 62
     3
 10
208.700000002
 20
189.50000000099999
 30
0.0
 11
208.70000000300001
 21
195.50000000099999
 31
0.0
  0
LINE
  5
124
  8
0
  6
CONTINUOUS
 62
     3
 10
210.70000000300001
 20
195.50000000099999
 30
0.0
 11
210.700000002
 21
189.50000000099999
 31
0.0
  0
LINE
  5
125
  8
0
  6
CONTINUOUS
 62
     3
 10
210.700000002
 20
189.50000000099999
 30
0.0
 11
212.700000002
 21
189.50000000099999
 31
0.0
  0
LINE
  5
126
  8
0
  6
CONTINUOUS
 62
     3
 10
212.700000002
 20
189.50000000099999
 30
0.0
 11
212.70000000300001
 21
195.50000000099999
 31
0.0
  0
LINE
  5
127
  8
0
  6
CONTINUOUS
 62
     3
 10
214.70000000300001
 20
195.5
 30
0.0
 11
214.700000002
 21
189.5
 31
0.0
  0
LINE
  5
128
  8
0
  6
CONTINUOUS
 62
     3
 10
214.700000002
 20
189.5
 30
0.0
 11
216.700000002
 21
189.5
 31
0.0
  0
LINE
  5
129
  8
0
  6
CONTINUOUS
 62
     3
 10
216.700000002
 20
189.5
 30
0.0
 11
216.70000000300001
 21
195.5
 31
0.0
  0
LINE
  5
12A
  8
0
  6
CONTINUOUS
 62
     3
 10
218.70000000300001
 20
195.5
 30
0.0
 11
218.700000002
 21
189.5
 31
0.0
  0
LINE
  5
12B
  8
0
  6
CONTINUOUS
 62
     3
 10
218.700000002
 20
189.5
 30
0.0
 11
220.700000002
 21
189.5
 31
0.0
  0
LINE
  5
12C
  8
0
  6
CONTINUOUS
 62
     3
 10
220.700000002
 20
189.5
 30
0.0
 11
220.70000000300001
 21
195.5
 31
0.0
  0
LINE
  5
12D
  8
0
  6
CONTINUOUS
 62
     3
 10
222.70000000300001
 20
195.5
 30
0.0
 11
222.700000002
 21
189.5
 31
0.0
  0
LINE
  5
12E
  8
0
  6
CONTINUOUS
 62
     3
 10
222.700000002
 20
189.5
 30
0.0
 11
224.700000002
 21
189.5
 31
0.0
  0
LINE
  5
12F
  8
0
  6
CONTINUOUS
 62
     3
 10
224.700000002
 20
189.5
 30
0.0
 11
224.70000000300001
 21
195.5
 31
0.0
  0
LINE
  5
130
  8
0
  6
CONTINUOUS
 62
     3
 10
226.70000000300001
 20
195.5
 30
0.0
 11
226.700000002
 21
189.5
 31
0.0
  0
LINE
  5
131
  8
0
  6
CONTINUOUS
 62
     3
 10
226.700000002
 20
189.5
 30
0.0
 11
228.700000002
 21
189.49999999900001
 31
0.0
  0
LINE
  5
132
  8
0
  6
CONTINUOUS
 62
     3
 10
228.700000002
 20
189.49999999900001
 30
0.0
 11
228.70000000300001
 21
195.49999999900001
 31
0.0
  0
LINE
  5
133
  8
0
  6
CONTINUOUS
 62
     3
 10
230.70000000300001
 20
195.49999999900001
 30
0.0
 11
230.700000002
 21
189.49999999900001
 31
0.0
  0
LINE
  5
134
  8
0
  6
CONTINUOUS
 62
     3
 10
230.700000002
 20
189.49999999900001
 30
0.0
 11
232.700000002
 21
189.49999999900001
 31
0.0
  0
LINE
  5
135
  8
0
  6
CONTINUOUS
 62
     3
 10
232.700000002
 20
189.49999999900001
 30
0.0
 11
232.70000000300001
 21
195.49999999900001
 31
0.0
  0
LINE
  5
136
  8
0
  6
CONTINUOUS
 62
     3
 10
234.70000000300001
 20
195.49999999900001
 30
0.0
 11
234.700000002
 21
189.49999999900001
 31
0.0
  0
LINE
  5
137
  8
0
  6
CONTINUOUS
 62
     3
 10
234.700000002
 20
189.49999999900001
 30
0.0
 11
236.700000002
 21
189.49999999900001
 31
0.0
  0
LINE
  5
138
  8
0
  6
CONTINUOUS
 62
     3
 10
236.700000002
 20
189.49999999900001
 30
0.0
 11
236.70000000300001
 21
195.49999999900001
 31
0.0
  0
LINE
  5
139
  8
0
  6
CONTINUOUS
 62
     3
 10
179.999999997
 20
187.00000000200001
 30
0.0
 11
179.999999997
 21
191.00000000200001
 31
0.0
  0
LINE
  5
13A
  8
0
  6
CONTINUOUS
 62
     3
 10
179.99999999799999
 20
128.00000000200001
 30
0.0
 11
179.99999999799999
 21
132.00000000200001
 31
0.0
  0
LINE
  5
13B
  8
0
  6
CONTINUOUS
 62
     3
 10
259.20000000099998
 20
123.500000003
 30
0.0
 11
259.20000000099998
 21
129.500000003
 31
0.0
  0
LINE
  5
13C
  8
0
  6
CONTINUOUS
 62
     3
 10
259.20000000099998
 20
129.500000003
 30
0.0
 11
257.20000000099998
 21
129.500000003
 31
0.0
  0
LINE
  5
13D
  8
0
  6
CONTINUOUS
 62
     3
 10
257.20000000099998
 20
129.500000003
 30
0.0
 11
257.20000000099998
 21
123.500000003
 31
0.0
  0
LINE
  5
13E
  8
0
  6
CONTINUOUS
 62
     3
 10
252.900000001
 20
123.50000000199999
 30
0.0
 11
252.900000001
 21
129.50000000200001
 31
0.0
  0
LINE
  5
13F
  8
0
  6
CONTINUOUS
 62
     3
 10
252.900000001
 20
129.50000000200001
 30
0.0
 11
250.900000001
 21
129.50000000200001
 31
0.0
  0
LINE
  5
140
  8
0
  6
CONTINUOUS
 62
     3
 10
250.900000001
 20
129.50000000200001
 30
0.0
 11
250.900000001
 21
123.50000000199999
 31
0.0
  0
LINE
  5
141
  8
0
  6
CONTINUOUS
 62
     3
 10
240.70000000100001
 20
123.50000000199999
 30
0.0
 11
240.70000000100001
 21
129.50000000200001
 31
0.0
  0
LINE
  5
142
  8
0
  6
CONTINUOUS
 62
     3
 10
240.70000000100001
 20
129.50000000200001
 30
0.0
 11
238.70000000100001
 21
129.50000000200001
 31
0.0
  0
LINE
  5
143
  8
0
  6
CONTINUOUS
 62
     3
 10
238.70000000100001
 20
129.50000000200001
 30
0.0
 11
238.70000000100001
 21
123.50000000199999
 31
0.0
  0
LINE
  5
144
  8
0
  6
CONTINUOUS
 62
     3
 10
200.70000000100001
 20
123.500000001
 30
0.0
 11
200.70000000100001
 21
129.50000000099999
 31
0.0
  0
LINE
  5
145
  8
0
  6
CONTINUOUS
 62
     3
 10
200.70000000100001
 20
129.50000000099999
 30
0.0
 11
198.70000000100001
 21
129.50000000099999
 31
0.0
  0
LINE
  5
146
  8
0
  6
CONTINUOUS
 62
     3
 10
198.70000000100001
 20
129.50000000099999
 30
0.0
 11
198.70000000100001
 21
123.500000001
 31
0.0
  0
LINE
  5
147
  8
0
  6
CONTINUOUS
 62
     3
 10
202.70000000100001
 20
123.500000001
 30
0.0
 11
202.70000000100001
 21
129.50000000099999
 31
0.0
  0
LINE
  5
148
  8
0
  6
CONTINUOUS
 62
     3
 10
202.70000000100001
 20
129.50000000099999
 30
0.0
 11
204.70000000100001
 21
129.50000000099999
 31
0.0
  0
LINE
  5
149
  8
0
  6
CONTINUOUS
 62
     3
 10
204.70000000100001
 20
129.50000000099999
 30
0.0
 11
204.70000000100001
 21
123.500000001
 31
0.0
  0
LINE
  5
14A
  8
0
  6
CONTINUOUS
 62
     3
 10
206.70000000100001
 20
123.500000001
 30
0.0
 11
206.70000000100001
 21
129.50000000099999
 31
0.0
  0
LINE
  5
14B
  8
0
  6
CONTINUOUS
 62
     3
 10
206.70000000100001
 20
129.50000000099999
 30
0.0
 11
208.70000000100001
 21
129.50000000099999
 31
0.0
  0
LINE
  5
14C
  8
0
  6
CONTINUOUS
 62
     3
 10
208.70000000100001
 20
129.50000000099999
 30
0.0
 11
208.70000000100001
 21
123.500000001
 31
0.0
  0
LINE
  5
14D
  8
0
  6
CONTINUOUS
 62
     3
 10
210.70000000100001
 20
123.500000001
 30
0.0
 11
210.70000000100001
 21
129.50000000099999
 31
0.0
  0
LINE
  5
14E
  8
0
  6
CONTINUOUS
 62
     3
 10
210.70000000100001
 20
129.50000000099999
 30
0.0
 11
212.70000000100001
 21
129.50000000099999
 31
0.0
  0
LINE
  5
14F
  8
0
  6
CONTINUOUS
 62
     3
 10
212.70000000100001
 20
129.50000000099999
 30
0.0
 11
212.70000000100001
 21
123.500000001
 31
0.0
  0
LINE
  5
150
  8
0
  6
CONTINUOUS
 62
     3
 10
214.70000000100001
 20
123.500000001
 30
0.0
 11
214.70000000100001
 21
129.50000000099999
 31
0.0
  0
LINE
  5
151
  8
0
  6
CONTINUOUS
 62
     3
 10
214.70000000100001
 20
129.50000000099999
 30
0.0
 11
216.70000000100001
 21
129.50000000099999
 31
0.0
  0
LINE
  5
152
  8
0
  6
CONTINUOUS
 62
     3
 10
216.70000000100001
 20
129.50000000099999
 30
0.0
 11
216.70000000100001
 21
123.500000001
 31
0.0
  0
LINE
  5
153
  8
0
  6
CONTINUOUS
 62
     3
 10
218.70000000100001
 20
123.50000000199999
 30
0.0
 11
218.70000000100001
 21
129.50000000200001
 31
0.0
  0
LINE
  5
154
  8
0
  6
CONTINUOUS
 62
     3
 10
218.70000000100001
 20
129.50000000200001
 30
0.0
 11
220.70000000100001
 21
129.50000000200001
 31
0.0
  0
LINE
  5
155
  8
0
  6
CONTINUOUS
 62
     3
 10
220.70000000100001
 20
129.50000000200001
 30
0.0
 11
220.70000000100001
 21
123.50000000199999
 31
0.0
  0
LINE
  5
156
  8
0
  6
CONTINUOUS
 62
     3
 10
222.70000000100001
 20
123.50000000199999
 30
0.0
 11
222.70000000100001
 21
129.50000000200001
 31
0.0
  0
LINE
  5
157
  8
0
  6
CONTINUOUS
 62
     3
 10
222.70000000100001
 20
129.50000000200001
 30
0.0
 11
224.70000000100001
 21
129.50000000200001
 31
0.0
  0
LINE
  5
158
  8
0
  6
CONTINUOUS
 62
     3
 10
224.70000000100001
 20
129.50000000200001
 30
0.0
 11
224.70000000100001
 21
123.50000000199999
 31
0.0
  0
LINE
  5
159
  8
0
  6
CONTINUOUS
 62
     3
 10
226.70000000100001
 20
123.50000000199999
 30
0.0
 11
226.70000000100001
 21
129.50000000200001
 31
0.0
  0
LINE
  5
15A
  8
0
  6
CONTINUOUS
 62
     3
 10
226.70000000100001
 20
129.50000000200001
 30
0.0
 11
228.70000000100001
 21
129.50000000200001
 31
0.0
  0
LINE
  5
15B
  8
0
  6
CONTINUOUS
 62
     3
 10
228.70000000100001
 20
129.50000000200001
 30
0.0
 11
228.70000000100001
 21
123.50000000199999
 31
0.0
  0
LINE
  5
15C
  8
0
  6
CONTINUOUS
 62
     3
 10
230.70000000100001
 20
123.50000000199999
 30
0.0
 11
230.70000000100001
 21
129.50000000200001
 31
0.0
  0
LINE
  5
15D
  8
0
  6
CONTINUOUS
 62
     3
 10
230.70000000100001
 20
129.50000000200001
 30
0.0
 11
232.70000000100001
 21
129.50000000200001
 31
0.0
  0
LINE
  5
15E
  8
0
  6
CONTINUOUS
 62
     3
 10
232.70000000100001
 20
129.50000000200001
 30
0.0
 11
232.70000000100001
 21
123.50000000199999
 31
0.0
  0
LINE
  5
15F
  8
0
  6
CONTINUOUS
 62
     3
 10
234.70000000100001
 20
123.50000000199999
 30
0.0
 11
234.70000000100001
 21
129.50000000200001
 31
0.0
  0
LINE
  5
160
  8
0
  6
CONTINUOUS
 62
     3
 10
234.70000000100001
 20
129.50000000200001
 30
0.0
 11
236.70000000100001
 21
129.50000000200001
 31
0.0
  0
LINE
  5
161
  8
0
  6
CONTINUOUS
 62
     3
 10
236.70000000100001
 20
129.50000000200001
 30
0.0
 11
236.70000000100001
 21
123.50000000199999
 31
0.0
  0
LINE
  5
162
  8
0
  6
CONTINUOUS
 62
     3
 10
189.99999999900001
 20
123.50000000199999
 30
0.0
 11
189.99999999900001
 21
125.00000000199999
 31
0.0
  0
LINE
  5
163
  8
0
  6
CONTINUOUS
 62
     3
 10
189.99999999900001
 20
125.00000000199999
 30
0.0
 11
184.99999999900001
 21
125.00000000199999
 31
0.0
  0
LINE
  5
164
  8
0
  6
CONTINUOUS
 62
     3
 10
184.99999999900001
 20
123.50000000199999
 30
0.0
 11
184.99999999900001
 21
125.00000000199999
 31
0.0
  0
LINE
  5
165
  8
0
  6
CONTINUOUS
 62
     3
 10
190.00000000099999
 20
195.50000000200001
 30
0.0
 11
190.00000000099999
 21
194.100000002
 31
0.0
  0
LINE
  5
166
  8
0
  6
CONTINUOUS
 62
     3
 10
190.00000000099999
 20
194.100000002
 30
0.0
 11
185.00000000099999
 21
194.100000002
 31
0.0
  0
LINE
  5
167
  8
0
  6
CONTINUOUS
 62
     3
 10
185.00000000099999
 20
194.100000002
 30
0.0
 11
185.00000000099999
 21
195.50000000200001
 31
0.0
  0
CIRCLE
  5
168
  8
0
  6
CONTINUOUS
 62
     3
 10
179.99999999900001
 20
124.50000000199999
 30
0.0
 40
0.5
  0
CIRCLE
  5
169
  8
0
  6
CONTINUOUS
 62
     3
 10
180.00000000099999
 20
194.50000000200001
 30
0.0
 40
0.5
  0
LINE
  5
16A
  8
0
  6
CONTINUOUS
 62
     3
 10
181.0
 20
132.00000000200001
 30
0.0
 11
179.99999999799999
 21
132.00000000200001
 31
0.0
  0
LINE
  5
16B
  8
0
  6
CONTINUOUS
 62
     3
 10
181.0
 20
132.00000000200001
 30
0.0
 11
180.99999999900001
 21
128.00000000200001
 31
0.0
  0
LINE
  5
16C
  8
0
  6
CONTINUOUS
 62
     3
 10
179.99999999799999
 20
128.00000000200001
 30
0.0
 11
180.99999999900001
 21
128.00000000200001
 31
0.0
  0
LINE
  5
16D
  8
0
  6
CONTINUOUS
 62
     3
 10
179.999999997
 20
187.00000000200001
 30
0.0
 11
181.0000000009999
 21
187.00000000200001
 31
0.0
  0
LINE
  5
16E
  8
0
  6
CONTINUOUS
 62
     3
 10
181.0000000009999
 20
191.00000000200001
 30
0.0
 11
179.999999997
 21
191.00000000200001
 31
0.0
  0
LINE
  5
16F
  8
0
  6
CONTINUOUS
 62
     3
 10
181.0000000009999
 20
191.00000000200001
 30
0.0
 11
181.0000000009999
 21
187.00000000200001
 31
0.0
  0
LINE
  5
170
  8
0
  6
CONTINUOUS
 62
     3
 10
278.0
 20
196.500249999
 30
0.0
 11
277.0
 21
195.500249999
 31
0.0
  0
LINE
  5
171
  8
0
  6
CONTINUOUS
 62
     3
 10
278.0
 20
196.500249999
 30
0.0
 11
278.0
 21
198.500249999
 31
0.0
  0
LINE
  5
172
  8
0
  6
CONTINUOUS
 62
     3
 10
270.10000000000002
 20
195.50024999999999
 30
0.0
 11
270.10000000000002
 21
198.50024999999999
 31
0.0
  0
ARC
  5
173
  8
0
  6
CONTINUOUS
 62
     3
 10
214.0
 20
201.20025000000001
 30
0.0
 40
1.0
 50
0.0
 51
180.0
  0
ARC
  5
174
  8
0
  6
CONTINUOUS
 62
     3
 10
214.0
 20
197.70025000000001
 30
0.0
 40
1.0
 50
180.0
 51
0.0
  0
LINE
  5
175
  8
0
  6
CONTINUOUS
 62
     3
 10
213.0
 20
201.20025000000001
 30
0.0
 11
213.0
 21
197.70025000000001
 31
0.0
  0
LINE
  5
176
  8
0
  6
CONTINUOUS
 62
     3
 10
215.0
 20
197.70025000000001
 30
0.0
 11
215.0
 21
198.95025000000001
 31
0.0
  0
LINE
  5
177
  8
0
  6
CONTINUOUS
 62
     3
 10
215.0
 20
200.70025000000001
 30
0.0
 11
215.0
 21
201.20025000000001
 31
0.0
  0
LINE
  5
178
  8
0
  6
CONTINUOUS
 62
     3
 10
216.0
 20
200.70025000000001
 30
0.0
 11
216.0
 21
201.20025000000001
 31
0.0
  0
LINE
  5
179
  8
0
  6
CONTINUOUS
 62
     3
 10
216.0
 20
201.20025000000001
 30
0.0
 11
215.0
 21
200.70025000000001
 31
0.0
  0
LINE
  5
17A
  8
0
  6
CONTINUOUS
 62
     3
 10
217.0
 20
200.70025000000001
 30
0.0
 11
217.0
 21
201.20025000000001
 31
0.0
  0
LINE
  5
17B
  8
0
  6
CONTINUOUS
 62
     3
 10
217.0
 20
201.20025000000001
 30
0.0
 11
216.0
 21
200.70025000000001
 31
0.0
  0
LINE
  5
17C
  8
0
  6
CONTINUOUS
 62
     3
 10
217.0
 20
200.70025000000001
 30
0.0
 11
218.0
 21
201.20025000000001
 31
0.0
  0
LINE
  5
17D
  8
0
  6
CONTINUOUS
 62
     3
 10
218.0
 20
201.20025000000001
 30
0.0
 11
218.0
 21
200.70025000000001
 31
0.0
  0
LINE
  5
17E
  8
0
  6
CONTINUOUS
 62
     3
 10
218.0
 20
200.70025000000001
 30
0.0
 11
219.0
 21
201.20025000000001
 31
0.0
  0
LINE
  5
17F
  8
0
  6
CONTINUOUS
 62
     3
 10
219.0
 20
201.20025000000001
 30
0.0
 11
219.0
 21
200.70025000000001
 31
0.0
  0
LINE
  5
180
  8
0
  6
CONTINUOUS
 62
     3
 10
219.0
 20
200.70025000000001
 30
0.0
 11
220.0
 21
201.20025000000001
 31
0.0
  0
LINE
  5
181
  8
0
  6
CONTINUOUS
 62
     3
 10
220.0
 20
201.20025000000001
 30
0.0
 11
220.0
 21
200.70025000000001
 31
0.0
  0
LINE
  5
182
  8
0
  6
CONTINUOUS
 62
     3
 10
220.0
 20
200.70025000000001
 30
0.0
 11
221.0
 21
201.20025000000001
 31
0.0
  0
LINE
  5
183
  8
0
  6
CONTINUOUS
 62
     3
 10
221.0
 20
201.20025000000001
 30
0.0
 11
221.0
 21
200.70025000000001
 31
0.0
  0
LINE
  5
184
  8
0
  6
CONTINUOUS
 62
     3
 10
221.0
 20
200.70025000000001
 30
0.0
 11
222.0
 21
201.20025000000001
 31
0.0
  0
LINE
  5
185
  8
0
  6
CONTINUOUS
 62
     3
 10
222.0
 20
201.20025000000001
 30
0.0
 11
222.0
 21
200.70025000000001
 31
0.0
  0
LINE
  5
186
  8
0
  6
CONTINUOUS
 62
     3
 10
222.0
 20
200.70025000000001
 30
0.0
 11
223.0
 21
201.20025000000001
 31
0.0
  0
LINE
  5
187
  8
0
  6
CONTINUOUS
 62
     3
 10
223.0
 20
201.20025000000001
 30
0.0
 11
223.0
 21
200.70025000000001
 31
0.0
  0
LINE
  5
188
  8
0
  6
CONTINUOUS
 62
     3
 10
223.0
 20
200.70025000000001
 30
0.0
 11
224.0
 21
201.20025000000001
 31
0.0
  0
LINE
  5
189
  8
0
  6
CONTINUOUS
 62
     3
 10
224.0
 20
201.20025000000001
 30
0.0
 11
224.0
 21
200.70025000000001
 31
0.0
  0
LINE
  5
18A
  8
0
  6
CONTINUOUS
 62
     3
 10
224.0
 20
200.70025000000001
 30
0.0
 11
225.0
 21
201.20025000000001
 31
0.0
  0
LINE
  5
18B
  8
0
  6
CONTINUOUS
 62
     3
 10
225.0
 20
201.20025000000001
 30
0.0
 11
225.0
 21
200.70025000000001
 31
0.0
  0
LINE
  5
18C
  8
0
  6
CONTINUOUS
 62
     3
 10
225.0
 20
200.70025000000001
 30
0.0
 11
226.0
 21
201.20025000000001
 31
0.0
  0
LINE
  5
18D
  8
0
  6
CONTINUOUS
 62
     3
 10
226.0
 20
200.70025000000001
 30
0.0
 11
226.0
 21
201.20025000000001
 31
0.0
  0
LINE
  5
18E
  8
0
  6
CONTINUOUS
 62
     3
 10
226.0
 20
200.70025000000001
 30
0.0
 11
227.0
 21
201.20025000000001
 31
0.0
  0
LINE
  5
18F
  8
0
  6
CONTINUOUS
 62
     3
 10
227.0
 20
201.20025000000001
 30
0.0
 11
227.0
 21
200.70025000000001
 31
0.0
  0
LINE
  5
190
  8
0
  6
CONTINUOUS
 62
     3
 10
227.0
 20
200.70025000000001
 30
0.0
 11
228.0
 21
201.20025000000001
 31
0.0
  0
LINE
  5
191
  8
0
  6
CONTINUOUS
 62
     3
 10
228.0
 20
201.20025000000001
 30
0.0
 11
228.0
 21
200.70025000000001
 31
0.0
  0
LINE
  5
192
  8
0
  6
CONTINUOUS
 62
     3
 10
229.5
 20
195.80025000000001
 30
0.0
 11
229.5
 21
197.30025000000001
 31
0.0
  0
LINE
  5
193
  8
0
  6
CONTINUOUS
 62
     3
 10
231.5
 20
195.80025000000001
 30
0.0
 11
231.5
 21
197.05025000000001
 31
0.0
  0
ARC
  5
194
  8
0
  6
CONTINUOUS
 62
     3
 10
246.0
 20
196.50024999999999
 30
0.0
 40
4.2000000000000002
 50
28.393019421000002
 51
90.0
  0
LINE
  5
195
  8
0
  6
CONTINUOUS
 62
     3
 10
246.0
 20
200.70025000000001
 30
0.0
 11
215.0
 21
200.70025000000001
 31
0.0
  0
LINE
  5
196
  8
0
  6
CONTINUOUS
 62
     3
 10
277.99999999900001
 20
122.499749999
 30
0.0
 11
276.99999999900001
 21
123.499749999
 31
0.0
  0
LINE
  5
197
  8
0
  6
CONTINUOUS
 62
     3
 10
277.99999999900001
 20
122.499749999
 30
0.0
 11
277.99999999900001
 21
120.499749999
 31
0.0
  0
LINE
  5
198
  8
0
  6
CONTINUOUS
 62
     3
 10
270.09999999899998
 20
123.49975000000001
 30
0.0
 11
270.09999999899998
 21
120.49975000000001
 31
0.0
  0
ARC
  5
199
  8
0
  6
CONTINUOUS
 62
     3
 10
213.99999999900001
 20
117.79975
 30
0.0
 40
1.0
 50
180.0
 51
0.0
  0
ARC
  5
19A
  8
0
  6
CONTINUOUS
 62
     3
 10
213.99999999900001
 20
121.29975
 30
0.0
 40
1.0
 50
0.0
 51
180.0
  0
LINE
  5
19B
  8
0
  6
CONTINUOUS
 62
     3
 10
212.99999999900001
 20
117.79975
 30
0.0
 11
212.99999999900001
 21
121.29975
 31
0.0
  0
LINE
  5
19C
  8
0
  6
CONTINUOUS
 62
     3
 10
214.99999999900001
 20
121.29975
 30
0.0
 11
214.99999999900001
 21
120.04975
 31
0.0
  0
LINE
  5
19D
  8
0
  6
CONTINUOUS
 62
     3
 10
214.99999999900001
 20
118.29975
 30
0.0
 11
214.99999999900001
 21
117.79975
 31
0.0
  0
LINE
  5
19E
  8
0
  6
CONTINUOUS
 62
     3
 10
215.99999999900001
 20
118.29975
 30
0.0
 11
215.99999999900001
 21
117.79975
 31
0.0
  0
LINE
  5
19F
  8
0
  6
CONTINUOUS
 62
     3
 10
215.99999999900001
 20
117.79975
 30
0.0
 11
214.99999999900001
 21
118.29975
 31
0.0
  0
LINE
  5
1A0
  8
0
  6
CONTINUOUS
 62
     3
 10
216.99999999900001
 20
118.29975
 30
0.0
 11
216.99999999900001
 21
117.79975
 31
0.0
  0
LINE
  5
1A1
  8
0
  6
CONTINUOUS
 62
     3
 10
216.99999999900001
 20
117.79975
 30
0.0
 11
215.99999999900001
 21
118.29975
 31
0.0
  0
LINE
  5
1A2
  8
0
  6
CONTINUOUS
 62
     3
 10
216.99999999900001
 20
118.29975
 30
0.0
 11
217.99999999900001
 21
117.79975
 31
0.0
  0
LINE
  5
1A3
  8
0
  6
CONTINUOUS
 62
     3
 10
217.99999999900001
 20
117.79975
 30
0.0
 11
217.99999999900001
 21
118.29975
 31
0.0
  0
LINE
  5
1A4
  8
0
  6
CONTINUOUS
 62
     3
 10
217.99999999900001
 20
118.29975
 30
0.0
 11
218.99999999900001
 21
117.79975
 31
0.0
  0
LINE
  5
1A5
  8
0
  6
CONTINUOUS
 62
     3
 10
218.99999999900001
 20
117.79975
 30
0.0
 11
218.99999999900001
 21
118.29975
 31
0.0
  0
LINE
  5
1A6
  8
0
  6
CONTINUOUS
 62
     3
 10
218.99999999900001
 20
118.29975
 30
0.0
 11
219.99999999900001
 21
117.79975
 31
0.0
  0
LINE
  5
1A7
  8
0
  6
CONTINUOUS
 62
     3
 10
219.99999999900001
 20
117.79975
 30
0.0
 11
219.99999999900001
 21
118.29975
 31
0.0
  0
LINE
  5
1A8
  8
0
  6
CONTINUOUS
 62
     3
 10
219.99999999900001
 20
118.29975
 30
0.0
 11
220.99999999900001
 21
117.79975
 31
0.0
  0
LINE
  5
1A9
  8
0
  6
CONTINUOUS
 62
     3
 10
220.99999999900001
 20
117.79975
 30
0.0
 11
220.99999999900001
 21
118.29975
 31
0.0
  0
LINE
  5
1AA
  8
0
  6
CONTINUOUS
 62
     3
 10
220.99999999900001
 20
118.29975
 30
0.0
 11
221.99999999900001
 21
117.79975
 31
0.0
  0
LINE
  5
1AB
  8
0
  6
CONTINUOUS
 62
     3
 10
221.99999999900001
 20
117.79975
 30
0.0
 11
221.99999999900001
 21
118.29975
 31
0.0
  0
LINE
  5
1AC
  8
0
  6
CONTINUOUS
 62
     3
 10
221.99999999900001
 20
118.29975
 30
0.0
 11
222.99999999900001
 21
117.79975
 31
0.0
  0
LINE
  5
1AD
  8
0
  6
CONTINUOUS
 62
     3
 10
222.99999999900001
 20
117.79975
 30
0.0
 11
222.99999999900001
 21
118.29975
 31
0.0
  0
LINE
  5
1AE
  8
0
  6
CONTINUOUS
 62
     3
 10
222.99999999900001
 20
118.29975
 30
0.0
 11
223.99999999900001
 21
117.79975
 31
0.0
  0
LINE
  5
1AF
  8
0
  6
CONTINUOUS
 62
     3
 10
223.99999999900001
 20
117.79975
 30
0.0
 11
223.99999999900001
 21
118.29975
 31
0.0
  0
LINE
  5
1B0
  8
0
  6
CONTINUOUS
 62
     3
 10
223.99999999900001
 20
118.29975
 30
0.0
 11
224.99999999900001
 21
117.79975
 31
0.0
  0
LINE
  5
1B1
  8
0
  6
CONTINUOUS
 62
     3
 10
224.99999999900001
 20
117.79975
 30
0.0
 11
224.99999999900001
 21
118.29975
 31
0.0
  0
LINE
  5
1B2
  8
0
  6
CONTINUOUS
 62
     3
 10
224.99999999900001
 20
118.29975
 30
0.0
 11
225.99999999900001
 21
117.79975
 31
0.0
  0
LINE
  5
1B3
  8
0
  6
CONTINUOUS
 62
     3
 10
225.99999999900001
 20
118.29975
 30
0.0
 11
225.99999999900001
 21
117.79975
 31
0.0
  0
LINE
  5
1B4
  8
0
  6
CONTINUOUS
 62
     3
 10
225.99999999900001
 20
118.29975
 30
0.0
 11
226.99999999900001
 21
117.79975
 31
0.0
  0
LINE
  5
1B5
  8
0
  6
CONTINUOUS
 62
     3
 10
226.99999999900001
 20
117.79975
 30
0.0
 11
226.99999999900001
 21
118.29975
 31
0.0
  0
LINE
  5
1B6
  8
0
  6
CONTINUOUS
 62
     3
 10
226.99999999900001
 20
118.29975
 30
0.0
 11
227.99999999900001
 21
117.79975
 31
0.0
  0
LINE
  5
1B7
  8
0
  6
CONTINUOUS
 62
     3
 10
227.99999999900001
 20
117.79975
 30
0.0
 11
227.99999999900001
 21
118.29975
 31
0.0
  0
LINE
  5
1B8
  8
0
  6
CONTINUOUS
 62
     3
 10
229.49999999900001
 20
123.19974999999999
 30
0.0
 11
229.49999999900001
 21
121.69974999999999
 31
0.0
  0
LINE
  5
1B9
  8
0
  6
CONTINUOUS
 62
     3
 10
231.49999999900001
 20
123.19974999999999
 30
0.0
 11
231.49999999900001
 21
121.94974999999999
 31
0.0
  0
LINE
  5
1BA
  8
0
  6
CONTINUOUS
 62
     3
 10
230.49999999900001
 20
124.19974999999999
 30
0.0
 11
230.49999999900001
 21
124.19974999999999
 31
0.0
  0
ARC
  5
1BB
  8
0
  6
CONTINUOUS
 62
     3
 10
245.99999999900001
 20
122.49975000000001
 30
0.0
 40
4.2000000000000002
 50
270.0
 51
331.60698057900009
  0
LINE
  5
1BC
  8
0
  6
CONTINUOUS
 62
     3
 10
245.99999999900001
 20
118.29975
 30
0.0
 11
214.99999999900001
 21
118.29975
 31
0.0
  0
LINE
  5
1BD
  8
0
  6
CONTINUOUS
 62
     3
 10
268.74999999900001
 20
123.49975000000001
 30
0.0
 11
276.99999999900001
 21
123.499749999
 31
0.0
  0
ARC
  5
1BE
  8
0
  6
CONTINUOUS
 62
     3
 10
230.49999999900001
 20
123.19974999999999
 30
0.0
 40
1.0
 50
163.28761543600001
 51
179.99999999900001
  0
ARC
  5
1BF
  8
0
  6
CONTINUOUS
 62
     3
 10
230.49999999900001
 20
123.19974999999999
 30
0.0
 40
1.0
 50
0.0
 51
16.712384564000001
  0
ARC
  5
1C0
  8
0
  6
CONTINUOUS
 62
     3
 10
230.5
 20
195.80025000000001
 30
0.0
 40
1.0
 50
343.28761543600001
 51
0.0
  0
ARC
  5
1C1
  8
0
  6
CONTINUOUS
 62
     3
 10
230.5
 20
195.80025000000001
 30
0.0
 40
1.0
 50
180.00000000099999
 51
196.71238456399999
  0
LINE
  5
1C2
  8
0
  6
CONTINUOUS
 62
     3
 10
242.74999999900001
 20
123.23959375
 30
0.0
 11
212.99999999900001
 21
119.79975
 31
0.0
  0
LINE
  5
1C3
  8
0
  6
CONTINUOUS
 62
     3
 10
242.75
 20
195.76040624999999
 30
0.0
 11
213.0
 21
199.20025000000001
 31
0.0
  0
LINE
  5
1C4
  8
0
  6
CONTINUOUS
 62
     3
 10
254.0
 20
198.50024999999999
 30
0.0
 11
249.69999999999999
 21
198.50024999999999
 31
0.0
  0
LINE
  5
1C5
  8
0
  6
CONTINUOUS
 62
     3
 10
260.25
 20
198.50024999999999
 30
0.0
 11
256.0
 21
198.50024999999999
 31
0.0
  0
LINE
  5
1C6
  8
0
  6
CONTINUOUS
 62
     3
 10
267.0
 20
198.50024999999999
 30
0.0
 11
262.0
 21
198.50024999999999
 31
0.0
  0
LINE
  5
1C7
  8
0
  6
CONTINUOUS
 62
     3
 10
278.0
 20
198.500249999
 30
0.0
 11
268.60000000000002
 21
198.50024999999999
 31
0.0
  0
LINE
  5
1C8
  8
0
  6
CONTINUOUS
 62
     3
 10
277.99999999900001
 20
120.499749999
 30
0.0
 11
268.699999999
 21
120.49975000000001
 31
0.0
  0
LINE
  5
1C9
  8
0
  6
CONTINUOUS
 62
     3
 10
266.99999999900001
 20
120.49975000000001
 30
0.0
 11
261.99999999900001
 21
120.49975000000001
 31
0.0
  0
LINE
  5
1CA
  8
0
  6
CONTINUOUS
 62
     3
 10
253.99999999900001
 20
120.49975000000001
 30
0.0
 11
249.699999999
 21
120.49975000000001
 31
0.0
  0
LINE
  5
1CB
  8
0
  6
CONTINUOUS
 62
     3
 10
260.24999999900001
 20
120.49975000000001
 30
0.0
 11
255.99999999900001
 21
120.49975000000001
 31
0.0
  0
LINE
  5
1CC
  8
0
  6
CONTINUOUS
 62
     3
 10
278.0
 20
170.99999999900001
 30
0.0
 11
287.0
 21
170.99999999900001
 31
0.0
  0
LINE
  5
1CD
  8
0
  6
CONTINUOUS
 62
     3
 10
287.0
 20
170.99999999900001
 30
0.0
 11
287.0
 21
147.9999999989999
 31
0.0
  0
LINE
  5
1CE
  8
0
  6
CONTINUOUS
 62
     3
 10
287.0
 20
147.9999999989999
 30
0.0
 11
278.0
 21
147.9999999989999
 31
0.0
  0
LINE
  5
1CF
  8
0
  6
CONTINUOUS
 62
     3
 10
287.0
 20
163.4999999989999
 30
0.0
 11
297.0
 21
163.4999999989999
 31
0.0
  0
LINE
  5
1D0
  8
0
  6
CONTINUOUS
 62
     3
 10
297.0
 20
163.4999999989999
 30
0.0
 11
297.0
 21
155.49999999900001
 31
0.0
  0
LINE
  5
1D1
  8
0
  6
CONTINUOUS
 62
     3
 10
297.0
 20
155.49999999900001
 30
0.0
 11
287.0
 21
155.49999999900001
 31
0.0
  0
LINE
  5
1D2
  8
0
  6
CONTINUOUS
 62
     3
 10
287.0
 20
160.99999999900001
 30
0.0
 11
286.0
 21
160.99999999900001
 31
0.0
  0
LINE
  5
1D3
  8
0
  6
CONTINUOUS
 62
     3
 10
286.0
 20
160.99999999900001
 30
0.0
 11
286.0
 21
160.4999999989999
 31
0.0
  0
ARC
  5
1D4
  8
0
  6
CONTINUOUS
 62
     3
 10
282.375
 20
159.62499999900001
 30
0.0
 40
0.395284708
 50
108.434948823
 51
198.43494882199991
  0
LINE
  5
1D5
  8
0
  6
CONTINUOUS
 62
     3
 10
282.25
 20
160.03124999900001
 30
0.0
 11
286.0
 21
160.4999999989999
 31
0.0
  0
LINE
  5
1D6
  8
0
  6
CONTINUOUS
 62
     3
 10
287.0
 20
157.99999999900001
 30
0.0
 11
286.0
 21
157.99999999900001
 31
0.0
  0
LINE
  5
1D7
  8
0
  6
CONTINUOUS
 62
     3
 10
286.0
 20
157.99999999900001
 30
0.0
 11
286.0
 21
158.49999999900001
 31
0.0
  0
ARC
  5
1D8
  8
0
  6
CONTINUOUS
 62
     3
 10
282.375
 20
159.3749999989999
 30
0.0
 40
0.395284708
 50
161.565051178
 51
251.56505117699999
  0
LINE
  5
1D9
  8
0
  6
CONTINUOUS
 62
     3
 10
282.25
 20
158.96874999900001
 30
0.0
 11
286.0
 21
158.49999999900001
 31
0.0
  0
ARC
  5
1DA
  8
0
  6
CONTINUOUS
 62
     3
 10
287.0
 20
164.49999999900001
 30
0.0
 40
1.0
 50
90.0
 51
180.0
  0
LINE
  5
1DB
  8
0
  6
CONTINUOUS
 62
     3
 10
286.0
 20
164.49999999900001
 30
0.0
 11
286.0
 21
162.4999999989999
 31
0.0
  0
ARC
  5
1DC
  8
0
  6
CONTINUOUS
 62
     3
 10
287.0
 20
162.4999999989999
 30
0.0
 40
1.0
 50
180.0
 51
270.0
  0
ARC
  5
1DD
  8
0
  6
CONTINUOUS
 62
     3
 10
287.0
 20
156.49999999900001
 30
0.0
 40
1.0
 50
90.0
 51
180.0
  0
LINE
  5
1DE
  8
0
  6
CONTINUOUS
 62
     3
 10
286.0
 20
156.49999999900001
 30
0.0
 11
286.0
 21
154.49999999900001
 31
0.0
  0
ARC
  5
1DF
  8
0
  6
CONTINUOUS
 62
     3
 10
287.0
 20
154.49999999900001
 30
0.0
 40
1.0
 50
180.0
 51
270.0
  0
LINE
  5
1E0
  8
0
  6
CONTINUOUS
 62
     3
 10
287.99999999900001
 20
117.499999999
 30
0.0
 11
287.99999999900001
 21
113.499999999
 31
0.0
  0
LINE
  5
1E1
  8
0
  6
CONTINUOUS
 62
     3
 10
288.99999999900001
 20
113.499999999
 30
0.0
 11
288.99999999900001
 21
117.499999999
 31
0.0
  0
LINE
  5
1E2
  8
0
  6
CONTINUOUS
 62
     3
 10
287.99999999900001
 20
117.499999999
 30
0.0
 11
307.99999999900001
 21
117.499999999
 31
0.0
  0
LINE
  5
1E3
  8
0
  6
CONTINUOUS
 62
     3
 10
307.99999999900001
 20
113.499999999
 30
0.0
 11
287.99999999900001
 21
113.499999999
 31
0.0
  0
LINE
  5
1E4
  8
0
  6
CONTINUOUS
 62
     3
 10
288.0
 20
195.49999999900001
 30
0.0
 11
288.0
 21
199.49999999900001
 31
0.0
  0
LINE
  5
1E5
  8
0
  6
CONTINUOUS
 62
     3
 10
288.0
 20
199.49999999900001
 30
0.0
 11
308.0
 21
199.49999999900001
 31
0.0
  0
LINE
  5
1E6
  8
0
  6
CONTINUOUS
 62
     3
 10
289.0
 20
199.49999999900001
 30
0.0
 11
289.0
 21
195.49999999900001
 31
0.0
  0
LINE
  5
1E7
  8
0
  6
CONTINUOUS
 62
     3
 10
288.0
 20
195.49999999900001
 30
0.0
 11
308.0
 21
195.49999999900001
 31
0.0
  0
LINE
  5
1E8
  8
0
  6
CONTINUOUS
 62
     3
 10
304.0
 20
141.99999999900001
 30
0.0
 11
304.0
 21
137.99999999900001
 31
0.0
  0
LINE
  5
1E9
  8
0
  6
CONTINUOUS
 62
     3
 10
304.0
 20
137.99999999900001
 30
0.0
 11
308.0
 21
137.99999999900001
 31
0.0
  0
LINE
  5
1EA
  8
0
  6
CONTINUOUS
 62
     3
 10
308.0
 20
180.99999999900001
 30
0.0
 11
304.0
 21
180.99999999900001
 31
0.0
  0
LINE
  5
1EB
  8
0
  6
CONTINUOUS
 62
     3
 10
304.0
 20
180.99999999900001
 30
0.0
 11
304.0
 21
176.99999999900001
 31
0.0
  0
LINE
  5
1EC
  8
0
  6
CONTINUOUS
 62
     3
 10
307.99999999900001
 20
108.499999999
 30
0.0
 11
307.99999999900001
 21
112.499999999
 31
0.0
  0
LINE
  5
1ED
  8
0
  6
CONTINUOUS
 62
     3
 10
303.99999999900001
 20
108.499999999
 30
0.0
 11
303.99999999900001
 21
112.499999999
 31
0.0
  0
LINE
  5
1EE
  8
0
  6
CONTINUOUS
 62
     3
 10
303.99999999900001
 20
108.499999999
 30
0.0
 11
307.99999999900001
 21
108.499999999
 31
0.0
  0
ARC
  5
1F0
  8
0
  6
CONTINUOUS
 62
     3
 10
206.5
 20
178.5
 30
0.0
 40
1.0
 50
90.0
 51
180.0
  0
LINE
  5
1F1
  8
6
  6
CONTINUOUS
 62
     3
 10
205.5
 20
140.5
 30
0.0
 11
205.5
 21
178.5
 31
0.0
  0
ARC
  5
1F2
  8
0
  6
CONTINUOUS
 62
     3
 10
206.5
 20
140.5
 30
0.0
 40
1.0
 50
180.0
 51
270.0
  0
LINE
  5
1F3
  8
6
  6
CONTINUOUS
 62
     3
 10
206.5
 20
139.5
 30
0.0
 11
247.5
 21
139.5
 31
0.0
  0
ARC
  5
1F4
  8
0
  6
CONTINUOUS
 62
     3
 10
247.5
 20
140.5
 30
0.0
 40
1.0
 50
270.0
 51
0.0
  0
LINE
  5
1F5
  8
6
  6
CONTINUOUS
 62
     3
 10
206.5
 20
179.5
 30
0.0
 11
247.5
 21
179.5
 31
0.0
  0
LINE
  5
1F6
  8
6
  6
CONTINUOUS
 62
     3
 10
248.5
 20
178.5
 30
0.0
 11
248.5
 21
140.5
 31
0.0
  0
ARC
  5
1F7
  8
0
  6
CONTINUOUS
 62
     3
 10
247.5
 20
178.5
 30
0.0
 40
1.0
 50
0.0
 51
90.0
  0
LINE
  5
1F8
  8
0
  6
CONTINUOUS
 62
     5
 10
308.00000000099999
 20
207.49999999900001
 30
0.0
 11
308.00000000099999
 21
226.49999999900001
 31
0.0
  0
LINE
  5
1F9
  8
0
  6
CONTINUOUS
 62
     5
 10
278.00000000099999
 20
226.49999999900001
 30
0.0
 11
278.00000000099999
 21
199.49999999900001
 31
0.0
  0
LINE
  5
1FA
  8
0
  6
CONTINUOUS
 62
     5
 10
287.00000000099999
 20
207.49999999900001
 30
0.0
 11
287.00000000099999
 21
216.49999999900001
 31
0.0
  0
LINE
  5
1FB
  8
0
  6
CONTINUOUS
 62
     5
 10
178.00000000099999
 20
226.49999999900001
 30
0.0
 11
178.00000000099999
 21
196.99999999900001
 31
0.0
  0
LINE
  5
1FC
  8
0
  6
CONTINUOUS
 62
     5
 10
178.00000000099999
 20
225.49999999900001
 30
0.0
 11
180.41481456599999
 21
224.852952386
 31
0.0
  0
LINE
  5
1FD
  8
0
  6
CONTINUOUS
 62
     5
 10
178.00000000099999
 20
225.49999999900001
 30
0.0
 11
180.41481456599999
 21
226.14704761199999
 31
0.0
  0
LINE
  5
1FE
  8
0
  6
CONTINUOUS
 62
     5
 10
178.00000000099999
 20
225.49999999900001
 30
0.0
 11
278.00000000099999
 21
225.49999999900001
 31
0.0
  0
LINE
  5
1FF
  8
0
  6
CONTINUOUS
 62
     5
 10
278.00000000099999
 20
225.49999999900001
 30
0.0
 11
275.58518543500003
 21
226.14704761199999
 31
0.0
  0
LINE
  5
200
  8
0
  6
CONTINUOUS
 62
     5
 10
278.00000000099999
 20
225.49999999900001
 30
0.0
 11
275.58518543500003
 21
224.852952386
 31
0.0
  0
TEXT
  5
201
  8
0
  6
CONTINUOUS
 62
     3
 10
225.00000000099999
 20
226.49999999900001
 30
0.3
 40
3.0
  1
１００
 41
0.6
  7
KANJI0
  0
LINE
  5
202
  8
0
  6
CONTINUOUS
 62
     5
 10
278.00000000099999
 20
225.49999999900001
 30
0.3
 11
280.41481456600002
 21
224.852952386
 31
0.3
  0
LINE
  5
203
  8
0
  6
CONTINUOUS
 62
     5
 10
278.00000000099999
 20
225.49999999900001
 30
0.0
 11
280.41481456600002
 21
226.14704761199999
 31
0.0
  0
LINE
  5
204
  8
0
  6
CONTINUOUS
 62
     5
 10
278.00000000099999
 20
225.49999999900001
 30
0.0
 11
308.00000000099999
 21
225.49999999900001
 31
0.0
  0
LINE
  5
205
  8
0
  6
CONTINUOUS
 62
     5
 10
308.00000000099999
 20
225.49999999900001
 30
0.0
 11
305.58518543500003
 21
226.14704761199999
 31
0.0
  0
LINE
  5
206
  8
0
  6
CONTINUOUS
 62
     5
 10
308.00000000099999
 20
225.49999999900001
 30
0.0
 11
305.58518543500003
 21
224.852952386
 31
0.0
  0
TEXT
  5
207
  8
0
  6
CONTINUOUS
 62
     3
 10
291.050000001
 20
226.49999999900001
 30
0.3
 40
3.0
  1
３０
 41
0.6
  7
KANJI0
  0
LINE
  5
208
  8
0
  6
CONTINUOUS
 62
     5
 10
287.00000000099999
 20
215.49999999900001
 30
0.3
 11
289.41481456600002
 21
214.85295238699999
 31
0.3
  0
LINE
  5
209
  8
0
  6
CONTINUOUS
 62
     5
 10
287.00000000099999
 20
215.49999999900001
 30
0.0
 11
289.41481456600002
 21
216.14704761199999
 31
0.0
  0
LINE
  5
20A
  8
0
  6
CONTINUOUS
 62
     5
 10
287.00000000099999
 20
215.49999999900001
 30
0.0
 11
308.00000000099999
 21
215.49999999900001
 31
0.0
  0
LINE
  5
20B
  8
0
  6
CONTINUOUS
 62
     5
 10
308.00000000099999
 20
215.49999999900001
 30
0.0
 11
305.58518543500003
 21
216.14704761199999
 31
0.0
  0
LINE
  5
20C
  8
0
  6
CONTINUOUS
 62
     5
 10
308.00000000099999
 20
215.49999999900001
 30
0.0
 11
305.58518543500003
 21
214.85295238699999
 31
0.0
  0
TEXT
  5
20D
  8
0
  6
CONTINUOUS
 62
     3
 10
295.550000001
 20
216.49999999900001
 30
0.3
 40
3.0
  1
２１
 41
0.6
  7
KANJI0
  0
LINE
  5
20E
  8
0
  6
LTYPE1
 62
     5
 10
115.0
 20
159.50000000099999
 30
0.3
 11
318.0
 21
159.50000000099999
 31
0.3
  0
LINE
  5
20F
  8
0
  6
CONTINUOUS
 62
     1
 10
177.999999997
 20
194.50000000200001
 30
0.0
 11
177.99999999799999
 21
124.50000000199999
 31
0.0
  0
ARC
  5
210
  8
0
  6
CONTINUOUS
 62
     1
 10
179.999999997
 20
194.50000000200001
 30
0.0
 40
2.0
 50
30.465544867999999
 51
180.0
  0
LINE
  5
211
  8
0
  6
CONTINUOUS
 62
     1
 10
242.69999999699999
 20
195.50000000200001
 30
0.0
 11
181.70000000099989
 21
195.50000000200001
 31
0.0
  0
LINE
  5
212
  8
0
  6
CONTINUOUS
 62
     1
 10
242.70000000100001
 20
195.5
 30
0.0
 11
249.70000000100001
 21
195.5
 31
0.0
  0
LINE
  5
213
  8
0
  6
CONTINUOUS
 62
     1
 10
245.0
 20
195.50024999999999
 30
0.0
 11
254.0
 21
195.50024999999999
 31
0.0
  0
POLYLINE
  5
214
  8
0
  6
CONTINUOUS
 62
     1
 66
     1
 10
0.0
 20
0.0
 30
0.0
  0
VERTEX
  5
611
  8
0
  6
CONTINUOUS
 62
     1
 10
253.999999997
 20
195.500000003
 30
0.0
  0
VERTEX
  5
612
  8
0
  6
CONTINUOUS
 62
     1
 10
253.999999997
 20
199.000000003
 30
0.0
  0
VERTEX
  5
613
  8
0
  6
CONTINUOUS
 62
     1
 10
255.999999997
 20
199.000000003
 30
0.0
  0
VERTEX
  5
614
  8
0
  6
CONTINUOUS
 62
     1
 10
255.999999997
 20
195.500000003
 30
0.0
  0
SEQEND
  5
615
  8
0
  6
CONTINUOUS
 62
     1
  0
LINE
  5
21A
  8
0
  6
CONTINUOUS
 62
     1
 10
261.99999999699997
 20
195.500000003
 30
0.0
 11
261.99999999699997
 21
199.000000003
 31
0.0
  0
LINE
  5
21B
  8
0
  6
CONTINUOUS
 62
     1
 10
266.99999999699997
 20
199.000000003
 30
0.0
 11
266.99999999699997
 21
195.500000003
 31
0.0
  0
LINE
  5
21C
  8
0
  6
CONTINUOUS
 62
     1
 10
261.04999999699999
 20
199.000000003
 30
0.0
 11
261.99999999699997
 21
199.000000003
 31
0.0
  0
ARC
  5
21D
  8
0
  6
CONTINUOUS
 62
     1
 10
261.04999999699999
 20
198.20000000300001
 30
0.0
 40
0.8
 50
90.0
 51
179.99999999900001
  0
LINE
  5
21E
  8
0
  6
CONTINUOUS
 62
     1
 10
267.94999999700002
 20
199.000000003
 30
0.0
 11
266.99999999699997
 21
199.000000003
 31
0.0
  0
ARC
  5
21F
  8
0
  6
CONTINUOUS
 62
     1
 10
267.94999999700002
 20
198.20000000300001
 30
0.0
 40
0.8
 50
0.0
 51
90.0
  0
LINE
  5
220
  8
0
  6
CONTINUOUS
 62
     1
 10
260.24999999699997
 20
195.500000003
 30
0.0
 11
255.999999997
 21
195.500000003
 31
0.0
  0
LINE
  5
221
  8
0
  6
CONTINUOUS
 62
     1
 10
256.0
 20
195.50024999999999
 30
0.0
 11
260.25
 21
195.50024999999999
 31
0.0
  0
LINE
  5
222
  8
0
  6
CONTINUOUS
 62
     1
 10
260.24999999699997
 20
198.20000000300001
 30
0.0
 11
260.24999999699997
 21
195.500000003
 31
0.0
  0
LINE
  5
223
  8
0
  6
CONTINUOUS
 62
     1
 10
266.99999999699997
 20
195.500000003
 30
0.0
 11
261.99999999699997
 21
195.500000003
 31
0.0
  0
LINE
  5
224
  8
0
  6
CONTINUOUS
 62
     1
 10
266.99999999699997
 20
195.500000003
 30
0.0
 11
261.99999999699997
 21
195.500000003
 31
0.0
  0
LINE
  5
225
  8
0
  6
CONTINUOUS
 62
     1
 10
262.0
 20
195.50024999999999
 30
0.0
 11
267.0
 21
195.50024999999999
 31
0.0
  0
LINE
  5
226
  8
0
  6
CONTINUOUS
 62
     1
 10
268.74999999699997
 20
195.500000003
 30
0.0
 11
268.74999999699997
 21
198.20000000300001
 31
0.0
  0
LINE
  5
227
  8
0
  6
CONTINUOUS
 62
     1
 10
277.49999999699997
 20
195.500000003
 30
0.0
 11
268.74999999699997
 21
195.500000003
 31
0.0
  0
LINE
  5
228
  8
0
  6
CONTINUOUS
 62
     1
 10
268.75
 20
195.50024999999999
 30
0.0
 11
277.0
 21
195.500249999
 31
0.0
  0
ARC
  5
229
  8
0
  6
CONTINUOUS
 62
     1
 10
277.49999999699997
 20
195.000000003
 30
0.0
 40
0.5
 50
0.0
 51
90.0
  0
LINE
  5
22A
  8
0
  6
CONTINUOUS
 62
     1
 10
278.0
 20
195.49999999900001
 30
0.0
 11
278.0
 21
194.99999999900001
 31
0.0
  0
LINE
  5
22B
  8
0
  6
CONTINUOUS
 62
     1
 10
287.00000000099999
 20
206.49999999900001
 30
0.0
 11
287.0
 21
195.49999999900001
 31
0.0
  0
LINE
  5
22C
  8
0
  6
CONTINUOUS
 62
     1
 10
278.0
 20
195.49999999900001
 30
0.0
 11
287.0
 21
195.49999999900001
 31
0.0
  0
LINE
  5
22D
  8
0
  6
CONTINUOUS
 62
     1
 10
308.00000000099999
 20
206.49999999900001
 30
0.0
 11
287.00000000099999
 21
206.49999999900001
 31
0.0
  0
LINE
  5
22E
  8
0
  6
CONTINUOUS
 62
     1
 10
308.00000000099999
 20
206.49999999900001
 30
0.0
 11
308.0
 21
176.99999999900001
 31
0.0
  0
POLYLINE
  5
22F
  8
0
  6
CONTINUOUS
 62
     1
 66
     1
 10
0.0
 20
0.0
 30
0.0
  0
VERTEX
  5
616
  8
0
  6
CONTINUOUS
 62
     1
 10
308.0
 20
176.99999999900001
 30
0.0
  0
VERTEX
  5
617
  8
0
  6
CONTINUOUS
 62
     1
 10
307.0
 20
174.99999999900001
 30
0.0
  0
VERTEX
  5
618
  8
0
  6
CONTINUOUS
 62
     1
 10
306.0
 20
174.99999999900001
 30
0.0
  0
VERTEX
  5
619
  8
0
  6
CONTINUOUS
 62
     1
 10
306.0
 20
176.99999999900001
 30
0.0
  0
SEQEND
  5
61A
  8
0
  6
CONTINUOUS
 62
     1
  0
LINE
  5
235
  8
0
  6
CONTINUOUS
 62
     1
 10
308.0
 20
176.99999999900001
 30
0.0
 11
304.0
 21
176.99999999900001
 31
0.0
  0
POLYLINE
  5
236
  8
0
  6
CONTINUOUS
 62
     1
 66
     1
 10
0.0
 20
0.0
 30
0.0
  0
VERTEX
  5
61B
  8
0
  6
CONTINUOUS
 62
     1
 10
304.0
 20
164.49999999900001
 30
0.0
  0
VERTEX
  5
61C
  8
0
  6
CONTINUOUS
 62
     1
 10
308.0
 20
164.99999999900001
 30
0.0
  0
VERTEX
  5
61D
  8
0
  6
CONTINUOUS
 62
     1
 10
308.0
 20
168.99999999900001
 30
0.0
  0
VERTEX
  5
61E
  8
0
  6
CONTINUOUS
 62
     1
 10
304.0
 20
169.49999999900001
 30
0.0
  0
SEQEND
  5
61F
  8
0
  6
CONTINUOUS
 62
     1
  0
POLYLINE
  5
23C
  8
0
  6
CONTINUOUS
 62
     1
 66
     1
 10
0.0
 20
0.0
 30
0.0
  0
VERTEX
  5
620
  8
0
  6
CONTINUOUS
 62
     1
 10
304.0
 20
149.49999999900001
 30
0.0
  0
VERTEX
  5
621
  8
0
  6
CONTINUOUS
 62
     1
 10
308.0
 20
149.9999999989999
 30
0.0
  0
VERTEX
  5
622
  8
0
  6
CONTINUOUS
 62
     1
 10
308.0
 20
153.99999999900001
 30
0.0
  0
VERTEX
  5
623
  8
0
  6
CONTINUOUS
 62
     1
 10
304.0
 20
154.49999999900001
 30
0.0
  0
SEQEND
  5
624
  8
0
  6
CONTINUOUS
 62
     1
  0
POLYLINE
  5
242
  8
0
  6
CONTINUOUS
 62
     1
 66
     1
 10
0.0
 20
0.0
 30
0.0
  0
VERTEX
  5
625
  8
0
  6
CONTINUOUS
 62
     1
 10
307.0
 20
143.99999999900001
 30
0.0
  0
VERTEX
  5
626
  8
0
  6
CONTINUOUS
 62
     1
 10
306.0
 20
143.99999999900001
 30
0.0
  0
VERTEX
  5
627
  8
0
  6
CONTINUOUS
 62
     1
 10
306.0
 20
141.99999999900001
 30
0.0
  0
SEQEND
  5
628
  8
0
  6
CONTINUOUS
 62
     1
  0
LINE
  5
247
  8
0
  6
CONTINUOUS
 62
     1
 10
304.0
 20
176.99999999900001
 30
0.0
 11
304.0
 21
141.99999999900001
 31
0.0
  0
POLYLINE
  5
248
  8
0
  6
CONTINUOUS
 62
     1
 66
     1
 10
0.0
 20
0.0
 30
0.0
  0
VERTEX
  5
629
  8
0
  6
CONTINUOUS
 62
     1
 10
304.0
 20
141.99999999900001
 30
0.0
  0
VERTEX
  5
62A
  8
0
  6
CONTINUOUS
 62
     1
 10
308.0
 20
141.99999999900001
 30
0.0
  0
VERTEX
  5
62B
  8
0
  6
CONTINUOUS
 62
     1
 10
307.99999999900001
 20
112.499999999
 30
0.0
  0
SEQEND
  5
62C
  8
0
  6
CONTINUOUS
 62
     1
  0
LINE
  5
24D
  8
0
  6
CONTINUOUS
 62
     1
 10
308.0
 20
141.99999999900001
 30
0.0
 11
307.0
 21
143.99999999900001
 31
0.0
  0
LINE
  5
24E
  8
0
  6
CONTINUOUS
 62
     1
 10
307.99999999900001
 20
112.499999999
 30
0.0
 11
286.99999999900001
 21
112.499999999
 31
0.0
  0
LINE
  5
24F
  8
0
  6
CONTINUOUS
 62
     1
 10
286.99999999900001
 20
112.499999999
 30
0.0
 11
286.99999999900001
 21
123.499999999
 31
0.0
  0
ARC
  5
250
  8
0
  6
CONTINUOUS
 62
     1
 10
277.49999999800002
 20
124.000000003
 30
0.0
 40
0.5
 50
270.0
 51
0.0
  0
LINE
  5
251
  8
0
  6
CONTINUOUS
 62
     1
 10
268.749999995
 20
123.500000003
 30
0.0
 11
277.49999999800002
 21
123.500000003
 31
0.0
  0
LINE
  5
252
  8
0
  6
CONTINUOUS
 62
     1
 10
277.99999999900001
 20
123.499999999
 30
0.0
 11
277.99999999900001
 21
123.999999999
 31
0.0
  0
LINE
  5
253
  8
0
  6
CONTINUOUS
 62
     1
 10
277.99999999800002
 20
124.000000003
 30
0.0
 11
277.99999999699997
 21
195.000000003
 31
0.0
  0
LINE
  5
254
  8
0
  6
CONTINUOUS
 62
     1
 10
286.99999999900001
 20
123.499999999
 30
0.0
 11
277.99999999900001
 21
123.499999999
 31
0.0
  0
LINE
  5
255
  8
0
  6
CONTINUOUS
 62
     1
 10
268.74999999799991
 20
123.500000003
 30
0.0
 11
268.74999999799991
 21
120.80000000299999
 31
0.0
  0
LINE
  5
256
  8
0
  6
CONTINUOUS
 62
     1
 10
261.99999999800002
 20
123.500000003
 30
0.0
 11
261.99999999800002
 21
120.000000003
 31
0.0
  0
LINE
  5
257
  8
0
  6
CONTINUOUS
 62
     1
 10
266.99999999799991
 20
120.000000003
 30
0.0
 11
266.99999999799991
 21
123.500000003
 31
0.0
  0
LINE
  5
258
  8
0
  6
CONTINUOUS
 62
     1
 10
261.04999999799998
 20
120.000000003
 30
0.0
 11
261.99999999800002
 21
120.000000003
 31
0.0
  0
ARC
  5
259
  8
0
  6
CONTINUOUS
 62
     1
 10
261.04999999799998
 20
120.80000000299999
 30
0.0
 40
0.8
 50
180.00000000099999
 51
270.0
  0
LINE
  5
25A
  8
0
  6
CONTINUOUS
 62
     1
 10
267.94999999800001
 20
120.000000003
 30
0.0
 11
266.99999999799991
 21
120.000000003
 31
0.0
  0
ARC
  5
25B
  8
0
  6
CONTINUOUS
 62
     1
 10
267.94999999800001
 20
120.80000000299999
 30
0.0
 40
0.8
 50
270.0
 51
0.0
  0
LINE
  5
25C
  8
0
  6
CONTINUOUS
 62
     1
 10
261.999999995
 20
123.500000003
 30
0.0
 11
266.999999995
 21
123.500000003
 31
0.0
  0
LINE
  5
25D
  8
0
  6
CONTINUOUS
 62
     1
 10
261.99999999900001
 20
123.49975000000001
 30
0.0
 11
266.99999999900001
 21
123.49975000000001
 31
0.0
  0
LINE
  5
25E
  8
0
  6
CONTINUOUS
 62
     1
 10
255.99999999799999
 20
120.000000003
 30
0.0
 11
255.99999999799999
 21
123.500000003
 31
0.0
  0
LINE
  5
25F
  8
0
  6
CONTINUOUS
 62
     1
 10
255.999999995
 20
123.500000003
 30
0.0
 11
260.249999995
 21
123.500000003
 31
0.0
  0
LINE
  5
260
  8
0
  6
CONTINUOUS
 62
     1
 10
255.99999999900001
 20
123.49975000000001
 30
0.0
 11
260.24999999900001
 21
123.49975000000001
 31
0.0
  0
LINE
  5
261
  8
0
  6
CONTINUOUS
 62
     1
 10
260.24999999800002
 20
120.80000000299999
 30
0.0
 11
260.24999999800002
 21
123.500000003
 31
0.0
  0
POLYLINE
  5
262
  8
0
  6
CONTINUOUS
 62
     1
 66
     1
 10
0.0
 20
0.0
 30
0.0
  0
VERTEX
  5
62D
  8
0
  6
CONTINUOUS
 62
     1
 10
253.99999999799999
 20
123.500000003
 30
0.0
  0
VERTEX
  5
62E
  8
0
  6
CONTINUOUS
 62
     1
 10
253.99999999799999
 20
120.000000003
 30
0.0
  0
VERTEX
  5
62F
  8
0
  6
CONTINUOUS
 62
     1
 10
255.99999999799999
 20
120.000000003
 30
0.0
  0
SEQEND
  5
630
  8
0
  6
CONTINUOUS
 62
     1
  0
LINE
  5
267
  8
0
  6
CONTINUOUS
 62
     1
 10
249.69999999500001
 20
123.500000003
 30
0.0
 11
253.999999995
 21
123.500000003
 31
0.0
  0
LINE
  5
268
  8
0
  6
CONTINUOUS
 62
     1
 10
244.99999999900001
 20
123.49975000000001
 30
0.0
 11
253.99999999900001
 21
123.49975000000001
 31
0.0
  0
LINE
  5
269
  8
0
  6
CONTINUOUS
 62
     1
 10
249.699999999
 20
123.5
 30
0.0
 11
242.699999999
 21
123.5
 31
0.0
  0
LINE
  5
26A
  8
0
  6
CONTINUOUS
 62
     1
 10
189.99999999799999
 20
123.50000000199999
 30
0.0
 11
242.69999999500001
 21
123.50000000199999
 31
0.0
  0
LINE
  5
26B
  8
0
  6
CONTINUOUS
 62
     1
 10
181.649999998
 20
123.50000000199999
 30
0.0
 11
184.99999999799991
 21
123.50000000199999
 31
0.0
  0
ARC
  5
26C
  8
0
  6
CONTINUOUS
 62
     1
 10
179.999999995
 20
124.50000000199999
 30
0.0
 40
2.0
 50
180.0
 51
329.53445513200001
  0
LINE
  5
26D
  8
0
  6
CONTINUOUS
 62
     1
 10
184.999999995
 20
123.500000005
 30
0.0
 11
189.999999995
 21
123.500000005
 31
0.0
  0
POLYLINE
  5
26E
  8
0
  6
CONTINUOUS
 62
     1
 66
     1
 10
0.0
 20
0.0
 30
0.0
  0
VERTEX
  5
631
  8
0
  6
CONTINUOUS
 62
     1
 10
194.99999999600001
 20
138.250000005
 30
0.0
  0
VERTEX
  5
632
  8
0
  6
CONTINUOUS
 62
     1
 10
194.999999997
 20
180.750000005
 30
0.0
  0
VERTEX
  5
633
  8
0
  6
CONTINUOUS
 62
     1
 10
260.49999999699997
 20
180.750000003
 30
0.0
  0
SEQEND
  5
634
  8
0
  6
CONTINUOUS
 62
     1
  0
LINE
  5
273
  8
0
  6
CONTINUOUS
 62
     1
 10
260.49999999599999
 20
138.250000003
 30
0.0
 11
194.99999999600001
 21
138.250000005
 31
0.0
  0
LINE
  5
274
  8
0
  6
CONTINUOUS
 62
     1
 10
260.49999999699997
 20
180.750000003
 30
0.0
 11
260.49999999599999
 21
138.250000003
 31
0.0
  0
LINE
  5
275
  8
0
  6
CONTINUOUS
 62
     1
 10
278.0
 20
166.49999999900001
 30
0.0
 11
287.0
 21
166.49999999900001
 31
0.0
  0
LINE
  5
276
  8
0
  6
CONTINUOUS
 62
     1
 10
287.0
 20
152.49999999900001
 30
0.0
 11
278.0
 21
152.49999999900001
 31
0.0
  0
POLYLINE
  5
280
  8
0
  6
CONTINUOUS
 62
     3
 66
     1
 10
0.0
 20
0.0
 30
0.0
  0
VERTEX
  5
635
  8
0
  6
CONTINUOUS
 62
     3
 10
140.99999999900001
 20
112.499999999
 30
0.0
  0
VERTEX
  5
636
  8
0
  6
CONTINUOUS
 62
     3
 10
140.99999999900001
 20
110.499999999
 30
0.0
  0
VERTEX
  5
637
  8
0
  6
CONTINUOUS
 62
     3
 10
132.99999999900001
 20
110.499999999
 30
0.0
  0
VERTEX
  5
638
  8
0
  6
CONTINUOUS
 62
     3
 10
132.99999999900001
 20
112.499999999
 30
0.0
  0
SEQEND
  5
639
  8
0
  6
CONTINUOUS
 62
     3
  0
LINE
  5
286
  8
0
  6
CONTINUOUS
 62
     3
 10
148.99999999900001
 20
123.499999999
 30
0.0
 11
124.999999999
 21
123.499999999
 31
0.0
  0
LINE
  5
287
  8
0
  6
CONTINUOUS
 62
     3
 10
126.999999999
 20
123.499999999
 30
0.0
 11
126.999999999
 21
112.499999999
 31
0.0
  0
LINE
  5
288
  8
0
  6
CONTINUOUS
 62
     3
 10
146.9999999989999
 20
112.499999999
 30
0.0
 11
146.9999999989999
 21
123.499999999
 31
0.0
  0
LINE
  5
289
  8
0
  6
CONTINUOUS
 62
     3
 10
137.99999999900001
 20
114.499999999
 30
0.0
 11
146.9999999989999
 21
114.499999999
 31
0.0
  0
LINE
  5
28A
  8
0
  6
CONTINUOUS
 62
     3
 10
126.999999999
 20
114.499999999
 30
0.0
 11
135.99999999900001
 21
114.499999999
 31
0.0
  0
LINE
  5
28B
  8
0
  6
CONTINUOUS
 62
     3
 10
141.99999999900001
 20
118.499999999
 30
0.0
 11
141.99999999900001
 21
119.999999999
 31
0.0
  0
LINE
  5
28C
  8
0
  6
CONTINUOUS
 62
     3
 10
141.99999999900001
 20
119.999999999
 30
0.0
 11
142.99999999900001
 21
119.999999999
 31
0.0
  0
LINE
  5
28D
  8
0
  6
CONTINUOUS
 62
     3
 10
142.99999999900001
 20
119.999999999
 30
0.0
 11
142.99999999900001
 21
118.499999999
 31
0.0
  0
LINE
  5
28E
  8
0
  6
CONTINUOUS
 62
     3
 10
142.99999999900001
 20
118.499999999
 30
0.0
 11
144.49999999900001
 21
118.499999999
 31
0.0
  0
LINE
  5
28F
  8
0
  6
CONTINUOUS
 62
     3
 10
144.49999999900001
 20
118.499999999
 30
0.0
 11
144.49999999900001
 21
117.499999999
 31
0.0
  0
LINE
  5
290
  8
0
  6
CONTINUOUS
 62
     3
 10
144.49999999900001
 20
117.499999999
 30
0.0
 11
142.99999999900001
 21
117.499999999
 31
0.0
  0
LINE
  5
291
  8
0
  6
CONTINUOUS
 62
     3
 10
142.99999999900001
 20
117.499999999
 30
0.0
 11
142.99999999900001
 21
115.999999999
 31
0.0
  0
LINE
  5
292
  8
0
  6
CONTINUOUS
 62
     3
 10
142.99999999900001
 20
115.999999999
 30
0.0
 11
141.99999999900001
 21
115.999999999
 31
0.0
  0
LINE
  5
293
  8
0
  6
CONTINUOUS
 62
     3
 10
141.99999999900001
 20
115.999999999
 30
0.0
 11
141.99999999900001
 21
117.499999999
 31
0.0
  0
LINE
  5
294
  8
0
  6
CONTINUOUS
 62
     3
 10
141.99999999900001
 20
117.499999999
 30
0.0
 11
140.49999999900001
 21
117.499999999
 31
0.0
  0
LINE
  5
295
  8
0
  6
CONTINUOUS
 62
     3
 10
140.49999999900001
 20
117.499999999
 30
0.0
 11
140.49999999900001
 21
118.499999999
 31
0.0
  0
LINE
  5
296
  8
0
  6
CONTINUOUS
 62
     3
 10
140.49999999900001
 20
118.499999999
 30
0.0
 11
141.99999999900001
 21
118.499999999
 31
0.0
  0
LINE
  5
297
  8
0
  6
CONTINUOUS
 62
     3
 10
130.99999999900001
 20
118.499999999
 30
0.0
 11
130.99999999900001
 21
119.999999999
 31
0.0
  0
LINE
  5
298
  8
0
  6
CONTINUOUS
 62
     3
 10
130.99999999900001
 20
119.999999999
 30
0.0
 11
131.99999999900001
 21
119.999999999
 31
0.0
  0
LINE
  5
299
  8
0
  6
CONTINUOUS
 62
     3
 10
131.99999999900001
 20
119.999999999
 30
0.0
 11
131.99999999900001
 21
118.499999999
 31
0.0
  0
LINE
  5
29A
  8
0
  6
CONTINUOUS
 62
     3
 10
131.99999999900001
 20
118.499999999
 30
0.0
 11
133.4999999989999
 21
118.499999999
 31
0.0
  0
LINE
  5
29B
  8
0
  6
CONTINUOUS
 62
     3
 10
133.4999999989999
 20
118.499999999
 30
0.0
 11
133.4999999989999
 21
117.499999999
 31
0.0
  0
LINE
  5
29C
  8
0
  6
CONTINUOUS
 62
     3
 10
133.4999999989999
 20
117.499999999
 30
0.0
 11
131.99999999900001
 21
117.499999999
 31
0.0
  0
LINE
  5
29D
  8
0
  6
CONTINUOUS
 62
     3
 10
131.99999999900001
 20
117.499999999
 30
0.0
 11
131.99999999900001
 21
115.999999999
 31
0.0
  0
LINE
  5
29E
  8
0
  6
CONTINUOUS
 62
     3
 10
131.99999999900001
 20
115.999999999
 30
0.0
 11
130.99999999900001
 21
115.999999999
 31
0.0
  0
LINE
  5
29F
  8
0
  6
CONTINUOUS
 62
     3
 10
130.99999999900001
 20
115.999999999
 30
0.0
 11
130.99999999900001
 21
117.499999999
 31
0.0
  0
LINE
  5
2A0
  8
0
  6
CONTINUOUS
 62
     3
 10
130.99999999900001
 20
117.499999999
 30
0.0
 11
129.49999999900001
 21
117.499999999
 31
0.0
  0
LINE
  5
2A1
  8
0
  6
CONTINUOUS
 62
     3
 10
129.49999999900001
 20
117.499999999
 30
0.0
 11
129.49999999900001
 21
118.499999999
 31
0.0
  0
LINE
  5
2A2
  8
0
  6
CONTINUOUS
 62
     3
 10
129.49999999900001
 20
118.499999999
 30
0.0
 11
130.99999999900001
 21
118.499999999
 31
0.0
  0
LINE
  5
2A3
  8
0
  6
CONTINUOUS
 62
     3
 10
148.99999999900001
 20
121.499999999
 30
0.0
 11
124.999999999
 21
121.499999999
 31
0.0
  0
LINE
  5
2A4
  8
0
  6
CONTINUOUS
 62
     3
 10
140.99999999900001
 20
121.499999999
 30
0.0
 11
140.99999999900001
 21
119.499999999
 31
0.0
  0
LINE
  5
2A5
  8
0
  6
CONTINUOUS
 62
     3
 10
140.99999999900001
 20
119.499999999
 30
0.0
 11
132.99999999900001
 21
119.499999999
 31
0.0
  0
LINE
  5
2A6
  8
0
  6
CONTINUOUS
 62
     3
 10
132.99999999900001
 20
119.499999999
 30
0.0
 11
132.99999999900001
 21
121.499999999
 31
0.0
  0
LINE
  5
2A7
  8
0
  6
CONTINUOUS
 62
     3
 10
137.99999999900001
 20
112.499999999
 30
0.0
 11
137.99999999900001
 21
119.499999999
 31
0.0
  0
LINE
  5
2A8
  8
0
  6
CONTINUOUS
 62
     3
 10
135.99999999900001
 20
119.499999999
 30
0.0
 11
135.99999999900001
 21
112.499999999
 31
0.0
  0
ARC
  5
2A9
  8
0
  6
CONTINUOUS
 62
     3
 10
142.4999999989999
 20
117.999999999
 30
0.0
 40
3.0
 50
149.0362434679999
 51
120.963756532
  0
ARC
  5
2AA
  8
0
  6
CONTINUOUS
 62
     3
 10
131.49999999900001
 20
117.999999999
 30
0.0
 40
3.0
 50
59.036243468000002
 51
30.963756531999991
  0
LINE
  5
2AB
  8
0
  6
CONTINUOUS
 62
     3
 10
132.99999999900001
 20
121.499999999
 30
0.0
 11
132.99999999900001
 21
123.499999999
 31
0.0
  0
LINE
  5
2AC
  8
0
  6
CONTINUOUS
 62
     3
 10
135.4999999989999
 20
123.499999999
 30
0.0
 11
135.4999999989999
 21
121.499999999
 31
0.0
  0
LINE
  5
2AD
  8
0
  6
CONTINUOUS
 62
     3
 10
138.4999999989999
 20
121.499999999
 30
0.0
 11
138.4999999989999
 21
123.499999999
 31
0.0
  0
LINE
  5
2AE
  8
0
  6
CONTINUOUS
 62
     3
 10
140.99999999900001
 20
123.499999999
 30
0.0
 11
140.99999999900001
 21
121.499999999
 31
0.0
  0
LINE
  5
2AF
  8
0
  6
CONTINUOUS
 62
     3
 10
149.0
 20
195.49999999900001
 30
0.0
 11
125.0
 21
195.49999999900001
 31
0.0
  0
LINE
  5
2B0
  8
0
  6
CONTINUOUS
 62
     3
 10
127.0
 20
195.49999999900001
 30
0.0
 11
127.000000001
 21
206.49999999900001
 31
0.0
  0
LINE
  5
2B1
  8
0
  6
CONTINUOUS
 62
     3
 10
147.00000000099999
 20
206.49999999900001
 30
0.0
 11
147.0
 21
195.49999999900001
 31
0.0
  0
LINE
  5
2B2
  8
0
  6
CONTINUOUS
 62
     3
 10
138.00000000099999
 20
204.49999999900001
 30
0.0
 11
147.00000000099999
 21
204.49999999900001
 31
0.0
  0
LINE
  5
2B3
  8
0
  6
CONTINUOUS
 62
     3
 10
127.000000001
 20
204.49999999900001
 30
0.0
 11
136.00000000099999
 21
204.49999999900001
 31
0.0
  0
LINE
  5
2B4
  8
0
  6
CONTINUOUS
 62
     3
 10
142.0
 20
200.49999999900001
 30
0.0
 11
142.0
 21
198.99999999900001
 31
0.0
  0
LINE
  5
2B5
  8
0
  6
CONTINUOUS
 62
     3
 10
142.0
 20
198.99999999900001
 30
0.0
 11
143.0
 21
198.99999999900001
 31
0.0
  0
LINE
  5
2B6
  8
0
  6
CONTINUOUS
 62
     3
 10
143.0
 20
198.99999999900001
 30
0.0
 11
143.0
 21
200.49999999900001
 31
0.0
  0
LINE
  5
2B7
  8
0
  6
CONTINUOUS
 62
     3
 10
143.0
 20
200.49999999900001
 30
0.0
 11
144.5
 21
200.49999999900001
 31
0.0
  0
LINE
  5
2B8
  8
0
  6
CONTINUOUS
 62
     3
 10
144.5
 20
200.49999999900001
 30
0.0
 11
144.50000000099999
 21
201.49999999900001
 31
0.0
  0
LINE
  5
2B9
  8
0
  6
CONTINUOUS
 62
     3
 10
144.50000000099999
 20
201.49999999900001
 30
0.0
 11
143.00000000099999
 21
201.49999999900001
 31
0.0
  0
LINE
  5
2BA
  8
0
  6
CONTINUOUS
 62
     3
 10
143.00000000099999
 20
201.49999999900001
 30
0.0
 11
143.00000000099999
 21
202.99999999900001
 31
0.0
  0
LINE
  5
2BB
  8
0
  6
CONTINUOUS
 62
     3
 10
143.00000000099999
 20
202.99999999900001
 30
0.0
 11
142.00000000099999
 21
202.99999999900001
 31
0.0
  0
LINE
  5
2BC
  8
0
  6
CONTINUOUS
 62
     3
 10
142.00000000099999
 20
202.99999999900001
 30
0.0
 11
142.00000000099999
 21
201.49999999900001
 31
0.0
  0
LINE
  5
2BD
  8
0
  6
CONTINUOUS
 62
     3
 10
142.00000000099999
 20
201.49999999900001
 30
0.0
 11
140.50000000099999
 21
201.49999999900001
 31
0.0
  0
LINE
  5
2BE
  8
0
  6
CONTINUOUS
 62
     3
 10
140.50000000099999
 20
201.49999999900001
 30
0.0
 11
140.5
 21
200.49999999900001
 31
0.0
  0
LINE
  5
2BF
  8
0
  6
CONTINUOUS
 62
     3
 10
140.5
 20
200.49999999900001
 30
0.0
 11
142.0
 21
200.49999999900001
 31
0.0
  0
LINE
  5
2C0
  8
0
  6
CONTINUOUS
 62
     3
 10
131.0
 20
200.49999999900001
 30
0.0
 11
131.0
 21
198.99999999900001
 31
0.0
  0
LINE
  5
2C1
  8
0
  6
CONTINUOUS
 62
     3
 10
131.0
 20
198.99999999900001
 30
0.0
 11
132.0
 21
198.99999999900001
 31
0.0
  0
LINE
  5
2C2
  8
0
  6
CONTINUOUS
 62
     3
 10
132.0
 20
198.99999999900001
 30
0.0
 11
132.0
 21
200.49999999900001
 31
0.0
  0
LINE
  5
2C3
  8
0
  6
CONTINUOUS
 62
     3
 10
132.0
 20
200.49999999900001
 30
0.0
 11
133.5
 21
200.49999999900001
 31
0.0
  0
LINE
  5
2C4
  8
0
  6
CONTINUOUS
 62
     3
 10
133.5
 20
200.49999999900001
 30
0.0
 11
133.50000000099999
 21
201.49999999900001
 31
0.0
  0
LINE
  5
2C5
  8
0
  6
CONTINUOUS
 62
     3
 10
133.50000000099999
 20
201.49999999900001
 30
0.0
 11
132.00000000099999
 21
201.49999999900001
 31
0.0
  0
LINE
  5
2C6
  8
0
  6
CONTINUOUS
 62
     3
 10
132.00000000099999
 20
201.49999999900001
 30
0.0
 11
132.00000000099999
 21
202.99999999900001
 31
0.0
  0
LINE
  5
2C7
  8
0
  6
CONTINUOUS
 62
     3
 10
132.00000000099999
 20
202.99999999900001
 30
0.0
 11
131.00000000099999
 21
202.99999999900001
 31
0.0
  0
LINE
  5
2C8
  8
0
  6
CONTINUOUS
 62
     3
 10
131.00000000099999
 20
202.99999999900001
 30
0.0
 11
131.00000000099999
 21
201.49999999900001
 31
0.0
  0
LINE
  5
2C9
  8
0
  6
CONTINUOUS
 62
     3
 10
131.00000000099999
 20
201.49999999900001
 30
0.0
 11
129.50000000099999
 21
201.49999999900001
 31
0.0
  0
LINE
  5
2CA
  8
0
  6
CONTINUOUS
 62
     3
 10
129.50000000099999
 20
201.49999999900001
 30
0.0
 11
129.5
 21
200.49999999900001
 31
0.0
  0
LINE
  5
2CB
  8
0
  6
CONTINUOUS
 62
     3
 10
129.5
 20
200.49999999900001
 30
0.0
 11
131.0
 21
200.49999999900001
 31
0.0
  0
LINE
  5
2CC
  8
0
  6
CONTINUOUS
 62
     3
 10
149.0
 20
197.49999999900001
 30
0.0
 11
125.0
 21
197.49999999900001
 31
0.0
  0
LINE
  5
2CD
  8
0
  6
CONTINUOUS
 62
     3
 10
141.0
 20
197.49999999900001
 30
0.0
 11
141.0
 21
199.49999999900001
 31
0.0
  0
LINE
  5
2CE
  8
0
  6
CONTINUOUS
 62
     3
 10
141.0
 20
199.49999999900001
 30
0.0
 11
133.0
 21
199.49999999900001
 31
0.0
  0
LINE
  5
2CF
  8
0
  6
CONTINUOUS
 62
     3
 10
133.0
 20
199.49999999900001
 30
0.0
 11
133.0
 21
197.49999999900001
 31
0.0
  0
LINE
  5
2D0
  8
0
  6
CONTINUOUS
 62
     3
 10
138.00000000099999
 20
206.49999999900001
 30
0.0
 11
138.0
 21
199.49999999900001
 31
0.0
  0
LINE
  5
2D1
  8
0
  6
CONTINUOUS
 62
     3
 10
136.0
 20
199.49999999900001
 30
0.0
 11
136.00000000099999
 21
206.49999999900001
 31
0.0
  0
ARC
  5
2D2
  8
0
  6
CONTINUOUS
 62
     3
 10
142.50000000099999
 20
200.99999999900001
 30
0.0
 40
3.0
 50
239.03624346800001
 51
210.96375653199999
  0
ARC
  5
2D3
  8
0
  6
CONTINUOUS
 62
     3
 10
131.50000000099999
 20
200.99999999900001
 30
0.0
 40
3.0
 50
329.03624346800001
 51
300.96375653199999
  0
LINE
  5
2D4
  8
0
  6
CONTINUOUS
 62
     3
 10
133.0
 20
197.49999999900001
 30
0.0
 11
133.0
 21
195.49999999900001
 31
0.0
  0
LINE
  5
2D5
  8
0
  6
CONTINUOUS
 62
     3
 10
135.5
 20
195.49999999900001
 30
0.0
 11
135.5
 21
197.49999999900001
 31
0.0
  0
LINE
  5
2D6
  8
0
  6
CONTINUOUS
 62
     3
 10
138.5
 20
197.49999999900001
 30
0.0
 11
138.5
 21
195.49999999900001
 31
0.0
  0
LINE
  5
2D7
  8
0
  6
CONTINUOUS
 62
     3
 10
141.0
 20
195.49999999900001
 30
0.0
 11
141.0
 21
197.49999999900001
 31
0.0
  0
LINE
  5
2D8
  8
0
  6
CONTINUOUS
 62
     3
 10
146.9999999989999
 20
126.499999999
 30
0.0
 11
147.0
 21
192.49999999900001
 31
0.0
  0
LINE
  5
2D9
  8
0
  6
CONTINUOUS
 62
     3
 10
127.0
 20
192.49999999900001
 30
0.0
 11
126.999999999
 21
126.499999999
 31
0.0
  0
LINE
  5
2DA
  8
0
  6
CONTINUOUS
 62
     3
 10
126.999999999
 20
126.499999999
 30
0.0
 11
126.999999999
 21
123.499999999
 31
0.0
  0
LINE
  5
2DB
  8
0
  6
CONTINUOUS
 62
     3
 10
146.9999999989999
 20
123.499999999
 30
0.0
 11
146.9999999989999
 21
126.499999999
 31
0.0
  0
LINE
  5
2DC
  8
0
  6
CONTINUOUS
 62
     3
 10
147.0
 20
192.49999999900001
 30
0.0
 11
147.0
 21
195.49999999900001
 31
0.0
  0
LINE
  5
2DD
  8
0
  6
CONTINUOUS
 62
     3
 10
127.0
 20
195.49999999900001
 30
0.0
 11
127.0
 21
192.49999999900001
 31
0.0
  0
LINE
  5
2DE
  8
6
  6
CONTINUOUS
 62
     5
 10
132.5
 20
126.500000001
 30
0.0
 11
147.0
 21
126.500000001
 31
0.0
  0
LINE
  5
2DF
  8
6
  6
CONTINUOUS
 62
     5
 10
127.0
 20
126.500000001
 30
0.0
 11
132.5
 21
126.500000001
 31
0.0
  0
LINE
  5
2E0
  8
6
  6
CONTINUOUS
 62
     5
 10
132.5
 20
192.50000000099999
 30
0.0
 11
147.0
 21
192.50000000099999
 31
0.0
  0
LINE
  5
2E1
  8
6
  6
CONTINUOUS
 62
     5
 10
147.0
 20
192.50000000099999
 30
0.0
 11
147.0
 21
126.500000001
 31
0.0
  0
LINE
  5
2E2
  8
6
  6
CONTINUOUS
 62
     5
 10
147.0
 20
127.750000001
 30
0.0
 11
147.0
 21
191.25000000099999
 31
0.0
  0
LINE
  5
2E3
  8
6
  6
CONTINUOUS
 62
     5
 10
127.0
 20
192.50000000099999
 30
0.0
 11
127.0
 21
126.500000001
 31
0.0
  0
LINE
  5
2E4
  8
6
  6
CONTINUOUS
 62
     5
 10
127.0
 20
192.50000000099999
 30
0.0
 11
132.5
 21
192.50000000099999
 31
0.0
  0
ARC
  5
2E5
  8
0
  6
CONTINUOUS
 62
     3
 10
130.49999999900001
 20
108.999999999
 30
0.0
 40
0.5
 50
180.0
 51
270.0
  0
ARC
  5
2E6
  8
0
  6
CONTINUOUS
 62
     3
 10
143.49999999900001
 20
108.999999999
 30
0.0
 40
0.5
 50
270.0
 51
0.0
  0
LINE
  5
2E7
  8
0
  6
CONTINUOUS
 62
     3
 10
130.49999999900001
 20
108.499999999
 30
0.0
 11
143.49999999900001
 21
108.499999999
 31
0.0
  0
LINE
  5
2E8
  8
0
  6
CONTINUOUS
 62
     3
 10
143.99999999900001
 20
108.999999999
 30
0.0
 11
143.99999999900001
 21
112.499999999
 31
0.0
  0
LINE
  5
2E9
  8
0
  6
CONTINUOUS
 62
     3
 10
129.99999999900001
 20
108.999999999
 30
0.0
 11
129.99999999900001
 21
112.499999999
 31
0.0
  0
LINE
  5
2EA
  8
0
  6
CONTINUOUS
 62
     5
 10
125.000000001
 20
207.49999999900001
 30
0.0
 11
125.000000001
 21
216.49999999900001
 31
0.0
  0
LINE
  5
2EB
  8
0
  6
CONTINUOUS
 62
     5
 10
149.00000000099999
 20
216.49999999900001
 30
0.0
 11
149.00000000099999
 21
207.49999999900001
 31
0.0
  0
LINE
  5
2EC
  8
0
  6
CONTINUOUS
 62
     5
 10
150.00000000099999
 20
204.49999999900001
 30
0.0
 11
150.00000000099999
 21
226.49999999900001
 31
0.0
  0
LINE
  5
2ED
  8
0
  6
CONTINUOUS
 62
     5
 10
124.000000001
 20
204.5
 30
0.0
 11
124.000000001
 21
226.5
 31
0.0
  0
LINE
  5
2EE
  8
0
  6
CONTINUOUS
 62
     5
 10
125.000000001
 20
215.49999999900001
 30
0.0
 11
127.414814566
 21
214.852952386
 31
0.0
  0
LINE
  5
2EF
  8
0
  6
CONTINUOUS
 62
     5
 10
125.000000001
 20
215.49999999900001
 30
0.0
 11
127.414814566
 21
216.14704761199999
 31
0.0
  0
LINE
  5
2F0
  8
0
  6
CONTINUOUS
 62
     5
 10
125.000000001
 20
215.49999999900001
 30
0.0
 11
149.00000000099999
 21
215.49999999900001
 31
0.0
  0
LINE
  5
2F1
  8
0
  6
CONTINUOUS
 62
     5
 10
149.00000000099999
 20
215.49999999900001
 30
0.0
 11
146.585185435
 21
216.14704761199999
 31
0.0
  0
LINE
  5
2F2
  8
0
  6
CONTINUOUS
 62
     5
 10
149.00000000099999
 20
215.49999999900001
 30
0.0
 11
146.585185435
 21
214.852952386
 31
0.0
  0
TEXT
  5
2F3
  8
0
  6
CONTINUOUS
 62
     3
 10
135.050000001
 20
216.49999999900001
 30
0.3
 40
3.0
  1
２４
 41
0.6
  7
KANJI0
  0
LINE
  5
2F4
  8
0
  6
CONTINUOUS
 62
     5
 10
124.000000001
 20
225.5
 30
0.3
 11
126.414814566
 21
224.85295238699999
 31
0.3
  0
LINE
  5
2F5
  8
0
  6
CONTINUOUS
 62
     5
 10
124.000000001
 20
225.5
 30
0.0
 11
126.414814566
 21
226.14704761199999
 31
0.0
  0
LINE
  5
2F6
  8
0
  6
CONTINUOUS
 62
     5
 10
124.000000001
 20
225.5
 30
0.0
 11
150.00000000099999
 21
225.49999999900001
 31
0.0
  0
LINE
  5
2F7
  8
0
  6
CONTINUOUS
 62
     5
 10
150.00000000099999
 20
225.49999999900001
 30
0.0
 11
147.585185435
 21
226.14704761199999
 31
0.0
  0
LINE
  5
2F8
  8
0
  6
CONTINUOUS
 62
     5
 10
150.00000000099999
 20
225.49999999900001
 30
0.0
 11
147.585185435
 21
224.852952386
 31
0.0
  0
TEXT
  5
2F9
  8
0
  6
CONTINUOUS
 62
     3
 10
135.050000001
 20
226.49999999900001
 30
0.3
 40
3.0
  1
２６
 41
0.6
  7
KANJI0
  0
LINE
  5
2FA
  8
0
  6
CONTINUOUS
 62
     5
 10
123.999999999
 20
112.499999999
 30
0.3
 11
114.999999999
 21
112.499999999
 31
0.3
  0
LINE
  5
2FB
  8
0
  6
CONTINUOUS
 62
     5
 10
114.999999999
 20
206.49999999900001
 30
0.0
 11
123.499999999
 21
206.49999999900001
 31
0.0
  0
LINE
  5
2FC
  8
0
  6
CONTINUOUS
 62
     5
 10
115.999999999
 20
206.49999999900001
 30
0.0
 11
115.352952386
 21
204.08518543400001
 31
0.0
  0
LINE
  5
2FD
  8
0
  6
CONTINUOUS
 62
     5
 10
115.999999999
 20
206.49999999900001
 30
0.0
 11
116.64704761199999
 21
204.08518543400001
 31
0.0
  0
LINE
  5
2FE
  8
0
  6
CONTINUOUS
 62
     5
 10
115.999999999
 20
206.49999999900001
 30
0.0
 11
115.999999999
 21
112.499999999
 31
0.0
  0
LINE
  5
2FF
  8
0
  6
CONTINUOUS
 62
     5
 10
115.999999999
 20
112.499999999
 30
0.0
 11
116.64704761199999
 21
114.914814565
 31
0.0
  0
LINE
  5
300
  8
0
  6
CONTINUOUS
 62
     5
 10
115.999999999
 20
112.499999999
 30
0.0
 11
115.352952386
 21
114.914814565
 31
0.0
  0
TEXT
  5
301
  8
0
  6
CONTINUOUS
 62
     3
 10
114.999999999
 20
157.54999999899999
 30
0.3
 40
3.0
  1
９４
 50
90.0
 41
0.6
  7
KANJI0
  0
LINE
  5
302
  8
0
  6
CONTINUOUS
 62
     5
 10
114.999999999
 20
108.499999999
 30
0.3
 11
128.99999999900001
 21
108.499999999
 31
0.3
  0
LINE
  5
303
  8
0
  6
CONTINUOUS
 62
     5
 10
115.999999999
 20
108.499999999
 30
0.0
 11
115.352952386
 21
106.085185434
 31
0.0
  0
LINE
  5
304
  8
0
  6
CONTINUOUS
 62
     5
 10
115.999999999
 20
108.499999999
 30
0.0
 11
116.64704761199999
 21
106.085185434
 31
0.0
  0
LINE
  5
305
  8
0
  6
CONTINUOUS
 62
     5
 10
115.999999999
 20
112.499999999
 30
0.0
 11
115.999999999
 21
95.499999998999996
 31
0.0
  0
TEXT
  5
306
  8
0
  6
CONTINUOUS
 62
     3
 10
114.999999999
 20
98.049999998999994
 30
0.3
 40
3.0
  1
６ｍａｘ
 50
90.0
 41
0.6
  7
KANJI0
  0
LINE
  5
307
  8
0
  6
CONTINUOUS
 62
     1
 10
125.000000001
 20
206.49999999900001
 30
0.3
 11
149.00000000099999
 21
206.49999999900001
 31
0.3
  0
LINE
  5
308
  8
0
  6
CONTINUOUS
 62
     1
 10
149.0
 20
180.99999999900001
 30
0.0
 11
150.0
 21
180.99999999900001
 31
0.0
  0
LINE
  5
309
  8
0
  6
CONTINUOUS
 62
     1
 10
150.0
 20
176.99999999900001
 30
0.0
 11
149.0
 21
176.99999999900001
 31
0.0
  0
LINE
  5
30A
  8
0
  6
CONTINUOUS
 62
     1
 10
150.0
 20
180.99999999900001
 30
0.0
 11
150.0
 21
176.99999999900001
 31
0.0
  0
POLYLINE
  5
30B
  8
0
  6
CONTINUOUS
 62
     1
 66
     1
 10
0.0
 20
0.0
 30
0.0
  0
VERTEX
  5
63A
  8
0
  6
CONTINUOUS
 62
     1
 10
125.0
 20
176.99999999900001
 30
0.0
  0
VERTEX
  5
63B
  8
0
  6
CONTINUOUS
 62
     1
 10
124.0
 20
176.99999999900001
 30
0.0
  0
VERTEX
  5
63C
  8
0
  6
CONTINUOUS
 62
     1
 10
124.0
 20
180.99999999900001
 30
0.0
  0
VERTEX
  5
63D
  8
0
  6
CONTINUOUS
 62
     1
 10
125.0
 20
180.99999999900001
 30
0.0
  0
SEQEND
  5
63E
  8
0
  6
CONTINUOUS
 62
     1
  0
POLYLINE
  5
311
  8
0
  6
CONTINUOUS
 62
     1
 66
     1
 10
0.0
 20
0.0
 30
0.0
  0
VERTEX
  5
63F
  8
0
  6
CONTINUOUS
 62
     1
 10
125.0
 20
141.99999999900001
 30
0.0
  0
VERTEX
  5
640
  8
0
  6
CONTINUOUS
 62
     1
 10
124.0
 20
141.99999999900001
 30
0.0
  0
VERTEX
  5
641
  8
0
  6
CONTINUOUS
 62
     1
 10
124.0
 20
137.99999999900001
 30
0.0
  0
VERTEX
  5
642
  8
0
  6
CONTINUOUS
 62
     1
 10
125.0
 20
137.99999999900001
 30
0.0
  0
SEQEND
  5
643
  8
0
  6
CONTINUOUS
 62
     1
  0
LINE
  5
317
  8
0
  6
CONTINUOUS
 62
     1
 10
124.999999999
 20
112.499999999
 30
0.0
 11
125.000000001
 21
206.49999999900001
 31
0.0
  0
LINE
  5
318
  8
0
  6
CONTINUOUS
 62
     1
 10
150.0
 20
141.99999999900001
 30
0.0
 11
149.0
 21
141.99999999900001
 31
0.0
  0
LINE
  5
319
  8
0
  6
CONTINUOUS
 62
     1
 10
149.00000000099999
 20
206.49999999900001
 30
0.0
 11
148.99999999900001
 21
112.499999999
 31
0.0
  0
LINE
  5
31A
  8
0
  6
CONTINUOUS
 62
     1
 10
149.0
 20
137.99999999900001
 30
0.0
 11
150.0
 21
137.99999999900001
 31
0.0
  0
LINE
  5
31B
  8
0
  6
CONTINUOUS
 62
     1
 10
150.0
 20
137.99999999900001
 30
0.0
 11
150.0
 21
141.99999999900001
 31
0.0
  0
LINE
  5
31C
  8
0
  6
CONTINUOUS
 62
     1
 10
148.99999999900001
 20
112.499999999
 30
0.0
 11
124.999999999
 21
112.499999999
 31
0.0
  0
LINE
  5
31D
  8
6
  6
CONTINUOUS
 62
     3
 10
127.0
 20
192.49999999900001
 30
0.0
 11
127.0
 21
126.499999999
 31
0.0
  0
LINE
  5
31E
  8
6
  6
CONTINUOUS
 62
     3
 10
132.5
 20
192.49999999900001
 30
0.0
 11
147.0
 21
192.49999999900001
 31
0.0
  0
LINE
  5
31F
  8
6
  6
CONTINUOUS
 62
     3
 10
132.5
 20
126.499999999
 30
0.0
 11
147.0
 21
126.499999999
 31
0.0
  0
LINE
  5
320
  8
6
  6
CONTINUOUS
 62
     3
 10
147.0
 20
192.49999999900001
 30
0.0
 11
147.0
 21
126.499999999
 31
0.0
  0
LINE
  5
321
  8
6
  6
CONTINUOUS
 62
     3
 10
127.0
 20
126.499999999
 30
0.0
 11
132.5
 21
126.499999999
 31
0.0
  0
LINE
  5
322
  8
6
  6
CONTINUOUS
 62
     3
 10
127.5
 20
192.49999999900001
 30
0.0
 11
133.0
 21
192.49999999900001
 31
0.0
  0
LINE
  5
323
  8
6
  6
CONTINUOUS
 62
     3
 10
127.5
 20
192.49999999900001
 30
0.0
 11
127.0
 21
192.49999999900001
 31
0.0
  0
LINE
  5
324
  8
6
  6
CONTINUOUS
 62
     1
 10
147.0
 20
129.99999999900001
 30
0.0
 11
127.0
 21
129.99999999900001
 31
0.0
  0
LINE
  5
325
  8
6
  6
CONTINUOUS
 62
     1
 10
147.0
 20
187.99999999900001
 30
0.0
 11
127.0
 21
187.99999999900001
 31
0.0
  0
LINE
  5
326
  8
6
  6
CONTINUOUS
 62
     1
 10
147.0
 20
186.99999999900001
 30
0.0
 11
127.0
 21
186.99999999900001
 31
0.0
  0
TEXT
  5
328
  8
6
  6
CONTINUOUS
 62
     2
 10
131.97499999999999
 20
188.74999999900001
 30
0.05
 40
3.0
  1
ＴＦ－ＷＳ
 41
0.666666667
  7
KANJI2
  0
CIRCLE
  5
329
  8
6
  6
CONTINUOUS
 62
     3
 10
143.5
 20
178.24999999900001
 30
0.05
 40
1.0
  0
CIRCLE
  5
32A
  8
6
  6
CONTINUOUS
 62
     3
 10
143.5
 20
172.99999999900001
 30
0.05
 40
1.0
  0
CIRCLE
  5
32B
  8
6
  6
CONTINUOUS
 62
     3
 10
143.5
 20
183.49999999900001
 30
0.05
 40
1.0
  0
TEXT
  5
32C
  8
6
  6
CONTINUOUS
 62
     1
 10
138.5
 20
177.24999999900001
 30
0.05
 40
2.5
  1
ＲＸ
 41
0.6
  7
KANJI3
  0
TEXT
  5
32D
  8
6
  6
CONTINUOUS
 62
     1
 10
138.5
 20
182.49999999900001
 30
0.05
 40
2.5
  1
ＴＸ
 41
0.6
  7
KANJI3
  0
TEXT
  5
32E
  8
6
  6
CONTINUOUS
 62
     1
 10
135.75
 20
171.99999999900001
 30
0.05
 40
2.5
  1
ＬＩＮＫ
 41
0.6
  7
KANJI3
  0
TEXT
  5
32F
  8
6
  6
CONTINUOUS
 62
     1
 10
142.0
 20
154.49999999900001
 30
0.05
 40
1.5
  1
１
 41
0.666666667
  7
KANJI1
  0
TEXT
  5
330
  8
6
  6
CONTINUOUS
 62
     1
 10
142.0
 20
167.24999999900001
 30
0.05
 40
1.5
  1
６
 41
0.666666667
  7
KANJI1
  0
TEXT
  5
331
  8
6
  6
CONTINUOUS
 62
     1
 10
129.0
 20
170.99999999900001
 30
0.05
 40
2.5
  1
ＤＳＷ
 41
0.6
  7
KANJI3
  0
TEXT
  5
332
  8
6
  6
CONTINUOUS
 62
     1
 10
129.0
 20
154.2499999989999
 30
0.05
 40
1.5
  1
ＯＦＦ
 41
0.666666667
  7
KANJI1
  0
TEXT
  5
333
  8
6
  6
CONTINUOUS
 62
     1
 10
131.0
 20
133.24999999900001
 30
0.05
 40
2.5
  1
ＣＮ
 41
0.6
  7
KANJI3
  0
LINE
  5
334
  8
6
  6
CONTINUOUS
 62
     3
 10
143.5
 20
136.24999999900001
 30
0.05
 11
143.5
 21
152.24999999900001
 31
0.05
  0
LINE
  5
335
  8
6
  6
CONTINUOUS
 62
     3
 10
131.0
 20
152.24999999900001
 30
0.0
 11
131.0
 21
136.24999999900001
 31
0.0
  0
LINE
  5
336
  8
6
  6
CONTINUOUS
 62
     3
 10
131.0
 20
152.24999999900001
 30
0.0
 11
143.5
 21
152.24999999900001
 31
0.0
  0
LINE
  5
337
  8
6
  6
CONTINUOUS
 62
     3
 10
131.0
 20
136.24999999900001
 30
0.0
 11
143.5
 21
136.24999999900001
 31
0.0
  0
LINE
  5
338
  8
0
  6
CONTINUOUS
 62
     3
 10
131.0
 20
151.24999999900001
 30
0.0
 11
131.0
 21
137.24999999900001
 31
0.0
  0
LINE
  5
339
  8
0
  6
CONTINUOUS
 62
     3
 10
143.5
 20
137.24999999900001
 30
0.0
 11
143.5
 21
151.24999999900001
 31
0.0
  0
LINE
  5
33A
  8
0
  6
CONTINUOUS
 62
     3
 10
133.19999999999999
 20
137.24999999900001
 30
0.0
 11
143.5
 21
137.24999999900001
 31
0.0
  0
LINE
  5
33B
  8
0
  6
CONTINUOUS
 62
     3
 10
143.5
 20
151.24999999900001
 30
0.0
 11
133.19999999999999
 21
151.24999999900001
 31
0.0
  0
LINE
  5
33C
  8
0
  6
CONTINUOUS
 62
     3
 10
143.30000000000001
 20
144.24999999900001
 30
0.0
 11
143.30000000000001
 21
142.24999999900001
 31
0.0
  0
LINE
  5
33D
  8
0
  6
CONTINUOUS
 62
     3
 10
143.30000000000001
 20
142.24999999900001
 30
0.0
 11
141.80000000000001
 21
142.24999999900001
 31
0.0
  0
LINE
  5
33E
  8
0
  6
CONTINUOUS
 62
     3
 10
141.80000000000001
 20
142.24999999900001
 30
0.0
 11
141.80000000000001
 21
141.24999999900001
 31
0.0
  0
LINE
  5
33F
  8
0
  6
CONTINUOUS
 62
     3
 10
141.80000000000001
 20
141.24999999900001
 30
0.0
 11
140.80000000000001
 21
141.24999999900001
 31
0.0
  0
LINE
  5
340
  8
0
  6
CONTINUOUS
 62
     3
 10
140.80000000000001
 20
141.24999999900001
 30
0.0
 11
140.80000000000001
 21
140.24999999900001
 31
0.0
  0
LINE
  5
341
  8
0
  6
CONTINUOUS
 62
     3
 10
140.80000000000001
 20
140.24999999900001
 30
0.0
 11
139.80000000000001
 21
140.24999999900001
 31
0.0
  0
LINE
  5
342
  8
0
  6
CONTINUOUS
 62
     3
 10
139.80000000000001
 20
140.24999999900001
 30
0.0
 11
139.80000000000001
 21
138.24999999900001
 31
0.0
  0
LINE
  5
343
  8
0
  6
CONTINUOUS
 62
     3
 10
139.80000000000001
 20
138.24999999900001
 30
0.0
 11
133.80000000000001
 21
138.24999999900001
 31
0.0
  0
LINE
  5
344
  8
0
  6
CONTINUOUS
 62
     3
 10
133.80000000000001
 20
138.24999999900001
 30
0.0
 11
133.80000000000001
 21
140.24999999900001
 31
0.0
  0
LINE
  5
345
  8
0
  6
CONTINUOUS
 62
     3
 10
143.30000000000001
 20
144.24999999900001
 30
0.0
 11
143.30000000000001
 21
146.24999999900001
 31
0.0
  0
LINE
  5
346
  8
0
  6
CONTINUOUS
 62
     3
 10
143.30000000000001
 20
146.24999999900001
 30
0.0
 11
141.80000000000001
 21
146.24999999900001
 31
0.0
  0
LINE
  5
347
  8
0
  6
CONTINUOUS
 62
     3
 10
141.80000000000001
 20
146.24999999900001
 30
0.0
 11
141.80000000000001
 21
147.24999999900001
 31
0.0
  0
LINE
  5
348
  8
0
  6
CONTINUOUS
 62
     3
 10
141.80000000000001
 20
147.24999999900001
 30
0.0
 11
140.80000000000001
 21
147.24999999900001
 31
0.0
  0
LINE
  5
349
  8
0
  6
CONTINUOUS
 62
     3
 10
140.80000000000001
 20
147.24999999900001
 30
0.0
 11
140.80000000000001
 21
148.24999999900001
 31
0.0
  0
LINE
  5
34A
  8
0
  6
CONTINUOUS
 62
     3
 10
140.80000000000001
 20
148.24999999900001
 30
0.0
 11
139.80000000000001
 21
148.24999999900001
 31
0.0
  0
LINE
  5
34B
  8
0
  6
CONTINUOUS
 62
     3
 10
139.80000000000001
 20
148.24999999900001
 30
0.0
 11
139.80000000000001
 21
150.24999999900001
 31
0.0
  0
LINE
  5
34C
  8
0
  6
CONTINUOUS
 62
     3
 10
139.80000000000001
 20
150.24999999900001
 30
0.0
 11
133.80000000000001
 21
150.24999999900001
 31
0.0
  0
LINE
  5
34D
  8
0
  6
CONTINUOUS
 62
     3
 10
133.80000000000001
 20
150.24999999900001
 30
0.0
 11
133.80000000000001
 21
148.24999999900001
 31
0.0
  0
LINE
  5
34E
  8
0
  6
CONTINUOUS
 62
     3
 10
133.19999999999999
 20
148.24999999900001
 30
0.0
 11
133.19999999999999
 21
151.24999999900001
 31
0.0
  0
LINE
  5
34F
  8
0
  6
CONTINUOUS
 62
     3
 10
133.19999999999999
 20
137.24999999900001
 30
0.0
 11
133.19999999999999
 21
140.24999999900001
 31
0.0
  0
LINE
  5
350
  8
0
  6
CONTINUOUS
 62
     3
 10
133.80000000000001
 20
140.24999999900001
 30
0.0
 11
133.19999999999999
 21
140.24999999900001
 31
0.0
  0
LINE
  5
351
  8
0
  6
CONTINUOUS
 62
     3
 10
133.80000000000001
 20
148.24999999900001
 30
0.0
 11
133.19999999999999
 21
148.24999999900001
 31
0.0
  0
ARC
  5
352
  8
0
  6
CONTINUOUS
 62
     2
 10
132.30000000000001
 20
141.49999999900001
 30
0.0
 40
0.2
 50
90.0
 51
270.0
  0
LINE
  5
353
  8
0
  6
CONTINUOUS
 62
     2
 10
132.30000000000001
 20
141.29999999899999
 30
0.0
 11
137.69999999999999
 21
141.29999999899999
 31
0.0
  0
ARC
  5
354
  8
0
  6
CONTINUOUS
 62
     2
 10
137.69999999999999
 20
141.49999999900001
 30
0.0
 40
0.2
 50
270.0
 51
90.0
  0
LINE
  5
355
  8
0
  6
CONTINUOUS
 62
     2
 10
137.69999999999999
 20
141.699999999
 30
0.0
 11
132.30000000000001
 21
141.699999999
 31
0.0
  0
ARC
  5
356
  8
0
  6
CONTINUOUS
 62
     2
 10
132.30000000000001
 20
142.29999999899999
 30
0.0
 40
0.2
 50
90.0
 51
270.0
  0
LINE
  5
357
  8
0
  6
CONTINUOUS
 62
     2
 10
132.30000000000001
 20
142.099999999
 30
0.0
 11
137.69999999999999
 21
142.099999999
 31
0.0
  0
ARC
  5
358
  8
0
  6
CONTINUOUS
 62
     2
 10
137.69999999999999
 20
142.29999999899999
 30
0.0
 40
0.2
 50
270.0
 51
90.0
  0
LINE
  5
359
  8
0
  6
CONTINUOUS
 62
     2
 10
137.69999999999999
 20
142.4999999989999
 30
0.0
 11
132.30000000000001
 21
142.4999999989999
 31
0.0
  0
ARC
  5
35A
  8
0
  6
CONTINUOUS
 62
     2
 10
132.30000000000001
 20
143.099999999
 30
0.0
 40
0.2
 50
90.0
 51
270.0
  0
LINE
  5
35B
  8
0
  6
CONTINUOUS
 62
     2
 10
132.30000000000001
 20
142.89999999899999
 30
0.0
 11
137.69999999999999
 21
142.89999999899999
 31
0.0
  0
ARC
  5
35C
  8
0
  6
CONTINUOUS
 62
     2
 10
137.69999999999999
 20
143.099999999
 30
0.0
 40
0.2
 50
270.0
 51
90.0
  0
LINE
  5
35D
  8
0
  6
CONTINUOUS
 62
     2
 10
137.69999999999999
 20
143.29999999899999
 30
0.0
 11
132.30000000000001
 21
143.29999999899999
 31
0.0
  0
ARC
  5
35E
  8
0
  6
CONTINUOUS
 62
     2
 10
132.30000000000001
 20
143.89999999899999
 30
0.0
 40
0.2
 50
90.0
 51
270.0
  0
LINE
  5
35F
  8
0
  6
CONTINUOUS
 62
     2
 10
132.30000000000001
 20
143.699999999
 30
0.0
 11
137.69999999999999
 21
143.699999999
 31
0.0
  0
ARC
  5
360
  8
0
  6
CONTINUOUS
 62
     2
 10
137.69999999999999
 20
143.89999999899999
 30
0.0
 40
0.2
 50
270.0
 51
90.0
  0
LINE
  5
361
  8
0
  6
CONTINUOUS
 62
     2
 10
137.69999999999999
 20
144.099999999
 30
0.0
 11
132.30000000000001
 21
144.099999999
 31
0.0
  0
ARC
  5
362
  8
0
  6
CONTINUOUS
 62
     2
 10
132.30000000000001
 20
144.699999999
 30
0.0
 40
0.2
 50
90.0
 51
270.0
  0
LINE
  5
363
  8
0
  6
CONTINUOUS
 62
     2
 10
132.30000000000001
 20
144.49999999900001
 30
0.0
 11
137.69999999999999
 21
144.49999999900001
 31
0.0
  0
ARC
  5
364
  8
0
  6
CONTINUOUS
 62
     2
 10
137.69999999999999
 20
144.699999999
 30
0.0
 40
0.2
 50
270.0
 51
90.0
  0
LINE
  5
365
  8
0
  6
CONTINUOUS
 62
     2
 10
137.69999999999999
 20
144.89999999899999
 30
0.0
 11
132.30000000000001
 21
144.89999999899999
 31
0.0
  0
ARC
  5
366
  8
0
  6
CONTINUOUS
 62
     2
 10
132.30000000000001
 20
145.49999999900001
 30
0.0
 40
0.2
 50
90.0
 51
270.0
  0
LINE
  5
367
  8
0
  6
CONTINUOUS
 62
     2
 10
132.30000000000001
 20
145.29999999899999
 30
0.0
 11
137.69999999999999
 21
145.29999999899999
 31
0.0
  0
ARC
  5
368
  8
0
  6
CONTINUOUS
 62
     2
 10
137.69999999999999
 20
145.49999999900001
 30
0.0
 40
0.2
 50
270.0
 51
90.0
  0
LINE
  5
369
  8
0
  6
CONTINUOUS
 62
     2
 10
137.69999999999999
 20
145.699999999
 30
0.0
 11
132.30000000000001
 21
145.699999999
 31
0.0
  0
ARC
  5
36A
  8
0
  6
CONTINUOUS
 62
     2
 10
132.30000000000001
 20
146.29999999899999
 30
0.0
 40
0.2
 50
90.0
 51
270.0
  0
LINE
  5
36B
  8
0
  6
CONTINUOUS
 62
     2
 10
132.30000000000001
 20
146.099999999
 30
0.0
 11
137.69999999999999
 21
146.099999999
 31
0.0
  0
ARC
  5
36C
  8
0
  6
CONTINUOUS
 62
     2
 10
137.69999999999999
 20
146.29999999899999
 30
0.0
 40
0.2
 50
270.0
 51
90.0
  0
LINE
  5
36D
  8
0
  6
CONTINUOUS
 62
     2
 10
137.69999999999999
 20
146.49999999900001
 30
0.0
 11
132.30000000000001
 21
146.49999999900001
 31
0.0
  0
ARC
  5
36E
  8
0
  6
CONTINUOUS
 62
     2
 10
132.30000000000001
 20
147.099999999
 30
0.0
 40
0.2
 50
90.0
 51
270.0
  0
LINE
  5
36F
  8
0
  6
CONTINUOUS
 62
     2
 10
132.30000000000001
 20
146.89999999899999
 30
0.0
 11
137.69999999999999
 21
146.89999999899999
 31
0.0
  0
ARC
  5
370
  8
0
  6
CONTINUOUS
 62
     2
 10
137.69999999999999
 20
147.099999999
 30
0.0
 40
0.2
 50
270.0
 51
90.0
  0
LINE
  5
371
  8
0
  6
CONTINUOUS
 62
     2
 10
137.69999999999999
 20
147.29999999899999
 30
0.0
 11
132.30000000000001
 21
147.29999999899999
 31
0.0
  0
POLYLINE
  5
372
  8
0
  6
CONTINUOUS
 62
     3
 66
     1
 10
0.0
 20
0.0
 30
0.0
 70
     1
  0
VERTEX
  5
644
  8
0
  6
CONTINUOUS
 62
     3
 10
138.80000000000001
 20
141.699999999
 30
0.0
  0
VERTEX
  5
645
  8
0
  6
CONTINUOUS
 62
     3
 10
132.0
 20
141.699999999
 30
0.0
  0
VERTEX
  5
646
  8
0
  6
CONTINUOUS
 62
     3
 10
132.0
 20
141.29999999899999
 30
0.0
  0
VERTEX
  5
647
  8
0
  6
CONTINUOUS
 62
     3
 10
138.80000000000001
 20
141.29999999899999
 30
0.0
  0
SEQEND
  5
648
  8
0
  6
CONTINUOUS
 62
     3
  0
LINE
  5
378
  8
0
  6
CONTINUOUS
 62
     3
 10
138.80000000000001
 20
142.4999999989999
 30
0.0
 11
132.0
 21
142.4999999989999
 31
0.0
  0
LINE
  5
379
  8
0
  6
CONTINUOUS
 62
     3
 10
132.0
 20
142.099999999
 30
0.0
 11
138.80000000000001
 21
142.099999999
 31
0.0
  0
LINE
  5
37A
  8
0
  6
CONTINUOUS
 62
     3
 10
138.80000000000001
 20
142.099999999
 30
0.0
 11
138.80000000000001
 21
142.4999999989999
 31
0.0
  0
LINE
  5
37B
  8
0
  6
CONTINUOUS
 62
     3
 10
138.80000000000001
 20
143.29999999899999
 30
0.0
 11
132.0
 21
143.29999999899999
 31
0.0
  0
LINE
  5
37C
  8
0
  6
CONTINUOUS
 62
     3
 10
132.0
 20
142.89999999899999
 30
0.0
 11
138.80000000000001
 21
142.89999999899999
 31
0.0
  0
LINE
  5
37D
  8
0
  6
CONTINUOUS
 62
     3
 10
138.80000000000001
 20
142.89999999899999
 30
0.0
 11
138.80000000000001
 21
143.29999999899999
 31
0.0
  0
LINE
  5
37E
  8
0
  6
CONTINUOUS
 62
     3
 10
138.80000000000001
 20
144.099999999
 30
0.0
 11
132.0
 21
144.099999999
 31
0.0
  0
LINE
  5
37F
  8
0
  6
CONTINUOUS
 62
     3
 10
132.0
 20
143.699999999
 30
0.0
 11
138.80000000000001
 21
143.699999999
 31
0.0
  0
LINE
  5
380
  8
0
  6
CONTINUOUS
 62
     3
 10
138.80000000000001
 20
143.699999999
 30
0.0
 11
138.80000000000001
 21
144.099999999
 31
0.0
  0
LINE
  5
381
  8
0
  6
CONTINUOUS
 62
     3
 10
138.80000000000001
 20
144.89999999899999
 30
0.0
 11
132.0
 21
144.89999999899999
 31
0.0
  0
LINE
  5
382
  8
0
  6
CONTINUOUS
 62
     3
 10
132.0
 20
144.49999999900001
 30
0.0
 11
138.80000000000001
 21
144.49999999900001
 31
0.0
  0
LINE
  5
383
  8
0
  6
CONTINUOUS
 62
     3
 10
138.80000000000001
 20
144.49999999900001
 30
0.0
 11
138.80000000000001
 21
144.89999999899999
 31
0.0
  0
LINE
  5
384
  8
0
  6
CONTINUOUS
 62
     3
 10
138.80000000000001
 20
145.699999999
 30
0.0
 11
132.0
 21
145.699999999
 31
0.0
  0
LINE
  5
385
  8
0
  6
CONTINUOUS
 62
     3
 10
132.0
 20
145.29999999899999
 30
0.0
 11
138.80000000000001
 21
145.29999999899999
 31
0.0
  0
LINE
  5
386
  8
0
  6
CONTINUOUS
 62
     3
 10
138.80000000000001
 20
145.29999999899999
 30
0.0
 11
138.80000000000001
 21
145.699999999
 31
0.0
  0
LINE
  5
387
  8
0
  6
CONTINUOUS
 62
     3
 10
138.80000000000001
 20
146.49999999900001
 30
0.0
 11
132.0
 21
146.49999999900001
 31
0.0
  0
LINE
  5
388
  8
0
  6
CONTINUOUS
 62
     3
 10
132.0
 20
146.099999999
 30
0.0
 11
138.80000000000001
 21
146.099999999
 31
0.0
  0
LINE
  5
389
  8
0
  6
CONTINUOUS
 62
     3
 10
138.80000000000001
 20
146.099999999
 30
0.0
 11
138.80000000000001
 21
146.49999999900001
 31
0.0
  0
LINE
  5
38A
  8
0
  6
CONTINUOUS
 62
     3
 10
138.80000000000001
 20
147.29999999899999
 30
0.0
 11
132.0
 21
147.29999999899999
 31
0.0
  0
LINE
  5
38B
  8
0
  6
CONTINUOUS
 62
     3
 10
132.0
 20
146.89999999899999
 30
0.0
 11
138.80000000000001
 21
146.89999999899999
 31
0.0
  0
LINE
  5
38C
  8
0
  6
CONTINUOUS
 62
     3
 10
138.80000000000001
 20
146.89999999899999
 30
0.0
 11
138.80000000000001
 21
147.29999999899999
 31
0.0
  0
LINE
  5
38D
  8
0
  6
CONTINUOUS
 62
     3
 10
132.0
 20
147.29999999899999
 30
0.0
 11
132.0
 21
146.89999999899999
 31
0.0
  0
LINE
  5
38E
  8
0
  6
CONTINUOUS
 62
     3
 10
132.0
 20
146.49999999900001
 30
0.0
 11
132.0
 21
146.099999999
 31
0.0
  0
LINE
  5
38F
  8
0
  6
CONTINUOUS
 62
     3
 10
132.0
 20
145.699999999
 30
0.0
 11
132.0
 21
145.29999999899999
 31
0.0
  0
LINE
  5
390
  8
0
  6
CONTINUOUS
 62
     3
 10
132.0
 20
144.89999999899999
 30
0.0
 11
132.0
 21
144.49999999900001
 31
0.0
  0
LINE
  5
391
  8
0
  6
CONTINUOUS
 62
     3
 10
132.0
 20
144.099999999
 30
0.0
 11
132.0
 21
143.699999999
 31
0.0
  0
LINE
  5
392
  8
0
  6
CONTINUOUS
 62
     3
 10
132.0
 20
143.29999999899999
 30
0.0
 11
132.0
 21
142.89999999899999
 31
0.0
  0
LINE
  5
393
  8
0
  6
CONTINUOUS
 62
     3
 10
132.0
 20
142.4999999989999
 30
0.0
 11
132.0
 21
142.099999999
 31
0.0
  0
LINE
  5
394
  8
0
  6
CONTINUOUS
 62
     3
 10
138.80000000000001
 20
141.484314574
 30
0.0
 11
138.61568542500001
 21
141.29999999899999
 31
0.0
  0
LINE
  5
395
  8
0
  6
CONTINUOUS
 62
     3
 10
138.33284271299999
 20
141.29999999899999
 30
0.0
 11
138.732842713
 21
141.699999999
 31
0.0
  0
LINE
  5
396
  8
0
  6
CONTINUOUS
 62
     3
 10
138.44999999999999
 20
141.699999999
 30
0.0
 11
138.05000000000001
 21
141.29999999899999
 31
0.0
  0
LINE
  5
397
  8
0
  6
CONTINUOUS
 62
     3
 10
137.76715728799999
 20
141.29999999899999
 30
0.0
 11
137.78713786500001
 21
141.31998057600001
 31
0.0
  0
LINE
  5
398
  8
0
  6
CONTINUOUS
 62
     3
 10
137.88001942299999
 20
141.41286213399999
 30
0.0
 11
138.167157288
 21
141.699999999
 31
0.0
  0
LINE
  5
399
  8
0
  6
CONTINUOUS
 62
     3
 10
137.88431457499999
 20
141.699999999
 30
0.0
 11
137.833361013
 21
141.64904643599999
 31
0.0
  0
LINE
  5
39A
  8
0
  6
CONTINUOUS
 62
     3
 10
138.80000000000001
 20
142.28431552800001
 30
0.0
 11
138.615684472
 21
142.099999999
 31
0.0
  0
LINE
  5
39B
  8
0
  6
CONTINUOUS
 62
     3
 10
138.33284175899999
 20
142.099999999
 30
0.0
 11
138.732841759
 21
142.4999999989999
 31
0.0
  0
LINE
  5
39C
  8
0
  6
CONTINUOUS
 62
     3
 10
138.44999904700001
 20
142.4999999989999
 30
0.0
 11
138.049999047
 21
142.099999999
 31
0.0
  0
LINE
  5
39D
  8
0
  6
CONTINUOUS
 62
     3
 10
137.76715633399999
 20
142.099999999
 30
0.0
 11
137.78713601699999
 21
142.11997968200001
 31
0.0
  0
LINE
  5
39E
  8
0
  6
CONTINUOUS
 62
     3
 10
137.88002031799999
 20
142.21286398199999
 30
0.0
 11
138.167156334
 21
142.4999999989999
 31
0.0
  0
LINE
  5
39F
  8
0
  6
CONTINUOUS
 62
     3
 10
137.88431362200001
 20
142.4999999989999
 30
0.0
 11
137.83336050899999
 21
142.44904688599999
 31
0.0
  0
LINE
  5
3A0
  8
0
  6
CONTINUOUS
 62
     3
 10
138.80000000000001
 20
143.08431457399999
 30
0.0
 11
138.61568542500001
 21
142.89999999899999
 31
0.0
  0
LINE
  5
3A1
  8
0
  6
CONTINUOUS
 62
     3
 10
138.33284271299999
 20
142.89999999899999
 30
0.0
 11
138.732842713
 21
143.29999999899999
 31
0.0
  0
LINE
  5
3A2
  8
0
  6
CONTINUOUS
 62
     3
 10
138.44999999999999
 20
143.29999999899999
 30
0.0
 11
138.05000000000001
 21
142.89999999899999
 31
0.0
  0
LINE
  5
3A3
  8
0
  6
CONTINUOUS
 62
     3
 10
137.76715728799999
 20
142.89999999899999
 30
0.0
 11
137.78713786500001
 21
142.919980576
 31
0.0
  0
LINE
  5
3A4
  8
0
  6
CONTINUOUS
 62
     3
 10
137.88001942299999
 20
143.01286213399999
 30
0.0
 11
138.167157288
 21
143.29999999899999
 31
0.0
  0
LINE
  5
3A5
  8
0
  6
CONTINUOUS
 62
     3
 10
137.88431457499999
 20
143.29999999899999
 30
0.0
 11
137.833361013
 21
143.24904643599999
 31
0.0
  0
LINE
  5
3A6
  8
0
  6
CONTINUOUS
 62
     3
 10
138.80000000000001
 20
143.884314574
 30
0.0
 11
138.61568542500001
 21
143.699999999
 31
0.0
  0
LINE
  5
3A7
  8
0
  6
CONTINUOUS
 62
     3
 10
138.33284271299999
 20
143.699999999
 30
0.0
 11
138.732842713
 21
144.099999999
 31
0.0
  0
LINE
  5
3A8
  8
0
  6
CONTINUOUS
 62
     3
 10
138.44999999999999
 20
144.099999999
 30
0.0
 11
138.05000000000001
 21
143.699999999
 31
0.0
  0
LINE
  5
3A9
  8
0
  6
CONTINUOUS
 62
     3
 10
137.76715728799999
 20
143.699999999
 30
0.0
 11
137.78713786500001
 21
143.71998057600001
 31
0.0
  0
LINE
  5
3AA
  8
0
  6
CONTINUOUS
 62
     3
 10
137.88001942299999
 20
143.812862134
 30
0.0
 11
138.167157288
 21
144.099999999
 31
0.0
  0
LINE
  5
3AB
  8
0
  6
CONTINUOUS
 62
     3
 10
137.88431457499999
 20
144.099999999
 30
0.0
 11
137.833361013
 21
144.049046436
 31
0.0
  0
LINE
  5
3AC
  8
0
  6
CONTINUOUS
 62
     3
 10
138.80000000000001
 20
144.68431457400001
 30
0.0
 11
138.61568542500001
 21
144.49999999900001
 31
0.0
  0
LINE
  5
3AD
  8
0
  6
CONTINUOUS
 62
     3
 10
138.33284271299999
 20
144.49999999900001
 30
0.0
 11
138.732842713
 21
144.89999999899999
 31
0.0
  0
LINE
  5
3AE
  8
0
  6
CONTINUOUS
 62
     3
 10
138.44999999999999
 20
144.89999999899999
 30
0.0
 11
138.05000000000001
 21
144.49999999900001
 31
0.0
  0
LINE
  5
3AF
  8
0
  6
CONTINUOUS
 62
     3
 10
137.76715728799999
 20
144.49999999900001
 30
0.0
 11
137.78713786500001
 21
144.51998057599999
 31
0.0
  0
LINE
  5
3B0
  8
0
  6
CONTINUOUS
 62
     3
 10
137.88001942299999
 20
144.6128621339999
 30
0.0
 11
138.167157288
 21
144.89999999899999
 31
0.0
  0
LINE
  5
3B1
  8
0
  6
CONTINUOUS
 62
     3
 10
137.88431457499999
 20
144.89999999899999
 30
0.0
 11
137.833361013
 21
144.84904643600001
 31
0.0
  0
LINE
  5
3B2
  8
0
  6
CONTINUOUS
 62
     3
 10
138.80000000000001
 20
145.484314574
 30
0.0
 11
138.61568542500001
 21
145.29999999899999
 31
0.0
  0
LINE
  5
3B3
  8
0
  6
CONTINUOUS
 62
     3
 10
138.33284271299999
 20
145.29999999899999
 30
0.0
 11
138.732842713
 21
145.699999999
 31
0.0
  0
LINE
  5
3B4
  8
0
  6
CONTINUOUS
 62
     3
 10
138.44999999999999
 20
145.699999999
 30
0.0
 11
138.05000000000001
 21
145.29999999899999
 31
0.0
  0
LINE
  5
3B5
  8
0
  6
CONTINUOUS
 62
     3
 10
137.76715728799999
 20
145.29999999899999
 30
0.0
 11
137.78713786500001
 21
145.31998057600001
 31
0.0
  0
LINE
  5
3B6
  8
0
  6
CONTINUOUS
 62
     3
 10
137.88001942299999
 20
145.41286213399999
 30
0.0
 11
138.167157288
 21
145.699999999
 31
0.0
  0
LINE
  5
3B7
  8
0
  6
CONTINUOUS
 62
     3
 10
137.88431457499999
 20
145.699999999
 30
0.0
 11
137.833361013
 21
145.64904643599999
 31
0.0
  0
LINE
  5
3B8
  8
0
  6
CONTINUOUS
 62
     3
 10
138.80000000000001
 20
146.28431552800001
 30
0.0
 11
138.615684472
 21
146.099999999
 31
0.0
  0
LINE
  5
3B9
  8
0
  6
CONTINUOUS
 62
     3
 10
138.33284175899999
 20
146.099999999
 30
0.0
 11
138.732841759
 21
146.49999999900001
 31
0.0
  0
LINE
  5
3BA
  8
0
  6
CONTINUOUS
 62
     3
 10
138.44999904700001
 20
146.49999999900001
 30
0.0
 11
138.049999047
 21
146.099999999
 31
0.0
  0
LINE
  5
3BB
  8
0
  6
CONTINUOUS
 62
     3
 10
137.76715633399999
 20
146.099999999
 30
0.0
 11
137.78713601699999
 21
146.11997968200001
 31
0.0
  0
LINE
  5
3BC
  8
0
  6
CONTINUOUS
 62
     3
 10
137.88002031799999
 20
146.21286398199999
 30
0.0
 11
138.167156334
 21
146.49999999900001
 31
0.0
  0
LINE
  5
3BD
  8
0
  6
CONTINUOUS
 62
     3
 10
137.88431362200001
 20
146.49999999900001
 30
0.0
 11
137.83336050899999
 21
146.44904688599999
 31
0.0
  0
LINE
  5
3BE
  8
0
  6
CONTINUOUS
 62
     3
 10
138.80000000000001
 20
147.08431457399999
 30
0.0
 11
138.61568542500001
 21
146.89999999899999
 31
0.0
  0
LINE
  5
3BF
  8
0
  6
CONTINUOUS
 62
     3
 10
138.33284271299999
 20
146.89999999899999
 30
0.0
 11
138.732842713
 21
147.29999999899999
 31
0.0
  0
LINE
  5
3C0
  8
0
  6
CONTINUOUS
 62
     3
 10
138.44999999999999
 20
147.29999999899999
 30
0.0
 11
138.05000000000001
 21
146.89999999899999
 31
0.0
  0
LINE
  5
3C1
  8
0
  6
CONTINUOUS
 62
     3
 10
137.76715728799999
 20
146.89999999899999
 30
0.0
 11
137.78713786500001
 21
146.919980576
 31
0.0
  0
LINE
  5
3C2
  8
0
  6
CONTINUOUS
 62
     3
 10
137.88001942299999
 20
147.01286213399999
 30
0.0
 11
138.167157288
 21
147.29999999899999
 31
0.0
  0
LINE
  5
3C3
  8
0
  6
CONTINUOUS
 62
     3
 10
137.88431457499999
 20
147.29999999899999
 30
0.0
 11
137.833361013
 21
147.24904643599999
 31
0.0
  0
LINE
  5
3C4
  8
6
  6
CONTINUOUS
 62
     3
 10
133.69999999999999
 20
170.29999999899999
 30
0.0
 11
133.69999999999999
 21
153.29999999899999
 31
0.0
  0
LINE
  5
3C5
  8
6
  6
CONTINUOUS
 62
     3
 10
141.19999999999999
 20
153.29999999899999
 30
0.0
 11
141.19999999999999
 21
170.29999999899999
 31
0.0
  0
LINE
  5
3C6
  8
6
  6
CONTINUOUS
 62
     3
 10
141.19999999999999
 20
153.29999999899999
 30
0.0
 11
133.69999999999999
 21
153.29999999899999
 31
0.0
  0
LINE
  5
3C7
  8
6
  6
CONTINUOUS
 62
     3
 10
141.19999999999999
 20
170.29999999899999
 30
0.0
 11
133.69999999999999
 21
170.29999999899999
 31
0.0
  0
LINE
  5
3C8
  8
6
  6
CONTINUOUS
 62
     3
 10
133.69999999999999
 20
170.29999999899999
 30
0.0
 11
133.69999999999999
 21
153.29999999899999
 31
0.0
  0
LINE
  5
3C9
  8
6
  6
CONTINUOUS
 62
     3
 10
141.19999999999999
 20
153.29999999899999
 30
0.0
 11
141.19999999999999
 21
170.29999999899999
 31
0.0
  0
LINE
  5
3CA
  8
6
  6
CONTINUOUS
 62
     3
 10
141.19999999999999
 20
153.29999999899999
 30
0.0
 11
133.69999999999999
 21
153.29999999899999
 31
0.0
  0
LINE
  5
3CB
  8
6
  6
CONTINUOUS
 62
     3
 10
141.19999999999999
 20
170.29999999899999
 30
0.0
 11
133.69999999999999
 21
170.29999999899999
 31
0.0
  0
POINT
  5
3CC
  8
0
  6
CONTINUOUS
 62
     2
 10
133.69999999999999
 20
168.99999999900001
 30
0.0
  0
LINE
  5
3CD
  8
0
  6
CONTINUOUS
 62
     3
 10
137.90000000000001
 20
168.99999999900001
 30
0.0
 11
137.90000000000001
 21
167.699999999
 31
0.0
  0
LINE
  5
3CE
  8
0
  6
CONTINUOUS
 62
     3
 10
137.90000000000001
 20
166.39999999899999
 30
0.0
 11
137.90000000000001
 21
165.099999999
 31
0.0
  0
LINE
  5
3CF
  8
0
  6
CONTINUOUS
 62
     3
 10
137.90000000000001
 20
163.79999999899999
 30
0.0
 11
137.90000000000001
 21
162.4999999989999
 31
0.0
  0
LINE
  5
3D0
  8
0
  6
CONTINUOUS
 62
     3
 10
137.90000000000001
 20
161.199999999
 30
0.0
 11
137.90000000000001
 21
159.89999999899999
 31
0.0
  0
LINE
  5
3D1
  8
0
  6
CONTINUOUS
 62
     3
 10
137.90000000000001
 20
158.599999999
 30
0.0
 11
137.90000000000001
 21
157.29999999899999
 31
0.0
  0
LINE
  5
3D2
  8
0
  6
CONTINUOUS
 62
     3
 10
137.90000000000001
 20
155.99999999900001
 30
0.0
 11
137.90000000000001
 21
154.699999999
 31
0.0
  0
TEXT
  5
3D3
  8
0
  6
CONTINUOUS
 62
     3
 10
140.40000000000001
 20
154.29999999899999
 30
0.0
 40
2.0
  1
１
 50
90.0
  7
KANJI4
  0
TEXT
  5
3D4
  8
0
  6
CONTINUOUS
 62
     3
 10
140.40000000000001
 20
156.89999999899999
 30
0.0
 40
2.0
  1
２
 50
90.0
  7
KANJI4
  0
TEXT
  5
3D5
  8
0
  6
CONTINUOUS
 62
     3
 10
140.40000000000001
 20
159.4999999989999
 30
0.0
 40
2.0
  1
３
 50
90.0
  7
KANJI4
  0
TEXT
  5
3D6
  8
0
  6
CONTINUOUS
 62
     3
 10
140.40000000000001
 20
162.099999999
 30
0.0
 40
2.0
  1
４
 50
90.0
  7
KANJI4
  0
TEXT
  5
3D7
  8
0
  6
CONTINUOUS
 62
     3
 10
140.40000000000001
 20
164.699999999
 30
0.0
 40
2.0
  1
５
 50
90.0
  7
KANJI4
  0
TEXT
  5
3D8
  8
0
  6
CONTINUOUS
 62
     3
 10
140.40000000000001
 20
167.29999999899999
 30
0.0
 40
2.0
  1
６
 50
90.0
  7
KANJI4
  0
LINE
  5
3D9
  8
0
  6
CONTINUOUS
 62
     3
 10
133.69999999999999
 20
168.99999999900001
 30
0.0
 11
137.90000000000001
 21
168.99999999900001
 31
0.0
  0
LINE
  5
3DA
  8
0
  6
CONTINUOUS
 62
     3
 10
133.69999999999999
 20
167.699999999
 30
0.0
 11
137.90000000000001
 21
167.699999999
 31
0.0
  0
LINE
  5
3DB
  8
0
  6
CONTINUOUS
 62
     3
 10
133.69999999999999
 20
166.39999999899999
 30
0.0
 11
137.90000000000001
 21
166.39999999899999
 31
0.0
  0
LINE
  5
3DC
  8
0
  6
CONTINUOUS
 62
     3
 10
133.69999999999999
 20
165.099999999
 30
0.0
 11
137.90000000000001
 21
165.099999999
 31
0.0
  0
LINE
  5
3DD
  8
0
  6
CONTINUOUS
 62
     3
 10
133.69999999999999
 20
163.79999999899999
 30
0.0
 11
137.90000000000001
 21
163.79999999899999
 31
0.0
  0
LINE
  5
3DE
  8
0
  6
CONTINUOUS
 62
     3
 10
133.69999999999999
 20
162.4999999989999
 30
0.0
 11
137.90000000000001
 21
162.4999999989999
 31
0.0
  0
LINE
  5
3DF
  8
0
  6
CONTINUOUS
 62
     3
 10
133.69999999999999
 20
161.199999999
 30
0.0
 11
137.90000000000001
 21
161.199999999
 31
0.0
  0
LINE
  5
3E0
  8
0
  6
CONTINUOUS
 62
     3
 10
133.69999999999999
 20
159.89999999899999
 30
0.0
 11
137.90000000000001
 21
159.89999999899999
 31
0.0
  0
LINE
  5
3E1
  8
0
  6
CONTINUOUS
 62
     3
 10
133.69999999999999
 20
158.599999999
 30
0.0
 11
137.90000000000001
 21
158.599999999
 31
0.0
  0
LINE
  5
3E2
  8
0
  6
CONTINUOUS
 62
     3
 10
133.69999999999999
 20
157.29999999899999
 30
0.0
 11
137.90000000000001
 21
157.29999999899999
 31
0.0
  0
LINE
  5
3E3
  8
0
  6
CONTINUOUS
 62
     3
 10
133.69999999999999
 20
155.99999999900001
 30
0.0
 11
137.90000000000001
 21
155.99999999900001
 31
0.0
  0
LINE
  5
3E4
  8
0
  6
CONTINUOUS
 62
     3
 10
133.69999999999999
 20
154.699999999
 30
0.0
 11
137.90000000000001
 21
154.699999999
 31
0.0
  0
POLYLINE
  5
3E5
  8
0
  6
CONTINUOUS
 62
     2
 66
     1
 10
0.0
 20
0.0
 30
0.0
 70
     1
  0
VERTEX
  5
649
  8
0
  6
CONTINUOUS
 62
     2
 10
133.69999999999999
 20
167.699999999
 30
0.0
  0
VERTEX
  5
64A
  8
0
  6
CONTINUOUS
 62
     2
 10
135.19999999999999
 20
167.699999999
 30
0.0
  0
VERTEX
  5
64B
  8
0
  6
CONTINUOUS
 62
     2
 10
135.19999999999999
 20
168.99999999900001
 30
0.0
  0
VERTEX
  5
64C
  8
0
  6
CONTINUOUS
 62
     2
 10
133.69999999999999
 20
168.99999999900001
 30
0.0
  0
SEQEND
  5
64D
  8
0
  6
CONTINUOUS
 62
     2
  0
LINE
  5
3EB
  8
0
  6
CONTINUOUS
 62
     2
 10
135.19999999999999
 20
165.099999999
 30
0.0
 11
135.19999999999999
 21
166.39999999899999
 31
0.0
  0
LINE
  5
3EC
  8
0
  6
CONTINUOUS
 62
     2
 10
133.69999999999999
 20
166.39999999899999
 30
0.0
 11
133.69999999999999
 21
165.099999999
 31
0.0
  0
LINE
  5
3ED
  8
0
  6
CONTINUOUS
 62
     3
 10
133.69999999999999
 20
166.39999999899999
 30
0.0
 11
137.90000000000001
 21
166.39999999899999
 31
0.0
  0
LINE
  5
3EE
  8
0
  6
CONTINUOUS
 62
     3
 10
133.69999999999999
 20
165.099999999
 30
0.0
 11
137.90000000000001
 21
165.099999999
 31
0.0
  0
LINE
  5
3EF
  8
0
  6
CONTINUOUS
 62
     2
 10
133.69999999999999
 20
165.099999999
 30
0.0
 11
135.19999999999999
 21
165.099999999
 31
0.0
  0
LINE
  5
3F0
  8
0
  6
CONTINUOUS
 62
     2
 10
135.19999999999999
 20
166.39999999899999
 30
0.0
 11
133.69999999999999
 21
166.39999999899999
 31
0.0
  0
LINE
  5
3F1
  8
0
  6
CONTINUOUS
 62
     3
 10
133.69999999999999
 20
161.199999999
 30
0.0
 11
137.90000000000001
 21
161.199999999
 31
0.0
  0
LINE
  5
3F2
  8
0
  6
CONTINUOUS
 62
     3
 10
133.69999999999999
 20
159.89999999899999
 30
0.0
 11
137.90000000000001
 21
159.89999999899999
 31
0.0
  0
LINE
  5
3F3
  8
0
  6
CONTINUOUS
 62
     3
 10
133.69999999999999
 20
158.599999999
 30
0.0
 11
137.90000000000001
 21
158.599999999
 31
0.0
  0
LINE
  5
3F4
  8
0
  6
CONTINUOUS
 62
     3
 10
133.69999999999999
 20
157.29999999899999
 30
0.0
 11
137.90000000000001
 21
157.29999999899999
 31
0.0
  0
LINE
  5
3F5
  8
0
  6
CONTINUOUS
 62
     2
 10
133.69999999999999
 20
159.89999999899999
 30
0.0
 11
135.19999999999999
 21
159.89999999899999
 31
0.0
  0
LINE
  5
3F6
  8
0
  6
CONTINUOUS
 62
     2
 10
135.19999999999999
 20
161.199999999
 30
0.0
 11
133.69999999999999
 21
161.199999999
 31
0.0
  0
LINE
  5
3F7
  8
0
  6
CONTINUOUS
 62
     3
 10
133.69999999999999
 20
158.599999999
 30
0.0
 11
137.90000000000001
 21
158.599999999
 31
0.0
  0
LINE
  5
3F8
  8
0
  6
CONTINUOUS
 62
     3
 10
133.69999999999999
 20
157.29999999899999
 30
0.0
 11
137.90000000000001
 21
157.29999999899999
 31
0.0
  0
LINE
  5
3F9
  8
0
  6
CONTINUOUS
 62
     2
 10
133.69999999999999
 20
157.29999999899999
 30
0.0
 11
135.19999999999999
 21
157.29999999899999
 31
0.0
  0
LINE
  5
3FA
  8
0
  6
CONTINUOUS
 62
     2
 10
135.19999999999999
 20
158.599999999
 30
0.0
 11
133.69999999999999
 21
158.599999999
 31
0.0
  0
LINE
  5
3FB
  8
0
  6
CONTINUOUS
 62
     3
 10
133.69999999999999
 20
163.79999999899999
 30
0.0
 11
137.90000000000001
 21
163.79999999899999
 31
0.0
  0
LINE
  5
3FC
  8
0
  6
CONTINUOUS
 62
     3
 10
133.69999999999999
 20
162.4999999989999
 30
0.0
 11
137.90000000000001
 21
162.4999999989999
 31
0.0
  0
LINE
  5
3FD
  8
0
  6
CONTINUOUS
 62
     3
 10
133.69999999999999
 20
163.79999999899999
 30
0.0
 11
137.90000000000001
 21
163.79999999899999
 31
0.0
  0
LINE
  5
3FE
  8
0
  6
CONTINUOUS
 62
     3
 10
133.69999999999999
 20
162.4999999989999
 30
0.0
 11
137.90000000000001
 21
162.4999999989999
 31
0.0
  0
LINE
  5
3FF
  8
0
  6
CONTINUOUS
 62
     2
 10
133.69999999999999
 20
162.4999999989999
 30
0.0
 11
135.19999999999999
 21
162.4999999989999
 31
0.0
  0
LINE
  5
400
  8
0
  6
CONTINUOUS
 62
     2
 10
135.19999999999999
 20
163.79999999899999
 30
0.0
 11
133.69999999999999
 21
163.79999999899999
 31
0.0
  0
LINE
  5
401
  8
0
  6
CONTINUOUS
 62
     2
 10
135.19999999999999
 20
162.4999999989999
 30
0.0
 11
135.19999999999999
 21
163.79999999899999
 31
0.0
  0
LINE
  5
402
  8
0
  6
CONTINUOUS
 62
     2
 10
133.69999999999999
 20
163.79999999899999
 30
0.0
 11
133.69999999999999
 21
162.4999999989999
 31
0.0
  0
LINE
  5
403
  8
0
  6
CONTINUOUS
 62
     2
 10
135.19999999999999
 20
159.89999999899999
 30
0.0
 11
135.19999999999999
 21
161.199999999
 31
0.0
  0
LINE
  5
404
  8
0
  6
CONTINUOUS
 62
     2
 10
133.69999999999999
 20
161.199999999
 30
0.0
 11
133.69999999999999
 21
159.89999999899999
 31
0.0
  0
LINE
  5
405
  8
0
  6
CONTINUOUS
 62
     2
 10
135.19999999999999
 20
157.29999999899999
 30
0.0
 11
135.19999999999999
 21
158.599999999
 31
0.0
  0
LINE
  5
406
  8
0
  6
CONTINUOUS
 62
     2
 10
133.69999999999999
 20
158.599999999
 30
0.0
 11
133.69999999999999
 21
157.29999999899999
 31
0.0
  0
LINE
  5
407
  8
0
  6
CONTINUOUS
 62
     2
 10
135.19999999999999
 20
154.699999999
 30
0.0
 11
135.19999999999999
 21
155.99999999900001
 31
0.0
  0
LINE
  5
408
  8
0
  6
CONTINUOUS
 62
     2
 10
133.69999999999999
 20
155.99999999900001
 30
0.0
 11
133.69999999999999
 21
154.699999999
 31
0.0
  0
LINE
  5
409
  8
0
  6
CONTINUOUS
 62
     3
 10
133.69999999999999
 20
155.99999999900001
 30
0.0
 11
137.90000000000001
 21
155.99999999900001
 31
0.0
  0
LINE
  5
40A
  8
0
  6
CONTINUOUS
 62
     3
 10
133.69999999999999
 20
154.699999999
 30
0.0
 11
137.90000000000001
 21
154.699999999
 31
0.0
  0
LINE
  5
40B
  8
0
  6
CONTINUOUS
 62
     3
 10
133.69999999999999
 20
155.99999999900001
 30
0.0
 11
137.90000000000001
 21
155.99999999900001
 31
0.0
  0
LINE
  5
40C
  8
0
  6
CONTINUOUS
 62
     3
 10
133.69999999999999
 20
154.699999999
 30
0.0
 11
137.90000000000001
 21
154.699999999
 31
0.0
  0
LINE
  5
40D
  8
0
  6
CONTINUOUS
 62
     3
 10
133.69999999999999
 20
155.99999999900001
 30
0.0
 11
137.90000000000001
 21
155.99999999900001
 31
0.0
  0
LINE
  5
40E
  8
0
  6
CONTINUOUS
 62
     3
 10
133.69999999999999
 20
154.699999999
 30
0.0
 11
137.90000000000001
 21
154.699999999
 31
0.0
  0
LINE
  5
40F
  8
0
  6
CONTINUOUS
 62
     2
 10
133.69999999999999
 20
154.699999999
 30
0.0
 11
135.19999999999999
 21
154.699999999
 31
0.0
  0
LINE
  5
410
  8
0
  6
CONTINUOUS
 62
     2
 10
135.19999999999999
 20
155.99999999900001
 30
0.0
 11
133.69999999999999
 21
155.99999999900001
 31
0.0
  0
LINE
  5
411
  8
0
  6
CONTINUOUS
 62
     3
 10
133.69999999999999
 20
168.731370849
 30
0.0
 11
133.96862915
 21
168.99999999900001
 31
0.0
  0
LINE
  5
412
  8
0
  6
CONTINUOUS
 62
     3
 10
134.25147186300001
 20
168.99999999900001
 30
0.0
 11
133.69999999999999
 21
168.44852813599999
 31
0.0
  0
LINE
  5
413
  8
0
  6
CONTINUOUS
 62
     3
 10
133.69999999999999
 20
168.165685424
 30
0.0
 11
134.534314575
 21
168.99999999900001
 31
0.0
  0
LINE
  5
414
  8
0
  6
CONTINUOUS
 62
     3
 10
134.817157288
 20
168.99999999900001
 30
0.0
 11
133.69999999999999
 21
167.882842711
 31
0.0
  0
LINE
  5
415
  8
0
  6
CONTINUOUS
 62
     3
 10
133.80000000000001
 20
167.699999999
 30
0.0
 11
135.09999999999999
 21
168.99999999900001
 31
0.0
  0
LINE
  5
416
  8
0
  6
CONTINUOUS
 62
     3
 10
135.19999999999999
 20
168.817157286
 30
0.0
 11
134.08284271299999
 21
167.699999999
 31
0.0
  0
LINE
  5
417
  8
0
  6
CONTINUOUS
 62
     3
 10
134.36568542500001
 20
167.699999999
 30
0.0
 11
135.19999999999999
 21
168.53431457400001
 31
0.0
  0
LINE
  5
418
  8
0
  6
CONTINUOUS
 62
     3
 10
135.19999999999999
 20
168.251471861
 30
0.0
 11
134.64852813799999
 21
167.699999999
 31
0.0
  0
LINE
  5
419
  8
0
  6
CONTINUOUS
 62
     3
 10
134.93137085000001
 20
167.699999999
 30
0.0
 11
135.19999999999999
 21
167.96862914900001
 31
0.0
  0
LINE
  5
41A
  8
0
  6
CONTINUOUS
 62
     3
 10
133.69999999999999
 20
166.13137084900001
 30
0.0
 11
133.96862915
 21
166.39999999899999
 31
0.0
  0
LINE
  5
41B
  8
0
  6
CONTINUOUS
 62
     3
 10
134.25147186300001
 20
166.39999999899999
 30
0.0
 11
133.69999999999999
 21
165.848528136
 31
0.0
  0
LINE
  5
41C
  8
0
  6
CONTINUOUS
 62
     3
 10
133.69999999999999
 20
165.56568542400001
 30
0.0
 11
134.534314575
 21
166.39999999899999
 31
0.0
  0
LINE
  5
41D
  8
0
  6
CONTINUOUS
 62
     3
 10
134.817157288
 20
166.39999999899999
 30
0.0
 11
133.69999999999999
 21
165.282842711
 31
0.0
  0
LINE
  5
41E
  8
0
  6
CONTINUOUS
 62
     3
 10
133.80000000000001
 20
165.099999999
 30
0.0
 11
135.09999999999999
 21
166.39999999899999
 31
0.0
  0
LINE
  5
41F
  8
0
  6
CONTINUOUS
 62
     3
 10
135.19999999999999
 20
166.217157286
 30
0.0
 11
134.08284271299999
 21
165.099999999
 31
0.0
  0
LINE
  5
420
  8
0
  6
CONTINUOUS
 62
     3
 10
134.36568542500001
 20
165.099999999
 30
0.0
 11
135.19999999999999
 21
165.93431457400001
 31
0.0
  0
LINE
  5
421
  8
0
  6
CONTINUOUS
 62
     3
 10
135.19999999999999
 20
165.651471861
 30
0.0
 11
134.64852813799999
 21
165.099999999
 31
0.0
  0
LINE
  5
422
  8
0
  6
CONTINUOUS
 62
     3
 10
134.93137085000001
 20
165.099999999
 30
0.0
 11
135.19999999999999
 21
165.36862914899999
 31
0.0
  0
LINE
  5
423
  8
0
  6
CONTINUOUS
 62
     3
 10
133.69999999999999
 20
163.53137084900001
 30
0.0
 11
133.96862915
 21
163.79999999899999
 31
0.0
  0
LINE
  5
424
  8
0
  6
CONTINUOUS
 62
     3
 10
134.25147186300001
 20
163.79999999899999
 30
0.0
 11
133.69999999999999
 21
163.248528136
 31
0.0
  0
LINE
  5
425
  8
0
  6
CONTINUOUS
 62
     3
 10
133.69999999999999
 20
162.96568542399999
 30
0.0
 11
134.534314575
 21
163.79999999899999
 31
0.0
  0
LINE
  5
426
  8
0
  6
CONTINUOUS
 62
     3
 10
134.817157288
 20
163.79999999899999
 30
0.0
 11
133.69999999999999
 21
162.68284271100001
 31
0.0
  0
LINE
  5
427
  8
0
  6
CONTINUOUS
 62
     3
 10
133.80000000000001
 20
162.4999999989999
 30
0.0
 11
135.09999999999999
 21
163.79999999899999
 31
0.0
  0
LINE
  5
428
  8
0
  6
CONTINUOUS
 62
     3
 10
135.19999999999999
 20
163.61715728600001
 30
0.0
 11
134.08284271299999
 21
162.4999999989999
 31
0.0
  0
LINE
  5
429
  8
0
  6
CONTINUOUS
 62
     3
 10
134.36568542500001
 20
162.4999999989999
 30
0.0
 11
135.19999999999999
 21
163.33431457399999
 31
0.0
  0
LINE
  5
42A
  8
0
  6
CONTINUOUS
 62
     3
 10
135.19999999999999
 20
163.05147186100001
 30
0.0
 11
134.64852813799999
 21
162.4999999989999
 31
0.0
  0
LINE
  5
42B
  8
0
  6
CONTINUOUS
 62
     3
 10
134.93137085000001
 20
162.4999999989999
 30
0.0
 11
135.19999999999999
 21
162.76862914899999
 31
0.0
  0
LINE
  5
42C
  8
0
  6
CONTINUOUS
 62
     3
 10
133.69999999999999
 20
160.93137084899999
 30
0.0
 11
133.96862915
 21
161.199999999
 31
0.0
  0
LINE
  5
42D
  8
0
  6
CONTINUOUS
 62
     3
 10
134.25147186300001
 20
161.199999999
 30
0.0
 11
133.69999999999999
 21
160.64852813600001
 31
0.0
  0
LINE
  5
42E
  8
0
  6
CONTINUOUS
 62
     3
 10
133.69999999999999
 20
160.36568542399999
 30
0.0
 11
134.534314575
 21
161.199999999
 31
0.0
  0
LINE
  5
42F
  8
0
  6
CONTINUOUS
 62
     3
 10
134.817157288
 20
161.199999999
 30
0.0
 11
133.69999999999999
 21
160.08284271100001
 31
0.0
  0
LINE
  5
430
  8
0
  6
CONTINUOUS
 62
     3
 10
133.80000000000001
 20
159.89999999899999
 30
0.0
 11
135.09999999999999
 21
161.199999999
 31
0.0
  0
LINE
  5
431
  8
0
  6
CONTINUOUS
 62
     3
 10
135.19999999999999
 20
161.01715728600001
 30
0.0
 11
134.08284271299999
 21
159.89999999899999
 31
0.0
  0
LINE
  5
432
  8
0
  6
CONTINUOUS
 62
     3
 10
134.36568542500001
 20
159.89999999899999
 30
0.0
 11
135.19999999999999
 21
160.734314574
 31
0.0
  0
LINE
  5
433
  8
0
  6
CONTINUOUS
 62
     3
 10
135.19999999999999
 20
160.45147186099999
 30
0.0
 11
134.64852813799999
 21
159.89999999899999
 31
0.0
  0
LINE
  5
434
  8
0
  6
CONTINUOUS
 62
     3
 10
134.93137085000001
 20
159.89999999899999
 30
0.0
 11
135.19999999999999
 21
160.168629149
 31
0.0
  0
LINE
  5
435
  8
0
  6
CONTINUOUS
 62
     3
 10
133.69999999999999
 20
158.331370849
 30
0.0
 11
133.96862915
 21
158.599999999
 31
0.0
  0
LINE
  5
436
  8
0
  6
CONTINUOUS
 62
     3
 10
134.25147186300001
 20
158.599999999
 30
0.0
 11
133.69999999999999
 21
158.04852813599999
 31
0.0
  0
LINE
  5
437
  8
0
  6
CONTINUOUS
 62
     3
 10
133.69999999999999
 20
157.765685424
 30
0.0
 11
134.534314575
 21
158.599999999
 31
0.0
  0
LINE
  5
438
  8
0
  6
CONTINUOUS
 62
     3
 10
134.817157288
 20
158.599999999
 30
0.0
 11
133.69999999999999
 21
157.48284271099999
 31
0.0
  0
LINE
  5
439
  8
0
  6
CONTINUOUS
 62
     3
 10
133.80000000000001
 20
157.29999999899999
 30
0.0
 11
135.09999999999999
 21
158.599999999
 31
0.0
  0
LINE
  5
43A
  8
0
  6
CONTINUOUS
 62
     3
 10
135.19999999999999
 20
158.41715728599999
 30
0.0
 11
134.08284271299999
 21
157.29999999899999
 31
0.0
  0
LINE
  5
43B
  8
0
  6
CONTINUOUS
 62
     3
 10
134.36568542500001
 20
157.29999999899999
 30
0.0
 11
135.19999999999999
 21
158.134314574
 31
0.0
  0
LINE
  5
43C
  8
0
  6
CONTINUOUS
 62
     3
 10
135.19999999999999
 20
157.85147186099999
 30
0.0
 11
134.64852813799999
 21
157.29999999899999
 31
0.0
  0
LINE
  5
43D
  8
0
  6
CONTINUOUS
 62
     3
 10
134.93137085000001
 20
157.29999999899999
 30
0.0
 11
135.19999999999999
 21
157.568629149
 31
0.0
  0
LINE
  5
43E
  8
0
  6
CONTINUOUS
 62
     3
 10
133.69999999999999
 20
155.731370849
 30
0.0
 11
133.96862915
 21
155.99999999900001
 31
0.0
  0
LINE
  5
43F
  8
0
  6
CONTINUOUS
 62
     3
 10
134.25147186300001
 20
155.99999999900001
 30
0.0
 11
133.69999999999999
 21
155.44852813599999
 31
0.0
  0
LINE
  5
440
  8
0
  6
CONTINUOUS
 62
     3
 10
133.69999999999999
 20
155.165685424
 30
0.0
 11
134.534314575
 21
155.99999999900001
 31
0.0
  0
LINE
  5
441
  8
0
  6
CONTINUOUS
 62
     3
 10
134.817157288
 20
155.99999999900001
 30
0.0
 11
133.69999999999999
 21
154.882842711
 31
0.0
  0
LINE
  5
442
  8
0
  6
CONTINUOUS
 62
     3
 10
133.80000000000001
 20
154.699999999
 30
0.0
 11
135.09999999999999
 21
155.99999999900001
 31
0.0
  0
LINE
  5
443
  8
0
  6
CONTINUOUS
 62
     3
 10
135.19999999999999
 20
155.817157286
 30
0.0
 11
134.08284271299999
 21
154.699999999
 31
0.0
  0
LINE
  5
444
  8
0
  6
CONTINUOUS
 62
     3
 10
134.36568542500001
 20
154.699999999
 30
0.0
 11
135.19999999999999
 21
155.53431457400001
 31
0.0
  0
LINE
  5
445
  8
0
  6
CONTINUOUS
 62
     3
 10
135.19999999999999
 20
155.251471861
 30
0.0
 11
134.64852813799999
 21
154.699999999
 31
0.0
  0
LINE
  5
446
  8
0
  6
CONTINUOUS
 62
     3
 10
134.93137085000001
 20
154.699999999
 30
0.0
 11
135.19999999999999
 21
154.96862914900001
 31
0.0
  0
ENDSEC
  0
EOF
