  0
SECTION
  2
HEADER
  9
$ACADVER
  1
AC1015
  9
$ACADMAINTVER
 70
     6
  9
$DWGCODEPAGE
  3
ANSI_932
  9
$INSBASE
 10
0.0
 20
0.0
 30
0.0
  9
$EXTMIN
 10
-948.9509260754545
 20
-501.7690072181347
 30
0.0
  9
$EXTMAX
 10
-737.6009260754544
 20
-297.8690072181346
 30
0.3
  9
$LIMMIN
 10
0.0
 20
0.0
  9
$LIMMAX
 10
420.0
 20
297.0
  9
$ORTHOMODE
 70
     0
  9
$REGENMODE
 70
     1
  9
$FILLMODE
 70
     1
  9
$QTEXTMODE
 70
     0
  9
$MIRRTEXT
 70
     1
  9
$LTSCALE
 40
1.0
  9
$ATTMODE
 70
     1
  9
$TEXTSIZE
 40
0.2
  9
$TRACEWID
 40
0.05
  9
$TEXTSTYLE
  7
STANDARD
  9
$CLAYER
  8
0
  9
$CELTYPE
  6
CONTINUOUS
  9
$CECOLOR
 62
   256
  9
$CELTSCALE
 40
1.0
  9
$DISPSILH
 70
     0
  9
$DIMSCALE
 40
1.0
  9
$DIMASZ
 40
0.18
  9
$DIMEXO
 40
0.0625
  9
$DIMDLI
 40
0.38
  9
$DIMRND
 40
0.0
  9
$DIMDLE
 40
0.0
  9
$DIMEXE
 40
0.18
  9
$DIMTP
 40
0.0
  9
$DIMTM
 40
0.0
  9
$DIMTXT
 40
0.18
  9
$DIMCEN
 40
0.09
  9
$DIMTSZ
 40
0.0
  9
$DIMTOL
 70
     0
  9
$DIMLIM
 70
     0
  9
$DIMTIH
 70
     1
  9
$DIMTOH
 70
     1
  9
$DIMSE1
 70
     0
  9
$DIMSE2
 70
     0
  9
$DIMTAD
 70
     0
  9
$DIMZIN
 70
     0
  9
$DIMBLK
  1

  9
$DIMASO
 70
     1
  9
$DIMSHO
 70
     1
  9
$DIMPOST
  1

  9
$DIMAPOST
  1

  9
$DIMALT
 70
     0
  9
$DIMALTD
 70
     2
  9
$DIMALTF
 40
25.4
  9
$DIMLFAC
 40
1.0
  9
$DIMTOFL
 70
     0
  9
$DIMTVP
 40
0.0
  9
$DIMTIX
 70
     0
  9
$DIMSOXD
 70
     0
  9
$DIMSAH
 70
     0
  9
$DIMBLK1
  1

  9
$DIMBLK2
  1

  9
$DIMSTYLE
  2
Standard
  9
$DIMCLRD
 70
     0
  9
$DIMCLRE
 70
     0
  9
$DIMCLRT
 70
     0
  9
$DIMTFAC
 40
1.0
  9
$DIMGAP
 40
0.09
  9
$DIMJUST
 70
     0
  9
$DIMSD1
 70
     0
  9
$DIMSD2
 70
     0
  9
$DIMTOLJ
 70
     1
  9
$DIMTZIN
 70
     0
  9
$DIMALTZ
 70
     0
  9
$DIMALTTZ
 70
     0
  9
$DIMUPT
 70
     0
  9
$DIMDEC
 70
     4
  9
$DIMTDEC
 70
     4
  9
$DIMALTU
 70
     2
  9
$DIMALTTD
 70
     2
  9
$DIMTXSTY
  7
STANDARD
  9
$DIMAUNIT
 70
     0
  9
$DIMADEC
 70
     0
  9
$DIMALTRND
 40
0.0
  9
$DIMAZIN
 70
     0
  9
$DIMDSEP
 70
    46
  9
$DIMATFIT
 70
     3
  9
$DIMFRAC
 70
     0
  9
$DIMLDRBLK
  1

  9
$DIMLUNIT
 70
     2
  9
$DIMLWD
 70
    -2
  9
$DIMLWE
 70
    -2
  9
$DIMTMOVE
 70
     0
  9
$LUNITS
 70
     2
  9
$LUPREC
 70
     4
  9
$SKETCHINC
 40
0.1
  9
$FILLETRAD
 40
0.0
  9
$AUNITS
 70
     0
  9
$AUPREC
 70
     0
  9
$MENU
  1
.
  9
$ELEVATION
 40
0.0
  9
$PELEVATION
 40
0.0
  9
$THICKNESS
 40
0.0
  9
$LIMCHECK
 70
     0
  9
$CHAMFERA
 40
0.0
  9
$CHAMFERB
 40
0.0
  9
$CHAMFERC
 40
0.0
  9
$CHAMFERD
 40
0.0
  9
$SKPOLY
 70
     0
  9
$TDCREATE
 40
2452699.559195486
  9
$TDUCREATE
 40
2452699.184195485
  9
$TDUPDATE
 40
2452699.566245486
  9
$TDUUPDATE
 40
2452699.191245486
  9
$TDINDWG
 40
0.0070506944
  9
$TDUSRTIMER
 40
0.0070506944
  9
$USRTIMER
 70
     1
  9
$ANGBASE
 50
0.0
  9
$ANGDIR
 70
     0
  9
$PDMODE
 70
     0
  9
$PDSIZE
 40
0.0
  9
$PLINEWID
 40
0.0
  9
$SPLFRAME
 70
     0
  9
$SPLINETYPE
 70
     6
  9
$SPLINESEGS
 70
     8
  9
$HANDSEED
  5
443
  9
$SURFTAB1
 70
     6
  9
$SURFTAB2
 70
     6
  9
$SURFTYPE
 70
     6
  9
$SURFU
 70
     6
  9
$SURFV
 70
     6
  9
$UCSBASE
  2

  9
$UCSNAME
  2

  9
$UCSORG
 10
0.0
 20
0.0
 30
0.0
  9
$UCSXDIR
 10
1.0
 20
0.0
 30
0.0
  9
$UCSYDIR
 10
0.0
 20
1.0
 30
0.0
  9
$UCSORTHOREF
  2

  9
$UCSORTHOVIEW
 70
     0
  9
$UCSORGTOP
 10
0.0
 20
0.0
 30
0.0
  9
$UCSORGBOTTOM
 10
0.0
 20
0.0
 30
0.0
  9
$UCSORGLEFT
 10
0.0
 20
0.0
 30
0.0
  9
$UCSORGRIGHT
 10
0.0
 20
0.0
 30
0.0
  9
$UCSORGFRONT
 10
0.0
 20
0.0
 30
0.0
  9
$UCSORGBACK
 10
0.0
 20
0.0
 30
0.0
  9
$PUCSBASE
  2

  9
$PUCSNAME
  2

  9
$PUCSORG
 10
0.0
 20
0.0
 30
0.0
  9
$PUCSXDIR
 10
1.0
 20
0.0
 30
0.0
  9
$PUCSYDIR
 10
0.0
 20
1.0
 30
0.0
  9
$PUCSORTHOREF
  2

  9
$PUCSORTHOVIEW
 70
     0
  9
$PUCSORGTOP
 10
0.0
 20
0.0
 30
0.0
  9
$PUCSORGBOTTOM
 10
0.0
 20
0.0
 30
0.0
  9
$PUCSORGLEFT
 10
0.0
 20
0.0
 30
0.0
  9
$PUCSORGRIGHT
 10
0.0
 20
0.0
 30
0.0
  9
$PUCSORGFRONT
 10
0.0
 20
0.0
 30
0.0
  9
$PUCSORGBACK
 10
0.0
 20
0.0
 30
0.0
  9
$USERI1
 70
     0
  9
$USERI2
 70
     0
  9
$USERI3
 70
     0
  9
$USERI4
 70
     0
  9
$USERI5
 70
     0
  9
$USERR1
 40
0.0
  9
$USERR2
 40
0.0
  9
$USERR3
 40
0.0
  9
$USERR4
 40
0.0
  9
$USERR5
 40
0.0
  9
$WORLDVIEW
 70
     1
  9
$SHADEDGE
 70
     3
  9
$SHADEDIF
 70
    70
  9
$TILEMODE
 70
     1
  9
$MAXACTVP
 70
    64
  9
$PINSBASE
 10
0.0
 20
0.0
 30
0.0
  9
$PLIMCHECK
 70
     0
  9
$PEXTMIN
 10
1.000000000000000E+20
 20
1.000000000000000E+20
 30
1.000000000000000E+20
  9
$PEXTMAX
 10
-1.000000000000000E+20
 20
-1.000000000000000E+20
 30
-1.000000000000000E+20
  9
$PLIMMIN
 10
0.0
 20
0.0
  9
$PLIMMAX
 10
12.0
 20
9.0
  9
$UNITMODE
 70
     0
  9
$VISRETAIN
 70
     1
  9
$PLINEGEN
 70
     0
  9
$PSLTSCALE
 70
     1
  9
$TREEDEPTH
 70
  3020
  9
$CMLSTYLE
  2
Standard
  9
$CMLJUST
 70
     0
  9
$CMLSCALE
 40
1.0
  9
$PROXYGRAPHICS
 70
     1
  9
$MEASUREMENT
 70
     0
  9
$CELWEIGHT
370
    -1
  9
$ENDCAPS
280
     0
  9
$JOINSTYLE
280
     0
  9
$LWDISPLAY
290
     0
  9
$INSUNITS
 70
     0
  9
$HYPERLINKBASE
  1

  9
$STYLESHEET
  1

  9
$XEDIT
290
     1
  9
$CEPSNTYPE
380
     0
  9
$PSTYLEMODE
290
     1
  9
$FINGERPRINTGUID
  2
{D3A630DE-FD62-406D-B700-5E1C0B05D4A4}
  9
$VERSIONGUID
  2
{39E5A2BE-B0D0-4629-962B-D69A8DF66B6D}
  9
$EXTNAMES
290
     1
  9
$PSVPSCALE
 40
0.0
  9
$OLESTARTUP
290
     0
  0
ENDSEC
  0
SECTION
  2
CLASSES
  0
CLASS
  1
ACDBDICTIONARYWDFLT
  2
AcDbDictionaryWithDefault
  3
AutoCAD 2000
 90
        0
280
     0
281
     0
  0
CLASS
  1
ACDBPLACEHOLDER
  2
AcDbPlaceHolder
  3
AutoCAD 2000
 90
        0
280
     0
281
     0
  0
CLASS
  1
LAYOUT
  2
AcDbLayout
  3
AutoCAD 2000
 90
        0
280
     0
281
     0
  0
ENDSEC
  0
SECTION
  2
TABLES
  0
TABLE
  2
VPORT
  5
8
330
0
100
AcDbSymbolTable
 70
     7
  0
VPORT
  5
442
330
8
100
AcDbSymbolTableRecord
100
AcDbViewportTableRecord
  2
*Active
 70
     0
 10
0.0
 20
0.0
 11
1.0
 21
1.0
 12
-886.3560751746854
 22
-417.6195270827455
 13
0.0
 23
0.0
 14
1.0
 24
1.0
 15
0.0
 25
0.0
 16
0.0
 26
0.0
 36
1.0
 17
0.0
 27
0.0
 37
0.0
 40
288.0000002444723
 41
1.761278195488721
 42
50.0
 43
0.0
 44
0.0
 50
0.0
 51
0.0
 71
     0
 72
   100
 73
     1
 74
     1
 75
     0
 76
     0
 77
     0
 78
     0
281
     0
 65
     1
110
0.0
120
0.0
130
0.0
111
1.0
121
0.0
131
0.0
112
0.0
122
1.0
132
0.0
 79
     0
146
0.0
  0
ENDTAB
  0
TABLE
  2
LTYPE
  5
5
330
0
100
AcDbSymbolTable
 70
     1
  0
LTYPE
  5
13
330
5
100
AcDbSymbolTableRecord
100
AcDbLinetypeTableRecord
  2
ByBlock
 70
     0
  3

 72
    65
 73
     0
 40
0.0
  0
LTYPE
  5
14
330
5
100
AcDbSymbolTableRecord
100
AcDbLinetypeTableRecord
  2
ByLayer
 70
     0
  3

 72
    65
 73
     0
 40
0.0
  0
LTYPE
  5
15
330
5
100
AcDbSymbolTableRecord
100
AcDbLinetypeTableRecord
  2
CONTINUOUS
 70
     0
  3
Solid line
 72
    65
 73
     0
 40
0.0
  0
ENDTAB
  0
TABLE
  2
LAYER
  5
2
330
0
100
AcDbSymbolTable
 70
   128
  0
LAYER
  5
10
330
2
100
AcDbSymbolTableRecord
100
AcDbLayerTableRecord
  2
0
 70
     0
 62
     7
  6
CONTINUOUS
370
    -3
390
F
  0
LAYER
  5
22
330
2
100
AcDbSymbolTableRecord
100
AcDbLayerTableRecord
  2
1
 70
     0
 62
     7
  6
CONTINUOUS
370
    -3
390
F
  0
LAYER
  5
23
330
2
100
AcDbSymbolTableRecord
100
AcDbLayerTableRecord
  2
2
 70
     0
 62
     7
  6
CONTINUOUS
370
    -3
390
F
  0
LAYER
  5
24
330
2
100
AcDbSymbolTableRecord
100
AcDbLayerTableRecord
  2
3
 70
     0
 62
     7
  6
CONTINUOUS
370
    -3
390
F
  0
LAYER
  5
25
330
2
100
AcDbSymbolTableRecord
100
AcDbLayerTableRecord
  2
4
 70
     0
 62
     7
  6
CONTINUOUS
370
    -3
390
F
  0
LAYER
  5
26
330
2
100
AcDbSymbolTableRecord
100
AcDbLayerTableRecord
  2
5
 70
     0
 62
     7
  6
CONTINUOUS
370
    -3
390
F
  0
LAYER
  5
27
330
2
100
AcDbSymbolTableRecord
100
AcDbLayerTableRecord
  2
6
 70
     0
 62
     7
  6
CONTINUOUS
370
    -3
390
F
  0
LAYER
  5
28
330
2
100
AcDbSymbolTableRecord
100
AcDbLayerTableRecord
  2
7
 70
     0
 62
     7
  6
CONTINUOUS
370
    -3
390
F
  0
LAYER
  5
29
330
2
100
AcDbSymbolTableRecord
100
AcDbLayerTableRecord
  2
8
 70
     0
 62
     7
  6
CONTINUOUS
370
    -3
390
F
  0
LAYER
  5
2A
330
2
100
AcDbSymbolTableRecord
100
AcDbLayerTableRecord
  2
9
 70
     0
 62
     7
  6
CONTINUOUS
370
    -3
390
F
  0
LAYER
  5
2B
330
2
100
AcDbSymbolTableRecord
100
AcDbLayerTableRecord
  2
10
 70
     0
 62
     7
  6
CONTINUOUS
370
    -3
390
F
  0
LAYER
  5
2C
330
2
100
AcDbSymbolTableRecord
100
AcDbLayerTableRecord
  2
11
 70
     0
 62
     7
  6
CONTINUOUS
370
    -3
390
F
  0
LAYER
  5
2D
330
2
100
AcDbSymbolTableRecord
100
AcDbLayerTableRecord
  2
12
 70
     0
 62
     7
  6
CONTINUOUS
370
    -3
390
F
  0
LAYER
  5
2E
330
2
100
AcDbSymbolTableRecord
100
AcDbLayerTableRecord
  2
13
 70
     0
 62
     7
  6
CONTINUOUS
370
    -3
390
F
  0
LAYER
  5
2F
330
2
100
AcDbSymbolTableRecord
100
AcDbLayerTableRecord
  2
14
 70
     0
 62
     7
  6
CONTINUOUS
370
    -3
390
F
  0
LAYER
  5
30
330
2
100
AcDbSymbolTableRecord
100
AcDbLayerTableRecord
  2
15
 70
     0
 62
     7
  6
CONTINUOUS
370
    -3
390
F
  0
LAYER
  5
31
330
2
100
AcDbSymbolTableRecord
100
AcDbLayerTableRecord
  2
16
 70
     0
 62
     7
  6
CONTINUOUS
370
    -3
390
F
  0
LAYER
  5
32
330
2
100
AcDbSymbolTableRecord
100
AcDbLayerTableRecord
  2
17
 70
     0
 62
     7
  6
CONTINUOUS
370
    -3
390
F
  0
LAYER
  5
33
330
2
100
AcDbSymbolTableRecord
100
AcDbLayerTableRecord
  2
18
 70
     0
 62
     7
  6
CONTINUOUS
370
    -3
390
F
  0
LAYER
  5
34
330
2
100
AcDbSymbolTableRecord
100
AcDbLayerTableRecord
  2
19
 70
     0
 62
     7
  6
CONTINUOUS
370
    -3
390
F
  0
LAYER
  5
35
330
2
100
AcDbSymbolTableRecord
100
AcDbLayerTableRecord
  2
20
 70
     0
 62
     7
  6
CONTINUOUS
370
    -3
390
F
  0
LAYER
  5
36
330
2
100
AcDbSymbolTableRecord
100
AcDbLayerTableRecord
  2
21
 70
     0
 62
     7
  6
CONTINUOUS
370
    -3
390
F
  0
LAYER
  5
37
330
2
100
AcDbSymbolTableRecord
100
AcDbLayerTableRecord
  2
22
 70
     0
 62
     7
  6
CONTINUOUS
370
    -3
390
F
  0
LAYER
  5
38
330
2
100
AcDbSymbolTableRecord
100
AcDbLayerTableRecord
  2
23
 70
     0
 62
     7
  6
CONTINUOUS
370
    -3
390
F
  0
LAYER
  5
39
330
2
100
AcDbSymbolTableRecord
100
AcDbLayerTableRecord
  2
24
 70
     0
 62
     7
  6
CONTINUOUS
370
    -3
390
F
  0
LAYER
  5
3A
330
2
100
AcDbSymbolTableRecord
100
AcDbLayerTableRecord
  2
25
 70
     0
 62
     7
  6
CONTINUOUS
370
    -3
390
F
  0
LAYER
  5
3B
330
2
100
AcDbSymbolTableRecord
100
AcDbLayerTableRecord
  2
26
 70
     0
 62
     7
  6
CONTINUOUS
370
    -3
390
F
  0
LAYER
  5
3C
330
2
100
AcDbSymbolTableRecord
100
AcDbLayerTableRecord
  2
27
 70
     0
 62
     7
  6
CONTINUOUS
370
    -3
390
F
  0
LAYER
  5
3D
330
2
100
AcDbSymbolTableRecord
100
AcDbLayerTableRecord
  2
28
 70
     0
 62
     7
  6
CONTINUOUS
370
    -3
390
F
  0
LAYER
  5
3E
330
2
100
AcDbSymbolTableRecord
100
AcDbLayerTableRecord
  2
29
 70
     0
 62
     7
  6
CONTINUOUS
370
    -3
390
F
  0
LAYER
  5
3F
330
2
100
AcDbSymbolTableRecord
100
AcDbLayerTableRecord
  2
30
 70
     0
 62
     7
  6
CONTINUOUS
370
    -3
390
F
  0
LAYER
  5
40
330
2
100
AcDbSymbolTableRecord
100
AcDbLayerTableRecord
  2
31
 70
     0
 62
     7
  6
CONTINUOUS
370
    -3
390
F
  0
LAYER
  5
41
330
2
100
AcDbSymbolTableRecord
100
AcDbLayerTableRecord
  2
32
 70
     0
 62
     7
  6
CONTINUOUS
370
    -3
390
F
  0
LAYER
  5
42
330
2
100
AcDbSymbolTableRecord
100
AcDbLayerTableRecord
  2
33
 70
     0
 62
     7
  6
CONTINUOUS
370
    -3
390
F
  0
LAYER
  5
43
330
2
100
AcDbSymbolTableRecord
100
AcDbLayerTableRecord
  2
34
 70
     0
 62
     7
  6
CONTINUOUS
370
    -3
390
F
  0
LAYER
  5
44
330
2
100
AcDbSymbolTableRecord
100
AcDbLayerTableRecord
  2
35
 70
     0
 62
     7
  6
CONTINUOUS
370
    -3
390
F
  0
LAYER
  5
45
330
2
100
AcDbSymbolTableRecord
100
AcDbLayerTableRecord
  2
36
 70
     0
 62
     7
  6
CONTINUOUS
370
    -3
390
F
  0
LAYER
  5
46
330
2
100
AcDbSymbolTableRecord
100
AcDbLayerTableRecord
  2
37
 70
     0
 62
     7
  6
CONTINUOUS
370
    -3
390
F
  0
LAYER
  5
47
330
2
100
AcDbSymbolTableRecord
100
AcDbLayerTableRecord
  2
38
 70
     0
 62
     7
  6
CONTINUOUS
370
    -3
390
F
  0
LAYER
  5
48
330
2
100
AcDbSymbolTableRecord
100
AcDbLayerTableRecord
  2
39
 70
     0
 62
     7
  6
CONTINUOUS
370
    -3
390
F
  0
LAYER
  5
49
330
2
100
AcDbSymbolTableRecord
100
AcDbLayerTableRecord
  2
40
 70
     0
 62
     7
  6
CONTINUOUS
370
    -3
390
F
  0
LAYER
  5
4A
330
2
100
AcDbSymbolTableRecord
100
AcDbLayerTableRecord
  2
41
 70
     0
 62
     7
  6
CONTINUOUS
370
    -3
390
F
  0
LAYER
  5
4B
330
2
100
AcDbSymbolTableRecord
100
AcDbLayerTableRecord
  2
42
 70
     0
 62
     7
  6
CONTINUOUS
370
    -3
390
F
  0
LAYER
  5
4C
330
2
100
AcDbSymbolTableRecord
100
AcDbLayerTableRecord
  2
43
 70
     0
 62
     7
  6
CONTINUOUS
370
    -3
390
F
  0
LAYER
  5
4D
330
2
100
AcDbSymbolTableRecord
100
AcDbLayerTableRecord
  2
44
 70
     0
 62
     7
  6
CONTINUOUS
370
    -3
390
F
  0
LAYER
  5
4E
330
2
100
AcDbSymbolTableRecord
100
AcDbLayerTableRecord
  2
45
 70
     0
 62
     7
  6
CONTINUOUS
370
    -3
390
F
  0
LAYER
  5
4F
330
2
100
AcDbSymbolTableRecord
100
AcDbLayerTableRecord
  2
46
 70
     0
 62
     7
  6
CONTINUOUS
370
    -3
390
F
  0
LAYER
  5
50
330
2
100
AcDbSymbolTableRecord
100
AcDbLayerTableRecord
  2
47
 70
     0
 62
     7
  6
CONTINUOUS
370
    -3
390
F
  0
LAYER
  5
51
330
2
100
AcDbSymbolTableRecord
100
AcDbLayerTableRecord
  2
48
 70
     0
 62
     7
  6
CONTINUOUS
370
    -3
390
F
  0
LAYER
  5
52
330
2
100
AcDbSymbolTableRecord
100
AcDbLayerTableRecord
  2
49
 70
     0
 62
     7
  6
CONTINUOUS
370
    -3
390
F
  0
LAYER
  5
53
330
2
100
AcDbSymbolTableRecord
100
AcDbLayerTableRecord
  2
50
 70
     0
 62
     7
  6
CONTINUOUS
370
    -3
390
F
  0
LAYER
  5
54
330
2
100
AcDbSymbolTableRecord
100
AcDbLayerTableRecord
  2
51
 70
     0
 62
     7
  6
CONTINUOUS
370
    -3
390
F
  0
LAYER
  5
55
330
2
100
AcDbSymbolTableRecord
100
AcDbLayerTableRecord
  2
52
 70
     0
 62
     7
  6
CONTINUOUS
370
    -3
390
F
  0
LAYER
  5
56
330
2
100
AcDbSymbolTableRecord
100
AcDbLayerTableRecord
  2
53
 70
     0
 62
     7
  6
CONTINUOUS
370
    -3
390
F
  0
LAYER
  5
57
330
2
100
AcDbSymbolTableRecord
100
AcDbLayerTableRecord
  2
54
 70
     0
 62
     7
  6
CONTINUOUS
370
    -3
390
F
  0
LAYER
  5
58
330
2
100
AcDbSymbolTableRecord
100
AcDbLayerTableRecord
  2
55
 70
     0
 62
     7
  6
CONTINUOUS
370
    -3
390
F
  0
LAYER
  5
59
330
2
100
AcDbSymbolTableRecord
100
AcDbLayerTableRecord
  2
56
 70
     0
 62
     7
  6
CONTINUOUS
370
    -3
390
F
  0
LAYER
  5
5A
330
2
100
AcDbSymbolTableRecord
100
AcDbLayerTableRecord
  2
57
 70
     0
 62
     7
  6
CONTINUOUS
370
    -3
390
F
  0
LAYER
  5
5B
330
2
100
AcDbSymbolTableRecord
100
AcDbLayerTableRecord
  2
58
 70
     0
 62
     7
  6
CONTINUOUS
370
    -3
390
F
  0
LAYER
  5
5C
330
2
100
AcDbSymbolTableRecord
100
AcDbLayerTableRecord
  2
59
 70
     0
 62
     7
  6
CONTINUOUS
370
    -3
390
F
  0
LAYER
  5
5D
330
2
100
AcDbSymbolTableRecord
100
AcDbLayerTableRecord
  2
60
 70
     0
 62
     7
  6
CONTINUOUS
370
    -3
390
F
  0
LAYER
  5
5E
330
2
100
AcDbSymbolTableRecord
100
AcDbLayerTableRecord
  2
61
 70
     0
 62
     7
  6
CONTINUOUS
370
    -3
390
F
  0
LAYER
  5
5F
330
2
100
AcDbSymbolTableRecord
100
AcDbLayerTableRecord
  2
62
 70
     0
 62
     7
  6
CONTINUOUS
370
    -3
390
F
  0
LAYER
  5
60
330
2
100
AcDbSymbolTableRecord
100
AcDbLayerTableRecord
  2
63
 70
     0
 62
     7
  6
CONTINUOUS
370
    -3
390
F
  0
LAYER
  5
61
330
2
100
AcDbSymbolTableRecord
100
AcDbLayerTableRecord
  2
64
 70
     0
 62
     7
  6
CONTINUOUS
370
    -3
390
F
  0
LAYER
  5
62
330
2
100
AcDbSymbolTableRecord
100
AcDbLayerTableRecord
  2
65
 70
     0
 62
     7
  6
CONTINUOUS
370
    -3
390
F
  0
LAYER
  5
63
330
2
100
AcDbSymbolTableRecord
100
AcDbLayerTableRecord
  2
66
 70
     0
 62
     7
  6
CONTINUOUS
370
    -3
390
F
  0
LAYER
  5
64
330
2
100
AcDbSymbolTableRecord
100
AcDbLayerTableRecord
  2
67
 70
     0
 62
     7
  6
CONTINUOUS
370
    -3
390
F
  0
LAYER
  5
65
330
2
100
AcDbSymbolTableRecord
100
AcDbLayerTableRecord
  2
68
 70
     0
 62
     7
  6
CONTINUOUS
370
    -3
390
F
  0
LAYER
  5
66
330
2
100
AcDbSymbolTableRecord
100
AcDbLayerTableRecord
  2
69
 70
     0
 62
     7
  6
CONTINUOUS
370
    -3
390
F
  0
LAYER
  5
67
330
2
100
AcDbSymbolTableRecord
100
AcDbLayerTableRecord
  2
70
 70
     0
 62
     7
  6
CONTINUOUS
370
    -3
390
F
  0
LAYER
  5
68
330
2
100
AcDbSymbolTableRecord
100
AcDbLayerTableRecord
  2
71
 70
     0
 62
     7
  6
CONTINUOUS
370
    -3
390
F
  0
LAYER
  5
69
330
2
100
AcDbSymbolTableRecord
100
AcDbLayerTableRecord
  2
72
 70
     0
 62
     7
  6
CONTINUOUS
370
    -3
390
F
  0
LAYER
  5
6A
330
2
100
AcDbSymbolTableRecord
100
AcDbLayerTableRecord
  2
73
 70
     0
 62
     7
  6
CONTINUOUS
370
    -3
390
F
  0
LAYER
  5
6B
330
2
100
AcDbSymbolTableRecord
100
AcDbLayerTableRecord
  2
74
 70
     0
 62
     7
  6
CONTINUOUS
370
    -3
390
F
  0
LAYER
  5
6C
330
2
100
AcDbSymbolTableRecord
100
AcDbLayerTableRecord
  2
75
 70
     0
 62
     7
  6
CONTINUOUS
370
    -3
390
F
  0
LAYER
  5
6D
330
2
100
AcDbSymbolTableRecord
100
AcDbLayerTableRecord
  2
76
 70
     0
 62
     7
  6
CONTINUOUS
370
    -3
390
F
  0
LAYER
  5
6E
330
2
100
AcDbSymbolTableRecord
100
AcDbLayerTableRecord
  2
77
 70
     0
 62
     7
  6
CONTINUOUS
370
    -3
390
F
  0
LAYER
  5
6F
330
2
100
AcDbSymbolTableRecord
100
AcDbLayerTableRecord
  2
78
 70
     0
 62
     7
  6
CONTINUOUS
370
    -3
390
F
  0
LAYER
  5
70
330
2
100
AcDbSymbolTableRecord
100
AcDbLayerTableRecord
  2
79
 70
     0
 62
     7
  6
CONTINUOUS
370
    -3
390
F
  0
LAYER
  5
71
330
2
100
AcDbSymbolTableRecord
100
AcDbLayerTableRecord
  2
80
 70
     0
 62
     7
  6
CONTINUOUS
370
    -3
390
F
  0
LAYER
  5
72
330
2
100
AcDbSymbolTableRecord
100
AcDbLayerTableRecord
  2
81
 70
     0
 62
     7
  6
CONTINUOUS
370
    -3
390
F
  0
LAYER
  5
73
330
2
100
AcDbSymbolTableRecord
100
AcDbLayerTableRecord
  2
82
 70
     0
 62
     7
  6
CONTINUOUS
370
    -3
390
F
  0
LAYER
  5
74
330
2
100
AcDbSymbolTableRecord
100
AcDbLayerTableRecord
  2
83
 70
     0
 62
     7
  6
CONTINUOUS
370
    -3
390
F
  0
LAYER
  5
75
330
2
100
AcDbSymbolTableRecord
100
AcDbLayerTableRecord
  2
84
 70
     0
 62
     7
  6
CONTINUOUS
370
    -3
390
F
  0
LAYER
  5
76
330
2
100
AcDbSymbolTableRecord
100
AcDbLayerTableRecord
  2
85
 70
     0
 62
     7
  6
CONTINUOUS
370
    -3
390
F
  0
LAYER
  5
77
330
2
100
AcDbSymbolTableRecord
100
AcDbLayerTableRecord
  2
86
 70
     0
 62
     7
  6
CONTINUOUS
370
    -3
390
F
  0
LAYER
  5
78
330
2
100
AcDbSymbolTableRecord
100
AcDbLayerTableRecord
  2
87
 70
     0
 62
     7
  6
CONTINUOUS
370
    -3
390
F
  0
LAYER
  5
79
330
2
100
AcDbSymbolTableRecord
100
AcDbLayerTableRecord
  2
88
 70
     0
 62
     7
  6
CONTINUOUS
370
    -3
390
F
  0
LAYER
  5
7A
330
2
100
AcDbSymbolTableRecord
100
AcDbLayerTableRecord
  2
89
 70
     0
 62
     7
  6
CONTINUOUS
370
    -3
390
F
  0
LAYER
  5
7B
330
2
100
AcDbSymbolTableRecord
100
AcDbLayerTableRecord
  2
90
 70
     0
 62
     7
  6
CONTINUOUS
370
    -3
390
F
  0
LAYER
  5
7C
330
2
100
AcDbSymbolTableRecord
100
AcDbLayerTableRecord
  2
91
 70
     0
 62
     7
  6
CONTINUOUS
370
    -3
390
F
  0
LAYER
  5
7D
330
2
100
AcDbSymbolTableRecord
100
AcDbLayerTableRecord
  2
92
 70
     0
 62
     7
  6
CONTINUOUS
370
    -3
390
F
  0
LAYER
  5
7E
330
2
100
AcDbSymbolTableRecord
100
AcDbLayerTableRecord
  2
93
 70
     0
 62
     7
  6
CONTINUOUS
370
    -3
390
F
  0
LAYER
  5
7F
330
2
100
AcDbSymbolTableRecord
100
AcDbLayerTableRecord
  2
94
 70
     0
 62
     7
  6
CONTINUOUS
370
    -3
390
F
  0
LAYER
  5
80
330
2
100
AcDbSymbolTableRecord
100
AcDbLayerTableRecord
  2
95
 70
     0
 62
     7
  6
CONTINUOUS
370
    -3
390
F
  0
LAYER
  5
81
330
2
100
AcDbSymbolTableRecord
100
AcDbLayerTableRecord
  2
96
 70
     0
 62
     7
  6
CONTINUOUS
370
    -3
390
F
  0
LAYER
  5
82
330
2
100
AcDbSymbolTableRecord
100
AcDbLayerTableRecord
  2
97
 70
     0
 62
     7
  6
CONTINUOUS
370
    -3
390
F
  0
LAYER
  5
83
330
2
100
AcDbSymbolTableRecord
100
AcDbLayerTableRecord
  2
98
 70
     0
 62
     7
  6
CONTINUOUS
370
    -3
390
F
  0
LAYER
  5
84
330
2
100
AcDbSymbolTableRecord
100
AcDbLayerTableRecord
  2
99
 70
     0
 62
     7
  6
CONTINUOUS
370
    -3
390
F
  0
LAYER
  5
85
330
2
100
AcDbSymbolTableRecord
100
AcDbLayerTableRecord
  2
100
 70
     0
 62
     7
  6
CONTINUOUS
370
    -3
390
F
  0
LAYER
  5
86
330
2
100
AcDbSymbolTableRecord
100
AcDbLayerTableRecord
  2
101
 70
     0
 62
     7
  6
CONTINUOUS
370
    -3
390
F
  0
LAYER
  5
87
330
2
100
AcDbSymbolTableRecord
100
AcDbLayerTableRecord
  2
102
 70
     0
 62
     7
  6
CONTINUOUS
370
    -3
390
F
  0
LAYER
  5
88
330
2
100
AcDbSymbolTableRecord
100
AcDbLayerTableRecord
  2
103
 70
     0
 62
     7
  6
CONTINUOUS
370
    -3
390
F
  0
LAYER
  5
89
330
2
100
AcDbSymbolTableRecord
100
AcDbLayerTableRecord
  2
104
 70
     0
 62
     7
  6
CONTINUOUS
370
    -3
390
F
  0
LAYER
  5
8A
330
2
100
AcDbSymbolTableRecord
100
AcDbLayerTableRecord
  2
105
 70
     0
 62
     7
  6
CONTINUOUS
370
    -3
390
F
  0
LAYER
  5
8B
330
2
100
AcDbSymbolTableRecord
100
AcDbLayerTableRecord
  2
106
 70
     0
 62
     7
  6
CONTINUOUS
370
    -3
390
F
  0
LAYER
  5
8C
330
2
100
AcDbSymbolTableRecord
100
AcDbLayerTableRecord
  2
107
 70
     0
 62
     7
  6
CONTINUOUS
370
    -3
390
F
  0
LAYER
  5
8D
330
2
100
AcDbSymbolTableRecord
100
AcDbLayerTableRecord
  2
108
 70
     0
 62
     7
  6
CONTINUOUS
370
    -3
390
F
  0
LAYER
  5
8E
330
2
100
AcDbSymbolTableRecord
100
AcDbLayerTableRecord
  2
109
 70
     0
 62
     7
  6
CONTINUOUS
370
    -3
390
F
  0
LAYER
  5
8F
330
2
100
AcDbSymbolTableRecord
100
AcDbLayerTableRecord
  2
110
 70
     0
 62
     7
  6
CONTINUOUS
370
    -3
390
F
  0
LAYER
  5
90
330
2
100
AcDbSymbolTableRecord
100
AcDbLayerTableRecord
  2
111
 70
     0
 62
     7
  6
CONTINUOUS
370
    -3
390
F
  0
LAYER
  5
91
330
2
100
AcDbSymbolTableRecord
100
AcDbLayerTableRecord
  2
112
 70
     0
 62
     7
  6
CONTINUOUS
370
    -3
390
F
  0
LAYER
  5
92
330
2
100
AcDbSymbolTableRecord
100
AcDbLayerTableRecord
  2
113
 70
     0
 62
     7
  6
CONTINUOUS
370
    -3
390
F
  0
LAYER
  5
93
330
2
100
AcDbSymbolTableRecord
100
AcDbLayerTableRecord
  2
114
 70
     0
 62
     7
  6
CONTINUOUS
370
    -3
390
F
  0
LAYER
  5
94
330
2
100
AcDbSymbolTableRecord
100
AcDbLayerTableRecord
  2
115
 70
     0
 62
     7
  6
CONTINUOUS
370
    -3
390
F
  0
LAYER
  5
95
330
2
100
AcDbSymbolTableRecord
100
AcDbLayerTableRecord
  2
116
 70
     0
 62
     7
  6
CONTINUOUS
370
    -3
390
F
  0
LAYER
  5
96
330
2
100
AcDbSymbolTableRecord
100
AcDbLayerTableRecord
  2
117
 70
     0
 62
     7
  6
CONTINUOUS
370
    -3
390
F
  0
LAYER
  5
97
330
2
100
AcDbSymbolTableRecord
100
AcDbLayerTableRecord
  2
118
 70
     0
 62
     7
  6
CONTINUOUS
370
    -3
390
F
  0
LAYER
  5
98
330
2
100
AcDbSymbolTableRecord
100
AcDbLayerTableRecord
  2
119
 70
     0
 62
     7
  6
CONTINUOUS
370
    -3
390
F
  0
LAYER
  5
99
330
2
100
AcDbSymbolTableRecord
100
AcDbLayerTableRecord
  2
120
 70
     0
 62
     7
  6
CONTINUOUS
370
    -3
390
F
  0
LAYER
  5
9A
330
2
100
AcDbSymbolTableRecord
100
AcDbLayerTableRecord
  2
121
 70
     0
 62
     7
  6
CONTINUOUS
370
    -3
390
F
  0
LAYER
  5
9B
330
2
100
AcDbSymbolTableRecord
100
AcDbLayerTableRecord
  2
122
 70
     0
 62
     7
  6
CONTINUOUS
370
    -3
390
F
  0
LAYER
  5
9C
330
2
100
AcDbSymbolTableRecord
100
AcDbLayerTableRecord
  2
123
 70
     0
 62
     7
  6
CONTINUOUS
370
    -3
390
F
  0
LAYER
  5
9D
330
2
100
AcDbSymbolTableRecord
100
AcDbLayerTableRecord
  2
124
 70
     0
 62
     7
  6
CONTINUOUS
370
    -3
390
F
  0
LAYER
  5
9E
330
2
100
AcDbSymbolTableRecord
100
AcDbLayerTableRecord
  2
125
 70
     0
 62
     7
  6
CONTINUOUS
370
    -3
390
F
  0
LAYER
  5
9F
330
2
100
AcDbSymbolTableRecord
100
AcDbLayerTableRecord
  2
126
 70
     0
 62
     7
  6
CONTINUOUS
370
    -3
390
F
  0
LAYER
  5
A0
330
2
100
AcDbSymbolTableRecord
100
AcDbLayerTableRecord
  2
127
 70
     0
 62
     7
  6
CONTINUOUS
370
    -3
390
F
  0
ENDTAB
  0
TABLE
  2
STYLE
  5
3
330
0
100
AcDbSymbolTable
 70
     8
  0
STYLE
  5
11
330
3
100
AcDbSymbolTableRecord
100
AcDbTextStyleTableRecord
  2
STANDARD
 70
     0
 40
0.0
 41
1.0
 50
0.0
 71
     0
 42
0.2
  3
txt
  4

  0
STYLE
  5
A1
330
3
100
AcDbSymbolTableRecord
100
AcDbTextStyleTableRecord
  2
KANJI0
 70
     0
 40
4.0
 41
0.75
 50
0.0
 71
     0
 42
4.0
  3

  4
bigfont
  0
STYLE
  5
A2
330
3
100
AcDbSymbolTableRecord
100
AcDbTextStyleTableRecord
  2
KANJI1
 70
     0
 40
3.0
 41
0.6
 50
0.0
 71
     0
 42
3.0
  3

  4
bigfont
  0
STYLE
  5
A3
330
3
100
AcDbSymbolTableRecord
100
AcDbTextStyleTableRecord
  2
KANJI2
 70
     0
 40
2.0
 41
0.75
 50
0.0
 71
     0
 42
2.0
  3

  4
bigfont
  0
STYLE
  5
A4
330
3
100
AcDbSymbolTableRecord
100
AcDbTextStyleTableRecord
  2
KANJI3
 70
     0
 40
2.5
 41
0.88
 50
0.0
 71
     0
 42
2.5
  3

  4
bigfont
  0
STYLE
  5
A5
330
3
100
AcDbSymbolTableRecord
100
AcDbTextStyleTableRecord
  2
KANJI4
 70
     0
 40
3.0
 41
0.666666667
 50
0.0
 71
     0
 42
3.0
  3

  4
bigfont
  0
STYLE
  5
A6
330
3
100
AcDbSymbolTableRecord
100
AcDbTextStyleTableRecord
  2
KANJI5
 70
     0
 40
2.7
 41
0.666666667
 50
0.0
 71
     0
 42
2.7
  3

  4
bigfont
  0
STYLE
  5
A7
330
3
100
AcDbSymbolTableRecord
100
AcDbTextStyleTableRecord
  2
KANJI6
 70
     0
 40
4.0
 41
0.9
 50
0.0
 71
     0
 42
4.0
  3

  4
bigfont
  0
ENDTAB
  0
TABLE
  2
VIEW
  5
6
330
0
100
AcDbSymbolTable
 70
     0
  0
ENDTAB
  0
TABLE
  2
UCS
  5
7
330
0
100
AcDbSymbolTable
 70
     0
  0
ENDTAB
  0
TABLE
  2
APPID
  5
9
330
0
100
AcDbSymbolTable
 70
     1
  0
APPID
  5
12
330
9
100
AcDbSymbolTableRecord
100
AcDbRegAppTableRecord
  2
ACAD
 70
     0
  0
ENDTAB
  0
TABLE
  2
DIMSTYLE
  5
A
330
0
100
AcDbSymbolTable
 70
     1
100
AcDbDimStyleTable
 71
     0
  0
DIMSTYLE
105
43A
330
A
100
AcDbSymbolTableRecord
100
AcDbDimStyleTableRecord
  2
Standard
 70
     0
340
11
  0
ENDTAB
  0
TABLE
  2
BLOCK_RECORD
  5
1
330
0
100
AcDbSymbolTable
 70
     0
  0
BLOCK_RECORD
  5
1E
330
1
100
AcDbSymbolTableRecord
100
AcDbBlockTableRecord
  2
*Model_Space
340
21
  0
BLOCK_RECORD
  5
1A
330
1
100
AcDbSymbolTableRecord
100
AcDbBlockTableRecord
  2
*Paper_Space
340
1D
  0
ENDTAB
  0
ENDSEC
  0
SECTION
  2
BLOCKS
  0
BLOCK
  5
1F
330
1E
100
AcDbEntity
  8
0
100
AcDbBlockBegin
  2
*Model_Space
 70
     0
 10
0.0
 20
0.0
 30
0.0
  3
*Model_Space
  1

  0
ENDBLK
  5
20
330
1E
100
AcDbEntity
  8
0
100
AcDbBlockEnd
  0
BLOCK
  5
1B
330
1A
100
AcDbEntity
 67
     1
  8
0
100
AcDbBlockBegin
  2
*Paper_Space
 70
     0
 10
0.0
 20
0.0
 30
0.0
  3
*Paper_Space
  1

  0
ENDBLK
  5
1C
330
1A
100
AcDbEntity
 67
     1
  8
0
100
AcDbBlockEnd
  0
ENDSEC
  0
SECTION
  2
ENTITIES
  0
LINE
  5
AB
330
1E
100
AcDbEntity
  8
0
  6
Continuous
 62
     3
100
AcDbLine
 10
-839.7889515754544
 20
-319.5719405471346
 30
0.0
 11
-839.7889515754544
 21
-332.1969405471346
 31
0.0
  0
LINE
  5
AC
330
1E
100
AcDbEntity
  8
0
  6
Continuous
 62
     3
100
AcDbLine
 10
-819.7889515754544
 20
-320.8219405471346
 30
0.0
 11
-839.7889515754544
 21
-320.8219405471346
 31
0.0
  0
LINE
  5
AD
330
1E
100
AcDbEntity
  8
0
  6
Continuous
 62
     3
100
AcDbLine
 10
-819.7889515754544
 20
-330.8219405471346
 30
0.0
 11
-839.7889515754544
 21
-330.8219405471346
 31
0.0
  0
LINE
  5
AE
330
1E
100
AcDbEntity
  8
0
  6
Continuous
 62
     3
100
AcDbLine
 10
-820.7889515754544
 20
-319.5719405471346
 30
0.0
 11
-819.7889515754544
 21
-320.0719405471346
 31
0.0
  0
LINE
  5
AF
330
1E
100
AcDbEntity
  8
0
  6
Continuous
 62
     3
100
AcDbLine
 10
-819.7889515754544
 20
-331.5719405471346
 30
0.0
 11
-819.7889515754544
 21
-320.0719405471346
 31
0.0
  0
LINE
  5
B0
330
1E
100
AcDbEntity
  8
0
  6
Continuous
 62
     3
100
AcDbLine
 10
-820.7889515754544
 20
-332.0719405471346
 30
0.0
 11
-819.7889515754544
 21
-331.5719405471346
 31
0.0
  0
LINE
  5
B1
330
1E
100
AcDbEntity
  8
0
  6
Continuous
 62
     3
100
AcDbLine
 10
-819.7889515754544
 20
-320.0719405471346
 30
0.0
 11
-839.7889515754544
 21
-320.0719405471346
 31
0.0
  0
LINE
  5
B2
330
1E
100
AcDbEntity
  8
0
  6
Continuous
 62
     3
100
AcDbLine
 10
-830.2889515754545
 20
-320.0719405471346
 30
0.0
 11
-831.2889515754545
 21
-319.5719405471346
 31
0.0
  0
LINE
  5
B3
330
1E
100
AcDbEntity
  8
0
  6
Continuous
 62
     3
100
AcDbLine
 10
-819.7889515754544
 20
-331.5719405471346
 30
0.0
 11
-839.7889515754544
 21
-331.5719405471346
 31
0.0
  0
LINE
  5
B4
330
1E
100
AcDbEntity
  8
0
  6
Continuous
 62
     3
100
AcDbLine
 10
-830.2889515754545
 20
-331.5719405471346
 30
0.0
 11
-831.2889515754545
 21
-332.0719405471346
 31
0.0
  0
LINE
  5
B5
330
1E
100
AcDbEntity
  8
0
  6
Continuous
 62
     3
100
AcDbLine
 10
-830.2889515754545
 20
-331.5719405471346
 30
0.0
 11
-830.2889515754545
 21
-320.0719405471346
 31
0.0
  0
LINE
  5
B6
330
1E
100
AcDbEntity
  8
0
  6
Continuous
 62
     3
100
AcDbLine
 10
-840.2889515754544
 20
-320.0719405471346
 30
0.0
 11
-840.2889515754544
 21
-331.5719405471346
 31
0.0
  0
LINE
  5
B7
330
1E
100
AcDbEntity
  8
0
  6
Continuous
 62
     3
100
AcDbLine
 10
-820.7889515754544
 20
-320.8219405471346
 30
0.0
 11
-820.7889515754544
 21
-330.8219405471346
 31
0.0
  0
CIRCLE
  5
B8
330
1E
100
AcDbEntity
  8
0
  6
Continuous
 62
     3
100
AcDbCircle
 10
-835.2889515754544
 20
-323.3219405471346
 30
0.0
 40
2.0
  0
CIRCLE
  5
B9
330
1E
100
AcDbEntity
  8
0
  6
Continuous
 62
     3
100
AcDbCircle
 10
-835.2889515754544
 20
-328.3219405471346
 30
0.0
 40
2.0
  0
CIRCLE
  5
BA
330
1E
100
AcDbEntity
  8
0
  6
Continuous
 62
     3
100
AcDbCircle
 10
-825.7889515754545
 20
-323.3219405471346
 30
0.0
 40
2.0
  0
CIRCLE
  5
BB
330
1E
100
AcDbEntity
  8
0
  6
Continuous
 62
     3
100
AcDbCircle
 10
-825.7889515754545
 20
-328.3219405471346
 30
0.0
 40
2.0
  0
LWPOLYLINE
  5
BC
330
1E
100
AcDbEntity
  8
0
 62
     3
100
AcDbPolyline
 90
        4
 70
     1
 43
0.0
 10
-832.2889515754544
 20
-324.8219405471346
 10
-831.2889515754545
 20
-324.8219405471346
 10
-831.2889515754545
 20
-321.8219405471346
 10
-832.2889515754544
 20
-321.8219405471346
  0
LWPOLYLINE
  5
C2
330
1E
100
AcDbEntity
  8
0
 62
     3
100
AcDbPolyline
 90
        4
 70
     1
 43
0.0
 10
-832.2889515754544
 20
-329.8219405471346
 10
-831.2889515754545
 20
-329.8219405471346
 10
-831.2889515754545
 20
-326.8219405471346
 10
-832.2889515754544
 20
-326.8219405471346
  0
LINE
  5
C8
330
1E
100
AcDbEntity
  8
0
  6
Continuous
 62
     3
100
AcDbLine
 10
-820.7889515754544
 20
-320.0719405471346
 30
0.0
 11
-821.7889515754544
 21
-319.5719405471346
 31
0.0
  0
LINE
  5
C9
330
1E
100
AcDbEntity
  8
0
  6
Continuous
 62
     3
100
AcDbLine
 10
-820.7889515754544
 20
-331.5719405471346
 30
0.0
 11
-821.7889515754544
 21
-332.0719405471346
 31
0.0
  0
LINE
  5
CA
330
1E
100
AcDbEntity
  8
0
  6
Continuous
 62
     3
100
AcDbLine
 10
-820.7889515754544
 20
-331.5719405471346
 30
0.0
 11
-820.7889515754544
 21
-320.0719405471346
 31
0.0
  0
LWPOLYLINE
  5
CB
330
1E
100
AcDbEntity
  8
0
 62
     3
100
AcDbPolyline
 90
        4
 70
     1
 43
0.0
 10
-822.7889515754544
 20
-324.8219405471346
 10
-821.7889515754544
 20
-324.8219405471346
 10
-821.7889515754544
 20
-321.8219405471346
 10
-822.7889515754544
 20
-321.8219405471346
  0
LWPOLYLINE
  5
D1
330
1E
100
AcDbEntity
  8
0
 62
     3
100
AcDbPolyline
 90
        4
 70
     1
 43
0.0
 10
-822.7889515754544
 20
-329.8219405471346
 10
-821.7889515754544
 20
-329.8219405471346
 10
-821.7889515754544
 20
-326.8219405471346
 10
-822.7889515754544
 20
-326.8219405471346
  0
LINE
  5
D7
330
1E
100
AcDbEntity
  8
0
  6
Continuous
 62
     3
100
AcDbLine
 10
-839.2889515754545
 20
-320.8219405471346
 30
0.0
 11
-839.2889515754545
 21
-325.8219405471346
 31
0.0
  0
LINE
  5
D8
330
1E
100
AcDbEntity
  8
0
  6
Continuous
 62
     3
100
AcDbLine
 10
-839.2889515754545
 20
-325.8219405471346
 30
0.0
 11
-839.7889515754544
 21
-325.8219405471346
 31
0.0
  0
LINE
  5
D9
330
1E
100
AcDbEntity
  8
0
  6
Continuous
 62
     3
100
AcDbLine
 10
-839.7889515754544
 20
-326.8219405471346
 30
0.0
 11
-839.2889515754545
 21
-326.8219405471346
 31
0.0
  0
LINE
  5
DA
330
1E
100
AcDbEntity
  8
0
  6
Continuous
 62
     3
100
AcDbLine
 10
-839.2889515754545
 20
-326.8219405471346
 30
0.0
 11
-839.2889515754545
 21
-330.8219405471346
 31
0.0
  0
LINE
  5
DB
330
1E
100
AcDbEntity
  8
0
  6
Continuous
 62
     3
100
AcDbLine
 10
-829.7889515754544
 20
-330.8219405471346
 30
0.0
 11
-829.7889515754544
 21
-326.8219405471346
 31
0.0
  0
LINE
  5
DC
330
1E
100
AcDbEntity
  8
0
  6
Continuous
 62
     3
100
AcDbLine
 10
-829.7889515754544
 20
-326.8219405471346
 30
0.0
 11
-830.2889515754545
 21
-326.8219405471346
 31
0.0
  0
LINE
  5
DD
330
1E
100
AcDbEntity
  8
0
  6
Continuous
 62
     3
100
AcDbLine
 10
-830.2889515754545
 20
-325.8219405471346
 30
0.0
 11
-829.7889515754544
 21
-325.8219405471346
 31
0.0
  0
LINE
  5
DE
330
1E
100
AcDbEntity
  8
0
  6
Continuous
 62
     3
100
AcDbLine
 10
-829.7889515754544
 20
-325.8219405471346
 30
0.0
 11
-829.7889515754544
 21
-320.8219405471346
 31
0.0
  0
LINE
  5
DF
330
1E
100
AcDbEntity
  8
0
  6
Continuous
 62
     3
100
AcDbLine
 10
-826.2889515754544
 20
-321.4219405471347
 30
0.0
 11
-826.2889515754544
 21
-325.1219405471346
 31
0.0
  0
LINE
  5
E0
330
1E
100
AcDbEntity
  8
0
  6
Continuous
 62
     3
100
AcDbLine
 10
-825.2889515754544
 20
-325.1219405471346
 30
0.0
 11
-825.2889515754544
 21
-321.3219405471346
 31
0.0
  0
LINE
  5
E1
330
1E
100
AcDbEntity
  8
0
  6
Continuous
 62
     3
100
AcDbLine
 10
-825.2889515754544
 20
-330.2219405471346
 30
0.0
 11
-825.2889515754544
 21
-326.3219405471346
 31
0.0
  0
LINE
  5
E2
330
1E
100
AcDbEntity
  8
0
  6
Continuous
 62
     3
100
AcDbLine
 10
-826.2889515754544
 20
-326.4219405471346
 30
0.0
 11
-826.2889515754544
 21
-330.2219405471346
 31
0.0
  0
LINE
  5
E3
330
1E
100
AcDbEntity
  8
0
  6
Continuous
 62
     3
100
AcDbLine
 10
-835.7889515754544
 20
-330.1219405471346
 30
0.0
 11
-835.7889515754544
 21
-326.5219405471347
 31
0.0
  0
LINE
  5
E4
330
1E
100
AcDbEntity
  8
0
  6
Continuous
 62
     3
100
AcDbLine
 10
-834.7889515754545
 20
-326.3219405471346
 30
0.0
 11
-834.7889515754545
 21
-330.2219405471346
 31
0.0
  0
LINE
  5
E5
330
1E
100
AcDbEntity
  8
0
  6
Continuous
 62
     3
100
AcDbLine
 10
-835.7889515754544
 20
-321.4219405471347
 30
0.0
 11
-835.7889515754544
 21
-325.2219405471346
 31
0.0
  0
LINE
  5
E6
330
1E
100
AcDbEntity
  8
0
  6
Continuous
 62
     3
100
AcDbLine
 10
-834.7889515754545
 20
-325.2219405471346
 30
0.0
 11
-834.7889515754545
 21
-321.3219405471346
 31
0.0
  0
LINE
  5
E7
330
1E
100
AcDbEntity
  8
0
  6
Continuous
 62
     3
100
AcDbLine
 10
-918.7889515754545
 20
-320.8219405471346
 30
0.0
 11
-898.7889515754543
 21
-320.8219405471346
 31
0.0
  0
LINE
  5
E8
330
1E
100
AcDbEntity
  8
0
  6
Continuous
 62
     3
100
AcDbLine
 10
-918.7889515754545
 20
-320.0719405471346
 30
0.0
 11
-917.7889515754545
 21
-319.5719405471346
 31
0.0
  0
LINE
  5
E9
330
1E
100
AcDbEntity
  8
0
  6
Continuous
 62
     3
100
AcDbLine
 10
-918.7889515754545
 20
-331.5719405471346
 30
0.0
 11
-917.7889515754545
 21
-332.0719405471346
 31
0.0
  0
LINE
  5
EA
330
1E
100
AcDbEntity
  8
0
  6
Continuous
 62
     3
100
AcDbLine
 10
-898.7889515754543
 20
-319.5719405471346
 30
0.0
 11
-898.7889515754543
 21
-332.1969405471346
 31
0.0
  0
LINE
  5
EB
330
1E
100
AcDbEntity
  8
0
  6
Continuous
 62
     3
100
AcDbLine
 10
-918.7889515754545
 20
-320.0719405471346
 30
0.0
 11
-898.7889515754543
 21
-320.0719405471346
 31
0.0
  0
LINE
  5
EC
330
1E
100
AcDbEntity
  8
0
  6
Continuous
 62
     3
100
AcDbLine
 10
-908.2889515754544
 20
-320.0719405471346
 30
0.0
 11
-907.2889515754544
 21
-319.5719405471346
 31
0.0
  0
LINE
  5
ED
330
1E
100
AcDbEntity
  8
0
  6
Continuous
 62
     3
100
AcDbLine
 10
-918.7889515754545
 20
-331.5719405471346
 30
0.0
 11
-898.7889515754543
 21
-331.5719405471346
 31
0.0
  0
LINE
  5
EE
330
1E
100
AcDbEntity
  8
0
  6
Continuous
 62
     3
100
AcDbLine
 10
-908.2889515754544
 20
-331.5719405471346
 30
0.0
 11
-907.2889515754544
 21
-332.0719405471346
 31
0.0
  0
LINE
  5
EF
330
1E
100
AcDbEntity
  8
0
  6
Continuous
 62
     3
100
AcDbLine
 10
-908.2889515754544
 20
-331.5719405471346
 30
0.0
 11
-907.2889515754544
 21
-332.0719405471346
 31
0.0
  0
LINE
  5
F0
330
1E
100
AcDbEntity
  8
0
  6
Continuous
 62
     3
100
AcDbLine
 10
-908.2889515754544
 20
-320.0719405471346
 30
0.0
 11
-907.2889515754544
 21
-319.5719405471346
 31
0.0
  0
LINE
  5
F1
330
1E
100
AcDbEntity
  8
0
  6
Continuous
 62
     3
100
AcDbLine
 10
-908.2889515754544
 20
-320.0719405471346
 30
0.0
 11
-908.2889515754544
 21
-331.5719405471346
 31
0.0
  0
CIRCLE
  5
F2
330
1E
100
AcDbEntity
  8
0
  6
Continuous
 62
     3
100
AcDbCircle
 10
-903.2889515754545
 20
-328.3219405471346
 30
0.0
 40
2.0
  0
CIRCLE
  5
F3
330
1E
100
AcDbEntity
  8
0
  6
Continuous
 62
     3
100
AcDbCircle
 10
-903.2889515754545
 20
-323.3219405471346
 30
0.0
 40
2.0
  0
LWPOLYLINE
  5
F4
330
1E
100
AcDbEntity
  8
0
 62
     3
100
AcDbPolyline
 90
        4
 70
     1
 43
0.0
 10
-906.2889515754545
 20
-326.8219405471346
 10
-907.2889515754544
 20
-326.8219405471346
 10
-907.2889515754544
 20
-329.8219405471346
 10
-906.2889515754545
 20
-329.8219405471346
  0
LWPOLYLINE
  5
FA
330
1E
100
AcDbEntity
  8
0
 62
     3
100
AcDbPolyline
 90
        4
 70
     1
 43
0.0
 10
-906.2889515754545
 20
-321.8219405471346
 10
-907.2889515754544
 20
-321.8219405471346
 10
-907.2889515754544
 20
-324.8219405471346
 10
-906.2889515754545
 20
-324.8219405471346
  0
LINE
  5
100
330
1E
100
AcDbEntity
  8
0
  6
Continuous
 62
     3
100
AcDbLine
 10
-903.7889515754544
 20
-325.3219405471346
 30
0.0
 11
-903.7889515754544
 21
-321.5219405471346
 31
0.0
  0
LINE
  5
101
330
1E
100
AcDbEntity
  8
0
  6
Continuous
 62
     3
100
AcDbLine
 10
-902.7889515754544
 20
-321.4219405471347
 30
0.0
 11
-902.7889515754544
 21
-325.3219405471346
 31
0.0
  0
LINE
  5
102
330
1E
100
AcDbEntity
  8
0
  6
Continuous
 62
     3
100
AcDbLine
 10
-902.7889515754544
 20
-330.3219405471346
 30
0.0
 11
-902.7889515754544
 21
-326.5219405471347
 31
0.0
  0
LINE
  5
103
330
1E
100
AcDbEntity
  8
0
  6
Continuous
 62
     3
100
AcDbLine
 10
-903.7889515754544
 20
-326.5219405471347
 30
0.0
 11
-903.7889515754544
 21
-330.3219405471346
 31
0.0
  0
LINE
  5
104
330
1E
100
AcDbEntity
  8
0
  6
Continuous
 62
     5
100
AcDbLine
 10
-918.7889515754545
 20
-319.0719405471346
 30
0.0
 11
-918.7889515754545
 21
-299.6690072181346
 31
0.0
  0
LINE
  5
105
330
1E
100
AcDbEntity
  8
0
  6
Continuous
 62
     5
100
AcDbLine
 10
-918.7889515754545
 20
-301.6690072181346
 30
0.0
 11
-916.3741370094545
 21
-302.3160548311346
 31
0.0
  0
LINE
  5
106
330
1E
100
AcDbEntity
  8
0
  6
Continuous
 62
     5
100
AcDbLine
 10
-918.7889515754545
 20
-301.6690072181346
 30
0.0
 11
-916.3741370094545
 21
-301.0219596051346
 31
0.0
  0
LINE
  5
107
330
1E
100
AcDbEntity
  8
0
  6
Continuous
 62
     5
100
AcDbLine
 10
-918.7889515754545
 20
-301.6690072181346
 30
0.0
 11
-819.7889515754544
 21
-301.6690072181346
 31
0.0
  0
LINE
  5
108
330
1E
100
AcDbEntity
  8
0
  6
Continuous
 62
     5
100
AcDbLine
 10
-819.7889515754544
 20
-301.6690072181346
 30
0.0
 11
-822.2037661414544
 21
-301.0219596051346
 31
0.0
  0
LINE
  5
109
330
1E
100
AcDbEntity
  8
0
  6
Continuous
 62
     5
100
AcDbLine
 10
-819.7889515754544
 20
-301.6690072181346
 30
0.0
 11
-822.2037661414544
 21
-302.3160548311346
 31
0.0
  0
LINE
  5
10A
330
1E
100
AcDbEntity
  8
0
  6
Continuous
 62
     5
100
AcDbLine
 10
-819.7889515754544
 20
-319.0719405471346
 30
0.0
 11
-819.7889515754544
 21
-299.6690072181346
 31
0.0
  0
LINE
  5
10B
330
1E
100
AcDbEntity
  8
0
  6
Continuous
 62
     3
100
AcDbLine
 10
-882.9509260754544
 20
-482.1690072181346
 30
0.0
 11
-886.9509260754545
 21
-482.1690072181346
 31
0.0
  0
LINE
  5
10C
330
1E
100
AcDbEntity
  8
0
  6
Continuous
 62
     3
100
AcDbLine
 10
-882.9509260754544
 20
-482.1690072181346
 30
0.0
 11
-886.9509260754545
 21
-482.1690072181346
 31
0.0
  0
LINE
  5
10D
330
1E
100
AcDbEntity
  8
0
  6
Continuous
 62
     3
100
AcDbLine
 10
-918.9509260754546
 20
-482.1690072181346
 30
0.0
 11
-911.4509260754545
 21
-486.1690072181346
 31
0.0
  0
LINE
  5
10E
330
1E
100
AcDbEntity
  8
0
  6
Continuous
 62
     3
100
AcDbLine
 10
-869.4509260754545
 20
-482.1690072181346
 30
0.0
 11
-887.0509260754545
 21
-482.1690072181346
 31
0.0
  0
LINE
  5
10F
330
1E
100
AcDbEntity
  8
0
  6
Continuous
 62
     3
100
AcDbLine
 10
-870.3509260754545
 20
-482.1690072181346
 30
0.0
 11
-851.4509260754545
 21
-482.1690072181346
 31
0.0
  0
POINT
  5
110
330
1E
100
AcDbEntity
  8
0
  6
Continuous
 62
     3
100
AcDbPoint
 10
-898.4509260754546
 20
-483.6690072181347
 30
0.0
  0
POINT
  5
111
330
1E
100
AcDbEntity
  8
0
  6
Continuous
 62
     3
100
AcDbPoint
 10
-898.4509260754546
 20
-481.6690072181346
 30
0.0
  0
LINE
  5
112
330
1E
100
AcDbEntity
  8
0
  6
Continuous
 62
     3
100
AcDbLine
 10
-898.4509260754546
 20
-483.6690072181347
 30
0.0
 11
-898.4509260754546
 21
-481.6690072181346
 31
0.0
  0
LINE
  5
113
330
1E
100
AcDbEntity
  8
0
  6
Continuous
 62
     3
100
AcDbLine
 10
-898.4509260754546
 20
-481.6690072181346
 30
0.0
 11
-902.4509260754545
 21
-481.6690072181346
 31
0.0
  0
LINE
  5
114
330
1E
100
AcDbEntity
  8
0
  6
Continuous
 62
     3
100
AcDbLine
 10
-902.4509260754545
 20
-483.6690072181347
 30
0.0
 11
-898.4509260754546
 21
-483.6690072181347
 31
0.0
  0
LINE
  5
115
330
1E
100
AcDbEntity
  8
0
  6
Continuous
 62
     3
100
AcDbLine
 10
-902.4509260754545
 20
-481.6690072181346
 30
0.0
 11
-902.4509260754545
 21
-483.6690072181347
 31
0.0
  0
LINE
  5
116
330
1E
100
AcDbEntity
  8
0
  6
Continuous
 62
     3
100
AcDbLine
 10
-898.4509260754546
 20
-481.6690072181346
 30
0.0
 11
-902.4509260754545
 21
-481.6690072181346
 31
0.0
  0
LINE
  5
117
330
1E
100
AcDbEntity
  8
0
  6
Continuous
 62
     3
100
AcDbLine
 10
-911.4509260754545
 20
-486.1690072181346
 30
0.0
 11
-887.0509260754545
 21
-486.1690072181346
 31
0.0
  0
POINT
  5
118
330
1E
100
AcDbEntity
  8
0
  6
Continuous
 62
     3
100
AcDbPoint
 10
-840.4509260754545
 20
-479.6690072181347
 30
0.0
  0
POINT
  5
119
330
1E
100
AcDbEntity
  8
0
  6
Continuous
 62
     3
100
AcDbPoint
 10
-840.4509260754545
 20
-477.6690072181346
 30
0.0
  0
LWPOLYLINE
  5
11A
330
1E
100
AcDbEntity
  8
0
 62
     3
100
AcDbPolyline
 90
        3
 70
     0
 43
0.0
 10
-840.4509260754545
 20
-479.6690072181347
 10
-840.4509260754545
 20
-477.6690072181346
 10
-836.4509260754545
 20
-477.6690072181346
  0
LINE
  5
11F
330
1E
100
AcDbEntity
  8
0
  6
Continuous
 62
     3
100
AcDbLine
 10
-836.4509260754545
 20
-479.6690072181347
 30
0.0
 11
-840.4509260754545
 21
-479.6690072181347
 31
0.0
  0
LINE
  5
120
330
1E
100
AcDbEntity
  8
0
  6
Continuous
 62
     3
100
AcDbLine
 10
-836.4509260754545
 20
-477.6690072181346
 30
0.0
 11
-836.4509260754545
 21
-479.6690072181347
 31
0.0
  0
POINT
  5
121
330
1E
100
AcDbEntity
  8
0
  6
Continuous
 62
     3
100
AcDbPoint
 10
-847.2009260754544
 20
-481.1690072181346
 30
0.0
  0
LINE
  5
122
330
1E
100
AcDbEntity
  8
0
  6
Continuous
 62
     3
100
AcDbLine
 10
-891.7009260754545
 20
-481.1690072181346
 30
0.0
 11
-847.2009260754544
 21
-481.1690072181346
 31
0.0
  0
LINE
  5
123
330
1E
100
AcDbEntity
  8
0
  6
Continuous
 62
     3
100
AcDbLine
 10
-897.9509260754545
 20
-371.1690072181346
 30
0.0
 11
-869.4509260754545
 21
-371.1690072181346
 31
0.0
  0
LINE
  5
124
330
1E
100
AcDbEntity
  8
0
  6
Continuous
 62
     3
100
AcDbLine
 10
-840.9509260754544
 20
-371.1690072181346
 30
0.0
 11
-869.4509260754545
 21
-371.1690072181346
 31
0.0
  0
ARC
  5
125
330
1E
100
AcDbEntity
  8
0
  6
Continuous
 62
     3
100
AcDbCircle
 10
-840.9509260754544
 20
-372.1690072181346
 30
0.0
 40
1.0
100
AcDbArc
 50
0.0
 51
90.0
  0
LINE
  5
126
330
1E
100
AcDbEntity
  8
0
  6
Continuous
 62
     3
100
AcDbLine
 10
-887.0509260754545
 20
-486.1690072181346
 30
0.0
 11
-885.0509260754545
 21
-486.1690072181346
 31
0.0
  0
LINE
  5
127
330
1E
100
AcDbEntity
  8
0
  6
Continuous
 62
     3
100
AcDbLine
 10
-887.1509260754544
 20
-483.3690072181346
 30
0.0
 11
-885.0509260754545
 21
-484.1690072181346
 31
0.0
  0
LINE
  5
128
330
1E
100
AcDbEntity
  8
0
  6
Continuous
 62
     3
100
AcDbLine
 10
-885.0509260754545
 20
-486.1690072181346
 30
0.0
 11
-885.0509260754545
 21
-484.1690072181346
 31
0.0
  0
LINE
  5
129
330
1E
100
AcDbEntity
  8
0
  6
Continuous
 62
     3
100
AcDbLine
 10
-911.5509260754546
 20
-486.1690072181346
 30
0.0
 11
-887.1509260754544
 21
-486.1690072181346
 31
0.0
  0
LINE
  5
12A
330
1E
100
AcDbEntity
  8
0
  6
Continuous
 62
     3
100
AcDbLine
 10
-887.1509260754544
 20
-482.1690072181346
 30
0.0
 11
-887.1509260754544
 21
-486.1690072181346
 31
0.0
  0
LINE
  5
12B
330
1E
100
AcDbEntity
  8
0
  6
Continuous
 62
     3
100
AcDbLine
 10
-870.4509260754544
 20
-482.1690072181346
 30
0.0
 11
-851.5509260754544
 21
-482.1690072181346
 31
0.0
  0
LINE
  5
12C
330
1E
100
AcDbEntity
  8
0
  6
Continuous
 62
     3
100
AcDbLine
 10
-834.8009260754546
 20
-482.1690072181346
 30
0.0
 11
-834.8009260754546
 21
-483.3690072181346
 31
0.0
  0
LINE
  5
12D
330
1E
100
AcDbEntity
  8
0
  6
Continuous
 62
     3
100
AcDbLine
 10
-851.5009260754546
 20
-482.1690072181346
 30
0.0
 11
-836.3009260754544
 21
-482.1690072181346
 31
0.0
  0
LINE
  5
12E
330
1E
100
AcDbEntity
  8
0
  6
Continuous
 62
     3
100
AcDbLine
 10
-869.5509260754546
 20
-482.1690072181346
 30
0.0
 11
-887.1509260754544
 21
-482.1690072181346
 31
0.0
  0
LINE
  5
12F
330
1E
100
AcDbEntity
  8
0
  6
Continuous
 62
     3
100
AcDbLine
 10
-883.0509260754546
 20
-482.1690072181346
 30
0.0
 11
-887.0509260754545
 21
-482.1690072181346
 31
0.0
  0
LINE
  5
130
330
1E
100
AcDbEntity
  8
0
  6
Continuous
 62
     3
100
AcDbLine
 10
-883.0509260754546
 20
-482.1690072181346
 30
0.0
 11
-887.1509260754544
 21
-482.1690072181346
 31
0.0
  0
LINE
  5
131
330
1E
100
AcDbEntity
  8
0
  6
Continuous
 62
     3
100
AcDbLine
 10
-836.3009260754544
 20
-482.1690072181346
 30
0.0
 11
-821.5509260754545
 21
-482.1690072181346
 31
0.0
  0
LINE
  5
132
330
1E
100
AcDbEntity
  8
0
  6
Continuous
 62
     3
100
AcDbLine
 10
-821.5509260754545
 20
-482.1690072181346
 30
0.0
 11
-826.5509260754544
 21
-487.4190072181346
 31
0.0
  0
ARC
  5
133
330
1E
100
AcDbEntity
  8
0
  6
Continuous
 62
     3
100
AcDbCircle
 10
-883.6509260754544
 20
-482.1690072181346
 30
0.0
 40
0.5
100
AcDbArc
 50
180.0
 51
0.0
  0
LINE
  5
134
330
1E
100
AcDbEntity
  8
0
  6
Continuous
 62
     3
100
AcDbLine
 10
-852.8009260754545
 20
-482.9690072181346
 30
0.0
 11
-852.8009260754545
 21
-482.1690072181346
 31
0.0
  0
LINE
  5
135
330
1E
100
AcDbEntity
  8
0
  6
Continuous
 62
     3
100
AcDbLine
 10
-850.0509260754546
 20
-488.8190072181346
 30
0.0
 11
-850.0509260754546
 21
-486.7690072181346
 31
0.0
  0
LINE
  5
136
330
1E
100
AcDbEntity
  8
0
  6
Continuous
 62
     3
100
AcDbLine
 10
-849.8009260754544
 20
-482.1690072181346
 30
0.0
 11
-849.8009260754544
 21
-483.1690072181346
 31
0.0
  0
LINE
  5
137
330
1E
100
AcDbEntity
  8
0
  6
Continuous
 62
     3
100
AcDbLine
 10
-849.8009260754544
 20
-483.1690072181346
 30
0.0
 11
-848.8009260754544
 21
-483.1690072181346
 31
0.0
  0
LINE
  5
138
330
1E
100
AcDbEntity
  8
0
  6
Continuous
 62
     3
100
AcDbLine
 10
-848.8009260754544
 20
-482.1690072181346
 30
0.0
 11
-843.8009260754546
 21
-482.1690072181346
 31
0.0
  0
LINE
  5
139
330
1E
100
AcDbEntity
  8
0
  6
Continuous
 62
     3
100
AcDbLine
 10
-852.8009260754545
 20
-482.1690072181346
 30
0.0
 11
-849.8009260754544
 21
-482.1690072181346
 31
0.0
  0
LINE
  5
13A
330
1E
100
AcDbEntity
  8
0
  6
Continuous
 62
     3
100
AcDbLine
 10
-847.0509260754544
 20
-488.8190072181346
 30
0.0
 11
-847.0509260754544
 21
-488.0190072181346
 31
0.0
  0
LINE
  5
13B
330
1E
100
AcDbEntity
  8
0
  6
Continuous
 62
     3
100
AcDbLine
 10
-850.0509260754546
 20
-488.8190072181346
 30
0.0
 11
-847.0509260754544
 21
-488.8190072181346
 31
0.0
  0
LINE
  5
13C
330
1E
100
AcDbEntity
  8
0
  6
Continuous
 62
     3
100
AcDbLine
 10
-843.8009260754546
 20
-483.4190072181346
 30
0.0
 11
-834.5509260754544
 21
-483.4190072181346
 31
0.0
  0
LINE
  5
13D
330
1E
100
AcDbEntity
  8
0
  6
Continuous
 62
     3
100
AcDbLine
 10
-843.8009260754546
 20
-482.1690072181346
 30
0.0
 11
-843.8009260754546
 21
-483.4190072181346
 31
0.0
  0
ARC
  5
13E
330
1E
100
AcDbEntity
  8
0
  6
Continuous
 62
     3
100
AcDbCircle
 10
-841.0509260754546
 20
-488.0190072181346
 30
0.0
 40
0.8
100
AcDbArc
 50
180.0
 51
270.000273208
  0
LINE
  5
13F
330
1E
100
AcDbEntity
  8
0
  6
Continuous
 62
     3
100
AcDbLine
 10
-834.5509260754544
 20
-483.4190072181346
 30
0.0
 11
-834.5509260754544
 21
-482.1690072181346
 31
0.0
  0
LINE
  5
140
330
1E
100
AcDbEntity
  8
0
  6
Continuous
 62
     3
100
AcDbLine
 10
-826.5509260754544
 20
-488.8190072181346
 30
0.0
 11
-826.5509260754544
 21
-482.1690072181346
 31
0.0
  0
LINE
  5
141
330
1E
100
AcDbEntity
  8
0
  6
Continuous
 62
     3
100
AcDbLine
 10
-834.5509260754544
 20
-482.1690072181346
 30
0.0
 11
-826.5509260754544
 21
-482.1690072181346
 31
0.0
  0
LINE
  5
142
330
1E
100
AcDbEntity
  8
0
  6
Continuous
 62
     3
100
AcDbLine
 10
-847.0509260754544
 20
-488.0190072181346
 30
0.0
 11
-841.0509260754546
 21
-488.0190072181346
 31
0.0
  0
LINE
  5
143
330
1E
100
AcDbEntity
  8
0
  6
Continuous
 62
     3
100
AcDbLine
 10
-848.8009260754544
 20
-483.1690072181346
 30
0.0
 11
-848.8009260754544
 21
-482.1690072181346
 31
0.0
  0
LINE
  5
144
330
1E
100
AcDbEntity
  8
0
  6
Continuous
 62
     3
100
AcDbLine
 10
-852.8009260754545
 20
-482.9690072181346
 30
0.0
 11
-855.0009260754546
 21
-483.3190072181346
 31
0.0
  0
LINE
  5
145
330
1E
100
AcDbEntity
  8
0
  6
Continuous
 62
     3
100
AcDbLine
 10
-850.0509260754546
 20
-486.7690072181346
 30
0.0
 11
-851.5285336324545
 21
-486.7690072181346
 31
0.0
  0
LINE
  5
146
330
1E
100
AcDbEntity
  8
0
  6
Continuous
 62
     3
100
AcDbLine
 10
-855.0009260754546
 20
-483.3190072181346
 30
0.0
 11
-851.8921208884544
 21
-486.6122335381346
 31
0.0
  0
ARC
  5
147
330
1E
100
AcDbEntity
  8
0
  6
Continuous
 62
     3
100
AcDbCircle
 10
-851.5285336324545
 20
-486.2690072181346
 30
0.0
 40
0.5
100
AcDbArc
 50
223.349956379
 51
270.0
  0
LINE
  5
148
330
1E
100
AcDbEntity
  8
0
  6
Continuous
 62
     3
100
AcDbLine
 10
-841.0509260754546
 20
-488.8190072181346
 30
0.0
 11
-841.0509260754546
 21
-488.0190072181346
 31
0.0
  0
LINE
  5
149
330
1E
100
AcDbEntity
  8
0
  6
Continuous
 62
     3
100
AcDbLine
 10
-820.5509260754546
 20
-488.8190072181346
 30
0.0
 11
-820.5509260754546
 21
-488.0190072181346
 31
0.0
  0
LINE
  5
14A
330
1E
100
AcDbEntity
  8
0
  6
Continuous
 62
     3
100
AcDbLine
 10
-826.5509260754544
 20
-488.0190072181346
 30
0.0
 11
-820.5509260754546
 21
-488.0190072181346
 31
0.0
  0
LINE
  5
14B
330
1E
100
AcDbEntity
  8
0
  6
Continuous
 62
     3
100
AcDbLine
 10
-841.0509260754546
 20
-488.8190072181346
 30
0.0
 11
-820.5509260754546
 21
-488.8190072181346
 31
0.0
  0
LINE
  5
14C
330
1E
100
AcDbEntity
  8
0
  6
Continuous
 62
     4
100
AcDbLine
 10
-822.0509260754544
 20
-488.0190072181346
 30
0.0
 11
-821.6779927464544
 21
-488.0190072181346
 31
0.0
  0
LINE
  5
14D
330
1E
100
AcDbEntity
  8
0
  6
Continuous
 62
     5
100
AcDbLine
 10
-898.9509260754545
 20
-371.1690072181346
 30
0.0
 11
-935.9509260754546
 21
-371.1690072181346
 31
0.0
  0
LINE
  5
14E
330
1E
100
AcDbEntity
  8
0
  6
Continuous
 62
     5
100
AcDbLine
 10
-933.9509260754544
 20
-371.1690072181346
 30
0.0
 11
-934.5979736884544
 21
-373.5838217841346
 31
0.0
  0
LINE
  5
14F
330
1E
100
AcDbEntity
  8
0
  6
Continuous
 62
     5
100
AcDbLine
 10
-933.9509260754544
 20
-371.1690072181346
 30
0.0
 11
-933.3038784624546
 21
-373.5838217841346
 31
0.0
  0
LINE
  5
150
330
1E
100
AcDbEntity
  8
0
  6
Continuous
 62
     5
100
AcDbLine
 10
-933.9509260754544
 20
-371.1690072181346
 30
0.0
 11
-933.9509260754544
 21
-486.1690072181346
 31
0.0
  0
LINE
  5
151
330
1E
100
AcDbEntity
  8
0
  6
Continuous
 62
     5
100
AcDbLine
 10
-933.9509260754544
 20
-486.1690072181346
 30
0.0
 11
-933.3038784624546
 21
-483.7541926521346
 31
0.0
  0
LINE
  5
152
330
1E
100
AcDbEntity
  8
0
  6
Continuous
 62
     5
100
AcDbLine
 10
-933.9509260754544
 20
-486.1690072181346
 30
0.0
 11
-934.5979736884544
 21
-483.7541926521346
 31
0.0
  0
LINE
  5
153
330
1E
100
AcDbEntity
  8
0
  6
Continuous
 62
     5
100
AcDbLine
 10
-912.4509260754544
 20
-486.1690072181346
 30
0.0
 11
-935.9509260754546
 21
-486.1690072181346
 31
0.0
  0
ARC
  5
154
330
1E
100
AcDbEntity
  8
0
  6
Continuous
 62
     3
100
AcDbCircle
 10
-897.9509260754545
 20
-372.1690072181346
 30
0.0
 40
1.0
100
AcDbArc
 50
90.0
 51
180.0
  0
LINE
  5
155
330
1E
100
AcDbEntity
  8
0
  6
Continuous
 62
     5
100
AcDbLine
 10
-898.9509260754545
 20
-370.1690072181346
 30
0.0
 11
-898.9509260754545
 21
-351.2990072181346
 31
0.0
  0
LINE
  5
156
330
1E
100
AcDbEntity
  8
0
  6
Continuous
 62
     5
100
AcDbLine
 10
-898.9509260754545
 20
-353.2990072181346
 30
0.0
 11
-896.5361115094545
 21
-353.9460548311346
 31
0.0
  0
LINE
  5
157
330
1E
100
AcDbEntity
  8
0
  6
Continuous
 62
     5
100
AcDbLine
 10
-898.9509260754545
 20
-353.2990072181346
 30
0.0
 11
-896.5361115094545
 21
-352.6519596051346
 31
0.0
  0
LINE
  5
158
330
1E
100
AcDbEntity
  8
0
  6
Continuous
 62
     5
100
AcDbLine
 10
-898.9509260754545
 20
-353.2990072181346
 30
0.0
 11
-839.9509260754545
 21
-353.2990072181346
 31
0.0
  0
LINE
  5
159
330
1E
100
AcDbEntity
  8
0
  6
Continuous
 62
     5
100
AcDbLine
 10
-839.9509260754545
 20
-353.2990072181346
 30
0.0
 11
-842.3657406414545
 21
-352.6519596051346
 31
0.0
  0
LINE
  5
15A
330
1E
100
AcDbEntity
  8
0
  6
Continuous
 62
     5
100
AcDbLine
 10
-839.9509260754545
 20
-353.2990072181346
 30
0.0
 11
-842.3657406414545
 21
-353.9460548311346
 31
0.0
  0
LINE
  5
15B
330
1E
100
AcDbEntity
  8
0
  6
Continuous
 62
     5
100
AcDbLine
 10
-839.9509260754545
 20
-371.1690072181346
 30
0.0
 11
-839.9509260754545
 21
-351.2990072181346
 31
0.0
  0
LINE
  5
15C
330
1E
100
AcDbEntity
  8
0
  6
Continuous
 62
     2
100
AcDbLine
 10
-869.6509260754544
 20
-488.6690072181346
 30
0.0
 11
-882.1509260754544
 21
-488.6690072181346
 31
0.0
  0
LINE
  5
15D
330
1E
100
AcDbEntity
  8
0
  6
Continuous
 62
     2
100
AcDbLine
 10
-882.1509260754544
 20
-489.6690072181346
 30
0.0
 11
-869.6509260754544
 21
-489.6690072181346
 31
0.0
  0
ARC
  5
15E
330
1E
100
AcDbEntity
  8
0
  6
Continuous
 62
     2
100
AcDbCircle
 10
-882.1509260754544
 20
-488.6690072181346
 30
0.0
 40
1.0
100
AcDbArc
 50
180.0
 51
270.0
  0
LINE
  5
15F
330
1E
100
AcDbEntity
  8
0
  6
Continuous
 62
     2
100
AcDbLine
 10
-869.6509260754544
 20
-488.6690072181346
 30
0.0
 11
-857.1509260754544
 21
-488.6690072181346
 31
0.0
  0
LINE
  5
160
330
1E
100
AcDbEntity
  8
0
  6
Continuous
 62
     2
100
AcDbLine
 10
-857.1509260754544
 20
-489.6690072181346
 30
0.0
 11
-869.6509260754544
 21
-489.6690072181346
 31
0.0
  0
ARC
  5
161
330
1E
100
AcDbEntity
  8
0
  6
Continuous
 62
     2
100
AcDbCircle
 10
-857.1509260754544
 20
-488.6690072181346
 30
0.0
 40
1.0
100
AcDbArc
 50
270.0
 51
0.0
  0
ARC
  5
162
330
1E
100
AcDbEntity
  8
0
  6
Continuous
 62
     2
100
AcDbCircle
 10
-856.1509260754544
 20
-483.3690072181346
 30
0.0
 40
1.0
100
AcDbArc
 50
90.0
 51
180.0
  0
LINE
  5
163
330
1E
100
AcDbEntity
  8
0
  6
Continuous
 62
     2
100
AcDbLine
 10
-857.1509260754544
 20
-488.6690072181346
 30
0.0
 11
-857.1509260754544
 21
-483.3690072181346
 31
0.0
  0
LINE
  5
164
330
1E
100
AcDbEntity
  8
0
  6
Continuous
 62
     2
100
AcDbLine
 10
-856.1509260754544
 20
-483.3690072181346
 30
0.0
 11
-856.1509260754544
 21
-488.6690072181346
 31
0.0
  0
LINE
  5
165
330
1E
100
AcDbEntity
  8
0
  6
Continuous
 62
     2
100
AcDbLine
 10
-887.1509260754544
 20
-483.3690072181346
 30
0.0
 11
-883.1509260754543
 21
-483.3690072181346
 31
0.0
  0
LINE
  5
166
330
1E
100
AcDbEntity
  8
0
  6
Continuous
 62
     2
100
AcDbLine
 10
-887.1509260754544
 20
-482.3690072181346
 30
0.0
 11
-887.1509260754544
 21
-483.3690072181346
 31
0.0
  0
LINE
  5
167
330
1E
100
AcDbEntity
  8
0
  6
Continuous
 62
     2
100
AcDbLine
 10
-887.1509260754544
 20
-483.3690072181346
 30
0.0
 11
-883.1509260754543
 21
-483.3690072181346
 31
0.0
  0
LINE
  5
168
330
1E
100
AcDbEntity
  8
0
  6
Continuous
 62
     2
100
AcDbLine
 10
-882.1509260754544
 20
-488.6690072181346
 30
0.0
 11
-882.1509260754544
 21
-483.3690072181346
 31
0.0
  0
LINE
  5
169
330
1E
100
AcDbEntity
  8
0
  6
Continuous
 62
     2
100
AcDbLine
 10
-883.1509260754543
 20
-483.3690072181346
 30
0.0
 11
-883.1509260754543
 21
-488.6690072181346
 31
0.0
  0
ARC
  5
16A
330
1E
100
AcDbEntity
  8
0
  6
Continuous
 62
     2
100
AcDbCircle
 10
-883.1509260754543
 20
-483.3690072181346
 30
0.0
 40
1.0
100
AcDbArc
 50
0.0
 51
90.0
  0
ARC
  5
16B
330
1E
100
AcDbEntity
  8
0
  6
Continuous
 62
     2
100
AcDbCircle
 10
-883.1509260754543
 20
-483.3690072181346
 30
0.0
 40
1.0
100
AcDbArc
 50
0.0
 51
90.0
  0
LINE
  5
16C
330
1E
100
AcDbEntity
  8
0
  6
Continuous
 62
     2
100
AcDbLine
 10
-887.1509260754544
 20
-482.3690072181346
 30
0.0
 11
-887.1509260754544
 21
-483.3690072181346
 31
0.0
  0
LINE
  5
16D
330
1E
100
AcDbEntity
  8
0
  6
Continuous
 62
     2
100
AcDbLine
 10
-887.1509260754544
 20
-482.3690072181346
 30
0.0
 11
-883.1509260754543
 21
-482.3690072181346
 31
0.0
  0
LINE
  5
16E
330
1E
100
AcDbEntity
  8
0
  6
Continuous
 62
     2
100
AcDbLine
 10
-856.1509260754544
 20
-483.3690072181346
 30
0.0
 11
-855.0009260754546
 21
-483.3690072181346
 31
0.0
  0
LINE
  5
16F
330
1E
100
AcDbEntity
  8
0
  6
Continuous
 62
     3
100
AcDbLine
 10
-852.0509260754545
 20
-482.1690072181346
 30
0.0
 11
-819.9509260754545
 21
-482.1690072181346
 31
0.0
  0
LINE
  5
170
330
1E
100
AcDbEntity
  8
0
  6
Continuous
 62
     2
100
AcDbLine
 10
-856.1509260754544
 20
-482.3690072181346
 30
0.0
 11
-852.8009260754545
 21
-482.3690072181346
 31
0.0
  0
LINE
  5
171
330
1E
100
AcDbEntity
  8
0
  6
Continuous
 62
     5
100
AcDbLine
 10
-870.8509260754544
 20
-489.2690072181347
 30
0.0
 11
-869.9899108514545
 21
-491.6160591531346
 31
0.0
  0
LINE
  5
172
330
1E
100
AcDbEntity
  8
0
  6
Continuous
 62
     5
100
AcDbLine
 10
-870.8509260754544
 20
-489.2690072181347
 30
0.0
 11
-868.9317390504545
 21
-490.8711062051346
 31
0.0
  0
LINE
  5
173
330
1E
100
AcDbEntity
  8
0
  6
Continuous
 62
     5
100
AcDbLine
 10
-870.8509260754544
 20
-489.2690072181347
 30
0.0
 11
-862.0509260754545
 21
-501.7690072181347
 31
0.0
  0
LINE
  5
174
330
1E
100
AcDbEntity
  8
0
  6
Continuous
 62
     5
100
AcDbLine
 10
-862.0509260754545
 20
-501.7690072181347
 30
0.0
 11
-835.9509260754546
 21
-501.7690072181347
 31
0.0
  0
TEXT
  5
175
330
1E
100
AcDbEntity
  8
0
  6
Continuous
 62
     3
100
AcDbText
 10
-862.0509260754545
 20
-500.7690072181346
 30
0.3
 40
4.0
  1
ＤＩＮ　ＲＡＩＬ
 41
0.75
  7
KANJI0
100
AcDbText
  0
LINE
  5
176
330
1E
100
AcDbEntity
  8
0
  6
Continuous
 62
     2
100
AcDbLine
 10
-852.8009260754545
 20
-482.3690072181346
 30
0.3
 11
-852.8009260754545
 21
-482.9690072181346
 31
0.3
  0
LINE
  5
177
330
1E
100
AcDbEntity
  8
0
  6
Continuous
 62
     2
100
AcDbLine
 10
-852.8009260754545
 20
-482.9690072181346
 30
0.0
 11
-855.0009260754546
 21
-483.3190072181346
 31
0.0
  0
LINE
  5
178
330
1E
100
AcDbEntity
  8
0
  6
Continuous
 62
     5
100
AcDbLine
 10
-888.2009260754545
 20
-482.1690072181346
 30
0.0
 11
-897.2009260754544
 21
-482.1690072181346
 31
0.0
  0
LINE
  5
179
330
1E
100
AcDbEntity
  8
0
  6
Continuous
 62
     5
100
AcDbLine
 10
-896.2009260754545
 20
-482.1690072181346
 30
0.0
 11
-895.5538784624545
 21
-479.7541926521346
 31
0.0
  0
LINE
  5
17A
330
1E
100
AcDbEntity
  8
0
  6
Continuous
 62
     5
100
AcDbLine
 10
-896.2009260754545
 20
-482.1690072181346
 30
0.0
 11
-896.8479736884544
 21
-479.7541926521346
 31
0.0
  0
LWPOLYLINE
  5
17B
330
1E
100
AcDbEntity
  8
0
 62
     5
100
AcDbPolyline
 90
        4
 70
     0
 43
0.0
 10
-896.2009260754545
 20
-478.4190072181346
 10
-896.2009260754545
 20
-482.1690072181346
 10
-896.2009260754545
 20
-486.1690072181346
 10
-896.2009260754545
 20
-489.9190072181347
  0
LINE
  5
181
330
1E
100
AcDbEntity
  8
0
  6
Continuous
 62
     5
100
AcDbLine
 10
-896.2009260754545
 20
-486.1690072181346
 30
0.0
 11
-896.8479736884544
 21
-488.5838217841346
 31
0.0
  0
LINE
  5
182
330
1E
100
AcDbEntity
  8
0
  6
Continuous
 62
     5
100
AcDbLine
 10
-896.2009260754545
 20
-486.1690072181346
 30
0.0
 11
-895.5538784624545
 21
-488.5838217841346
 31
0.0
  0
LINE
  5
183
330
1E
100
AcDbEntity
  8
0
  6
Continuous
 62
     5
100
AcDbLine
 10
-896.2009260754545
 20
-489.9190072181347
 30
0.0
 11
-896.2009260754545
 21
-494.9190072181346
 31
0.0
  0
TEXT
  5
184
330
1E
100
AcDbEntity
  8
0
  6
Continuous
 62
     3
100
AcDbText
 10
-897.2009260754544
 20
-494.0690072181346
 30
0.3
 40
3.0
  1
（４）
 50
90.0
 41
0.6
  7
KANJI1
100
AcDbText
  0
LINE
  5
185
330
1E
100
AcDbEntity
  8
0
  6
Continuous
 62
     3
100
AcDbLine
 10
-899.2889515754544
 20
-320.8219405471346
 30
0.3
 11
-899.2889515754544
 21
-324.8219405471346
 31
0.3
  0
LINE
  5
186
330
1E
100
AcDbEntity
  8
0
  6
Continuous
 62
     3
100
AcDbLine
 10
-899.2889515754544
 20
-324.8219405471346
 30
0.0
 11
-898.7889515754543
 21
-324.8219405471346
 31
0.0
  0
LINE
  5
187
330
1E
100
AcDbEntity
  8
0
  6
Continuous
 62
     3
100
AcDbLine
 10
-898.7889515754543
 20
-325.8219405471346
 30
0.0
 11
-899.2889515754544
 21
-325.8219405471346
 31
0.0
  0
LINE
  5
188
330
1E
100
AcDbEntity
  8
0
  6
Continuous
 62
     3
100
AcDbLine
 10
-899.2889515754544
 20
-325.8219405471346
 30
0.0
 11
-899.2889515754544
 21
-330.8219405471346
 31
0.0
  0
LINE
  5
189
330
1E
100
AcDbEntity
  8
0
  6
Continuous
 62
     3
100
AcDbLine
 10
-898.2889515754544
 20
-320.0719405471346
 30
0.0
 11
-898.2889515754544
 21
-331.5719405471346
 31
0.0
  0
LINE
  5
18A
330
1E
100
AcDbEntity
  8
1
  6
Continuous
 62
     3
100
AcDbLine
 10
-893.2889515754544
 20
-330.8844405471346
 30
0.0
 11
-893.2889515754544
 21
-320.8844405471346
 31
0.0
  0
LINE
  5
18B
330
1E
100
AcDbEntity
  8
1
  6
Continuous
 62
     3
100
AcDbLine
 10
-845.2889515754545
 20
-320.8844405471346
 30
0.0
 11
-845.2889515754545
 21
-330.8844405471346
 31
0.0
  0
LINE
  5
18C
330
1E
100
AcDbEntity
  8
1
  6
Continuous
 62
     3
100
AcDbLine
 10
-849.2889515754544
 20
-330.8844405471346
 30
0.0
 11
-849.2889515754544
 21
-320.8844405471346
 31
0.0
  0
LINE
  5
18D
330
1E
100
AcDbEntity
  8
1
  6
Continuous
 62
     3
100
AcDbLine
 10
-867.2889515754544
 20
-320.8844405471346
 30
0.0
 11
-867.2889515754544
 21
-330.8844405471346
 31
0.0
  0
LINE
  5
18E
330
1E
100
AcDbEntity
  8
1
  6
Continuous
 62
     3
100
AcDbLine
 10
-859.2889515754544
 20
-330.8844405471346
 30
0.0
 11
-859.2889515754544
 21
-320.8844405471346
 31
0.0
  0
LINE
  5
18F
330
1E
100
AcDbEntity
  8
1
  6
Continuous
 62
     3
100
AcDbLine
 10
-841.2889515754544
 20
-330.8844405471346
 30
0.0
 11
-841.2889515754544
 21
-320.8844405471346
 31
0.0
  0
LINE
  5
190
330
1E
100
AcDbEntity
  8
1
  6
Continuous
 62
     3
100
AcDbLine
 10
-897.2889515754545
 20
-320.8844405471346
 30
0.0
 11
-897.2889515754545
 21
-330.8844405471346
 31
0.0
  0
LINE
  5
191
330
1E
100
AcDbEntity
  8
1
  6
Continuous
 62
     3
100
AcDbLine
 10
-864.1462944264544
 20
-329.9677736561346
 30
0.0
 11
-864.1462944264544
 21
-325.7177736561347
 31
0.0
  0
TEXT
  5
192
330
1E
100
AcDbEntity
  8
1
  6
Continuous
 62
     3
100
AcDbText
 10
-864.3962944264544
 20
-330.2177736561346
 30
0.1
 40
2.0
  1
ＴＡＧ
 50
90.0
 41
0.75
  7
KANJI2
100
AcDbText
  0
LINE
  5
193
330
1E
100
AcDbEntity
  8
1
  6
Continuous
 62
     3
100
AcDbLine
 10
-849.2889515754544
 20
-325.8844405471346
 30
0.1
 11
-841.2889515754544
 21
-325.8844405471346
 31
0.1
  0
LINE
  5
194
330
1E
100
AcDbEntity
  8
0
  6
Continuous
 62
     3
100
AcDbLine
 10
-918.2889515754544
 20
-320.8219405471346
 30
0.0
 11
-918.2889515754544
 21
-321.2219405471346
 31
0.0
  0
LINE
  5
195
330
1E
100
AcDbEntity
  8
0
  6
Continuous
 62
     3
100
AcDbLine
 10
-918.7889515754545
 20
-331.2219405471346
 30
0.0
 11
-918.7889515754545
 21
-331.5719405471346
 31
0.0
  0
LINE
  5
196
330
1E
100
AcDbEntity
  8
0
  6
Continuous
 62
     3
100
AcDbLine
 10
-918.7889515754545
 20
-320.0719405471346
 30
0.0
 11
-918.7889515754545
 21
-321.2219405471346
 31
0.0
  0
ARC
  5
197
330
1E
100
AcDbEntity
  8
0
  6
Continuous
 62
     3
100
AcDbCircle
 10
-925.7889515754545
 20
-328.5719405471346
 30
0.0
 40
0.5
100
AcDbArc
 50
180.0
 51
270.0
  0
ARC
  5
198
330
1E
100
AcDbEntity
  8
0
  6
Continuous
 62
     3
100
AcDbCircle
 10
-925.7889515754545
 20
-323.0719405471346
 30
0.0
 40
0.5
100
AcDbArc
 50
90.0
 51
180.0
  0
LINE
  5
199
330
1E
100
AcDbEntity
  8
0
  6
Continuous
 62
     3
100
AcDbLine
 10
-926.2889515754544
 20
-323.0719405471346
 30
0.0
 11
-926.2889515754544
 21
-328.5719405471346
 31
0.0
  0
LINE
  5
19A
330
1E
100
AcDbEntity
  8
0
  6
Continuous
 62
     3
100
AcDbLine
 10
-911.2889515754543
 20
-321.2219405471346
 30
0.0
 11
-922.2889515754545
 21
-321.2219405471346
 31
0.0
  0
LINE
  5
19B
330
1E
100
AcDbEntity
  8
0
  6
Continuous
 62
     3
100
AcDbLine
 10
-921.7889515754544
 20
-331.2219405471346
 30
0.0
 11
-911.2889515754543
 21
-331.2219405471346
 31
0.0
  0
ARC
  5
19C
330
1E
100
AcDbEntity
  8
0
  6
Continuous
 62
     3
100
AcDbCircle
 10
-922.7889515754544
 20
-322.0719405471346
 30
0.0
 40
0.5
100
AcDbArc
 50
270.0
 51
0.0
  0
LINE
  5
19D
330
1E
100
AcDbEntity
  8
0
  6
Continuous
 62
     3
100
AcDbLine
 10
-925.7889515754545
 20
-322.5719405471346
 30
0.0
 11
-922.7889515754544
 21
-322.5719405471346
 31
0.0
  0
ARC
  5
19E
330
1E
100
AcDbEntity
  8
0
  6
Continuous
 62
     3
100
AcDbCircle
 10
-921.7889515754544
 20
-330.7219405471346
 30
0.0
 40
0.5
100
AcDbArc
 50
180.0
 51
270.0
  0
ARC
  5
19F
330
1E
100
AcDbEntity
  8
0
  6
Continuous
 62
     3
100
AcDbCircle
 10
-922.7889515754544
 20
-329.5719405471346
 30
0.0
 40
0.5
100
AcDbArc
 50
0.0
 51
90.0
  0
LINE
  5
1A0
330
1E
100
AcDbEntity
  8
0
  6
Continuous
 62
     3
100
AcDbLine
 10
-925.7889515754545
 20
-329.0719405471346
 30
0.0
 11
-922.7889515754544
 21
-329.0719405471346
 31
0.0
  0
LINE
  5
1A1
330
1E
100
AcDbEntity
  8
0
  6
Continuous
 62
     3
100
AcDbLine
 10
-922.2889515754545
 20
-330.7219405471346
 30
0.0
 11
-922.2889515754545
 21
-321.2219405471346
 31
0.0
  0
LINE
  5
1A2
330
1E
100
AcDbEntity
  8
0
  6
Continuous
 62
     3
100
AcDbLine
 10
-911.2889515754543
 20
-331.2219405471346
 30
0.0
 11
-911.2889515754543
 21
-321.2219405471346
 31
0.0
  0
LINE
  5
1A3
330
1E
100
AcDbEntity
  8
0
  6
Continuous
 62
     3
100
AcDbLine
 10
-911.2889515754543
 20
-322.3219405471346
 30
0.0
 11
-908.2889515754544
 21
-322.3219405471346
 31
0.0
  0
LINE
  5
1A4
330
1E
100
AcDbEntity
  8
0
  6
Continuous
 62
     3
100
AcDbLine
 10
-908.2889515754544
 20
-324.3219405471346
 30
0.0
 11
-911.2889515754543
 21
-324.3219405471346
 31
0.0
  0
LINE
  5
1A5
330
1E
100
AcDbEntity
  8
0
  6
Continuous
 62
     3
100
AcDbLine
 10
-908.2889515754544
 20
-327.3219405471346
 30
0.0
 11
-911.2889515754543
 21
-327.3219405471346
 31
0.0
  0
LINE
  5
1A6
330
1E
100
AcDbEntity
  8
0
  6
Continuous
 62
     3
100
AcDbLine
 10
-911.2889515754543
 20
-329.3219405471346
 30
0.0
 11
-908.2889515754544
 21
-329.3219405471346
 31
0.0
  0
LINE
  5
1A7
330
1E
100
AcDbEntity
  8
0
  6
Continuous
 62
     3
100
AcDbLine
 10
-911.2889515754543
 20
-330.8219405471346
 30
0.0
 11
-898.7889515754543
 21
-330.8219405471346
 31
0.0
  0
LINE
  5
1A8
330
1E
100
AcDbEntity
  8
0
  6
Continuous
 62
     3
100
AcDbLine
 10
-918.9509260754546
 20
-483.1690072181346
 30
0.0
 11
-918.9509260754546
 21
-496.6690072181346
 31
0.0
  0
LINE
  5
1A9
330
1E
100
AcDbEntity
  8
0
  6
Continuous
 62
     3
100
AcDbLine
 10
-918.9509260754546
 20
-494.6690072181346
 30
0.0
 11
-920.8827777284545
 21
-494.1513691281346
 31
0.0
  0
LINE
  5
1AA
330
1E
100
AcDbEntity
  8
0
  6
Continuous
 62
     3
100
AcDbLine
 10
-918.9509260754546
 20
-494.6690072181346
 30
0.0
 11
-920.8827777284545
 21
-495.1866453081346
 31
0.0
  0
TEXT
  5
1AB
330
1E
100
AcDbEntity
  8
0
  6
Continuous
 62
     3
100
AcDbText
 10
-936.1509260754544
 20
-493.6690072181346
 30
0.0
 40
2.5
  1
３０
 41
0.88
  7
KANJI3
100
AcDbText
  0
ARC
  5
1AC
330
1E
100
AcDbEntity
  8
0
  6
Continuous
 62
     3
100
AcDbCircle
 10
-948.2009260754544
 20
-324.3219405471346
 30
0.0
 40
0.75
100
AcDbArc
 50
90.0
 51
270.0
  0
ARC
  5
1AD
330
1E
100
AcDbEntity
  8
0
  6
Continuous
 62
     3
100
AcDbCircle
 10
-948.2009260754544
 20
-327.3219405471346
 30
0.0
 40
0.75
100
AcDbArc
 50
90.0
 51
270.0
  0
LINE
  5
1AE
330
1E
100
AcDbEntity
  8
0
  6
Continuous
 62
     3
100
AcDbLine
 10
-926.2889515754544
 20
-323.5719405471346
 30
0.0
 11
-948.2009260754544
 21
-323.5719405471346
 31
0.0
  0
LINE
  5
1AF
330
1E
100
AcDbEntity
  8
0
  6
Continuous
 62
     3
100
AcDbLine
 10
-926.2889515754544
 20
-326.5719405471346
 30
0.0
 11
-948.2009260754544
 21
-326.5719405471346
 31
0.0
  0
LINE
  5
1B0
330
1E
100
AcDbEntity
  8
0
  6
Continuous
 62
     3
100
AcDbLine
 10
-926.2889515754544
 20
-328.0719405471346
 30
0.0
 11
-948.2009260754544
 21
-328.0719405471346
 31
0.0
  0
LINE
  5
1B1
330
1E
100
AcDbEntity
  8
0
  6
Continuous
 62
     3
100
AcDbLine
 10
-926.2889515754544
 20
-325.0719405471346
 30
0.0
 11
-948.2009260754544
 21
-325.0719405471346
 31
0.0
  0
POINT
  5
1B2
330
1E
100
AcDbEntity
  8
0
  6
Continuous
 62
     3
100
AcDbPoint
 10
-768.7009260754544
 20
-372.4190072181346
 30
0.0
  0
POINT
  5
1B3
330
1E
100
AcDbEntity
  8
0
  6
Continuous
 62
     3
100
AcDbPoint
 10
-768.7009260754544
 20
-372.4190072181346
 30
0.0
  0
LINE
  5
1B4
330
1E
100
AcDbEntity
  8
0
  6
Continuous
 62
     1
100
AcDbLine
 10
-768.7009260754544
 20
-371.6739495331346
 30
0.0
 11
-768.6959837604545
 21
-371.6690072181346
 31
0.0
  0
LINE
  5
1B5
330
1E
100
AcDbEntity
  8
0
  6
Continuous
 62
     3
100
AcDbLine
 10
-768.7009260754544
 20
-371.1690072181346
 30
0.0
 11
-768.7009260754544
 21
-372.6690072181346
 31
0.0
  0
LINE
  5
1B6
330
1E
100
AcDbEntity
  8
0
  6
Continuous
 62
     3
100
AcDbLine
 10
-762.9509260754545
 20
-371.1690072181346
 30
0.0
 11
-768.7009260754544
 21
-371.1690072181346
 31
0.0
  0
LWPOLYLINE
  5
1B7
330
1E
100
AcDbEntity
  8
0
 62
     3
100
AcDbPolyline
 90
        4
 70
     0
 43
0.0
 10
-768.7009260754544
 20
-371.6690072181346
 10
-768.7009260754544
 20
-372.4190072181346
 10
-768.7009260754544
 20
-372.4190072181346
 10
-768.7009260754544
 20
-372.4190072181346
  0
LINE
  5
1BD
330
1E
100
AcDbEntity
  8
0
  6
Continuous
 62
     3
100
AcDbLine
 10
-774.4509260754544
 20
-371.1690072181346
 30
0.0
 11
-768.7009260754544
 21
-371.1690072181346
 31
0.0
  0
LINE
  5
1BE
330
1E
100
AcDbEntity
  8
0
  6
Continuous
 62
     3
100
AcDbLine
 10
-774.4509260754544
 20
-371.1690072181346
 30
0.0
 11
-774.9509260754544
 21
-372.1690072181346
 31
0.0
  0
LINE
  5
1BF
330
1E
100
AcDbEntity
  8
0
  6
Continuous
 62
     3
100
AcDbLine
 10
-762.9509260754545
 20
-371.1690072181346
 30
0.0
 11
-762.4509260754544
 21
-372.1690072181346
 31
0.0
  0
LINE
  5
1C0
330
1E
100
AcDbEntity
  8
0
  6
Continuous
 62
     5
100
AcDbLine
 10
-774.9509260754544
 20
-371.1690072181346
 30
0.0
 11
-774.9509260754544
 21
-354.1690072181346
 31
0.0
  0
LINE
  5
1C1
330
1E
100
AcDbEntity
  8
0
  6
Continuous
 62
     5
100
AcDbLine
 10
-774.9509260754544
 20
-356.1690072181346
 30
0.0
 11
-772.5361115094544
 21
-356.8160548311346
 31
0.0
  0
LINE
  5
1C2
330
1E
100
AcDbEntity
  8
0
  6
Continuous
 62
     5
100
AcDbLine
 10
-774.9509260754544
 20
-356.1690072181346
 30
0.0
 11
-772.5361115094544
 21
-355.5219596051346
 31
0.0
  0
LINE
  5
1C3
330
1E
100
AcDbEntity
  8
0
  6
Continuous
 62
     5
100
AcDbLine
 10
-762.4509260754544
 20
-356.1690072181346
 30
0.0
 11
-764.8657406414545
 21
-355.5219596051346
 31
0.0
  0
LINE
  5
1C4
330
1E
100
AcDbEntity
  8
0
  6
Continuous
 62
     5
100
AcDbLine
 10
-762.4509260754544
 20
-356.1690072181346
 30
0.0
 11
-764.8657406414545
 21
-356.8160548311346
 31
0.0
  0
LINE
  5
1C5
330
1E
100
AcDbEntity
  8
0
  6
Continuous
 62
     5
100
AcDbLine
 10
-762.4509260754544
 20
-371.1690072181346
 30
0.0
 11
-762.4509260754544
 21
-354.1690072181346
 31
0.0
  0
LINE
  5
1C6
330
1E
100
AcDbEntity
  8
0
  6
Continuous
 62
     5
100
AcDbLine
 10
-774.9509260754544
 20
-356.1690072181346
 30
0.0
 11
-737.6009260754544
 21
-356.1690072181346
 31
0.0
  0
LINE
  5
1C7
330
1E
100
AcDbEntity
  8
0
  6
Continuous
 62
     5
100
AcDbLine
 10
-762.4509260754544
 20
-356.1690072181346
 30
0.0
 11
-760.0361115094544
 21
-356.8160548311346
 31
0.0
  0
LINE
  5
1C8
330
1E
100
AcDbEntity
  8
0
  6
Continuous
 62
     5
100
AcDbLine
 10
-762.4509260754544
 20
-356.1690072181346
 30
0.0
 11
-760.0361115094544
 21
-355.5219596051346
 31
0.0
  0
LINE
  5
1C9
330
1E
100
AcDbEntity
  8
0
  6
Continuous
 62
     3
100
AcDbLine
 10
-923.2889515754544
 20
-321.2219405471346
 30
0.0
 11
-932.2889515754544
 21
-321.2219405471346
 31
0.0
  0
LINE
  5
1CA
330
1E
100
AcDbEntity
  8
0
  6
Continuous
 62
     3
100
AcDbLine
 10
-930.2889515754545
 20
-321.2219405471346
 30
0.0
 11
-929.7713134854545
 21
-319.2900888941346
 31
0.0
  0
LINE
  5
1CB
330
1E
100
AcDbEntity
  8
0
  6
Continuous
 62
     3
100
AcDbLine
 10
-930.2889515754545
 20
-321.2219405471346
 30
0.0
 11
-930.8065896654545
 21
-319.2900888941346
 31
0.0
  0
LINE
  5
1CC
330
1E
100
AcDbEntity
  8
0
  6
Continuous
 62
     3
100
AcDbLine
 10
-930.2889515754545
 20
-313.8219405471346
 30
0.0
 11
-930.2889515754545
 21
-321.2219405471346
 31
0.0
  0
LWPOLYLINE
  5
1CD
330
1E
100
AcDbEntity
  8
0
 62
     3
100
AcDbPolyline
 90
        3
 70
     0
 43
0.0
 10
-930.2889515754545
 20
-321.2219405471346
 10
-930.2889515754545
 20
-331.2219405471346
 10
-930.2889515754545
 20
-334.2219405471346
  0
LINE
  5
1D2
330
1E
100
AcDbEntity
  8
0
  6
Continuous
 62
     3
100
AcDbLine
 10
-930.2889515754545
 20
-331.2219405471346
 30
0.0
 11
-930.8065896654545
 21
-333.1537922001346
 31
0.0
  0
LINE
  5
1D3
330
1E
100
AcDbEntity
  8
0
  6
Continuous
 62
     3
100
AcDbLine
 10
-930.2889515754545
 20
-331.2219405471346
 30
0.0
 11
-929.7713134854545
 21
-333.1537922001346
 31
0.0
  0
LINE
  5
1D4
330
1E
100
AcDbEntity
  8
0
  6
Continuous
 62
     3
100
AcDbLine
 10
-922.7889515754544
 20
-331.2219405471346
 30
0.0
 11
-932.2889515754544
 21
-331.2219405471346
 31
0.0
  0
TEXT
  5
1D5
330
1E
100
AcDbEntity
  8
0
  6
Continuous
 62
     3
100
AcDbText
 10
-931.2889515754545
 20
-318.2219405471346
 30
0.0
 40
2.5
  1
１１
 50
90.0
 41
0.88
  7
KANJI3
100
AcDbText
  0
TEXT
  5
1D6
330
1E
100
AcDbEntity
  8
0
  6
Continuous
 62
     3
100
AcDbText
 10
-875.4389515754544
 20
-300.6690072181346
 30
0.3
 40
3.0
  1
９９±０.５
 41
0.6
  7
KANJI1
100
AcDbText
  0
TEXT
  5
1D7
330
1E
100
AcDbEntity
  8
0
  6
Continuous
 62
     3
100
AcDbText
 10
-875.6009260754545
 20
-352.2990072181346
 30
0.3
 40
3.0
  1
５９±０.５
 41
0.6
  7
KANJI1
100
AcDbText
  0
TEXT
  5
1D8
330
1E
100
AcDbEntity
  8
0
  6
Continuous
 62
     3
100
AcDbText
 10
-760.1009260754544
 20
-355.1690072181346
 30
0.3
 40
3.0
  1
１２.５＋０.５，－０
 41
0.6
  7
KANJI1
100
AcDbText
  0
TEXT
  5
1D9
330
1E
100
AcDbEntity
  8
0
  6
Continuous
 62
     3
100
AcDbText
 10
-934.9509260754544
 20
-435.8690072181346
 30
0.3
 40
3.0
  1
１１５±０.５
 50
90.0
 41
0.6
  7
KANJI1
100
AcDbText
  0
TEXT
  5
1DA
330
1E
100
AcDbEntity
  8
1
  6
Continuous
 62
     3
100
AcDbText
 10
-889.7389515754545
 20
-326.9598624148176
 30
0.3
 40
3.0
  1
　４
 50
90.0
 41
0.666666667
  7
KANJI4
100
AcDbText
  0
TEXT
  5
1DB
330
1E
100
AcDbEntity
  8
1
  6
Continuous
 62
     3
100
AcDbText
 10
-889.7389515754545
 20
-331.7098624148176
 30
0.3
 40
3.0
  1
　３
 50
90.0
 41
0.666666667
  7
KANJI4
100
AcDbText
  0
TEXT
  5
1DC
330
1E
100
AcDbEntity
  8
1
  6
Continuous
 62
     3
100
AcDbText
 10
-845.6037570009167
 20
-326.6896933911416
 30
0.3
 40
3.0
  1
　６
 50
90.0
 41
0.666666667
  7
KANJI4
100
AcDbText
  0
TEXT
  5
1DD
330
1E
100
AcDbEntity
  8
1
  6
Continuous
 62
     3
100
AcDbText
 10
-845.8741461499922
 20
-331.5747785944866
 30
0.3
 40
3.0
  1
　５
 50
90.0
 41
0.666666667
  7
KANJI4
100
AcDbText
  0
TEXT
  5
1DE
330
1E
100
AcDbEntity
  8
1
  6
Continuous
 62
     3
100
AcDbText
 10
-841.6037570009168
 20
-331.4396933911416
 30
0.3
 40
3.0
  1
　７
 50
90.0
 41
0.666666667
  7
KANJI4
100
AcDbText
  0
TEXT
  5
1DF
330
1E
100
AcDbEntity
  8
1
  6
Continuous
 62
     3
100
AcDbText
 10
-841.874144932056
 20
-326.6896933911416
 30
0.3
 40
3.0
  1
　８
 50
90.0
 41
0.666666667
  7
KANJI4
100
AcDbText
  0
TEXT
  5
1E0
330
1E
100
AcDbEntity
  8
1
  6
Continuous
 62
     3
100
AcDbText
 10
-867.8962944264544
 20
-329.5870982529375
 30
0.18
 40
2.7
  1
TH-1C
 50
90.0
 41
0.666666667
  7
KANJI5
100
AcDbText
  0
LINE
  5
1E1
330
1E
100
AcDbEntity
  8
0
  6
Continuous
 62
     3
100
AcDbLine
 10
-820.7889515754544
 20
-319.5719405471346
 30
0.18
 11
-917.7889515754545
 21
-319.5719405471346
 31
0.18
  0
LINE
  5
1E2
330
1E
100
AcDbEntity
  8
0
  6
Continuous
 62
     3
100
AcDbLine
 10
-917.7889515754545
 20
-332.0719405471346
 30
0.0
 11
-820.7889515754544
 21
-332.0719405471346
 31
0.0
  0
LINE
  5
1E3
330
1E
100
AcDbEntity
  8
0
  6
Continuous
 62
     3
100
AcDbLine
 10
-840.2889515754544
 20
-331.5719405471346
 30
0.0
 11
-898.2889515754544
 21
-331.5719405471346
 31
0.0
  0
LINE
  5
1E4
330
1E
100
AcDbEntity
  8
0
  6
Continuous
 62
     3
100
AcDbLine
 10
-898.2889515754544
 20
-320.0719405471346
 30
0.0
 11
-840.2889515754544
 21
-320.0719405471346
 31
0.0
  0
LINE
  5
1E5
330
1E
100
AcDbEntity
  8
1
  6
Continuous
 62
     3
100
AcDbLine
 10
-889.2889515754545
 20
-320.8844405471346
 30
0.0
 11
-889.2889515754545
 21
-330.8844405471346
 31
0.0
  0
LINE
  5
1E6
330
1E
100
AcDbEntity
  8
1
  6
Continuous
 62
     3
100
AcDbLine
 10
-871.2889515754545
 20
-330.8844405471346
 30
0.0
 11
-871.2889515754545
 21
-320.8844405471346
 31
0.0
  0
LINE
  5
1E7
330
1E
100
AcDbEntity
  8
1
  6
Continuous
 62
     3
100
AcDbLine
 10
-897.2889515754545
 20
-330.8844405471346
 30
0.0
 11
-841.2889515754544
 21
-330.8844405471346
 31
0.0
  0
LINE
  5
1E8
330
1E
100
AcDbEntity
  8
1
  6
Continuous
 62
     3
100
AcDbLine
 10
-841.2889515754544
 20
-320.8844405471346
 30
0.0
 11
-897.2889515754545
 21
-320.8844405471346
 31
0.0
  0
LINE
  5
1E9
330
1E
100
AcDbEntity
  8
1
  6
Continuous
 62
     3
100
AcDbLine
 10
-889.2889515754545
 20
-325.8844405471346
 30
0.0
 11
-897.2889515754545
 21
-325.8844405471346
 31
0.0
  0
ARC
  5
1EA
330
1E
100
AcDbEntity
  8
0
  6
Continuous
 62
     3
100
AcDbCircle
 10
-887.7889515754544
 20
-322.3844405471346
 30
0.0
 40
1.0
100
AcDbArc
 50
90.0
 51
180.0
  0
LINE
  5
1EB
330
1E
100
AcDbEntity
  8
0
  6
Continuous
 62
     3
100
AcDbLine
 10
-872.7889515754544
 20
-321.3844405471346
 30
0.0
 11
-887.7889515754544
 21
-321.3844405471346
 31
0.0
  0
LINE
  5
1EC
330
1E
100
AcDbEntity
  8
0
  6
Continuous
 62
     3
100
AcDbLine
 10
-887.7889515754544
 20
-330.3844405471346
 30
0.0
 11
-872.7889515754544
 21
-330.3844405471346
 31
0.0
  0
ARC
  5
1ED
330
1E
100
AcDbEntity
  8
0
  6
Continuous
 62
     3
100
AcDbCircle
 10
-887.7889515754544
 20
-329.3844405471346
 30
0.0
 40
1.0
100
AcDbArc
 50
180.0
 51
270.0
  0
ARC
  5
1EE
330
1E
100
AcDbEntity
  8
0
  6
Continuous
 62
     3
100
AcDbCircle
 10
-872.7889515754544
 20
-322.3844405471346
 30
0.0
 40
1.0
100
AcDbArc
 50
0.0
 51
90.0
  0
LINE
  5
1EF
330
1E
100
AcDbEntity
  8
0
  6
Continuous
 62
     3
100
AcDbLine
 10
-871.7889515754544
 20
-329.3844405471346
 30
0.0
 11
-871.7889515754544
 21
-322.3844405471346
 31
0.0
  0
ARC
  5
1F0
330
1E
100
AcDbEntity
  8
0
  6
Continuous
 62
     3
100
AcDbCircle
 10
-872.7889515754544
 20
-329.3844405471346
 30
0.0
 40
1.0
100
AcDbArc
 50
270.0
 51
0.0
  0
LINE
  5
1F1
330
1E
100
AcDbEntity
  8
0
  6
Continuous
 62
     3
100
AcDbLine
 10
-888.7889515754544
 20
-322.3844405471346
 30
0.0
 11
-888.7889515754544
 21
-329.3844405471346
 31
0.0
  0
LINE
  5
1F2
330
1E
100
AcDbEntity
  8
0
  6
Continuous
 62
     3
100
AcDbLine
 10
-848.7009260754545
 20
-376.6690072181346
 30
0.0
 11
-890.2009260754544
 21
-376.6690072181346
 31
0.0
  0
LINE
  5
1F3
330
1E
100
AcDbEntity
  8
0
  6
Continuous
 62
     3
100
AcDbLine
 10
-898.9509260754545
 20
-381.2590072181346
 30
0.0
 11
-898.9509260754545
 21
-417.3190072181346
 31
0.0
  0
LINE
  5
1F4
330
1E
100
AcDbEntity
  8
0
  6
Continuous
 62
     3
100
AcDbLine
 10
-898.9509260754545
 20
-417.3190072181346
 30
0.0
 11
-898.9509260754545
 21
-419.1690072181346
 31
0.0
  0
CIRCLE
  5
1F5
330
1E
100
AcDbEntity
  8
0
  6
Continuous
 62
     3
100
AcDbCircle
 10
-842.4509260754545
 20
-374.1690072181346
 30
0.0
 40
1.5
  0
LINE
  5
1F6
330
1E
100
AcDbEntity
  8
0
  6
Continuous
 62
     3
100
AcDbLine
 10
-839.9509260754545
 20
-372.1690072181346
 30
0.0
 11
-839.9509260754545
 21
-417.3190072181346
 31
0.0
  0
LINE
  5
1F7
330
1E
100
AcDbEntity
  8
0
  6
Continuous
 62
     3
100
AcDbLine
 10
-897.4509260754544
 20
-391.4190072181346
 30
0.0
 11
-897.4509260754544
 21
-389.4190072181346
 31
0.0
  0
LINE
  5
1F8
330
1E
100
AcDbEntity
  8
0
  6
Continuous
 62
     3
100
AcDbLine
 10
-844.7009260754544
 20
-415.9190072181346
 30
0.0
 11
-844.9509260754545
 21
-415.9190072181346
 31
0.0
  0
LINE
  5
1F9
330
1E
100
AcDbEntity
  8
0
  6
Continuous
 62
     3
100
AcDbLine
 10
-839.9509260754545
 20
-415.9190072181346
 30
0.0
 11
-842.4509260754545
 21
-415.9190072181346
 31
0.0
  0
LINE
  5
1FA
330
1E
100
AcDbEntity
  8
0
  6
Continuous
 62
     3
100
AcDbLine
 10
-842.4509260754545
 20
-415.9190072181346
 30
0.0
 11
-839.9509260754545
 21
-415.9190072181346
 31
0.0
  0
LINE
  5
1FB
330
1E
100
AcDbEntity
  8
0
  6
Continuous
 62
     3
100
AcDbLine
 10
-844.9509260754545
 20
-415.9190072181346
 30
0.0
 11
-841.4509260754545
 21
-415.9190072181346
 31
0.0
  0
LINE
  5
1FC
330
1E
100
AcDbEntity
  8
0
  6
Continuous
 62
     3
100
AcDbLine
 10
-843.4509260754545
 20
-410.4190072181346
 30
0.0
 11
-839.9509260754545
 21
-410.4190072181346
 31
0.0
  0
LINE
  5
1FD
330
1E
100
AcDbEntity
  8
0
  6
Continuous
 62
     3
100
AcDbLine
 10
-844.9509260754545
 20
-410.4190072181346
 30
0.0
 11
-843.4509260754545
 21
-410.4190072181346
 31
0.0
  0
LINE
  5
1FE
330
1E
100
AcDbEntity
  8
0
  6
Continuous
 62
     3
100
AcDbLine
 10
-839.9509260754545
 20
-412.4190072181346
 30
0.0
 11
-843.4509260754545
 21
-412.4190072181346
 31
0.0
  0
LINE
  5
1FF
330
1E
100
AcDbEntity
  8
0
  6
Continuous
 62
     3
100
AcDbLine
 10
-843.4509260754545
 20
-413.9190072181346
 30
0.0
 11
-839.9509260754545
 21
-413.9190072181346
 31
0.0
  0
LINE
  5
200
330
1E
100
AcDbEntity
  8
0
  6
Continuous
 62
     3
100
AcDbLine
 10
-843.4509260754545
 20
-412.4190072181346
 30
0.0
 11
-843.4509260754545
 21
-413.9190072181346
 31
0.0
  0
LINE
  5
201
330
1E
100
AcDbEntity
  8
0
  6
Continuous
 62
     3
100
AcDbLine
 10
-843.4509260754545
 20
-406.9190072181346
 30
0.0
 11
-839.9509260754545
 21
-406.9190072181346
 31
0.0
  0
LINE
  5
202
330
1E
100
AcDbEntity
  8
0
  6
Continuous
 62
     3
100
AcDbLine
 10
-839.9509260754545
 20
-408.9190072181346
 30
0.0
 11
-843.4509260754545
 21
-408.9190072181346
 31
0.0
  0
LINE
  5
203
330
1E
100
AcDbEntity
  8
0
  6
Continuous
 62
     3
100
AcDbLine
 10
-843.4509260754545
 20
-406.9190072181346
 30
0.0
 11
-843.4509260754545
 21
-408.9190072181346
 31
0.0
  0
LINE
  5
204
330
1E
100
AcDbEntity
  8
0
  6
Continuous
 62
     3
100
AcDbLine
 10
-843.4509260754545
 20
-403.4190072181346
 30
0.0
 11
-839.9509260754545
 21
-403.4190072181346
 31
0.0
  0
LINE
  5
205
330
1E
100
AcDbEntity
  8
0
  6
Continuous
 62
     3
100
AcDbLine
 10
-839.9509260754545
 20
-405.4190072181346
 30
0.0
 11
-843.4509260754545
 21
-405.4190072181346
 31
0.0
  0
LINE
  5
206
330
1E
100
AcDbEntity
  8
0
  6
Continuous
 62
     3
100
AcDbLine
 10
-843.4509260754545
 20
-403.4190072181346
 30
0.0
 11
-843.4509260754545
 21
-405.4190072181346
 31
0.0
  0
LINE
  5
207
330
1E
100
AcDbEntity
  8
0
  6
Continuous
 62
     3
100
AcDbLine
 10
-843.4509260754545
 20
-399.9190072181346
 30
0.0
 11
-839.9509260754545
 21
-399.9190072181346
 31
0.0
  0
LINE
  5
208
330
1E
100
AcDbEntity
  8
0
  6
Continuous
 62
     3
100
AcDbLine
 10
-839.9509260754545
 20
-401.9190072181346
 30
0.0
 11
-843.4509260754545
 21
-401.9190072181346
 31
0.0
  0
LINE
  5
209
330
1E
100
AcDbEntity
  8
0
  6
Continuous
 62
     3
100
AcDbLine
 10
-843.4509260754545
 20
-399.9190072181346
 30
0.0
 11
-843.4509260754545
 21
-401.9190072181346
 31
0.0
  0
LINE
  5
20A
330
1E
100
AcDbEntity
  8
0
  6
Continuous
 62
     3
100
AcDbLine
 10
-843.4509260754545
 20
-396.4190072181346
 30
0.0
 11
-839.9509260754545
 21
-396.4190072181346
 31
0.0
  0
LINE
  5
20B
330
1E
100
AcDbEntity
  8
0
  6
Continuous
 62
     3
100
AcDbLine
 10
-839.9509260754545
 20
-398.4190072181346
 30
0.0
 11
-843.4509260754545
 21
-398.4190072181346
 31
0.0
  0
LINE
  5
20C
330
1E
100
AcDbEntity
  8
0
  6
Continuous
 62
     3
100
AcDbLine
 10
-843.4509260754545
 20
-396.4190072181346
 30
0.0
 11
-843.4509260754545
 21
-398.4190072181346
 31
0.0
  0
LINE
  5
20D
330
1E
100
AcDbEntity
  8
0
  6
Continuous
 62
     3
100
AcDbLine
 10
-843.4509260754545
 20
-392.9190072181346
 30
0.0
 11
-839.9509260754545
 21
-392.9190072181346
 31
0.0
  0
LINE
  5
20E
330
1E
100
AcDbEntity
  8
0
  6
Continuous
 62
     3
100
AcDbLine
 10
-839.9509260754545
 20
-394.9190072181346
 30
0.0
 11
-843.4509260754545
 21
-394.9190072181346
 31
0.0
  0
LINE
  5
20F
330
1E
100
AcDbEntity
  8
0
  6
Continuous
 62
     3
100
AcDbLine
 10
-843.4509260754545
 20
-392.9190072181346
 30
0.0
 11
-843.4509260754545
 21
-394.9190072181346
 31
0.0
  0
LINE
  5
210
330
1E
100
AcDbEntity
  8
0
  6
Continuous
 62
     3
100
AcDbLine
 10
-841.4509260754545
 20
-391.4190072181346
 30
0.0
 11
-841.4509260754545
 21
-389.4190072181346
 31
0.0
  0
LINE
  5
211
330
1E
100
AcDbEntity
  8
0
  6
Continuous
 62
     3
100
AcDbLine
 10
-844.9509260754545
 20
-385.9190072181346
 30
0.0
 11
-839.9509260754545
 21
-385.9190072181346
 31
0.0
  0
LINE
  5
212
330
1E
100
AcDbEntity
  8
0
  6
Continuous
 62
     3
100
AcDbLine
 10
-844.9509260754545
 20
-388.4190072181346
 30
0.0
 11
-844.9509260754545
 21
-385.9190072181346
 31
0.0
  0
LINE
  5
213
330
1E
100
AcDbEntity
  8
0
  6
Continuous
 62
     3
100
AcDbLine
 10
-839.9509260754545
 20
-391.4190072181346
 30
0.0
 11
-844.9509260754545
 21
-391.4190072181346
 31
0.0
  0
LINE
  5
214
330
1E
100
AcDbEntity
  8
0
  6
Continuous
 62
     3
100
AcDbLine
 10
-844.9509260754545
 20
-388.4190072181346
 30
0.0
 11
-844.9509260754545
 21
-391.4190072181346
 31
0.0
  0
LINE
  5
215
330
1E
100
AcDbEntity
  8
0
  6
Continuous
 62
     3
100
AcDbLine
 10
-844.9509260754545
 20
-410.4190072181346
 30
0.0
 11
-844.9509260754545
 21
-415.9190072181346
 31
0.0
  0
LINE
  5
216
330
1E
100
AcDbEntity
  8
0
  6
Continuous
 62
     3
100
AcDbLine
 10
-893.9509260754546
 20
-385.9190072181346
 30
0.0
 11
-893.9509260754546
 21
-391.4190072181346
 31
0.0
  0
LINE
  5
217
330
1E
100
AcDbEntity
  8
0
  6
Continuous
 62
     3
100
AcDbLine
 10
-898.9509260754545
 20
-372.1690072181346
 30
0.0
 11
-898.9509260754545
 21
-381.3190072181346
 31
0.0
  0
CIRCLE
  5
218
330
1E
100
AcDbEntity
  8
0
  6
Continuous
 62
     3
100
AcDbCircle
 10
-896.4509260754544
 20
-374.1690072181346
 30
0.0
 40
1.5
  0
LINE
  5
219
330
1E
100
AcDbEntity
  8
0
  6
Continuous
 62
     3
100
AcDbLine
 10
-897.9509260754545
 20
-382.3190072181346
 30
0.0
 11
-897.9509260754545
 21
-380.9190072181346
 31
0.0
  0
LINE
  5
21A
330
1E
100
AcDbEntity
  8
0
  6
Continuous
 62
     3
100
AcDbLine
 10
-897.4509260754544
 20
-387.9190072181346
 30
0.0
 11
-897.4509260754544
 21
-385.9190072181346
 31
0.0
  0
LINE
  5
21B
330
1E
100
AcDbEntity
  8
0
  6
Continuous
 62
     3
100
AcDbLine
 10
-897.4509260754544
 20
-384.4190072181346
 30
0.0
 11
-897.4509260754544
 21
-382.4190072181346
 31
0.0
  0
LINE
  5
21C
330
1E
100
AcDbEntity
  8
0
  6
Continuous
 62
     3
100
AcDbLine
 10
-895.4509260754544
 20
-382.4190072181346
 30
0.0
 11
-898.9509260754545
 21
-382.4190072181346
 31
0.0
  0
LINE
  5
21D
330
1E
100
AcDbEntity
  8
0
  6
Continuous
 62
     3
100
AcDbLine
 10
-898.9509260754545
 20
-384.4190072181346
 30
0.0
 11
-895.4509260754544
 21
-384.4190072181346
 31
0.0
  0
LINE
  5
21E
330
1E
100
AcDbEntity
  8
0
  6
Continuous
 62
     3
100
AcDbLine
 10
-895.4509260754544
 20
-382.4190072181346
 30
0.0
 11
-895.4509260754544
 21
-384.4190072181346
 31
0.0
  0
LINE
  5
21F
330
1E
100
AcDbEntity
  8
0
  6
Continuous
 62
     3
100
AcDbLine
 10
-897.4509260754544
 20
-380.9190072181346
 30
0.0
 11
-897.4509260754544
 21
-378.9190072181346
 31
0.0
  0
LINE
  5
220
330
1E
100
AcDbEntity
  8
0
  6
Continuous
 62
     3
100
AcDbLine
 10
-895.4509260754544
 20
-378.9190072181346
 30
0.0
 11
-898.9509260754545
 21
-378.9190072181346
 31
0.0
  0
LINE
  5
221
330
1E
100
AcDbEntity
  8
0
  6
Continuous
 62
     3
100
AcDbLine
 10
-898.9509260754545
 20
-380.9190072181346
 30
0.0
 11
-895.4509260754544
 21
-380.9190072181346
 31
0.0
  0
LINE
  5
222
330
1E
100
AcDbEntity
  8
0
  6
Continuous
 62
     3
100
AcDbLine
 10
-895.4509260754544
 20
-378.9190072181346
 30
0.0
 11
-895.4509260754544
 21
-380.9190072181346
 31
0.0
  0
LINE
  5
223
330
1E
100
AcDbEntity
  8
0
  6
Continuous
 62
     3
100
AcDbLine
 10
-898.9509260754545
 20
-387.9190072181346
 30
0.0
 11
-895.4509260754544
 21
-387.9190072181346
 31
0.0
  0
LINE
  5
224
330
1E
100
AcDbEntity
  8
0
  6
Continuous
 62
     3
100
AcDbLine
 10
-895.4509260754544
 20
-389.4190072181346
 30
0.0
 11
-898.9509260754545
 21
-389.4190072181346
 31
0.0
  0
LINE
  5
225
330
1E
100
AcDbEntity
  8
0
  6
Continuous
 62
     3
100
AcDbLine
 10
-895.4509260754544
 20
-387.9190072181346
 30
0.0
 11
-895.4509260754544
 21
-389.4190072181346
 31
0.0
  0
LINE
  5
226
330
1E
100
AcDbEntity
  8
0
  6
Continuous
 62
     3
100
AcDbLine
 10
-895.4509260754544
 20
-384.4190072181346
 30
0.0
 11
-895.4509260754544
 21
-385.9190072181346
 31
0.0
  0
LINE
  5
227
330
1E
100
AcDbEntity
  8
0
  6
Continuous
 62
     3
100
AcDbLine
 10
-893.9509260754546
 20
-385.9190072181346
 30
0.0
 11
-898.9509260754545
 21
-385.9190072181346
 31
0.0
  0
LINE
  5
228
330
1E
100
AcDbEntity
  8
0
  6
Continuous
 62
     3
100
AcDbLine
 10
-897.9509260754545
 20
-389.4190072181346
 30
0.0
 11
-897.9509260754545
 21
-387.9190072181346
 31
0.0
  0
LINE
  5
229
330
1E
100
AcDbEntity
  8
0
  6
Continuous
 62
     3
100
AcDbLine
 10
-897.9509260754545
 20
-385.9190072181346
 30
0.0
 11
-897.9509260754545
 21
-384.4190072181346
 31
0.0
  0
LINE
  5
22A
330
1E
100
AcDbEntity
  8
0
  6
Continuous
 62
     3
100
AcDbLine
 10
-898.9509260754545
 20
-416.8190072181346
 30
0.0
 11
-898.9509260754545
 21
-417.3190072181346
 31
0.0
  0
LINE
  5
22B
330
1E
100
AcDbEntity
  8
0
  6
Continuous
 62
     3
100
AcDbLine
 10
-898.9509260754545
 20
-413.5190072181346
 30
0.0
 11
-898.9509260754545
 21
-417.3190072181346
 31
0.0
  0
LINE
  5
22C
330
1E
100
AcDbEntity
  8
0
  6
Continuous
 62
     3
100
AcDbLine
 10
-897.9509260754545
 20
-410.4190072181346
 30
0.0
 11
-898.9509260754545
 21
-410.4190072181346
 31
0.0
  0
LINE
  5
22D
330
1E
100
AcDbEntity
  8
0
  6
Continuous
 62
     3
100
AcDbLine
 10
-897.9509260754545
 20
-415.8390072181346
 30
0.0
 11
-897.9509260754545
 21
-415.9190072181346
 31
0.0
  0
LINE
  5
22E
330
1E
100
AcDbEntity
  8
0
  6
Continuous
 62
     3
100
AcDbLine
 10
-896.4509260754544
 20
-415.9190072181346
 30
0.0
 11
-898.9509260754545
 21
-415.9190072181346
 31
0.0
  0
LINE
  5
22F
330
1E
100
AcDbEntity
  8
0
  6
Continuous
 62
     3
100
AcDbLine
 10
-893.9509260754546
 20
-415.9190072181346
 30
0.0
 11
-897.4509260754544
 21
-415.9190072181346
 31
0.0
  0
LINE
  5
230
330
1E
100
AcDbEntity
  8
0
  6
Continuous
 62
     3
100
AcDbLine
 10
-898.9509260754545
 20
-412.4190072181346
 30
0.0
 11
-895.4509260754544
 21
-412.4190072181346
 31
0.0
  0
LINE
  5
231
330
1E
100
AcDbEntity
  8
0
  6
Continuous
 62
     3
100
AcDbLine
 10
-895.4509260754544
 20
-413.9190072181346
 30
0.0
 11
-898.9509260754545
 21
-413.9190072181346
 31
0.0
  0
LINE
  5
232
330
1E
100
AcDbEntity
  8
0
  6
Continuous
 62
     3
100
AcDbLine
 10
-897.4509260754544
 20
-412.4190072181346
 30
0.0
 11
-897.4509260754544
 21
-410.4190072181346
 31
0.0
  0
LINE
  5
233
330
1E
100
AcDbEntity
  8
0
  6
Continuous
 62
     3
100
AcDbLine
 10
-897.4509260754544
 20
-415.9190072181346
 30
0.0
 11
-897.4509260754544
 21
-413.9190072181346
 31
0.0
  0
LINE
  5
234
330
1E
100
AcDbEntity
  8
0
  6
Continuous
 62
     3
100
AcDbLine
 10
-897.9509260754545
 20
-406.9190072181346
 30
0.0
 11
-898.9509260754545
 21
-406.9190072181346
 31
0.0
  0
LINE
  5
235
330
1E
100
AcDbEntity
  8
0
  6
Continuous
 62
     3
100
AcDbLine
 10
-897.4509260754544
 20
-408.9190072181346
 30
0.0
 11
-897.4509260754544
 21
-406.9190072181346
 31
0.0
  0
LINE
  5
236
330
1E
100
AcDbEntity
  8
0
  6
Continuous
 62
     3
100
AcDbLine
 10
-895.4509260754544
 20
-406.9190072181346
 30
0.0
 11
-898.9509260754545
 21
-406.9190072181346
 31
0.0
  0
LINE
  5
237
330
1E
100
AcDbEntity
  8
0
  6
Continuous
 62
     3
100
AcDbLine
 10
-898.9509260754545
 20
-408.9190072181346
 30
0.0
 11
-895.4509260754544
 21
-408.9190072181346
 31
0.0
  0
LINE
  5
238
330
1E
100
AcDbEntity
  8
0
  6
Continuous
 62
     3
100
AcDbLine
 10
-895.4509260754544
 20
-406.9190072181346
 30
0.0
 11
-895.4509260754544
 21
-408.9190072181346
 31
0.0
  0
LINE
  5
239
330
1E
100
AcDbEntity
  8
0
  6
Continuous
 62
     3
100
AcDbLine
 10
-897.9509260754545
 20
-403.4190072181346
 30
0.0
 11
-898.9509260754545
 21
-403.4190072181346
 31
0.0
  0
LINE
  5
23A
330
1E
100
AcDbEntity
  8
0
  6
Continuous
 62
     3
100
AcDbLine
 10
-897.4509260754544
 20
-405.4190072181346
 30
0.0
 11
-897.4509260754544
 21
-403.4190072181346
 31
0.0
  0
LINE
  5
23B
330
1E
100
AcDbEntity
  8
0
  6
Continuous
 62
     3
100
AcDbLine
 10
-895.4509260754544
 20
-403.4190072181346
 30
0.0
 11
-898.9509260754545
 21
-403.4190072181346
 31
0.0
  0
LINE
  5
23C
330
1E
100
AcDbEntity
  8
0
  6
Continuous
 62
     3
100
AcDbLine
 10
-898.9509260754545
 20
-405.4190072181346
 30
0.0
 11
-895.4509260754544
 21
-405.4190072181346
 31
0.0
  0
LINE
  5
23D
330
1E
100
AcDbEntity
  8
0
  6
Continuous
 62
     3
100
AcDbLine
 10
-895.4509260754544
 20
-403.4190072181346
 30
0.0
 11
-895.4509260754544
 21
-405.4190072181346
 31
0.0
  0
LINE
  5
23E
330
1E
100
AcDbEntity
  8
0
  6
Continuous
 62
     3
100
AcDbLine
 10
-897.9509260754545
 20
-399.9190072181346
 30
0.0
 11
-898.9509260754545
 21
-399.9190072181346
 31
0.0
  0
LINE
  5
23F
330
1E
100
AcDbEntity
  8
0
  6
Continuous
 62
     3
100
AcDbLine
 10
-897.4509260754544
 20
-401.9190072181346
 30
0.0
 11
-897.4509260754544
 21
-399.9190072181346
 31
0.0
  0
LINE
  5
240
330
1E
100
AcDbEntity
  8
0
  6
Continuous
 62
     3
100
AcDbLine
 10
-895.4509260754544
 20
-399.9190072181346
 30
0.0
 11
-898.9509260754545
 21
-399.9190072181346
 31
0.0
  0
LINE
  5
241
330
1E
100
AcDbEntity
  8
0
  6
Continuous
 62
     3
100
AcDbLine
 10
-898.9509260754545
 20
-401.9190072181346
 30
0.0
 11
-895.4509260754544
 21
-401.9190072181346
 31
0.0
  0
LINE
  5
242
330
1E
100
AcDbEntity
  8
0
  6
Continuous
 62
     3
100
AcDbLine
 10
-895.4509260754544
 20
-399.9190072181346
 30
0.0
 11
-895.4509260754544
 21
-401.9190072181346
 31
0.0
  0
LINE
  5
243
330
1E
100
AcDbEntity
  8
0
  6
Continuous
 62
     3
100
AcDbLine
 10
-897.9509260754545
 20
-396.4190072181346
 30
0.0
 11
-898.9509260754545
 21
-396.4190072181346
 31
0.0
  0
LINE
  5
244
330
1E
100
AcDbEntity
  8
0
  6
Continuous
 62
     3
100
AcDbLine
 10
-897.4509260754544
 20
-398.4190072181346
 30
0.0
 11
-897.4509260754544
 21
-396.4190072181346
 31
0.0
  0
LINE
  5
245
330
1E
100
AcDbEntity
  8
0
  6
Continuous
 62
     3
100
AcDbLine
 10
-895.4509260754544
 20
-396.4190072181346
 30
0.0
 11
-898.9509260754545
 21
-396.4190072181346
 31
0.0
  0
LINE
  5
246
330
1E
100
AcDbEntity
  8
0
  6
Continuous
 62
     3
100
AcDbLine
 10
-898.9509260754545
 20
-398.4190072181346
 30
0.0
 11
-895.4509260754544
 21
-398.4190072181346
 31
0.0
  0
LINE
  5
247
330
1E
100
AcDbEntity
  8
0
  6
Continuous
 62
     3
100
AcDbLine
 10
-895.4509260754544
 20
-396.4190072181346
 30
0.0
 11
-895.4509260754544
 21
-398.4190072181346
 31
0.0
  0
LINE
  5
248
330
1E
100
AcDbEntity
  8
0
  6
Continuous
 62
     3
100
AcDbLine
 10
-897.4509260754544
 20
-394.9190072181346
 30
0.0
 11
-897.4509260754544
 21
-392.9190072181346
 31
0.0
  0
LINE
  5
249
330
1E
100
AcDbEntity
  8
0
  6
Continuous
 62
     3
100
AcDbLine
 10
-895.4509260754544
 20
-392.9190072181346
 30
0.0
 11
-898.9509260754545
 21
-392.9190072181346
 31
0.0
  0
LINE
  5
24A
330
1E
100
AcDbEntity
  8
0
  6
Continuous
 62
     3
100
AcDbLine
 10
-898.9509260754545
 20
-394.9190072181346
 30
0.0
 11
-895.4509260754544
 21
-394.9190072181346
 31
0.0
  0
LINE
  5
24B
330
1E
100
AcDbEntity
  8
0
  6
Continuous
 62
     3
100
AcDbLine
 10
-895.4509260754544
 20
-392.9190072181346
 30
0.0
 11
-895.4509260754544
 21
-394.9190072181346
 31
0.0
  0
LINE
  5
24C
330
1E
100
AcDbEntity
  8
0
  6
Continuous
 62
     3
100
AcDbLine
 10
-898.9509260754545
 20
-391.4190072181346
 30
0.0
 11
-893.9509260754546
 21
-391.4190072181346
 31
0.0
  0
LINE
  5
24D
330
1E
100
AcDbEntity
  8
0
  6
Continuous
 62
     3
100
AcDbLine
 10
-898.9509260754545
 20
-415.9190072181346
 30
0.0
 11
-895.4509260754544
 21
-415.9190072181346
 31
0.0
  0
LINE
  5
24E
330
1E
100
AcDbEntity
  8
0
  6
Continuous
 62
     3
100
AcDbLine
 10
-897.9509260754545
 20
-412.4190072181346
 30
0.0
 11
-897.9509260754545
 21
-413.9190072181346
 31
0.0
  0
LINE
  5
24F
330
1E
100
AcDbEntity
  8
0
  6
Continuous
 62
     3
100
AcDbLine
 10
-897.9509260754545
 20
-410.4190072181346
 30
0.0
 11
-897.9509260754545
 21
-408.9190072181346
 31
0.0
  0
LINE
  5
250
330
1E
100
AcDbEntity
  8
0
  6
Continuous
 62
     3
100
AcDbLine
 10
-897.9509260754545
 20
-406.9190072181346
 30
0.0
 11
-897.9509260754545
 21
-405.4190072181346
 31
0.0
  0
LINE
  5
251
330
1E
100
AcDbEntity
  8
0
  6
Continuous
 62
     3
100
AcDbLine
 10
-897.9509260754545
 20
-403.4190072181346
 30
0.0
 11
-897.9509260754545
 21
-401.9190072181346
 31
0.0
  0
LINE
  5
252
330
1E
100
AcDbEntity
  8
0
  6
Continuous
 62
     3
100
AcDbLine
 10
-897.9509260754545
 20
-399.9190072181346
 30
0.0
 11
-897.9509260754545
 21
-398.4190072181346
 31
0.0
  0
LINE
  5
253
330
1E
100
AcDbEntity
  8
0
  6
Continuous
 62
     3
100
AcDbLine
 10
-897.9509260754545
 20
-396.4190072181346
 30
0.0
 11
-897.9509260754545
 21
-394.9190072181346
 31
0.0
  0
LINE
  5
254
330
1E
100
AcDbEntity
  8
0
  6
Continuous
 62
     3
100
AcDbLine
 10
-897.9509260754545
 20
-392.9190072181346
 30
0.0
 11
-897.9509260754545
 21
-391.4190072181346
 31
0.0
  0
LINE
  5
255
330
1E
100
AcDbEntity
  8
0
  6
Continuous
 62
     3
100
AcDbLine
 10
-893.9509260754546
 20
-415.9190072181346
 30
0.0
 11
-893.9509260754546
 21
-410.4190072181346
 31
0.0
  0
LINE
  5
256
330
1E
100
AcDbEntity
  8
0
  6
Continuous
 62
     3
100
AcDbLine
 10
-893.9509260754546
 20
-410.4190072181346
 30
0.0
 11
-898.9509260754545
 21
-410.4190072181346
 31
0.0
  0
LINE
  5
257
330
1E
100
AcDbEntity
  8
0
  6
Continuous
 62
     3
100
AcDbLine
 10
-895.4509260754544
 20
-412.4190072181346
 30
0.0
 11
-895.4509260754544
 21
-413.9190072181346
 31
0.0
  0
LINE
  5
258
330
1E
100
AcDbEntity
  8
0
  6
Continuous
 62
     3
100
AcDbLine
 10
-840.9509260754544
 20
-382.3190072181346
 30
0.0
 11
-840.9509260754544
 21
-380.9190072181346
 31
0.0
  0
LINE
  5
259
330
1E
100
AcDbEntity
  8
0
  6
Continuous
 62
     3
100
AcDbLine
 10
-841.4509260754545
 20
-387.9190072181346
 30
0.0
 11
-841.4509260754545
 21
-385.9190072181346
 31
0.0
  0
LINE
  5
25A
330
1E
100
AcDbEntity
  8
0
  6
Continuous
 62
     3
100
AcDbLine
 10
-841.4509260754545
 20
-384.4190072181346
 30
0.0
 11
-841.4509260754545
 21
-382.4190072181346
 31
0.0
  0
LINE
  5
25B
330
1E
100
AcDbEntity
  8
0
  6
Continuous
 62
     3
100
AcDbLine
 10
-843.4509260754545
 20
-382.4190072181346
 30
0.0
 11
-839.9509260754545
 21
-382.4190072181346
 31
0.0
  0
LINE
  5
25C
330
1E
100
AcDbEntity
  8
0
  6
Continuous
 62
     3
100
AcDbLine
 10
-839.9509260754545
 20
-384.4190072181346
 30
0.0
 11
-843.4509260754545
 21
-384.4190072181346
 31
0.0
  0
LINE
  5
25D
330
1E
100
AcDbEntity
  8
0
  6
Continuous
 62
     3
100
AcDbLine
 10
-843.4509260754545
 20
-382.4190072181346
 30
0.0
 11
-843.4509260754545
 21
-384.4190072181346
 31
0.0
  0
LINE
  5
25E
330
1E
100
AcDbEntity
  8
0
  6
Continuous
 62
     3
100
AcDbLine
 10
-841.4509260754545
 20
-380.9190072181346
 30
0.0
 11
-841.4509260754545
 21
-378.9190072181346
 31
0.0
  0
LINE
  5
25F
330
1E
100
AcDbEntity
  8
0
  6
Continuous
 62
     3
100
AcDbLine
 10
-843.4509260754545
 20
-378.9190072181346
 30
0.0
 11
-839.9509260754545
 21
-378.9190072181346
 31
0.0
  0
LINE
  5
260
330
1E
100
AcDbEntity
  8
0
  6
Continuous
 62
     3
100
AcDbLine
 10
-839.9509260754545
 20
-380.9190072181346
 30
0.0
 11
-843.4509260754545
 21
-380.9190072181346
 31
0.0
  0
LINE
  5
261
330
1E
100
AcDbEntity
  8
0
  6
Continuous
 62
     3
100
AcDbLine
 10
-843.4509260754545
 20
-378.9190072181346
 30
0.0
 11
-843.4509260754545
 21
-380.9190072181346
 31
0.0
  0
LINE
  5
262
330
1E
100
AcDbEntity
  8
0
  6
Continuous
 62
     3
100
AcDbLine
 10
-839.9509260754545
 20
-387.9190072181346
 30
0.0
 11
-843.4509260754545
 21
-387.9190072181346
 31
0.0
  0
LINE
  5
263
330
1E
100
AcDbEntity
  8
0
  6
Continuous
 62
     3
100
AcDbLine
 10
-843.4509260754545
 20
-389.4190072181346
 30
0.0
 11
-839.9509260754545
 21
-389.4190072181346
 31
0.0
  0
LINE
  5
264
330
1E
100
AcDbEntity
  8
0
  6
Continuous
 62
     3
100
AcDbLine
 10
-840.9509260754544
 20
-384.4190072181346
 30
0.0
 11
-840.9509260754544
 21
-385.9190072181346
 31
0.0
  0
LINE
  5
265
330
1E
100
AcDbEntity
  8
0
  6
Continuous
 62
     3
100
AcDbLine
 10
-840.9509260754544
 20
-387.9190072181346
 30
0.0
 11
-840.9509260754544
 21
-389.4190072181346
 31
0.0
  0
LINE
  5
266
330
1E
100
AcDbEntity
  8
0
  6
Continuous
 62
     3
100
AcDbLine
 10
-843.4509260754545
 20
-387.9190072181346
 30
0.0
 11
-843.4509260754545
 21
-389.4190072181346
 31
0.0
  0
LINE
  5
267
330
1E
100
AcDbEntity
  8
0
  6
Continuous
 62
     3
100
AcDbLine
 10
-840.9509260754544
 20
-410.4190072181346
 30
0.0
 11
-839.9509260754545
 21
-410.4190072181346
 31
0.0
  0
LINE
  5
268
330
1E
100
AcDbEntity
  8
0
  6
Continuous
 62
     3
100
AcDbLine
 10
-840.9509260754544
 20
-415.8390072181346
 30
0.0
 11
-840.9509260754544
 21
-415.9190072181346
 31
0.0
  0
LINE
  5
269
330
1E
100
AcDbEntity
  8
0
  6
Continuous
 62
     3
100
AcDbLine
 10
-841.4509260754545
 20
-412.4190072181346
 30
0.0
 11
-841.4509260754545
 21
-410.4190072181346
 31
0.0
  0
LINE
  5
26A
330
1E
100
AcDbEntity
  8
0
  6
Continuous
 62
     3
100
AcDbLine
 10
-841.4509260754545
 20
-415.9190072181346
 30
0.0
 11
-841.4509260754545
 21
-413.9190072181346
 31
0.0
  0
LINE
  5
26B
330
1E
100
AcDbEntity
  8
0
  6
Continuous
 62
     3
100
AcDbLine
 10
-840.9509260754544
 20
-406.9190072181346
 30
0.0
 11
-839.9509260754545
 21
-406.9190072181346
 31
0.0
  0
LINE
  5
26C
330
1E
100
AcDbEntity
  8
0
  6
Continuous
 62
     3
100
AcDbLine
 10
-841.4509260754545
 20
-408.9190072181346
 30
0.0
 11
-841.4509260754545
 21
-406.9190072181346
 31
0.0
  0
LINE
  5
26D
330
1E
100
AcDbEntity
  8
0
  6
Continuous
 62
     3
100
AcDbLine
 10
-840.9509260754544
 20
-403.4190072181346
 30
0.0
 11
-839.9509260754545
 21
-403.4190072181346
 31
0.0
  0
LINE
  5
26E
330
1E
100
AcDbEntity
  8
0
  6
Continuous
 62
     3
100
AcDbLine
 10
-841.4509260754545
 20
-405.4190072181346
 30
0.0
 11
-841.4509260754545
 21
-403.4190072181346
 31
0.0
  0
LINE
  5
26F
330
1E
100
AcDbEntity
  8
0
  6
Continuous
 62
     3
100
AcDbLine
 10
-840.9509260754544
 20
-399.9190072181346
 30
0.0
 11
-839.9509260754545
 21
-399.9190072181346
 31
0.0
  0
LINE
  5
270
330
1E
100
AcDbEntity
  8
0
  6
Continuous
 62
     3
100
AcDbLine
 10
-841.4509260754545
 20
-401.9190072181346
 30
0.0
 11
-841.4509260754545
 21
-399.9190072181346
 31
0.0
  0
LINE
  5
271
330
1E
100
AcDbEntity
  8
0
  6
Continuous
 62
     3
100
AcDbLine
 10
-840.9509260754544
 20
-396.4190072181346
 30
0.0
 11
-839.9509260754545
 21
-396.4190072181346
 31
0.0
  0
LINE
  5
272
330
1E
100
AcDbEntity
  8
0
  6
Continuous
 62
     3
100
AcDbLine
 10
-841.4509260754545
 20
-398.4190072181346
 30
0.0
 11
-841.4509260754545
 21
-396.4190072181346
 31
0.0
  0
LINE
  5
273
330
1E
100
AcDbEntity
  8
0
  6
Continuous
 62
     3
100
AcDbLine
 10
-841.4509260754545
 20
-394.9190072181346
 30
0.0
 11
-841.4509260754545
 21
-392.9190072181346
 31
0.0
  0
LINE
  5
274
330
1E
100
AcDbEntity
  8
0
  6
Continuous
 62
     3
100
AcDbLine
 10
-839.9509260754545
 20
-417.3190072181346
 30
0.0
 11
-840.9509260754544
 21
-417.3190072181346
 31
0.0
  0
LINE
  5
275
330
1E
100
AcDbEntity
  8
0
  6
Continuous
 62
     3
100
AcDbLine
 10
-840.9509260754544
 20
-391.4190072181346
 30
0.0
 11
-840.9509260754544
 21
-392.9190072181346
 31
0.0
  0
LINE
  5
276
330
1E
100
AcDbEntity
  8
0
  6
Continuous
 62
     3
100
AcDbLine
 10
-840.9509260754544
 20
-394.9190072181346
 30
0.0
 11
-840.9509260754544
 21
-396.4190072181346
 31
0.0
  0
LINE
  5
277
330
1E
100
AcDbEntity
  8
0
  6
Continuous
 62
     3
100
AcDbLine
 10
-840.9509260754544
 20
-398.4190072181346
 30
0.0
 11
-840.9509260754544
 21
-399.9190072181346
 31
0.0
  0
LINE
  5
278
330
1E
100
AcDbEntity
  8
0
  6
Continuous
 62
     3
100
AcDbLine
 10
-840.9509260754544
 20
-401.9190072181346
 30
0.0
 11
-840.9509260754544
 21
-403.4190072181346
 31
0.0
  0
LINE
  5
279
330
1E
100
AcDbEntity
  8
0
  6
Continuous
 62
     3
100
AcDbLine
 10
-840.9509260754544
 20
-405.4190072181346
 30
0.0
 11
-840.9509260754544
 21
-406.9190072181346
 31
0.0
  0
LINE
  5
27A
330
1E
100
AcDbEntity
  8
0
  6
Continuous
 62
     3
100
AcDbLine
 10
-840.9509260754544
 20
-408.9190072181346
 30
0.0
 11
-840.9509260754544
 21
-410.4190072181346
 31
0.0
  0
LINE
  5
27B
330
1E
100
AcDbEntity
  8
0
  6
Continuous
 62
     3
100
AcDbLine
 10
-840.9509260754544
 20
-412.4190072181346
 30
0.0
 11
-840.9509260754544
 21
-413.9190072181346
 31
0.0
  0
LINE
  5
27C
330
1E
100
AcDbEntity
  8
0
  6
Continuous
 62
     3
100
AcDbLine
 10
-840.9509260754544
 20
-415.8390072181346
 30
0.0
 11
-840.9509260754544
 21
-417.3190072181346
 31
0.0
  0
ARC
  5
27D
330
1E
100
AcDbEntity
  8
0
  6
Continuous
 62
     3
100
AcDbCircle
 10
-850.5889515754544
 20
-378.4190072181346
 30
0.0
 40
1.0
100
AcDbArc
 50
0.0
 51
90.0
  0
LINE
  5
27E
330
1E
100
AcDbEntity
  8
1
  6
Continuous
 62
     3
100
AcDbLine
 10
-888.5889515754545
 20
-377.4190072181346
 30
0.0
 11
-850.5889515754544
 21
-377.4190072181346
 31
0.0
  0
ARC
  5
27F
330
1E
100
AcDbEntity
  8
0
  6
Continuous
 62
     3
100
AcDbCircle
 10
-888.5889515754545
 20
-378.4190072181346
 30
0.0
 40
1.0
100
AcDbArc
 50
90.0
 51
180.0
  0
LINE
  5
280
330
1E
100
AcDbEntity
  8
0
  6
Continuous
 62
     3
100
AcDbLine
 10
-888.5889515754545
 20
-378.4190072181346
 30
0.0
 11
-888.5889515754545
 21
-398.4190072181346
 31
0.0
  0
LINE
  5
281
330
1E
100
AcDbEntity
  8
0
  6
Continuous
 62
     3
100
AcDbLine
 10
-850.5889515754544
 20
-378.4190072181346
 30
0.0
 11
-888.5889515754545
 21
-378.4190072181346
 31
0.0
  0
LINE
  5
282
330
1E
100
AcDbEntity
  8
0
  6
Continuous
 62
     3
100
AcDbLine
 10
-850.5889515754544
 20
-398.4190072181346
 30
0.0
 11
-888.5889515754545
 21
-398.4190072181346
 31
0.0
  0
LINE
  5
283
330
1E
100
AcDbEntity
  8
0
  6
Continuous
 62
     3
100
AcDbLine
 10
-888.5889515754545
 20
-398.4190072181346
 30
0.0
 11
-850.5889515754544
 21
-398.4190072181346
 31
0.0
  0
LINE
  5
284
330
1E
100
AcDbEntity
  8
0
  6
Continuous
 62
     3
100
AcDbLine
 10
-850.5889515754544
 20
-398.4190072181346
 30
0.0
 11
-850.5889515754544
 21
-378.4190072181346
 31
0.0
  0
POINT
  5
285
330
1E
100
AcDbEntity
  8
0
  6
Continuous
 62
     3
100
AcDbPoint
 10
-768.7009260754544
 20
-376.6690072181346
 30
0.0
  0
LINE
  5
286
330
1E
100
AcDbEntity
  8
0
  6
Continuous
 62
     3
100
AcDbLine
 10
-762.4509260754544
 20
-420.5782784651346
 30
0.0
 11
-762.5416548284545
 21
-420.6690072181346
 31
0.0
  0
LINE
  5
287
330
1E
100
AcDbEntity
  8
0
  6
Continuous
 62
     3
100
AcDbLine
 10
-768.7009260754544
 20
-420.6690072181346
 30
0.0
 11
-762.4509260754544
 21
-420.6690072181346
 31
0.0
  0
LINE
  5
288
330
1E
100
AcDbEntity
  8
0
  6
Continuous
 62
     3
100
AcDbLine
 10
-768.7009260754544
 20
-424.6690072181346
 30
0.0
 11
-768.7009260754544
 21
-420.6690072181346
 31
0.0
  0
LINE
  5
289
330
1E
100
AcDbEntity
  8
0
  6
Continuous
 62
     3
100
AcDbLine
 10
-762.4509260754544
 20
-424.6690072181346
 30
0.0
 11
-768.7009260754544
 21
-424.6690072181346
 31
0.0
  0
LINE
  5
28A
330
1E
100
AcDbEntity
  8
0
  6
Continuous
 62
     3
100
AcDbLine
 10
-765.7009260754545
 20
-420.6690072181346
 30
0.0
 11
-765.7009260754545
 21
-424.6690072181346
 31
0.0
  0
LINE
  5
28B
330
1E
100
AcDbEntity
  8
0
  6
Continuous
 62
     3
100
AcDbLine
 10
-768.7009260754544
 20
-417.3190072181346
 30
0.0
 11
-768.7009260754544
 21
-410.0690072181346
 31
0.0
  0
LINE
  5
28C
330
1E
100
AcDbEntity
  8
0
  6
Continuous
 62
     3
100
AcDbLine
 10
-768.7009260754544
 20
-410.6190072181346
 30
0.0
 11
-768.7009260754544
 21
-372.6690072181346
 31
0.0
  0
POINT
  5
28D
330
1E
100
AcDbEntity
  8
0
  6
Continuous
 62
     3
100
AcDbPoint
 10
-768.7009260754544
 20
-376.6690072181346
 30
0.0
  0
LINE
  5
28E
330
1E
100
AcDbEntity
  8
0
  6
Continuous
 62
     3
100
AcDbLine
 10
-771.7009260754545
 20
-431.6690072181346
 30
0.0
 11
-771.7009260754545
 21
-432.4970072181346
 31
0.0
  0
LINE
  5
28F
330
1E
100
AcDbEntity
  8
0
  6
Continuous
 62
     3
100
AcDbLine
 10
-766.2009260754545
 20
-420.9190072181346
 30
0.0
 11
-766.2009260754545
 21
-424.4190072181346
 31
0.0
  0
LINE
  5
290
330
1E
100
AcDbEntity
  8
0
  6
Continuous
 62
     3
100
AcDbLine
 10
-766.2009260754545
 20
-420.9190072181346
 30
0.0
 11
-768.7009260754544
 21
-420.9190072181346
 31
0.0
  0
LWPOLYLINE
  5
291
330
1E
100
AcDbEntity
  8
0
 62
     3
100
AcDbPolyline
 90
        3
 70
     0
 43
0.0
 10
-766.2009260754545
 20
-424.4190072181346
 10
-768.7009260754544
 20
-424.4190072181346
 10
-768.7009260754544
 20
-420.9190072181346
  0
LINE
  5
296
330
1E
100
AcDbEntity
  8
0
  6
Continuous
 62
     3
100
AcDbLine
 10
-768.7009260754544
 20
-405.8270072181346
 30
0.0
 11
-768.7009260754544
 21
-371.1690072181346
 31
0.0
  0
LINE
  5
297
330
1E
100
AcDbEntity
  8
0
  6
Continuous
 62
     3
100
AcDbLine
 10
-771.7009260754545
 20
-425.4190072181346
 30
0.0
 11
-771.7009260754545
 21
-424.4190072181346
 31
0.0
  0
LINE
  5
298
330
1E
100
AcDbEntity
  8
0
  6
Continuous
 62
     3
100
AcDbLine
 10
-771.7009260754545
 20
-420.9190072181346
 30
0.0
 11
-771.7009260754545
 21
-419.9190072181346
 31
0.0
  0
LINE
  5
299
330
1E
100
AcDbEntity
  8
0
  6
Continuous
 62
     3
100
AcDbLine
 10
-774.9509260754544
 20
-372.1690072181346
 30
0.0
 11
-774.9509260754544
 21
-405.8270072181346
 31
0.0
  0
LINE
  5
29A
330
1E
100
AcDbEntity
  8
0
  6
Continuous
 62
     3
100
AcDbLine
 10
-774.9509260754544
 20
-405.4040072181346
 30
0.0
 11
-774.9509260754544
 21
-432.4970072181346
 31
0.0
  0
LINE
  5
29B
330
1E
100
AcDbEntity
  8
0
  6
Continuous
 62
     3
100
AcDbLine
 10
-768.7009260754544
 20
-417.3190072181346
 30
0.0
 11
-774.9509260754544
 21
-417.3190072181346
 31
0.0
  0
LINE
  5
29C
330
1E
100
AcDbEntity
  8
0
  6
Continuous
 62
     3
100
AcDbLine
 10
-771.7009260754545
 20
-424.9190072181346
 30
0.0
 11
-775.0009260754546
 21
-424.9190072181346
 31
0.0
  0
LINE
  5
29D
330
1E
100
AcDbEntity
  8
0
  6
Continuous
 62
     3
100
AcDbLine
 10
-774.4509260754544
 20
-415.9190072181346
 30
0.0
 11
-774.4509260754544
 21
-417.3190072181346
 31
0.0
  0
LINE
  5
29E
330
1E
100
AcDbEntity
  8
0
  6
Continuous
 62
     3
100
AcDbLine
 10
-762.4509260754544
 20
-398.4190072181346
 30
0.0
 11
-765.9009260754544
 21
-398.4190072181346
 31
0.0
  0
LINE
  5
29F
330
1E
100
AcDbEntity
  8
0
  6
Continuous
 62
     3
100
AcDbLine
 10
-763.9509260754545
 20
-382.4190072181346
 30
0.0
 11
-763.9509260754545
 21
-384.4190072181346
 31
0.0
  0
LINE
  5
2A0
330
1E
100
AcDbEntity
  8
0
  6
Continuous
 62
     3
100
AcDbLine
 10
-763.9509260754545
 20
-378.9190072181346
 30
0.0
 11
-763.9509260754545
 21
-380.9190072181346
 31
0.0
  0
LINE
  5
2A1
330
1E
100
AcDbEntity
  8
0
  6
Continuous
 62
     3
100
AcDbLine
 10
-762.9509260754545
 20
-382.4190072181346
 30
0.0
 11
-762.9509260754545
 21
-380.9190072181346
 31
0.0
  0
LINE
  5
2A2
330
1E
100
AcDbEntity
  8
0
  6
Continuous
 62
     3
100
AcDbLine
 10
-763.9509260754545
 20
-385.9190072181346
 30
0.0
 11
-763.9509260754545
 21
-387.4190072181346
 31
0.0
  0
LINE
  5
2A3
330
1E
100
AcDbEntity
  8
0
  6
Continuous
 62
     3
100
AcDbLine
 10
-763.9509260754545
 20
-387.4190072181346
 30
0.0
 11
-763.9509260754545
 21
-387.9190072181346
 31
0.0
  0
LINE
  5
2A4
330
1E
100
AcDbEntity
  8
0
  6
Continuous
 62
     3
100
AcDbLine
 10
-763.9509260754545
 20
-389.4190072181346
 30
0.0
 11
-763.9509260754545
 21
-391.4190072181346
 31
0.0
  0
LINE
  5
2A5
330
1E
100
AcDbEntity
  8
0
  6
Continuous
 62
     3
100
AcDbLine
 10
-763.9509260754545
 20
-392.9190072181346
 30
0.0
 11
-763.9509260754545
 21
-394.9190072181346
 31
0.0
  0
LINE
  5
2A6
330
1E
100
AcDbEntity
  8
0
  6
Continuous
 62
     3
100
AcDbLine
 10
-763.9509260754545
 20
-396.4510072181346
 30
0.0
 11
-763.9509260754545
 21
-398.4190072181346
 31
0.0
  0
LINE
  5
2A7
330
1E
100
AcDbEntity
  8
0
  6
Continuous
 62
     3
100
AcDbLine
 10
-763.9509260754545
 20
-399.9190072181346
 30
0.0
 11
-763.9509260754545
 21
-401.9190072181346
 31
0.0
  0
LINE
  5
2A8
330
1E
100
AcDbEntity
  8
0
  6
Continuous
 62
     3
100
AcDbLine
 10
-763.9509260754545
 20
-403.4190072181346
 30
0.0
 11
-763.9509260754545
 21
-405.4190072181346
 31
0.0
  0
LINE
  5
2A9
330
1E
100
AcDbEntity
  8
0
  6
Continuous
 62
     3
100
AcDbLine
 10
-763.9509260754545
 20
-406.9190072181346
 30
0.0
 11
-763.9509260754545
 21
-408.9190072181346
 31
0.0
  0
LINE
  5
2AA
330
1E
100
AcDbEntity
  8
0
  6
Continuous
 62
     3
100
AcDbLine
 10
-763.9509260754545
 20
-410.4190072181346
 30
0.0
 11
-763.9509260754545
 21
-412.4190072181346
 31
0.0
  0
LINE
  5
2AB
330
1E
100
AcDbEntity
  8
0
  6
Continuous
 62
     3
100
AcDbLine
 10
-763.9509260754545
 20
-413.9190072181346
 30
0.0
 11
-763.9509260754545
 21
-415.9190072181346
 31
0.0
  0
LINE
  5
2AC
330
1E
100
AcDbEntity
  8
0
  6
Continuous
 62
     3
100
AcDbLine
 10
-765.9009260754544
 20
-415.9190072181346
 30
0.0
 11
-762.4509260754544
 21
-415.9190072181346
 31
0.0
  0
LINE
  5
2AD
330
1E
100
AcDbEntity
  8
0
  6
Continuous
 62
     3
100
AcDbLine
 10
-774.9509260754544
 20
-398.4190072181346
 30
0.0
 11
-771.5009260754546
 21
-398.4190072181346
 31
0.0
  0
LINE
  5
2AE
330
1E
100
AcDbEntity
  8
0
  6
Continuous
 62
     3
100
AcDbLine
 10
-773.4509260754545
 20
-382.4190072181346
 30
0.0
 11
-773.4509260754545
 21
-384.4190072181346
 31
0.0
  0
LINE
  5
2AF
330
1E
100
AcDbEntity
  8
0
  6
Continuous
 62
     3
100
AcDbLine
 10
-773.4509260754545
 20
-378.9190072181346
 30
0.0
 11
-773.4509260754545
 21
-380.9190072181346
 31
0.0
  0
LINE
  5
2B0
330
1E
100
AcDbEntity
  8
0
  6
Continuous
 62
     3
100
AcDbLine
 10
-774.4509260754544
 20
-382.4190072181346
 30
0.0
 11
-774.4509260754544
 21
-380.9190072181346
 31
0.0
  0
LINE
  5
2B1
330
1E
100
AcDbEntity
  8
0
  6
Continuous
 62
     3
100
AcDbLine
 10
-773.4509260754545
 20
-385.9190072181346
 30
0.0
 11
-773.4509260754545
 21
-387.4190072181346
 31
0.0
  0
LINE
  5
2B2
330
1E
100
AcDbEntity
  8
0
  6
Continuous
 62
     3
100
AcDbLine
 10
-773.4509260754545
 20
-387.4190072181346
 30
0.0
 11
-773.4509260754545
 21
-387.9190072181346
 31
0.0
  0
LINE
  5
2B3
330
1E
100
AcDbEntity
  8
0
  6
Continuous
 62
     3
100
AcDbLine
 10
-773.4509260754545
 20
-389.4190072181346
 30
0.0
 11
-773.4509260754545
 21
-391.4190072181346
 31
0.0
  0
LINE
  5
2B4
330
1E
100
AcDbEntity
  8
0
  6
Continuous
 62
     3
100
AcDbLine
 10
-773.4509260754545
 20
-392.9190072181346
 30
0.0
 11
-773.4509260754545
 21
-394.9190072181346
 31
0.0
  0
LINE
  5
2B5
330
1E
100
AcDbEntity
  8
0
  6
Continuous
 62
     3
100
AcDbLine
 10
-773.4509260754545
 20
-396.4510072181346
 30
0.0
 11
-773.4509260754545
 21
-398.4190072181346
 31
0.0
  0
LINE
  5
2B6
330
1E
100
AcDbEntity
  8
0
  6
Continuous
 62
     3
100
AcDbLine
 10
-773.4509260754545
 20
-399.9190072181346
 30
0.0
 11
-773.4509260754545
 21
-401.9190072181346
 31
0.0
  0
LINE
  5
2B7
330
1E
100
AcDbEntity
  8
0
  6
Continuous
 62
     3
100
AcDbLine
 10
-773.4509260754545
 20
-403.4190072181346
 30
0.0
 11
-773.4509260754545
 21
-405.4190072181346
 31
0.0
  0
LINE
  5
2B8
330
1E
100
AcDbEntity
  8
0
  6
Continuous
 62
     3
100
AcDbLine
 10
-773.4509260754545
 20
-406.9190072181346
 30
0.0
 11
-773.4509260754545
 21
-408.9190072181346
 31
0.0
  0
LINE
  5
2B9
330
1E
100
AcDbEntity
  8
0
  6
Continuous
 62
     3
100
AcDbLine
 10
-773.4509260754545
 20
-410.4190072181346
 30
0.0
 11
-773.4509260754545
 21
-412.4190072181346
 31
0.0
  0
LINE
  5
2BA
330
1E
100
AcDbEntity
  8
0
  6
Continuous
 62
     3
100
AcDbLine
 10
-773.4509260754545
 20
-413.9190072181346
 30
0.0
 11
-773.4509260754545
 21
-415.9190072181346
 31
0.0
  0
LINE
  5
2BB
330
1E
100
AcDbEntity
  8
0
  6
Continuous
 62
     3
100
AcDbLine
 10
-771.5009260754546
 20
-415.9190072181346
 30
0.0
 11
-774.9509260754544
 21
-415.9190072181346
 31
0.0
  0
LINE
  5
2BC
330
1E
100
AcDbEntity
  8
0
  6
Continuous
 62
     3
100
AcDbLine
 10
-774.4509260754544
 20
-380.9190072181346
 30
0.0
 11
-774.4509260754544
 21
-382.4190072181346
 31
0.0
  0
LINE
  5
2BD
330
1E
100
AcDbEntity
  8
0
  6
Continuous
 62
     3
100
AcDbLine
 10
-774.4509260754544
 20
-384.4190072181346
 30
0.0
 11
-774.4509260754544
 21
-385.9190072181346
 31
0.0
  0
LINE
  5
2BE
330
1E
100
AcDbEntity
  8
0
  6
Continuous
 62
     3
100
AcDbLine
 10
-774.4509260754544
 20
-387.9190072181346
 30
0.0
 11
-774.4509260754544
 21
-389.4190072181346
 31
0.0
  0
LINE
  5
2BF
330
1E
100
AcDbEntity
  8
0
  6
Continuous
 62
     3
100
AcDbLine
 10
-774.4509260754544
 20
-413.9190072181346
 30
0.0
 11
-774.4509260754544
 21
-412.4190072181346
 31
0.0
  0
LINE
  5
2C0
330
1E
100
AcDbEntity
  8
0
  6
Continuous
 62
     3
100
AcDbLine
 10
-774.4509260754544
 20
-410.4190072181346
 30
0.0
 11
-774.4509260754544
 21
-408.9190072181346
 31
0.0
  0
LINE
  5
2C1
330
1E
100
AcDbEntity
  8
0
  6
Continuous
 62
     3
100
AcDbLine
 10
-774.4509260754544
 20
-406.9190072181346
 30
0.0
 11
-774.4509260754544
 21
-405.4190072181346
 31
0.0
  0
LINE
  5
2C2
330
1E
100
AcDbEntity
  8
0
  6
Continuous
 62
     3
100
AcDbLine
 10
-774.4509260754544
 20
-403.4190072181346
 30
0.0
 11
-774.4509260754544
 21
-401.9190072181346
 31
0.0
  0
LINE
  5
2C3
330
1E
100
AcDbEntity
  8
0
  6
Continuous
 62
     3
100
AcDbLine
 10
-774.4509260754544
 20
-392.9190072181346
 30
0.0
 11
-774.4509260754544
 21
-391.4190072181346
 31
0.0
  0
LINE
  5
2C4
330
1E
100
AcDbEntity
  8
0
  6
Continuous
 62
     3
100
AcDbLine
 10
-774.4509260754544
 20
-396.4190072181346
 30
0.0
 11
-774.4509260754544
 21
-394.9190072181346
 31
0.0
  0
LINE
  5
2C5
330
1E
100
AcDbEntity
  8
0
  6
Continuous
 62
     3
100
AcDbLine
 10
-774.4509260754544
 20
-399.9190072181346
 30
0.0
 11
-774.4509260754544
 21
-398.4190072181346
 31
0.0
  0
LINE
  5
2C6
330
1E
100
AcDbEntity
  8
0
  6
Continuous
 62
     3
100
AcDbLine
 10
-762.9509260754545
 20
-384.4190072181346
 30
0.0
 11
-762.9509260754545
 21
-385.9190072181346
 31
0.0
  0
LINE
  5
2C7
330
1E
100
AcDbEntity
  8
0
  6
Continuous
 62
     3
100
AcDbLine
 10
-762.9509260754545
 20
-387.9190072181346
 30
0.0
 11
-762.9509260754545
 21
-389.4190072181346
 31
0.0
  0
LINE
  5
2C8
330
1E
100
AcDbEntity
  8
0
  6
Continuous
 62
     3
100
AcDbLine
 10
-762.9509260754545
 20
-391.4190072181346
 30
0.0
 11
-762.9509260754545
 21
-392.9190072181346
 31
0.0
  0
LINE
  5
2C9
330
1E
100
AcDbEntity
  8
0
  6
Continuous
 62
     3
100
AcDbLine
 10
-762.9509260754545
 20
-394.9190072181346
 30
0.0
 11
-762.9509260754545
 21
-396.4190072181346
 31
0.0
  0
LINE
  5
2CA
330
1E
100
AcDbEntity
  8
0
  6
Continuous
 62
     3
100
AcDbLine
 10
-762.9509260754545
 20
-398.4190072181346
 30
0.0
 11
-762.9509260754545
 21
-399.9190072181346
 31
0.0
  0
LINE
  5
2CB
330
1E
100
AcDbEntity
  8
0
  6
Continuous
 62
     3
100
AcDbLine
 10
-762.9509260754545
 20
-401.9190072181346
 30
0.0
 11
-762.9509260754545
 21
-403.4190072181346
 31
0.0
  0
LINE
  5
2CC
330
1E
100
AcDbEntity
  8
0
  6
Continuous
 62
     3
100
AcDbLine
 10
-762.9509260754545
 20
-405.4190072181346
 30
0.0
 11
-762.9509260754545
 21
-406.9190072181346
 31
0.0
  0
LINE
  5
2CD
330
1E
100
AcDbEntity
  8
0
  6
Continuous
 62
     3
100
AcDbLine
 10
-762.9509260754545
 20
-408.9190072181346
 30
0.0
 11
-762.9509260754545
 21
-410.4190072181346
 31
0.0
  0
LINE
  5
2CE
330
1E
100
AcDbEntity
  8
0
  6
Continuous
 62
     3
100
AcDbLine
 10
-762.9509260754545
 20
-412.4190072181346
 30
0.0
 11
-762.9509260754545
 21
-413.9190072181346
 31
0.0
  0
LINE
  5
2CF
330
1E
100
AcDbEntity
  8
0
  6
Continuous
 62
     3
100
AcDbLine
 10
-762.4509260754544
 20
-372.1690072181346
 30
0.0
 11
-762.4509260754544
 21
-412.6190072181346
 31
0.0
  0
LINE
  5
2D0
330
1E
100
AcDbEntity
  8
0
  6
Continuous
 62
     3
100
AcDbLine
 10
-768.7009260754544
 20
-417.3190072181346
 30
0.0
 11
-771.2009260754545
 21
-417.3190072181346
 31
0.0
  0
LINE
  5
2D1
330
1E
100
AcDbEntity
  8
0
  6
Continuous
 62
     3
100
AcDbLine
 10
-771.7009260754545
 20
-431.4190072181346
 30
0.0
 11
-771.7009260754545
 21
-417.8190072181346
 31
0.0
  0
ARC
  5
2D2
330
1E
100
AcDbEntity
  8
0
  6
Continuous
 62
     3
100
AcDbCircle
 10
-771.2009260754545
 20
-417.8190072181346
 30
0.0
 40
0.5
100
AcDbArc
 50
90.0
 51
180.0
  0
LINE
  5
2D3
330
1E
100
AcDbEntity
  8
0
  6
Continuous
 62
     3
100
AcDbLine
 10
-766.2009260754545
 20
-389.4190072181346
 30
0.0
 11
-766.2009260754545
 21
-391.4190072181346
 31
0.0
  0
LINE
  5
2D4
330
1E
100
AcDbEntity
  8
0
  6
Continuous
 62
     3
100
AcDbLine
 10
-766.2009260754545
 20
-385.9190072181346
 30
0.0
 11
-766.2009260754545
 21
-387.9190072181346
 31
0.0
  0
LINE
  5
2D5
330
1E
100
AcDbEntity
  8
0
  6
Continuous
 62
     3
100
AcDbLine
 10
-766.2009260754545
 20
-382.4190072181346
 30
0.0
 11
-766.2009260754545
 21
-384.4190072181346
 31
0.0
  0
LINE
  5
2D6
330
1E
100
AcDbEntity
  8
0
  6
Continuous
 62
     3
100
AcDbLine
 10
-766.2009260754545
 20
-378.9190072181346
 30
0.0
 11
-766.2009260754545
 21
-380.9190072181346
 31
0.0
  0
LINE
  5
2D7
330
1E
100
AcDbEntity
  8
0
  6
Continuous
 62
     3
100
AcDbLine
 10
-766.2009260754545
 20
-396.4190072181346
 30
0.0
 11
-766.2009260754545
 21
-398.4190072181346
 31
0.0
  0
LINE
  5
2D8
330
1E
100
AcDbEntity
  8
0
  6
Continuous
 62
     3
100
AcDbLine
 10
-766.2009260754545
 20
-398.4190072181346
 30
0.0
 11
-764.2009260754544
 21
-398.4190072181346
 31
0.0
  0
LINE
  5
2D9
330
1E
100
AcDbEntity
  8
0
  6
Continuous
 62
     3
100
AcDbLine
 10
-766.2009260754545
 20
-392.9190072181346
 30
0.0
 11
-766.2009260754545
 21
-394.9190072181346
 31
0.0
  0
LINE
  5
2DA
330
1E
100
AcDbEntity
  8
0
  6
Continuous
 62
     3
100
AcDbLine
 10
-766.2009260754545
 20
-399.9190072181346
 30
0.0
 11
-766.2009260754545
 21
-401.9190072181346
 31
0.0
  0
LINE
  5
2DB
330
1E
100
AcDbEntity
  8
0
  6
Continuous
 62
     3
100
AcDbLine
 10
-766.2009260754545
 20
-403.4190072181346
 30
0.0
 11
-766.2009260754545
 21
-405.4190072181346
 31
0.0
  0
LINE
  5
2DC
330
1E
100
AcDbEntity
  8
0
  6
Continuous
 62
     3
100
AcDbLine
 10
-766.2009260754545
 20
-406.9190072181346
 30
0.0
 11
-766.2009260754545
 21
-408.9190072181346
 31
0.0
  0
LINE
  5
2DD
330
1E
100
AcDbEntity
  8
0
  6
Continuous
 62
     3
100
AcDbLine
 10
-766.2009260754545
 20
-410.4190072181346
 30
0.0
 11
-766.2009260754545
 21
-412.4190072181346
 31
0.0
  0
LINE
  5
2DE
330
1E
100
AcDbEntity
  8
0
  6
Continuous
 62
     3
100
AcDbLine
 10
-766.2009260754545
 20
-413.9190072181346
 30
0.0
 11
-766.2009260754545
 21
-415.9190072181346
 31
0.0
  0
LINE
  5
2DF
330
1E
100
AcDbEntity
  8
0
  6
Continuous
 62
     3
100
AcDbLine
 10
-766.2009260754545
 20
-415.9190072181346
 30
0.0
 11
-764.2009260754544
 21
-415.9190072181346
 31
0.0
  0
LINE
  5
2E0
330
1E
100
AcDbEntity
  8
0
  6
Continuous
 62
     3
100
AcDbLine
 10
-766.2009260754545
 20
-378.9190072181346
 30
0.0
 11
-762.4509260754544
 21
-378.9190072181346
 31
0.0
  0
LINE
  5
2E1
330
1E
100
AcDbEntity
  8
0
  6
Continuous
 62
     3
100
AcDbLine
 10
-766.2009260754545
 20
-380.9190072181346
 30
0.0
 11
-762.4509260754544
 21
-380.9190072181346
 31
0.0
  0
LINE
  5
2E2
330
1E
100
AcDbEntity
  8
0
  6
Continuous
 62
     3
100
AcDbLine
 10
-766.2009260754545
 20
-384.4190072181346
 30
0.0
 11
-762.4509260754544
 21
-384.4190072181346
 31
0.0
  0
LINE
  5
2E3
330
1E
100
AcDbEntity
  8
0
  6
Continuous
 62
     3
100
AcDbLine
 10
-766.2009260754545
 20
-385.9190072181346
 30
0.0
 11
-762.4509260754544
 21
-385.9190072181346
 31
0.0
  0
LINE
  5
2E4
330
1E
100
AcDbEntity
  8
0
  6
Continuous
 62
     3
100
AcDbLine
 10
-766.2009260754545
 20
-387.9190072181346
 30
0.0
 11
-762.4509260754544
 21
-387.9190072181346
 31
0.0
  0
LINE
  5
2E5
330
1E
100
AcDbEntity
  8
0
  6
Continuous
 62
     3
100
AcDbLine
 10
-766.2009260754545
 20
-389.4190072181346
 30
0.0
 11
-762.4509260754544
 21
-389.4190072181346
 31
0.0
  0
LINE
  5
2E6
330
1E
100
AcDbEntity
  8
0
  6
Continuous
 62
     3
100
AcDbLine
 10
-766.2009260754545
 20
-391.4190072181346
 30
0.0
 11
-762.4509260754544
 21
-391.4190072181346
 31
0.0
  0
LINE
  5
2E7
330
1E
100
AcDbEntity
  8
0
  6
Continuous
 62
     3
100
AcDbLine
 10
-766.2009260754545
 20
-392.9190072181346
 30
0.0
 11
-762.4509260754544
 21
-392.9190072181346
 31
0.0
  0
LINE
  5
2E8
330
1E
100
AcDbEntity
  8
0
  6
Continuous
 62
     3
100
AcDbLine
 10
-766.2009260754545
 20
-394.9190072181346
 30
0.0
 11
-762.4509260754544
 21
-394.9190072181346
 31
0.0
  0
LINE
  5
2E9
330
1E
100
AcDbEntity
  8
0
  6
Continuous
 62
     3
100
AcDbLine
 10
-766.2009260754545
 20
-396.4190072181346
 30
0.0
 11
-762.4509260754544
 21
-396.4190072181346
 31
0.0
  0
LINE
  5
2EA
330
1E
100
AcDbEntity
  8
0
  6
Continuous
 62
     3
100
AcDbLine
 10
-766.2009260754545
 20
-399.9190072181346
 30
0.0
 11
-762.4509260754544
 21
-399.9190072181346
 31
0.0
  0
LINE
  5
2EB
330
1E
100
AcDbEntity
  8
0
  6
Continuous
 62
     3
100
AcDbLine
 10
-766.2009260754545
 20
-401.9190072181346
 30
0.0
 11
-762.4509260754544
 21
-401.9190072181346
 31
0.0
  0
LINE
  5
2EC
330
1E
100
AcDbEntity
  8
0
  6
Continuous
 62
     3
100
AcDbLine
 10
-766.2009260754545
 20
-403.4190072181346
 30
0.0
 11
-762.4509260754544
 21
-403.4190072181346
 31
0.0
  0
LINE
  5
2ED
330
1E
100
AcDbEntity
  8
0
  6
Continuous
 62
     3
100
AcDbLine
 10
-766.2009260754545
 20
-405.4190072181346
 30
0.0
 11
-762.4509260754544
 21
-405.4190072181346
 31
0.0
  0
LINE
  5
2EE
330
1E
100
AcDbEntity
  8
0
  6
Continuous
 62
     3
100
AcDbLine
 10
-766.2009260754545
 20
-406.9190072181346
 30
0.0
 11
-762.4509260754544
 21
-406.9190072181346
 31
0.0
  0
LINE
  5
2EF
330
1E
100
AcDbEntity
  8
0
  6
Continuous
 62
     3
100
AcDbLine
 10
-766.2009260754545
 20
-408.9190072181346
 30
0.0
 11
-762.4509260754544
 21
-408.9190072181346
 31
0.0
  0
LINE
  5
2F0
330
1E
100
AcDbEntity
  8
0
  6
Continuous
 62
     3
100
AcDbLine
 10
-766.2009260754545
 20
-410.4190072181346
 30
0.0
 11
-762.4509260754544
 21
-410.4190072181346
 31
0.0
  0
LINE
  5
2F1
330
1E
100
AcDbEntity
  8
0
  6
Continuous
 62
     3
100
AcDbLine
 10
-766.2009260754545
 20
-412.4190072181346
 30
0.0
 11
-762.4509260754544
 21
-412.4190072181346
 31
0.0
  0
LINE
  5
2F2
330
1E
100
AcDbEntity
  8
0
  6
Continuous
 62
     3
100
AcDbLine
 10
-766.2009260754545
 20
-413.9190072181346
 30
0.0
 11
-762.4509260754544
 21
-413.9190072181346
 31
0.0
  0
LINE
  5
2F3
330
1E
100
AcDbEntity
  8
0
  6
Continuous
 62
     3
100
AcDbLine
 10
-766.2009260754545
 20
-382.4190072181346
 30
0.0
 11
-762.4509260754544
 21
-382.4190072181346
 31
0.0
  0
LINE
  5
2F4
330
1E
100
AcDbEntity
  8
0
  6
Continuous
 62
     3
100
AcDbLine
 10
-771.2009260754545
 20
-389.4190072181346
 30
0.0
 11
-771.2009260754545
 21
-391.4190072181346
 31
0.0
  0
LINE
  5
2F5
330
1E
100
AcDbEntity
  8
0
  6
Continuous
 62
     3
100
AcDbLine
 10
-771.2009260754545
 20
-385.9190072181346
 30
0.0
 11
-771.2009260754545
 21
-387.9190072181346
 31
0.0
  0
LINE
  5
2F6
330
1E
100
AcDbEntity
  8
0
  6
Continuous
 62
     3
100
AcDbLine
 10
-771.2009260754545
 20
-382.4190072181346
 30
0.0
 11
-771.2009260754545
 21
-384.4190072181346
 31
0.0
  0
LINE
  5
2F7
330
1E
100
AcDbEntity
  8
0
  6
Continuous
 62
     3
100
AcDbLine
 10
-771.2009260754545
 20
-378.9190072181346
 30
0.0
 11
-771.2009260754545
 21
-380.9190072181346
 31
0.0
  0
LINE
  5
2F8
330
1E
100
AcDbEntity
  8
0
  6
Continuous
 62
     3
100
AcDbLine
 10
-771.2009260754545
 20
-396.4190072181346
 30
0.0
 11
-771.2009260754545
 21
-398.4190072181346
 31
0.0
  0
LINE
  5
2F9
330
1E
100
AcDbEntity
  8
0
  6
Continuous
 62
     3
100
AcDbLine
 10
-771.2009260754545
 20
-398.4190072181346
 30
0.0
 11
-773.2009260754545
 21
-398.4190072181346
 31
0.0
  0
LINE
  5
2FA
330
1E
100
AcDbEntity
  8
0
  6
Continuous
 62
     3
100
AcDbLine
 10
-771.2009260754545
 20
-392.9190072181346
 30
0.0
 11
-771.2009260754545
 21
-394.9190072181346
 31
0.0
  0
LINE
  5
2FB
330
1E
100
AcDbEntity
  8
0
  6
Continuous
 62
     3
100
AcDbLine
 10
-771.2009260754545
 20
-399.9190072181346
 30
0.0
 11
-771.2009260754545
 21
-401.9190072181346
 31
0.0
  0
LINE
  5
2FC
330
1E
100
AcDbEntity
  8
0
  6
Continuous
 62
     3
100
AcDbLine
 10
-771.2009260754545
 20
-403.4190072181346
 30
0.0
 11
-771.2009260754545
 21
-405.4190072181346
 31
0.0
  0
LINE
  5
2FD
330
1E
100
AcDbEntity
  8
0
  6
Continuous
 62
     3
100
AcDbLine
 10
-771.2009260754545
 20
-406.9190072181346
 30
0.0
 11
-771.2009260754545
 21
-408.9190072181346
 31
0.0
  0
LINE
  5
2FE
330
1E
100
AcDbEntity
  8
0
  6
Continuous
 62
     3
100
AcDbLine
 10
-771.2009260754545
 20
-410.4190072181346
 30
0.0
 11
-771.2009260754545
 21
-412.4190072181346
 31
0.0
  0
LINE
  5
2FF
330
1E
100
AcDbEntity
  8
0
  6
Continuous
 62
     3
100
AcDbLine
 10
-771.2009260754545
 20
-413.9190072181346
 30
0.0
 11
-771.2009260754545
 21
-415.9190072181346
 31
0.0
  0
LINE
  5
300
330
1E
100
AcDbEntity
  8
0
  6
Continuous
 62
     3
100
AcDbLine
 10
-771.2009260754545
 20
-415.9190072181346
 30
0.0
 11
-773.2009260754545
 21
-415.9190072181346
 31
0.0
  0
LINE
  5
301
330
1E
100
AcDbEntity
  8
0
  6
Continuous
 62
     3
100
AcDbLine
 10
-771.2009260754545
 20
-378.9190072181346
 30
0.0
 11
-774.9509260754544
 21
-378.9190072181346
 31
0.0
  0
LINE
  5
302
330
1E
100
AcDbEntity
  8
0
  6
Continuous
 62
     3
100
AcDbLine
 10
-771.2009260754545
 20
-380.9190072181346
 30
0.0
 11
-774.9509260754544
 21
-380.9190072181346
 31
0.0
  0
LINE
  5
303
330
1E
100
AcDbEntity
  8
0
  6
Continuous
 62
     3
100
AcDbLine
 10
-771.2009260754545
 20
-384.4190072181346
 30
0.0
 11
-774.9509260754544
 21
-384.4190072181346
 31
0.0
  0
LINE
  5
304
330
1E
100
AcDbEntity
  8
0
  6
Continuous
 62
     3
100
AcDbLine
 10
-771.2009260754545
 20
-385.9190072181346
 30
0.0
 11
-774.9509260754544
 21
-385.9190072181346
 31
0.0
  0
LINE
  5
305
330
1E
100
AcDbEntity
  8
0
  6
Continuous
 62
     3
100
AcDbLine
 10
-771.2009260754545
 20
-387.9190072181346
 30
0.0
 11
-774.9509260754544
 21
-387.9190072181346
 31
0.0
  0
LINE
  5
306
330
1E
100
AcDbEntity
  8
0
  6
Continuous
 62
     3
100
AcDbLine
 10
-771.2009260754545
 20
-389.4190072181346
 30
0.0
 11
-774.9509260754544
 21
-389.4190072181346
 31
0.0
  0
LINE
  5
307
330
1E
100
AcDbEntity
  8
0
  6
Continuous
 62
     3
100
AcDbLine
 10
-771.2009260754545
 20
-391.4190072181346
 30
0.0
 11
-774.9509260754544
 21
-391.4190072181346
 31
0.0
  0
LINE
  5
308
330
1E
100
AcDbEntity
  8
0
  6
Continuous
 62
     3
100
AcDbLine
 10
-771.2009260754545
 20
-392.9190072181346
 30
0.0
 11
-774.9509260754544
 21
-392.9190072181346
 31
0.0
  0
LINE
  5
309
330
1E
100
AcDbEntity
  8
0
  6
Continuous
 62
     3
100
AcDbLine
 10
-771.2009260754545
 20
-394.9190072181346
 30
0.0
 11
-774.9509260754544
 21
-394.9190072181346
 31
0.0
  0
LINE
  5
30A
330
1E
100
AcDbEntity
  8
0
  6
Continuous
 62
     3
100
AcDbLine
 10
-771.2009260754545
 20
-396.4190072181346
 30
0.0
 11
-774.9509260754544
 21
-396.4190072181346
 31
0.0
  0
LINE
  5
30B
330
1E
100
AcDbEntity
  8
0
  6
Continuous
 62
     3
100
AcDbLine
 10
-771.2009260754545
 20
-399.9190072181346
 30
0.0
 11
-774.9509260754544
 21
-399.9190072181346
 31
0.0
  0
LINE
  5
30C
330
1E
100
AcDbEntity
  8
0
  6
Continuous
 62
     3
100
AcDbLine
 10
-771.2009260754545
 20
-401.9190072181346
 30
0.0
 11
-774.9509260754544
 21
-401.9190072181346
 31
0.0
  0
LINE
  5
30D
330
1E
100
AcDbEntity
  8
0
  6
Continuous
 62
     3
100
AcDbLine
 10
-771.2009260754545
 20
-403.4190072181346
 30
0.0
 11
-774.9509260754544
 21
-403.4190072181346
 31
0.0
  0
LINE
  5
30E
330
1E
100
AcDbEntity
  8
0
  6
Continuous
 62
     3
100
AcDbLine
 10
-771.2009260754545
 20
-405.4190072181346
 30
0.0
 11
-774.9509260754544
 21
-405.4190072181346
 31
0.0
  0
LINE
  5
30F
330
1E
100
AcDbEntity
  8
0
  6
Continuous
 62
     3
100
AcDbLine
 10
-771.2009260754545
 20
-406.9190072181346
 30
0.0
 11
-774.9509260754544
 21
-406.9190072181346
 31
0.0
  0
LINE
  5
310
330
1E
100
AcDbEntity
  8
0
  6
Continuous
 62
     3
100
AcDbLine
 10
-771.2009260754545
 20
-408.9190072181346
 30
0.0
 11
-774.9509260754544
 21
-408.9190072181346
 31
0.0
  0
LINE
  5
311
330
1E
100
AcDbEntity
  8
0
  6
Continuous
 62
     3
100
AcDbLine
 10
-771.2009260754545
 20
-410.4190072181346
 30
0.0
 11
-774.9509260754544
 21
-410.4190072181346
 31
0.0
  0
LINE
  5
312
330
1E
100
AcDbEntity
  8
0
  6
Continuous
 62
     3
100
AcDbLine
 10
-771.2009260754545
 20
-412.4190072181346
 30
0.0
 11
-774.9509260754544
 21
-412.4190072181346
 31
0.0
  0
LINE
  5
313
330
1E
100
AcDbEntity
  8
0
  6
Continuous
 62
     3
100
AcDbLine
 10
-771.2009260754545
 20
-413.9190072181346
 30
0.0
 11
-774.9509260754544
 21
-413.9190072181346
 31
0.0
  0
LINE
  5
314
330
1E
100
AcDbEntity
  8
0
  6
Continuous
 62
     3
100
AcDbLine
 10
-771.2009260754545
 20
-382.4190072181346
 30
0.0
 11
-774.9509260754544
 21
-382.4190072181346
 31
0.0
  0
LINE
  5
315
330
1E
100
AcDbEntity
  8
0
  6
Continuous
 62
     3
100
AcDbLine
 10
-840.4509260754545
 20
-438.9190072181346
 30
0.0
 11
-857.7257561864543
 21
-438.9190072181346
 31
0.0
  0
LINE
  5
316
330
1E
100
AcDbEntity
  8
0
  6
Continuous
 62
     3
100
AcDbLine
 10
-879.5793217714544
 20
-436.6690072181346
 30
0.0
 11
-859.3225303794545
 21
-436.6690072181346
 31
0.0
  0
LINE
  5
317
330
1E
100
AcDbEntity
  8
0
  6
Continuous
 62
     3
100
AcDbLine
 10
-879.5793217714544
 20
-436.6690072181346
 30
0.0
 11
-881.1760959644544
 21
-438.9190072181346
 31
0.0
  0
LINE
  5
318
330
1E
100
AcDbEntity
  8
0
  6
Continuous
 62
     3
100
AcDbLine
 10
-859.3225303794545
 20
-436.6690072181346
 30
0.0
 11
-857.7257561864543
 21
-438.9190072181346
 31
0.0
  0
LINE
  5
319
330
1E
100
AcDbEntity
  8
0
  6
Continuous
 62
     3
100
AcDbLine
 10
-847.2009260754544
 20
-466.4190072181346
 30
0.0
 11
-847.2009260754544
 21
-464.9190072181347
 31
0.0
  0
LINE
  5
31A
330
1E
100
AcDbEntity
  8
0
  6
Continuous
 62
     3
100
AcDbLine
 10
-847.2009260754544
 20
-481.1690072181346
 30
0.0
 11
-847.2009260754544
 21
-439.6690072181346
 31
0.0
  0
LINE
  5
31B
330
1E
100
AcDbEntity
  8
0
  6
Continuous
 62
     3
100
AcDbLine
 10
-891.7009260754545
 20
-439.6690072181346
 30
0.0
 11
-891.7009260754545
 21
-481.1690072181346
 31
0.0
  0
LINE
  5
31C
330
1E
100
AcDbEntity
  8
0
  6
Continuous
 62
     3
100
AcDbLine
 10
-891.7009260754545
 20
-439.6690072181346
 30
0.0
 11
-847.2009260754544
 21
-439.6690072181346
 31
0.0
  0
LINE
  5
31D
330
1E
100
AcDbEntity
  8
0
  6
Continuous
 62
     3
100
AcDbLine
 10
-881.1760959644544
 20
-438.9190072181346
 30
0.0
 11
-898.9509260754545
 21
-438.9190072181346
 31
0.0
  0
LINE
  5
31E
330
1E
100
AcDbEntity
  8
0
  6
Continuous
 62
     3
100
AcDbLine
 10
-879.5793217714544
 20
-436.6690072181346
 30
0.0
 11
-859.3225303794545
 21
-436.6690072181346
 31
0.0
  0
LINE
  5
31F
330
1E
100
AcDbEntity
  8
0
  6
Continuous
 62
     3
100
AcDbLine
 10
-857.7257561864543
 20
-438.9190072181346
 30
0.0
 11
-839.9509260754545
 21
-438.9190072181346
 31
0.0
  0
LINE
  5
320
330
1E
100
AcDbEntity
  8
0
  6
Continuous
 62
     3
100
AcDbLine
 10
-859.3225303794545
 20
-436.6690072181346
 30
0.0
 11
-857.7257561864543
 21
-438.9190072181346
 31
0.0
  0
LINE
  5
321
330
1E
100
AcDbEntity
  8
0
  6
Continuous
 62
     3
100
AcDbLine
 10
-879.5793217714544
 20
-436.6690072181346
 30
0.0
 11
-881.1760959644544
 21
-438.9190072181346
 31
0.0
  0
LINE
  5
322
330
1E
100
AcDbEntity
  8
0
  6
Continuous
 62
     3
100
AcDbLine
 10
-898.9509260754545
 20
-438.9190072181346
 30
0.0
 11
-881.1760959644544
 21
-438.9190072181346
 31
0.0
  0
LINE
  5
323
330
1E
100
AcDbEntity
  8
0
  6
Continuous
 62
     3
100
AcDbLine
 10
-907.7994981694544
 20
-442.2097621821347
 30
0.0
 11
-898.9509260754545
 21
-438.9190072181346
 31
0.0
  0
LINE
  5
324
330
1E
100
AcDbEntity
  8
0
  6
Continuous
 62
     3
100
AcDbLine
 10
-908.4509260754545
 20
-457.4520260861346
 30
0.0
 11
-908.4509260754545
 21
-443.1470422471346
 31
0.0
  0
ARC
  5
325
330
1E
100
AcDbEntity
  8
0
  6
Continuous
 62
     3
100
AcDbCircle
 10
-907.4509260754545
 20
-443.1470441551346
 30
0.0
 40
1.0
100
AcDbArc
 50
110.4000028479999
 51
179.9998907169999
  0
LINE
  5
326
330
1E
100
AcDbEntity
  8
0
  6
Continuous
 62
     3
100
AcDbLine
 10
-907.4509260754545
 20
-457.4520260861346
 30
0.0
 11
-907.4509260754545
 21
-443.1470441551346
 31
0.0
  0
LINE
  5
327
330
1E
100
AcDbEntity
  8
0
  6
Continuous
 62
     3
100
AcDbLine
 10
-907.4509260754545
 20
-443.1470441551346
 30
0.0
 11
-908.1509260754543
 21
-442.6570441551346
 31
0.0
  0
LINE
  5
328
330
1E
100
AcDbEntity
  8
0
  6
Continuous
 62
     3
100
AcDbLine
 10
-907.4509260754545
 20
-443.1470441551346
 30
0.0
 11
-898.9509260754545
 21
-439.9859220101347
 31
0.0
  0
LINE
  5
329
330
1E
100
AcDbEntity
  8
0
  6
Continuous
 62
     3
100
AcDbLine
 10
-898.9509260754545
 20
-439.9859220101347
 30
0.0
 11
-898.9509260754545
 21
-438.7653708541346
 31
0.0
  0
LINE
  5
32A
330
1E
100
AcDbEntity
  8
0
  6
Continuous
 62
     3
100
AcDbLine
 10
-918.2644650954545
 20
-460.6923455741346
 30
0.0
 11
-908.4509260754545
 21
-457.4520260861346
 31
0.0
  0
ARC
  5
32B
330
1E
100
AcDbEntity
  8
0
  6
Continuous
 62
     3
100
AcDbCircle
 10
-917.9509260754544
 20
-461.6419208911346
 30
0.0
 40
1.0
100
AcDbArc
 50
108.272638267
 51
180.0
  0
LINE
  5
32C
330
1E
100
AcDbEntity
  8
0
  6
Continuous
 62
     3
100
AcDbLine
 10
-918.9509260754546
 20
-482.1690072181346
 30
0.0
 11
-918.9509260754546
 21
-461.6419208911346
 31
0.0
  0
LINE
  5
32D
330
1E
100
AcDbEntity
  8
0
  6
Continuous
 62
     3
100
AcDbLine
 10
-917.9509260754544
 20
-461.6419208911346
 30
0.0
 11
-908.1373870554545
 21
-458.4016014031346
 31
0.0
  0
LINE
  5
32E
330
1E
100
AcDbEntity
  8
0
  6
Continuous
 62
     3
100
AcDbLine
 10
-917.9509260754544
 20
-461.6419208911346
 30
0.0
 11
-918.7309260754544
 21
-461.1519208911346
 31
0.0
  0
LINE
  5
32F
330
1E
100
AcDbEntity
  8
0
  6
Continuous
 62
     3
100
AcDbLine
 10
-917.9509260754544
 20
-461.6419208911346
 30
0.0
 11
-917.9509260754544
 21
-482.6690072181346
 31
0.0
  0
POINT
  5
330
330
1E
100
AcDbEntity
  8
0
  6
Continuous
 62
     3
100
AcDbPoint
 10
-907.4509260754545
 20
-456.4190072181346
 30
0.0
  0
ARC
  5
331
330
1E
100
AcDbEntity
  8
0
  6
Continuous
 62
     3
100
AcDbCircle
 10
-908.4509260754545
 20
-457.4520260861346
 30
0.0
 40
1.0
100
AcDbArc
 50
288.272638267
 51
0.0
  0
LINE
  5
332
330
1E
100
AcDbEntity
  8
0
  6
Continuous
 62
     3
100
AcDbLine
 10
-908.4509260754545
 20
-457.4520260861346
 30
0.0
 11
-907.8209260754546
 21
-457.9420260861346
 31
0.0
  0
LINE
  5
333
330
1E
100
AcDbEntity
  8
0
  6
Continuous
 62
     3
100
AcDbLine
 10
-831.4509260754544
 20
-443.1470441551346
 30
0.0
 11
-839.9509260754545
 21
-439.9859220101347
 31
0.0
  0
LINE
  5
334
330
1E
100
AcDbEntity
  8
0
  6
Continuous
 62
     3
100
AcDbLine
 10
-839.9509260754545
 20
-439.9859220101347
 30
0.0
 11
-839.9509260754545
 21
-438.7653708541346
 31
0.0
  0
LINE
  5
335
330
1E
100
AcDbEntity
  8
0
  6
Continuous
 62
     3
100
AcDbLine
 10
-831.1023516114543
 20
-442.2097630641347
 30
0.0
 11
-839.9509260754545
 21
-438.9190072181346
 31
0.0
  0
POINT
  5
336
330
1E
100
AcDbEntity
  8
0
  6
Continuous
 62
     3
100
AcDbPoint
 10
-831.4509260754544
 20
-456.4190072181346
 30
0.0
  0
LINE
  5
337
330
1E
100
AcDbEntity
  8
0
  6
Continuous
 62
     3
100
AcDbLine
 10
-820.9509260754545
 20
-461.6089020231346
 30
0.0
 11
-830.7644650954545
 21
-458.3685825351346
 31
0.0
  0
LINE
  5
338
330
1E
100
AcDbEntity
  8
0
  6
Continuous
 62
     3
100
AcDbLine
 10
-830.4509260754544
 20
-457.4520260861346
 30
0.0
 11
-831.0709260754546
 21
-457.9720260861346
 31
0.0
  0
LINE
  5
339
330
1E
100
AcDbEntity
  8
0
  6
Continuous
 62
     3
100
AcDbLine
 10
-831.4509260754544
 20
-457.4190072181346
 30
0.0
 11
-831.4509260754544
 21
-443.1470441551346
 31
0.0
  0
ARC
  5
33A
330
1E
100
AcDbEntity
  8
0
  6
Continuous
 62
     3
100
AcDbCircle
 10
-830.4509260754544
 20
-457.4190072181346
 30
0.0
 40
1.0
100
AcDbArc
 50
180.0
 51
251.7273617329999
  0
LINE
  5
33B
330
1E
100
AcDbEntity
  8
0
  6
Continuous
 62
     3
100
AcDbLine
 10
-820.6373870554545
 20
-460.6593267061346
 30
0.0
 11
-830.4509260754544
 21
-457.4190072181346
 31
0.0
  0
LINE
  5
33C
330
1E
100
AcDbEntity
  8
0
  6
Continuous
 62
     3
100
AcDbLine
 10
-830.4509260754544
 20
-457.4190072181346
 30
0.0
 11
-830.4509260754544
 21
-443.1470422471346
 31
0.0
  0
LINE
  5
33D
330
1E
100
AcDbEntity
  8
0
  6
Continuous
 62
     3
100
AcDbLine
 10
-831.4509260754544
 20
-443.1470441551346
 30
0.0
 11
-830.8209260754544
 21
-442.7170441551346
 31
0.0
  0
ARC
  5
33E
330
1E
100
AcDbEntity
  8
0
  6
Continuous
 62
     3
100
AcDbCircle
 10
-831.4509260754544
 20
-443.1470441551346
 30
0.0
 40
1.0
100
AcDbArc
 50
0.000109283
 51
69.599852295
  0
LINE
  5
33F
330
1E
100
AcDbEntity
  8
0
  6
Continuous
 62
     3
100
AcDbLine
 10
-819.9509260754545
 20
-482.1690072181346
 30
0.0
 11
-819.9509260754545
 21
-461.6419208911346
 31
0.0
  0
LINE
  5
340
330
1E
100
AcDbEntity
  8
0
  6
Continuous
 62
     3
100
AcDbLine
 10
-820.9509260754545
 20
-461.6419208911346
 30
0.0
 11
-820.9509260754545
 21
-482.1690072181346
 31
0.0
  0
ARC
  5
341
330
1E
100
AcDbEntity
  8
0
  6
Continuous
 62
     3
100
AcDbCircle
 10
-820.9509260754545
 20
-461.6419208911346
 30
0.0
 40
1.0
100
AcDbArc
 50
0.0
 51
71.72736173299999
  0
LINE
  5
342
330
1E
100
AcDbEntity
  8
0
  6
Continuous
 62
     3
100
AcDbLine
 10
-820.9509260754545
 20
-461.6419208911346
 30
0.0
 11
-820.2709260754545
 21
-461.1619208911346
 31
0.0
  0
LINE
  5
343
330
1E
100
AcDbEntity
  8
0
  6
Continuous
 62
     3
100
AcDbLine
 10
-924.9509260754544
 20
-468.9367169081346
 30
0.0
 11
-924.9509260754544
 21
-471.9367169081346
 31
0.0
  0
LINE
  5
344
330
1E
100
AcDbEntity
  8
0
  6
Continuous
 62
     3
100
AcDbLine
 10
-918.9509260754546
 20
-469.4367169081346
 30
0.0
 11
-918.9509260754546
 21
-471.4367169081346
 31
0.0
  0
LINE
  5
345
330
1E
100
AcDbEntity
  8
0
  6
Continuous
 62
     3
100
AcDbLine
 10
-924.9509260754544
 20
-468.4367169081347
 30
0.0
 11
-924.9509260754544
 21
-472.4367169081346
 31
0.0
  0
LINE
  5
346
330
1E
100
AcDbEntity
  8
0
  6
Continuous
 62
     3
100
AcDbLine
 10
-924.9509260754544
 20
-472.4367169081346
 30
0.0
 11
-920.9509260754545
 21
-472.4367169081346
 31
0.0
  0
LINE
  5
347
330
1E
100
AcDbEntity
  8
0
  6
Continuous
 62
     3
100
AcDbLine
 10
-920.9509260754545
 20
-472.4367169081346
 30
0.0
 11
-918.9509260754546
 21
-471.4367169081346
 31
0.0
  0
LINE
  5
348
330
1E
100
AcDbEntity
  8
0
  6
Continuous
 62
     3
100
AcDbLine
 10
-918.9509260754546
 20
-469.4367169081346
 30
0.0
 11
-920.9509260754545
 21
-468.4367169081347
 31
0.0
  0
LINE
  5
349
330
1E
100
AcDbEntity
  8
0
  6
Continuous
 62
     3
100
AcDbLine
 10
-920.9509260754545
 20
-468.4367169081347
 30
0.0
 11
-924.9509260754544
 21
-468.4367169081347
 31
0.0
  0
LINE
  5
34A
330
1E
100
AcDbEntity
  8
0
  6
Continuous
 62
     3
100
AcDbLine
 10
-920.9509260754545
 20
-468.4367169081347
 30
0.0
 11
-920.9509260754545
 21
-472.4367169081346
 31
0.0
  0
ARC
  5
34B
330
1E
100
AcDbEntity
  8
0
  6
Continuous
 62
     3
100
AcDbCircle
 10
-925.7889515754545
 20
-457.1020260861346
 30
0.0
 40
0.5
100
AcDbArc
 50
180.0
 51
270.0
  0
LINE
  5
34C
330
1E
100
AcDbEntity
  8
0
  6
Continuous
 62
     3
100
AcDbLine
 10
-925.7889515754545
 20
-457.6020260861346
 30
0.0
 11
-922.7889515754544
 21
-457.6020260861346
 31
0.0
  0
LINE
  5
34D
330
1E
100
AcDbEntity
  8
0
  6
Continuous
 62
     3
100
AcDbLine
 10
-926.2889515754544
 20
-454.6020260861346
 30
0.0
 11
-926.2889515754544
 21
-457.1020260861346
 31
0.0
  0
LINE
  5
34E
330
1E
100
AcDbEntity
  8
0
  6
Continuous
 62
     3
100
AcDbLine
 10
-926.2889515754544
 20
-441.1520260861346
 30
0.0
 11
-929.2889515754545
 21
-441.1520260861346
 31
0.0
  0
LINE
  5
34F
330
1E
100
AcDbEntity
  8
0
  6
Continuous
 62
     3
100
AcDbLine
 10
-926.2889515754544
 20
-441.1520260861346
 30
0.0
 11
-928.2208032274546
 21
-440.6343879961347
 31
0.0
  0
LINE
  5
350
330
1E
100
AcDbEntity
  8
0
  6
Continuous
 62
     3
100
AcDbLine
 10
-926.2889515754544
 20
-441.1520260861346
 30
0.0
 11
-928.2208032274546
 21
-441.6696641761346
 31
0.0
  0
LINE
  5
351
330
1E
100
AcDbEntity
  8
0
  6
Continuous
 62
     3
100
AcDbLine
 10
-926.2889515754544
 20
-453.6020260861346
 30
0.0
 11
-926.2889515754544
 21
-439.1520260861346
 31
0.0
  0
LINE
  5
352
330
1E
100
AcDbEntity
  8
0
  6
Continuous
 62
     3
100
AcDbLine
 10
-922.2889515754545
 20
-450.1520260861346
 30
0.0
 11
-922.2889515754545
 21
-455.1520260861346
 31
0.0
  0
ARC
  5
353
330
1E
100
AcDbEntity
  8
0
  6
Continuous
 62
     3
100
AcDbCircle
 10
-925.7889515754545
 20
-454.6020260861346
 30
0.0
 40
0.5
100
AcDbArc
 50
90.0
 51
180.0
  0
ARC
  5
354
330
1E
100
AcDbEntity
  8
0
  6
Continuous
 62
     3
100
AcDbCircle
 10
-922.7889515754544
 20
-453.6020260861346
 30
0.0
 40
0.5
100
AcDbArc
 50
270.0
 51
0.0
  0
LINE
  5
355
330
1E
100
AcDbEntity
  8
0
  6
Continuous
 62
     3
100
AcDbLine
 10
-925.7889515754545
 20
-454.1020260861346
 30
0.0
 11
-922.7889515754544
 21
-454.1020260861346
 31
0.0
  0
TEXT
  5
356
330
1E
100
AcDbEntity
  8
0
  6
Continuous
 62
     3
100
AcDbText
 10
-925.3889515754545
 20
-440.1520260861346
 30
0.0
 40
2.5
  1
４
 41
0.88
  7
KANJI3
100
AcDbText
  0
LINE
  5
357
330
1E
100
AcDbEntity
  8
0
  6
Continuous
 62
     3
100
AcDbLine
 10
-911.2889515754543
 20
-448.6520260861346
 30
0.0
 11
-911.2889515754543
 21
-439.1520260861346
 31
0.0
  0
LINE
  5
358
330
1E
100
AcDbEntity
  8
0
  6
Continuous
 62
     3
100
AcDbLine
 10
-911.2889515754543
 20
-441.1520260861346
 30
0.0
 11
-913.2208032274546
 21
-440.6343879961347
 31
0.0
  0
LINE
  5
359
330
1E
100
AcDbEntity
  8
0
  6
Continuous
 62
     3
100
AcDbLine
 10
-911.2889515754543
 20
-441.1520260861346
 30
0.0
 11
-913.2208032274546
 21
-441.6696641761346
 31
0.0
  0
TEXT
  5
35A
330
1E
100
AcDbEntity
  8
0
  6
Continuous
 62
     3
100
AcDbText
 10
-918.9889515754545
 20
-440.1520260861346
 30
0.0
 40
2.5
  1
１１
 41
0.88
  7
KANJI3
100
AcDbText
  0
LWPOLYLINE
  5
35B
330
1E
100
AcDbEntity
  8
0
 62
     3
100
AcDbPolyline
 90
        3
 70
     0
 43
0.0
 10
-911.2889515754543
 20
-441.1520260861346
 10
-922.2889515754545
 20
-441.1520260861346
 10
-920.3570999224545
 20
-441.6696641761346
  0
LINE
  5
360
330
1E
100
AcDbEntity
  8
0
  6
Continuous
 62
     3
100
AcDbLine
 10
-922.2889515754545
 20
-441.1520260861346
 30
0.0
 11
-920.3570999224545
 21
-440.6343879961347
 31
0.0
  0
LINE
  5
361
330
1E
100
AcDbEntity
  8
0
  6
Continuous
 62
     3
100
AcDbLine
 10
-922.2889515754545
 20
-449.1520260861346
 30
0.0
 11
-922.2889515754545
 21
-439.1520260861346
 31
0.0
  0
LINE
  5
362
330
1E
100
AcDbEntity
  8
0
  6
Continuous
 62
     3
100
AcDbLine
 10
-922.2889515754545
 20
-441.1520260861346
 30
0.0
 11
-920.3570999224545
 21
-441.6696641761346
 31
0.0
  0
LINE
  5
363
330
1E
100
AcDbEntity
  8
0
  6
Continuous
 62
     3
100
AcDbLine
 10
-922.2889515754545
 20
-441.1520260861346
 30
0.0
 11
-920.3570999224545
 21
-440.6343879961347
 31
0.0
  0
LINE
  5
364
330
1E
100
AcDbEntity
  8
0
  6
Continuous
 62
     3
100
AcDbLine
 10
-919.2889515754544
 20
-441.1520260861346
 30
0.0
 11
-922.2889515754545
 21
-441.1520260861346
 31
0.0
  0
LINE
  5
365
330
1E
100
AcDbEntity
  8
0
  6
Continuous
 62
     3
100
AcDbLine
 10
-922.2889515754545
 20
-441.1520260861346
 30
0.0
 11
-926.2889515754544
 21
-441.1520260861346
 31
0.0
  0
TEXT
  5
366
330
1E
100
AcDbEntity
  8
0
  6
Continuous
 62
     3
100
AcDbText
 10
-928.5389515754545
 20
-432.4190072181346
 30
0.0
 40
4.0
  1
温度センサ
 41
0.9
  7
KANJI6
100
AcDbText
  0
LINE
  5
367
330
1E
100
AcDbEntity
  8
0
  6
Continuous
 62
     3
100
AcDbLine
 10
-919.5389515754545
 20
-448.9190072181346
 30
0.0
 11
-919.0213134854545
 21
-446.9871555651346
 31
0.0
  0
ARC
  5
368
330
1E
100
AcDbEntity
  8
0
  6
Continuous
 62
     3
100
AcDbCircle
 10
-921.7889515754544
 20
-450.1520260861346
 30
0.0
 40
0.5
100
AcDbArc
 50
90.0
 51
180.0
  0
LINE
  5
369
330
1E
100
AcDbEntity
  8
0
  6
Continuous
 62
     3
100
AcDbLine
 10
-921.7889515754544
 20
-449.6520260861346
 30
0.0
 11
-911.2889515754543
 21
-449.6520260861346
 31
0.0
  0
LINE
  5
36A
330
1E
100
AcDbEntity
  8
0
  6
Continuous
 62
     3
100
AcDbLine
 10
-919.5389515754545
 20
-448.9190072181346
 30
0.0
 11
-920.0565896654545
 21
-446.9871555651346
 31
0.0
  0
LINE
  5
36B
330
1E
100
AcDbEntity
  8
0
  6
Continuous
 62
     3
100
AcDbLine
 10
-919.5389515754545
 20
-448.9190072181346
 30
0.0
 11
-919.5389515754545
 21
-434.9190072181346
 31
0.0
  0
ARC
  5
36C
330
1E
100
AcDbEntity
  8
0
  6
Continuous
 62
     3
100
AcDbCircle
 10
-921.7889515754544
 20
-455.1520260861346
 30
0.0
 40
0.5
100
AcDbArc
 50
180.0
 51
270.0
  0
LINE
  5
36D
330
1E
100
AcDbEntity
  8
0
  6
Continuous
 62
     3
100
AcDbLine
 10
-911.2889515754543
 20
-450.4520260861347
 30
0.0
 11
-911.2889515754543
 21
-449.6520260861346
 31
0.0
  0
LINE
  5
36E
330
1E
100
AcDbEntity
  8
0
  6
Continuous
 62
     3
100
AcDbLine
 10
-908.4509260754545
 20
-451.4520260861346
 30
0.0
 11
-911.2889515754543
 21
-451.4520260861346
 31
0.0
  0
LINE
  5
36F
330
1E
100
AcDbEntity
  8
0
  6
Continuous
 62
     3
100
AcDbLine
 10
-908.4509260754545
 20
-450.4520260861347
 30
0.0
 11
-911.2889515754543
 21
-450.4520260861347
 31
0.0
  0
LINE
  5
370
330
1E
100
AcDbEntity
  8
0
  6
Continuous
 62
     3
100
AcDbLine
 10
-921.7889515754544
 20
-455.6520260861346
 30
0.0
 11
-911.2889515754543
 21
-455.6520260861346
 31
0.0
  0
LINE
  5
371
330
1E
100
AcDbEntity
  8
0
  6
Continuous
 62
     3
100
AcDbLine
 10
-922.2889515754545
 20
-456.9020260861346
 30
0.0
 11
-922.2889515754545
 21
-457.1020260861346
 31
0.0
  0
ARC
  5
372
330
1E
100
AcDbEntity
  8
0
  6
Continuous
 62
     3
100
AcDbCircle
 10
-922.0389515754545
 20
-456.9020260861346
 30
0.0
 40
0.25
100
AcDbArc
 50
90.0
 51
180.0
  0
ARC
  5
373
330
1E
100
AcDbEntity
  8
0
  6
Continuous
 62
     3
100
AcDbCircle
 10
-911.7889515754544
 20
-456.1520260861346
 30
0.0
 40
0.5
100
AcDbArc
 50
270.0
 51
0.0
  0
LINE
  5
374
330
1E
100
AcDbEntity
  8
0
  6
Continuous
 62
     3
100
AcDbLine
 10
-911.7889515754544
 20
-456.6520260861346
 30
0.0
 11
-922.0389515754545
 21
-456.6520260861346
 31
0.0
  0
ARC
  5
375
330
1E
100
AcDbEntity
  8
0
  6
Continuous
 62
     3
100
AcDbCircle
 10
-922.7889515754544
 20
-457.1020260861346
 30
0.0
 40
0.5
100
AcDbArc
 50
270.0
 51
0.0
  0
LINE
  5
376
330
1E
100
AcDbEntity
  8
0
  6
Continuous
 62
     3
100
AcDbLine
 10
-911.2889515754543
 20
-456.1520260861346
 30
0.0
 11
-911.2889515754543
 21
-450.4520260861347
 31
0.0
  0
POINT
  5
377
330
1E
100
AcDbEntity
  8
0
  6
Continuous
 62
     3
100
AcDbPoint
 10
-890.2009260754544
 20
-421.1690072181346
 30
0.0
  0
LINE
  5
378
330
1E
100
AcDbEntity
  8
0
  6
Continuous
 62
     3
100
AcDbLine
 10
-890.2009260754544
 20
-376.6690072181346
 30
0.0
 11
-890.2009260754544
 21
-421.1690072181346
 31
0.0
  0
POINT
  5
379
330
1E
100
AcDbEntity
  8
0
  6
Continuous
 62
     3
100
AcDbPoint
 10
-848.7009260754545
 20
-421.1690072181346
 30
0.0
  0
LINE
  5
37A
330
1E
100
AcDbEntity
  8
0
  6
Continuous
 62
     3
100
AcDbLine
 10
-848.7009260754545
 20
-376.6690072181346
 30
0.0
 11
-848.7009260754545
 21
-421.1690072181346
 31
0.0
  0
LINE
  5
37B
330
1E
100
AcDbEntity
  8
0
  6
Continuous
 62
     3
100
AcDbLine
 10
-890.2009260754544
 20
-421.1690072181346
 30
0.0
 11
-848.7009260754545
 21
-421.1690072181346
 31
0.0
  0
LINE
  5
37C
330
1E
100
AcDbEntity
  8
0
  6
Continuous
 62
     3
100
AcDbLine
 10
-898.9509260754545
 20
-419.1690072181346
 30
0.0
 11
-898.9509260754545
 21
-421.5690072181346
 31
0.0
  0
LINE
  5
37D
330
1E
100
AcDbEntity
  8
0
  6
Continuous
 62
     3
100
AcDbLine
 10
-839.9509260754545
 20
-424.9190072181346
 30
0.0
 11
-840.9509260754544
 21
-424.9190072181346
 31
0.0
  0
LINE
  5
37E
330
1E
100
AcDbEntity
  8
0
  6
Continuous
 62
     3
100
AcDbLine
 10
-840.9509260754544
 20
-424.9190072181346
 30
0.0
 11
-840.9509260754544
 21
-417.3190072181346
 31
0.0
  0
LINE
  5
37F
330
1E
100
AcDbEntity
  8
0
  6
Continuous
 62
     3
100
AcDbLine
 10
-898.9509260754545
 20
-419.1690072181346
 30
0.0
 11
-898.9509260754545
 21
-438.9190072181346
 31
0.0
  0
LINE
  5
380
330
1E
100
AcDbEntity
  8
0
  6
Continuous
 62
     3
100
AcDbLine
 10
-898.9509260754545
 20
-420.6690072181346
 30
0.0
 11
-897.9509260754545
 21
-420.6690072181346
 31
0.0
  0
LINE
  5
381
330
1E
100
AcDbEntity
  8
0
  6
Continuous
 62
     3
100
AcDbLine
 10
-897.9509260754545
 20
-424.6690072181346
 30
0.0
 11
-898.9509260754545
 21
-424.6690072181346
 31
0.0
  0
LINE
  5
382
330
1E
100
AcDbEntity
  8
0
  6
Continuous
 62
     3
100
AcDbLine
 10
-897.9509260754545
 20
-420.6690072181346
 30
0.0
 11
-897.9509260754545
 21
-424.6690072181346
 31
0.0
  0
LINE
  5
383
330
1E
100
AcDbEntity
  8
0
  6
Continuous
 62
     3
100
AcDbLine
 10
-839.9509260754545
 20
-417.3190072181346
 30
0.0
 11
-839.9509260754545
 21
-438.9190072181346
 31
0.0
  0
ARC
  5
384
330
1E
100
AcDbEntity
  8
0
  6
Continuous
 62
     3
100
AcDbCircle
 10
-888.5889515754545
 20
-419.4190072181346
 30
0.0
 40
1.0
100
AcDbArc
 50
180.0
 51
270.0
  0
LINE
  5
385
330
1E
100
AcDbEntity
  8
1
  6
Continuous
 62
     3
100
AcDbLine
 10
-850.5889515754544
 20
-420.4190072181346
 30
0.0
 11
-888.5889515754545
 21
-420.4190072181346
 31
0.0
  0
ARC
  5
386
330
1E
100
AcDbEntity
  8
0
  6
Continuous
 62
     3
100
AcDbCircle
 10
-850.5889515754544
 20
-419.4190072181346
 30
0.0
 40
1.0
100
AcDbArc
 50
270.0
 51
0.0
  0
LINE
  5
387
330
1E
100
AcDbEntity
  8
1
  6
Continuous
 62
     3
100
AcDbLine
 10
-849.5889515754544
 20
-419.4190072181346
 30
0.0
 11
-849.5889515754544
 21
-378.4190072181346
 31
0.0
  0
LINE
  5
388
330
1E
100
AcDbEntity
  8
1
  6
Continuous
 62
     3
100
AcDbLine
 10
-889.5889515754545
 20
-419.4190072181346
 30
0.0
 11
-889.5889515754545
 21
-378.4190072181346
 31
0.0
  0
LINE
  5
389
330
1E
100
AcDbEntity
  8
0
  6
Continuous
 62
     3
100
AcDbLine
 10
-888.5889515754545
 20
-398.4190072181346
 30
0.0
 11
-888.5889515754545
 21
-419.4190072181346
 31
0.0
  0
LINE
  5
38A
330
1E
100
AcDbEntity
  8
0
  6
Continuous
 62
     3
100
AcDbLine
 10
-888.5889515754545
 20
-419.4190072181346
 30
0.0
 11
-850.5889515754544
 21
-419.4190072181346
 31
0.0
  0
LINE
  5
38B
330
1E
100
AcDbEntity
  8
0
  6
Continuous
 62
     3
100
AcDbLine
 10
-850.5889515754544
 20
-419.4190072181346
 30
0.0
 11
-850.5889515754544
 21
-398.4190072181346
 31
0.0
  0
ARC
  5
38C
330
1E
100
AcDbEntity
  8
0
  6
Continuous
 62
     3
100
AcDbCircle
 10
-941.2834260754545
 20
-462.7693714971346
 30
0.0
 40
6.1675
100
AcDbArc
 50
90.0
 51
270.0
  0
ARC
  5
38D
330
1E
100
AcDbEntity
  8
0
  6
Continuous
 62
     3
100
AcDbCircle
 10
-941.2834260754545
 20
-462.7693714971346
 30
0.0
 40
7.6675
100
AcDbArc
 50
90.0
 51
270.0
  0
LINE
  5
38E
330
1E
100
AcDbEntity
  8
0
  6
Continuous
 62
     3
100
AcDbLine
 10
-918.9509260754546
 20
-494.6690072181346
 30
0.0
 11
-948.9509260754545
 21
-494.6690072181346
 31
0.0
  0
LINE
  5
38F
330
1E
100
AcDbEntity
  8
0
  6
Continuous
 62
     3
100
AcDbLine
 10
-948.9509260754545
 20
-494.6690072181346
 30
0.0
 11
-947.0190744224545
 21
-495.1866453081346
 31
0.0
  0
LINE
  5
390
330
1E
100
AcDbEntity
  8
0
  6
Continuous
 62
     3
100
AcDbLine
 10
-948.9509260754545
 20
-494.6690072181346
 30
0.0
 11
-947.0190744224545
 21
-494.1513691281346
 31
0.0
  0
LINE
  5
391
330
1E
100
AcDbEntity
  8
0
  6
Continuous
 62
     3
100
AcDbLine
 10
-948.9509260754545
 20
-463.7693714971346
 30
0.0
 11
-948.9509260754545
 21
-496.6690072181346
 31
0.0
  0
LINE
  5
392
330
1E
100
AcDbEntity
  8
0
  6
Continuous
 62
     3
100
AcDbLine
 10
-941.2834260754545
 20
-468.9368714971346
 30
0.0
 11
-924.9509260754544
 21
-468.9366305661346
 31
0.0
  0
LINE
  5
393
330
1E
100
AcDbEntity
  8
0
  6
Continuous
 62
     3
100
AcDbLine
 10
-941.2834260754545
 20
-470.4368714971346
 30
0.0
 11
-924.9509260754544
 21
-470.4366305661347
 31
0.0
  0
LINE
  5
394
330
1E
100
AcDbEntity
  8
0
  6
Continuous
 62
     3
100
AcDbLine
 10
-926.2889515754544
 20
-456.6020260861346
 30
0.0
 11
-941.2834260754545
 21
-456.6018714971346
 31
0.0
  0
LINE
  5
395
330
1E
100
AcDbEntity
  8
0
  6
Continuous
 62
     3
100
AcDbLine
 10
-926.2889515754544
 20
-455.1020260861346
 30
0.0
 11
-941.2834260754545
 21
-455.1018714971347
 31
0.0
  0
LWPOLYLINE
  5
396
330
1E
100
AcDbEntity
  8
0
 62
     3
100
AcDbPolyline
 90
        4
 70
     0
 43
0.0
 10
-768.7009260754544
 20
-459.4190072181346
 10
-764.7009260754544
 20
-459.4190072181346
 10
-764.7009260754544
 20
-458.9190072181346
 10
-763.7009260754545
 20
-458.9190072181346
  0
LINE
  5
39C
330
1E
100
AcDbEntity
  8
0
  6
Continuous
 62
     3
100
AcDbLine
 10
-768.7009260754544
 20
-459.4190072181346
 30
0.0
 11
-772.7009260754544
 21
-459.4190072181346
 31
0.0
  0
LWPOLYLINE
  5
39D
330
1E
100
AcDbEntity
  8
0
 62
     3
100
AcDbPolyline
 90
        3
 70
     0
 43
0.0
 10
-772.7009260754544
 20
-459.4190072181346
 10
-772.7009260754544
 20
-458.9190072181346
 10
-773.7009260754545
 20
-458.9190072181346
  0
LINE
  5
3A2
330
1E
100
AcDbEntity
  8
0
  6
Continuous
 62
     3
100
AcDbLine
 10
-768.7009260754544
 20
-440.9190072181346
 30
0.0
 11
-764.7009260754544
 21
-440.9190072181346
 31
0.0
  0
LWPOLYLINE
  5
3A3
330
1E
100
AcDbEntity
  8
0
 62
     3
100
AcDbPolyline
 90
        3
 70
     0
 43
0.0
 10
-764.7009260754544
 20
-440.9190072181346
 10
-764.7009260754544
 20
-440.4190072181346
 10
-763.7009260754545
 20
-440.4190072181346
  0
LINE
  5
3A8
330
1E
100
AcDbEntity
  8
0
  6
Continuous
 62
     3
100
AcDbLine
 10
-768.7009260754544
 20
-440.9190072181346
 30
0.0
 11
-772.7009260754544
 21
-440.9190072181346
 31
0.0
  0
LWPOLYLINE
  5
3A9
330
1E
100
AcDbEntity
  8
0
 62
     3
100
AcDbPolyline
 90
        3
 70
     0
 43
0.0
 10
-772.7009260754544
 20
-440.9190072181346
 10
-772.7009260754544
 20
-440.4190072181346
 10
-773.7009260754545
 20
-440.4190072181346
  0
LINE
  5
3AE
330
1E
100
AcDbEntity
  8
0
  6
Continuous
 62
     3
100
AcDbLine
 10
-773.6409260754544
 20
-475.9190072181346
 30
0.0
 11
-763.7009260754545
 21
-475.9190072181346
 31
0.0
  0
LINE
  5
3AF
330
1E
100
AcDbEntity
  8
0
  6
Continuous
 62
     3
100
AcDbLine
 10
-774.9509260754544
 20
-438.9190072181346
 30
0.0
 11
-770.6509260754544
 21
-438.9190072181346
 31
0.0
  0
LINE
  5
3B0
330
1E
100
AcDbEntity
  8
0
  6
Continuous
 62
     3
100
AcDbLine
 10
-774.9509260754544
 20
-457.4190072181346
 30
0.0
 11
-762.4509260754544
 21
-457.4190072181346
 31
0.0
  0
LINE
  5
3B1
330
1E
100
AcDbEntity
  8
0
  6
Continuous
 62
     3
100
AcDbLine
 10
-773.7009260754545
 20
-438.9190072181346
 30
0.0
 11
-773.7009260754545
 21
-457.4190072181346
 31
0.0
  0
LINE
  5
3B2
330
1E
100
AcDbEntity
  8
0
  6
Continuous
 62
     3
100
AcDbLine
 10
-762.4509260754544
 20
-438.9190072181346
 30
0.0
 11
-773.7009260754545
 21
-438.9190072181346
 31
0.0
  0
LINE
  5
3B3
330
1E
100
AcDbEntity
  8
0
  6
Continuous
 62
     3
100
AcDbLine
 10
-773.7009260754545
 20
-437.4190072181346
 30
0.0
 11
-773.7009260754545
 21
-438.9190072181346
 31
0.0
  0
LINE
  5
3B4
330
1E
100
AcDbEntity
  8
0
  6
Continuous
 62
     3
100
AcDbLine
 10
-763.7009260754545
 20
-437.4190072181346
 30
0.0
 11
-763.7009260754545
 21
-438.9190072181346
 31
0.0
  0
LINE
  5
3B5
330
1E
100
AcDbEntity
  8
0
  6
Continuous
 62
     3
100
AcDbLine
 10
-765.5509260754545
 20
-435.1690072181346
 30
0.0
 11
-771.8509260754545
 21
-435.1690072181346
 31
0.0
  0
LINE
  5
3B6
330
1E
100
AcDbEntity
  8
0
  6
Continuous
 62
     3
100
AcDbLine
 10
-771.8509260754545
 20
-435.1690072181346
 30
0.0
 11
-771.8509260754545
 21
-438.9190072181346
 31
0.0
  0
LINE
  5
3B7
330
1E
100
AcDbEntity
  8
0
  6
Continuous
 62
     3
100
AcDbLine
 10
-771.4509260754545
 20
-482.1690072181346
 30
0.0
 11
-771.4509260754545
 21
-478.8195448521346
 31
0.0
  0
LINE
  5
3B8
330
1E
100
AcDbEntity
  8
0
  6
Continuous
 62
     3
100
AcDbLine
 10
-771.4509260754545
 20
-480.4190072181346
 30
0.0
 11
-765.9509260754544
 21
-480.4190072181346
 31
0.0
  0
LINE
  5
3B9
330
1E
100
AcDbEntity
  8
0
  6
Continuous
 62
     3
100
AcDbLine
 10
-765.9509260754544
 20
-482.1690072181346
 30
0.0
 11
-765.9509260754544
 21
-478.8195448521346
 31
0.0
  0
LINE
  5
3BA
330
1E
100
AcDbEntity
  8
0
  6
Continuous
 62
     3
100
AcDbLine
 10
-771.4509260754545
 20
-478.8195448521346
 30
0.0
 11
-765.9509260754544
 21
-478.8195448521346
 31
0.0
  0
LINE
  5
3BB
330
1E
100
AcDbEntity
  8
0
  6
Continuous
 62
     3
100
AcDbLine
 10
-771.4509260754545
 20
-482.1690072181346
 30
0.0
 11
-774.9509260754544
 21
-482.1690072181346
 31
0.0
  0
LINE
  5
3BC
330
1E
100
AcDbEntity
  8
0
  6
Continuous
 62
     3
100
AcDbLine
 10
-762.4509260754544
 20
-482.1690072181346
 30
0.0
 11
-765.9509260754544
 21
-482.1690072181346
 31
0.0
  0
LINE
  5
3BD
330
1E
100
AcDbEntity
  8
0
  6
Continuous
 62
     3
100
AcDbLine
 10
-763.7009260754545
 20
-475.9190072181346
 30
0.0
 11
-763.7009260754545
 21
-477.4190072181347
 31
0.0
  0
LINE
  5
3BE
330
1E
100
AcDbEntity
  8
0
  6
Continuous
 62
     3
100
AcDbLine
 10
-773.7009260754545
 20
-457.6290072181346
 30
0.0
 11
-773.7009260754545
 21
-477.4190072181347
 31
0.0
  0
LINE
  5
3BF
330
1E
100
AcDbEntity
  8
0
  6
Continuous
 62
     3
100
AcDbLine
 10
-768.7009260754544
 20
-477.4190072181347
 30
0.0
 11
-773.7009260754545
 21
-477.4190072181347
 31
0.0
  0
LINE
  5
3C0
330
1E
100
AcDbEntity
  8
0
  6
Continuous
 62
     3
100
AcDbLine
 10
-768.7009260754544
 20
-477.4190072181347
 30
0.0
 11
-763.7009260754545
 21
-477.4190072181347
 31
0.0
  0
LINE
  5
3C1
330
1E
100
AcDbEntity
  8
0
  6
Continuous
 62
     3
100
AcDbLine
 10
-763.7009260754545
 20
-438.9190072181346
 30
0.0
 11
-763.7009260754545
 21
-477.4190072181347
 31
0.0
  0
LINE
  5
3C2
330
1E
100
AcDbEntity
  8
0
  6
Continuous
 62
     3
100
AcDbLine
 10
-763.9509260754545
 20
-438.9190072181346
 30
0.0
 11
-762.4509260754544
 21
-438.9190072181346
 31
0.0
  0
LINE
  5
3C3
330
1E
100
AcDbEntity
  8
0
  6
Continuous
 62
     3
100
AcDbLine
 10
-762.4509260754544
 20
-412.0690072181345
 30
0.0
 11
-762.4509260754544
 21
-438.9190072181346
 31
0.0
  0
LINE
  5
3C4
330
1E
100
AcDbEntity
  8
0
  6
Continuous
 62
     3
100
AcDbLine
 10
-771.7009260754545
 20
-435.1690072181346
 30
0.0
 11
-771.7009260754545
 21
-432.4970072181346
 31
0.0
  0
LINE
  5
3C5
330
1E
100
AcDbEntity
  8
0
  6
Continuous
 62
     3
100
AcDbLine
 10
-765.7009260754545
 20
-435.1690072181346
 30
0.0
 11
-765.7009260754545
 21
-438.4190072181346
 31
0.0
  0
LINE
  5
3C6
330
1E
100
AcDbEntity
  8
0
  6
Continuous
 62
     3
100
AcDbLine
 10
-765.7009260754545
 20
-436.6690072181346
 30
0.0
 11
-771.7009260754545
 21
-436.6690072181346
 31
0.0
  0
LWPOLYLINE
  5
3C7
330
1E
100
AcDbEntity
  8
0
 62
     3
100
AcDbPolyline
 90
        3
 70
     0
 43
0.0
 10
-765.7009260754545
 20
-438.4190072181346
 10
-771.7009260754545
 20
-438.4190072181346
 10
-771.7009260754545
 20
-425.4190072181346
  0
LINE
  5
3CC
330
1E
100
AcDbEntity
  8
0
  6
Continuous
 62
     3
100
AcDbLine
 10
-765.7009260754545
 20
-435.1690072181346
 30
0.0
 11
-767.7009260754545
 21
-435.1690072181346
 31
0.0
  0
LINE
  5
3CD
330
1E
100
AcDbEntity
  8
0
  6
Continuous
 62
     3
100
AcDbLine
 10
-767.7009260754545
 20
-435.1690072181346
 30
0.0
 11
-771.8509260754545
 21
-435.1690072181346
 31
0.0
  0
LINE
  5
3CE
330
1E
100
AcDbEntity
  8
0
  6
Continuous
 62
     3
100
AcDbLine
 10
-774.9509260754544
 20
-432.4970072181346
 30
0.0
 11
-774.9509260754544
 21
-438.9190072181346
 31
0.0
  0
LINE
  5
3CF
330
1E
100
AcDbEntity
  8
0
  6
Continuous
 62
     3
100
AcDbLine
 10
-773.4509260754545
 20
-438.9190072181346
 30
0.0
 11
-774.9509260754544
 21
-438.9190072181346
 31
0.0
  0
LINE
  5
3D0
330
1E
100
AcDbEntity
  8
0
  6
Continuous
 62
     3
100
AcDbLine
 10
-765.5509260754545
 20
-435.1690072181346
 30
0.0
 11
-765.5509260754545
 21
-438.9190072181346
 31
0.0
  0
LINE
  5
3D1
330
1E
100
AcDbEntity
  8
0
  6
Continuous
 62
     3
100
AcDbLine
 10
-775.0009260754546
 20
-437.4190072181346
 30
0.0
 11
-773.7009260754545
 21
-437.4190072181346
 31
0.0
  0
LINE
  5
3D2
330
1E
100
AcDbEntity
  8
0
  6
Continuous
 62
     3
100
AcDbLine
 10
-762.4509260754544
 20
-437.4190072181346
 30
0.0
 11
-763.7009260754545
 21
-437.4190072181346
 31
0.0
  0
LINE
  5
3D3
330
1E
100
AcDbEntity
  8
0
  6
Continuous
 62
     3
100
AcDbLine
 10
-763.2789515754544
 20
-488.0219405471346
 30
0.0
 11
-763.2789515754544
 21
-483.0219405471346
 31
0.0
  0
ARC
  5
3D4
330
1E
100
AcDbEntity
  8
0
  6
Continuous
 62
     3
100
AcDbCircle
 10
-762.9289515754544
 20
-482.5719405471346
 30
0.0
 40
0.45
100
AcDbArc
 50
0.0
 51
90.0
  0
ARC
  5
3D5
330
1E
100
AcDbEntity
  8
0
  6
Continuous
 62
     3
100
AcDbCircle
 10
-762.9289515754544
 20
-488.4719405471346
 30
0.0
 40
0.45
100
AcDbArc
 50
270.0
 51
0.0
  0
LINE
  5
3D6
330
1E
100
AcDbEntity
  8
0
  6
Continuous
 62
     3
100
AcDbLine
 10
-763.2789515754544
 20
-483.0219405471346
 30
0.0
 11
-764.7289515754545
 21
-483.0219405471346
 31
0.0
  0
LINE
  5
3D7
330
1E
100
AcDbEntity
  8
0
  6
Continuous
 62
     3
100
AcDbLine
 10
-764.7289515754545
 20
-482.1219405471346
 30
0.0
 11
-762.9289515754544
 21
-482.1219405471346
 31
0.0
  0
LINE
  5
3D8
330
1E
100
AcDbEntity
  8
0
  6
Continuous
 62
     3
100
AcDbLine
 10
-764.7289515754545
 20
-483.0219405471346
 30
0.0
 11
-764.7289515754545
 21
-482.1219405471346
 31
0.0
  0
ARC
  5
3D9
330
1E
100
AcDbEntity
  8
0
  6
Continuous
 62
     3
100
AcDbCircle
 10
-774.5289515754544
 20
-482.5719405471346
 30
0.0
 40
0.45
100
AcDbArc
 50
90.0
 51
180.0
  0
ARC
  5
3DA
330
1E
100
AcDbEntity
  8
0
  6
Continuous
 62
     3
100
AcDbCircle
 10
-774.5289515754544
 20
-488.4719405471346
 30
0.0
 40
0.45
100
AcDbArc
 50
180.0
 51
270.0
  0
LINE
  5
3DB
330
1E
100
AcDbEntity
  8
0
  6
Continuous
 62
     3
100
AcDbLine
 10
-774.1789515754544
 20
-483.0219405471346
 30
0.0
 11
-772.7289515754545
 21
-483.0219405471346
 31
0.0
  0
LINE
  5
3DC
330
1E
100
AcDbEntity
  8
0
  6
Continuous
 62
     3
100
AcDbLine
 10
-772.7289515754545
 20
-482.1219405471346
 30
0.0
 11
-774.5289515754544
 21
-482.1219405471346
 31
0.0
  0
LINE
  5
3DD
330
1E
100
AcDbEntity
  8
0
  6
Continuous
 62
     3
100
AcDbLine
 10
-772.7289515754545
 20
-483.0219405471346
 30
0.0
 11
-772.7289515754545
 21
-482.1219405471346
 31
0.0
  0
LINE
  5
3DE
330
1E
100
AcDbEntity
  8
0
  6
Continuous
 62
     3
100
AcDbLine
 10
-774.1789515754544
 20
-488.0219405471346
 30
0.0
 11
-774.1789515754544
 21
-483.0219405471346
 31
0.0
  0
LINE
  5
3DF
330
1E
100
AcDbEntity
  8
0
  6
Continuous
 62
     3
100
AcDbLine
 10
-774.1789515754544
 20
-488.0219405471346
 30
0.0
 11
-763.2789515754544
 21
-488.0219405471346
 31
0.0
  0
LINE
  5
3E0
330
1E
100
AcDbEntity
  8
0
  6
Continuous
 62
     3
100
AcDbLine
 10
-762.9289515754544
 20
-488.9219405471346
 30
0.0
 11
-774.5289515754544
 21
-488.9219405471346
 31
0.0
  0
LINE
  5
3E1
330
1E
100
AcDbEntity
  8
0
  6
Continuous
 62
     3
100
AcDbLine
 10
-773.7289515754545
 20
-488.0219405471346
 30
0.0
 11
-773.7289515754545
 21
-488.9219405471346
 31
0.0
  0
LINE
  5
3E2
330
1E
100
AcDbEntity
  8
0
  6
Continuous
 62
     3
100
AcDbLine
 10
-763.7289515754545
 20
-488.0219405471346
 30
0.0
 11
-763.7289515754545
 21
-488.9219405471346
 31
0.0
  0
LINE
  5
3E3
330
1E
100
AcDbEntity
  8
0
  6
Continuous
 62
     3
100
AcDbLine
 10
-774.9509260754544
 20
-438.9190072181346
 30
0.0
 11
-774.9509260754544
 21
-488.4719405471346
 31
0.0
  0
LINE
  5
3E4
330
1E
100
AcDbEntity
  8
0
  6
Continuous
 62
     3
100
AcDbLine
 10
-762.4509260754544
 20
-438.9190072181346
 30
0.0
 11
-762.4509260754544
 21
-488.4719405471346
 31
0.0
  0
LINE
  5
3E5
330
1E
100
AcDbEntity
  8
0
  6
Continuous
 62
     3
100
AcDbLine
 10
-773.7009260754545
 20
-441.9190072181346
 30
0.0
 11
-763.7009260754545
 21
-441.9190072181346
 31
0.0
  0
LINE
  5
3E6
330
1E
100
AcDbEntity
  8
0
  6
Continuous
 62
     3
100
AcDbLine
 10
-763.7009260754545
 20
-441.9190072181346
 30
0.0
 11
-763.7009260754545
 21
-456.9190072181346
 31
0.0
  0
LINE
  5
3E7
330
1E
100
AcDbEntity
  8
0
  6
Continuous
 62
     3
100
AcDbLine
 10
-763.7009260754545
 20
-456.9190072181346
 30
0.0
 11
-773.7009260754545
 21
-456.9190072181346
 31
0.0
  0
LINE
  5
3E8
330
1E
100
AcDbEntity
  8
0
  6
Continuous
 62
     3
100
AcDbLine
 10
-773.7009260754545
 20
-456.9190072181346
 30
0.0
 11
-773.7009260754545
 21
-441.9190072181346
 31
0.0
  0
LINE
  5
3E9
330
1E
100
AcDbEntity
  8
0
  6
Continuous
 62
     3
100
AcDbLine
 10
-773.7009260754545
 20
-442.9190072181346
 30
0.0
 11
-763.7009260754545
 21
-442.9190072181346
 31
0.0
  0
LINE
  5
3EA
330
1E
100
AcDbEntity
  8
0
  6
Continuous
 62
     3
100
AcDbLine
 10
-773.7009260754545
 20
-456.4190072181346
 30
0.0
 11
-763.7009260754545
 21
-456.4190072181346
 31
0.0
  0
LINE
  5
3EB
330
1E
100
AcDbEntity
  8
0
  6
Continuous
 62
     3
100
AcDbLine
 10
-763.7009260754545
 20
-455.9190072181346
 30
0.0
 11
-773.7009260754545
 21
-455.9190072181346
 31
0.0
  0
LINE
  5
3EC
330
1E
100
AcDbEntity
  8
0
  6
Continuous
 62
     3
100
AcDbLine
 10
-773.7009260754545
 20
-449.9190072181346
 30
0.0
 11
-763.7009260754545
 21
-449.9190072181346
 31
0.0
  0
LINE
  5
3ED
330
1E
100
AcDbEntity
  8
0
  6
Continuous
 62
     3
100
AcDbLine
 10
-773.7009260754545
 20
-449.4190072181346
 30
0.0
 11
-763.7009260754545
 21
-449.4190072181346
 31
0.0
  0
LINE
  5
3EE
330
1E
100
AcDbEntity
  8
0
  6
Continuous
 62
     3
100
AcDbLine
 10
-763.7009260754545
 20
-449.4190072181346
 30
0.0
 11
-763.7009260754545
 21
-445.4190072181346
 31
0.0
  0
LINE
  5
3EF
330
1E
100
AcDbEntity
  8
0
  6
Continuous
 62
     3
100
AcDbLine
 10
-773.7009260754545
 20
-443.9190072181346
 30
0.0
 11
-763.7009260754545
 21
-443.9190072181346
 31
0.0
  0
LINE
  5
3F0
330
1E
100
AcDbEntity
  8
0
  6
Continuous
 62
     3
100
AcDbLine
 10
-767.2009260754545
 20
-454.4190072181346
 30
0.0
 11
-765.2009260754545
 21
-454.4190072181346
 31
0.0
  0
LINE
  5
3F1
330
1E
100
AcDbEntity
  8
0
  6
Continuous
 62
     3
100
AcDbLine
 10
-767.2009260754545
 20
-450.9190072181346
 30
0.0
 11
-765.2009260754545
 21
-450.9190072181346
 31
0.0
  0
LINE
  5
3F2
330
1E
100
AcDbEntity
  8
0
  6
Continuous
 62
     3
100
AcDbLine
 10
-767.7009260754545
 20
-455.4190072181346
 30
0.0
 11
-768.2009260754544
 21
-455.4190072181346
 31
0.0
  0
LINE
  5
3F3
330
1E
100
AcDbEntity
  8
0
  6
Continuous
 62
     3
100
AcDbLine
 10
-767.7009260754545
 20
-455.4190072181346
 30
0.0
 11
-764.2009260754544
 21
-455.4190072181346
 31
0.0
  0
LINE
  5
3F4
330
1E
100
AcDbEntity
  8
0
  6
Continuous
 62
     3
100
AcDbLine
 10
-764.7009260754544
 20
-450.4190072181346
 30
0.0
 11
-767.7009260754545
 21
-450.4190072181346
 31
0.0
  0
LINE
  5
3F5
330
1E
100
AcDbEntity
  8
0
  6
Continuous
 62
     3
100
AcDbLine
 10
-767.7009260754545
 20
-450.4190072181346
 30
0.0
 11
-768.2009260754544
 21
-455.4190072181346
 31
0.0
  0
LINE
  5
3F6
330
1E
100
AcDbEntity
  8
0
  6
Continuous
 62
     3
100
AcDbLine
 10
-764.7009260754544
 20
-450.4190072181346
 30
0.0
 11
-764.2009260754544
 21
-455.4190072181346
 31
0.0
  0
LINE
  5
3F7
330
1E
100
AcDbEntity
  8
0
  6
Continuous
 62
     3
100
AcDbLine
 10
-767.2009260754545
 20
-454.4190072181346
 30
0.0
 11
-768.2009260754544
 21
-455.4190072181346
 31
0.0
  0
LINE
  5
3F8
330
1E
100
AcDbEntity
  8
0
  6
Continuous
 62
     3
100
AcDbLine
 10
-765.2009260754545
 20
-454.4190072181346
 30
0.0
 11
-764.2009260754544
 21
-455.4190072181346
 31
0.0
  0
LINE
  5
3F9
330
1E
100
AcDbEntity
  8
0
  6
Continuous
 62
     3
100
AcDbLine
 10
-765.2009260754545
 20
-454.4190072181346
 30
0.0
 11
-765.2009260754545
 21
-450.9190072181346
 31
0.0
  0
LINE
  5
3FA
330
1E
100
AcDbEntity
  8
0
  6
Continuous
 62
     3
100
AcDbLine
 10
-767.2009260754545
 20
-450.9190072181346
 30
0.0
 11
-767.2009260754545
 21
-454.4190072181346
 31
0.0
  0
LINE
  5
3FB
330
1E
100
AcDbEntity
  8
0
  6
Continuous
 62
     3
100
AcDbLine
 10
-767.2009260754545
 20
-450.9190072181346
 30
0.0
 11
-767.7009260754545
 21
-450.3190072181346
 31
0.0
  0
LINE
  5
3FC
330
1E
100
AcDbEntity
  8
0
  6
Continuous
 62
     3
100
AcDbLine
 10
-765.2009260754545
 20
-450.9190072181346
 30
0.0
 11
-764.7009260754544
 21
-450.4190072181346
 31
0.0
  0
LINE
  5
3FD
330
1E
100
AcDbEntity
  8
0
  6
Continuous
 62
     3
100
AcDbLine
 10
-772.2009260754544
 20
-454.4190072181346
 30
0.0
 11
-770.2009260754545
 21
-454.4190072181346
 31
0.0
  0
LINE
  5
3FE
330
1E
100
AcDbEntity
  8
0
  6
Continuous
 62
     3
100
AcDbLine
 10
-772.2009260754544
 20
-450.9190072181346
 30
0.0
 11
-770.2009260754545
 21
-450.9190072181346
 31
0.0
  0
LINE
  5
3FF
330
1E
100
AcDbEntity
  8
0
  6
Continuous
 62
     3
100
AcDbLine
 10
-772.7009260754544
 20
-455.4190072181346
 30
0.0
 11
-773.2009260754545
 21
-455.4190072181346
 31
0.0
  0
LINE
  5
400
330
1E
100
AcDbEntity
  8
0
  6
Continuous
 62
     3
100
AcDbLine
 10
-772.7009260754544
 20
-455.4190072181346
 30
0.0
 11
-769.2009260754545
 21
-455.4190072181346
 31
0.0
  0
LINE
  5
401
330
1E
100
AcDbEntity
  8
0
  6
Continuous
 62
     3
100
AcDbLine
 10
-769.7009260754545
 20
-450.4190072181346
 30
0.0
 11
-772.7009260754544
 21
-450.4190072181346
 31
0.0
  0
LINE
  5
402
330
1E
100
AcDbEntity
  8
0
  6
Continuous
 62
     3
100
AcDbLine
 10
-772.7009260754544
 20
-450.4190072181346
 30
0.0
 11
-773.2009260754545
 21
-455.4190072181346
 31
0.0
  0
LINE
  5
403
330
1E
100
AcDbEntity
  8
0
  6
Continuous
 62
     3
100
AcDbLine
 10
-769.7009260754545
 20
-450.4190072181346
 30
0.0
 11
-769.2009260754545
 21
-455.4190072181346
 31
0.0
  0
LINE
  5
404
330
1E
100
AcDbEntity
  8
0
  6
Continuous
 62
     3
100
AcDbLine
 10
-772.2009260754544
 20
-454.4190072181346
 30
0.0
 11
-773.2009260754545
 21
-455.4190072181346
 31
0.0
  0
LINE
  5
405
330
1E
100
AcDbEntity
  8
0
  6
Continuous
 62
     3
100
AcDbLine
 10
-770.2009260754545
 20
-454.4190072181346
 30
0.0
 11
-769.2009260754545
 21
-455.4190072181346
 31
0.0
  0
LINE
  5
406
330
1E
100
AcDbEntity
  8
0
  6
Continuous
 62
     3
100
AcDbLine
 10
-770.2009260754545
 20
-454.4190072181346
 30
0.0
 11
-770.2009260754545
 21
-450.9190072181346
 31
0.0
  0
LINE
  5
407
330
1E
100
AcDbEntity
  8
0
  6
Continuous
 62
     3
100
AcDbLine
 10
-772.2009260754544
 20
-450.9190072181346
 30
0.0
 11
-772.2009260754544
 21
-454.4190072181346
 31
0.0
  0
LINE
  5
408
330
1E
100
AcDbEntity
  8
0
  6
Continuous
 62
     3
100
AcDbLine
 10
-772.2009260754544
 20
-450.9190072181346
 30
0.0
 11
-772.7009260754544
 21
-450.3190072181346
 31
0.0
  0
LINE
  5
409
330
1E
100
AcDbEntity
  8
0
  6
Continuous
 62
     3
100
AcDbLine
 10
-770.2009260754545
 20
-450.9190072181346
 30
0.0
 11
-769.7009260754545
 21
-450.4190072181346
 31
0.0
  0
LINE
  5
40A
330
1E
100
AcDbEntity
  8
0
  6
Continuous
 62
     3
100
AcDbLine
 10
-770.2009260754545
 20
-441.9190072181346
 30
0.0
 11
-770.2009260754545
 21
-440.9190072181346
 31
0.0
  0
LINE
  5
40B
330
1E
100
AcDbEntity
  8
0
  6
Continuous
 62
     3
100
AcDbLine
 10
-768.7009260754544
 20
-440.9190072181346
 30
0.0
 11
-768.7009260754544
 21
-441.9190072181346
 31
0.0
  0
LINE
  5
40C
330
1E
100
AcDbEntity
  8
0
  6
Continuous
 62
     3
100
AcDbLine
 10
-773.7009260754545
 20
-460.4190072181346
 30
0.0
 11
-763.7009260754545
 21
-460.4190072181346
 31
0.0
  0
LINE
  5
40D
330
1E
100
AcDbEntity
  8
0
  6
Continuous
 62
     3
100
AcDbLine
 10
-763.7009260754545
 20
-460.4190072181346
 30
0.0
 11
-763.7009260754545
 21
-475.4190072181346
 31
0.0
  0
LINE
  5
40E
330
1E
100
AcDbEntity
  8
0
  6
Continuous
 62
     3
100
AcDbLine
 10
-763.7009260754545
 20
-475.4190072181346
 30
0.0
 11
-773.7009260754545
 21
-475.4190072181346
 31
0.0
  0
LINE
  5
40F
330
1E
100
AcDbEntity
  8
0
  6
Continuous
 62
     3
100
AcDbLine
 10
-773.7009260754545
 20
-475.4190072181346
 30
0.0
 11
-773.7009260754545
 21
-460.4190072181346
 31
0.0
  0
LINE
  5
410
330
1E
100
AcDbEntity
  8
0
  6
Continuous
 62
     3
100
AcDbLine
 10
-773.7009260754545
 20
-461.4190072181346
 30
0.0
 11
-763.7009260754545
 21
-461.4190072181346
 31
0.0
  0
LINE
  5
411
330
1E
100
AcDbEntity
  8
0
  6
Continuous
 62
     3
100
AcDbLine
 10
-773.7009260754545
 20
-474.9190072181346
 30
0.0
 11
-763.7009260754545
 21
-474.9190072181346
 31
0.0
  0
LINE
  5
412
330
1E
100
AcDbEntity
  8
0
  6
Continuous
 62
     3
100
AcDbLine
 10
-763.7009260754545
 20
-474.4190072181346
 30
0.0
 11
-773.7009260754545
 21
-474.4190072181346
 31
0.0
  0
LINE
  5
413
330
1E
100
AcDbEntity
  8
0
  6
Continuous
 62
     3
100
AcDbLine
 10
-773.7009260754545
 20
-468.4190072181346
 30
0.0
 11
-763.7009260754545
 21
-468.4190072181346
 31
0.0
  0
LINE
  5
414
330
1E
100
AcDbEntity
  8
0
  6
Continuous
 62
     3
100
AcDbLine
 10
-773.7009260754545
 20
-467.9190072181346
 30
0.0
 11
-763.7009260754545
 21
-467.9190072181346
 31
0.0
  0
LINE
  5
415
330
1E
100
AcDbEntity
  8
0
  6
Continuous
 62
     3
100
AcDbLine
 10
-763.7009260754545
 20
-467.9190072181346
 30
0.0
 11
-763.7009260754545
 21
-463.9190072181346
 31
0.0
  0
LINE
  5
416
330
1E
100
AcDbEntity
  8
0
  6
Continuous
 62
     3
100
AcDbLine
 10
-773.7009260754545
 20
-462.4190072181346
 30
0.0
 11
-763.7009260754545
 21
-462.4190072181346
 31
0.0
  0
LINE
  5
417
330
1E
100
AcDbEntity
  8
0
  6
Continuous
 62
     3
100
AcDbLine
 10
-767.2009260754545
 20
-472.9190072181346
 30
0.0
 11
-765.2009260754545
 21
-472.9190072181346
 31
0.0
  0
LINE
  5
418
330
1E
100
AcDbEntity
  8
0
  6
Continuous
 62
     3
100
AcDbLine
 10
-767.2009260754545
 20
-469.4190072181346
 30
0.0
 11
-765.2009260754545
 21
-469.4190072181346
 31
0.0
  0
LINE
  5
419
330
1E
100
AcDbEntity
  8
0
  6
Continuous
 62
     3
100
AcDbLine
 10
-767.7009260754545
 20
-473.9190072181346
 30
0.0
 11
-768.2009260754544
 21
-473.9190072181346
 31
0.0
  0
LINE
  5
41A
330
1E
100
AcDbEntity
  8
0
  6
Continuous
 62
     3
100
AcDbLine
 10
-767.7009260754545
 20
-473.9190072181346
 30
0.0
 11
-764.2009260754544
 21
-473.9190072181346
 31
0.0
  0
LINE
  5
41B
330
1E
100
AcDbEntity
  8
0
  6
Continuous
 62
     3
100
AcDbLine
 10
-764.7009260754544
 20
-468.9190072181346
 30
0.0
 11
-767.7009260754545
 21
-468.9190072181346
 31
0.0
  0
LINE
  5
41C
330
1E
100
AcDbEntity
  8
0
  6
Continuous
 62
     3
100
AcDbLine
 10
-767.7009260754545
 20
-468.9190072181346
 30
0.0
 11
-768.2009260754544
 21
-473.9190072181346
 31
0.0
  0
LINE
  5
41D
330
1E
100
AcDbEntity
  8
0
  6
Continuous
 62
     3
100
AcDbLine
 10
-764.7009260754544
 20
-468.9190072181346
 30
0.0
 11
-764.2009260754544
 21
-473.9190072181346
 31
0.0
  0
LINE
  5
41E
330
1E
100
AcDbEntity
  8
0
  6
Continuous
 62
     3
100
AcDbLine
 10
-767.2009260754545
 20
-472.9190072181346
 30
0.0
 11
-768.2009260754544
 21
-473.9190072181346
 31
0.0
  0
LINE
  5
41F
330
1E
100
AcDbEntity
  8
0
  6
Continuous
 62
     3
100
AcDbLine
 10
-765.2009260754545
 20
-472.9190072181346
 30
0.0
 11
-764.2009260754544
 21
-473.9190072181346
 31
0.0
  0
LINE
  5
420
330
1E
100
AcDbEntity
  8
0
  6
Continuous
 62
     3
100
AcDbLine
 10
-765.2009260754545
 20
-472.9190072181346
 30
0.0
 11
-765.2009260754545
 21
-469.4190072181346
 31
0.0
  0
LINE
  5
421
330
1E
100
AcDbEntity
  8
0
  6
Continuous
 62
     3
100
AcDbLine
 10
-767.2009260754545
 20
-469.4190072181346
 30
0.0
 11
-767.2009260754545
 21
-472.9190072181346
 31
0.0
  0
LINE
  5
422
330
1E
100
AcDbEntity
  8
0
  6
Continuous
 62
     3
100
AcDbLine
 10
-767.2009260754545
 20
-469.4190072181346
 30
0.0
 11
-767.7009260754545
 21
-468.8190072181346
 31
0.0
  0
LINE
  5
423
330
1E
100
AcDbEntity
  8
0
  6
Continuous
 62
     3
100
AcDbLine
 10
-765.2009260754545
 20
-469.4190072181346
 30
0.0
 11
-764.7009260754544
 21
-468.9190072181346
 31
0.0
  0
LINE
  5
424
330
1E
100
AcDbEntity
  8
0
  6
Continuous
 62
     3
100
AcDbLine
 10
-772.2009260754544
 20
-472.9190072181346
 30
0.0
 11
-770.2009260754545
 21
-472.9190072181346
 31
0.0
  0
LINE
  5
425
330
1E
100
AcDbEntity
  8
0
  6
Continuous
 62
     3
100
AcDbLine
 10
-772.2009260754544
 20
-469.4190072181346
 30
0.0
 11
-770.2009260754545
 21
-469.4190072181346
 31
0.0
  0
LINE
  5
426
330
1E
100
AcDbEntity
  8
0
  6
Continuous
 62
     3
100
AcDbLine
 10
-772.7009260754544
 20
-473.9190072181346
 30
0.0
 11
-773.2009260754545
 21
-473.9190072181346
 31
0.0
  0
LINE
  5
427
330
1E
100
AcDbEntity
  8
0
  6
Continuous
 62
     3
100
AcDbLine
 10
-772.7009260754544
 20
-473.9190072181346
 30
0.0
 11
-769.2009260754545
 21
-473.9190072181346
 31
0.0
  0
LINE
  5
428
330
1E
100
AcDbEntity
  8
0
  6
Continuous
 62
     3
100
AcDbLine
 10
-769.7009260754545
 20
-468.9190072181346
 30
0.0
 11
-772.7009260754544
 21
-468.9190072181346
 31
0.0
  0
LINE
  5
429
330
1E
100
AcDbEntity
  8
0
  6
Continuous
 62
     3
100
AcDbLine
 10
-772.7009260754544
 20
-468.9190072181346
 30
0.0
 11
-773.2009260754545
 21
-473.9190072181346
 31
0.0
  0
LINE
  5
42A
330
1E
100
AcDbEntity
  8
0
  6
Continuous
 62
     3
100
AcDbLine
 10
-769.7009260754545
 20
-468.9190072181346
 30
0.0
 11
-769.2009260754545
 21
-473.9190072181346
 31
0.0
  0
LINE
  5
42B
330
1E
100
AcDbEntity
  8
0
  6
Continuous
 62
     3
100
AcDbLine
 10
-772.2009260754544
 20
-472.9190072181346
 30
0.0
 11
-773.2009260754545
 21
-473.9190072181346
 31
0.0
  0
LINE
  5
42C
330
1E
100
AcDbEntity
  8
0
  6
Continuous
 62
     3
100
AcDbLine
 10
-770.2009260754545
 20
-472.9190072181346
 30
0.0
 11
-769.2009260754545
 21
-473.9190072181346
 31
0.0
  0
LINE
  5
42D
330
1E
100
AcDbEntity
  8
0
  6
Continuous
 62
     3
100
AcDbLine
 10
-770.2009260754545
 20
-472.9190072181346
 30
0.0
 11
-770.2009260754545
 21
-469.4190072181346
 31
0.0
  0
LINE
  5
42E
330
1E
100
AcDbEntity
  8
0
  6
Continuous
 62
     3
100
AcDbLine
 10
-772.2009260754544
 20
-469.4190072181346
 30
0.0
 11
-772.2009260754544
 21
-472.9190072181346
 31
0.0
  0
LINE
  5
42F
330
1E
100
AcDbEntity
  8
0
  6
Continuous
 62
     3
100
AcDbLine
 10
-772.2009260754544
 20
-469.4190072181346
 30
0.0
 11
-772.7009260754544
 21
-468.8190072181346
 31
0.0
  0
LINE
  5
430
330
1E
100
AcDbEntity
  8
0
  6
Continuous
 62
     3
100
AcDbLine
 10
-770.2009260754545
 20
-469.4190072181346
 30
0.0
 11
-769.7009260754545
 21
-468.9190072181346
 31
0.0
  0
LINE
  5
431
330
1E
100
AcDbEntity
  8
0
  6
Continuous
 62
     3
100
AcDbLine
 10
-768.7009260754544
 20
-459.4190072181346
 30
0.0
 11
-768.7009260754544
 21
-460.4190072181346
 31
0.0
  0
LINE
  5
432
330
1E
100
AcDbEntity
  8
0
  6
Continuous
 62
     3
100
AcDbLine
 10
-770.2009260754545
 20
-460.4190072181346
 30
0.0
 11
-770.2009260754545
 21
-459.4190072181346
 31
0.0
  0
LINE
  5
433
330
1E
100
AcDbEntity
  8
0
  6
Continuous
 62
     3
100
AcDbLine
 10
-773.7009260754545
 20
-449.4190072181346
 30
0.0
 11
-763.7009260754545
 21
-449.4190072181346
 31
0.0
  0
LINE
  5
434
330
1E
100
AcDbEntity
  8
0
  6
Continuous
 62
     3
100
AcDbLine
 10
-763.7009260754545
 20
-449.4190072181346
 30
0.0
 11
-763.7009260754545
 21
-445.4190072181346
 31
0.0
  0
LINE
  5
435
330
1E
100
AcDbEntity
  8
0
  6
Continuous
 62
     3
100
AcDbLine
 10
-773.7009260754545
 20
-443.9190072181346
 30
0.0
 11
-763.7009260754545
 21
-443.9190072181346
 31
0.0
  0
TEXT
  5
436
330
1E
100
AcDbEntity
  8
0
  6
Continuous
 62
     3
100
AcDbText
 10
-772.2009260754544
 20
-466.9190072181346
 30
0.3
 40
3.0
  1
７
 41
0.666666667
  7
KANJI4
100
AcDbText
  0
TEXT
  5
437
330
1E
100
AcDbEntity
  8
0
  6
Continuous
 62
     3
100
AcDbText
 10
-767.2009260754545
 20
-466.9190072181346
 30
0.3
 40
3.0
  1
８
 41
0.666666667
  7
KANJI4
100
AcDbText
  0
TEXT
  5
438
330
1E
100
AcDbEntity
  8
0
  6
Continuous
 62
     3
100
AcDbText
 10
-772.2009260754544
 20
-448.4190072181347
 30
0.3
 40
3.0
  1
５
 41
0.666666667
  7
KANJI4
100
AcDbText
  0
TEXT
  5
439
330
1E
100
AcDbEntity
  8
0
  6
Continuous
 62
     3
100
AcDbText
 10
-767.2009260754545
 20
-448.4190072181347
 30
0.3
 40
3.0
  1
６
 41
0.666666667
  7
KANJI4
100
AcDbText
  0
ENDSEC
  0
SECTION
  2
OBJECTS
  0
DICTIONARY
  5
C
330
0
100
AcDbDictionary
281
     1
  3
ACAD_GROUP
350
D
  3
ACAD_PLOTSTYLENAME
350
E
  3
ACAD_MLINESTYLE
350
16
  3
ACAD_PLOTSETTINGS
350
18
  3
ACAD_LAYOUT
350
19
  0
DICTIONARY
  5
D
102
{ACAD_REACTORS
330
C
102
}
330
C
100
AcDbDictionary
281
     1
  0
ACDBDICTIONARYWDFLT
  5
E
102
{ACAD_REACTORS
330
C
102
}
330
C
100
AcDbDictionary
281
     1
  3
Normal
350
F
100
AcDbDictionaryWithDefault
340
F
  0
DICTIONARY
  5
16
102
{ACAD_REACTORS
330
C
102
}
330
C
100
AcDbDictionary
281
     1
  3
Standard
350
17
  0
DICTIONARY
  5
18
102
{ACAD_REACTORS
330
C
102
}
330
C
100
AcDbDictionary
281
     1
  0
DICTIONARY
  5
19
102
{ACAD_REACTORS
330
C
102
}
330
C
100
AcDbDictionary
281
     1
  3
ﾚｲｱｳﾄ1
350
1D
  3
Model
350
21
  0
ACDBPLACEHOLDER
  5
F
102
{ACAD_REACTORS
330
E
102
}
330
E
  0
MLINESTYLE
  5
17
102
{ACAD_REACTORS
330
16
102
}
330
16
100
AcDbMlineStyle
  2
STANDARD
 70
     0
  3

 62
   256
 51
90.0
 52
90.0
 71
     2
 49
0.5
 62
   256
  6
BYLAYER
 49
-0.5
 62
   256
  6
BYLAYER
  0
LAYOUT
  5
1D
102
{ACAD_REACTORS
330
19
102
}
330
19
100
AcDbPlotSettings
  1

  2
Canon LASER SHOT LBP-880
  4

  6

 40
0.0
 41
0.0
 42
0.0
 43
0.0
 44
0.0
 45
0.0
 46
0.0
 47
0.0
 48
0.0
 49
0.0
140
0.0
141
0.0
142
1.0
143
1.0
 70
   688
 72
     0
 73
     0
 74
     5
  7

 75
    16
147
1.0
148
0.0
149
0.0
100
AcDbLayout
  1
ﾚｲｱｳﾄ1
 70
     1
 71
     1
 10
0.0
 20
0.0
 11
12.0
 21
9.0
 12
0.0
 22
0.0
 32
0.0
 14
1.000000000000000E+20
 24
1.000000000000000E+20
 34
1.000000000000000E+20
 15
-1.000000000000000E+20
 25
-1.000000000000000E+20
 35
-1.000000000000000E+20
146
0.0
 13
0.0
 23
0.0
 33
0.0
 16
1.0
 26
0.0
 36
0.0
 17
0.0
 27
1.0
 37
0.0
 76
     0
330
1A
  0
LAYOUT
  5
21
102
{ACAD_REACTORS
330
19
102
}
330
19
100
AcDbPlotSettings
  1

  2
Canon LASER SHOT LBP-880
  4

  6

 40
0.0
 41
0.0
 42
0.0
 43
0.0
 44
0.0
 45
0.0
 46
0.0
 47
0.0
 48
0.0
 49
0.0
140
0.0
141
0.0
142
1.0
143
1.0
 70
  1712
 72
     0
 73
     0
 74
     0
  7

 75
     0
147
1.0
148
0.0
149
0.0
100
AcDbLayout
  1
Model
 70
     1
 71
     0
 10
0.0
 20
0.0
 11
12.0
 21
9.0
 12
0.0
 22
0.0
 32
0.0
 14
0.0
 24
0.0
 34
0.0
 15
0.0
 25
0.0
 35
0.0
146
0.0
 13
0.0
 23
0.0
 33
0.0
 16
1.0
 26
0.0
 36
0.0
 17
0.0
 27
1.0
 37
0.0
 76
     0
330
1E
  0
ENDSEC
  0
EOF
