  0
SECTION
  2
HEADER
  9
$EXTMIN
 10
0.0
 20
0.0
  9
$EXTMAX
 10
594.0
 20
420.0
  9
$LTSCALE
 40
1.0
  9
$PDMODE
 70
     0
  0
ENDSEC
  0
SECTION
  2
TABLES
  0
TABLE
  2
LTYPE
 70
     4
  0
LTYPE
  2
CONTINUOUS
 70
    64
  3
Solid line
 72
    65
 73
     0
 40
0.0
  0
LTYPE
  2
LTYPE1
 70
    64
  3
HIDDEN
 72
    65
 73
     2
 40
1.0
 49
0.6
 49
-0.4
  0
LTYPE
  2
LTYPE2
 70
    64
  3
HIDDEN
 72
    65
 73
     2
 40
2.0
 49
1.2
 49
-0.8
  0
LTYPE
  2
LTYPE3
 70
    64
  3
CENTER
 72
    65
 73
     4
 40
10.0
 49
7.0
 49
-1.0
 49
1.0
 49
-1.0
  0
ENDTAB
  0
TABLE
  2
LAYER
 70
   128
  0
LAYER
  2
0
 70
     0
 62
     7
  6
CONTINUOUS
  0
LAYER
  2
1
 70
     0
 62
     7
  6
CONTINUOUS
  0
LAYER
  2
2
 70
     0
 62
     7
  6
CONTINUOUS
  0
LAYER
  2
3
 70
     0
 62
     7
  6
CONTINUOUS
  0
LAYER
  2
4
 70
     0
 62
     7
  6
CONTINUOUS
  0
LAYER
  2
5
 70
     0
 62
     7
  6
CONTINUOUS
  0
LAYER
  2
6
 70
     0
 62
     7
  6
CONTINUOUS
  0
LAYER
  2
7
 70
     0
 62
     7
  6
CONTINUOUS
  0
LAYER
  2
8
 70
     0
 62
     7
  6
CONTINUOUS
  0
LAYER
  2
9
 70
     0
 62
     7
  6
CONTINUOUS
  0
LAYER
  2
10
 70
     0
 62
     7
  6
CONTINUOUS
  0
LAYER
  2
11
 70
     0
 62
     7
  6
CONTINUOUS
  0
LAYER
  2
12
 70
     0
 62
     7
  6
CONTINUOUS
  0
LAYER
  2
13
 70
     0
 62
     7
  6
CONTINUOUS
  0
LAYER
  2
14
 70
     0
 62
     7
  6
CONTINUOUS
  0
LAYER
  2
15
 70
     0
 62
     7
  6
CONTINUOUS
  0
LAYER
  2
16
 70
     0
 62
     7
  6
CONTINUOUS
  0
LAYER
  2
17
 70
     0
 62
     7
  6
CONTINUOUS
  0
LAYER
  2
18
 70
     0
 62
     7
  6
CONTINUOUS
  0
LAYER
  2
19
 70
     0
 62
     7
  6
CONTINUOUS
  0
LAYER
  2
20
 70
     0
 62
     7
  6
CONTINUOUS
  0
LAYER
  2
21
 70
     0
 62
     7
  6
CONTINUOUS
  0
LAYER
  2
22
 70
     0
 62
     7
  6
CONTINUOUS
  0
LAYER
  2
23
 70
     0
 62
     7
  6
CONTINUOUS
  0
LAYER
  2
24
 70
     0
 62
     7
  6
CONTINUOUS
  0
LAYER
  2
25
 70
     0
 62
     7
  6
CONTINUOUS
  0
LAYER
  2
26
 70
     0
 62
     7
  6
CONTINUOUS
  0
LAYER
  2
27
 70
     0
 62
     7
  6
CONTINUOUS
  0
LAYER
  2
28
 70
     0
 62
     7
  6
CONTINUOUS
  0
LAYER
  2
29
 70
     0
 62
     7
  6
CONTINUOUS
  0
LAYER
  2
30
 70
     0
 62
     7
  6
CONTINUOUS
  0
LAYER
  2
31
 70
     0
 62
     7
  6
CONTINUOUS
  0
LAYER
  2
32
 70
     0
 62
     7
  6
CONTINUOUS
  0
LAYER
  2
33
 70
     0
 62
     7
  6
CONTINUOUS
  0
LAYER
  2
34
 70
     0
 62
     7
  6
CONTINUOUS
  0
LAYER
  2
35
 70
     0
 62
     7
  6
CONTINUOUS
  0
LAYER
  2
36
 70
     0
 62
     7
  6
CONTINUOUS
  0
LAYER
  2
37
 70
     0
 62
     7
  6
CONTINUOUS
  0
LAYER
  2
38
 70
     0
 62
     7
  6
CONTINUOUS
  0
LAYER
  2
39
 70
     0
 62
     7
  6
CONTINUOUS
  0
LAYER
  2
40
 70
     0
 62
     7
  6
CONTINUOUS
  0
LAYER
  2
41
 70
     0
 62
     7
  6
CONTINUOUS
  0
LAYER
  2
42
 70
     0
 62
     7
  6
CONTINUOUS
  0
LAYER
  2
43
 70
     0
 62
     7
  6
CONTINUOUS
  0
LAYER
  2
44
 70
     0
 62
     7
  6
CONTINUOUS
  0
LAYER
  2
45
 70
     0
 62
     7
  6
CONTINUOUS
  0
LAYER
  2
46
 70
     0
 62
     7
  6
CONTINUOUS
  0
LAYER
  2
47
 70
     0
 62
     7
  6
CONTINUOUS
  0
LAYER
  2
48
 70
     0
 62
     7
  6
CONTINUOUS
  0
LAYER
  2
49
 70
     0
 62
     7
  6
CONTINUOUS
  0
LAYER
  2
50
 70
     0
 62
     7
  6
CONTINUOUS
  0
LAYER
  2
51
 70
     0
 62
     7
  6
CONTINUOUS
  0
LAYER
  2
52
 70
     0
 62
     7
  6
CONTINUOUS
  0
LAYER
  2
53
 70
     0
 62
     7
  6
CONTINUOUS
  0
LAYER
  2
54
 70
     0
 62
     7
  6
CONTINUOUS
  0
LAYER
  2
55
 70
     0
 62
     7
  6
CONTINUOUS
  0
LAYER
  2
56
 70
     0
 62
     7
  6
CONTINUOUS
  0
LAYER
  2
57
 70
     0
 62
     7
  6
CONTINUOUS
  0
LAYER
  2
58
 70
     0
 62
     7
  6
CONTINUOUS
  0
LAYER
  2
59
 70
     0
 62
     7
  6
CONTINUOUS
  0
LAYER
  2
60
 70
     0
 62
     7
  6
CONTINUOUS
  0
LAYER
  2
61
 70
     0
 62
     7
  6
CONTINUOUS
  0
LAYER
  2
62
 70
     0
 62
     7
  6
CONTINUOUS
  0
LAYER
  2
63
 70
     0
 62
     7
  6
CONTINUOUS
  0
LAYER
  2
64
 70
     0
 62
     7
  6
CONTINUOUS
  0
LAYER
  2
65
 70
     0
 62
     7
  6
CONTINUOUS
  0
LAYER
  2
66
 70
     0
 62
     7
  6
CONTINUOUS
  0
LAYER
  2
67
 70
     0
 62
     7
  6
CONTINUOUS
  0
LAYER
  2
68
 70
     0
 62
     7
  6
CONTINUOUS
  0
LAYER
  2
69
 70
     0
 62
     7
  6
CONTINUOUS
  0
LAYER
  2
70
 70
     0
 62
     7
  6
CONTINUOUS
  0
LAYER
  2
71
 70
     0
 62
     7
  6
CONTINUOUS
  0
LAYER
  2
72
 70
     0
 62
     7
  6
CONTINUOUS
  0
LAYER
  2
73
 70
     0
 62
     7
  6
CONTINUOUS
  0
LAYER
  2
74
 70
     0
 62
     7
  6
CONTINUOUS
  0
LAYER
  2
75
 70
     0
 62
     7
  6
CONTINUOUS
  0
LAYER
  2
76
 70
     0
 62
     7
  6
CONTINUOUS
  0
LAYER
  2
77
 70
     0
 62
     7
  6
CONTINUOUS
  0
LAYER
  2
78
 70
     0
 62
     7
  6
CONTINUOUS
  0
LAYER
  2
79
 70
     0
 62
     7
  6
CONTINUOUS
  0
LAYER
  2
80
 70
     0
 62
     7
  6
CONTINUOUS
  0
LAYER
  2
81
 70
     0
 62
     7
  6
CONTINUOUS
  0
LAYER
  2
82
 70
     0
 62
     7
  6
CONTINUOUS
  0
LAYER
  2
83
 70
     0
 62
     7
  6
CONTINUOUS
  0
LAYER
  2
84
 70
     0
 62
     7
  6
CONTINUOUS
  0
LAYER
  2
85
 70
     0
 62
     7
  6
CONTINUOUS
  0
LAYER
  2
86
 70
     0
 62
     7
  6
CONTINUOUS
  0
LAYER
  2
87
 70
     0
 62
     7
  6
CONTINUOUS
  0
LAYER
  2
88
 70
     0
 62
     7
  6
CONTINUOUS
  0
LAYER
  2
89
 70
     0
 62
     7
  6
CONTINUOUS
  0
LAYER
  2
90
 70
     0
 62
     7
  6
CONTINUOUS
  0
LAYER
  2
91
 70
     0
 62
     7
  6
CONTINUOUS
  0
LAYER
  2
92
 70
     0
 62
     7
  6
CONTINUOUS
  0
LAYER
  2
93
 70
     0
 62
     7
  6
CONTINUOUS
  0
LAYER
  2
94
 70
     0
 62
     7
  6
CONTINUOUS
  0
LAYER
  2
95
 70
     0
 62
     7
  6
CONTINUOUS
  0
LAYER
  2
96
 70
     0
 62
     7
  6
CONTINUOUS
  0
LAYER
  2
97
 70
     0
 62
     7
  6
CONTINUOUS
  0
LAYER
  2
98
 70
     0
 62
     7
  6
CONTINUOUS
  0
LAYER
  2
99
 70
     0
 62
     7
  6
CONTINUOUS
  0
LAYER
  2
100
 70
     0
 62
     7
  6
CONTINUOUS
  0
LAYER
  2
101
 70
     0
 62
     7
  6
CONTINUOUS
  0
LAYER
  2
102
 70
     0
 62
     7
  6
CONTINUOUS
  0
LAYER
  2
103
 70
     0
 62
     7
  6
CONTINUOUS
  0
LAYER
  2
104
 70
     0
 62
     7
  6
CONTINUOUS
  0
LAYER
  2
105
 70
     0
 62
     7
  6
CONTINUOUS
  0
LAYER
  2
106
 70
     0
 62
     7
  6
CONTINUOUS
  0
LAYER
  2
107
 70
     0
 62
     7
  6
CONTINUOUS
  0
LAYER
  2
108
 70
     0
 62
     7
  6
CONTINUOUS
  0
LAYER
  2
109
 70
     0
 62
     7
  6
CONTINUOUS
  0
LAYER
  2
110
 70
     0
 62
     7
  6
CONTINUOUS
  0
LAYER
  2
111
 70
     0
 62
     7
  6
CONTINUOUS
  0
LAYER
  2
112
 70
     0
 62
     7
  6
CONTINUOUS
  0
LAYER
  2
113
 70
     0
 62
     7
  6
CONTINUOUS
  0
LAYER
  2
114
 70
     0
 62
     7
  6
CONTINUOUS
  0
LAYER
  2
115
 70
     0
 62
     7
  6
CONTINUOUS
  0
LAYER
  2
116
 70
     0
 62
     7
  6
CONTINUOUS
  0
LAYER
  2
117
 70
     0
 62
     7
  6
CONTINUOUS
  0
LAYER
  2
118
 70
     0
 62
     7
  6
CONTINUOUS
  0
LAYER
  2
119
 70
     0
 62
     7
  6
CONTINUOUS
  0
LAYER
  2
120
 70
     0
 62
     7
  6
CONTINUOUS
  0
LAYER
  2
121
 70
     0
 62
     7
  6
CONTINUOUS
  0
LAYER
  2
122
 70
     0
 62
     7
  6
CONTINUOUS
  0
LAYER
  2
123
 70
     0
 62
     7
  6
CONTINUOUS
  0
LAYER
  2
124
 70
     0
 62
     7
  6
CONTINUOUS
  0
LAYER
  2
125
 70
     0
 62
     7
  6
CONTINUOUS
  0
LAYER
  2
126
 70
     0
 62
     7
  6
CONTINUOUS
  0
LAYER
  2
127
 70
     0
 62
     7
  6
CONTINUOUS
  0
ENDTAB
  0
TABLE
  2
STYLE
 70
    10
  0
STYLE
  2
STANDARD
 70
     0
 40
0.0
 41
1.0
 50
0.0
 71
     0
 42
0.2
  3
txt
  4

  0
STYLE
  2
KANJI0
 70
     0
 40
4.8
 41
1.0
 50
0.0
 71
     0
 42
4.8
  3

  4
bigfont
  0
STYLE
  2
KANJI1
 70
     0
 40
3.5
 41
0.914285714
 50
0.0
 71
     0
 42
3.5
  3

  4
bigfont
  0
STYLE
  2
KANJI2
 70
     0
 40
3.0
 41
0.666666667
 50
0.0
 71
     0
 42
3.0
  3

  4
bigfont
  0
STYLE
  2
KANJI3
 70
     0
 40
3.0
 41
0.833333333
 50
0.0
 71
     0
 42
3.0
  3

  4
bigfont
  0
STYLE
  2
KANJI4
 70
     0
 40
5.0
 41
0.8
 50
0.0
 71
     0
 42
5.0
  3

  4
bigfont
  0
STYLE
  2
KANJI5
 70
     0
 40
3.3
 41
0.681818182
 50
0.0
 71
     0
 42
3.3
  3

  4
bigfont
  0
STYLE
  2
KANJI6
 70
     0
 40
2.64
 41
0.772727273
 50
0.0
 71
     0
 42
2.64
  3

  4
bigfont
  0
STYLE
  2
KANJI7
 70
     0
 40
3.5
 41
0.857142857
 50
0.0
 71
     0
 42
3.5
  3

  4
bigfont
  0
STYLE
  2
KANJI8
 70
     0
 40
1.584
 41
0.772727273
 50
0.0
 71
     0
 42
1.584
  3

  4
bigfont
  0
ENDTAB
  0
TABLE
  2
VIEW
 70
     0
  0
ENDTAB
  0
ENDSEC
  0
SECTION
  2
BLOCKS
  0
ENDSEC
  0
SECTION
  2
ENTITIES
  0
POINT
  8
0
  6
CONTINUOUS
 62
     2
 10
143.0
 20
161.5
  0
POINT
  8
0
  6
CONTINUOUS
 62
     2
 10
143.0
 20
161.5
  0
POINT
  8
0
  6
CONTINUOUS
 62
     2
 10
143.0
 20
161.5
  0
POINT
  8
0
  6
CONTINUOUS
 62
     2
 10
143.0
 20
161.5
  0
LINE
  8
0
  6
CONTINUOUS
 62
     3
 10
93.0
 20
212.2
 11
96.0
 21
212.2
  0
LINE
  8
0
  6
CONTINUOUS
 62
     3
 10
188.75
 20
212.2
 11
193.0
 21
212.2
  0
LINE
  8
0
  6
CONTINUOUS
 62
     3
 10
97.25
 20
212.2
 11
93.0
 21
212.2
  0
LINE
  8
0
  6
CONTINUOUS
 62
     3
 10
93.0
 20
212.2
 11
93.0
 21
210.6
  0
LINE
  8
0
  6
CONTINUOUS
 62
     3
 10
188.6
 20
212.2
 11
188.6
 21
260.78
  0
LINE
  8
0
  6
CONTINUOUS
 62
     3
 10
97.4
 20
212.2
 11
97.4
 21
260.78
  0
LINE
  8
0
  6
CONTINUOUS
 62
     3
 10
188.6
 20
260.78
 11
188.6
 21
332.2
  0
LINE
  8
0
  6
CONTINUOUS
 62
     3
 10
148.500000002
 20
333.4
 11
148.150000001
 21
333.4
  0
LINE
  8
0
  6
CONTINUOUS
 62
     3
 10
148.276000002
 20
333.4
 11
137.25
 21
333.4
  0
LINE
  8
0
  6
CONTINUOUS
 62
     3
 10
97.25
 20
212.2
 11
105.71
 21
212.2
  0
LINE
  8
0
  6
CONTINUOUS
 62
     3
 10
171.5
 20
212.2
 11
188.75
 21
212.2
  0
LINE
  8
0
  6
LTYPE1
 62
     3
 10
162.5
 20
212.2
 11
171.5
 21
212.2
  0
LINE
  8
0
  6
CONTINUOUS
 62
     3
 10
105.71
 20
212.2
 11
114.5
 21
212.2
  0
LINE
  8
0
  6
CONTINUOUS
 62
     3
 10
123.5
 20
212.2
 11
162.5
 21
212.2
  0
LINE
  8
0
  6
LTYPE1
 62
     3
 10
114.5
 20
212.2
 11
123.5
 21
212.2
  0
LINE
  8
0
  6
CONTINUOUS
 62
     3
 10
190.16499592
 20
199.0
 11
161.0
 21
199.0
  0
LINE
  8
0
  6
CONTINUOUS
 62
     3
 10
93.0
 20
210.6
 11
93.842394542
 21
200.828223316
  0
ARC
  8
0
  6
CONTINUOUS
 62
     3
 10
95.83500408
 20
201.0
 40
2.0
 50
184.927109948
 51
270.0
  0
LINE
  8
0
  6
CONTINUOUS
 62
     3
 10
95.83500408
 20
199.0
 11
161.0
 21
199.0
  0
LINE
  8
0
  6
CONTINUOUS
 62
     3
 10
193.0
 20
212.2
 11
190.0
 21
212.2
  0
LINE
  8
0
  6
CONTINUOUS
 62
     3
 10
193.0
 20
212.2
 11
193.0
 21
210.6
  0
LINE
  8
0
  6
CONTINUOUS
 62
     3
 10
193.0
 20
210.6
 11
192.157605458
 21
200.828223316
  0
ARC
  8
0
  6
CONTINUOUS
 62
     3
 10
190.16499592
 20
201.0
 40
2.0
 50
270.0
 51
355.072890052
  0
LINE
  8
0
  6
CONTINUOUS
 62
     3
 10
245.35
 20
212.2
 11
245.562832958
 21
200.962128984
  0
ARC
  8
0
  6
CONTINUOUS
 62
     3
 10
247.562474372
 20
201.0
 40
2.0
 50
181.084989544
 51
269.999961363
  0
LINE
  8
0
  6
CONTINUOUS
 62
     3
 10
341.35
 20
212.2
 11
341.137167042
 21
200.962128984
  0
ARC
  8
0
  6
CONTINUOUS
 62
     3
 10
339.137525628
 20
201.0
 40
2.0
 50
270.000038637
 51
358.915010456
  0
LINE
  8
0
  6
CONTINUOUS
 62
     3
 10
326.7
 20
199.0
 11
339.137526977
 21
199.0
  0
LINE
  8
0
  6
CONTINUOUS
 62
     3
 10
326.76
 20
199.0
 11
247.562473023
 21
199.0
  0
LINE
  8
0
  6
CONTINUOUS
 62
     3
 10
338.45
 20
333.4
 11
338.45
 21
332.2
  0
LINE
  8
0
  6
CONTINUOUS
 62
     3
 10
332.35
 20
333.4
 11
333.85
 21
333.4
  0
LINE
  8
0
  6
CONTINUOUS
 62
     3
 10
338.35
 20
333.4
 11
333.85
 21
333.4
  0
LINE
  8
0
  6
CONTINUOUS
 62
     3
 10
332.35
 20
333.4
 11
333.85
 21
333.4
  0
LINE
  8
0
  6
CONTINUOUS
 62
     3
 10
338.35
 20
333.4
 11
333.85
 21
333.4
  0
LINE
  8
0
  6
CONTINUOUS
 62
     3
 10
330.85
 20
333.4
 11
339.1
 21
333.4
  0
LINE
  8
0
  6
CONTINUOUS
 62
     3
 10
339.1
 20
344.9
 11
333.35
 21
350.9
  0
LINE
  8
0
  6
CONTINUOUS
 62
     3
 10
333.35
 20
350.9
 11
331.6
 21
350.9
  0
LINE
  8
0
  6
CONTINUOUS
 62
     3
 10
331.6
 20
350.9
 11
331.6
 21
348.4
  0
LINE
  8
0
  6
CONTINUOUS
 62
     3
 10
339.1
 20
333.4
 11
339.1
 21
344.9
  0
LINE
  8
0
  6
CONTINUOUS
 62
     3
 10
247.6
 20
344.9
 11
253.35
 21
350.9
  0
LINE
  8
0
  6
CONTINUOUS
 62
     3
 10
253.35
 20
350.9
 11
255.1
 21
350.9
  0
LINE
  8
0
  6
CONTINUOUS
 62
     3
 10
255.1
 20
350.9
 11
255.1
 21
348.4
  0
LINE
  8
0
  6
CONTINUOUS
 62
     3
 10
188.1
 20
332.2
 11
188.100290028
 21
333.4
  0
LINE
  8
0
  6
CONTINUOUS
 62
     3
 10
150.75
 20
333.4
 11
150.75
 21
332.2
  0
LINE
  8
0
  6
CONTINUOUS
 62
     3
 10
150.5
 20
332.2
 11
150.5
 21
333.4
  0
LINE
  8
0
  6
CONTINUOUS
 62
     3
 10
150.5
 20
333.4
 11
143.0
 21
333.4
  0
LINE
  8
0
  6
CONTINUOUS
 62
     3
 10
149.75
 20
333.4
 11
148.150000001
 21
333.4
  0
LINE
  8
0
  6
CONTINUOUS
 62
     3
 10
136.25
 20
332.2
 11
136.25
 21
333.4
  0
LINE
  8
0
  6
CONTINUOUS
 62
     3
 10
136.25
 20
333.4
 11
143.0
 21
333.4
  0
LINE
  8
0
  6
CONTINUOUS
 62
     3
 10
136.0
 20
332.2
 11
136.0
 21
333.4
  0
LINE
  8
0
  6
CONTINUOUS
 62
     3
 10
130.495017535
 20
338.2
 11
127.995017535
 21
338.2
  0
LINE
  8
0
  6
CONTINUOUS
 62
     3
 10
103.005017535
 20
338.2
 11
103.005017535
 21
333.4
  0
LINE
  8
0
  6
CONTINUOUS
 62
     3
 10
108.005017535
 20
333.4
 11
103.005017535
 21
333.4
  0
LINE
  8
0
  6
CONTINUOUS
 62
     3
 10
97.4
 20
260.78
 11
97.4
 21
332.2
  0
LINE
  8
0
  6
CONTINUOUS
 62
     3
 10
97.9
 20
333.4
 11
97.9
 21
332.2
  0
LINE
  8
0
  6
CONTINUOUS
 62
     3
 10
174.5
 20
334.6
 11
174.5
 21
333.4
  0
LINE
  8
0
  6
CONTINUOUS
 62
     3
 10
162.5
 20
334.6
 11
162.5
 21
333.4
  0
LINE
  8
0
  6
CONTINUOUS
 62
     3
 10
174.5
 20
333.4
 11
178.0
 21
333.4
  0
LINE
  8
0
  6
CONTINUOUS
 62
     3
 10
162.5
 20
333.4
 11
159.0
 21
333.4
  0
LINE
  8
0
  6
CONTINUOUS
 62
     3
 10
162.5
 20
334.6
 11
174.5
 21
334.6
  0
LINE
  8
0
  6
CONTINUOUS
 62
     3
 10
159.0
 20
333.4
 11
159.0
 21
212.2
  0
LINE
  8
0
  6
CONTINUOUS
 62
     3
 10
161.7
 20
333.4
 11
161.7
 21
212.2
  0
LINE
  8
0
  6
CONTINUOUS
 62
     3
 10
175.3
 20
333.4
 11
175.3
 21
212.2
  0
LINE
  8
0
  6
CONTINUOUS
 62
     3
 10
178.0
 20
333.4
 11
178.0
 21
212.2
  0
LINE
  8
0
  6
CONTINUOUS
 62
     3
 10
165.5
 20
335.6
 11
165.5
 21
334.6
  0
ARC
  8
0
  6
CONTINUOUS
 62
     3
 10
166.5
 20
335.6
 40
1.0
 50
90.0
 51
180.0
  0
LINE
  8
0
  6
CONTINUOUS
 62
     3
 10
170.5
 20
336.6
 11
166.5
 21
336.6
  0
ARC
  8
0
  6
CONTINUOUS
 62
     3
 10
170.5
 20
335.6
 40
1.0
 50
360.0
 51
90.0
  0
LINE
  8
0
  6
CONTINUOUS
 62
     3
 10
165.5
 20
334.6
 11
167.0
 21
334.6
  0
LINE
  8
0
  6
CONTINUOUS
 62
     3
 10
171.5
 20
334.6
 11
171.5
 21
335.6
  0
LINE
  8
0
  6
CONTINUOUS
 62
     3
 10
171.5
 20
334.6
 11
167.0
 21
334.6
  0
LINE
  8
0
  6
CONTINUOUS
 62
     3
 10
162.5
 20
333.4
 11
150.75
 21
333.4
  0
LINE
  8
0
  6
CONTINUOUS
 62
     3
 10
188.100290028
 20
333.4
 11
174.5
 21
333.4
  0
LINE
  8
0
  6
CONTINUOUS
 62
     3
 10
178.0
 20
332.2
 11
188.6
 21
332.2
  0
LINE
  8
0
  6
CONTINUOUS
 62
     3
 10
338.95
 20
332.2
 11
247.75
 21
332.2
  0
LINE
  8
0
  6
CONTINUOUS
 62
     3
 10
247.75
 20
332.2
 11
245.75
 21
332.2
  0
LINE
  8
0
  6
CONTINUOUS
 62
     3
 10
246.95
 20
332.2
 11
246.95
 21
333.4
  0
ARC
  8
0
  6
CONTINUOUS
 62
     3
 10
246.95
 20
333.4
 40
1.2
 50
90.0
 51
180.0
  0
LINE
  8
0
  6
CONTINUOUS
 62
     3
 10
247.6
 20
334.6
 11
247.6
 21
344.9
  0
LINE
  8
0
  6
CONTINUOUS
 62
     4
 10
92.5
 20
212.2
 11
76.560000477
 21
212.2
  0
LINE
  8
0
  6
CONTINUOUS
 62
     4
 10
77.560000477
 20
212.2
 11
77.042362387
 21
210.268148347
  0
LINE
  8
0
  6
CONTINUOUS
 62
     4
 10
77.560000477
 20
212.2
 11
78.077638567
 21
210.268148347
  0
LINE
  8
0
  6
CONTINUOUS
 62
     4
 10
77.560000477
 20
212.2
 11
77.560000477
 21
199.0
  0
LINE
  8
0
  6
CONTINUOUS
 62
     4
 10
77.560000477
 20
199.0
 11
78.077638567
 21
200.931851653
  0
LINE
  8
0
  6
CONTINUOUS
 62
     4
 10
77.560000477
 20
199.0
 11
77.042362387
 21
200.931851653
  0
LINE
  8
0
  6
CONTINUOUS
 62
     4
 10
96.75
 20
199.0
 11
76.560000477
 21
199.0
  0
LINE
  8
0
  6
CONTINUOUS
 62
     4
 10
96.9
 20
332.2
 11
76.560000477
 21
332.2
  0
LINE
  8
0
  6
CONTINUOUS
 62
     4
 10
77.560000477
 20
332.2
 11
77.042362387
 21
330.268148347
  0
LINE
  8
0
  6
CONTINUOUS
 62
     4
 10
77.560000477
 20
332.2
 11
78.077638567
 21
330.268148347
  0
LINE
  8
0
  6
CONTINUOUS
 62
     4
 10
77.560000477
 20
212.2
 11
78.077638567
 21
214.131851653
  0
LINE
  8
0
  6
CONTINUOUS
 62
     4
 10
77.560000477
 20
212.2
 11
77.042362387
 21
214.131851653
  0
LINE
  8
0
  6
CONTINUOUS
 62
     4
 10
97.4
 20
333.4
 11
76.560000477
 21
333.4
  0
LINE
  8
0
  6
CONTINUOUS
 62
     4
 10
77.560000477
 20
332.2
 11
77.560000477
 21
329.2
  0
LINE
  8
0
  6
CONTINUOUS
 62
     4
 10
77.560000477
 20
332.2
 11
77.042362387
 21
330.268148347
  0
LINE
  8
0
  6
CONTINUOUS
 62
     4
 10
77.560000477
 20
332.2
 11
78.077638567
 21
330.268148347
  0
LINE
  8
0
  6
CONTINUOUS
 62
     3
 10
132.995017535
 20
338.2
 11
132.995017535
 21
333.4
  0
LINE
  8
0
  6
CONTINUOUS
 62
     3
 10
130.495017535
 20
338.2
 11
132.995017535
 21
338.2
  0
LINE
  8
0
  6
CONTINUOUS
 62
     3
 10
127.995017535
 20
333.4
 11
132.995017535
 21
333.4
  0
LINE
  8
0
  6
CONTINUOUS
 62
     3
 10
97.9
 20
333.4
 11
136.0
 21
333.4
  0
LINE
  8
0
  6
CONTINUOUS
 62
     3
 10
97.4
 20
332.2
 11
159.0
 21
332.2
  0
POINT
  8
0
  6
CONTINUOUS
 62
     2
 10
143.0
 20
161.5
  0
POINT
  8
0
  6
CONTINUOUS
 62
     2
 10
143.0
 20
161.5
  0
POINT
  8
0
  6
CONTINUOUS
 62
     2
 10
143.0
 20
161.5
  0
POINT
  8
0
  6
CONTINUOUS
 62
     2
 10
143.0
 20
161.5
  0
ARC
  8
0
  6
CONTINUOUS
 62
     2
 10
175.7
 20
156.6
 40
0.5
 50
0.0
 51
90.0
  0
ARC
  8
0
  6
CONTINUOUS
 62
     2
 10
102.3
 20
156.6
 40
0.5
 50
90.0
 51
180.0
  0
ARC
  8
0
  6
CONTINUOUS
 62
     2
 10
102.3
 20
102.0
 40
0.5
 50
180.0
 51
270.0
  0
ARC
  8
0
  6
CONTINUOUS
 62
     3
 10
99.5
 20
98.0
 40
1.5
 50
180.0
 51
270.0
  0
ARC
  8
0
  6
CONTINUOUS
 62
     3
 10
95.0
 20
80.0
 40
2.0
 50
180.0
 51
270.00001366
  0
CIRCLE
  8
0
  6
CONTINUOUS
 62
     3
 10
106.5
 20
87.0
 40
1.6
  0
ARC
  8
0
  6
CONTINUOUS
 62
     3
 10
106.500001907
 20
79.800145912
 40
8.799866046
 50
90.000009353
 51
112.61991652
  0
ARC
  8
0
  6
CONTINUOUS
 62
     3
 10
106.499998093
 20
79.800145912
 40
8.799866046
 50
67.38008348
 51
89.999990647
  0
ARC
  8
0
  6
CONTINUOUS
 62
     3
 10
106.499998093
 20
94.199854088
 40
8.799866046
 50
270.000009353
 51
292.61991652
  0
ARC
  8
0
  6
CONTINUOUS
 62
     3
 10
106.500001907
 20
94.199854088
 40
8.799866046
 50
247.38008348
 51
269.999990647
  0
ARC
  8
0
  6
CONTINUOUS
 62
     3
 10
103.5
 20
87.0
 40
1.0
 50
112.617002457
 51
247.382997543
  0
ARC
  8
0
  6
CONTINUOUS
 62
     3
 10
109.5
 20
87.0
 40
1.0
 50
292.617002457
 51
67.382997543
  0
LINE
  8
0
  6
CONTINUOUS
 62
     3
 10
98.0
 20
159.000001907
 11
98.0
 21
98.0
  0
LINE
  8
0
  6
CONTINUOUS
 62
     3
 10
101.8
 20
156.6
 11
101.8
 21
102.0
  0
LINE
  8
0
  6
CONTINUOUS
 62
     3
 10
186.5
 20
96.5
 11
99.5
 21
96.5
  0
LINE
  8
0
  6
CONTINUOUS
 62
     3
 10
191.0
 20
78.0
 11
185.6
 21
78.0
  0
LINE
  8
0
  6
CONTINUOUS
 62
     3
 10
191.0
 20
82.5
 11
189.728806294
 21
82.470227017
  0
ARC
  8
0
  6
CONTINUOUS
 62
     3
 10
191.0
 20
80.0
 40
2.0
 50
270.0
 51
0.0
  0
LINE
  8
0
  6
CONTINUOUS
 62
     3
 10
191.0
 20
80.0
 11
191.0
 21
82.5
  0
LINE
  8
0
  6
CONTINUOUS
 62
     3
 10
191.0
 20
80.0
 11
189.995728218
 21
80.000007299
  0
ARC
  8
0
  6
CONTINUOUS
 62
     3
 10
190.0
 20
81.25
 40
1.25
 50
90.0
 51
269.804195562
  0
LINE
  8
0
  6
CONTINUOUS
 62
     3
 10
186.3
 20
78.0
 11
95.000000477
 21
78.0
  0
ARC
  8
0
  6
CONTINUOUS
 62
     3
 10
186.5
 20
98.0
 40
1.5
 50
270.0
 51
0.0
  0
LINE
  8
0
  6
CONTINUOUS
 62
     3
 10
188.0
 20
158.500001907
 11
188.0
 21
98.0
  0
LINE
  8
0
  6
CONTINUOUS
 62
     3
 10
176.2
 20
120.65
 11
176.2
 21
102.0
  0
ARC
  8
0
  6
CONTINUOUS
 62
     3
 10
175.7
 20
102.0
 40
0.5
 50
270.0
 51
0.0
  0
LINE
  8
0
  6
CONTINUOUS
 62
     3
 10
175.7
 20
101.5
 11
102.3
 21
101.5
  0
LINE
  8
0
  6
CONTINUOUS
 62
     3
 10
176.2
 20
156.6
 11
176.2
 21
120.65
  0
LINE
  8
0
  6
CONTINUOUS
 62
     3
 10
175.7
 20
157.1
 11
102.3
 21
157.1
  0
ARC
  8
0
  6
CONTINUOUS
 62
     3
 10
186.0
 20
158.5
 40
2.0
 50
0.000054642
 51
90.0
  0
ARC
  8
0
  6
CONTINUOUS
 62
     3
 10
191.0
 20
172.0
 40
2.0
 50
0.0
 51
90.0
  0
ARC
  8
0
  6
CONTINUOUS
 62
     3
 10
191.0
 20
172.0
 40
2.0
 50
0.0
 51
90.000036142
  0
LINE
  8
0
  6
CONTINUOUS
 62
     3
 10
193.0
 20
80.0
 11
193.0
 21
172.0
  0
ARC
  8
0
  6
CONTINUOUS
 62
     3
 10
95.0
 20
172.0
 40
2.0
 50
89.999963858
 51
180.0
  0
LINE
  8
0
  6
CONTINUOUS
 62
     3
 10
93.0
 20
172.0
 11
93.0
 21
80.0
  0
LINE
  8
0
  6
CONTINUOUS
 62
     3
 10
191.0
 20
174.0
 11
95.000001262
 21
174.0
  0
LINE
  8
0
  6
CONTINUOUS
 62
     3
 10
95.0
 20
174.0
 11
190.999998738
 21
174.0
  0
ARC
  8
0
  6
CONTINUOUS
 62
     3
 10
99.5
 20
159.0
 40
1.5
 50
90.0
 51
179.999927149
  0
LINE
  8
0
  6
CONTINUOUS
 62
     3
 10
99.5
 20
160.5
 11
186.0
 21
160.5
  0
LINE
  8
0
  6
CONTINUOUS
 62
     3
 10
301.85
 20
333.4
 11
282.0
 21
333.4
  0
LINE
  8
0
  6
CONTINUOUS
 62
     3
 10
288.85
 20
345.4
 11
295.85
 21
345.4
  0
LINE
  8
0
  6
CONTINUOUS
 62
     3
 10
295.85
 20
345.4
 11
295.85
 21
342.9
  0
LINE
  8
0
  6
CONTINUOUS
 62
     3
 10
293.35
 20
344.6
 11
293.35
 21
345.4
  0
LINE
  8
0
  6
CONTINUOUS
 62
     3
 10
292.35
 20
344.6
 11
293.35
 21
344.6
  0
LINE
  8
0
  6
CONTINUOUS
 62
     3
 10
291.35
 20
344.6
 11
292.35
 21
344.6
  0
LINE
  8
0
  6
CONTINUOUS
 62
     3
 10
291.35
 20
345.4
 11
291.35
 21
344.6
  0
LINE
  8
0
  6
CONTINUOUS
 62
     3
 10
291.55
 20
343.7
 11
291.55
 21
344.2
  0
LINE
  8
0
  6
CONTINUOUS
 62
     3
 10
293.15
 20
343.7
 11
293.15
 21
344.2
  0
LINE
  8
0
  6
CONTINUOUS
 62
     3
 10
295.85
 20
343.7
 11
293.15
 21
344.2
  0
LINE
  8
0
  6
CONTINUOUS
 62
     3
 10
288.85
 20
345.4
 11
288.85
 21
347.4
  0
LINE
  8
0
  6
CONTINUOUS
 62
     3
 10
295.85
 20
345.4
 11
295.85
 21
347.4
  0
LINE
  8
0
  6
CONTINUOUS
 62
     3
 10
295.85
 20
345.9
 11
288.85
 21
345.9
  0
ARC
  8
0
  6
CONTINUOUS
 62
     3
 10
292.154545455
 20
342.459090909
 40
5.944123426
 50
88.115661675
 51
123.775130127
  0
ARC
  8
0
  6
CONTINUOUS
 62
     3
 10
292.545454545
 20
342.459090909
 40
5.944123426
 50
56.224869873
 51
91.884338325
  0
LINE
  8
0
  6
CONTINUOUS
 62
     3
 10
298.35
 20
345.4
 11
305.35
 21
345.4
  0
LINE
  8
0
  6
CONTINUOUS
 62
     3
 10
302.85
 20
344.6
 11
302.85
 21
345.4
  0
LINE
  8
0
  6
CONTINUOUS
 62
     3
 10
301.85
 20
344.6
 11
302.85
 21
344.6
  0
LINE
  8
0
  6
CONTINUOUS
 62
     3
 10
300.85
 20
344.6
 11
301.85
 21
344.6
  0
LINE
  8
0
  6
CONTINUOUS
 62
     3
 10
300.85
 20
345.4
 11
300.85
 21
344.6
  0
LINE
  8
0
  6
CONTINUOUS
 62
     3
 10
298.35
 20
345.4
 11
298.35
 21
347.4
  0
LINE
  8
0
  6
CONTINUOUS
 62
     3
 10
305.35
 20
345.4
 11
305.35
 21
347.4
  0
LINE
  8
0
  6
CONTINUOUS
 62
     3
 10
305.35
 20
345.9
 11
298.35
 21
345.9
  0
ARC
  8
0
  6
CONTINUOUS
 62
     3
 10
301.654545455
 20
342.459090909
 40
5.944123426
 50
88.115661675
 51
123.775130127
  0
ARC
  8
0
  6
CONTINUOUS
 62
     3
 10
302.045454545
 20
342.459090909
 40
5.944123426
 50
56.224869873
 51
91.884338325
  0
LINE
  8
0
  6
CONTINUOUS
 62
     3
 10
307.85
 20
345.4
 11
314.85
 21
345.4
  0
LINE
  8
0
  6
CONTINUOUS
 62
     3
 10
312.35
 20
344.6
 11
312.35
 21
345.4
  0
LINE
  8
0
  6
CONTINUOUS
 62
     3
 10
311.35
 20
344.6
 11
312.35
 21
344.6
  0
LINE
  8
0
  6
CONTINUOUS
 62
     3
 10
310.35
 20
344.6
 11
311.35
 21
344.6
  0
LINE
  8
0
  6
CONTINUOUS
 62
     3
 10
310.35
 20
345.4
 11
310.35
 21
344.6
  0
LINE
  8
0
  6
CONTINUOUS
 62
     3
 10
307.85
 20
345.4
 11
307.85
 21
347.4
  0
LINE
  8
0
  6
CONTINUOUS
 62
     3
 10
314.85
 20
345.4
 11
314.85
 21
347.4
  0
LINE
  8
0
  6
CONTINUOUS
 62
     3
 10
314.85
 20
345.9
 11
307.85
 21
345.9
  0
ARC
  8
0
  6
CONTINUOUS
 62
     3
 10
311.154545455
 20
342.459090909
 40
5.944123426
 50
88.115661675
 51
123.775130127
  0
ARC
  8
0
  6
CONTINUOUS
 62
     3
 10
311.545454545
 20
342.459090909
 40
5.944123426
 50
56.224869873
 51
91.884338325
  0
LINE
  8
0
  6
CONTINUOUS
 62
     3
 10
322.85
 20
343.9
 11
322.85
 21
342.9
  0
LINE
  8
0
  6
CONTINUOUS
 62
     3
 10
318.85
 20
343.9
 11
318.85
 21
342.9
  0
LINE
  8
0
  6
CONTINUOUS
 62
     3
 10
317.35
 20
343.9
 11
317.35
 21
342.9
  0
LINE
  8
0
  6
CONTINUOUS
 62
     3
 10
275.35
 20
343.9
 11
275.35
 21
342.9
  0
LINE
  8
0
  6
CONTINUOUS
 62
     3
 10
286.35
 20
345.4
 11
279.35
 21
345.4
  0
LINE
  8
0
  6
CONTINUOUS
 62
     3
 10
281.85
 20
344.6
 11
281.85
 21
345.4
  0
LINE
  8
0
  6
CONTINUOUS
 62
     3
 10
282.85
 20
344.6
 11
281.85
 21
344.6
  0
LINE
  8
0
  6
CONTINUOUS
 62
     3
 10
283.85
 20
344.6
 11
282.85
 21
344.6
  0
LINE
  8
0
  6
CONTINUOUS
 62
     3
 10
283.85
 20
345.4
 11
283.85
 21
344.6
  0
LINE
  8
0
  6
CONTINUOUS
 62
     3
 10
286.35
 20
345.4
 11
286.35
 21
347.4
  0
LINE
  8
0
  6
CONTINUOUS
 62
     3
 10
279.35
 20
345.4
 11
279.35
 21
347.4
  0
LINE
  8
0
  6
CONTINUOUS
 62
     3
 10
279.35
 20
345.9
 11
286.35
 21
345.9
  0
ARC
  8
0
  6
CONTINUOUS
 62
     3
 10
283.045454545
 20
342.459090909
 40
5.944123426
 50
56.224869873
 51
91.884338325
  0
ARC
  8
0
  6
CONTINUOUS
 62
     3
 10
282.654545455
 20
342.459090909
 40
5.944123426
 50
88.115661675
 51
123.775130127
  0
LINE
  8
0
  6
CONTINUOUS
 62
     3
 10
331.6
 20
348.4
 11
316.75
 21
348.4
  0
LINE
  8
0
  6
CONTINUOUS
 62
     3
 10
255.1
 20
348.4
 11
277.45
 21
348.4
  0
LINE
  8
0
  6
CONTINUOUS
 62
     3
 10
286.95
 20
351.8
 11
288.25
 21
351.8
  0
LINE
  8
0
  6
CONTINUOUS
 62
     3
 10
277.45
 20
351.8
 11
278.75
 21
351.8
  0
LINE
  8
0
  6
CONTINUOUS
 62
     3
 10
297.75
 20
351.8
 11
296.45
 21
351.8
  0
LINE
  8
0
  6
CONTINUOUS
 62
     3
 10
296.45
 20
351.8
 11
296.45
 21
336.4
  0
LINE
  8
0
  6
CONTINUOUS
 62
     3
 10
305.95
 20
351.8
 11
307.25
 21
351.8
  0
LINE
  8
0
  6
CONTINUOUS
 62
     3
 10
316.75
 20
351.8
 11
315.45
 21
351.8
  0
LINE
  8
0
  6
CONTINUOUS
 62
     3
 10
269.35
 20
342.9
 11
269.35
 21
333.4
  0
LINE
  8
0
  6
CONTINUOUS
 62
     3
 10
269.85
 20
343.9
 11
269.85
 21
342.9
  0
LINE
  8
0
  6
CONTINUOUS
 62
     3
 10
271.35
 20
343.9
 11
271.35
 21
342.9
  0
LINE
  8
0
  6
CONTINUOUS
 62
     3
 10
288.25
 20
337.9
 11
296.45
 21
337.9
  0
LINE
  8
0
  6
CONTINUOUS
 62
     3
 10
288.25
 20
336.4
 11
296.45
 21
336.4
  0
LINE
  8
0
  6
CONTINUOUS
 62
     3
 10
288.25
 20
342.9
 11
296.45
 21
342.9
  0
LINE
  8
0
  6
CONTINUOUS
 62
     3
 10
288.85
 20
345.4
 11
288.85
 21
342.9
  0
LINE
  8
0
  6
CONTINUOUS
 62
     3
 10
288.85
 20
343.7
 11
295.85
 21
343.7
  0
LINE
  8
0
  6
CONTINUOUS
 62
     3
 10
288.85
 20
343.7
 11
291.55
 21
344.2
  0
LINE
  8
0
  6
CONTINUOUS
 62
     3
 10
276.85
 20
343.9
 11
276.85
 21
342.9
  0
LINE
  8
0
  6
CONTINUOUS
 62
     3
 10
286.95
 20
337.9
 11
278.75
 21
337.9
  0
LINE
  8
0
  6
CONTINUOUS
 62
     3
 10
286.95
 20
336.4
 11
278.75
 21
336.4
  0
LINE
  8
0
  6
CONTINUOUS
 62
     3
 10
286.95
 20
342.9
 11
278.75
 21
342.9
  0
LINE
  8
0
  6
CONTINUOUS
 62
     3
 10
279.35
 20
345.4
 11
279.35
 21
342.9
  0
LINE
  8
0
  6
CONTINUOUS
 62
     3
 10
286.35
 20
345.4
 11
286.35
 21
342.9
  0
LINE
  8
0
  6
CONTINUOUS
 62
     3
 10
286.35
 20
343.7
 11
279.35
 21
343.7
  0
LINE
  8
0
  6
CONTINUOUS
 62
     3
 10
283.65
 20
343.7
 11
283.65
 21
344.2
  0
LINE
  8
0
  6
CONTINUOUS
 62
     3
 10
286.35
 20
343.7
 11
283.65
 21
344.2
  0
LINE
  8
0
  6
CONTINUOUS
 62
     3
 10
282.05
 20
343.7
 11
282.05
 21
344.2
  0
LINE
  8
0
  6
CONTINUOUS
 62
     3
 10
279.35
 20
343.7
 11
282.05
 21
344.2
  0
LINE
  8
0
  6
CONTINUOUS
 62
     3
 10
286.95
 20
351.8
 11
286.95
 21
336.4
  0
LINE
  8
0
  6
CONTINUOUS
 62
     3
 10
288.25
 20
351.8
 11
288.25
 21
336.4
  0
LINE
  8
0
  6
CONTINUOUS
 62
     3
 10
286.95
 20
351.8
 11
286.95
 21
336.4
  0
LINE
  8
0
  6
CONTINUOUS
 62
     3
 10
278.75
 20
351.8
 11
278.75
 21
336.4
  0
LINE
  8
0
  6
CONTINUOUS
 62
     3
 10
277.45
 20
351.8
 11
277.45
 21
336.4
  0
LINE
  8
0
  6
CONTINUOUS
 62
     3
 10
277.45
 20
351.8
 11
277.45
 21
336.4
  0
LINE
  8
0
  6
CONTINUOUS
 62
     3
 10
269.35
 20
336.4
 11
277.45
 21
336.4
  0
LINE
  8
0
  6
CONTINUOUS
 62
     3
 10
269.35
 20
342.9
 11
277.45
 21
342.9
  0
LINE
  8
0
  6
CONTINUOUS
 62
     3
 10
269.35
 20
337.9
 11
277.45
 21
337.9
  0
LINE
  8
0
  6
CONTINUOUS
 62
     3
 10
269.85
 20
343.9
 11
276.85
 21
343.9
  0
LINE
  8
0
  6
CONTINUOUS
 62
     3
 10
297.75
 20
337.9
 11
305.95
 21
337.9
  0
LINE
  8
0
  6
CONTINUOUS
 62
     3
 10
307.25
 20
337.9
 11
315.45
 21
337.9
  0
LINE
  8
0
  6
CONTINUOUS
 62
     3
 10
297.75
 20
336.4
 11
305.95
 21
336.4
  0
LINE
  8
0
  6
CONTINUOUS
 62
     3
 10
307.25
 20
336.4
 11
315.45
 21
336.4
  0
LINE
  8
0
  6
CONTINUOUS
 62
     3
 10
297.75
 20
342.9
 11
305.95
 21
342.9
  0
LINE
  8
0
  6
CONTINUOUS
 62
     3
 10
307.25
 20
342.9
 11
315.45
 21
342.9
  0
LINE
  8
0
  6
CONTINUOUS
 62
     3
 10
305.35
 20
345.4
 11
305.35
 21
342.9
  0
LINE
  8
0
  6
CONTINUOUS
 62
     3
 10
298.35
 20
345.4
 11
298.35
 21
342.9
  0
LINE
  8
0
  6
CONTINUOUS
 62
     3
 10
298.35
 20
343.7
 11
305.35
 21
343.7
  0
LINE
  8
0
  6
CONTINUOUS
 62
     3
 10
301.05
 20
343.7
 11
301.05
 21
344.2
  0
LINE
  8
0
  6
CONTINUOUS
 62
     3
 10
298.35
 20
343.7
 11
301.05
 21
344.2
  0
LINE
  8
0
  6
CONTINUOUS
 62
     3
 10
302.65
 20
343.7
 11
302.65
 21
344.2
  0
LINE
  8
0
  6
CONTINUOUS
 62
     3
 10
305.35
 20
343.7
 11
302.65
 21
344.2
  0
LINE
  8
0
  6
CONTINUOUS
 62
     3
 10
314.85
 20
345.4
 11
314.85
 21
342.9
  0
LINE
  8
0
  6
CONTINUOUS
 62
     3
 10
307.85
 20
345.4
 11
307.85
 21
342.9
  0
LINE
  8
0
  6
CONTINUOUS
 62
     3
 10
307.85
 20
343.7
 11
314.85
 21
343.7
  0
LINE
  8
0
  6
CONTINUOUS
 62
     3
 10
310.55
 20
343.7
 11
310.55
 21
344.2
  0
LINE
  8
0
  6
CONTINUOUS
 62
     3
 10
307.85
 20
343.7
 11
310.55
 21
344.2
  0
LINE
  8
0
  6
CONTINUOUS
 62
     3
 10
312.15
 20
343.7
 11
312.15
 21
344.2
  0
LINE
  8
0
  6
CONTINUOUS
 62
     3
 10
314.85
 20
343.7
 11
312.15
 21
344.2
  0
LINE
  8
0
  6
CONTINUOUS
 62
     3
 10
297.75
 20
351.8
 11
297.75
 21
336.4
  0
LINE
  8
0
  6
CONTINUOUS
 62
     3
 10
305.95
 20
351.8
 11
305.95
 21
336.4
  0
LINE
  8
0
  6
CONTINUOUS
 62
     3
 10
307.25
 20
351.8
 11
307.25
 21
336.4
  0
LINE
  8
0
  6
CONTINUOUS
 62
     3
 10
316.75
 20
351.8
 11
316.75
 21
336.4
  0
LINE
  8
0
  6
CONTINUOUS
 62
     3
 10
315.45
 20
351.8
 11
315.45
 21
336.4
  0
LINE
  8
0
  6
CONTINUOUS
 62
     3
 10
324.85
 20
342.9
 11
324.85
 21
333.4
  0
LINE
  8
0
  6
CONTINUOUS
 62
     3
 10
324.35
 20
343.9
 11
324.35
 21
342.9
  0
LINE
  8
0
  6
CONTINUOUS
 62
     3
 10
316.75
 20
337.9
 11
324.85
 21
337.9
  0
LINE
  8
0
  6
CONTINUOUS
 62
     3
 10
316.75
 20
336.4
 11
324.85
 21
336.4
  0
LINE
  8
0
  6
CONTINUOUS
 62
     3
 10
246.95
 20
333.4
 11
338.45
 21
333.4
  0
LINE
  8
0
  6
CONTINUOUS
 62
     3
 10
301.85
 20
333.4
 11
321.7
 21
333.4
  0
LINE
  8
0
  6
CONTINUOUS
 62
     3
 10
269.35
 20
333.4
 11
324.85
 21
333.4
  0
LINE
  8
0
  6
CONTINUOUS
 62
     3
 10
324.35
 20
343.9
 11
317.35
 21
343.9
  0
LINE
  8
0
  6
CONTINUOUS
 62
     3
 10
320.85
 20
342.9
 11
320.85
 21
343.9
  0
LINE
  8
0
  6
CONTINUOUS
 62
     3
 10
324.85
 20
342.9
 11
316.75
 21
342.9
  0
LINE
  8
0
  6
CONTINUOUS
 62
     3
 10
273.35
 20
345.9
 11
271.35
 21
345.9
  0
LINE
  8
0
  6
CONTINUOUS
 62
     3
 10
270.35
 20
344.9
 11
270.35
 21
343.9
  0
ARC
  8
0
  6
CONTINUOUS
 62
     3
 10
271.35
 20
344.9
 40
1.0
 50
90.0
 51
180.0
  0
LINE
  8
0
  6
CONTINUOUS
 62
     3
 10
273.35
 20
345.9
 11
275.35
 21
345.9
  0
LINE
  8
0
  6
CONTINUOUS
 62
     3
 10
276.35
 20
344.9
 11
276.35
 21
343.9
  0
ARC
  8
0
  6
CONTINUOUS
 62
     3
 10
275.35
 20
344.9
 40
1.0
 50
0.0
 51
90.0
  0
LINE
  8
0
  6
CONTINUOUS
 62
     3
 10
320.75
 20
345.9
 11
318.75
 21
345.9
  0
LINE
  8
0
  6
CONTINUOUS
 62
     3
 10
317.75
 20
344.9
 11
317.75
 21
343.9
  0
ARC
  8
0
  6
CONTINUOUS
 62
     3
 10
318.75
 20
344.9
 40
1.0
 50
90.0
 51
180.0
  0
LINE
  8
0
  6
CONTINUOUS
 62
     3
 10
320.75
 20
345.9
 11
322.75
 21
345.9
  0
LINE
  8
0
  6
CONTINUOUS
 62
     3
 10
323.75
 20
344.9
 11
323.75
 21
343.9
  0
ARC
  8
0
  6
CONTINUOUS
 62
     3
 10
322.75
 20
344.9
 40
1.0
 50
0.0
 51
90.0
  0
LINE
  8
0
  6
CONTINUOUS
 62
     3
 10
166.63
 20
350.8
 11
166.63
 21
336.6
  0
ARC
  8
0
  6
CONTINUOUS
 62
     3
 10
167.63
 20
350.8
 40
1.0
 50
90.0
 51
180.0
  0
LINE
  8
0
  6
CONTINUOUS
 62
     3
 10
167.63
 20
351.8
 11
180.63
 21
351.8
  0
LINE
  8
0
  6
CONTINUOUS
 62
     3
 10
181.63
 20
350.8
 11
181.63
 21
333.4
  0
ARC
  8
0
  6
CONTINUOUS
 62
     3
 10
180.63
 20
350.8
 40
1.0
 50
0.0
 51
90.0
  0
LINE
  8
0
  6
CONTINUOUS
 62
     3
 10
169.13
 20
342.9
 11
179.13
 21
342.9
  0
LINE
  8
0
  6
CONTINUOUS
 62
     3
 10
179.13
 20
342.9
 11
181.63
 21
336.4
  0
LINE
  8
0
  6
CONTINUOUS
 62
     3
 10
169.13
 20
342.9
 11
166.706923077
 21
336.6
  0
LINE
  8
0
  6
CONTINUOUS
 62
     3
 10
170.13
 20
342.9
 11
170.13
 21
343.9
  0
LINE
  8
0
  6
CONTINUOUS
 62
     3
 10
170.13
 20
343.9
 11
178.13
 21
343.9
  0
LINE
  8
0
  6
CONTINUOUS
 62
     3
 10
178.13
 20
343.9
 11
178.13
 21
342.9
  0
LINE
  8
0
  6
CONTINUOUS
 62
     3
 10
174.13
 20
345.9
 11
172.13
 21
345.9
  0
LINE
  8
0
  6
CONTINUOUS
 62
     3
 10
171.13
 20
344.9
 11
171.13
 21
343.9
  0
ARC
  8
0
  6
CONTINUOUS
 62
     3
 10
172.13
 20
344.9
 40
1.0
 50
90.0
 51
180.0
  0
LINE
  8
0
  6
CONTINUOUS
 62
     3
 10
174.13
 20
345.9
 11
176.13
 21
345.9
  0
LINE
  8
0
  6
CONTINUOUS
 62
     3
 10
177.13
 20
344.9
 11
177.13
 21
343.9
  0
ARC
  8
0
  6
CONTINUOUS
 62
     3
 10
176.13
 20
344.9
 40
1.0
 50
0.0
 51
90.0
  0
LINE
  8
0
  6
CONTINUOUS
 62
     3
 10
105.05
 20
338.2
 11
103.005017535
 21
338.2
  0
LINE
  8
0
  6
CONTINUOUS
 62
     3
 10
105.05
 20
333.4
 11
105.05
 21
344.0
  0
ARC
  8
0
  6
CONTINUOUS
 62
     3
 10
106.05
 20
344.0
 40
1.0
 50
90.0
 51
180.0
  0
LINE
  8
0
  6
CONTINUOUS
 62
     3
 10
106.05
 20
345.0
 11
118.05
 21
345.0
  0
LINE
  8
0
  6
CONTINUOUS
 62
     3
 10
119.05
 20
344.0
 11
119.05
 21
333.4
  0
ARC
  8
0
  6
CONTINUOUS
 62
     3
 10
118.05
 20
344.0
 40
1.0
 50
0.0
 51
90.0
  0
LINE
  8
0
  6
CONTINUOUS
 62
     3
 10
245.35
 20
212.2
 11
245.562832958
 21
200.962128984
  0
LINE
  8
0
  6
CONTINUOUS
 62
     3
 10
245.35
 20
212.2
 11
245.562832958
 21
200.962128984
  0
LINE
  8
0
  6
CONTINUOUS
 62
     3
 10
245.35
 20
212.2
 11
245.562832958
 21
200.962128984
  0
LINE
  8
0
  6
CONTINUOUS
 62
     3
 10
245.35
 20
212.2
 11
245.562832958
 21
200.962128984
  0
POINT
  8
0
  6
CONTINUOUS
 62
     3
 10
245.75
 20
213.4
  0
LINE
  8
0
  6
CONTINUOUS
 62
     3
 10
242.75
 20
213.4
 11
242.75
 21
212.2
  0
LINE
  8
0
  6
CONTINUOUS
 62
     3
 10
343.95
 20
213.4
 11
343.95
 21
212.2
  0
LINE
  8
0
  6
CONTINUOUS
 62
     3
 10
338.95
 20
332.2
 11
340.95
 21
332.2
  0
LINE
  8
0
  6
CONTINUOUS
 62
     3
 10
340.95
 20
333.4
 11
340.95
 21
212.2
  0
ARC
  8
0
  6
CONTINUOUS
 62
     3
 10
339.75
 20
333.4
 40
1.2
 50
0.0
 51
90.0
  0
LINE
  8
0
  6
CONTINUOUS
 62
     3
 10
247.75
 20
213.4
 11
242.75
 21
213.4
  0
LINE
  8
0
  6
CONTINUOUS
 62
     3
 10
245.75
 20
333.4
 11
245.75
 21
213.4
  0
LINE
  8
0
  6
CONTINUOUS
 62
     3
 10
242.75
 20
212.2
 11
246.75
 21
212.2
  0
ARC
  8
0
  6
CONTINUOUS
 62
     3
 10
246.75
 20
213.2
 40
1.0
 50
270.0
 51
0.0
  0
LINE
  8
0
  6
CONTINUOUS
 62
     3
 10
246.75
 20
212.2
 11
293.35
 21
212.2
  0
LINE
  8
0
  6
CONTINUOUS
 62
     3
 10
247.75
 20
212.2
 11
247.75
 21
332.2
  0
LINE
  8
0
  6
CONTINUOUS
 62
     3
 10
338.95
 20
212.2
 11
293.35
 21
212.2
  0
LINE
  8
0
  6
CONTINUOUS
 62
     3
 10
338.95
 20
212.2
 11
293.35
 21
212.2
  0
LINE
  8
0
  6
CONTINUOUS
 62
     3
 10
343.95
 20
212.2
 11
338.95
 21
212.2
  0
LINE
  8
0
  6
CONTINUOUS
 62
     3
 10
341.35
 20
212.2
 11
339.95
 21
212.2
  0
ARC
  8
0
  6
CONTINUOUS
 62
     3
 10
339.95
 20
213.2
 40
1.0
 50
180.0
 51
270.0
  0
LINE
  8
0
  6
CONTINUOUS
 62
     3
 10
338.95
 20
213.4
 11
343.95
 21
213.4
  0
LINE
  8
0
  6
CONTINUOUS
 62
     3
 10
338.95
 20
212.2
 11
338.95
 21
332.2
  0
LINE
  8
0
  6
CONTINUOUS
 62
     4
 10
77.560000477
 20
333.4
 11
78.077638567
 21
335.331851653
  0
LINE
  8
0
  6
CONTINUOUS
 62
     4
 10
77.560000477
 20
333.4
 11
77.042362387
 21
335.331851653
  0
LINE
  8
0
  6
CONTINUOUS
 62
     4
 10
77.560000477
 20
341.5
 11
77.560000477
 21
333.4
  0
LINE
  8
0
  6
CONTINUOUS
 62
     4
 10
77.560000477
 20
333.4
 11
77.560000477
 21
332.2
  0
LINE
  8
0
  6
CONTINUOUS
 62
     4
 10
77.560000477
 20
332.2
 11
77.560000477
 21
329.2
  0
LINE
  8
0
  6
CONTINUOUS
 62
     4
 10
77.560000477
 20
332.2
 11
77.042362387
 21
330.268148347
  0
LINE
  8
0
  6
CONTINUOUS
 62
     4
 10
77.560000477
 20
332.2
 11
78.077638567
 21
330.268148347
  0
LINE
  8
0
  6
CONTINUOUS
 62
     4
 10
167.13
 20
351.8
 11
66.03
 21
351.8
  0
LINE
  8
0
  6
CONTINUOUS
 62
     4
 10
67.03
 20
351.8
 11
66.51236191
 21
349.868148347
  0
LINE
  8
0
  6
CONTINUOUS
 62
     4
 10
67.03
 20
351.8
 11
67.54763809
 21
349.868148347
  0
LINE
  8
0
  6
CONTINUOUS
 62
     4
 10
67.03
 20
351.8
 11
67.03
 21
212.2
  0
LINE
  8
0
  6
CONTINUOUS
 62
     4
 10
67.03
 20
212.2
 11
67.54763809
 21
214.131851653
  0
LINE
  8
0
  6
CONTINUOUS
 62
     4
 10
67.03
 20
212.2
 11
66.51236191
 21
214.131851653
  0
LINE
  8
0
  6
CONTINUOUS
 62
     4
 10
76.060000477
 20
212.2
 11
66.03
 21
212.2
  0
LINE
  8
0
  6
CONTINUOUS
 62
     3
 10
127.825
 20
338.2
 11
125.325
 21
338.2
  0
LINE
  8
0
  6
CONTINUOUS
 62
     3
 10
127.825
 20
338.2
 11
130.325
 21
338.2
  0
LINE
  8
0
  6
CONTINUOUS
 62
     3
 10
125.325
 20
338.2
 11
125.325
 21
333.4
  0
LINE
  8
0
  6
CONTINUOUS
 62
     3
 10
130.325
 20
338.2
 11
130.325
 21
333.4
  0
LINE
  8
0
  6
CONTINUOUS
 62
     3
 10
125.325
 20
338.07
 11
119.05
 21
338.07
  0
LINE
  8
0
  6
CONTINUOUS
 62
     4
 10
131.4
 20
337.8
 11
131.085948979
 21
339.775189094
  0
LINE
  8
0
  6
CONTINUOUS
 62
     4
 10
131.4
 20
337.8
 11
130.140429291
 21
339.353538422
  0
LINE
  8
0
  6
CONTINUOUS
 62
     4
 10
103.605017535
 20
337.6
 11
103.366466355
 21
339.585722371
  0
LINE
  8
0
  6
CONTINUOUS
 62
     4
 10
103.605017535
 20
337.6
 11
102.405564968
 21
339.200410428
  0
LINE
  8
0
  6
CONTINUOUS
 62
     4
 10
103.605017535
 20
337.6
 11
95.505017535
 21
357.8
  0
LINE
  8
0
  6
CONTINUOUS
 62
     4
 10
131.4
 20
337.8
 11
113.740540541
 21
377.4
  0
LINE
  8
0
  6
CONTINUOUS
 62
     4
 10
172.205017535
 20
349.9
 11
171.804056794
 21
351.859395439
  0
LINE
  8
0
  6
CONTINUOUS
 62
     4
 10
172.205017535
 20
349.9
 11
170.878077628
 21
351.396405856
  0
LINE
  8
0
  6
CONTINUOUS
 62
     4
 10
172.205017535
 20
349.9
 11
161.605017535
 21
371.1
  0
LINE
  8
0
  6
CONTINUOUS
 62
     4
 10
111.805017535
 20
343.0
 11
111.3975386
 21
344.958050285
  0
LINE
  8
0
  6
CONTINUOUS
 62
     4
 10
111.805017535
 20
343.0
 11
110.473105283
 21
344.491981821
  0
LINE
  8
0
  6
CONTINUOUS
 62
     4
 10
111.805017535
 20
343.0
 11
99.705017535
 21
367.0
  0
CIRCLE
  8
0
  6
CONTINUOUS
 62
     3
 10
448.25
 20
265.9
 40
3.0
  0
LINE
  8
0
  6
CONTINUOUS
 62
     3
 10
448.75
 20
263.9
 11
448.75
 21
265.4
  0
LINE
  8
0
  6
CONTINUOUS
 62
     3
 10
448.75
 20
265.4
 11
450.25
 21
265.4
  0
LINE
  8
0
  6
CONTINUOUS
 62
     3
 10
450.25
 20
265.4
 11
450.25
 21
266.4
  0
LINE
  8
0
  6
CONTINUOUS
 62
     3
 10
450.25
 20
266.4
 11
448.75
 21
266.4
  0
LINE
  8
0
  6
CONTINUOUS
 62
     3
 10
448.75
 20
266.4
 11
448.75
 21
267.9
  0
LINE
  8
0
  6
CONTINUOUS
 62
     3
 10
448.75
 20
267.9
 11
447.75
 21
267.9
  0
LINE
  8
0
  6
CONTINUOUS
 62
     3
 10
447.75
 20
267.9
 11
447.75
 21
266.4
  0
LINE
  8
0
  6
CONTINUOUS
 62
     3
 10
447.75
 20
266.4
 11
446.25
 21
266.4
  0
LINE
  8
0
  6
CONTINUOUS
 62
     3
 10
446.25
 20
266.4
 11
446.25
 21
265.4
  0
LINE
  8
0
  6
CONTINUOUS
 62
     3
 10
446.25
 20
265.4
 11
447.75
 21
265.4
  0
LINE
  8
0
  6
CONTINUOUS
 62
     3
 10
447.75
 20
263.9
 11
448.75
 21
263.9
  0
LINE
  8
0
  6
CONTINUOUS
 62
     3
 10
447.75
 20
263.9
 11
447.75
 21
265.4
  0
LINE
  8
0
  6
CONTINUOUS
 62
     3
 10
459.25
 20
268.24
 11
459.25
 21
266.74
  0
LINE
  8
0
  6
CONTINUOUS
 62
     3
 10
459.25
 20
266.74
 11
460.75
 21
266.74
  0
LINE
  8
0
  6
CONTINUOUS
 62
     3
 10
460.75
 20
266.74
 11
460.75
 21
265.74
  0
LINE
  8
0
  6
CONTINUOUS
 62
     3
 10
460.75
 20
265.74
 11
459.25
 21
265.74
  0
LINE
  8
0
  6
CONTINUOUS
 62
     3
 10
459.25
 20
265.74
 11
459.25
 21
264.24
  0
LINE
  8
0
  6
CONTINUOUS
 62
     3
 10
459.25
 20
264.24
 11
458.25
 21
264.24
  0
LINE
  8
0
  6
CONTINUOUS
 62
     3
 10
458.25
 20
264.24
 11
458.25
 21
265.74
  0
LINE
  8
0
  6
CONTINUOUS
 62
     3
 10
458.25
 20
265.74
 11
456.75
 21
265.74
  0
LINE
  8
0
  6
CONTINUOUS
 62
     3
 10
456.75
 20
265.74
 11
456.75
 21
266.74
  0
LINE
  8
0
  6
CONTINUOUS
 62
     3
 10
456.75
 20
266.74
 11
458.25
 21
266.74
  0
LINE
  8
0
  6
CONTINUOUS
 62
     3
 10
458.25
 20
268.24
 11
459.25
 21
268.24
  0
LINE
  8
0
  6
CONTINUOUS
 62
     3
 10
458.25
 20
268.24
 11
458.25
 21
266.74
  0
LINE
  8
0
  6
CONTINUOUS
 62
     3
 10
448.75
 20
351.9
 11
448.75
 21
350.4
  0
LINE
  8
0
  6
CONTINUOUS
 62
     3
 10
448.75
 20
350.4
 11
450.25
 21
350.4
  0
LINE
  8
0
  6
CONTINUOUS
 62
     3
 10
450.25
 20
350.4
 11
450.25
 21
349.4
  0
LINE
  8
0
  6
CONTINUOUS
 62
     3
 10
450.25
 20
349.4
 11
448.75
 21
349.4
  0
LINE
  8
0
  6
CONTINUOUS
 62
     3
 10
448.75
 20
349.4
 11
448.75
 21
347.9
  0
LINE
  8
0
  6
CONTINUOUS
 62
     3
 10
448.75
 20
347.9
 11
447.75
 21
347.9
  0
LINE
  8
0
  6
CONTINUOUS
 62
     3
 10
447.75
 20
347.9
 11
447.75
 21
349.4
  0
LINE
  8
0
  6
CONTINUOUS
 62
     3
 10
447.75
 20
349.4
 11
446.25
 21
349.4
  0
LINE
  8
0
  6
CONTINUOUS
 62
     3
 10
446.25
 20
349.4
 11
446.25
 21
350.4
  0
LINE
  8
0
  6
CONTINUOUS
 62
     3
 10
446.25
 20
350.4
 11
447.75
 21
350.4
  0
LINE
  8
0
  6
CONTINUOUS
 62
     3
 10
447.75
 20
351.9
 11
448.75
 21
351.9
  0
LINE
  8
0
  6
CONTINUOUS
 62
     3
 10
447.75
 20
351.9
 11
447.75
 21
350.4
  0
LINE
  8
0
  6
CONTINUOUS
 62
     3
 10
459.25
 20
347.56
 11
459.25
 21
349.06
  0
LINE
  8
0
  6
CONTINUOUS
 62
     3
 10
459.25
 20
349.06
 11
460.75
 21
349.06
  0
LINE
  8
0
  6
CONTINUOUS
 62
     3
 10
460.75
 20
349.06
 11
460.75
 21
350.06
  0
LINE
  8
0
  6
CONTINUOUS
 62
     3
 10
460.75
 20
350.06
 11
459.25
 21
350.06
  0
LINE
  8
0
  6
CONTINUOUS
 62
     3
 10
459.25
 20
350.06
 11
459.25
 21
351.56
  0
LINE
  8
0
  6
CONTINUOUS
 62
     3
 10
459.25
 20
351.56
 11
458.25
 21
351.56
  0
LINE
  8
0
  6
CONTINUOUS
 62
     3
 10
458.25
 20
351.56
 11
458.25
 21
350.06
  0
LINE
  8
0
  6
CONTINUOUS
 62
     3
 10
458.25
 20
350.06
 11
456.75
 21
350.06
  0
LINE
  8
0
  6
CONTINUOUS
 62
     3
 10
456.75
 20
350.06
 11
456.75
 21
349.06
  0
LINE
  8
0
  6
CONTINUOUS
 62
     3
 10
456.75
 20
349.06
 11
458.25
 21
349.06
  0
LINE
  8
0
  6
CONTINUOUS
 62
     3
 10
458.25
 20
347.56
 11
459.25
 21
347.56
  0
LINE
  8
0
  6
CONTINUOUS
 62
     3
 10
458.25
 20
347.56
 11
458.25
 21
349.06
  0
CIRCLE
  8
0
  6
CONTINUOUS
 62
     3
 10
458.75
 20
349.81
 40
3.0
  0
CIRCLE
  8
0
  6
CONTINUOUS
 62
     3
 10
471.75
 20
349.9
 40
3.0
  0
LINE
  8
0
  6
CONTINUOUS
 62
     3
 10
472.25
 20
347.9
 11
472.25
 21
349.4
  0
LINE
  8
0
  6
CONTINUOUS
 62
     3
 10
472.25
 20
349.4
 11
473.75
 21
349.4
  0
LINE
  8
0
  6
CONTINUOUS
 62
     3
 10
473.75
 20
349.4
 11
473.75
 21
350.4
  0
LINE
  8
0
  6
CONTINUOUS
 62
     3
 10
473.75
 20
350.4
 11
472.25
 21
350.4
  0
LINE
  8
0
  6
CONTINUOUS
 62
     3
 10
472.25
 20
350.4
 11
472.25
 21
351.9
  0
LINE
  8
0
  6
CONTINUOUS
 62
     3
 10
471.25
 20
351.9
 11
471.25
 21
350.4
  0
LINE
  8
0
  6
CONTINUOUS
 62
     3
 10
471.25
 20
350.4
 11
469.75
 21
350.4
  0
LINE
  8
0
  6
CONTINUOUS
 62
     3
 10
469.75
 20
350.4
 11
469.75
 21
349.4
  0
LINE
  8
0
  6
CONTINUOUS
 62
     3
 10
469.75
 20
349.4
 11
471.25
 21
349.4
  0
LINE
  8
0
  6
CONTINUOUS
 62
     3
 10
471.25
 20
347.9
 11
472.25
 21
347.9
  0
LINE
  8
0
  6
CONTINUOUS
 62
     3
 10
471.25
 20
347.9
 11
471.25
 21
349.4
  0
LINE
  8
0
  6
CONTINUOUS
 62
     3
 10
472.25
 20
351.9
 11
471.25
 21
351.9
  0
LINE
  8
0
  6
CONTINUOUS
 62
     3
 10
502.0
 20
267.9
 11
502.0
 21
266.4
  0
LINE
  8
0
  6
CONTINUOUS
 62
     3
 10
502.0
 20
266.4
 11
503.5
 21
266.4
  0
LINE
  8
0
  6
CONTINUOUS
 62
     3
 10
503.5
 20
266.4
 11
503.5
 21
265.4
  0
LINE
  8
0
  6
CONTINUOUS
 62
     3
 10
503.5
 20
265.4
 11
502.0
 21
265.4
  0
LINE
  8
0
  6
CONTINUOUS
 62
     3
 10
502.0
 20
265.4
 11
502.0
 21
263.9
  0
LINE
  8
0
  6
CONTINUOUS
 62
     3
 10
502.0
 20
263.9
 11
501.0
 21
263.9
  0
LINE
  8
0
  6
CONTINUOUS
 62
     3
 10
501.0
 20
263.9
 11
501.0
 21
265.4
  0
LINE
  8
0
  6
CONTINUOUS
 62
     3
 10
501.0
 20
265.4
 11
499.5
 21
265.4
  0
LINE
  8
0
  6
CONTINUOUS
 62
     3
 10
499.5
 20
265.4
 11
499.5
 21
266.4
  0
LINE
  8
0
  6
CONTINUOUS
 62
     3
 10
499.5
 20
266.4
 11
501.0
 21
266.4
  0
LINE
  8
0
  6
CONTINUOUS
 62
     3
 10
501.0
 20
267.9
 11
502.0
 21
267.9
  0
LINE
  8
0
  6
CONTINUOUS
 62
     3
 10
501.0
 20
267.9
 11
501.0
 21
266.4
  0
LINE
  8
0
  6
CONTINUOUS
 62
     3
 10
485.0
 20
262.65
 11
485.0
 21
268.15
  0
CIRCLE
  8
0
  6
CONTINUOUS
 62
     3
 10
485.0
 20
265.15
 40
3.0
  0
LINE
  8
0
  6
CONTINUOUS
 62
     3
 10
483.0
 20
265.65
 11
484.5
 21
265.65
  0
LINE
  8
0
  6
CONTINUOUS
 62
     3
 10
484.5
 20
265.65
 11
484.5
 21
267.15
  0
LINE
  8
0
  6
CONTINUOUS
 62
     3
 10
484.5
 20
267.15
 11
485.5
 21
267.15
  0
LINE
  8
0
  6
CONTINUOUS
 62
     3
 10
485.5
 20
267.15
 11
485.5
 21
265.65
  0
LINE
  8
0
  6
CONTINUOUS
 62
     3
 10
485.5
 20
265.65
 11
487.0
 21
265.65
  0
LINE
  8
0
  6
CONTINUOUS
 62
     3
 10
487.0
 20
265.65
 11
487.0
 21
264.65
  0
LINE
  8
0
  6
CONTINUOUS
 62
     3
 10
487.0
 20
264.65
 11
485.5
 21
264.65
  0
LINE
  8
0
  6
CONTINUOUS
 62
     3
 10
485.5
 20
264.65
 11
485.5
 21
263.15
  0
LINE
  8
0
  6
CONTINUOUS
 62
     3
 10
485.5
 20
263.15
 11
484.5
 21
263.15
  0
LINE
  8
0
  6
CONTINUOUS
 62
     3
 10
484.5
 20
263.15
 11
484.5
 21
264.65
  0
LINE
  8
0
  6
CONTINUOUS
 62
     3
 10
483.0
 20
264.65
 11
483.0
 21
265.65
  0
LINE
  8
0
  6
CONTINUOUS
 62
     3
 10
483.0
 20
264.65
 11
484.5
 21
264.65
  0
LINE
  8
0
  6
CONTINUOUS
 62
     3
 10
472.25
 20
263.9
 11
472.25
 21
265.4
  0
LINE
  8
0
  6
CONTINUOUS
 62
     3
 10
472.25
 20
265.4
 11
473.75
 21
265.4
  0
LINE
  8
0
  6
CONTINUOUS
 62
     3
 10
473.75
 20
265.4
 11
473.75
 21
266.4
  0
LINE
  8
0
  6
CONTINUOUS
 62
     3
 10
473.75
 20
266.4
 11
472.25
 21
266.4
  0
LINE
  8
0
  6
CONTINUOUS
 62
     3
 10
472.25
 20
266.4
 11
472.25
 21
267.9
  0
LINE
  8
0
  6
CONTINUOUS
 62
     3
 10
472.25
 20
267.9
 11
471.25
 21
267.9
  0
LINE
  8
0
  6
CONTINUOUS
 62
     3
 10
471.25
 20
267.9
 11
471.25
 21
266.4
  0
LINE
  8
0
  6
CONTINUOUS
 62
     3
 10
471.25
 20
266.4
 11
469.75
 21
266.4
  0
LINE
  8
0
  6
CONTINUOUS
 62
     3
 10
469.75
 20
266.4
 11
469.75
 21
265.4
  0
LINE
  8
0
  6
CONTINUOUS
 62
     3
 10
469.75
 20
265.4
 11
471.25
 21
265.4
  0
LINE
  8
0
  6
CONTINUOUS
 62
     3
 10
471.25
 20
263.9
 11
472.25
 21
263.9
  0
LINE
  8
0
  6
CONTINUOUS
 62
     3
 10
471.25
 20
263.9
 11
471.25
 21
265.4
  0
CIRCLE
  8
0
  6
CONTINUOUS
 62
     1
 10
474.675
 20
294.37
 40
1.0
  0
CIRCLE
  8
0
  6
CONTINUOUS
 62
     1
 10
474.675
 20
294.37
 40
1.6
  0
LINE
  8
0
  6
CONTINUOUS
 62
     3
 10
434.0
 20
353.15
 11
434.0
 21
347.917691454
  0
ARC
  8
0
  6
CONTINUOUS
 62
     3
 10
434.0
 20
350.65
 40
3.0
 50
90.0
 51
245.611910394
  0
LINE
  8
0
  6
CONTINUOUS
 62
     3
 10
436.0
 20
350.15
 11
434.5
 21
350.15
  0
LINE
  8
0
  6
CONTINUOUS
 62
     3
 10
434.5
 20
350.15
 11
434.5
 21
348.65
  0
LINE
  8
0
  6
CONTINUOUS
 62
     3
 10
434.5
 20
348.65
 11
433.5
 21
348.65
  0
LINE
  8
0
  6
CONTINUOUS
 62
     3
 10
433.5
 20
348.65
 11
433.5
 21
350.15
  0
LINE
  8
0
  6
CONTINUOUS
 62
     3
 10
433.5
 20
350.15
 11
432.0
 21
350.15
  0
LINE
  8
0
  6
CONTINUOUS
 62
     3
 10
432.0
 20
350.15
 11
432.0
 21
351.15
  0
LINE
  8
0
  6
CONTINUOUS
 62
     3
 10
432.0
 20
351.15
 11
433.5
 21
351.15
  0
LINE
  8
0
  6
CONTINUOUS
 62
     3
 10
433.5
 20
351.15
 11
433.5
 21
352.65
  0
LINE
  8
0
  6
CONTINUOUS
 62
     3
 10
433.5
 20
352.65
 11
434.5
 21
352.65
  0
LINE
  8
0
  6
CONTINUOUS
 62
     3
 10
434.5
 20
352.65
 11
434.5
 21
351.15
  0
LINE
  8
0
  6
CONTINUOUS
 62
     3
 10
436.0
 20
351.15
 11
436.0
 21
350.15
  0
LINE
  8
0
  6
CONTINUOUS
 62
     3
 10
436.0
 20
351.15
 11
434.5
 21
351.15
  0
ARC
  8
0
  6
CONTINUOUS
 62
     3
 10
434.0
 20
350.65
 40
3.0
 50
245.611910394
 51
90.0
  0
LINE
  8
0
  6
CONTINUOUS
 62
     3
 10
465.25
 20
270.41
 11
452.75
 21
270.41
  0
CIRCLE
  8
0
  6
CONTINUOUS
 62
     3
 10
458.75
 20
265.99
 40
3.0
  0
CIRCLE
  8
0
  6
CONTINUOUS
 62
     3
 10
458.75
 20
273.61
 40
3.0
  0
LINE
  8
0
  6
CONTINUOUS
 62
     3
 10
459.25
 20
274.11
 11
460.75
 21
274.11
  0
LINE
  8
0
  6
CONTINUOUS
 62
     3
 10
460.75
 20
274.11
 11
460.75
 21
273.11
  0
LINE
  8
0
  6
CONTINUOUS
 62
     3
 10
460.75
 20
273.11
 11
459.25
 21
273.11
  0
LINE
  8
0
  6
CONTINUOUS
 62
     3
 10
459.25
 20
273.11
 11
459.25
 21
271.61
  0
LINE
  8
0
  6
CONTINUOUS
 62
     3
 10
458.25
 20
271.61
 11
458.25
 21
273.11
  0
LINE
  8
0
  6
CONTINUOUS
 62
     3
 10
459.25
 20
271.61
 11
458.25
 21
271.61
  0
LINE
  8
0
  6
CONTINUOUS
 62
     3
 10
458.25
 20
273.11
 11
456.75
 21
273.11
  0
LINE
  8
0
  6
CONTINUOUS
 62
     3
 10
459.25
 20
275.61
 11
459.25
 21
274.11
  0
LINE
  8
0
  6
CONTINUOUS
 62
     3
 10
458.25
 20
275.61
 11
458.25
 21
274.11
  0
LINE
  8
0
  6
CONTINUOUS
 62
     3
 10
458.25
 20
275.61
 11
459.25
 21
275.61
  0
LINE
  8
0
  6
CONTINUOUS
 62
     3
 10
456.75
 20
274.11
 11
458.25
 21
274.11
  0
LINE
  8
0
  6
CONTINUOUS
 62
     3
 10
456.75
 20
273.11
 11
456.75
 21
274.11
  0
LINE
  8
0
  6
CONTINUOUS
 62
     3
 10
465.25
 20
278.03
 11
452.75
 21
278.03
  0
LINE
  8
0
  6
CONTINUOUS
 62
     3
 10
465.25
 20
276.81
 11
452.75
 21
276.81
  0
LINE
  8
0
  6
CONTINUOUS
 62
     3
 10
463.95
 20
270.41
 11
463.95
 21
276.81
  0
CIRCLE
  8
0
  6
CONTINUOUS
 62
     3
 10
458.75
 20
281.23
 40
3.0
  0
LINE
  8
0
  6
CONTINUOUS
 62
     3
 10
459.25
 20
280.73
 11
459.25
 21
279.23
  0
LINE
  8
0
  6
CONTINUOUS
 62
     3
 10
458.25
 20
279.23
 11
458.25
 21
280.73
  0
LINE
  8
0
  6
CONTINUOUS
 62
     3
 10
459.25
 20
279.23
 11
458.25
 21
279.23
  0
LINE
  8
0
  6
CONTINUOUS
 62
     3
 10
459.25
 20
281.73
 11
460.75
 21
281.73
  0
LINE
  8
0
  6
CONTINUOUS
 62
     3
 10
460.75
 20
281.73
 11
460.75
 21
280.73
  0
LINE
  8
0
  6
CONTINUOUS
 62
     3
 10
460.75
 20
280.73
 11
459.25
 21
280.73
  0
LINE
  8
0
  6
CONTINUOUS
 62
     3
 10
458.25
 20
280.73
 11
456.75
 21
280.73
  0
LINE
  8
0
  6
CONTINUOUS
 62
     3
 10
456.75
 20
280.73
 11
456.75
 21
281.73
  0
LINE
  8
0
  6
CONTINUOUS
 62
     3
 10
456.75
 20
281.73
 11
458.25
 21
281.73
  0
LINE
  8
0
  6
CONTINUOUS
 62
     3
 10
459.25
 20
283.23
 11
459.25
 21
281.73
  0
LINE
  8
0
  6
CONTINUOUS
 62
     3
 10
458.25
 20
283.23
 11
458.25
 21
281.73
  0
LINE
  8
0
  6
CONTINUOUS
 62
     3
 10
458.25
 20
283.23
 11
459.25
 21
283.23
  0
LINE
  8
0
  6
CONTINUOUS
 62
     3
 10
463.95
 20
285.65
 11
463.95
 21
292.05
  0
LINE
  8
0
  6
CONTINUOUS
 62
     3
 10
465.25
 20
285.65
 11
452.75
 21
285.65
  0
LINE
  8
0
  6
CONTINUOUS
 62
     3
 10
465.25
 20
284.43
 11
452.75
 21
284.43
  0
LINE
  8
0
  6
CONTINUOUS
 62
     3
 10
463.95
 20
278.03
 11
463.95
 21
284.43
  0
CIRCLE
  8
0
  6
CONTINUOUS
 62
     3
 10
458.75
 20
288.85
 40
3.0
  0
LINE
  8
0
  6
CONTINUOUS
 62
     3
 10
459.25
 20
289.35
 11
460.75
 21
289.35
  0
LINE
  8
0
  6
CONTINUOUS
 62
     3
 10
460.75
 20
289.35
 11
460.75
 21
288.35
  0
LINE
  8
0
  6
CONTINUOUS
 62
     3
 10
460.75
 20
288.35
 11
459.25
 21
288.35
  0
LINE
  8
0
  6
CONTINUOUS
 62
     3
 10
459.25
 20
288.35
 11
459.25
 21
286.85
  0
LINE
  8
0
  6
CONTINUOUS
 62
     3
 10
458.25
 20
286.85
 11
458.25
 21
288.35
  0
LINE
  8
0
  6
CONTINUOUS
 62
     3
 10
459.25
 20
286.85
 11
458.25
 21
286.85
  0
LINE
  8
0
  6
CONTINUOUS
 62
     3
 10
458.25
 20
288.35
 11
456.75
 21
288.35
  0
LINE
  8
0
  6
CONTINUOUS
 62
     3
 10
456.75
 20
288.35
 11
456.75
 21
289.35
  0
LINE
  8
0
  6
CONTINUOUS
 62
     3
 10
456.75
 20
289.35
 11
458.25
 21
289.35
  0
LINE
  8
0
  6
CONTINUOUS
 62
     3
 10
459.25
 20
290.85
 11
459.25
 21
289.35
  0
LINE
  8
0
  6
CONTINUOUS
 62
     3
 10
458.25
 20
290.85
 11
458.25
 21
289.35
  0
LINE
  8
0
  6
CONTINUOUS
 62
     3
 10
458.25
 20
290.85
 11
459.25
 21
290.85
  0
LINE
  8
0
  6
CONTINUOUS
 62
     3
 10
465.25
 20
293.27
 11
452.75
 21
293.27
  0
LINE
  8
0
  6
CONTINUOUS
 62
     3
 10
465.25
 20
292.05
 11
452.75
 21
292.05
  0
LINE
  8
0
  6
CONTINUOUS
 62
     3
 10
465.25
 20
300.89
 11
452.75
 21
300.89
  0
LINE
  8
0
  6
CONTINUOUS
 62
     3
 10
465.25
 20
299.67
 11
452.75
 21
299.67
  0
LINE
  8
0
  6
CONTINUOUS
 62
     3
 10
463.95
 20
300.89
 11
463.95
 21
307.29
  0
LINE
  8
0
  6
CONTINUOUS
 62
     3
 10
463.95
 20
293.27
 11
463.95
 21
299.67
  0
CIRCLE
  8
0
  6
CONTINUOUS
 62
     3
 10
458.75
 20
296.47
 40
3.0
  0
LINE
  8
0
  6
CONTINUOUS
 62
     3
 10
460.75
 20
295.97
 11
459.25
 21
295.97
  0
LINE
  8
0
  6
CONTINUOUS
 62
     3
 10
459.25
 20
295.97
 11
459.25
 21
294.47
  0
LINE
  8
0
  6
CONTINUOUS
 62
     3
 10
458.25
 20
294.47
 11
458.25
 21
295.97
  0
LINE
  8
0
  6
CONTINUOUS
 62
     3
 10
459.25
 20
294.47
 11
458.25
 21
294.47
  0
LINE
  8
0
  6
CONTINUOUS
 62
     3
 10
458.25
 20
295.97
 11
456.75
 21
295.97
  0
LINE
  8
0
  6
CONTINUOUS
 62
     3
 10
456.75
 20
295.97
 11
456.75
 21
296.97
  0
LINE
  8
0
  6
CONTINUOUS
 62
     3
 10
456.75
 20
296.97
 11
458.25
 21
296.97
  0
LINE
  8
0
  6
CONTINUOUS
 62
     3
 10
459.25
 20
298.47
 11
459.25
 21
296.97
  0
LINE
  8
0
  6
CONTINUOUS
 62
     3
 10
458.25
 20
298.47
 11
459.25
 21
298.47
  0
LINE
  8
0
  6
CONTINUOUS
 62
     3
 10
458.25
 20
298.47
 11
458.25
 21
296.97
  0
LINE
  8
0
  6
CONTINUOUS
 62
     3
 10
459.25
 20
296.97
 11
460.75
 21
296.97
  0
LINE
  8
0
  6
CONTINUOUS
 62
     3
 10
460.75
 20
296.97
 11
460.75
 21
295.97
  0
LINE
  8
0
  6
CONTINUOUS
 62
     3
 10
465.25
 20
307.29
 11
452.75
 21
307.29
  0
LINE
  8
0
  6
CONTINUOUS
 62
     3
 10
465.25
 20
308.51
 11
452.75
 21
308.51
  0
LINE
  8
0
  6
CONTINUOUS
 62
     3
 10
463.95
 20
322.53
 11
463.95
 21
316.13
  0
LINE
  8
0
  6
CONTINUOUS
 62
     3
 10
463.95
 20
314.91
 11
463.95
 21
308.51
  0
LINE
  8
0
  6
CONTINUOUS
 62
     3
 10
465.25
 20
314.91
 11
452.75
 21
314.91
  0
LINE
  8
0
  6
CONTINUOUS
 62
     3
 10
465.25
 20
316.13
 11
452.75
 21
316.13
  0
CIRCLE
  8
0
  6
CONTINUOUS
 62
     3
 10
458.75
 20
311.71
 40
3.0
  0
LINE
  8
0
  6
CONTINUOUS
 62
     3
 10
460.75
 20
304.59
 11
460.75
 21
303.59
  0
LINE
  8
0
  6
CONTINUOUS
 62
     3
 10
460.75
 20
303.59
 11
459.25
 21
303.59
  0
CIRCLE
  8
0
  6
CONTINUOUS
 62
     3
 10
458.75
 20
304.09
 40
3.0
  0
LINE
  8
0
  6
CONTINUOUS
 62
     3
 10
459.25
 20
304.59
 11
460.75
 21
304.59
  0
LINE
  8
0
  6
CONTINUOUS
 62
     3
 10
459.25
 20
303.59
 11
459.25
 21
302.09
  0
LINE
  8
0
  6
CONTINUOUS
 62
     3
 10
458.25
 20
302.09
 11
458.25
 21
303.59
  0
LINE
  8
0
  6
CONTINUOUS
 62
     3
 10
459.25
 20
302.09
 11
458.25
 21
302.09
  0
LINE
  8
0
  6
CONTINUOUS
 62
     3
 10
458.25
 20
303.59
 11
456.75
 21
303.59
  0
LINE
  8
0
  6
CONTINUOUS
 62
     3
 10
456.75
 20
303.59
 11
456.75
 21
304.59
  0
LINE
  8
0
  6
CONTINUOUS
 62
     3
 10
456.75
 20
304.59
 11
458.25
 21
304.59
  0
LINE
  8
0
  6
CONTINUOUS
 62
     3
 10
459.25
 20
306.09
 11
459.25
 21
304.59
  0
LINE
  8
0
  6
CONTINUOUS
 62
     3
 10
458.25
 20
306.09
 11
458.25
 21
304.59
  0
LINE
  8
0
  6
CONTINUOUS
 62
     3
 10
458.25
 20
306.09
 11
459.25
 21
306.09
  0
LINE
  8
0
  6
CONTINUOUS
 62
     3
 10
458.25
 20
312.21
 11
456.75
 21
312.21
  0
LINE
  8
0
  6
CONTINUOUS
 62
     3
 10
456.75
 20
312.21
 11
456.75
 21
311.21
  0
LINE
  8
0
  6
CONTINUOUS
 62
     3
 10
456.75
 20
311.21
 11
458.25
 21
311.21
  0
LINE
  8
0
  6
CONTINUOUS
 62
     3
 10
459.25
 20
309.71
 11
459.25
 21
311.21
  0
LINE
  8
0
  6
CONTINUOUS
 62
     3
 10
458.25
 20
309.71
 11
458.25
 21
311.21
  0
LINE
  8
0
  6
CONTINUOUS
 62
     3
 10
458.25
 20
309.71
 11
459.25
 21
309.71
  0
LINE
  8
0
  6
CONTINUOUS
 62
     3
 10
459.25
 20
311.21
 11
460.75
 21
311.21
  0
LINE
  8
0
  6
CONTINUOUS
 62
     3
 10
460.75
 20
312.21
 11
459.25
 21
312.21
  0
LINE
  8
0
  6
CONTINUOUS
 62
     3
 10
460.75
 20
311.21
 11
460.75
 21
312.21
  0
LINE
  8
0
  6
CONTINUOUS
 62
     3
 10
459.25
 20
312.21
 11
459.25
 21
313.71
  0
LINE
  8
0
  6
CONTINUOUS
 62
     3
 10
458.25
 20
313.71
 11
458.25
 21
312.21
  0
LINE
  8
0
  6
CONTINUOUS
 62
     3
 10
459.25
 20
313.71
 11
458.25
 21
313.71
  0
LINE
  8
0
  6
CONTINUOUS
 62
     3
 10
456.75
 20
319.83
 11
456.75
 21
318.83
  0
LINE
  8
0
  6
CONTINUOUS
 62
     3
 10
458.25
 20
319.83
 11
456.75
 21
319.83
  0
LINE
  8
0
  6
CONTINUOUS
 62
     3
 10
456.75
 20
318.83
 11
458.25
 21
318.83
  0
CIRCLE
  8
0
  6
CONTINUOUS
 62
     3
 10
458.75
 20
319.33
 40
3.0
  0
LINE
  8
0
  6
CONTINUOUS
 62
     3
 10
459.25
 20
318.83
 11
460.75
 21
318.83
  0
LINE
  8
0
  6
CONTINUOUS
 62
     3
 10
460.75
 20
318.83
 11
460.75
 21
319.83
  0
LINE
  8
0
  6
CONTINUOUS
 62
     3
 10
460.75
 20
319.83
 11
459.25
 21
319.83
  0
LINE
  8
0
  6
CONTINUOUS
 62
     3
 10
459.25
 20
317.33
 11
459.25
 21
318.83
  0
LINE
  8
0
  6
CONTINUOUS
 62
     3
 10
458.25
 20
317.33
 11
458.25
 21
318.83
  0
LINE
  8
0
  6
CONTINUOUS
 62
     3
 10
458.25
 20
317.33
 11
459.25
 21
317.33
  0
LINE
  8
0
  6
CONTINUOUS
 62
     3
 10
458.25
 20
321.33
 11
458.25
 21
319.83
  0
LINE
  8
0
  6
CONTINUOUS
 62
     3
 10
459.25
 20
319.83
 11
459.25
 21
321.33
  0
LINE
  8
0
  6
CONTINUOUS
 62
     3
 10
459.25
 20
321.33
 11
458.25
 21
321.33
  0
LINE
  8
0
  6
CONTINUOUS
 62
     3
 10
465.25
 20
322.53
 11
452.75
 21
322.53
  0
LINE
  8
0
  6
CONTINUOUS
 62
     3
 10
465.25
 20
323.75
 11
452.75
 21
323.75
  0
LINE
  8
0
  6
CONTINUOUS
 62
     3
 10
463.95
 20
330.15
 11
463.95
 21
323.75
  0
CIRCLE
  8
0
  6
CONTINUOUS
 62
     3
 10
458.75
 20
326.95
 40
3.0
  0
LINE
  8
0
  6
CONTINUOUS
 62
     3
 10
458.25
 20
324.95
 11
458.25
 21
326.45
  0
LINE
  8
0
  6
CONTINUOUS
 62
     3
 10
458.25
 20
324.95
 11
459.25
 21
324.95
  0
LINE
  8
0
  6
CONTINUOUS
 62
     3
 10
458.25
 20
327.45
 11
456.75
 21
327.45
  0
LINE
  8
0
  6
CONTINUOUS
 62
     3
 10
456.75
 20
327.45
 11
456.75
 21
326.45
  0
LINE
  8
0
  6
CONTINUOUS
 62
     3
 10
456.75
 20
326.45
 11
458.25
 21
326.45
  0
LINE
  8
0
  6
CONTINUOUS
 62
     3
 10
459.25
 20
326.45
 11
460.75
 21
326.45
  0
LINE
  8
0
  6
CONTINUOUS
 62
     3
 10
460.75
 20
326.45
 11
460.75
 21
327.45
  0
LINE
  8
0
  6
CONTINUOUS
 62
     3
 10
460.75
 20
327.45
 11
459.25
 21
327.45
  0
LINE
  8
0
  6
CONTINUOUS
 62
     3
 10
459.25
 20
327.45
 11
459.25
 21
328.95
  0
LINE
  8
0
  6
CONTINUOUS
 62
     3
 10
458.25
 20
328.95
 11
458.25
 21
327.45
  0
LINE
  8
0
  6
CONTINUOUS
 62
     3
 10
459.25
 20
328.95
 11
458.25
 21
328.95
  0
LINE
  8
0
  6
CONTINUOUS
 62
     3
 10
465.25
 20
330.15
 11
452.75
 21
330.15
  0
LINE
  8
0
  6
CONTINUOUS
 62
     3
 10
465.25
 20
331.37
 11
452.75
 21
331.37
  0
CIRCLE
  8
0
  6
CONTINUOUS
 62
     3
 10
458.75
 20
334.57
 40
3.0
  0
LINE
  8
0
  6
CONTINUOUS
 62
     3
 10
459.25
 20
332.57
 11
459.25
 21
334.07
  0
LINE
  8
0
  6
CONTINUOUS
 62
     3
 10
459.25
 20
334.07
 11
460.75
 21
334.07
  0
LINE
  8
0
  6
CONTINUOUS
 62
     3
 10
460.75
 20
334.07
 11
460.75
 21
335.07
  0
LINE
  8
0
  6
CONTINUOUS
 62
     3
 10
460.75
 20
335.07
 11
459.25
 21
335.07
  0
LINE
  8
0
  6
CONTINUOUS
 62
     3
 10
458.25
 20
332.57
 11
458.25
 21
334.07
  0
LINE
  8
0
  6
CONTINUOUS
 62
     3
 10
458.25
 20
332.57
 11
459.25
 21
332.57
  0
LINE
  8
0
  6
CONTINUOUS
 62
     3
 10
458.25
 20
335.07
 11
456.75
 21
335.07
  0
LINE
  8
0
  6
CONTINUOUS
 62
     3
 10
456.75
 20
335.07
 11
456.75
 21
334.07
  0
LINE
  8
0
  6
CONTINUOUS
 62
     3
 10
456.75
 20
334.07
 11
458.25
 21
334.07
  0
LINE
  8
0
  6
CONTINUOUS
 62
     3
 10
458.25
 20
336.57
 11
458.25
 21
335.07
  0
LINE
  8
0
  6
CONTINUOUS
 62
     3
 10
459.25
 20
335.07
 11
459.25
 21
336.57
  0
LINE
  8
0
  6
CONTINUOUS
 62
     3
 10
459.25
 20
336.57
 11
458.25
 21
336.57
  0
LINE
  8
0
  6
CONTINUOUS
 62
     3
 10
463.95
 20
345.39
 11
463.95
 21
338.99
  0
LINE
  8
0
  6
CONTINUOUS
 62
     3
 10
465.25
 20
337.77
 11
452.75
 21
337.77
  0
LINE
  8
0
  6
CONTINUOUS
 62
     3
 10
465.25
 20
338.99
 11
452.75
 21
338.99
  0
LINE
  8
0
  6
CONTINUOUS
 62
     3
 10
463.95
 20
337.77
 11
463.95
 21
331.37
  0
CIRCLE
  8
0
  6
CONTINUOUS
 62
     3
 10
458.75
 20
342.19
 40
3.0
  0
LINE
  8
0
  6
CONTINUOUS
 62
     3
 10
460.75
 20
341.69
 11
460.75
 21
342.69
  0
LINE
  8
0
  6
CONTINUOUS
 62
     3
 10
459.25
 20
341.69
 11
460.75
 21
341.69
  0
LINE
  8
0
  6
CONTINUOUS
 62
     3
 10
460.75
 20
342.69
 11
459.25
 21
342.69
  0
LINE
  8
0
  6
CONTINUOUS
 62
     3
 10
459.25
 20
340.19
 11
459.25
 21
341.69
  0
LINE
  8
0
  6
CONTINUOUS
 62
     3
 10
458.25
 20
340.19
 11
458.25
 21
341.69
  0
LINE
  8
0
  6
CONTINUOUS
 62
     3
 10
458.25
 20
340.19
 11
459.25
 21
340.19
  0
LINE
  8
0
  6
CONTINUOUS
 62
     3
 10
458.25
 20
342.69
 11
456.75
 21
342.69
  0
LINE
  8
0
  6
CONTINUOUS
 62
     3
 10
456.75
 20
342.69
 11
456.75
 21
341.69
  0
LINE
  8
0
  6
CONTINUOUS
 62
     3
 10
456.75
 20
341.69
 11
458.25
 21
341.69
  0
LINE
  8
0
  6
CONTINUOUS
 62
     3
 10
459.25
 20
342.69
 11
459.25
 21
344.19
  0
LINE
  8
0
  6
CONTINUOUS
 62
     3
 10
458.25
 20
344.19
 11
458.25
 21
342.69
  0
LINE
  8
0
  6
CONTINUOUS
 62
     3
 10
459.25
 20
344.19
 11
458.25
 21
344.19
  0
LINE
  8
0
  6
CONTINUOUS
 62
     3
 10
465.25
 20
345.39
 11
452.75
 21
345.39
  0
LINE
  8
0
  6
CONTINUOUS
 62
     3
 10
502.0
 20
347.9
 11
502.0
 21
349.4
  0
LINE
  8
0
  6
CONTINUOUS
 62
     3
 10
502.0
 20
349.4
 11
503.5
 21
349.4
  0
LINE
  8
0
  6
CONTINUOUS
 62
     3
 10
503.5
 20
349.4
 11
503.5
 21
350.4
  0
LINE
  8
0
  6
CONTINUOUS
 62
     3
 10
503.5
 20
350.4
 11
502.0
 21
350.4
  0
LINE
  8
0
  6
CONTINUOUS
 62
     3
 10
502.0
 20
350.4
 11
502.0
 21
351.9
  0
LINE
  8
0
  6
CONTINUOUS
 62
     3
 10
502.0
 20
351.9
 11
501.0
 21
351.9
  0
LINE
  8
0
  6
CONTINUOUS
 62
     3
 10
501.0
 20
351.9
 11
501.0
 21
350.4
  0
LINE
  8
0
  6
CONTINUOUS
 62
     3
 10
501.0
 20
350.4
 11
499.5
 21
350.4
  0
LINE
  8
0
  6
CONTINUOUS
 62
     3
 10
499.5
 20
350.4
 11
499.5
 21
349.4
  0
LINE
  8
0
  6
CONTINUOUS
 62
     3
 10
499.5
 20
349.4
 11
501.0
 21
349.4
  0
LINE
  8
0
  6
CONTINUOUS
 62
     3
 10
501.0
 20
347.9
 11
502.0
 21
347.9
  0
LINE
  8
0
  6
CONTINUOUS
 62
     3
 10
501.0
 20
347.9
 11
501.0
 21
349.4
  0
LINE
  8
0
  6
CONTINUOUS
 62
     3
 10
505.1
 20
345.27
 11
505.1
 21
307.9
  0
ARC
  8
0
  6
CONTINUOUS
 62
     3
 10
414.9
 20
263.3
 40
1.0
 50
180.0
 51
270.0
  0
CIRCLE
  8
0
  6
CONTINUOUS
 62
     3
 10
417.5
 20
265.9
 40
3.0
  0
LINE
  8
0
  6
CONTINUOUS
 62
     3
 10
417.0
 20
267.9
 11
417.0
 21
266.4
  0
LINE
  8
0
  6
CONTINUOUS
 62
     3
 10
417.0
 20
266.4
 11
415.5
 21
266.4
  0
LINE
  8
0
  6
CONTINUOUS
 62
     3
 10
415.5
 20
266.4
 11
415.5
 21
265.4
  0
LINE
  8
0
  6
CONTINUOUS
 62
     3
 10
415.5
 20
265.4
 11
417.0
 21
265.4
  0
LINE
  8
0
  6
CONTINUOUS
 62
     3
 10
417.0
 20
265.4
 11
417.0
 21
263.9
  0
LINE
  8
0
  6
CONTINUOUS
 62
     3
 10
417.0
 20
263.9
 11
418.0
 21
263.9
  0
LINE
  8
0
  6
CONTINUOUS
 62
     3
 10
418.0
 20
263.9
 11
418.0
 21
265.4
  0
LINE
  8
0
  6
CONTINUOUS
 62
     3
 10
418.0
 20
265.4
 11
419.5
 21
265.4
  0
LINE
  8
0
  6
CONTINUOUS
 62
     3
 10
419.5
 20
265.4
 11
419.5
 21
266.4
  0
LINE
  8
0
  6
CONTINUOUS
 62
     3
 10
419.5
 20
266.4
 11
418.0
 21
266.4
  0
LINE
  8
0
  6
CONTINUOUS
 62
     3
 10
418.0
 20
267.9
 11
417.0
 21
267.9
  0
LINE
  8
0
  6
CONTINUOUS
 62
     3
 10
418.0
 20
267.9
 11
418.0
 21
266.4
  0
LINE
  8
0
  6
CONTINUOUS
 62
     3
 10
413.9
 20
307.9
 11
413.9
 21
263.3
  0
LINE
  8
0
  6
CONTINUOUS
 62
     3
 10
417.0
 20
347.9
 11
417.0
 21
349.4
  0
LINE
  8
0
  6
CONTINUOUS
 62
     3
 10
417.0
 20
349.4
 11
415.5
 21
349.4
  0
LINE
  8
0
  6
CONTINUOUS
 62
     3
 10
415.5
 20
349.4
 11
415.5
 21
350.4
  0
LINE
  8
0
  6
CONTINUOUS
 62
     3
 10
415.5
 20
350.4
 11
417.0
 21
350.4
  0
LINE
  8
0
  6
CONTINUOUS
 62
     3
 10
417.0
 20
350.4
 11
417.0
 21
351.9
  0
LINE
  8
0
  6
CONTINUOUS
 62
     3
 10
417.0
 20
351.9
 11
418.0
 21
351.9
  0
LINE
  8
0
  6
CONTINUOUS
 62
     3
 10
418.0
 20
351.9
 11
418.0
 21
350.4
  0
LINE
  8
0
  6
CONTINUOUS
 62
     3
 10
418.0
 20
350.4
 11
419.5
 21
350.4
  0
LINE
  8
0
  6
CONTINUOUS
 62
     3
 10
419.5
 20
350.4
 11
419.5
 21
349.4
  0
LINE
  8
0
  6
CONTINUOUS
 62
     3
 10
419.5
 20
349.4
 11
418.0
 21
349.4
  0
LINE
  8
0
  6
CONTINUOUS
 62
     3
 10
418.0
 20
347.9
 11
417.0
 21
347.9
  0
LINE
  8
0
  6
CONTINUOUS
 62
     3
 10
418.0
 20
347.9
 11
418.0
 21
349.4
  0
LINE
  8
0
  6
CONTINUOUS
 62
     3
 10
413.9
 20
345.27
 11
413.9
 21
307.9
  0
LINE
  8
0
  6
CONTINUOUS
 62
     3
 10
459.5
 20
300.89
 11
459.5
 21
314.91
  0
LINE
  8
0
  6
CONTINUOUS
 62
     3
 10
497.45
 20
349.04
 11
483.45
 21
349.04
  0
LINE
  8
0
  6
CONTINUOUS
 62
     3
 10
483.45
 20
349.04
 11
483.45
 21
346.42
  0
LINE
  8
0
  6
CONTINUOUS
 62
     3
 10
483.45
 20
346.42
 11
483.45
 21
286.76
  0
LINE
  8
0
  6
CONTINUOUS
 62
     3
 10
497.45
 20
346.42
 11
497.45
 21
349.04
  0
LINE
  8
0
  6
CONTINUOUS
 62
     3
 10
497.45
 20
286.76
 11
497.45
 21
346.42
  0
CIRCLE
  8
0
  6
CONTINUOUS
 62
     3
 10
490.45
 20
298.85
 40
1.0
  0
CIRCLE
  8
0
  6
CONTINUOUS
 62
     3
 10
490.45
 20
298.85
 40
1.5
  0
LINE
  8
0
  6
CONTINUOUS
 62
     3
 10
490.45
 20
301.35
 11
490.45
 21
295.85
  0
CIRCLE
  8
0
  6
CONTINUOUS
 62
     3
 10
490.45
 20
291.23
 40
1.0
  0
CIRCLE
  8
0
  6
CONTINUOUS
 62
     3
 10
490.45
 20
291.23
 40
1.5
  0
LINE
  8
0
  6
CONTINUOUS
 62
     3
 10
490.45
 20
293.73
 11
490.45
 21
288.23
  0
LINE
  8
0
  6
CONTINUOUS
 62
     3
 10
492.45
 20
305.97
 11
490.95
 21
305.97
  0
LINE
  8
0
  6
CONTINUOUS
 62
     3
 10
490.95
 20
305.97
 11
490.95
 21
304.47
  0
LINE
  8
0
  6
CONTINUOUS
 62
     3
 10
490.95
 20
304.47
 11
489.95
 21
304.47
  0
LINE
  8
0
  6
CONTINUOUS
 62
     3
 10
489.95
 20
304.47
 11
489.95
 21
305.97
  0
LINE
  8
0
  6
CONTINUOUS
 62
     3
 10
489.95
 20
305.97
 11
488.45
 21
305.97
  0
CIRCLE
  8
0
  6
CONTINUOUS
 62
     3
 10
490.45
 20
298.85
 40
3.0
  0
LINE
  8
0
  6
CONTINUOUS
 62
     3
 10
490.95
 20
300.85
 11
490.95
 21
299.35
  0
LINE
  8
0
  6
CONTINUOUS
 62
     3
 10
490.95
 20
299.35
 11
492.45
 21
299.35
  0
LINE
  8
0
  6
CONTINUOUS
 62
     3
 10
492.45
 20
299.35
 11
492.45
 21
298.35
  0
LINE
  8
0
  6
CONTINUOUS
 62
     3
 10
492.45
 20
298.35
 11
490.95
 21
298.35
  0
LINE
  8
0
  6
CONTINUOUS
 62
     3
 10
490.95
 20
298.35
 11
490.95
 21
296.85
  0
LINE
  8
0
  6
CONTINUOUS
 62
     3
 10
490.95
 20
296.85
 11
489.95
 21
296.85
  0
LINE
  8
0
  6
CONTINUOUS
 62
     3
 10
489.95
 20
296.85
 11
489.95
 21
298.35
  0
LINE
  8
0
  6
CONTINUOUS
 62
     3
 10
489.95
 20
298.35
 11
488.45
 21
298.35
  0
LINE
  8
0
  6
CONTINUOUS
 62
     3
 10
488.45
 20
298.35
 11
488.45
 21
299.35
  0
LINE
  8
0
  6
CONTINUOUS
 62
     3
 10
488.45
 20
299.35
 11
489.95
 21
299.35
  0
LINE
  8
0
  6
CONTINUOUS
 62
     3
 10
489.95
 20
300.85
 11
490.95
 21
300.85
  0
LINE
  8
0
  6
CONTINUOUS
 62
     3
 10
489.95
 20
300.85
 11
489.95
 21
299.35
  0
CIRCLE
  8
0
  6
CONTINUOUS
 62
     3
 10
490.45
 20
291.23
 40
3.0
  0
LINE
  8
0
  6
CONTINUOUS
 62
     3
 10
490.95
 20
293.23
 11
490.95
 21
291.73
  0
LINE
  8
0
  6
CONTINUOUS
 62
     3
 10
490.95
 20
291.73
 11
492.45
 21
291.73
  0
LINE
  8
0
  6
CONTINUOUS
 62
     3
 10
492.45
 20
291.73
 11
492.45
 21
290.73
  0
LINE
  8
0
  6
CONTINUOUS
 62
     3
 10
492.45
 20
290.73
 11
490.95
 21
290.73
  0
LINE
  8
0
  6
CONTINUOUS
 62
     3
 10
490.95
 20
290.73
 11
490.95
 21
289.23
  0
LINE
  8
0
  6
CONTINUOUS
 62
     3
 10
490.95
 20
289.23
 11
489.95
 21
289.23
  0
LINE
  8
0
  6
CONTINUOUS
 62
     3
 10
489.95
 20
289.23
 11
489.95
 21
290.73
  0
LINE
  8
0
  6
CONTINUOUS
 62
     3
 10
489.95
 20
290.73
 11
488.45
 21
290.73
  0
LINE
  8
0
  6
CONTINUOUS
 62
     3
 10
488.45
 20
290.73
 11
488.45
 21
291.73
  0
LINE
  8
0
  6
CONTINUOUS
 62
     3
 10
488.45
 20
291.73
 11
489.95
 21
291.73
  0
LINE
  8
0
  6
CONTINUOUS
 62
     3
 10
489.95
 20
293.23
 11
490.95
 21
293.23
  0
LINE
  8
0
  6
CONTINUOUS
 62
     3
 10
489.95
 20
293.23
 11
489.95
 21
291.73
  0
LINE
  8
0
  6
CONTINUOUS
 62
     3
 10
483.45
 20
286.76
 11
497.45
 21
286.76
  0
LINE
  8
0
  6
CONTINUOUS
 62
     3
 10
497.45
 20
303.32
 11
483.45
 21
303.32
  0
LINE
  8
0
  6
CONTINUOUS
 62
     3
 10
497.45
 20
295.7
 11
483.45
 21
295.7
  0
LINE
  8
0
  6
CONTINUOUS
 62
     3
 10
497.45
 20
302.0
 11
483.45
 21
302.0
  0
LINE
  8
0
  6
CONTINUOUS
 62
     3
 10
497.45
 20
288.08
 11
483.45
 21
288.08
  0
LINE
  8
0
  6
CONTINUOUS
 62
     3
 10
497.45
 20
294.38
 11
483.45
 21
294.38
  0
LINE
  8
0
  6
CONTINUOUS
 62
     3
 10
490.45
 20
317.9
 11
490.45
 21
321.28
  0
POINT
  8
0
  6
CONTINUOUS
 62
     3
 10
490.45
 20
321.28
  0
CIRCLE
  8
0
  6
CONTINUOUS
 62
     3
 10
490.45
 20
314.09
 40
1.0
  0
CIRCLE
  8
0
  6
CONTINUOUS
 62
     3
 10
490.45
 20
314.09
 40
1.5
  0
LINE
  8
0
  6
CONTINUOUS
 62
     3
 10
490.45
 20
316.59
 11
490.45
 21
311.09
  0
CIRCLE
  8
0
  6
CONTINUOUS
 62
     3
 10
490.45
 20
321.71
 40
1.0
  0
CIRCLE
  8
0
  6
CONTINUOUS
 62
     3
 10
490.45
 20
321.71
 40
1.5
  0
LINE
  8
0
  6
CONTINUOUS
 62
     3
 10
490.45
 20
319.21
 11
490.45
 21
324.71
  0
CIRCLE
  8
0
  6
CONTINUOUS
 62
     3
 10
490.45
 20
329.33
 40
1.0
  0
CIRCLE
  8
0
  6
CONTINUOUS
 62
     3
 10
490.45
 20
329.33
 40
1.5
  0
LINE
  8
0
  6
CONTINUOUS
 62
     3
 10
490.45
 20
326.83
 11
490.45
 21
332.33
  0
CIRCLE
  8
0
  6
CONTINUOUS
 62
     3
 10
490.45
 20
336.95
 40
1.0
  0
CIRCLE
  8
0
  6
CONTINUOUS
 62
     3
 10
490.45
 20
336.95
 40
1.5
  0
LINE
  8
0
  6
CONTINUOUS
 62
     3
 10
490.45
 20
334.45
 11
490.45
 21
339.95
  0
CIRCLE
  8
0
  6
CONTINUOUS
 62
     3
 10
490.45
 20
314.09
 40
3.0
  0
LINE
  8
0
  6
CONTINUOUS
 62
     3
 10
490.95
 20
316.09
 11
490.95
 21
314.59
  0
LINE
  8
0
  6
CONTINUOUS
 62
     3
 10
490.95
 20
314.59
 11
492.45
 21
314.59
  0
LINE
  8
0
  6
CONTINUOUS
 62
     3
 10
492.45
 20
314.59
 11
492.45
 21
313.59
  0
LINE
  8
0
  6
CONTINUOUS
 62
     3
 10
492.45
 20
313.59
 11
490.95
 21
313.59
  0
LINE
  8
0
  6
CONTINUOUS
 62
     3
 10
490.95
 20
313.59
 11
490.95
 21
312.09
  0
LINE
  8
0
  6
CONTINUOUS
 62
     3
 10
490.95
 20
312.09
 11
489.95
 21
312.09
  0
LINE
  8
0
  6
CONTINUOUS
 62
     3
 10
489.95
 20
312.09
 11
489.95
 21
313.59
  0
LINE
  8
0
  6
CONTINUOUS
 62
     3
 10
489.95
 20
313.59
 11
488.45
 21
313.59
  0
LINE
  8
0
  6
CONTINUOUS
 62
     3
 10
488.45
 20
313.59
 11
488.45
 21
314.59
  0
LINE
  8
0
  6
CONTINUOUS
 62
     3
 10
488.45
 20
314.59
 11
489.95
 21
314.59
  0
LINE
  8
0
  6
CONTINUOUS
 62
     3
 10
489.95
 20
316.09
 11
490.95
 21
316.09
  0
LINE
  8
0
  6
CONTINUOUS
 62
     3
 10
489.95
 20
316.09
 11
489.95
 21
314.59
  0
LINE
  8
0
  6
CONTINUOUS
 62
     3
 10
489.95
 20
308.47
 11
490.95
 21
308.47
  0
CIRCLE
  8
0
  6
CONTINUOUS
 62
     3
 10
490.45
 20
321.71
 40
3.0
  0
LINE
  8
0
  6
CONTINUOUS
 62
     3
 10
490.95
 20
319.71
 11
490.95
 21
321.21
  0
LINE
  8
0
  6
CONTINUOUS
 62
     3
 10
490.95
 20
321.21
 11
492.45
 21
321.21
  0
LINE
  8
0
  6
CONTINUOUS
 62
     3
 10
492.45
 20
321.21
 11
492.45
 21
322.21
  0
LINE
  8
0
  6
CONTINUOUS
 62
     3
 10
492.45
 20
322.21
 11
490.95
 21
322.21
  0
LINE
  8
0
  6
CONTINUOUS
 62
     3
 10
490.95
 20
322.21
 11
490.95
 21
323.71
  0
LINE
  8
0
  6
CONTINUOUS
 62
     3
 10
490.95
 20
323.71
 11
489.95
 21
323.71
  0
LINE
  8
0
  6
CONTINUOUS
 62
     3
 10
489.95
 20
323.71
 11
489.95
 21
322.21
  0
LINE
  8
0
  6
CONTINUOUS
 62
     3
 10
489.95
 20
322.21
 11
488.45
 21
322.21
  0
LINE
  8
0
  6
CONTINUOUS
 62
     3
 10
488.45
 20
322.21
 11
488.45
 21
321.21
  0
LINE
  8
0
  6
CONTINUOUS
 62
     3
 10
488.45
 20
321.21
 11
489.95
 21
321.21
  0
LINE
  8
0
  6
CONTINUOUS
 62
     3
 10
489.95
 20
319.71
 11
490.95
 21
319.71
  0
LINE
  8
0
  6
CONTINUOUS
 62
     3
 10
489.95
 20
319.71
 11
489.95
 21
321.21
  0
CIRCLE
  8
0
  6
CONTINUOUS
 62
     3
 10
490.45
 20
329.33
 40
3.0
  0
LINE
  8
0
  6
CONTINUOUS
 62
     3
 10
490.95
 20
327.33
 11
490.95
 21
328.83
  0
LINE
  8
0
  6
CONTINUOUS
 62
     3
 10
490.95
 20
328.83
 11
492.45
 21
328.83
  0
LINE
  8
0
  6
CONTINUOUS
 62
     3
 10
492.45
 20
328.83
 11
492.45
 21
329.83
  0
LINE
  8
0
  6
CONTINUOUS
 62
     3
 10
492.45
 20
329.83
 11
490.95
 21
329.83
  0
LINE
  8
0
  6
CONTINUOUS
 62
     3
 10
490.95
 20
329.83
 11
490.95
 21
331.33
  0
LINE
  8
0
  6
CONTINUOUS
 62
     3
 10
490.95
 20
331.33
 11
489.95
 21
331.33
  0
LINE
  8
0
  6
CONTINUOUS
 62
     3
 10
489.95
 20
331.33
 11
489.95
 21
329.83
  0
LINE
  8
0
  6
CONTINUOUS
 62
     3
 10
489.95
 20
329.83
 11
488.45
 21
329.83
  0
LINE
  8
0
  6
CONTINUOUS
 62
     3
 10
488.45
 20
329.83
 11
488.45
 21
328.83
  0
LINE
  8
0
  6
CONTINUOUS
 62
     3
 10
488.45
 20
328.83
 11
489.95
 21
328.83
  0
LINE
  8
0
  6
CONTINUOUS
 62
     3
 10
489.95
 20
327.33
 11
490.95
 21
327.33
  0
LINE
  8
0
  6
CONTINUOUS
 62
     3
 10
489.95
 20
327.33
 11
489.95
 21
328.83
  0
CIRCLE
  8
0
  6
CONTINUOUS
 62
     3
 10
490.45
 20
336.95
 40
3.0
  0
LINE
  8
0
  6
CONTINUOUS
 62
     3
 10
490.95
 20
334.95
 11
490.95
 21
336.45
  0
LINE
  8
0
  6
CONTINUOUS
 62
     3
 10
490.95
 20
336.45
 11
492.45
 21
336.45
  0
LINE
  8
0
  6
CONTINUOUS
 62
     3
 10
492.45
 20
336.45
 11
492.45
 21
337.45
  0
LINE
  8
0
  6
CONTINUOUS
 62
     3
 10
492.45
 20
337.45
 11
490.95
 21
337.45
  0
LINE
  8
0
  6
CONTINUOUS
 62
     3
 10
490.95
 20
337.45
 11
490.95
 21
338.95
  0
LINE
  8
0
  6
CONTINUOUS
 62
     3
 10
490.95
 20
338.95
 11
489.95
 21
338.95
  0
LINE
  8
0
  6
CONTINUOUS
 62
     3
 10
489.95
 20
338.95
 11
489.95
 21
337.45
  0
LINE
  8
0
  6
CONTINUOUS
 62
     3
 10
489.95
 20
337.45
 11
488.45
 21
337.45
  0
LINE
  8
0
  6
CONTINUOUS
 62
     3
 10
488.45
 20
337.45
 11
488.45
 21
336.45
  0
LINE
  8
0
  6
CONTINUOUS
 62
     3
 10
488.45
 20
336.45
 11
489.95
 21
336.45
  0
LINE
  8
0
  6
CONTINUOUS
 62
     3
 10
489.95
 20
334.95
 11
490.95
 21
334.95
  0
LINE
  8
0
  6
CONTINUOUS
 62
     3
 10
489.95
 20
334.95
 11
489.95
 21
336.45
  0
LINE
  8
0
  6
CONTINUOUS
 62
     3
 10
490.95
 20
342.57
 11
490.95
 21
344.07
  0
LINE
  8
0
  6
CONTINUOUS
 62
     3
 10
490.95
 20
344.07
 11
492.45
 21
344.07
  0
LINE
  8
0
  6
CONTINUOUS
 62
     3
 10
492.45
 20
344.07
 11
492.45
 21
345.07
  0
LINE
  8
0
  6
CONTINUOUS
 62
     3
 10
492.45
 20
345.07
 11
490.95
 21
345.07
  0
LINE
  8
0
  6
CONTINUOUS
 62
     3
 10
489.95
 20
345.07
 11
488.45
 21
345.07
  0
LINE
  8
0
  6
CONTINUOUS
 62
     3
 10
488.45
 20
345.07
 11
488.45
 21
344.07
  0
LINE
  8
0
  6
CONTINUOUS
 62
     3
 10
488.45
 20
344.07
 11
489.95
 21
344.07
  0
LINE
  8
0
  6
CONTINUOUS
 62
     3
 10
489.95
 20
342.57
 11
490.95
 21
342.57
  0
LINE
  8
0
  6
CONTINUOUS
 62
     3
 10
489.95
 20
342.57
 11
489.95
 21
344.07
  0
LINE
  8
0
  6
CONTINUOUS
 62
     3
 10
497.45
 20
317.9
 11
483.45
 21
317.9
  0
LINE
  8
0
  6
CONTINUOUS
 62
     3
 10
497.45
 20
318.56
 11
483.45
 21
318.56
  0
LINE
  8
0
  6
CONTINUOUS
 62
     3
 10
497.45
 20
324.86
 11
483.45
 21
324.86
  0
LINE
  8
0
  6
CONTINUOUS
 62
     3
 10
497.45
 20
310.94
 11
483.45
 21
310.94
  0
LINE
  8
0
  6
CONTINUOUS
 62
     3
 10
497.45
 20
317.24
 11
483.45
 21
317.24
  0
LINE
  8
0
  6
CONTINUOUS
 62
     3
 10
497.45
 20
309.62
 11
483.45
 21
309.62
  0
LINE
  8
0
  6
CONTINUOUS
 62
     3
 10
497.45
 20
326.18
 11
483.45
 21
326.18
  0
LINE
  8
0
  6
CONTINUOUS
 62
     3
 10
497.45
 20
332.48
 11
483.45
 21
332.48
  0
LINE
  8
0
  6
CONTINUOUS
 62
     3
 10
497.45
 20
333.8
 11
483.45
 21
333.8
  0
LINE
  8
0
  6
CONTINUOUS
 62
     3
 10
497.45
 20
340.1
 11
483.45
 21
340.1
  0
LINE
  8
0
  6
CONTINUOUS
 62
     3
 10
497.45
 20
341.42
 11
483.45
 21
341.42
  0
CIRCLE
  8
0
  6
CONTINUOUS
 62
     3
 10
490.45
 20
306.47
 40
3.0
  0
LINE
  8
0
  6
CONTINUOUS
 62
     3
 10
490.45
 20
346.42
 11
490.45
 21
347.57
  0
LINE
  8
0
  6
CONTINUOUS
 62
     3
 10
489.95
 20
346.42
 11
489.95
 21
346.57
  0
ARC
  8
0
  6
CONTINUOUS
 62
     3
 10
490.45
 20
344.57
 40
3.0
 50
38.073123323
 51
141.926876677
  0
LINE
  8
0
  6
CONTINUOUS
 62
     3
 10
497.45
 20
347.72
 11
483.45
 21
347.72
  0
CIRCLE
  8
0
  6
CONTINUOUS
 62
     3
 10
490.45
 20
344.57
 40
1.0
  0
CIRCLE
  8
0
  6
CONTINUOUS
 62
     3
 10
490.45
 20
344.57
 40
1.5
  0
LINE
  8
0
  6
CONTINUOUS
 62
     3
 10
490.45
 20
342.07
 11
490.45
 21
346.42
  0
ARC
  8
0
  6
CONTINUOUS
 62
     3
 10
490.45
 20
344.57
 40
3.0
 50
141.926876677
 51
180.0
  0
LINE
  8
0
  6
CONTINUOUS
 62
     3
 10
489.95
 20
346.42
 11
489.95
 21
345.07
  0
ARC
  8
0
  6
CONTINUOUS
 62
     3
 10
490.45
 20
344.57
 40
3.0
 50
180.0
 51
38.073123323
  0
LINE
  8
0
  6
CONTINUOUS
 62
     3
 10
490.95
 20
306.97
 11
492.45
 21
306.97
  0
LINE
  8
0
  6
CONTINUOUS
 62
     3
 10
488.45
 20
306.97
 11
489.95
 21
306.97
  0
CIRCLE
  8
0
  6
CONTINUOUS
 62
     3
 10
490.45
 20
306.47
 40
1.0
  0
CIRCLE
  8
0
  6
CONTINUOUS
 62
     3
 10
490.45
 20
306.47
 40
1.5
  0
LINE
  8
0
  6
CONTINUOUS
 62
     3
 10
492.45
 20
306.97
 11
492.45
 21
305.97
  0
LINE
  8
0
  6
CONTINUOUS
 62
     3
 10
488.45
 20
305.97
 11
488.45
 21
306.97
  0
LINE
  8
0
  6
CONTINUOUS
 62
     3
 10
490.95
 20
308.47
 11
490.95
 21
306.97
  0
LINE
  8
0
  6
CONTINUOUS
 62
     3
 10
489.95
 20
308.47
 11
489.95
 21
306.97
  0
LINE
  8
0
  6
CONTINUOUS
 62
     3
 10
490.45
 20
308.97
 11
490.45
 21
303.47
  0
CIRCLE
  8
0
  6
CONTINUOUS
 62
     3
 10
474.675
 20
294.37
 40
1.75
  0
ARC
  8
0
  6
CONTINUOUS
 62
     3
 10
480.45
 20
291.88
 40
0.5
 50
270.0
 51
0.0
  0
ARC
  8
0
  6
CONTINUOUS
 62
     3
 10
468.9
 20
291.88
 40
0.5
 50
180.0
 51
270.0
  0
LINE
  8
0
  6
CONTINUOUS
 62
     3
 10
474.675
 20
291.29
 11
472.076923789
 21
292.79
  0
LINE
  8
0
  6
CONTINUOUS
 62
     3
 10
477.273076211
 20
292.79
 11
474.675
 21
291.29
  0
LINE
  8
0
  6
CONTINUOUS
 62
     3
 10
480.45
 20
291.38
 11
474.675
 21
291.38
  0
LINE
  8
0
  6
CONTINUOUS
 62
     3
 10
468.9
 20
291.38
 11
474.675
 21
291.38
  0
LINE
  8
0
  6
CONTINUOUS
 62
     3
 10
468.9
 20
291.38
 11
474.675
 21
291.38
  0
LINE
  8
0
  6
CONTINUOUS
 62
     3
 10
472.076923789
 20
292.87
 11
472.076923789
 21
295.87
  0
LINE
  8
0
  6
CONTINUOUS
 62
     3
 10
477.273076211
 20
295.87
 11
477.273076211
 21
292.87
  0
LINE
  8
0
  6
CONTINUOUS
 62
     3
 10
472.076923789
 20
295.79
 11
474.675
 21
297.29
  0
LINE
  8
0
  6
CONTINUOUS
 62
     3
 10
474.675
 20
297.29
 11
477.273076211
 21
295.79
  0
LINE
  8
0
  6
CONTINUOUS
 62
     3
 10
468.4
 20
317.9
 11
468.4
 21
291.88
  0
LINE
  8
0
  6
CONTINUOUS
 62
     3
 10
468.4
 20
317.9
 11
468.4
 21
291.88
  0
LINE
  8
0
  6
CONTINUOUS
 62
     3
 10
468.4
 20
317.9
 11
468.4
 21
291.88
  0
LINE
  8
0
  6
CONTINUOUS
 62
     3
 10
468.4
 20
317.9
 11
468.4
 21
291.88
  0
ARC
  8
0
  6
CONTINUOUS
 62
     3
 10
476.875
 20
300.887871823
 40
2.0
 50
277.373766361
 51
0.0
  0
LINE
  8
0
  6
CONTINUOUS
 62
     3
 10
478.875
 20
317.9
 11
478.875
 21
300.887871823
  0
ARC
  8
0
  6
CONTINUOUS
 62
     3
 10
476.875
 20
300.887871823
 40
1.6
 50
277.373766361
 51
0.0
  0
ARC
  8
0
  6
CONTINUOUS
 62
     3
 10
472.475
 20
300.318460058
 40
2.0
 50
180.0
 51
277.373766361
  0
LINE
  8
0
  6
CONTINUOUS
 62
     3
 10
470.475
 20
306.492958662
 11
470.475
 21
300.318460058
  0
LINE
  8
0
  6
CONTINUOUS
 62
     3
 10
472.731683066
 20
298.335
 11
477.131683066
 21
298.904411765
  0
LINE
  8
0
  6
CONTINUOUS
 62
     3
 10
472.680346453
 20
298.731692012
 11
477.080346453
 21
299.301103776
  0
ARC
  8
0
  6
CONTINUOUS
 62
     3
 10
472.475
 20
300.318460058
 40
1.6
 50
180.000278953
 51
279.231676841
  0
LINE
  8
0
  6
CONTINUOUS
 62
     3
 10
480.95
 20
317.9
 11
480.95
 21
291.88
  0
LINE
  8
0
  6
CONTINUOUS
 62
     3
 10
480.95
 20
317.9
 11
480.95
 21
291.88
  0
LINE
  8
0
  6
CONTINUOUS
 62
     3
 10
470.875
 20
300.318460058
 11
470.875
 21
317.9
  0
LINE
  8
0
  6
CONTINUOUS
 62
     3
 10
478.875
 20
317.9
 11
478.875
 21
334.912128177
  0
LINE
  8
0
  6
CONTINUOUS
 62
     3
 10
478.475
 20
334.912128177
 11
478.475
 21
329.412128177
  0
LINE
  8
0
  6
CONTINUOUS
 62
     3
 10
478.475
 20
300.887871823
 11
478.475
 21
329.412128177
  0
ARC
  8
0
  6
CONTINUOUS
 62
     3
 10
472.475
 20
335.481539942
 40
2.0
 50
82.626233639
 51
180.0
  0
ARC
  8
0
  6
CONTINUOUS
 62
     3
 10
472.475
 20
335.481539942
 40
1.6
 50
80.768323159
 51
179.999721047
  0
LINE
  8
0
  6
CONTINUOUS
 62
     3
 10
470.875
 20
335.481539942
 11
470.875
 21
317.9
  0
LINE
  8
0
  6
CONTINUOUS
 62
     3
 10
470.475
 20
306.492958662
 11
470.475
 21
335.481539942
  0
LINE
  8
0
  6
CONTINUOUS
 62
     3
 10
477.273076211
 20
343.01
 11
474.675
 21
344.51
  0
LINE
  8
0
  6
CONTINUOUS
 62
     3
 10
477.273076211
 20
339.92
 11
477.273076211
 21
342.92
  0
CIRCLE
  8
0
  6
CONTINUOUS
 62
     3
 10
474.675
 20
341.42
 40
1.0
  0
LINE
  8
0
  6
CONTINUOUS
 62
     3
 10
474.675
 20
338.51
 11
477.273076211
 21
340.01
  0
LINE
  8
0
  6
CONTINUOUS
 62
     3
 10
472.076923789
 20
340.01
 11
474.675
 21
338.51
  0
LINE
  8
0
  6
CONTINUOUS
 62
     3
 10
472.076923789
 20
342.92
 11
472.076923789
 21
339.92
  0
CIRCLE
  8
0
  6
CONTINUOUS
 62
     3
 10
474.675
 20
341.42
 40
1.6
  0
LINE
  8
0
  6
CONTINUOUS
 62
     3
 10
474.675
 20
344.51
 11
472.076923789
 21
343.01
  0
CIRCLE
  8
0
  6
CONTINUOUS
 62
     1
 10
474.675
 20
341.42
 40
1.75
  0
LINE
  8
0
  6
CONTINUOUS
 62
     3
 10
472.731683066
 20
337.465
 11
477.131683066
 21
336.895588235
  0
LINE
  8
0
  6
CONTINUOUS
 62
     3
 10
472.680346453
 20
337.068307988
 11
477.080346453
 21
336.498896224
  0
ARC
  8
0
  6
CONTINUOUS
 62
     3
 10
476.875
 20
334.912128177
 40
2.0
 50
0.0
 51
82.626233639
  0
ARC
  8
0
  6
CONTINUOUS
 62
     3
 10
476.875
 20
334.912128177
 40
1.6
 50
0.0
 51
82.626233639
  0
LINE
  8
0
  6
CONTINUOUS
 62
     3
 10
468.9
 20
344.42
 11
474.675
 21
344.42
  0
ARC
  8
0
  6
CONTINUOUS
 62
     3
 10
468.9
 20
343.92
 40
0.5
 50
90.0
 51
180.0
  0
LINE
  8
0
  6
CONTINUOUS
 62
     3
 10
468.4
 20
317.9
 11
468.4
 21
343.92
  0
LINE
  8
0
  6
CONTINUOUS
 62
     3
 10
468.4
 20
317.9
 11
468.4
 21
343.92
  0
LINE
  8
0
  6
CONTINUOUS
 62
     3
 10
468.4
 20
317.9
 11
468.4
 21
343.92
  0
LINE
  8
0
  6
CONTINUOUS
 62
     3
 10
468.4
 20
317.9
 11
468.4
 21
343.92
  0
LINE
  8
0
  6
CONTINUOUS
 62
     3
 10
480.45
 20
344.42
 11
474.675
 21
344.42
  0
ARC
  8
0
  6
CONTINUOUS
 62
     3
 10
480.45
 20
343.92
 40
0.5
 50
0.0
 51
90.0
  0
LINE
  8
0
  6
CONTINUOUS
 62
     3
 10
480.95
 20
317.9
 11
480.95
 21
343.92
  0
LINE
  8
0
  6
CONTINUOUS
 62
     3
 10
480.95
 20
317.9
 11
480.95
 21
343.92
  0
LINE
  8
0
  6
CONTINUOUS
 62
     3
 10
480.2
 20
268.3
 11
489.8
 21
268.3
  0
LINE
  8
0
  6
CONTINUOUS
 62
     3
 10
491.0
 20
267.1
 11
491.0
 21
260.3
  0
ARC
  8
0
  6
CONTINUOUS
 62
     3
 10
489.8
 20
267.1
 40
1.2
 50
0.0
 51
90.0
  0
LINE
  8
0
  6
CONTINUOUS
 62
     3
 10
493.0
 20
263.3
 11
494.5
 21
263.3
  0
LINE
  8
0
  6
CONTINUOUS
 62
     3
 10
494.5
 20
263.3
 11
494.5
 21
264.5
  0
LINE
  8
0
  6
CONTINUOUS
 62
     3
 10
493.0
 20
263.3
 11
493.0
 21
261.5
  0
LINE
  8
0
  6
CONTINUOUS
 62
     3
 10
494.5
 20
264.5
 11
493.0
 21
264.5
  0
ARC
  8
0
  6
CONTINUOUS
 62
     3
 10
493.0
 20
263.3
 40
1.2
 50
90.0
 51
180.0
  0
LINE
  8
0
  6
CONTINUOUS
 62
     3
 10
493.0
 20
261.5
 11
493.0
 21
263.3
  0
ARC
  8
0
  6
CONTINUOUS
 62
     3
 10
491.8
 20
261.5
 40
1.2
 50
269.999776927
 51
0.0
  0
LINE
  8
0
  6
CONTINUOUS
 62
     3
 10
491.8
 20
263.3
 11
491.8
 21
261.5
  0
LINE
  8
0
  6
CONTINUOUS
 62
     3
 10
495.0
 20
263.6
 11
495.0
 21
264.5
  0
ARC
  8
0
  6
CONTINUOUS
 62
     3
 10
494.7
 20
263.6
 40
0.3
 50
270.0
 51
0.0
  0
LINE
  8
0
  6
CONTINUOUS
 62
     3
 10
493.5
 20
262.3
 11
493.5
 21
263.3
  0
LINE
  8
0
  6
CONTINUOUS
 62
     3
 10
493.5
 20
263.3
 11
494.7
 21
263.3
  0
ARC
  8
0
  6
CONTINUOUS
 62
     3
 10
494.7
 20
264.5
 40
0.3
 50
0.0
 51
90.000963786
  0
LINE
  8
0
  6
CONTINUOUS
 62
     3
 10
495.75
 20
262.8
 11
495.75
 21
265.3
  0
LINE
  8
0
  6
CONTINUOUS
 62
     3
 10
491.0
 20
261.5
 11
491.8
 21
261.5
  0
LINE
  8
0
  6
CONTINUOUS
 62
     3
 10
494.699994954
 20
264.8
 11
491.0
 21
264.8
  0
LINE
  8
0
  6
CONTINUOUS
 62
     3
 10
495.75
 20
265.3
 11
491.0
 21
265.3
  0
LINE
  8
0
  6
CONTINUOUS
 62
     3
 10
479.0
 20
260.3
 11
479.0
 21
267.1
  0
ARC
  8
0
  6
CONTINUOUS
 62
     3
 10
480.2
 20
267.1
 40
1.2
 50
90.0
 51
180.0
  0
LINE
  8
0
  6
CONTINUOUS
 62
     3
 10
478.2
 20
263.3
 11
478.2
 21
261.5
  0
LINE
  8
0
  6
CONTINUOUS
 62
     3
 10
478.2
 20
261.5
 11
479.0
 21
261.5
  0
LINE
  8
0
  6
CONTINUOUS
 62
     3
 10
478.199997303
 20
260.3
 11
491.799995328
 21
260.3
  0
LINE
  8
0
  6
CONTINUOUS
 62
     3
 10
475.5
 20
263.3
 11
475.5
 21
264.5
  0
ARC
  8
0
  6
CONTINUOUS
 62
     3
 10
475.3
 20
264.5
 40
0.3
 50
90.0
 51
180.0
  0
LINE
  8
0
  6
CONTINUOUS
 62
     3
 10
475.0
 20
263.6
 11
475.0
 21
264.5
  0
ARC
  8
0
  6
CONTINUOUS
 62
     3
 10
475.3
 20
263.6
 40
0.3
 50
180.0
 51
270.0
  0
LINE
  8
0
  6
CONTINUOUS
 62
     3
 10
474.25
 20
262.8
 11
468.05
 21
262.8
  0
CIRCLE
  8
0
  6
CONTINUOUS
 62
     3
 10
471.75
 20
265.9
 40
3.0
  0
LINE
  8
0
  6
CONTINUOUS
 62
     3
 10
474.25
 20
265.3
 11
474.25
 21
262.8
  0
LINE
  8
0
  6
CONTINUOUS
 62
     3
 10
477.0
 20
263.3
 11
475.5
 21
263.3
  0
LINE
  8
0
  6
CONTINUOUS
 62
     3
 10
477.0
 20
263.3
 11
477.0
 21
261.5
  0
LINE
  8
0
  6
CONTINUOUS
 62
     3
 10
475.5
 20
264.5
 11
477.0
 21
264.5
  0
ARC
  8
0
  6
CONTINUOUS
 62
     3
 10
477.0
 20
263.3
 40
1.2
 50
0.0
 51
90.0
  0
ARC
  8
0
  6
CONTINUOUS
 62
     3
 10
478.2
 20
261.5
 40
1.2
 50
180.0
 51
269.999871209
  0
LINE
  8
0
  6
CONTINUOUS
 62
     3
 10
476.5
 20
263.3
 11
475.3
 21
263.3
  0
LINE
  8
0
  6
CONTINUOUS
 62
     3
 10
476.5
 20
263.3
 11
476.5
 21
262.3
  0
LINE
  8
0
  6
CONTINUOUS
 62
     3
 10
468.05
 20
262.3
 11
476.5
 21
262.3
  0
LINE
  8
0
  6
CONTINUOUS
 62
     3
 10
475.3
 20
264.8
 11
479.0
 21
264.8
  0
LINE
  8
0
  6
CONTINUOUS
 62
     3
 10
479.0
 20
265.3
 11
474.25
 21
265.3
  0
LINE
  8
0
  6
CONTINUOUS
 62
     3
 10
466.5
 20
263.8
 11
467.5
 21
262.8
  0
LINE
  8
0
  6
CONTINUOUS
 62
     3
 10
466.25
 20
263.8
 11
465.25
 21
262.8
  0
LINE
  8
0
  6
CONTINUOUS
 62
     3
 10
465.25
 20
262.4
 11
465.25
 21
308.15
  0
LINE
  8
0
  6
CONTINUOUS
 62
     3
 10
468.05
 20
262.3
 11
465.29
 21
262.3
  0
LINE
  8
0
  6
CONTINUOUS
 62
     3
 10
458.75
 20
262.15
 11
465.25
 21
262.15
  0
LINE
  8
0
  6
CONTINUOUS
 62
     3
 10
465.25
 20
262.15
 11
465.25
 21
268.65
  0
LINE
  8
0
  6
CONTINUOUS
 62
     3
 10
467.5
 20
262.8
 11
474.25
 21
262.8
  0
ARC
  8
0
  6
CONTINUOUS
 62
     3
 10
504.1
 20
263.3
 40
1.0
 50
270.0
 51
0.0
  0
CIRCLE
  8
0
  6
CONTINUOUS
 62
     3
 10
501.5
 20
265.9
 40
3.0
  0
LINE
  8
0
  6
CONTINUOUS
 62
     3
 10
505.1
 20
307.9
 11
505.1
 21
263.3
  0
LINE
  8
0
  6
CONTINUOUS
 62
     3
 10
504.102295321
 20
262.8
 11
504.6
 21
263.295419896
  0
LINE
  8
0
  6
CONTINUOUS
 62
     3
 10
493.5
 20
262.3
 11
504.1
 21
262.3
  0
LINE
  8
0
  6
CONTINUOUS
 62
     3
 10
495.75
 20
262.8
 11
504.102295321
 21
262.8
  0
LINE
  8
0
  6
CONTINUOUS
 62
     3
 10
504.102295321
 20
353.0
 11
504.602290028
 21
352.502300589
  0
ARC
  8
0
  6
CONTINUOUS
 62
     3
 10
504.1
 20
352.5
 40
1.0
 50
0.0
 51
90.0
  0
CIRCLE
  8
0
  6
CONTINUOUS
 62
     3
 10
501.5
 20
349.9
 40
3.0
  0
LINE
  8
0
  6
CONTINUOUS
 62
     3
 10
505.1
 20
345.27
 11
505.1
 21
352.5
  0
LINE
  8
0
  6
CONTINUOUS
 62
     3
 10
495.94
 20
353.5
 11
504.35
 21
353.5
  0
LINE
  8
0
  6
CONTINUOUS
 62
     3
 10
504.6
 20
352.502300589
 11
504.6
 21
263.295419896
  0
LINE
  8
0
  6
CONTINUOUS
 62
     3
 10
466.25
 20
352.0
 11
465.25
 21
353.0
  0
LINE
  8
0
  6
CONTINUOUS
 62
     3
 10
466.5
 20
352.0
 11
467.5
 21
353.0
  0
LINE
  8
0
  6
CONTINUOUS
 62
     3
 10
466.5
 20
352.0
 11
466.5
 21
350.15
  0
LINE
  8
0
  6
CONTINUOUS
 62
     3
 10
466.5
 20
352.0
 11
467.5
 21
353.0
  0
LINE
  8
0
  6
CONTINUOUS
 62
     3
 10
466.25
 20
352.0
 11
465.25
 21
353.0
  0
LINE
  8
0
  6
CONTINUOUS
 62
     3
 10
465.25
 20
353.4
 11
465.25
 21
307.65
  0
LINE
  8
0
  6
CONTINUOUS
 62
     3
 10
465.25
 20
353.65
 11
465.25
 21
347.15
  0
LINE
  8
0
  6
CONTINUOUS
 62
     3
 10
458.75
 20
353.65
 11
465.25
 21
353.65
  0
LINE
  8
0
  6
CONTINUOUS
 62
     3
 10
459.5
 20
353.65
 11
465.25
 21
353.65
  0
LINE
  8
0
  6
CONTINUOUS
 62
     3
 10
465.25
 20
353.5
 11
496.99
 21
353.5
  0
LINE
  8
0
  6
CONTINUOUS
 62
     3
 10
466.5
 20
263.8
 11
466.5
 21
352.0
  0
LINE
  8
0
  6
CONTINUOUS
 62
     3
 10
466.25
 20
263.8
 11
466.25
 21
352.0
  0
LINE
  8
0
  6
CONTINUOUS
 62
     3
 10
467.5
 20
353.0
 11
504.102295321
 21
353.0
  0
LINE
  8
0
  6
CONTINUOUS
 62
     3
 10
452.0
 20
352.0
 11
453.0
 21
353.0
  0
LINE
  8
0
  6
CONTINUOUS
 62
     3
 10
452.75
 20
307.9
 11
452.75
 21
353.65
  0
LINE
  8
0
  6
CONTINUOUS
 62
     3
 10
452.79
 20
352.79
 11
452.0
 21
352.0
  0
LINE
  8
0
  6
CONTINUOUS
 62
     3
 10
452.75
 20
353.65
 11
465.25
 21
353.65
  0
CIRCLE
  8
0
  6
CONTINUOUS
 62
     3
 10
448.25
 20
349.9
 40
3.0
  0
LINE
  8
0
  6
CONTINUOUS
 62
     3
 10
450.75
 20
353.0
 11
451.75
 21
352.0
  0
LINE
  8
0
  6
CONTINUOUS
 62
     3
 10
450.75
 20
353.0
 11
451.75
 21
352.0
  0
LINE
  8
0
  6
CONTINUOUS
 62
     3
 10
442.0
 20
352.5
 11
443.5
 21
352.5
  0
LINE
  8
0
  6
CONTINUOUS
 62
     3
 10
443.5
 20
352.5
 11
443.5
 21
351.3
  0
LINE
  8
0
  6
CONTINUOUS
 62
     3
 10
442.0
 20
352.5
 11
442.0
 21
354.3
  0
LINE
  8
0
  6
CONTINUOUS
 62
     3
 10
443.5
 20
351.3
 11
442.0
 21
351.3
  0
ARC
  8
0
  6
CONTINUOUS
 62
     3
 10
442.0
 20
352.5
 40
1.2
 50
180.0
 51
270.0
  0
LINE
  8
0
  6
CONTINUOUS
 62
     3
 10
440.8
 20
352.5
 11
440.8
 21
354.3
  0
ARC
  8
0
  6
CONTINUOUS
 62
     3
 10
440.8
 20
354.3
 40
1.2
 50
0.0
 51
89.999871209
  0
ARC
  8
0
  6
CONTINUOUS
 62
     3
 10
443.7
 20
351.3
 40
0.3
 50
270.0
 51
0.0
  0
LINE
  8
0
  6
CONTINUOUS
 62
     3
 10
444.0
 20
352.2
 11
444.0
 21
351.3
  0
ARC
  8
0
  6
CONTINUOUS
 62
     3
 10
443.7
 20
352.2
 40
0.3
 50
0.0
 51
90.0
  0
LINE
  8
0
  6
CONTINUOUS
 62
     3
 10
442.5
 20
352.5
 11
443.7
 21
352.5
  0
LINE
  8
0
  6
CONTINUOUS
 62
     3
 10
442.5
 20
352.5
 11
442.5
 21
353.5
  0
LINE
  8
0
  6
CONTINUOUS
 62
     3
 10
440.8
 20
354.3
 11
440.0
 21
354.3
  0
LINE
  8
0
  6
CONTINUOUS
 62
     3
 10
444.17
 20
353.5
 11
444.1
 21
353.5
  0
LINE
  8
0
  6
CONTINUOUS
 62
     3
 10
444.17
 20
353.5
 11
442.5
 21
353.5
  0
LINE
  8
0
  6
CONTINUOUS
 62
     3
 10
450.75
 20
353.0
 11
444.75
 21
353.0
  0
LINE
  8
0
  6
CONTINUOUS
 62
     3
 10
444.75
 20
353.0
 11
444.75
 21
350.5
  0
LINE
  8
0
  6
CONTINUOUS
 62
     3
 10
442.5
 20
353.5
 11
452.75
 21
353.5
  0
LINE
  8
0
  6
CONTINUOUS
 62
     3
 10
476.5
 20
353.5
 11
442.5
 21
353.5
  0
LINE
  8
0
  6
CONTINUOUS
 62
     3
 10
440.0
 20
355.5
 11
440.0
 21
348.7
  0
LINE
  8
0
  6
CONTINUOUS
 62
     3
 10
438.8
 20
347.5
 11
429.2
 21
347.5
  0
ARC
  8
0
  6
CONTINUOUS
 62
     3
 10
438.8
 20
348.7
 40
1.2
 50
270.0
 51
0.0
  0
LINE
  8
0
  6
CONTINUOUS
 62
     3
 10
443.7
 20
351.0
 11
440.01
 21
351.0
  0
LINE
  8
0
  6
CONTINUOUS
 62
     3
 10
428.0
 20
348.7
 11
428.0
 21
355.5
  0
ARC
  8
0
  6
CONTINUOUS
 62
     3
 10
429.2
 20
348.7
 40
1.2
 50
180.0
 51
269.999752977
  0
LINE
  8
0
  6
CONTINUOUS
 62
     3
 10
426.0
 20
352.5
 11
424.5
 21
352.5
  0
LINE
  8
0
  6
CONTINUOUS
 62
     3
 10
424.5
 20
352.5
 11
424.5
 21
351.3
  0
LINE
  8
0
  6
CONTINUOUS
 62
     3
 10
426.0
 20
352.5
 11
426.0
 21
354.3
  0
LINE
  8
0
  6
CONTINUOUS
 62
     3
 10
424.5
 20
351.3
 11
426.0
 21
351.3
  0
ARC
  8
0
  6
CONTINUOUS
 62
     3
 10
426.0
 20
352.5
 40
1.2
 50
270.0
 51
0.0
  0
LINE
  8
0
  6
CONTINUOUS
 62
     3
 10
426.0
 20
354.3
 11
426.0
 21
352.5
  0
ARC
  8
0
  6
CONTINUOUS
 62
     3
 10
427.2
 20
354.3
 40
1.2
 50
89.999776927
 51
180.0
  0
LINE
  8
0
  6
CONTINUOUS
 62
     3
 10
427.2
 20
352.5
 11
427.2
 21
354.3
  0
LINE
  8
0
  6
CONTINUOUS
 62
     3
 10
424.0
 20
352.2
 11
424.0
 21
351.3
  0
ARC
  8
0
  6
CONTINUOUS
 62
     3
 10
424.3
 20
352.2
 40
0.3
 50
90.0
 51
180.0
  0
LINE
  8
0
  6
CONTINUOUS
 62
     3
 10
425.5
 20
353.5
 11
425.5
 21
352.5
  0
LINE
  8
0
  6
CONTINUOUS
 62
     3
 10
425.5
 20
352.5
 11
424.3
 21
352.5
  0
ARC
  8
0
  6
CONTINUOUS
 62
     3
 10
424.3
 20
351.3
 40
0.3
 50
180.0
 51
270.000963786
  0
LINE
  8
0
  6
CONTINUOUS
 62
     3
 10
428.0
 20
354.3
 11
427.2
 21
354.3
  0
LINE
  8
0
  6
CONTINUOUS
 62
     3
 10
440.800002697
 20
355.5
 11
427.200004672
 21
355.5
  0
LINE
  8
0
  6
CONTINUOUS
 62
     3
 10
424.300005046
 20
351.0
 11
427.87
 21
351.0
  0
LINE
  8
0
  6
CONTINUOUS
 62
     3
 10
423.25
 20
353.0
 11
422.66
 21
353.0
  0
LINE
  8
0
  6
CONTINUOUS
 62
     3
 10
423.25
 20
350.5
 11
423.25
 21
353.0
  0
LINE
  8
0
  6
CONTINUOUS
 62
     3
 10
425.5
 20
353.5
 11
422.01
 21
353.5
  0
LINE
  8
0
  6
CONTINUOUS
 62
     3
 10
444.75
 20
350.5
 11
423.25
 21
350.5
  0
ARC
  8
0
  6
CONTINUOUS
 62
     3
 10
414.9
 20
352.5
 40
1.0
 50
90.0
 51
180.0
  0
CIRCLE
  8
0
  6
CONTINUOUS
 62
     3
 10
417.5
 20
349.9
 40
3.0
  0
LINE
  8
0
  6
CONTINUOUS
 62
     3
 10
413.9
 20
345.27
 11
413.9
 21
352.5
  0
LINE
  8
0
  6
CONTINUOUS
 62
     3
 10
414.4
 20
352.504580104
 11
414.897704679
 21
353.0
  0
LINE
  8
0
  6
CONTINUOUS
 62
     3
 10
414.4
 20
352.504580104
 11
414.4
 21
263.295419896
  0
LINE
  8
0
  6
CONTINUOUS
 62
     3
 10
423.06
 20
353.5
 11
414.65
 21
353.5
  0
LINE
  8
0
  6
CONTINUOUS
 62
     3
 10
423.0
 20
353.0
 11
414.897704679
 21
353.0
  0
LINE
  8
0
  6
CONTINUOUS
 62
     3
 10
450.75
 20
262.8
 11
451.75
 21
263.8
  0
LINE
  8
0
  6
CONTINUOUS
 62
     3
 10
452.75
 20
307.9
 11
452.75
 21
262.15
  0
LINE
  8
0
  6
CONTINUOUS
 62
     3
 10
458.75
 20
262.15
 11
452.75
 21
262.15
  0
LINE
  8
0
  6
CONTINUOUS
 62
     3
 10
452.01
 20
263.8
 11
451.76
 21
263.8
  0
LINE
  8
0
  6
CONTINUOUS
 62
     3
 10
452.0
 20
263.8
 11
452.650662386
 21
263.149337614
  0
LINE
  8
0
  6
CONTINUOUS
 62
     3
 10
451.75
 20
263.8
 11
451.75
 21
352.0
  0
LINE
  8
0
  6
CONTINUOUS
 62
     3
 10
452.0
 20
352.0
 11
452.0
 21
263.8
  0
LINE
  8
0
  6
CONTINUOUS
 62
     3
 10
450.75
 20
262.8
 11
414.897704679
 21
262.8
  0
LINE
  8
0
  6
CONTINUOUS
 62
     3
 10
452.6
 20
262.3
 11
414.65
 21
262.3
  0
LINE
  8
0
  6
CONTINUOUS
 62
     4
 10
414.4
 20
262.3
 11
396.25
 21
262.3
  0
LINE
  8
0
  6
CONTINUOUS
 62
     4
 10
397.25
 20
262.3
 11
397.76763809
 21
264.231851653
  0
LINE
  8
0
  6
CONTINUOUS
 62
     4
 10
397.25
 20
262.3
 11
396.73236191
 21
264.231851653
  0
LINE
  8
0
  6
CONTINUOUS
 62
     4
 10
397.25
 20
262.3
 11
397.25
 21
353.5
  0
LINE
  8
0
  6
CONTINUOUS
 62
     4
 10
397.25
 20
353.5
 11
396.73236191
 21
351.568148347
  0
LINE
  8
0
  6
CONTINUOUS
 62
     4
 10
397.25
 20
353.5
 11
397.76763809
 21
351.568148347
  0
LINE
  8
0
  6
CONTINUOUS
 62
     4
 10
414.4
 20
353.5
 11
396.25
 21
353.5
  0
LINE
  8
0
  6
CONTINUOUS
 62
     4
 10
505.1
 20
262.8
 11
505.1
 21
250.42
  0
LINE
  8
0
  6
CONTINUOUS
 62
     4
 10
505.1
 20
251.42
 11
503.168148347
 21
251.93763809
  0
LINE
  8
0
  6
CONTINUOUS
 62
     4
 10
505.1
 20
251.42
 11
503.168148347
 21
250.90236191
  0
LINE
  8
0
  6
CONTINUOUS
 62
     4
 10
505.1
 20
251.42
 11
413.9
 21
251.42
  0
LINE
  8
0
  6
CONTINUOUS
 62
     4
 10
413.9
 20
251.42
 11
415.831851653
 21
250.90236191
  0
LINE
  8
0
  6
CONTINUOUS
 62
     4
 10
413.9
 20
251.42
 11
415.831851653
 21
251.93763809
  0
LINE
  8
0
  6
CONTINUOUS
 62
     4
 10
413.9
 20
262.8
 11
413.9
 21
250.42
  0
LINE
  8
0
  6
CONTINUOUS
 62
     3
 10
432.37
 20
311.15
 11
432.37
 21
307.15
  0
LINE
  8
0
  6
CONTINUOUS
 62
     3
 10
424.37
 20
311.15
 11
424.37
 21
307.15
  0
LINE
  8
0
  6
CONTINUOUS
 62
     3
 10
432.37
 20
307.15
 11
431.87
 21
307.15
  0
LINE
  8
0
  6
CONTINUOUS
 62
     3
 10
431.87
 20
311.15
 11
432.37
 21
311.15
  0
LINE
  8
0
  6
CONTINUOUS
 62
     3
 10
424.37
 20
311.15
 11
424.87
 21
311.15
  0
LINE
  8
0
  6
CONTINUOUS
 62
     3
 10
424.77
 20
307.15
 11
424.37
 21
307.15
  0
LINE
  8
0
  6
CONTINUOUS
 62
     3
 10
424.87
 20
308.4
 11
425.724248689
 21
308.4
  0
LINE
  8
0
  6
CONTINUOUS
 62
     3
 10
424.87
 20
309.9
 11
425.724248689
 21
309.9
  0
LINE
  8
0
  6
CONTINUOUS
 62
     3
 10
431.87
 20
308.4
 11
431.015751311
 21
308.4
  0
LINE
  8
0
  6
CONTINUOUS
 62
     3
 10
431.87
 20
309.9
 11
431.015751311
 21
309.9
  0
LINE
  8
0
  6
CONTINUOUS
 62
     3
 10
427.17
 20
308.45
 11
427.67
 21
307.95
  0
LINE
  8
0
  6
CONTINUOUS
 62
     3
 10
429.07
 20
310.35
 11
429.57
 21
309.85
  0
LINE
  8
0
  6
CONTINUOUS
 62
     3
 10
428.87
 20
309.15
 11
430.548406078
 21
307.471593922
  0
LINE
  8
0
  6
CONTINUOUS
 62
     3
 10
426.691593922
 20
311.328406078
 11
428.37
 21
309.65
  0
LINE
  8
0
  6
CONTINUOUS
 62
     3
 10
428.37
 20
309.65
 11
429.07
 21
310.35
  0
LINE
  8
0
  6
CONTINUOUS
 62
     3
 10
427.17
 20
308.45
 11
427.87
 21
309.15
  0
LINE
  8
0
  6
CONTINUOUS
 62
     3
 10
428.37
 20
308.65
 11
430.048406078
 21
306.971593922
  0
LINE
  8
0
  6
CONTINUOUS
 62
     3
 10
426.191593922
 20
310.828406078
 11
427.87
 21
309.15
  0
LINE
  8
0
  6
CONTINUOUS
 62
     3
 10
428.87
 20
309.15
 11
429.57
 21
309.85
  0
LINE
  8
0
  6
CONTINUOUS
 62
     3
 10
427.67
 20
307.95
 11
428.37
 21
308.65
  0
LINE
  8
0
  6
CONTINUOUS
 62
     3
 10
427.67
 20
310.35
 11
427.17
 21
309.85
  0
LINE
  8
0
  6
CONTINUOUS
 62
     3
 10
429.57
 20
308.45
 11
429.07
 21
307.95
  0
LINE
  8
0
  6
CONTINUOUS
 62
     3
 10
432.37
 20
311.15
 11
432.37
 21
307.15
  0
LINE
  8
0
  6
CONTINUOUS
 62
     3
 10
424.37
 20
311.15
 11
424.37
 21
307.15
  0
LINE
  8
0
  6
CONTINUOUS
 62
     3
 10
432.37
 20
307.15
 11
431.87
 21
307.15
  0
LINE
  8
0
  6
CONTINUOUS
 62
     3
 10
431.87
 20
311.15
 11
432.37
 21
311.15
  0
LINE
  8
0
  6
CONTINUOUS
 62
     3
 10
424.37
 20
311.15
 11
424.87
 21
311.15
  0
LINE
  8
0
  6
CONTINUOUS
 62
     3
 10
424.77
 20
307.15
 11
424.37
 21
307.15
  0
LINE
  8
0
  6
CONTINUOUS
 62
     3
 10
424.87
 20
308.4
 11
425.724248689
 21
308.4
  0
LINE
  8
0
  6
CONTINUOUS
 62
     3
 10
424.87
 20
309.9
 11
425.724248689
 21
309.9
  0
LINE
  8
0
  6
CONTINUOUS
 62
     3
 10
431.87
 20
308.4
 11
431.015751311
 21
308.4
  0
LINE
  8
0
  6
CONTINUOUS
 62
     3
 10
431.87
 20
309.9
 11
431.015751311
 21
309.9
  0
LINE
  8
0
  6
CONTINUOUS
 62
     3
 10
427.17
 20
308.45
 11
427.67
 21
307.95
  0
LINE
  8
0
  6
CONTINUOUS
 62
     3
 10
429.07
 20
310.35
 11
429.57
 21
309.85
  0
LINE
  8
0
  6
CONTINUOUS
 62
     3
 10
428.87
 20
309.15
 11
430.548406078
 21
307.471593922
  0
LINE
  8
0
  6
CONTINUOUS
 62
     3
 10
426.691593922
 20
311.328406078
 11
428.37
 21
309.65
  0
LINE
  8
0
  6
CONTINUOUS
 62
     3
 10
428.37
 20
309.65
 11
429.07
 21
310.35
  0
LINE
  8
0
  6
CONTINUOUS
 62
     3
 10
427.17
 20
308.45
 11
427.87
 21
309.15
  0
LINE
  8
0
  6
CONTINUOUS
 62
     3
 10
428.37
 20
308.65
 11
430.048406078
 21
306.971593922
  0
LINE
  8
0
  6
CONTINUOUS
 62
     3
 10
426.191593922
 20
310.828406078
 11
427.87
 21
309.15
  0
LINE
  8
0
  6
CONTINUOUS
 62
     3
 10
428.87
 20
309.15
 11
429.57
 21
309.85
  0
LINE
  8
0
  6
CONTINUOUS
 62
     3
 10
427.67
 20
307.95
 11
428.37
 21
308.65
  0
LINE
  8
0
  6
CONTINUOUS
 62
     3
 10
427.67
 20
310.35
 11
427.17
 21
309.85
  0
LINE
  8
0
  6
CONTINUOUS
 62
     3
 10
429.57
 20
308.45
 11
429.07
 21
307.95
  0
CIRCLE
  8
0
  6
CONTINUOUS
 62
     3
 10
435.75
 20
274.9
 40
1.0
  0
CIRCLE
  8
0
  6
CONTINUOUS
 62
     3
 10
430.75
 20
274.9
 40
1.0
  0
CIRCLE
  8
0
  6
CONTINUOUS
 62
     3
 10
420.75
 20
274.9
 40
1.0
  0
CIRCLE
  8
0
  6
CONTINUOUS
 62
     3
 10
425.75
 20
274.9
 40
1.0
  0
CIRCLE
  8
0
  6
CONTINUOUS
 62
     3
 10
435.75
 20
269.9
 40
1.0
  0
CIRCLE
  8
0
  6
CONTINUOUS
 62
     3
 10
430.75
 20
269.9
 40
1.0
  0
CIRCLE
  8
0
  6
CONTINUOUS
 62
     3
 10
420.75
 20
269.9
 40
1.0
  0
CIRCLE
  8
0
  6
CONTINUOUS
 62
     3
 10
425.75
 20
269.9
 40
1.0
  0
CIRCLE
  8
0
  6
CONTINUOUS
 62
     3
 10
435.75
 20
335.9
 40
1.0
  0
CIRCLE
  8
0
  6
CONTINUOUS
 62
     3
 10
435.75
 20
340.9
 40
1.0
  0
CIRCLE
  8
0
  6
CONTINUOUS
 62
     3
 10
430.75
 20
340.9
 40
1.0
  0
CIRCLE
  8
0
  6
CONTINUOUS
 62
     3
 10
430.75
 20
335.9
 40
1.0
  0
CIRCLE
  8
0
  6
CONTINUOUS
 62
     3
 10
420.75
 20
335.9
 40
1.0
  0
CIRCLE
  8
0
  6
CONTINUOUS
 62
     3
 10
420.75
 20
340.9
 40
1.0
  0
CIRCLE
  8
0
  6
CONTINUOUS
 62
     3
 10
425.75
 20
340.9
 40
1.0
  0
CIRCLE
  8
0
  6
CONTINUOUS
 62
     3
 10
425.75
 20
335.9
 40
1.0
  0
CIRCLE
  8
0
  6
CONTINUOUS
 62
     3
 10
435.75
 20
345.9
 40
1.0
  0
CIRCLE
  8
0
  6
CONTINUOUS
 62
     3
 10
430.75
 20
345.9
 40
1.0
  0
CIRCLE
  8
0
  6
CONTINUOUS
 62
     3
 10
420.75
 20
345.9
 40
1.0
  0
CIRCLE
  8
0
  6
CONTINUOUS
 62
     3
 10
425.75
 20
345.9
 40
1.0
  0
CIRCLE
  8
0
  6
CONTINUOUS
 62
     3
 10
442.95
 20
279.399996185
 40
3.0
  0
LINE
  8
0
  6
CONTINUOUS
 62
     3
 10
442.45
 20
281.399996185
 11
442.45
 21
279.899996185
  0
LINE
  8
0
  6
CONTINUOUS
 62
     3
 10
442.45
 20
279.899996185
 11
440.95
 21
279.899996185
  0
LINE
  8
0
  6
CONTINUOUS
 62
     3
 10
440.95
 20
279.899996185
 11
440.95
 21
278.899996185
  0
LINE
  8
0
  6
CONTINUOUS
 62
     3
 10
440.95
 20
278.899996185
 11
442.45
 21
278.899996185
  0
LINE
  8
0
  6
CONTINUOUS
 62
     3
 10
442.45
 20
278.899996185
 11
442.45
 21
277.399996185
  0
LINE
  8
0
  6
CONTINUOUS
 62
     3
 10
442.45
 20
277.399996185
 11
443.45
 21
277.399996185
  0
LINE
  8
0
  6
CONTINUOUS
 62
     3
 10
443.45
 20
277.399996185
 11
443.45
 21
278.899996185
  0
LINE
  8
0
  6
CONTINUOUS
 62
     3
 10
443.45
 20
278.899996185
 11
444.95
 21
278.899996185
  0
LINE
  8
0
  6
CONTINUOUS
 62
     3
 10
444.95
 20
278.899996185
 11
444.95
 21
279.899996185
  0
LINE
  8
0
  6
CONTINUOUS
 62
     3
 10
444.95
 20
279.899996185
 11
443.45
 21
279.899996185
  0
LINE
  8
0
  6
CONTINUOUS
 62
     3
 10
443.45
 20
281.399996185
 11
442.45
 21
281.399996185
  0
LINE
  8
0
  6
CONTINUOUS
 62
     3
 10
443.45
 20
281.399996185
 11
443.45
 21
279.899996185
  0
CIRCLE
  8
0
  6
CONTINUOUS
 62
     3
 10
442.95
 20
336.324997303
 40
3.0
  0
LINE
  8
0
  6
CONTINUOUS
 62
     3
 10
442.45
 20
338.324997303
 11
442.45
 21
336.824997303
  0
LINE
  8
0
  6
CONTINUOUS
 62
     3
 10
442.45
 20
336.824997303
 11
440.95
 21
336.824997303
  0
LINE
  8
0
  6
CONTINUOUS
 62
     3
 10
440.95
 20
336.824997303
 11
440.95
 21
335.824997303
  0
LINE
  8
0
  6
CONTINUOUS
 62
     3
 10
440.95
 20
335.824997303
 11
442.45
 21
335.824997303
  0
LINE
  8
0
  6
CONTINUOUS
 62
     3
 10
442.45
 20
335.824997303
 11
442.45
 21
334.324997303
  0
LINE
  8
0
  6
CONTINUOUS
 62
     3
 10
442.45
 20
334.324997303
 11
443.45
 21
334.324997303
  0
LINE
  8
0
  6
CONTINUOUS
 62
     3
 10
443.45
 20
334.324997303
 11
443.45
 21
335.824997303
  0
LINE
  8
0
  6
CONTINUOUS
 62
     3
 10
443.45
 20
335.824997303
 11
444.95
 21
335.824997303
  0
LINE
  8
0
  6
CONTINUOUS
 62
     3
 10
444.95
 20
335.824997303
 11
444.95
 21
336.824997303
  0
LINE
  8
0
  6
CONTINUOUS
 62
     3
 10
444.95
 20
336.824997303
 11
443.45
 21
336.824997303
  0
LINE
  8
0
  6
CONTINUOUS
 62
     3
 10
443.45
 20
338.324997303
 11
442.45
 21
338.324997303
  0
LINE
  8
0
  6
CONTINUOUS
 62
     3
 10
443.45
 20
338.324997303
 11
443.45
 21
336.824997303
  0
LINE
  8
0
  6
CONTINUOUS
 62
     3
 10
420.87
 20
276.65
 11
435.87
 21
276.65
  0
LINE
  8
0
  6
CONTINUOUS
 62
     3
 10
420.87
 20
276.65
 11
435.87
 21
276.65
  0
LINE
  8
0
  6
CONTINUOUS
 62
     3
 10
420.87
 20
276.65
 11
435.87
 21
276.65
  0
LINE
  8
0
  6
CONTINUOUS
 62
     3
 10
430.37
 20
305.05
 11
430.37
 21
304.8
  0
LINE
  8
0
  6
CONTINUOUS
 62
     3
 10
426.37
 20
304.8
 11
430.37
 21
304.8
  0
LINE
  8
0
  6
CONTINUOUS
 62
     3
 10
426.37
 20
304.8
 11
426.37
 21
305.05
  0
LINE
  8
0
  6
CONTINUOUS
 62
     3
 10
430.37
 20
305.05
 11
435.87
 21
305.05
  0
LINE
  8
0
  6
CONTINUOUS
 62
     3
 10
420.87
 20
305.05
 11
426.37
 21
305.05
  0
LINE
  8
0
  6
CONTINUOUS
 62
     3
 10
433.37
 20
286.05
 11
433.37
 21
294.25
  0
LINE
  8
0
  6
CONTINUOUS
 62
     3
 10
423.37
 20
286.05
 11
423.37
 21
294.25
  0
LINE
  8
0
  6
CONTINUOUS
 62
     3
 10
430.37
 20
294.5
 11
426.37
 21
294.5
  0
LINE
  8
0
  6
CONTINUOUS
 62
     3
 10
430.37
 20
294.5
 11
430.37
 21
294.25
  0
LINE
  8
0
  6
CONTINUOUS
 62
     3
 10
426.37
 20
294.25
 11
426.37
 21
294.5
  0
LINE
  8
0
  6
CONTINUOUS
 62
     3
 10
430.37
 20
294.25
 11
435.87
 21
294.25
  0
LINE
  8
0
  6
CONTINUOUS
 62
     3
 10
420.87
 20
294.25
 11
426.37
 21
294.25
  0
LINE
  8
0
  6
CONTINUOUS
 62
     3
 10
433.37
 20
295.55
 11
433.37
 21
303.75
  0
LINE
  8
0
  6
CONTINUOUS
 62
     3
 10
423.37
 20
295.55
 11
423.37
 21
303.75
  0
LINE
  8
0
  6
CONTINUOUS
 62
     3
 10
430.37
 20
304.0
 11
426.37
 21
304.0
  0
LINE
  8
0
  6
CONTINUOUS
 62
     3
 10
430.37
 20
304.0
 11
430.37
 21
303.75
  0
LINE
  8
0
  6
CONTINUOUS
 62
     3
 10
426.37
 20
303.75
 11
426.37
 21
304.0
  0
LINE
  8
0
  6
CONTINUOUS
 62
     3
 10
430.37
 20
295.55
 11
430.37
 21
295.3
  0
LINE
  8
0
  6
CONTINUOUS
 62
     3
 10
426.37
 20
295.3
 11
430.37
 21
295.3
  0
LINE
  8
0
  6
CONTINUOUS
 62
     3
 10
426.37
 20
295.3
 11
426.37
 21
295.55
  0
LINE
  8
0
  6
CONTINUOUS
 62
     3
 10
430.37
 20
295.55
 11
435.87
 21
295.55
  0
LINE
  8
0
  6
CONTINUOUS
 62
     3
 10
420.87
 20
295.55
 11
426.37
 21
295.55
  0
LINE
  8
0
  6
CONTINUOUS
 62
     3
 10
430.37
 20
303.75
 11
435.87
 21
303.75
  0
LINE
  8
0
  6
CONTINUOUS
 62
     3
 10
420.87
 20
303.75
 11
426.37
 21
303.75
  0
LINE
  8
0
  6
CONTINUOUS
 62
     3
 10
430.37
 20
305.05
 11
430.37
 21
304.8
  0
LINE
  8
0
  6
CONTINUOUS
 62
     3
 10
426.37
 20
304.8
 11
430.37
 21
304.8
  0
LINE
  8
0
  6
CONTINUOUS
 62
     3
 10
426.37
 20
304.8
 11
426.37
 21
305.05
  0
LINE
  8
0
  6
CONTINUOUS
 62
     3
 10
430.37
 20
305.05
 11
435.87
 21
305.05
  0
LINE
  8
0
  6
CONTINUOUS
 62
     3
 10
420.87
 20
305.05
 11
426.37
 21
305.05
  0
CIRCLE
  8
0
  6
CONTINUOUS
 62
     3
 10
428.37
 20
309.15
 40
2.75
  0
LINE
  8
0
  6
CONTINUOUS
 62
     3
 10
425.37
 20
305.65
 11
431.37
 21
305.65
  0
LINE
  8
0
  6
CONTINUOUS
 62
     3
 10
425.37
 20
305.65
 11
431.37
 21
305.65
  0
LINE
  8
0
  6
CONTINUOUS
 62
     3
 10
427.62
 20
306.504248689
 11
427.62
 21
305.65
  0
LINE
  8
0
  6
CONTINUOUS
 62
     3
 10
429.12
 20
306.504248689
 11
429.12
 21
305.65
  0
LINE
  8
0
  6
CONTINUOUS
 62
     3
 10
424.87
 20
305.65
 11
431.87
 21
305.65
  0
LINE
  8
0
  6
CONTINUOUS
 62
     3
 10
433.37
 20
286.05
 11
433.37
 21
294.25
  0
LINE
  8
0
  6
CONTINUOUS
 62
     3
 10
423.37
 20
286.05
 11
423.37
 21
294.25
  0
LINE
  8
0
  6
CONTINUOUS
 62
     3
 10
430.37
 20
294.5
 11
426.37
 21
294.5
  0
LINE
  8
0
  6
CONTINUOUS
 62
     3
 10
430.37
 20
294.5
 11
430.37
 21
294.25
  0
LINE
  8
0
  6
CONTINUOUS
 62
     3
 10
426.37
 20
294.25
 11
426.37
 21
294.5
  0
LINE
  8
0
  6
CONTINUOUS
 62
     3
 10
430.37
 20
294.25
 11
435.87
 21
294.25
  0
LINE
  8
0
  6
CONTINUOUS
 62
     3
 10
420.87
 20
294.25
 11
426.37
 21
294.25
  0
CIRCLE
  8
0
  6
CONTINUOUS
 62
     3
 10
428.37
 20
290.15
 40
2.75
  0
LINE
  8
0
  6
CONTINUOUS
 62
     3
 10
432.37
 20
292.15
 11
432.37
 21
288.15
  0
LINE
  8
0
  6
CONTINUOUS
 62
     3
 10
425.37
 20
293.65
 11
431.37
 21
293.65
  0
LINE
  8
0
  6
CONTINUOUS
 62
     3
 10
424.37
 20
292.15
 11
424.37
 21
288.15
  0
LINE
  8
0
  6
CONTINUOUS
 62
     3
 10
431.37
 20
293.65
 11
425.37
 21
293.65
  0
LINE
  8
0
  6
CONTINUOUS
 62
     3
 10
427.62
 20
287.504248689
 11
427.62
 21
286.65
  0
LINE
  8
0
  6
CONTINUOUS
 62
     3
 10
427.62
 20
293.65
 11
427.62
 21
292.795751311
  0
LINE
  8
0
  6
CONTINUOUS
 62
     3
 10
429.12
 20
287.504248689
 11
429.12
 21
286.65
  0
LINE
  8
0
  6
CONTINUOUS
 62
     3
 10
429.12
 20
293.65
 11
429.12
 21
292.795751311
  0
LINE
  8
0
  6
CONTINUOUS
 62
     3
 10
424.87
 20
293.65
 11
424.87
 21
286.65
  0
LINE
  8
0
  6
CONTINUOUS
 62
     3
 10
431.87
 20
286.65
 11
431.87
 21
293.65
  0
LINE
  8
0
  6
CONTINUOUS
 62
     3
 10
431.87
 20
293.65
 11
424.87
 21
293.65
  0
LINE
  8
0
  6
CONTINUOUS
 62
     3
 10
432.37
 20
288.15
 11
431.87
 21
288.15
  0
LINE
  8
0
  6
CONTINUOUS
 62
     3
 10
431.87
 20
292.15
 11
432.37
 21
292.15
  0
LINE
  8
0
  6
CONTINUOUS
 62
     3
 10
424.37
 20
292.15
 11
424.87
 21
292.15
  0
LINE
  8
0
  6
CONTINUOUS
 62
     3
 10
424.77
 20
288.15
 11
424.37
 21
288.15
  0
LINE
  8
0
  6
CONTINUOUS
 62
     3
 10
424.87
 20
289.4
 11
425.724248689
 21
289.4
  0
LINE
  8
0
  6
CONTINUOUS
 62
     3
 10
424.87
 20
290.9
 11
425.724248689
 21
290.9
  0
LINE
  8
0
  6
CONTINUOUS
 62
     3
 10
431.87
 20
289.4
 11
431.015751311
 21
289.4
  0
LINE
  8
0
  6
CONTINUOUS
 62
     3
 10
431.87
 20
290.9
 11
431.015751311
 21
290.9
  0
LINE
  8
0
  6
CONTINUOUS
 62
     3
 10
427.17
 20
289.45
 11
427.67
 21
288.95
  0
LINE
  8
0
  6
CONTINUOUS
 62
     3
 10
429.07
 20
291.35
 11
429.57
 21
290.85
  0
LINE
  8
0
  6
CONTINUOUS
 62
     3
 10
428.87
 20
290.15
 11
430.548406078
 21
288.471593922
  0
LINE
  8
0
  6
CONTINUOUS
 62
     3
 10
426.691593922
 20
292.328406078
 11
428.37
 21
290.65
  0
LINE
  8
0
  6
CONTINUOUS
 62
     3
 10
428.37
 20
290.65
 11
429.07
 21
291.35
  0
LINE
  8
0
  6
CONTINUOUS
 62
     3
 10
427.17
 20
289.45
 11
427.87
 21
290.15
  0
LINE
  8
0
  6
CONTINUOUS
 62
     3
 10
428.37
 20
289.65
 11
430.048406078
 21
287.971593922
  0
LINE
  8
0
  6
CONTINUOUS
 62
     3
 10
426.191593922
 20
291.828406078
 11
427.87
 21
290.15
  0
LINE
  8
0
  6
CONTINUOUS
 62
     3
 10
428.87
 20
290.15
 11
429.57
 21
290.85
  0
LINE
  8
0
  6
CONTINUOUS
 62
     3
 10
427.67
 20
288.95
 11
428.37
 21
289.65
  0
LINE
  8
0
  6
CONTINUOUS
 62
     3
 10
427.67
 20
291.35
 11
427.17
 21
290.85
  0
LINE
  8
0
  6
CONTINUOUS
 62
     3
 10
429.57
 20
289.45
 11
429.07
 21
288.95
  0
LINE
  8
0
  6
CONTINUOUS
 62
     3
 10
433.37
 20
295.55
 11
433.37
 21
303.75
  0
LINE
  8
0
  6
CONTINUOUS
 62
     3
 10
423.37
 20
295.55
 11
423.37
 21
303.75
  0
LINE
  8
0
  6
CONTINUOUS
 62
     3
 10
430.37
 20
304.0
 11
426.37
 21
304.0
  0
LINE
  8
0
  6
CONTINUOUS
 62
     3
 10
430.37
 20
304.0
 11
430.37
 21
303.75
  0
LINE
  8
0
  6
CONTINUOUS
 62
     3
 10
426.37
 20
303.75
 11
426.37
 21
304.0
  0
LINE
  8
0
  6
CONTINUOUS
 62
     3
 10
430.37
 20
295.55
 11
430.37
 21
295.3
  0
LINE
  8
0
  6
CONTINUOUS
 62
     3
 10
426.37
 20
295.3
 11
430.37
 21
295.3
  0
LINE
  8
0
  6
CONTINUOUS
 62
     3
 10
426.37
 20
295.3
 11
426.37
 21
295.55
  0
LINE
  8
0
  6
CONTINUOUS
 62
     3
 10
430.37
 20
295.55
 11
435.87
 21
295.55
  0
LINE
  8
0
  6
CONTINUOUS
 62
     3
 10
420.87
 20
295.55
 11
426.37
 21
295.55
  0
LINE
  8
0
  6
CONTINUOUS
 62
     3
 10
430.37
 20
303.75
 11
435.87
 21
303.75
  0
LINE
  8
0
  6
CONTINUOUS
 62
     3
 10
420.87
 20
303.75
 11
426.37
 21
303.75
  0
CIRCLE
  8
0
  6
CONTINUOUS
 62
     3
 10
428.37
 20
299.65
 40
2.75
  0
LINE
  8
0
  6
CONTINUOUS
 62
     3
 10
432.37
 20
301.65
 11
432.37
 21
297.65
  0
LINE
  8
0
  6
CONTINUOUS
 62
     3
 10
425.37
 20
303.15
 11
431.37
 21
303.15
  0
LINE
  8
0
  6
CONTINUOUS
 62
     3
 10
424.37
 20
301.65
 11
424.37
 21
297.65
  0
LINE
  8
0
  6
CONTINUOUS
 62
     3
 10
425.37
 20
296.15
 11
431.37
 21
296.15
  0
LINE
  8
0
  6
CONTINUOUS
 62
     3
 10
425.37
 20
296.15
 11
431.37
 21
296.15
  0
LINE
  8
0
  6
CONTINUOUS
 62
     3
 10
431.37
 20
303.15
 11
425.37
 21
303.15
  0
LINE
  8
0
  6
CONTINUOUS
 62
     3
 10
427.62
 20
297.004248689
 11
427.62
 21
296.15
  0
LINE
  8
0
  6
CONTINUOUS
 62
     3
 10
427.62
 20
303.15
 11
427.62
 21
302.295751311
  0
LINE
  8
0
  6
CONTINUOUS
 62
     3
 10
429.12
 20
297.004248689
 11
429.12
 21
296.15
  0
LINE
  8
0
  6
CONTINUOUS
 62
     3
 10
429.12
 20
303.15
 11
429.12
 21
302.295751311
  0
LINE
  8
0
  6
CONTINUOUS
 62
     3
 10
424.87
 20
303.15
 11
424.87
 21
296.15
  0
LINE
  8
0
  6
CONTINUOUS
 62
     3
 10
424.87
 20
296.15
 11
431.87
 21
296.15
  0
LINE
  8
0
  6
CONTINUOUS
 62
     3
 10
431.87
 20
296.15
 11
431.87
 21
303.15
  0
LINE
  8
0
  6
CONTINUOUS
 62
     3
 10
431.87
 20
303.15
 11
424.87
 21
303.15
  0
LINE
  8
0
  6
CONTINUOUS
 62
     3
 10
432.37
 20
297.65
 11
431.87
 21
297.65
  0
LINE
  8
0
  6
CONTINUOUS
 62
     3
 10
431.87
 20
301.65
 11
432.37
 21
301.65
  0
LINE
  8
0
  6
CONTINUOUS
 62
     3
 10
424.37
 20
301.65
 11
424.87
 21
301.65
  0
LINE
  8
0
  6
CONTINUOUS
 62
     3
 10
424.77
 20
297.65
 11
424.37
 21
297.65
  0
LINE
  8
0
  6
CONTINUOUS
 62
     3
 10
424.87
 20
298.9
 11
425.724248689
 21
298.9
  0
LINE
  8
0
  6
CONTINUOUS
 62
     3
 10
424.87
 20
300.4
 11
425.724248689
 21
300.4
  0
LINE
  8
0
  6
CONTINUOUS
 62
     3
 10
431.87
 20
298.9
 11
431.015751311
 21
298.9
  0
LINE
  8
0
  6
CONTINUOUS
 62
     3
 10
431.87
 20
300.4
 11
431.015751311
 21
300.4
  0
LINE
  8
0
  6
CONTINUOUS
 62
     3
 10
427.17
 20
298.95
 11
427.67
 21
298.45
  0
LINE
  8
0
  6
CONTINUOUS
 62
     3
 10
429.07
 20
300.85
 11
429.57
 21
300.35
  0
LINE
  8
0
  6
CONTINUOUS
 62
     3
 10
428.87
 20
299.65
 11
430.548406078
 21
297.971593922
  0
LINE
  8
0
  6
CONTINUOUS
 62
     3
 10
426.691593922
 20
301.828406078
 11
428.37
 21
300.15
  0
LINE
  8
0
  6
CONTINUOUS
 62
     3
 10
428.37
 20
300.15
 11
429.07
 21
300.85
  0
LINE
  8
0
  6
CONTINUOUS
 62
     3
 10
427.17
 20
298.95
 11
427.87
 21
299.65
  0
LINE
  8
0
  6
CONTINUOUS
 62
     3
 10
428.37
 20
299.15
 11
430.048406078
 21
297.471593922
  0
LINE
  8
0
  6
CONTINUOUS
 62
     3
 10
426.191593922
 20
301.328406078
 11
427.87
 21
299.65
  0
LINE
  8
0
  6
CONTINUOUS
 62
     3
 10
428.87
 20
299.65
 11
429.57
 21
300.35
  0
LINE
  8
0
  6
CONTINUOUS
 62
     3
 10
427.67
 20
298.45
 11
428.37
 21
299.15
  0
LINE
  8
0
  6
CONTINUOUS
 62
     3
 10
427.67
 20
300.85
 11
427.17
 21
300.35
  0
LINE
  8
0
  6
CONTINUOUS
 62
     3
 10
429.57
 20
298.95
 11
429.07
 21
298.45
  0
CIRCLE
  8
0
  6
CONTINUOUS
 62
     3
 10
428.37
 20
309.15
 40
2.75
  0
LINE
  8
0
  6
CONTINUOUS
 62
     3
 10
425.37
 20
305.65
 11
431.37
 21
305.65
  0
LINE
  8
0
  6
CONTINUOUS
 62
     3
 10
425.37
 20
305.65
 11
431.37
 21
305.65
  0
LINE
  8
0
  6
CONTINUOUS
 62
     3
 10
427.62
 20
306.504248689
 11
427.62
 21
305.65
  0
LINE
  8
0
  6
CONTINUOUS
 62
     3
 10
429.12
 20
306.504248689
 11
429.12
 21
305.65
  0
LINE
  8
0
  6
CONTINUOUS
 62
     3
 10
424.87
 20
305.65
 11
431.87
 21
305.65
  0
CIRCLE
  8
0
  6
CONTINUOUS
 62
     3
 10
428.37
 20
290.15
 40
2.75
  0
LINE
  8
0
  6
CONTINUOUS
 62
     3
 10
432.37
 20
292.15
 11
432.37
 21
288.15
  0
LINE
  8
0
  6
CONTINUOUS
 62
     3
 10
425.37
 20
293.65
 11
431.37
 21
293.65
  0
LINE
  8
0
  6
CONTINUOUS
 62
     3
 10
424.37
 20
292.15
 11
424.37
 21
288.15
  0
LINE
  8
0
  6
CONTINUOUS
 62
     3
 10
431.37
 20
293.65
 11
425.37
 21
293.65
  0
LINE
  8
0
  6
CONTINUOUS
 62
     3
 10
427.62
 20
287.504248689
 11
427.62
 21
286.65
  0
LINE
  8
0
  6
CONTINUOUS
 62
     3
 10
427.62
 20
293.65
 11
427.62
 21
292.795751311
  0
LINE
  8
0
  6
CONTINUOUS
 62
     3
 10
429.12
 20
287.504248689
 11
429.12
 21
286.65
  0
LINE
  8
0
  6
CONTINUOUS
 62
     3
 10
429.12
 20
293.65
 11
429.12
 21
292.795751311
  0
LINE
  8
0
  6
CONTINUOUS
 62
     3
 10
424.87
 20
293.65
 11
424.87
 21
286.65
  0
LINE
  8
0
  6
CONTINUOUS
 62
     3
 10
431.87
 20
286.65
 11
431.87
 21
293.65
  0
LINE
  8
0
  6
CONTINUOUS
 62
     3
 10
431.87
 20
293.65
 11
424.87
 21
293.65
  0
LINE
  8
0
  6
CONTINUOUS
 62
     3
 10
432.37
 20
288.15
 11
431.87
 21
288.15
  0
LINE
  8
0
  6
CONTINUOUS
 62
     3
 10
431.87
 20
292.15
 11
432.37
 21
292.15
  0
LINE
  8
0
  6
CONTINUOUS
 62
     3
 10
424.37
 20
292.15
 11
424.87
 21
292.15
  0
LINE
  8
0
  6
CONTINUOUS
 62
     3
 10
424.77
 20
288.15
 11
424.37
 21
288.15
  0
LINE
  8
0
  6
CONTINUOUS
 62
     3
 10
424.87
 20
289.4
 11
425.724248689
 21
289.4
  0
LINE
  8
0
  6
CONTINUOUS
 62
     3
 10
424.87
 20
290.9
 11
425.724248689
 21
290.9
  0
LINE
  8
0
  6
CONTINUOUS
 62
     3
 10
431.87
 20
289.4
 11
431.015751311
 21
289.4
  0
LINE
  8
0
  6
CONTINUOUS
 62
     3
 10
431.87
 20
290.9
 11
431.015751311
 21
290.9
  0
LINE
  8
0
  6
CONTINUOUS
 62
     3
 10
427.17
 20
289.45
 11
427.67
 21
288.95
  0
LINE
  8
0
  6
CONTINUOUS
 62
     3
 10
429.07
 20
291.35
 11
429.57
 21
290.85
  0
LINE
  8
0
  6
CONTINUOUS
 62
     3
 10
428.87
 20
290.15
 11
430.548406078
 21
288.471593922
  0
LINE
  8
0
  6
CONTINUOUS
 62
     3
 10
426.691593922
 20
292.328406078
 11
428.37
 21
290.65
  0
LINE
  8
0
  6
CONTINUOUS
 62
     3
 10
428.37
 20
290.65
 11
429.07
 21
291.35
  0
LINE
  8
0
  6
CONTINUOUS
 62
     3
 10
427.17
 20
289.45
 11
427.87
 21
290.15
  0
LINE
  8
0
  6
CONTINUOUS
 62
     3
 10
428.37
 20
289.65
 11
430.048406078
 21
287.971593922
  0
LINE
  8
0
  6
CONTINUOUS
 62
     3
 10
426.191593922
 20
291.828406078
 11
427.87
 21
290.15
  0
LINE
  8
0
  6
CONTINUOUS
 62
     3
 10
428.87
 20
290.15
 11
429.57
 21
290.85
  0
LINE
  8
0
  6
CONTINUOUS
 62
     3
 10
427.67
 20
288.95
 11
428.37
 21
289.65
  0
LINE
  8
0
  6
CONTINUOUS
 62
     3
 10
427.67
 20
291.35
 11
427.17
 21
290.85
  0
LINE
  8
0
  6
CONTINUOUS
 62
     3
 10
429.57
 20
289.45
 11
429.07
 21
288.95
  0
CIRCLE
  8
0
  6
CONTINUOUS
 62
     3
 10
428.37
 20
299.65
 40
2.75
  0
LINE
  8
0
  6
CONTINUOUS
 62
     3
 10
432.37
 20
301.65
 11
432.37
 21
297.65
  0
LINE
  8
0
  6
CONTINUOUS
 62
     3
 10
425.37
 20
303.15
 11
431.37
 21
303.15
  0
LINE
  8
0
  6
CONTINUOUS
 62
     3
 10
424.37
 20
301.65
 11
424.37
 21
297.65
  0
LINE
  8
0
  6
CONTINUOUS
 62
     3
 10
425.37
 20
296.15
 11
431.37
 21
296.15
  0
LINE
  8
0
  6
CONTINUOUS
 62
     3
 10
425.37
 20
296.15
 11
431.37
 21
296.15
  0
LINE
  8
0
  6
CONTINUOUS
 62
     3
 10
431.37
 20
303.15
 11
425.37
 21
303.15
  0
LINE
  8
0
  6
CONTINUOUS
 62
     3
 10
427.62
 20
297.004248689
 11
427.62
 21
296.15
  0
LINE
  8
0
  6
CONTINUOUS
 62
     3
 10
427.62
 20
303.15
 11
427.62
 21
302.295751311
  0
LINE
  8
0
  6
CONTINUOUS
 62
     3
 10
429.12
 20
297.004248689
 11
429.12
 21
296.15
  0
LINE
  8
0
  6
CONTINUOUS
 62
     3
 10
429.12
 20
303.15
 11
429.12
 21
302.295751311
  0
LINE
  8
0
  6
CONTINUOUS
 62
     3
 10
424.87
 20
303.15
 11
424.87
 21
296.15
  0
LINE
  8
0
  6
CONTINUOUS
 62
     3
 10
424.87
 20
296.15
 11
431.87
 21
296.15
  0
LINE
  8
0
  6
CONTINUOUS
 62
     3
 10
431.87
 20
296.15
 11
431.87
 21
303.15
  0
LINE
  8
0
  6
CONTINUOUS
 62
     3
 10
431.87
 20
303.15
 11
424.87
 21
303.15
  0
LINE
  8
0
  6
CONTINUOUS
 62
     3
 10
432.37
 20
297.65
 11
431.87
 21
297.65
  0
LINE
  8
0
  6
CONTINUOUS
 62
     3
 10
431.87
 20
301.65
 11
432.37
 21
301.65
  0
LINE
  8
0
  6
CONTINUOUS
 62
     3
 10
424.37
 20
301.65
 11
424.87
 21
301.65
  0
LINE
  8
0
  6
CONTINUOUS
 62
     3
 10
424.77
 20
297.65
 11
424.37
 21
297.65
  0
LINE
  8
0
  6
CONTINUOUS
 62
     3
 10
424.87
 20
298.9
 11
425.724248689
 21
298.9
  0
LINE
  8
0
  6
CONTINUOUS
 62
     3
 10
424.87
 20
300.4
 11
425.724248689
 21
300.4
  0
LINE
  8
0
  6
CONTINUOUS
 62
     3
 10
431.87
 20
298.9
 11
431.015751311
 21
298.9
  0
LINE
  8
0
  6
CONTINUOUS
 62
     3
 10
431.87
 20
300.4
 11
431.015751311
 21
300.4
  0
LINE
  8
0
  6
CONTINUOUS
 62
     3
 10
427.17
 20
298.95
 11
427.67
 21
298.45
  0
LINE
  8
0
  6
CONTINUOUS
 62
     3
 10
429.07
 20
300.85
 11
429.57
 21
300.35
  0
LINE
  8
0
  6
CONTINUOUS
 62
     3
 10
428.87
 20
299.65
 11
430.548406078
 21
297.971593922
  0
LINE
  8
0
  6
CONTINUOUS
 62
     3
 10
426.691593922
 20
301.828406078
 11
428.37
 21
300.15
  0
LINE
  8
0
  6
CONTINUOUS
 62
     3
 10
428.37
 20
300.15
 11
429.07
 21
300.85
  0
LINE
  8
0
  6
CONTINUOUS
 62
     3
 10
427.17
 20
298.95
 11
427.87
 21
299.65
  0
LINE
  8
0
  6
CONTINUOUS
 62
     3
 10
428.37
 20
299.15
 11
430.048406078
 21
297.471593922
  0
LINE
  8
0
  6
CONTINUOUS
 62
     3
 10
426.191593922
 20
301.328406078
 11
427.87
 21
299.65
  0
LINE
  8
0
  6
CONTINUOUS
 62
     3
 10
428.87
 20
299.65
 11
429.57
 21
300.35
  0
LINE
  8
0
  6
CONTINUOUS
 62
     3
 10
427.67
 20
298.45
 11
428.37
 21
299.15
  0
LINE
  8
0
  6
CONTINUOUS
 62
     3
 10
427.67
 20
300.85
 11
427.17
 21
300.35
  0
LINE
  8
0
  6
CONTINUOUS
 62
     3
 10
429.57
 20
298.95
 11
429.07
 21
298.45
  0
LINE
  8
0
  6
CONTINUOUS
 62
     3
 10
433.37
 20
276.65
 11
433.37
 21
284.75
  0
LINE
  8
0
  6
CONTINUOUS
 62
     3
 10
423.37
 20
276.65
 11
423.37
 21
284.75
  0
LINE
  8
0
  6
CONTINUOUS
 62
     3
 10
430.37
 20
286.05
 11
430.37
 21
285.8
  0
LINE
  8
0
  6
CONTINUOUS
 62
     3
 10
426.37
 20
285.8
 11
430.37
 21
285.8
  0
LINE
  8
0
  6
CONTINUOUS
 62
     3
 10
426.37
 20
285.8
 11
426.37
 21
286.05
  0
LINE
  8
0
  6
CONTINUOUS
 62
     3
 10
430.37
 20
285.0
 11
426.37
 21
285.0
  0
LINE
  8
0
  6
CONTINUOUS
 62
     3
 10
430.37
 20
285.0
 11
430.37
 21
284.75
  0
LINE
  8
0
  6
CONTINUOUS
 62
     3
 10
426.37
 20
284.75
 11
426.37
 21
285.0
  0
LINE
  8
0
  6
CONTINUOUS
 62
     3
 10
430.37
 20
284.75
 11
435.87
 21
284.75
  0
LINE
  8
0
  6
CONTINUOUS
 62
     3
 10
420.87
 20
284.75
 11
426.37
 21
284.75
  0
LINE
  8
0
  6
CONTINUOUS
 62
     3
 10
430.37
 20
286.05
 11
435.87
 21
286.05
  0
LINE
  8
0
  6
CONTINUOUS
 62
     3
 10
420.87
 20
286.05
 11
426.37
 21
286.05
  0
LINE
  8
0
  6
CONTINUOUS
 62
     3
 10
433.37
 20
276.65
 11
433.37
 21
284.75
  0
LINE
  8
0
  6
CONTINUOUS
 62
     3
 10
423.37
 20
276.65
 11
423.37
 21
284.75
  0
LINE
  8
0
  6
CONTINUOUS
 62
     3
 10
430.37
 20
286.05
 11
430.37
 21
285.8
  0
LINE
  8
0
  6
CONTINUOUS
 62
     3
 10
426.37
 20
285.8
 11
430.37
 21
285.8
  0
LINE
  8
0
  6
CONTINUOUS
 62
     3
 10
426.37
 20
285.8
 11
426.37
 21
286.05
  0
LINE
  8
0
  6
CONTINUOUS
 62
     3
 10
430.37
 20
285.0
 11
426.37
 21
285.0
  0
LINE
  8
0
  6
CONTINUOUS
 62
     3
 10
430.37
 20
285.0
 11
430.37
 21
284.75
  0
LINE
  8
0
  6
CONTINUOUS
 62
     3
 10
426.37
 20
284.75
 11
426.37
 21
285.0
  0
LINE
  8
0
  6
CONTINUOUS
 62
     3
 10
430.37
 20
284.75
 11
435.87
 21
284.75
  0
LINE
  8
0
  6
CONTINUOUS
 62
     3
 10
420.87
 20
284.75
 11
426.37
 21
284.75
  0
LINE
  8
0
  6
CONTINUOUS
 62
     3
 10
430.37
 20
286.05
 11
435.87
 21
286.05
  0
LINE
  8
0
  6
CONTINUOUS
 62
     3
 10
420.87
 20
286.05
 11
426.37
 21
286.05
  0
LINE
  8
0
  6
CONTINUOUS
 62
     3
 10
425.37
 20
286.65
 11
431.37
 21
286.65
  0
LINE
  8
0
  6
CONTINUOUS
 62
     3
 10
424.37
 20
282.65
 11
425.37
 21
282.65
  0
LINE
  8
0
  6
CONTINUOUS
 62
     3
 10
425.37
 20
282.65
 11
425.37
 21
284.15
  0
LINE
  8
0
  6
CONTINUOUS
 62
     3
 10
425.37
 20
277.15
 11
425.37
 21
278.65
  0
LINE
  8
0
  6
CONTINUOUS
 62
     3
 10
425.37
 20
278.65
 11
424.37
 21
278.65
  0
LINE
  8
0
  6
CONTINUOUS
 62
     3
 10
431.37
 20
278.65
 11
431.37
 21
277.15
  0
LINE
  8
0
  6
CONTINUOUS
 62
     3
 10
432.37
 20
278.65
 11
431.37
 21
278.65
  0
LINE
  8
0
  6
CONTINUOUS
 62
     3
 10
431.37
 20
284.15
 11
431.37
 21
282.65
  0
LINE
  8
0
  6
CONTINUOUS
 62
     3
 10
431.37
 20
282.65
 11
432.37
 21
282.65
  0
LINE
  8
0
  6
CONTINUOUS
 62
     3
 10
432.37
 20
282.65
 11
432.37
 21
278.65
  0
LINE
  8
0
  6
CONTINUOUS
 62
     3
 10
425.37
 20
284.15
 11
431.37
 21
284.15
  0
LINE
  8
0
  6
CONTINUOUS
 62
     3
 10
424.37
 20
282.65
 11
424.37
 21
278.65
  0
LINE
  8
0
  6
CONTINUOUS
 62
     3
 10
425.37
 20
277.15
 11
431.37
 21
277.15
  0
CIRCLE
  8
0
  6
CONTINUOUS
 62
     3
 10
428.37
 20
280.65
 40
2.1
  0
LINE
  8
0
  6
CONTINUOUS
 62
     3
 10
425.37
 20
286.65
 11
431.37
 21
286.65
  0
LINE
  8
0
  6
CONTINUOUS
 62
     3
 10
425.37
 20
277.15
 11
431.37
 21
277.15
  0
LINE
  8
0
  6
CONTINUOUS
 62
     3
 10
431.37
 20
284.15
 11
425.37
 21
284.15
  0
LINE
  8
0
  6
CONTINUOUS
 62
     3
 10
424.87
 20
286.65
 11
431.87
 21
286.65
  0
LINE
  8
0
  6
CONTINUOUS
 62
     3
 10
425.37
 20
286.65
 11
431.37
 21
286.65
  0
LINE
  8
0
  6
CONTINUOUS
 62
     3
 10
424.37
 20
282.65
 11
425.37
 21
282.65
  0
LINE
  8
0
  6
CONTINUOUS
 62
     3
 10
425.37
 20
282.65
 11
425.37
 21
284.15
  0
LINE
  8
0
  6
CONTINUOUS
 62
     3
 10
425.37
 20
277.15
 11
425.37
 21
278.65
  0
LINE
  8
0
  6
CONTINUOUS
 62
     3
 10
425.37
 20
278.65
 11
424.37
 21
278.65
  0
LINE
  8
0
  6
CONTINUOUS
 62
     3
 10
431.37
 20
278.65
 11
431.37
 21
277.15
  0
LINE
  8
0
  6
CONTINUOUS
 62
     3
 10
432.37
 20
278.65
 11
431.37
 21
278.65
  0
LINE
  8
0
  6
CONTINUOUS
 62
     3
 10
431.37
 20
284.15
 11
431.37
 21
282.65
  0
LINE
  8
0
  6
CONTINUOUS
 62
     3
 10
431.37
 20
282.65
 11
432.37
 21
282.65
  0
LINE
  8
0
  6
CONTINUOUS
 62
     3
 10
432.37
 20
282.65
 11
432.37
 21
278.65
  0
LINE
  8
0
  6
CONTINUOUS
 62
     3
 10
425.37
 20
284.15
 11
431.37
 21
284.15
  0
LINE
  8
0
  6
CONTINUOUS
 62
     3
 10
424.37
 20
282.65
 11
424.37
 21
278.65
  0
LINE
  8
0
  6
CONTINUOUS
 62
     3
 10
425.37
 20
277.15
 11
431.37
 21
277.15
  0
CIRCLE
  8
0
  6
CONTINUOUS
 62
     3
 10
428.37
 20
280.65
 40
2.1
  0
LINE
  8
0
  6
CONTINUOUS
 62
     3
 10
425.37
 20
286.65
 11
431.37
 21
286.65
  0
LINE
  8
0
  6
CONTINUOUS
 62
     3
 10
425.37
 20
277.15
 11
431.37
 21
277.15
  0
LINE
  8
0
  6
CONTINUOUS
 62
     3
 10
431.37
 20
284.15
 11
425.37
 21
284.15
  0
LINE
  8
0
  6
CONTINUOUS
 62
     3
 10
424.87
 20
286.65
 11
431.87
 21
286.65
  0
CIRCLE
  8
0
  6
CONTINUOUS
 62
     3
 10
428.25
 20
280.65
 40
3.0
  0
LINE
  8
0
  6
CONTINUOUS
 62
     3
 10
427.75
 20
282.65
 11
427.75
 21
281.15
  0
LINE
  8
0
  6
CONTINUOUS
 62
     3
 10
427.75
 20
281.15
 11
426.25
 21
281.15
  0
LINE
  8
0
  6
CONTINUOUS
 62
     3
 10
426.25
 20
281.15
 11
426.25
 21
280.15
  0
LINE
  8
0
  6
CONTINUOUS
 62
     3
 10
426.25
 20
280.15
 11
427.75
 21
280.15
  0
LINE
  8
0
  6
CONTINUOUS
 62
     3
 10
427.75
 20
280.15
 11
427.75
 21
278.65
  0
LINE
  8
0
  6
CONTINUOUS
 62
     3
 10
427.75
 20
278.65
 11
428.75
 21
278.65
  0
LINE
  8
0
  6
CONTINUOUS
 62
     3
 10
428.75
 20
278.65
 11
428.75
 21
280.15
  0
LINE
  8
0
  6
CONTINUOUS
 62
     3
 10
428.75
 20
280.15
 11
430.25
 21
280.15
  0
LINE
  8
0
  6
CONTINUOUS
 62
     3
 10
430.25
 20
280.15
 11
430.25
 21
281.15
  0
LINE
  8
0
  6
CONTINUOUS
 62
     3
 10
430.25
 20
281.15
 11
428.75
 21
281.15
  0
LINE
  8
0
  6
CONTINUOUS
 62
     3
 10
428.75
 20
282.65
 11
427.75
 21
282.65
  0
LINE
  8
0
  6
CONTINUOUS
 62
     3
 10
428.75
 20
282.65
 11
428.75
 21
281.15
  0
LINE
  8
0
  6
CONTINUOUS
 62
     3
 10
435.87
 20
332.15
 11
420.87
 21
332.15
  0
LINE
  8
0
  6
CONTINUOUS
 62
     3
 10
433.37
 20
324.05
 11
433.37
 21
332.15
  0
LINE
  8
0
  6
CONTINUOUS
 62
     3
 10
433.37
 20
314.55
 11
433.37
 21
322.75
  0
LINE
  8
0
  6
CONTINUOUS
 62
     3
 10
423.37
 20
324.05
 11
423.37
 21
332.15
  0
LINE
  8
0
  6
CONTINUOUS
 62
     3
 10
423.37
 20
314.55
 11
423.37
 21
322.75
  0
LINE
  8
0
  6
CONTINUOUS
 62
     3
 10
430.37
 20
324.05
 11
430.37
 21
323.8
  0
LINE
  8
0
  6
CONTINUOUS
 62
     3
 10
426.37
 20
323.8
 11
430.37
 21
323.8
  0
LINE
  8
0
  6
CONTINUOUS
 62
     3
 10
426.37
 20
323.8
 11
426.37
 21
324.05
  0
LINE
  8
0
  6
CONTINUOUS
 62
     3
 10
430.37
 20
323.0
 11
426.37
 21
323.0
  0
LINE
  8
0
  6
CONTINUOUS
 62
     3
 10
430.37
 20
323.0
 11
430.37
 21
322.75
  0
LINE
  8
0
  6
CONTINUOUS
 62
     3
 10
426.37
 20
322.75
 11
426.37
 21
323.0
  0
LINE
  8
0
  6
CONTINUOUS
 62
     3
 10
430.37
 20
314.55
 11
430.37
 21
314.3
  0
LINE
  8
0
  6
CONTINUOUS
 62
     3
 10
426.37
 20
314.3
 11
430.37
 21
314.3
  0
LINE
  8
0
  6
CONTINUOUS
 62
     3
 10
426.37
 20
314.3
 11
426.37
 21
314.55
  0
LINE
  8
0
  6
CONTINUOUS
 62
     3
 10
430.37
 20
313.5
 11
426.37
 21
313.5
  0
LINE
  8
0
  6
CONTINUOUS
 62
     3
 10
430.37
 20
313.5
 11
430.37
 21
313.25
  0
LINE
  8
0
  6
CONTINUOUS
 62
     3
 10
426.37
 20
313.25
 11
426.37
 21
313.5
  0
LINE
  8
0
  6
CONTINUOUS
 62
     3
 10
430.37
 20
313.25
 11
435.87
 21
313.25
  0
LINE
  8
0
  6
CONTINUOUS
 62
     3
 10
420.87
 20
313.25
 11
426.37
 21
313.25
  0
LINE
  8
0
  6
CONTINUOUS
 62
     3
 10
430.37
 20
314.55
 11
435.87
 21
314.55
  0
LINE
  8
0
  6
CONTINUOUS
 62
     3
 10
420.87
 20
314.55
 11
426.37
 21
314.55
  0
LINE
  8
0
  6
CONTINUOUS
 62
     3
 10
430.37
 20
322.75
 11
435.87
 21
322.75
  0
LINE
  8
0
  6
CONTINUOUS
 62
     3
 10
420.87
 20
322.75
 11
426.37
 21
322.75
  0
LINE
  8
0
  6
CONTINUOUS
 62
     3
 10
430.37
 20
324.05
 11
435.87
 21
324.05
  0
LINE
  8
0
  6
CONTINUOUS
 62
     3
 10
420.87
 20
324.05
 11
426.37
 21
324.05
  0
LINE
  8
0
  6
CONTINUOUS
 62
     3
 10
435.87
 20
332.15
 11
420.87
 21
332.15
  0
LINE
  8
0
  6
CONTINUOUS
 62
     3
 10
433.37
 20
324.05
 11
433.37
 21
332.15
  0
LINE
  8
0
  6
CONTINUOUS
 62
     3
 10
433.37
 20
314.55
 11
433.37
 21
322.75
  0
LINE
  8
0
  6
CONTINUOUS
 62
     3
 10
423.37
 20
324.05
 11
423.37
 21
332.15
  0
LINE
  8
0
  6
CONTINUOUS
 62
     3
 10
423.37
 20
314.55
 11
423.37
 21
322.75
  0
LINE
  8
0
  6
CONTINUOUS
 62
     3
 10
430.37
 20
324.05
 11
430.37
 21
323.8
  0
LINE
  8
0
  6
CONTINUOUS
 62
     3
 10
426.37
 20
323.8
 11
430.37
 21
323.8
  0
LINE
  8
0
  6
CONTINUOUS
 62
     3
 10
426.37
 20
323.8
 11
426.37
 21
324.05
  0
LINE
  8
0
  6
CONTINUOUS
 62
     3
 10
430.37
 20
323.0
 11
426.37
 21
323.0
  0
LINE
  8
0
  6
CONTINUOUS
 62
     3
 10
430.37
 20
323.0
 11
430.37
 21
322.75
  0
LINE
  8
0
  6
CONTINUOUS
 62
     3
 10
426.37
 20
322.75
 11
426.37
 21
323.0
  0
LINE
  8
0
  6
CONTINUOUS
 62
     3
 10
430.37
 20
314.55
 11
430.37
 21
314.3
  0
LINE
  8
0
  6
CONTINUOUS
 62
     3
 10
426.37
 20
314.3
 11
430.37
 21
314.3
  0
LINE
  8
0
  6
CONTINUOUS
 62
     3
 10
426.37
 20
314.3
 11
426.37
 21
314.55
  0
LINE
  8
0
  6
CONTINUOUS
 62
     3
 10
430.37
 20
313.5
 11
426.37
 21
313.5
  0
LINE
  8
0
  6
CONTINUOUS
 62
     3
 10
430.37
 20
313.5
 11
430.37
 21
313.25
  0
LINE
  8
0
  6
CONTINUOUS
 62
     3
 10
426.37
 20
313.25
 11
426.37
 21
313.5
  0
LINE
  8
0
  6
CONTINUOUS
 62
     3
 10
430.37
 20
313.25
 11
435.87
 21
313.25
  0
LINE
  8
0
  6
CONTINUOUS
 62
     3
 10
420.87
 20
313.25
 11
426.37
 21
313.25
  0
LINE
  8
0
  6
CONTINUOUS
 62
     3
 10
430.37
 20
314.55
 11
435.87
 21
314.55
  0
LINE
  8
0
  6
CONTINUOUS
 62
     3
 10
420.87
 20
314.55
 11
426.37
 21
314.55
  0
LINE
  8
0
  6
CONTINUOUS
 62
     3
 10
430.37
 20
322.75
 11
435.87
 21
322.75
  0
LINE
  8
0
  6
CONTINUOUS
 62
     3
 10
420.87
 20
322.75
 11
426.37
 21
322.75
  0
LINE
  8
0
  6
CONTINUOUS
 62
     3
 10
430.37
 20
324.05
 11
435.87
 21
324.05
  0
LINE
  8
0
  6
CONTINUOUS
 62
     3
 10
420.87
 20
324.05
 11
426.37
 21
324.05
  0
LINE
  8
0
  6
CONTINUOUS
 62
     3
 10
424.37
 20
330.15
 11
425.37
 21
330.15
  0
LINE
  8
0
  6
CONTINUOUS
 62
     3
 10
425.37
 20
330.15
 11
425.37
 21
331.65
  0
LINE
  8
0
  6
CONTINUOUS
 62
     3
 10
425.37
 20
324.65
 11
425.37
 21
326.15
  0
LINE
  8
0
  6
CONTINUOUS
 62
     3
 10
425.37
 20
326.15
 11
424.37
 21
326.15
  0
LINE
  8
0
  6
CONTINUOUS
 62
     3
 10
431.37
 20
326.15
 11
431.37
 21
324.65
  0
LINE
  8
0
  6
CONTINUOUS
 62
     3
 10
432.37
 20
326.15
 11
431.37
 21
326.15
  0
LINE
  8
0
  6
CONTINUOUS
 62
     3
 10
431.37
 20
331.65
 11
431.37
 21
330.15
  0
LINE
  8
0
  6
CONTINUOUS
 62
     3
 10
431.37
 20
330.15
 11
432.37
 21
330.15
  0
LINE
  8
0
  6
CONTINUOUS
 62
     3
 10
432.37
 20
330.15
 11
432.37
 21
326.15
  0
LINE
  8
0
  6
CONTINUOUS
 62
     3
 10
425.37
 20
331.65
 11
431.37
 21
331.65
  0
LINE
  8
0
  6
CONTINUOUS
 62
     3
 10
424.37
 20
330.15
 11
424.37
 21
326.15
  0
LINE
  8
0
  6
CONTINUOUS
 62
     3
 10
425.37
 20
324.65
 11
431.37
 21
324.65
  0
CIRCLE
  8
0
  6
CONTINUOUS
 62
     3
 10
428.37
 20
328.15
 40
2.1
  0
LINE
  8
0
  6
CONTINUOUS
 62
     3
 10
425.37
 20
312.65
 11
431.37
 21
312.65
  0
LINE
  8
0
  6
CONTINUOUS
 62
     3
 10
431.37
 20
312.65
 11
425.37
 21
312.65
  0
LINE
  8
0
  6
CONTINUOUS
 62
     3
 10
427.62
 20
312.65
 11
427.62
 21
311.795751311
  0
LINE
  8
0
  6
CONTINUOUS
 62
     3
 10
429.12
 20
312.65
 11
429.12
 21
311.795751311
  0
LINE
  8
0
  6
CONTINUOUS
 62
     3
 10
431.87
 20
312.65
 11
424.87
 21
312.65
  0
CIRCLE
  8
0
  6
CONTINUOUS
 62
     3
 10
428.37
 20
318.65
 40
2.75
  0
LINE
  8
0
  6
CONTINUOUS
 62
     3
 10
432.37
 20
320.65
 11
432.37
 21
316.65
  0
LINE
  8
0
  6
CONTINUOUS
 62
     3
 10
425.37
 20
322.15
 11
431.37
 21
322.15
  0
LINE
  8
0
  6
CONTINUOUS
 62
     3
 10
424.37
 20
320.65
 11
424.37
 21
316.65
  0
LINE
  8
0
  6
CONTINUOUS
 62
     3
 10
425.37
 20
315.15
 11
431.37
 21
315.15
  0
LINE
  8
0
  6
CONTINUOUS
 62
     3
 10
425.37
 20
315.15
 11
431.37
 21
315.15
  0
LINE
  8
0
  6
CONTINUOUS
 62
     3
 10
431.37
 20
322.15
 11
425.37
 21
322.15
  0
LINE
  8
0
  6
CONTINUOUS
 62
     3
 10
427.62
 20
316.004248689
 11
427.62
 21
315.15
  0
LINE
  8
0
  6
CONTINUOUS
 62
     3
 10
427.62
 20
322.15
 11
427.62
 21
321.295751311
  0
LINE
  8
0
  6
CONTINUOUS
 62
     3
 10
429.12
 20
316.004248689
 11
429.12
 21
315.15
  0
LINE
  8
0
  6
CONTINUOUS
 62
     3
 10
429.12
 20
322.15
 11
429.12
 21
321.295751311
  0
LINE
  8
0
  6
CONTINUOUS
 62
     3
 10
424.87
 20
322.15
 11
424.87
 21
315.15
  0
LINE
  8
0
  6
CONTINUOUS
 62
     3
 10
424.87
 20
315.15
 11
431.87
 21
315.15
  0
LINE
  8
0
  6
CONTINUOUS
 62
     3
 10
431.87
 20
315.15
 11
431.87
 21
322.15
  0
LINE
  8
0
  6
CONTINUOUS
 62
     3
 10
431.87
 20
322.15
 11
424.87
 21
322.15
  0
LINE
  8
0
  6
CONTINUOUS
 62
     3
 10
432.37
 20
316.65
 11
431.87
 21
316.65
  0
LINE
  8
0
  6
CONTINUOUS
 62
     3
 10
431.87
 20
320.65
 11
432.37
 21
320.65
  0
LINE
  8
0
  6
CONTINUOUS
 62
     3
 10
424.37
 20
320.65
 11
424.87
 21
320.65
  0
LINE
  8
0
  6
CONTINUOUS
 62
     3
 10
424.77
 20
316.65
 11
424.37
 21
316.65
  0
LINE
  8
0
  6
CONTINUOUS
 62
     3
 10
424.87
 20
317.9
 11
425.724248689
 21
317.9
  0
LINE
  8
0
  6
CONTINUOUS
 62
     3
 10
424.87
 20
319.4
 11
425.724248689
 21
319.4
  0
LINE
  8
0
  6
CONTINUOUS
 62
     3
 10
431.87
 20
317.9
 11
431.015751311
 21
317.9
  0
LINE
  8
0
  6
CONTINUOUS
 62
     3
 10
431.87
 20
319.4
 11
431.015751311
 21
319.4
  0
LINE
  8
0
  6
CONTINUOUS
 62
     3
 10
427.17
 20
317.95
 11
427.67
 21
317.45
  0
LINE
  8
0
  6
CONTINUOUS
 62
     3
 10
429.07
 20
319.85
 11
429.57
 21
319.35
  0
LINE
  8
0
  6
CONTINUOUS
 62
     3
 10
428.87
 20
318.65
 11
430.548406078
 21
316.971593922
  0
LINE
  8
0
  6
CONTINUOUS
 62
     3
 10
426.691593922
 20
320.828406078
 11
428.37
 21
319.15
  0
LINE
  8
0
  6
CONTINUOUS
 62
     3
 10
428.37
 20
319.15
 11
429.07
 21
319.85
  0
LINE
  8
0
  6
CONTINUOUS
 62
     3
 10
427.17
 20
317.95
 11
427.87
 21
318.65
  0
LINE
  8
0
  6
CONTINUOUS
 62
     3
 10
428.37
 20
318.15
 11
430.048406078
 21
316.471593922
  0
LINE
  8
0
  6
CONTINUOUS
 62
     3
 10
426.191593922
 20
320.328406078
 11
427.87
 21
318.65
  0
LINE
  8
0
  6
CONTINUOUS
 62
     3
 10
428.87
 20
318.65
 11
429.57
 21
319.35
  0
LINE
  8
0
  6
CONTINUOUS
 62
     3
 10
427.67
 20
317.45
 11
428.37
 21
318.15
  0
LINE
  8
0
  6
CONTINUOUS
 62
     3
 10
427.67
 20
319.85
 11
427.17
 21
319.35
  0
LINE
  8
0
  6
CONTINUOUS
 62
     3
 10
429.57
 20
317.95
 11
429.07
 21
317.45
  0
LINE
  8
0
  6
CONTINUOUS
 62
     3
 10
424.37
 20
330.15
 11
425.37
 21
330.15
  0
LINE
  8
0
  6
CONTINUOUS
 62
     3
 10
425.37
 20
330.15
 11
425.37
 21
331.65
  0
LINE
  8
0
  6
CONTINUOUS
 62
     3
 10
425.37
 20
324.65
 11
425.37
 21
326.15
  0
LINE
  8
0
  6
CONTINUOUS
 62
     3
 10
425.37
 20
326.15
 11
424.37
 21
326.15
  0
LINE
  8
0
  6
CONTINUOUS
 62
     3
 10
431.37
 20
326.15
 11
431.37
 21
324.65
  0
LINE
  8
0
  6
CONTINUOUS
 62
     3
 10
432.37
 20
326.15
 11
431.37
 21
326.15
  0
LINE
  8
0
  6
CONTINUOUS
 62
     3
 10
431.37
 20
331.65
 11
431.37
 21
330.15
  0
LINE
  8
0
  6
CONTINUOUS
 62
     3
 10
431.37
 20
330.15
 11
432.37
 21
330.15
  0
LINE
  8
0
  6
CONTINUOUS
 62
     3
 10
432.37
 20
330.15
 11
432.37
 21
326.15
  0
LINE
  8
0
  6
CONTINUOUS
 62
     3
 10
425.37
 20
331.65
 11
431.37
 21
331.65
  0
LINE
  8
0
  6
CONTINUOUS
 62
     3
 10
424.37
 20
330.15
 11
424.37
 21
326.15
  0
LINE
  8
0
  6
CONTINUOUS
 62
     3
 10
425.37
 20
324.65
 11
431.37
 21
324.65
  0
CIRCLE
  8
0
  6
CONTINUOUS
 62
     3
 10
428.37
 20
328.15
 40
2.1
  0
LINE
  8
0
  6
CONTINUOUS
 62
     3
 10
425.37
 20
312.65
 11
431.37
 21
312.65
  0
LINE
  8
0
  6
CONTINUOUS
 62
     3
 10
431.37
 20
312.65
 11
425.37
 21
312.65
  0
LINE
  8
0
  6
CONTINUOUS
 62
     3
 10
427.62
 20
312.65
 11
427.62
 21
311.795751311
  0
LINE
  8
0
  6
CONTINUOUS
 62
     3
 10
429.12
 20
312.65
 11
429.12
 21
311.795751311
  0
LINE
  8
0
  6
CONTINUOUS
 62
     3
 10
431.87
 20
312.65
 11
424.87
 21
312.65
  0
CIRCLE
  8
0
  6
CONTINUOUS
 62
     3
 10
428.37
 20
318.65
 40
2.75
  0
LINE
  8
0
  6
CONTINUOUS
 62
     3
 10
432.37
 20
320.65
 11
432.37
 21
316.65
  0
LINE
  8
0
  6
CONTINUOUS
 62
     3
 10
425.37
 20
322.15
 11
431.37
 21
322.15
  0
LINE
  8
0
  6
CONTINUOUS
 62
     3
 10
424.37
 20
320.65
 11
424.37
 21
316.65
  0
LINE
  8
0
  6
CONTINUOUS
 62
     3
 10
425.37
 20
315.15
 11
431.37
 21
315.15
  0
LINE
  8
0
  6
CONTINUOUS
 62
     3
 10
425.37
 20
315.15
 11
431.37
 21
315.15
  0
LINE
  8
0
  6
CONTINUOUS
 62
     3
 10
431.37
 20
322.15
 11
425.37
 21
322.15
  0
LINE
  8
0
  6
CONTINUOUS
 62
     3
 10
427.62
 20
316.004248689
 11
427.62
 21
315.15
  0
LINE
  8
0
  6
CONTINUOUS
 62
     3
 10
427.62
 20
322.15
 11
427.62
 21
321.295751311
  0
LINE
  8
0
  6
CONTINUOUS
 62
     3
 10
429.12
 20
316.004248689
 11
429.12
 21
315.15
  0
LINE
  8
0
  6
CONTINUOUS
 62
     3
 10
429.12
 20
322.15
 11
429.12
 21
321.295751311
  0
LINE
  8
0
  6
CONTINUOUS
 62
     3
 10
424.87
 20
322.15
 11
424.87
 21
315.15
  0
LINE
  8
0
  6
CONTINUOUS
 62
     3
 10
424.87
 20
315.15
 11
431.87
 21
315.15
  0
LINE
  8
0
  6
CONTINUOUS
 62
     3
 10
431.87
 20
315.15
 11
431.87
 21
322.15
  0
LINE
  8
0
  6
CONTINUOUS
 62
     3
 10
431.87
 20
322.15
 11
424.87
 21
322.15
  0
LINE
  8
0
  6
CONTINUOUS
 62
     3
 10
432.37
 20
316.65
 11
431.87
 21
316.65
  0
LINE
  8
0
  6
CONTINUOUS
 62
     3
 10
431.87
 20
320.65
 11
432.37
 21
320.65
  0
LINE
  8
0
  6
CONTINUOUS
 62
     3
 10
424.37
 20
320.65
 11
424.87
 21
320.65
  0
LINE
  8
0
  6
CONTINUOUS
 62
     3
 10
424.77
 20
316.65
 11
424.37
 21
316.65
  0
LINE
  8
0
  6
CONTINUOUS
 62
     3
 10
424.87
 20
317.9
 11
425.724248689
 21
317.9
  0
LINE
  8
0
  6
CONTINUOUS
 62
     3
 10
424.87
 20
319.4
 11
425.724248689
 21
319.4
  0
LINE
  8
0
  6
CONTINUOUS
 62
     3
 10
431.87
 20
317.9
 11
431.015751311
 21
317.9
  0
LINE
  8
0
  6
CONTINUOUS
 62
     3
 10
431.87
 20
319.4
 11
431.015751311
 21
319.4
  0
LINE
  8
0
  6
CONTINUOUS
 62
     3
 10
427.17
 20
317.95
 11
427.67
 21
317.45
  0
LINE
  8
0
  6
CONTINUOUS
 62
     3
 10
429.07
 20
319.85
 11
429.57
 21
319.35
  0
LINE
  8
0
  6
CONTINUOUS
 62
     3
 10
428.87
 20
318.65
 11
430.548406078
 21
316.971593922
  0
LINE
  8
0
  6
CONTINUOUS
 62
     3
 10
426.691593922
 20
320.828406078
 11
428.37
 21
319.15
  0
LINE
  8
0
  6
CONTINUOUS
 62
     3
 10
428.37
 20
319.15
 11
429.07
 21
319.85
  0
LINE
  8
0
  6
CONTINUOUS
 62
     3
 10
427.17
 20
317.95
 11
427.87
 21
318.65
  0
LINE
  8
0
  6
CONTINUOUS
 62
     3
 10
428.37
 20
318.15
 11
430.048406078
 21
316.471593922
  0
LINE
  8
0
  6
CONTINUOUS
 62
     3
 10
426.191593922
 20
320.328406078
 11
427.87
 21
318.65
  0
LINE
  8
0
  6
CONTINUOUS
 62
     3
 10
428.87
 20
318.65
 11
429.57
 21
319.35
  0
LINE
  8
0
  6
CONTINUOUS
 62
     3
 10
427.67
 20
317.45
 11
428.37
 21
318.15
  0
LINE
  8
0
  6
CONTINUOUS
 62
     3
 10
427.67
 20
319.85
 11
427.17
 21
319.35
  0
LINE
  8
0
  6
CONTINUOUS
 62
     3
 10
429.57
 20
317.95
 11
429.07
 21
317.45
  0
CIRCLE
  8
0
  6
CONTINUOUS
 62
     3
 10
428.25
 20
328.15
 40
3.0
  0
LINE
  8
0
  6
CONTINUOUS
 62
     3
 10
427.75
 20
330.15
 11
427.75
 21
328.65
  0
LINE
  8
0
  6
CONTINUOUS
 62
     3
 10
427.75
 20
328.65
 11
426.25
 21
328.65
  0
LINE
  8
0
  6
CONTINUOUS
 62
     3
 10
426.25
 20
328.65
 11
426.25
 21
327.65
  0
LINE
  8
0
  6
CONTINUOUS
 62
     3
 10
426.25
 20
327.65
 11
427.75
 21
327.65
  0
LINE
  8
0
  6
CONTINUOUS
 62
     3
 10
427.75
 20
327.65
 11
427.75
 21
326.15
  0
LINE
  8
0
  6
CONTINUOUS
 62
     3
 10
427.75
 20
326.15
 11
428.75
 21
326.15
  0
LINE
  8
0
  6
CONTINUOUS
 62
     3
 10
428.75
 20
326.15
 11
428.75
 21
327.65
  0
LINE
  8
0
  6
CONTINUOUS
 62
     3
 10
428.75
 20
327.65
 11
430.25
 21
327.65
  0
LINE
  8
0
  6
CONTINUOUS
 62
     3
 10
430.25
 20
327.65
 11
430.25
 21
328.65
  0
LINE
  8
0
  6
CONTINUOUS
 62
     3
 10
430.25
 20
328.65
 11
428.75
 21
328.65
  0
LINE
  8
0
  6
CONTINUOUS
 62
     3
 10
428.75
 20
330.15
 11
427.75
 21
330.15
  0
LINE
  8
0
  6
CONTINUOUS
 62
     3
 10
428.75
 20
330.15
 11
428.75
 21
328.65
  0
LINE
  8
0
  6
CONTINUOUS
 62
     3
 10
433.37
 20
305.05
 11
433.37
 21
313.25
  0
LINE
  8
0
  6
CONTINUOUS
 62
     3
 10
423.37
 20
305.05
 11
423.37
 21
313.25
  0
LINE
  8
0
  6
CONTINUOUS
 62
     3
 10
435.87
 20
276.65
 11
435.87
 21
332.15
  0
LINE
  8
0
  6
CONTINUOUS
 62
     3
 10
420.87
 20
332.15
 11
420.87
 21
276.65
  0
LINE
  8
0
  6
CONTINUOUS
 62
     3
 10
433.37
 20
305.05
 11
433.37
 21
313.25
  0
LINE
  8
0
  6
CONTINUOUS
 62
     3
 10
423.37
 20
305.05
 11
423.37
 21
313.25
  0
LINE
  8
0
  6
CONTINUOUS
 62
     3
 10
424.87
 20
312.65
 11
424.87
 21
305.65
  0
LINE
  8
0
  6
CONTINUOUS
 62
     3
 10
431.87
 20
305.65
 11
431.87
 21
312.65
  0
LINE
  8
0
  6
CONTINUOUS
 62
     3
 10
435.87
 20
276.65
 11
435.87
 21
332.15
  0
LINE
  8
0
  6
CONTINUOUS
 62
     3
 10
420.87
 20
332.15
 11
420.87
 21
276.65
  0
LINE
  8
0
  6
CONTINUOUS
 62
     3
 10
424.87
 20
312.65
 11
424.87
 21
305.65
  0
LINE
  8
0
  6
CONTINUOUS
 62
     3
 10
431.87
 20
305.65
 11
431.87
 21
312.65
  0
LINE
  8
0
  6
CONTINUOUS
 62
     4
 10
422.95
 20
347.5
 11
422.884922603
 21
349.498940953
  0
LINE
  8
0
  6
CONTINUOUS
 62
     4
 10
422.95
 20
347.5
 11
421.894170845
 21
349.198594947
  0
LINE
  8
0
  6
CONTINUOUS
 62
     4
 10
422.95
 20
347.5
 11
415.25
 21
372.9
  0
LINE
  8
0
  6
CONTINUOUS
 62
     4
 10
415.25
 20
372.9
 11
401.25
 21
372.9
  0
LINE
  8
0
  6
CONTINUOUS
 62
     4
 10
454.65
 20
352.59
 11
454.695131744
 21
354.589490717
  0
LINE
  8
0
  6
CONTINUOUS
 62
     4
 10
454.65
 20
352.59
 11
453.689339879
 21
354.344175627
  0
LINE
  8
0
  6
CONTINUOUS
 62
     4
 10
454.65
 20
352.59
 11
450.65
 21
368.99
  0
LINE
  8
0
  6
CONTINUOUS
 62
     4
 10
450.65
 20
368.99
 11
430.65
 21
368.99
  0
LINE
  8
0
  6
CONTINUOUS
 62
     4
 10
480.65
 20
350.69
 11
481.650219625
 21
352.421923989
  0
LINE
  8
0
  6
CONTINUOUS
 62
     4
 10
480.65
 20
350.69
 11
480.65025361
 21
352.689999984
  0
LINE
  8
0
  6
CONTINUOUS
 62
     4
 10
480.65
 20
350.69
 11
486.95
 21
374.19
  0
LINE
  8
0
  6
CONTINUOUS
 62
     4
 10
486.95
 20
374.19
 11
500.95
 21
374.19
  0
LINE
  8
0
  6
CONTINUOUS
 62
     4
 10
94.500001262
 20
174.0
 11
76.560000477
 21
174.0
  0
LINE
  8
0
  6
CONTINUOUS
 62
     4
 10
77.560000477
 20
174.0
 11
77.042362387
 21
172.068148347
  0
LINE
  8
0
  6
CONTINUOUS
 62
     4
 10
77.560000477
 20
174.0
 11
78.077638567
 21
172.068148347
  0
LINE
  8
0
  6
CONTINUOUS
 62
     4
 10
77.560000477
 20
174.0
 11
77.560000477
 21
78.0
  0
LINE
  8
0
  6
CONTINUOUS
 62
     4
 10
77.560000477
 20
78.0
 11
78.077638567
 21
79.931851653
  0
LINE
  8
0
  6
CONTINUOUS
 62
     4
 10
77.560000477
 20
78.0
 11
77.042362387
 21
79.931851653
  0
LINE
  8
0
  6
CONTINUOUS
 62
     4
 10
94.500000477
 20
78.0
 11
76.560000477
 21
78.0
  0
LINE
  8
0
  6
CONTINUOUS
 62
     4
 10
93.0
 20
79.5
 11
93.0
 21
62.4
  0
LINE
  8
0
  6
CONTINUOUS
 62
     4
 10
93.0
 20
63.4
 11
94.931851653
 21
62.88236191
  0
LINE
  8
0
  6
CONTINUOUS
 62
     4
 10
93.0
 20
63.4
 11
94.931851653
 21
63.91763809
  0
LINE
  8
0
  6
CONTINUOUS
 62
     4
 10
93.0
 20
63.4
 11
193.0
 21
63.4
  0
LINE
  8
0
  6
CONTINUOUS
 62
     4
 10
193.0
 20
63.4
 11
191.068148347
 21
63.91763809
  0
LINE
  8
0
  6
CONTINUOUS
 62
     4
 10
193.0
 20
63.4
 11
191.068148347
 21
62.88236191
  0
LINE
  8
0
  6
CONTINUOUS
 62
     4
 10
193.0
 20
79.5
 11
193.0
 21
62.4
  0
LINE
  8
0
  6
CONTINUOUS
 62
     4
 10
247.75
 20
211.7
 11
247.75
 21
185.1
  0
LINE
  8
0
  6
CONTINUOUS
 62
     4
 10
247.75
 20
186.1
 11
249.681851653
 21
185.58236191
  0
LINE
  8
0
  6
CONTINUOUS
 62
     4
 10
247.75
 20
186.1
 11
249.681851653
 21
186.61763809
  0
LINE
  8
0
  6
CONTINUOUS
 62
     4
 10
247.75
 20
186.1
 11
338.95
 21
186.1
  0
LINE
  8
0
  6
CONTINUOUS
 62
     4
 10
338.95
 20
186.1
 11
337.018148347
 21
186.61763809
  0
LINE
  8
0
  6
CONTINUOUS
 62
     4
 10
338.95
 20
186.1
 11
337.018148347
 21
185.58236191
  0
LINE
  8
0
  6
CONTINUOUS
 62
     4
 10
338.95
 20
211.7
 11
338.95
 21
185.1
  0
LINE
  8
0
  6
CONTINUOUS
 62
     4
 10
97.25
 20
186.1
 11
99.181851653
 21
185.58236191
  0
LINE
  8
0
  6
CONTINUOUS
 62
     4
 10
97.25
 20
186.1
 11
99.181851653
 21
186.61763809
  0
LINE
  8
0
  6
CONTINUOUS
 62
     4
 10
97.25
 20
186.1
 11
188.75
 21
186.1
  0
LINE
  8
0
  6
CONTINUOUS
 62
     4
 10
188.75
 20
186.1
 11
186.818148347
 21
186.61763809
  0
LINE
  8
0
  6
CONTINUOUS
 62
     4
 10
188.75
 20
186.1
 11
186.818148347
 21
185.58236191
  0
LINE
  8
0
  6
CONTINUOUS
 62
     4
 10
97.25
 20
211.39
 11
97.25
 21
185.1
  0
LINE
  8
0
  6
CONTINUOUS
 62
     4
 10
188.75
 20
211.29
 11
188.75
 21
185.1
  0
LINE
  8
0
  6
CONTINUOUS
 62
     4
 10
172.75
 20
276.8
 11
174.367610069
 21
277.976153759
  0
LINE
  8
0
  6
CONTINUOUS
 62
     4
 10
172.75
 20
276.8
 11
173.562814534
 21
278.627384069
  0
LINE
  8
0
  6
CONTINUOUS
 62
     4
 10
172.75
 20
276.8
 11
195.65
 21
305.1
  0
LINE
  8
0
  6
CONTINUOUS
 62
     4
 10
246.75
 20
257.8
 11
246.106648918
 21
259.693699919
  0
LINE
  8
0
  6
CONTINUOUS
 62
     4
 10
246.75
 20
257.8
 11
245.245991659
 21
259.118316696
  0
LINE
  8
0
  6
CONTINUOUS
 62
     4
 10
246.75
 20
257.8
 11
234.85
 21
275.6
  0
LINE
  8
0
  6
CONTINUOUS
 62
     4
 10
340.15
 20
247.4
 11
341.752915135
 21
248.596103286
  0
LINE
  8
0
  6
CONTINUOUS
 62
     4
 10
340.15
 20
247.4
 11
340.940113584
 21
249.237313399
  0
LINE
  8
0
  6
CONTINUOUS
 62
     4
 10
340.15
 20
247.4
 11
354.35
 21
265.4
  0
LINE
  8
0
  6
CONTINUOUS
 62
     4
 10
354.35
 20
265.4
 11
362.35
 21
265.4
  0
LINE
  8
0
  6
CONTINUOUS
 62
     3
 10
338.45
 20
333.4
 11
331.65
 21
333.4
  0
LINE
  8
0
  6
CONTINUOUS
 62
     3
 10
332.46
 20
334.43
 11
332.46
 21
333.43
  0
ARC
  8
0
  6
CONTINUOUS
 62
     3
 10
333.46
 20
334.43
 40
1.0
 50
90.0
 51
180.0
  0
LINE
  8
0
  6
CONTINUOUS
 62
     3
 10
337.46
 20
335.43
 11
333.46
 21
335.43
  0
ARC
  8
0
  6
CONTINUOUS
 62
     3
 10
337.46
 20
334.43
 40
1.0
 50
360.0
 51
90.0
  0
LINE
  8
0
  6
CONTINUOUS
 62
     3
 10
332.46
 20
333.43
 11
333.96
 21
333.43
  0
LINE
  8
0
  6
CONTINUOUS
 62
     3
 10
338.46
 20
333.43
 11
338.46
 21
334.43
  0
LINE
  8
0
  6
CONTINUOUS
 62
     3
 10
338.46
 20
333.43
 11
333.96
 21
333.43
  0
LINE
  8
0
  6
CONTINUOUS
 62
     3
 10
247.76
 20
335.63
 11
247.76
 21
334.63
  0
ARC
  8
0
  6
CONTINUOUS
 62
     3
 10
248.76
 20
335.63
 40
1.0
 50
90.0
 51
180.0
  0
LINE
  8
0
  6
CONTINUOUS
 62
     3
 10
252.76
 20
336.63
 11
248.76
 21
336.63
  0
ARC
  8
0
  6
CONTINUOUS
 62
     3
 10
252.76
 20
335.63
 40
1.0
 50
360.0
 51
90.0
  0
ARC
  8
0
  6
CONTINUOUS
 62
     3
 10
253.24
 20
334.43
 40
1.0
 50
0.0
 51
90.0
  0
LINE
  8
0
  6
CONTINUOUS
 62
     3
 10
249.24
 20
335.43
 11
253.24
 21
335.43
  0
ARC
  8
0
  6
CONTINUOUS
 62
     3
 10
249.24
 20
334.43
 40
1.0
 50
90.0
 51
180.0
  0
LINE
  8
0
  6
CONTINUOUS
 62
     3
 10
248.24
 20
334.43
 11
248.24
 21
333.43
  0
LINE
  8
0
  6
CONTINUOUS
 62
     3
 10
254.24
 20
334.43
 11
254.24
 21
333.43
  0
LINE
  8
0
  6
CONTINUOUS
 62
     3
 10
247.65
 20
334.6
 11
248.254555938
 21
334.6
  0
LINE
  8
0
  6
CONTINUOUS
 62
     3
 10
247.76
 20
334.63
 11
248.24
 21
334.63
  0
LINE
  8
0
  6
CONTINUOUS
 62
     3
 10
246.95
 20
334.6
 11
248.254555938
 21
334.6
  0
LINE
  8
0
  6
CONTINUOUS
 62
     3
 10
253.76
 20
335.28416626
 11
253.76
 21
335.63
  0
TEXT
  8
0
  6
CONTINUOUS
 62
     3
 10
407.59
 20
234.08
 30
0.0
 40
4.8
  1
後部入出力端子配列図：各仕様に依り変わります。
 50
0.0
 41
1.0
 51
0.0
  7
KANJI0
  0
LINE
  8
0
  6
CONTINUOUS
 62
     3
 10
405.05
 20
232.5
 11
516.05
 21
232.5
  0
LINE
  8
0
  6
CONTINUOUS
 62
     4
 10
101.8
 20
101.5
 11
101.8
 21
69.6
  0
LINE
  8
0
  6
CONTINUOUS
 62
     4
 10
101.8
 20
70.6
 11
103.731851653
 21
70.08236191
  0
LINE
  8
0
  6
CONTINUOUS
 62
     4
 10
101.8
 20
70.6
 11
103.731851653
 21
71.11763809
  0
LINE
  8
0
  6
CONTINUOUS
 62
     4
 10
101.8
 20
70.6
 11
176.2
 21
70.6
  0
LINE
  8
0
  6
CONTINUOUS
 62
     4
 10
176.2
 20
70.6
 11
174.268148347
 21
71.11763809
  0
LINE
  8
0
  6
CONTINUOUS
 62
     4
 10
176.2
 20
70.6
 11
174.268148347
 21
70.08236191
  0
LINE
  8
0
  6
CONTINUOUS
 62
     4
 10
176.2
 20
157.1
 11
202.47
 21
157.1
  0
LINE
  8
0
  6
CONTINUOUS
 62
     4
 10
201.47
 20
157.1
 11
200.95236191
 21
155.168148347
  0
LINE
  8
0
  6
CONTINUOUS
 62
     4
 10
201.47
 20
157.1
 11
201.98763809
 21
155.168148347
  0
LINE
  8
0
  6
CONTINUOUS
 62
     4
 10
201.47
 20
157.1
 11
201.47
 21
101.5
  0
LINE
  8
0
  6
CONTINUOUS
 62
     4
 10
201.47
 20
101.5
 11
201.98763809
 21
103.431851653
  0
LINE
  8
0
  6
CONTINUOUS
 62
     4
 10
201.47
 20
101.5
 11
200.95236191
 21
103.431851653
  0
LINE
  8
0
  6
CONTINUOUS
 62
     4
 10
176.2
 20
101.5
 11
202.47
 21
101.5
  0
LINE
  8
0
  6
CONTINUOUS
 62
     4
 10
247.6
 20
345.4
 11
247.6
 21
376.8
  0
LINE
  8
0
  6
CONTINUOUS
 62
     4
 10
247.6
 20
375.8
 11
249.531851653
 21
375.28236191
  0
LINE
  8
0
  6
CONTINUOUS
 62
     4
 10
247.6
 20
375.8
 11
249.531851653
 21
376.31763809
  0
LINE
  8
0
  6
CONTINUOUS
 62
     4
 10
247.6
 20
375.8
 11
339.1
 21
375.8
  0
LINE
  8
0
  6
CONTINUOUS
 62
     4
 10
339.1
 20
375.8
 11
337.168148347
 21
376.31763809
  0
LINE
  8
0
  6
CONTINUOUS
 62
     4
 10
339.1
 20
375.8
 11
337.168148347
 21
375.28236191
  0
LINE
  8
0
  6
CONTINUOUS
 62
     4
 10
339.1
 20
345.4
 11
339.1
 21
376.8
  0
LINE
  8
0
  6
CONTINUOUS
 62
     3
 10
137.750001907
 20
333.4
 11
137.750001907
 21
350.9
  0
LINE
  8
0
  6
CONTINUOUS
 62
     3
 10
137.750001907
 20
350.9
 11
137.750001907
 21
333.4
  0
POINT
  8
0
  6
CONTINUOUS
 62
     3
 10
137.750001907
 20
350.9
  0
LINE
  8
0
  6
CONTINUOUS
 62
     3
 10
137.750001907
 20
350.9
 11
149.750001907
 21
350.9
  0
LINE
  8
0
  6
CONTINUOUS
 62
     3
 10
149.750001907
 20
350.9
 11
149.750001907
 21
333.4
  0
LINE
  8
0
  6
CONTINUOUS
 62
     3
 10
140.750001907
 20
339.9
 11
140.750001907
 21
350.9
  0
LINE
  8
0
  6
CONTINUOUS
 62
     3
 10
146.750001907
 20
350.9
 11
146.750001907
 21
339.9
  0
LINE
  8
0
  6
CONTINUOUS
 62
     3
 10
140.750001907
 20
339.9
 11
146.750001907
 21
339.9
  0
LINE
  8
0
  6
CONTINUOUS
 62
     3
 10
140.75
 20
340.9
 11
140.75
 21
339.9
  0
ARC
  8
0
  6
CONTINUOUS
 62
     3
 10
141.75
 20
340.9
 40
1.0
 50
90.0
 51
180.0
  0
LINE
  8
0
  6
CONTINUOUS
 62
     3
 10
145.75
 20
341.9
 11
141.75
 21
341.9
  0
ARC
  8
0
  6
CONTINUOUS
 62
     3
 10
145.75
 20
340.9
 40
1.0
 50
360.0
 51
90.0
  0
LINE
  8
0
  6
CONTINUOUS
 62
     3
 10
140.75
 20
339.9
 11
142.25
 21
339.9
  0
LINE
  8
0
  6
CONTINUOUS
 62
     3
 10
146.75
 20
339.9
 11
146.75
 21
340.9
  0
LINE
  8
0
  6
CONTINUOUS
 62
     3
 10
146.75
 20
339.9
 11
142.25
 21
339.9
  0
LINE
  8
0
  6
CONTINUOUS
 62
     3
 10
137.750001907
 20
344.9
 11
140.750001907
 21
344.9
  0
LINE
  8
0
  6
CONTINUOUS
 62
     3
 10
146.750001907
 20
344.9
 11
149.750001907
 21
344.9
  0
LINE
  8
0
  6
CONTINUOUS
 62
     3
 10
490.95
 20
345.07
 11
490.95
 21
346.57
  0
LINE
  8
0
  6
CONTINUOUS
 62
     3
 10
489.95
 20
346.57
 11
490.95
 21
346.57
  0
LINE
  8
0
  6
CONTINUOUS
 62
     4
 10
185.810000477
 20
225.4
 11
187.276130698
 21
226.760316939
  0
LINE
  8
0
  6
CONTINUOUS
 62
     4
 10
185.810000477
 20
225.4
 11
186.399548024
 21
227.311134137
  0
LINE
  8
0
  6
CONTINUOUS
 62
     4
 10
185.810000477
 20
225.4
 11
190.240000477
 21
232.45
  0
LINE
  8
1
  6
CONTINUOUS
 62
     3
 10
158.5
 20
267.0
 11
157.5
 21
268.0
  0
LINE
  8
1
  6
CONTINUOUS
 62
     3
 10
158.5
 20
215.0
 11
158.5
 21
267.0
  0
LINE
  8
1
  6
CONTINUOUS
 62
     3
 10
157.5
 20
214.0
 11
158.5
 21
215.0
  0
LINE
  8
1
  6
CONTINUOUS
 62
     3
 10
158.5
 20
328.0
 11
157.5
 21
329.0
  0
LINE
  8
1
  6
CONTINUOUS
 62
     3
 10
158.5
 20
270.0
 11
158.5
 21
328.0
  0
LINE
  8
1
  6
CONTINUOUS
 62
     3
 10
157.5
 20
269.0
 11
158.5
 21
270.0
  0
LINE
  8
0
  6
CONTINUOUS
 62
     4
 10
94.240000477
 20
313.95
 11
106.740000477
 21
304.95
  0
LINE
  8
0
  6
CONTINUOUS
 62
     4
 10
106.740000477
 20
304.95
 11
105.240000477
 21
307.45
  0
LINE
  8
0
  6
CONTINUOUS
 62
     4
 10
106.740000477
 20
304.95
 11
104.240000477
 21
305.45
  0
LINE
  8
0
  6
CONTINUOUS
 62
     4
 10
77.560000477
 20
332.2
 11
77.560000477
 21
322.95
  0
LINE
  8
0
  6
CONTINUOUS
 62
     4
 10
70.240000477
 20
313.95
 11
94.240000477
 21
313.95
  0
LINE
  8
0
  6
CONTINUOUS
 62
     4
 10
195.65
 20
305.1
 11
209.740000477
 21
305.1
  0
LINE
  8
0
  6
CONTINUOUS
 62
     4
 10
234.85
 20
275.6
 11
221.240000477
 21
275.6
  0
LINE
  8
0
  6
CONTINUOUS
 62
     4
 10
190.240000477
 20
232.45
 11
219.240000477
 21
232.45
  0
LINE
  8
0
  6
CONTINUOUS
 62
     4
 10
113.740540541
 20
377.4
 11
72.240000477
 21
377.4
  0
LINE
  8
0
  6
CONTINUOUS
 62
     4
 10
99.705017535
 20
367.0
 11
74.240000477
 21
367.0
  0
LINE
  8
0
  6
CONTINUOUS
 62
     4
 10
95.505017535
 20
357.8
 11
59.240000477
 21
357.8
  0
LINE
  8
0
  6
CONTINUOUS
 62
     4
 10
161.605017535
 20
371.1
 11
135.740000477
 21
371.1
  0
LINE
  8
0
  6
CONTINUOUS
 62
     4
 10
176.2
 20
80.786582533
 11
176.2
 21
69.6
  0
LINE
  8
0
  6
CONTINUOUS
 62
     4
 10
136.95
 20
349.4
 11
136.635948979
 21
351.375189094
  0
LINE
  8
0
  6
CONTINUOUS
 62
     4
 10
136.95
 20
349.4
 11
135.690429291
 21
350.953538422
  0
LINE
  8
0
  6
CONTINUOUS
 62
     4
 10
124.418918919
 20
377.5
 11
163.1
 21
377.5
  0
LINE
  8
0
  6
CONTINUOUS
 62
     4
 10
136.95
 20
349.4
 11
124.418918919
 21
377.5
  0
LINE
  8
0
  6
CONTINUOUS
 62
     4
 10
455.050001907
 20
259.2
 11
440.950001907
 21
240.4
  0
LINE
  8
0
  6
CONTINUOUS
 62
     4
 10
455.050001907
 20
259.2
 11
449.500001907
 21
256.05
  0
LINE
  8
0
  6
CONTINUOUS
 62
     4
 10
455.050001907
 20
259.2
 11
453.650001907
 21
254.3
  0
LINE
  8
0
  6
CONTINUOUS
 62
     4
 10
68.4
 20
250.45
 11
90.740000477
 21
250.45
  0
LINE
  8
0
  6
CONTINUOUS
 62
     4
 10
77.560000477
 20
249.1
 11
77.560000477
 21
212.2
  0
LINE
  8
0
  6
CONTINUOUS
 62
     4
 10
77.560000477
 20
311.45
 11
77.560000477
 21
255.2
  0
LINE
  8
1
  6
CONTINUOUS
 62
     3
 10
98.5
 20
328.0
 11
98.5
 21
270.0
  0
LINE
  8
1
  6
CONTINUOUS
 62
     3
 10
157.5
 20
329.0
 11
99.5
 21
329.0
  0
LINE
  8
1
  6
CONTINUOUS
 62
     3
 10
99.5
 20
329.0
 11
98.5
 21
328.0
  0
LINE
  8
1
  6
CONTINUOUS
 62
     3
 10
99.5
 20
269.0
 11
157.5
 21
269.0
  0
LINE
  8
1
  6
CONTINUOUS
 62
     3
 10
98.5
 20
270.0
 11
99.5
 21
269.0
  0
LINE
  8
1
  6
CONTINUOUS
 62
     3
 10
104.5
 20
267.0
 11
104.5
 21
215.0
  0
LINE
  8
1
  6
CONTINUOUS
 62
     3
 10
157.5
 20
268.0
 11
105.5
 21
268.0
  0
LINE
  8
1
  6
CONTINUOUS
 62
     3
 10
105.5
 20
268.0
 11
104.5
 21
267.0
  0
LINE
  8
1
  6
CONTINUOUS
 62
     3
 10
105.5
 20
214.0
 11
157.5
 21
214.0
  0
LINE
  8
1
  6
CONTINUOUS
 62
     3
 10
104.5
 20
215.0
 11
105.5
 21
214.0
  0
LINE
  8
0
  6
CONTINUOUS
 62
     4
 10
90.740000477
 20
250.45
 11
107.540000477
 21
238.354
  0
LINE
  8
0
  6
CONTINUOUS
 62
     4
 10
107.540000477
 20
238.354
 11
106.040000477
 21
240.854
  0
LINE
  8
0
  6
CONTINUOUS
 62
     4
 10
107.540000477
 20
238.354
 11
105.040000477
 21
238.854
  0
LINE
  8
0
  6
CONTINUOUS
 62
     3
 10
471.85
 20
136.5
 11
448.85
 21
136.5
  0
LINE
  8
0
  6
CONTINUOUS
 62
     3
 10
448.85
 20
136.5
 11
448.85
 21
113.5
  0
LINE
  8
0
  6
CONTINUOUS
 62
     3
 10
471.85
 20
113.5
 11
471.85
 21
136.5
  0
LINE
  8
0
  6
CONTINUOUS
 62
     3
 10
448.85
 20
113.5
 11
471.85
 21
113.5
  0
LINE
  8
0
  6
CONTINUOUS
 62
     3
 10
471.85
 20
83.5
 11
471.85
 21
106.5
  0
LINE
  8
0
  6
CONTINUOUS
 62
     3
 10
448.85
 20
106.5
 11
448.85
 21
83.5
  0
LINE
  8
0
  6
CONTINUOUS
 62
     3
 10
471.85
 20
106.5
 11
448.85
 21
106.5
  0
LINE
  8
0
  6
CONTINUOUS
 62
     3
 10
448.85
 20
83.5
 11
471.85
 21
83.5
  0
LINE
  8
0
  6
CONTINUOUS
 62
     3
 10
478.85
 20
83.5
 11
501.85
 21
83.5
  0
LINE
  8
0
  6
CONTINUOUS
 62
     3
 10
478.85
 20
106.5
 11
478.85
 21
83.5
  0
LINE
  8
0
  6
CONTINUOUS
 62
     3
 10
501.85
 20
106.5
 11
478.85
 21
106.5
  0
LINE
  8
0
  6
CONTINUOUS
 62
     3
 10
501.85
 20
83.5
 11
501.85
 21
106.5
  0
LINE
  8
0
  6
CONTINUOUS
 62
     3
 10
478.85
 20
113.5
 11
501.85
 21
113.5
  0
LINE
  8
0
  6
CONTINUOUS
 62
     3
 10
501.85
 20
113.5
 11
501.85
 21
136.5
  0
LINE
  8
0
  6
CONTINUOUS
 62
     3
 10
501.85
 20
136.5
 11
478.85
 21
136.5
  0
LINE
  8
0
  6
CONTINUOUS
 62
     3
 10
478.85
 20
136.5
 11
478.85
 21
113.5
  0
LINE
  8
0
  6
CONTINUOUS
 62
     4
 10
502.35
 20
136.5
 11
509.95
 21
136.5
  0
LINE
  8
0
  6
CONTINUOUS
 62
     4
 10
508.95
 20
136.5
 11
508.43236191
 21
134.568148347
  0
LINE
  8
0
  6
CONTINUOUS
 62
     4
 10
508.95
 20
136.5
 11
509.46763809
 21
134.568148347
  0
LINE
  8
0
  6
CONTINUOUS
 62
     4
 10
508.95
 20
136.5
 11
508.95
 21
113.5
  0
LINE
  8
0
  6
CONTINUOUS
 62
     4
 10
508.95
 20
113.5
 11
509.46763809
 21
115.431851653
  0
LINE
  8
0
  6
CONTINUOUS
 62
     4
 10
508.95
 20
113.5
 11
508.43236191
 21
115.431851653
  0
LINE
  8
0
  6
CONTINUOUS
 62
     4
 10
502.35
 20
113.5
 11
509.95
 21
113.5
  0
LINE
  8
0
  6
CONTINUOUS
 62
     4
 10
478.85
 20
137.0
 11
478.85
 21
142.3
  0
LINE
  8
0
  6
CONTINUOUS
 62
     4
 10
478.85
 20
141.3
 11
480.781851653
 21
140.78236191
  0
LINE
  8
0
  6
CONTINUOUS
 62
     4
 10
478.85
 20
141.3
 11
480.781851653
 21
141.81763809
  0
LINE
  8
0
  6
CONTINUOUS
 62
     4
 10
478.85
 20
141.3
 11
501.85
 21
141.3
  0
LINE
  8
0
  6
CONTINUOUS
 62
     4
 10
501.85
 20
141.3
 11
499.918148347
 21
141.81763809
  0
LINE
  8
0
  6
CONTINUOUS
 62
     4
 10
501.85
 20
141.3
 11
499.918148347
 21
140.78236191
  0
LINE
  8
0
  6
CONTINUOUS
 62
     4
 10
501.85
 20
137.0
 11
501.85
 21
142.3
  0
LINE
  8
0
  6
CONTINUOUS
 62
     4
 10
460.35
 20
82.5
 11
460.35
 21
70.7
  0
LINE
  8
0
  6
CONTINUOUS
 62
     4
 10
460.35
 20
71.7
 11
462.281851653
 21
71.18236191
  0
LINE
  8
0
  6
CONTINUOUS
 62
     4
 10
460.35
 20
71.7
 11
462.281851653
 21
72.21763809
  0
LINE
  8
0
  6
CONTINUOUS
 62
     4
 10
460.35
 20
71.7
 11
490.35
 21
71.7
  0
LINE
  8
0
  6
CONTINUOUS
 62
     4
 10
490.35
 20
71.7
 11
488.418148347
 21
72.21763809
  0
LINE
  8
0
  6
CONTINUOUS
 62
     4
 10
490.35
 20
71.7
 11
488.418148347
 21
71.18236191
  0
LINE
  8
0
  6
CONTINUOUS
 62
     4
 10
490.35
 20
82.5
 11
490.35
 21
70.7
  0
LINE
  8
0
  6
CONTINUOUS
 62
     4
 10
447.35
 20
125.0
 11
433.15
 21
125.0
  0
LINE
  8
0
  6
CONTINUOUS
 62
     4
 10
434.15
 20
125.0
 11
433.63236191
 21
123.068148347
  0
LINE
  8
0
  6
CONTINUOUS
 62
     4
 10
434.15
 20
125.0
 11
434.66763809
 21
123.068148347
  0
LINE
  8
0
  6
CONTINUOUS
 62
     4
 10
434.15
 20
125.0
 11
434.15
 21
95.0
  0
LINE
  8
0
  6
CONTINUOUS
 62
     4
 10
434.15
 20
95.0
 11
434.66763809
 21
96.931851653
  0
LINE
  8
0
  6
CONTINUOUS
 62
     4
 10
434.15
 20
95.0
 11
433.63236191
 21
96.931851653
  0
LINE
  8
0
  6
CONTINUOUS
 62
     4
 10
447.35
 20
95.0
 11
433.15
 21
95.0
  0
TEXT
  8
0
  6
CONTINUOUS
 62
     3
 10
453.89
 20
56.78
 30
0.0
 40
4.8
  1
パネルカット寸法
 50
0.0
 41
1.0
 51
0.0
  7
KANJI0
  0
LINE
  8
0
  6
CONTINUOUS
 62
     3
 10
451.35
 20
55.2
 11
494.35
 21
55.2
  0
LINE
  8
0
  6
CONTINUOUS
 62
     4
 10
99.5
 20
98.0
 11
102.013268828
 21
101.59038404
  0
LINE
  8
0
  6
CONTINUOUS
 62
     4
 10
99.5
 20
159.0
 11
101.920371699
 21
156.925395687
  0
LINE
  8
0
  6
CONTINUOUS
 62
     4
 10
177.0
 20
156.839805825
 11
186.0
 21
158.5
  0
LINE
  8
0
  6
CONTINUOUS
 62
     4
 10
186.5
 20
98.0
 11
176.16887438
 21
101.826342822
  0
LINE
  8
0
  6
CONTINUOUS
 62
     4
 10
168.5
 20
337.07
 11
168.5
 21
329.24
  0
LINE
  8
0
  6
LTYPE2
 62
     4
 10
174.5
 20
333.4
 11
162.5
 21
333.4
  0
LINE
  8
0
  6
LTYPE2
 62
     4
 10
174.5
 20
333.4
 11
162.5
 21
333.4
  0
LINE
  8
0
  6
LTYPE2
 62
     4
 10
160.5
 20
212.2
 11
160.5
 21
333.4
  0
LINE
  8
0
  6
LTYPE2
 62
     4
 10
176.5
 20
333.4
 11
176.5
 21
212.2
  0
LINE
  8
0
  6
LTYPE2
 62
     4
 10
440.0
 20
354.3
 11
428.0
 21
354.3
  0
LINE
  8
0
  6
LTYPE2
 62
     4
 10
479.0
 20
261.5
 11
491.0
 21
261.5
  0
TEXT
  8
0
  6
CONTINUOUS
 62
     3
 10
72.5
 20
378.4
 30
0.0
 40
3.5
  1
Ｄ　サブ　コネクタ（２５Ｐ）
 50
0.0
 41
0.914285714
 51
0.0
  7
KANJI1
  0
TEXT
  8
0
  6
CONTINUOUS
 62
     3
 10
75.205017535
 20
368.5
 30
0.0
 40
3.5
  1
入力部ネジ端子
 50
0.0
 41
0.914285714
 51
0.0
  7
KANJI1
  0
TEXT
  8
0
  6
CONTINUOUS
 62
     3
 10
58.505017535
 20
359.3
 30
0.0
 40
3.5
  1
Ｄ　サブ　コネクタ（９Ｐ）
 50
0.0
 41
0.914285714
 51
0.0
  7
KANJI1
  0
TEXT
  8
0
  6
CONTINUOUS
 62
     3
 10
124.955017535
 20
378.55
 30
0.0
 40
3.5
  1
オプション用ネジ端子
 50
0.0
 41
0.914285714
 51
0.0
  7
KANJI1
  0
TEXT
  8
0
  6
CONTINUOUS
 62
     3
 10
136.605017535
 20
372.1
 30
0.0
 40
3.5
  1
電源部ネジ端子
 50
0.0
 41
0.914285714
 51
0.0
  7
KANJI1
  0
TEXT
  8
0
  6
CONTINUOUS
 62
     3
 10
197.15
 20
306.1
 30
0.0
 40
3.5
  1
取付金具
 50
0.0
 41
0.914285714
 51
0.0
  7
KANJI1
  0
TEXT
  8
0
  6
CONTINUOUS
 62
     3
 10
221.35
 20
277.1
 30
0.0
 40
3.5
  1
取付金具
 50
0.0
 41
0.914285714
 51
0.0
  7
KANJI1
  0
TEXT
  8
0
  6
CONTINUOUS
 62
     3
 10
70.240000477
 20
315.45
 30
0.0
 40
3.5
  1
型式銘板
 50
0.0
 41
0.914285714
 51
0.0
  7
KANJI1
  0
TEXT
  8
0
  6
CONTINUOUS
 62
     3
 10
76.560000477
 20
336.4
 30
0.0
 40
3.5
  1
１．２
 50
90.0
 41
0.914285714
 51
0.0
  7
KANJI1
  0
TEXT
  8
0
  6
CONTINUOUS
 62
     3
 10
66.03
 20
277.75
 30
0.0
 40
3.5
  1
（１４０）
 50
90.0
 41
0.914285714
 51
0.0
  7
KANJI1
  0
TEXT
  8
0
  6
CONTINUOUS
 62
     3
 10
76.560000477
 20
269.95
 30
0.0
 40
3.5
  1
１２０
 50
90.0
 41
0.914285714
 51
0.0
  7
KANJI1
  0
TEXT
  8
0
  6
CONTINUOUS
 62
     3
 10
68.140000477
 20
251.35
 30
0.0
 40
3.5
  1
オプション銘板
 50
0.0
 41
0.914285714
 51
0.0
  7
KANJI1
  0
TEXT
  8
0
  6
CONTINUOUS
 62
     3
 10
193.740000477
 20
233.45
 30
0.0
 40
3.5
  1
アルミケ－ス：黒
 50
0.0
 41
0.914285714
 51
0.0
  7
KANJI1
  0
TEXT
  8
0
  6
CONTINUOUS
 62
     3
 10
74.060000477
 20
199.1
 30
0.0
 40
3.5
  1
１３．７
 50
90.0
 41
0.914285714
 51
0.0
  7
KANJI1
  0
TEXT
  8
0
  6
CONTINUOUS
 62
     3
 10
140.0
 20
187.1
 30
0.0
 40
3.5
  1
９１．５
 50
0.0
 41
0.914285714
 51
0.0
  7
KANJI1
  0
TEXT
  8
0
  6
CONTINUOUS
 62
     3
 10
76.560000477
 20
124.3
 30
0.0
 40
3.5
  1
９６
 50
90.0
 41
0.914285714
 51
0.0
  7
KANJI1
  0
TEXT
  8
0
  6
CONTINUOUS
 62
     3
 10
200.47
 20
125.9
 30
0.0
 40
3.5
  1
（５５．５）
 50
90.0
 41
0.914285714
 51
0.0
  7
KANJI1
  0
TEXT
  8
0
  6
CONTINUOUS
 62
     3
 10
135.6
 20
71.6
 30
0.0
 40
3.5
  1
（７４．５）
 50
0.0
 41
0.914285714
 51
0.0
  7
KANJI1
  0
TEXT
  8
0
  6
CONTINUOUS
 62
     3
 10
140.45
 20
64.4
 30
0.0
 40
3.5
  1
１００
 50
0.0
 41
0.914285714
 51
0.0
  7
KANJI1
  0
TEXT
  8
0
  6
CONTINUOUS
 62
     3
 10
289.95
 20
187.1
 30
0.0
 40
3.5
  1
９１．５
 50
0.0
 41
0.914285714
 51
0.0
  7
KANJI1
  0
TEXT
  8
0
  6
CONTINUOUS
 62
     3
 10
289.95
 20
376.8
 30
0.0
 40
3.5
  1
９１．５
 50
0.0
 41
0.914285714
 51
0.0
  7
KANJI1
  0
TEXT
  8
0
  6
CONTINUOUS
 62
     3
 10
354.35
 20
266.4
 30
0.0
 40
3.5
  1
取付金具
 50
0.0
 41
0.914285714
 51
0.0
  7
KANJI1
  0
LINE
  8
0
  6
LTYPE3
 62
     4
 10
447.85
 20
125.0
 11
472.85
 21
125.0
  0
LINE
  8
0
  6
LTYPE3
 62
     4
 10
460.35
 20
137.0
 11
460.35
 21
113.0
  0
LINE
  8
0
  6
LTYPE3
 62
     4
 10
447.85
 20
125.0
 11
472.85
 21
125.0
  0
LINE
  8
0
  6
LTYPE3
 62
     4
 10
460.35
 20
137.0
 11
460.35
 21
113.0
  0
LINE
  8
0
  6
LTYPE3
 62
     4
 10
477.85
 20
125.0
 11
502.85
 21
125.0
  0
LINE
  8
0
  6
LTYPE3
 62
     4
 10
490.35
 20
137.0
 11
490.35
 21
113.0
  0
LINE
  8
0
  6
LTYPE3
 62
     4
 10
477.85
 20
125.0
 11
502.85
 21
125.0
  0
LINE
  8
0
  6
LTYPE3
 62
     4
 10
490.35
 20
137.0
 11
490.35
 21
113.0
  0
LINE
  8
0
  6
LTYPE3
 62
     4
 10
447.85
 20
95.0
 11
472.85
 21
95.0
  0
LINE
  8
0
  6
LTYPE3
 62
     4
 10
460.35
 20
107.0
 11
460.35
 21
83.0
  0
LINE
  8
0
  6
LTYPE3
 62
     4
 10
447.85
 20
95.0
 11
472.85
 21
95.0
  0
LINE
  8
0
  6
LTYPE3
 62
     4
 10
460.35
 20
107.0
 11
460.35
 21
83.0
  0
LINE
  8
0
  6
LTYPE3
 62
     4
 10
477.85
 20
95.0
 11
502.85
 21
95.0
  0
LINE
  8
0
  6
LTYPE3
 62
     4
 10
490.35
 20
107.0
 11
490.35
 21
83.0
  0
LINE
  8
0
  6
LTYPE3
 62
     4
 10
477.85
 20
95.0
 11
502.85
 21
95.0
  0
LINE
  8
0
  6
LTYPE3
 62
     4
 10
490.35
 20
107.0
 11
490.35
 21
83.0
  0
LINE
  8
0
  6
LTYPE3
 62
     1
 10
143.0
 20
195.68
 11
143.0
 21
361.4
  0
LINE
  8
0
  6
LTYPE3
 62
     1
 10
293.35
 20
196.43
 11
293.35
 21
372.8
  0
LINE
  8
0
  6
LTYPE3
 62
     1
 10
89.740000477
 20
126.0
 11
195.240000477
 21
126.0
  0
LINE
  8
0
  6
LTYPE3
 62
     1
 10
143.0
 20
75.95
 11
143.0
 21
176.95
  0
POINT
  8
0
  6
CONTINUOUS
 62
     2
 10
292.599998093
 20
161.5
  0
POINT
  8
0
  6
CONTINUOUS
 62
     2
 10
292.599998093
 20
161.5
  0
POINT
  8
0
  6
CONTINUOUS
 62
     2
 10
292.599998093
 20
161.5
  0
POINT
  8
0
  6
CONTINUOUS
 62
     2
 10
292.599998093
 20
161.5
  0
POINT
  8
0
  6
CONTINUOUS
 62
     2
 10
292.599998093
 20
161.5
  0
POINT
  8
0
  6
CONTINUOUS
 62
     2
 10
292.599998093
 20
161.5
  0
POINT
  8
0
  6
CONTINUOUS
 62
     2
 10
292.599998093
 20
161.5
  0
POINT
  8
0
  6
CONTINUOUS
 62
     2
 10
292.599998093
 20
161.5
  0
ARC
  8
0
  6
CONTINUOUS
 62
     3
 10
244.599998093
 20
80.0
 40
2.0
 50
180.0
 51
270.00001366
  0
CIRCLE
  8
0
  6
CONTINUOUS
 62
     3
 10
256.099998093
 20
87.0
 40
1.6
  0
ARC
  8
0
  6
CONTINUOUS
 62
     3
 10
256.1
 20
79.800145912
 40
8.799866046
 50
90.000009353
 51
112.61991652
  0
ARC
  8
0
  6
CONTINUOUS
 62
     3
 10
256.099996185
 20
79.800145912
 40
8.799866046
 50
67.38008348
 51
89.999990647
  0
ARC
  8
0
  6
CONTINUOUS
 62
     3
 10
256.099996185
 20
94.199854088
 40
8.799866046
 50
270.000009353
 51
292.61991652
  0
ARC
  8
0
  6
CONTINUOUS
 62
     3
 10
256.1
 20
94.199854088
 40
8.799866046
 50
247.38008348
 51
269.999990647
  0
ARC
  8
0
  6
CONTINUOUS
 62
     3
 10
253.099998093
 20
87.0
 40
1.0
 50
112.617002457
 51
247.382997543
  0
ARC
  8
0
  6
CONTINUOUS
 62
     3
 10
259.099998093
 20
87.0
 40
1.0
 50
292.617002457
 51
67.382997543
  0
LINE
  8
0
  6
CONTINUOUS
 62
     3
 10
340.599998093
 20
78.0
 11
335.199998093
 21
78.0
  0
LINE
  8
0
  6
CONTINUOUS
 62
     3
 10
340.599998093
 20
82.5
 11
339.328804387
 21
82.470227017
  0
ARC
  8
0
  6
CONTINUOUS
 62
     3
 10
340.599998093
 20
80.0
 40
2.0
 50
270.0
 51
0.0
  0
LINE
  8
0
  6
CONTINUOUS
 62
     3
 10
340.599998093
 20
80.0
 11
340.599998093
 21
82.5
  0
LINE
  8
0
  6
CONTINUOUS
 62
     3
 10
340.599998093
 20
80.0
 11
339.59572631
 21
80.000007299
  0
ARC
  8
0
  6
CONTINUOUS
 62
     3
 10
339.599998093
 20
81.25
 40
1.25
 50
90.0
 51
269.804195562
  0
LINE
  8
0
  6
CONTINUOUS
 62
     3
 10
335.899998093
 20
78.0
 11
244.599998569
 21
78.0
  0
ARC
  8
0
  6
CONTINUOUS
 62
     3
 10
340.599998093
 20
172.0
 40
2.0
 50
0.0
 51
90.0
  0
ARC
  8
0
  6
CONTINUOUS
 62
     3
 10
340.599998093
 20
172.0
 40
2.0
 50
0.0
 51
90.000036142
  0
LINE
  8
0
  6
CONTINUOUS
 62
     3
 10
342.599998093
 20
80.0
 11
342.599998093
 21
172.0
  0
ARC
  8
0
  6
CONTINUOUS
 62
     3
 10
244.599998093
 20
172.0
 40
2.0
 50
89.999963858
 51
180.0
  0
LINE
  8
0
  6
CONTINUOUS
 62
     3
 10
242.599998093
 20
172.0
 11
242.599998093
 21
80.0
  0
LINE
  8
0
  6
CONTINUOUS
 62
     4
 10
244.099999354
 20
174.0
 11
226.159998569
 21
174.0
  0
LINE
  8
0
  6
CONTINUOUS
 62
     4
 10
227.159998569
 20
174.0
 11
226.642360479
 21
172.068148347
  0
LINE
  8
0
  6
CONTINUOUS
 62
     4
 10
227.159998569
 20
174.0
 11
227.67763666
 21
172.068148347
  0
LINE
  8
0
  6
CONTINUOUS
 62
     4
 10
227.159998569
 20
174.0
 11
227.159998569
 21
78.0
  0
LINE
  8
0
  6
CONTINUOUS
 62
     4
 10
227.159998569
 20
78.0
 11
227.67763666
 21
79.931851653
  0
LINE
  8
0
  6
CONTINUOUS
 62
     4
 10
227.159998569
 20
78.0
 11
226.642360479
 21
79.931851653
  0
LINE
  8
0
  6
CONTINUOUS
 62
     4
 10
244.099998569
 20
78.0
 11
226.159998569
 21
78.0
  0
LINE
  8
0
  6
CONTINUOUS
 62
     4
 10
242.599998093
 20
79.5
 11
242.599998093
 21
62.4
  0
LINE
  8
0
  6
CONTINUOUS
 62
     4
 10
242.599998093
 20
63.4
 11
244.531849745
 21
62.88236191
  0
LINE
  8
0
  6
CONTINUOUS
 62
     4
 10
242.599998093
 20
63.4
 11
244.531849745
 21
63.91763809
  0
LINE
  8
0
  6
CONTINUOUS
 62
     4
 10
242.599998093
 20
63.4
 11
342.599998093
 21
63.4
  0
LINE
  8
0
  6
CONTINUOUS
 62
     4
 10
342.599998093
 20
63.4
 11
340.66814644
 21
63.91763809
  0
LINE
  8
0
  6
CONTINUOUS
 62
     4
 10
342.599998093
 20
63.4
 11
340.66814644
 21
62.88236191
  0
LINE
  8
0
  6
CONTINUOUS
 62
     4
 10
342.599998093
 20
79.5
 11
342.599998093
 21
62.4
  0
TEXT
  8
0
  6
CONTINUOUS
 62
     3
 10
226.159998569
 20
124.3
 30
0.0
 40
3.5
  1
９６
 50
90.0
 41
0.914285714
 51
0.0
  7
KANJI1
  0
TEXT
  8
0
  6
CONTINUOUS
 62
     3
 10
290.049998093
 20
64.4
 30
0.0
 40
3.5
  1
１００
 50
0.0
 41
0.914285714
 51
0.0
  7
KANJI1
  0
LINE
  8
0
  6
LTYPE3
 62
     1
 10
239.339998569
 20
126.0
 11
344.839998569
 21
126.0
  0
LINE
  8
0
  6
LTYPE3
 62
     1
 10
292.599998093
 20
75.95
 11
292.599998093
 21
176.95
  0
LINE
  8
0
  6
CONTINUOUS
 62
     6
 10
260.299998093
 20
163.0
 11
260.299998093
 21
162.99
  0
ARC
  8
0
  6
CONTINUOUS
 62
     3
 10
255.149998093
 20
163.75
 40
0.75
 50
179.99985429
 51
270.000291421
  0
LINE
  8
0
  6
CONTINUOUS
 62
     3
 10
254.399998093
 20
173.830510605
 11
254.399998093
 21
163.750001907
  0
LINE
  8
0
  6
CONTINUOUS
 62
     3
 10
279.299998093
 20
163.0
 11
279.299998093
 21
162.99
  0
LINE
  8
0
  6
CONTINUOUS
 62
     3
 10
285.199998093
 20
166.25
 11
285.199998093
 21
164.2
  0
ARC
  8
0
  6
CONTINUOUS
 62
     3
 10
284.449998093
 20
163.75
 40
0.75
 50
270.000206066
 51
0.0
  0
LINE
  8
0
  6
CONTINUOUS
 62
     3
 10
285.199998093
 20
173.830510605
 11
285.199998093
 21
163.75
  0
LINE
  8
0
  6
CONTINUOUS
 62
     3
 10
255.150001907
 20
163.0
 11
264.799998093
 21
163.0
  0
LINE
  8
0
  6
CONTINUOUS
 62
     3
 10
265.799998093
 20
162.0
 11
269.799998093
 21
162.0
  0
ARC
  8
0
  6
CONTINUOUS
 62
     3
 10
265.799998093
 20
163.0
 40
1.0
 50
180.0
 51
270.0
  0
LINE
  8
0
  6
CONTINUOUS
 62
     3
 10
273.799998093
 20
162.0
 11
269.799998093
 21
162.0
  0
ARC
  8
0
  6
CONTINUOUS
 62
     3
 10
273.799998093
 20
163.0
 40
1.0
 50
270.0
 51
0.0
  0
LINE
  8
0
  6
CONTINUOUS
 62
     3
 10
274.799998093
 20
163.0
 11
284.45000079
 21
163.0
  0
LINE
  8
0
  6
CONTINUOUS
 62
     3
 10
254.449998093
 20
163.5
 11
264.799998093
 21
163.5
  0
LINE
  8
0
  6
CONTINUOUS
 62
     3
 10
264.799998093
 20
163.5
 11
264.799998093
 21
163.0
  0
LINE
  8
0
  6
CONTINUOUS
 62
     3
 10
274.799998093
 20
163.5
 11
274.799998093
 21
163.0
  0
LINE
  8
0
  6
CONTINUOUS
 62
     3
 10
285.149998093
 20
163.5
 11
274.799998093
 21
163.5
  0
LINE
  8
3
  6
CONTINUOUS
 62
     1
 10
248.452998093
 20
159.642
 11
251.399998093
 21
157.1
  0
ARC
  8
3
  6
CONTINUOUS
 62
     3
 10
249.099998093
 20
159.0
 40
1.5
 50
90.0
 51
179.999927149
  0
ARC
  8
3
  6
CONTINUOUS
 62
     3
 10
251.899998093
 20
156.6
 40
0.5
 50
90.0
 51
180.0
  0
ARC
  8
3
  6
CONTINUOUS
 62
     3
 10
336.099998093
 20
98.0
 40
1.5
 50
270.0
 51
0.0
  0
ARC
  8
3
  6
CONTINUOUS
 62
     3
 10
249.099998093
 20
98.0
 40
1.5
 50
180.0
 51
270.0
  0
LINE
  8
3
  6
CONTINUOUS
 62
     3
 10
247.599998093
 20
159.000001907
 11
247.599998093
 21
98.0
  0
LINE
  8
3
  6
CONTINUOUS
 62
     3
 10
336.099998093
 20
96.5
 11
249.099998093
 21
96.5
  0
LINE
  8
3
  6
CONTINUOUS
 62
     3
 10
249.099998093
 20
160.5
 11
336.099998093
 21
160.5
  0
LINE
  8
3
  6
CONTINUOUS
 62
     3
 10
337.599998093
 20
159.0
 11
337.599998093
 21
98.0
  0
ARC
  8
3
  6
CONTINUOUS
 62
     3
 10
336.099998093
 20
159.0
 40
1.5
 50
0.0
 51
90.0
  0
LINE
  8
3
  6
CONTINUOUS
 62
     1
 10
327.169998093
 20
157.06
 11
336.679998093
 21
159.6
  0
LINE
  8
3
  6
CONTINUOUS
 62
     3
 10
326.599998093
 20
156.6
 11
326.599998093
 21
120.65
  0
ARC
  8
3
  6
CONTINUOUS
 62
     3
 10
326.099998093
 20
156.6
 40
0.5
 50
0.0
 51
90.0
  0
LINE
  8
3
  6
CONTINUOUS
 62
     3
 10
326.099998093
 20
157.1
 11
251.899998093
 21
157.1
  0
LINE
  8
3
  6
CONTINUOUS
 62
     3
 10
326.099998093
 20
100.3
 11
251.899998093
 21
100.3
  0
ARC
  8
3
  6
CONTINUOUS
 62
     3
 10
251.899998093
 20
100.8
 40
0.5
 50
180.0
 51
270.0
  0
LINE
  8
3
  6
CONTINUOUS
 62
     3
 10
251.399998093
 20
156.6
 11
251.399998093
 21
100.8
  0
ARC
  8
3
  6
CONTINUOUS
 62
     3
 10
326.099998093
 20
100.8
 40
0.5
 50
270.0
 51
0.0
  0
LINE
  8
3
  6
CONTINUOUS
 62
     3
 10
326.599998093
 20
120.65
 11
326.599998093
 21
100.8
  0
LINE
  8
3
  6
CONTINUOUS
 62
     1
 10
251.249998093
 20
100.2
 11
248.349998093
 21
97.3
  0
LINE
  8
3
  6
CONTINUOUS
 62
     1
 10
326.849998093
 20
100.25
 11
336.799998093
 21
97.4
  0
LINE
  8
0
  6
CONTINUOUS
 62
     4
 10
251.307570594
 20
99.705968253
 11
251.307570594
 21
68.005968253
  0
LINE
  8
0
  6
CONTINUOUS
 62
     4
 10
251.307570594
 20
70.005968253
 11
253.72238516
 21
69.358920641
  0
LINE
  8
0
  6
CONTINUOUS
 62
     4
 10
251.307570594
 20
70.005968253
 11
253.72238516
 21
70.653015866
  0
LINE
  8
0
  6
CONTINUOUS
 62
     4
 10
251.307570594
 20
70.005968253
 11
326.507570594
 21
70.005968253
  0
LINE
  8
0
  6
CONTINUOUS
 62
     4
 10
326.507570594
 20
70.005968253
 11
324.092756029
 21
70.653015866
  0
LINE
  8
0
  6
CONTINUOUS
 62
     4
 10
326.507570594
 20
70.005968253
 11
324.092756029
 21
69.358920641
  0
LINE
  8
0
  6
CONTINUOUS
 62
     4
 10
326.507570594
 20
99.805968253
 11
326.507570594
 21
86.505968253
  0
LINE
  8
0
  6
CONTINUOUS
 62
     4
 10
327.207570594
 20
157.205968253
 11
357.407570594
 21
157.205968253
  0
LINE
  8
0
  6
CONTINUOUS
 62
     4
 10
355.407570594
 20
157.205968253
 11
354.760522982
 21
154.791153688
  0
LINE
  8
0
  6
CONTINUOUS
 62
     4
 10
355.407570594
 20
157.205968253
 11
356.054618207
 21
154.791153688
  0
LINE
  8
0
  6
CONTINUOUS
 62
     4
 10
355.407570594
 20
157.205968253
 11
355.407570594
 21
100.305968253
  0
LINE
  8
0
  6
CONTINUOUS
 62
     4
 10
355.407570594
 20
100.305968253
 11
356.054618207
 21
102.720782819
  0
LINE
  8
0
  6
CONTINUOUS
 62
     4
 10
355.407570594
 20
100.305968253
 11
354.760522982
 21
102.720782819
  0
LINE
  8
0
  6
CONTINUOUS
 62
     4
 10
326.407570594
 20
100.305968253
 11
357.407570594
 21
100.305968253
  0
TEXT
  8
0
  6
CONTINUOUS
 62
     3
 10
354.407570594
 20
125.755968253
 30
0.0
 40
3.0
  1
（５６．９）
 50
90.0
 41
0.666666667
 51
0.0
  7
KANJI2
  0
TEXT
  8
0
  6
CONTINUOUS
 62
     3
 10
285.907570594
 20
71.005968253
 30
0.0
 40
3.0
  1
（７５．２）
 50
0.0
 41
0.833333333
 51
0.0
  7
KANJI3
  0
TEXT
  8
0
  6
CONTINUOUS
 62
     3
 10
123.988579644
 20
52.453810208
 30
0.0
 40
5.0
  1
ＳＤ機能なし
 50
0.0
 41
0.8
 51
0.0
  7
KANJI4
  0
TEXT
  8
0
  6
CONTINUOUS
 62
     3
 10
281.088579644
 20
52.453810208
 30
0.0
 40
5.0
  1
ＳＤ機能あり
 50
0.0
 41
0.8
 51
0.0
  7
KANJI4
  0
TEXT
  8
0
  6
CONTINUOUS
 62
     3
 10
395.625
 20
303.9
 30
0.0
 40
3.3
  1
９１．５
 50
90.0
 41
0.681818182
 51
0.0
  7
KANJI5
  0
TEXT
  8
0
  6
CONTINUOUS
 62
     3
 10
454.3
 20
252.57
 30
0.0
 40
3.3
  1
９１．５
 50
0.0
 41
0.681818182
 51
0.0
  7
KANJI5
  0
TEXT
  8
0
  6
CONTINUOUS
 62
     3
 10
467.28
 20
72.88
 30
0.0
 40
2.64
  1
ＭＩＮ．　１２０
 50
0.0
 41
0.772727273
 51
0.0
  7
KANJI6
  0
ARC
  8
0
  6
CONTINUOUS
 62
     3
 10
411.7
 20
353.9
 40
2.0
 50
90.0
 51
180.0
  0
LINE
  8
0
  6
CONTINUOUS
 62
     3
 10
409.7
 20
353.9
 11
409.7
 21
261.9
  0
ARC
  8
0
  6
CONTINUOUS
 62
     3
 10
411.7
 20
261.9
 40
2.0
 50
180.0
 51
270.0
  0
LINE
  8
0
  6
CONTINUOUS
 62
     3
 10
411.7
 20
259.9
 11
507.3
 21
259.9
  0
ARC
  8
0
  6
CONTINUOUS
 62
     3
 10
507.3
 20
261.9
 40
2.0
 50
270.0
 51
0.0
  0
LINE
  8
0
  6
CONTINUOUS
 62
     3
 10
507.3
 20
355.9
 11
411.7
 21
355.9
  0
LINE
  8
0
  6
CONTINUOUS
 62
     3
 10
509.3
 20
261.9
 11
509.3
 21
353.9
  0
ARC
  8
0
  6
CONTINUOUS
 62
     3
 10
507.3
 20
353.9
 40
2.0
 50
0.0
 51
90.0
  0
LINE
  8
0
  6
CONTINUOUS
 62
     4
 10
176.2
 20
101.5
 11
176.2
 21
78.0
  0
ARC
  8
0
  6
CONTINUOUS
 62
     3
 10
115.0
 20
87.0
 40
2.0
 50
0.0
 51
56.615838194
  0
ARC
  8
0
  6
CONTINUOUS
 62
     3
 10
115.0
 20
87.0
 40
2.0
 50
56.615838194
 51
123.384161806
  0
ARC
  8
0
  6
CONTINUOUS
 62
     3
 10
115.0
 20
87.0
 40
2.0
 50
123.384161806
 51
0.0
  0
LINE
  8
0
  6
CONTINUOUS
 62
     3
 10
113.0
 20
87.0
 11
115.0
 21
88.1
  0
LINE
  8
0
  6
CONTINUOUS
 62
     3
 10
115.0
 20
88.1
 11
115.0
 21
85.9
  0
LINE
  8
0
  6
CONTINUOUS
 62
     3
 10
115.0
 20
85.9
 11
117.0
 21
87.0
  0
ARC
  8
0
  6
CONTINUOUS
 62
     3
 10
264.599998093
 20
87.0
 40
2.0
 50
0.0
 51
56.615838194
  0
ARC
  8
0
  6
CONTINUOUS
 62
     3
 10
264.599998093
 20
87.0
 40
2.0
 50
56.615838194
 51
123.384161806
  0
ARC
  8
0
  6
CONTINUOUS
 62
     3
 10
264.599998093
 20
87.0
 40
2.0
 50
123.384161806
 51
0.0
  0
LINE
  8
0
  6
CONTINUOUS
 62
     3
 10
262.599998093
 20
87.0
 11
264.599998093
 21
88.1
  0
LINE
  8
0
  6
CONTINUOUS
 62
     3
 10
264.599998093
 20
88.1
 11
264.599998093
 21
85.9
  0
LINE
  8
0
  6
CONTINUOUS
 62
     3
 10
264.599998093
 20
85.9
 11
266.599998093
 21
87.0
  0
LINE
  8
0
  6
CONTINUOUS
 62
     4
 10
326.507570594
 20
86.505968253
 11
326.507570594
 21
68.005968253
  0
ARC
  8
0
  6
CONTINUOUS
 62
     3
 10
265.657064361
 20
191.00925
 40
24.500408008
 50
263.34351346
 51
272.49135598
  0
ARC
  8
0
  6
CONTINUOUS
 62
     3
 10
267.820728155
 20
166.576068966
 40
1.615647019
 50
263.758085652
 51
18.922297839
  0
ARC
  8
0
  6
CONTINUOUS
 62
     3
 10
268.013376861
 20
166.363375
 40
1.525345039
 50
28.876516632
 51
71.512341184
  0
ARC
  8
0
  6
CONTINUOUS
 62
     3
 10
263.953064362
 20
171.36
 40
6.739392406
 50
339.655898743
 51
348.453309453
  0
LINE
  8
0
  6
CONTINUOUS
 62
     3
 10
270.272064361
 20
169.017
 11
266.296064361
 21
169.017
  0
LINE
  8
0
  6
CONTINUOUS
 62
     3
 10
270.556064361
 20
170.011
 11
267.787064361
 21
170.011
  0
LINE
  8
0
  6
CONTINUOUS
 62
     3
 10
267.787064361
 20
170.011
 11
267.725542861
 21
170.00745
  0
LINE
  8
0
  6
CONTINUOUS
 62
     3
 10
266.777539768
 20
166.589021875
 11
266.767225757
 21
166.5774684
  0
LINE
  8
0
  6
CONTINUOUS
 62
     3
 10
266.767225757
 20
166.5774684
 11
266.756391033
 21
166.566014325
  0
LINE
  8
0
  6
CONTINUOUS
 62
     3
 10
266.756391033
 20
166.566014325
 11
266.745165773
 21
166.5546348
  0
LINE
  8
0
  6
CONTINUOUS
 62
     3
 10
266.745165773
 20
166.5546348
 11
266.733680157
 21
166.543304975
  0
LINE
  8
0
  6
CONTINUOUS
 62
     3
 10
266.733680157
 20
166.543304975
 11
266.722064361
 21
166.532
  0
ARC
  8
0
  6
CONTINUOUS
 62
     3
 10
266.391914361
 20
166.265749999
 40
2.752919139
 50
91.995304032
 51
103.193982703
  0
ARC
  8
0
  6
CONTINUOUS
 62
     3
 10
265.803797695
 20
168.774022222
 40
0.176621282
 50
103.167251733
 51
172.557558759
  0
ARC
  8
0
  6
CONTINUOUS
 62
     3
 10
265.776581028
 20
168.761855128
 40
0.152011458
 50
166.671075915
 51
259.685947413
  0
ARC
  8
0
  6
CONTINUOUS
 62
     3
 10
266.713293773
 20
170.421964706
 40
2.050377102
 50
241.957719684
 51
257.447140774
  0
ARC
  8
0
  6
CONTINUOUS
 62
     3
 10
269.948492063
 20
181.551723563
 40
13.637261404
 50
254.341112706
 51
260.154647794
  0
ARC
  8
0
  6
CONTINUOUS
 62
     3
 10
266.762001861
 20
164.50184375
 40
3.735550783
 50
62.323878788
 51
78.734292735
  0
LINE
  8
0
  6
CONTINUOUS
 62
     3
 10
271.131164361
 20
169.0099
 11
271.415164361
 21
169.9968
  0
LINE
  8
0
  6
CONTINUOUS
 62
     3
 10
271.415164361
 20
169.9968
 11
273.687164361
 21
169.9968
  0
ARC
  8
0
  6
CONTINUOUS
 62
     3
 10
272.053080217
 20
173.889771157
 40
8.858187636
 50
273.499382609
 51
306.159839657
  0
ARC
  8
0
  6
CONTINUOUS
 62
     3
 10
269.657431541
 20
211.693532104
 40
46.737761892
 50
269.935312749
 51
273.602019942
  0
ARC
  8
0
  6
CONTINUOUS
 62
     3
 10
272.263110885
 20
168.507539461
 40
1.349418552
 50
275.304558083
 51
349.006130707
  0
ARC
  8
0
  6
CONTINUOUS
 62
     3
 10
270.282428205
 20
178.609348832
 40
11.637489436
 50
270.438363084
 51
280.423259509
  0
ARC
  8
0
  6
CONTINUOUS
 62
     3
 10
267.650146736
 20
157.818908094
 40
12.192860677
 50
89.356593404
 51
103.013916427
  0
ARC
  8
0
  6
CONTINUOUS
 62
     3
 10
265.278229634
 20
168.275277918
 40
1.471579501
 50
104.713697649
 51
158.349843834
  0
ARC
  8
0
  6
CONTINUOUS
 62
     3
 10
264.705664361
 20
168.5981
 40
0.825098206
 50
164.528671832
 51
195.471328167
  0
ARC
  8
0
  6
CONTINUOUS
 62
     3
 10
264.944537243
 20
168.772230508
 40
1.106672679
 50
200.868874794
 51
237.545532221
  0
ARC
  8
0
  6
CONTINUOUS
 62
     3
 10
267.464014361
 20
173.808316667
 40
6.732967639
 50
242.457668862
 51
256.4302407
  0
ARC
  8
0
  6
CONTINUOUS
 62
     3
 10
265.226525528
 20
164.389229799
 40
2.948372414
 50
57.905094374
 51
77.109681828
  0
ARC
  8
0
  6
CONTINUOUS
 62
     3
 10
266.681492933
 20
166.724714286
 40
0.196938662
 50
281.888658011
 51
55.491477027
  0
LINE
  8
0
  6
CONTINUOUS
 62
     3
 10
270.371464361
 20
166.9722
 11
269.604664361
 21
164.9558
  0
LINE
  8
0
  6
CONTINUOUS
 62
     3
 10
272.821498757
 20
168.935824199
 11
274.303180449
 21
169.978272188
  0
ARC
  8
0
  6
CONTINUOUS
 62
     3
 10
271.240951399
 20
152.192235185
 40
16.81802316
 50
84.607420328
 51
90.374026037
  0
ARC
  8
0
  6
CONTINUOUS
 62
     3
 10
272.899594212
 20
168.244550466
 40
0.688193339
 50
32.838793866
 51
55.695846172
  0
ARC
  8
0
  6
CONTINUOUS
 62
     3
 10
272.899594212
 20
168.244550466
 40
0.688193339
 50
0.470359196
 51
11.688851256
  0
LINE
  8
0
  6
CONTINUOUS
 62
     3
 10
273.287450301
 20
168.813037693
 11
275.485907659
 21
169.777273376
  0
ARC
  8
0
  6
CONTINUOUS
 62
     3
 10
273.797763258
 20
163.424040641
 40
6.573689809
 50
85.590470649
 51
90.96401704
  0
ARC
  8
0
  6
CONTINUOUS
 62
     3
 10
273.797763258
 20
163.424040641
 40
6.573689809
 50
67.400905568
 51
75.11954207
  0
ARC
  8
0
  6
CONTINUOUS
 62
     3
 10
276.151513905
 20
167.83548335
 40
1.574051557
 50
315.789360179
 51
58.945249958
  0
LINE
  8
0
  6
CONTINUOUS
 62
     3
 10
273.477814001
 20
168.617742035
 11
276.323905584
 21
169.492978164
  0
LINE
  8
0
  6
CONTINUOUS
 62
     3
 10
273.57351597
 20
168.383976202
 11
276.963499296
 21
169.183933582
  0
ARC
  8
0
  6
CONTINUOUS
 62
     3
 10
268.246831927
 20
264.773369675
 40
99.809561819
 50
266.630955607
 51
269.819636309
  0
ARC
  8
0
  6
CONTINUOUS
 62
     3
 10
251.492564361
 20
169.0525
 40
11.571584269
 50
340.218632002
 51
348.138500647
  0
LINE
  8
0
  6
CONTINUOUS
 62
     4
 10
264.364095406
 20
169.42849292
 11
264.125014632
 21
169.189412146
  0
LINE
  8
0
  6
CONTINUOUS
 62
     4
 10
263.954818713
 20
168.918807064
 11
264.634700488
 21
169.598688839
  0
LINE
  8
0
  6
CONTINUOUS
 62
     4
 10
264.805169255
 20
169.668748444
 11
263.896652366
 21
168.760231554
  0
LINE
  8
0
  6
CONTINUOUS
 62
     4
 10
263.881904413
 20
168.645074439
 11
264.944645208
 21
169.707815233
  0
LINE
  8
0
  6
CONTINUOUS
 62
     4
 10
265.073684462
 20
169.736445324
 11
263.882274312
 21
168.545035174
  0
LINE
  8
0
  6
CONTINUOUS
 62
     4
 10
263.893007008
 20
168.455358708
 11
265.200884083
 21
169.763235783
  0
LINE
  8
0
  6
CONTINUOUS
 62
     4
 10
265.326332182
 20
169.788274719
 11
263.912014694
 21
168.373957231
  0
LINE
  8
0
  6
CONTINUOUS
 62
     4
 10
263.942011388
 20
168.303544762
 11
265.450109507
 21
169.811642881
  0
LINE
  8
0
  6
CONTINUOUS
 62
     4
 10
265.572290284
 20
169.833414494
 11
263.975893175
 21
168.237017385
  0
LINE
  8
0
  6
CONTINUOUS
 62
     4
 10
264.013411199
 20
168.174126247
 11
265.692942929
 21
169.853657977
  0
LINE
  8
0
  6
CONTINUOUS
 62
     4
 10
265.812130673
 20
169.872436558
 11
264.054386601
 21
168.114692485
  0
LINE
  8
0
  6
CONTINUOUS
 62
     4
 10
264.098696603
 20
168.058593325
 11
265.929912095
 21
169.889808817
  0
LINE
  8
0
  6
CONTINUOUS
 62
     4
 10
266.046341587
 20
169.905829146
 11
264.146265832
 21
168.005753391
  0
LINE
  8
0
  6
CONTINUOUS
 62
     4
 10
262.790135929
 20
166.549214326
 11
262.904838474
 21
166.66391687
  0
LINE
  8
0
  6
CONTINUOUS
 62
     4
 10
264.197061326
 20
167.956139722
 11
266.161469767
 21
169.920548163
  0
LINE
  8
0
  6
CONTINUOUS
 62
     4
 10
266.275343832
 20
169.934013065
 11
264.251090438
 21
167.909759671
  0
LINE
  8
0
  6
CONTINUOUS
 62
     4
 10
262.99520188
 20
166.653871114
 11
262.760543894
 21
166.419213127
  0
LINE
  8
0
  6
CONTINUOUS
 62
     4
 10
262.728853901
 20
166.287113971
 11
263.085872173
 21
166.644132243
  0
LINE
  8
0
  6
CONTINUOUS
 62
     4
 10
264.308401295
 20
167.866661365
 11
266.388007876
 21
169.946267946
  0
LINE
  8
0
  6
CONTINUOUS
 62
     4
 10
266.499503169
 20
169.957354076
 11
264.370332942
 21
167.82818385
  0
LINE
  8
0
  6
CONTINUOUS
 62
     4
 10
263.176852126
 20
166.634703033
 11
262.69494179
 21
166.152792698
  0
LINE
  8
0
  6
CONTINUOUS
 62
     4
 10
262.658669614
 20
166.016111359
 11
263.268144569
 21
166.625586313
  0
LINE
  8
0
  6
CONTINUOUS
 62
     4
 10
264.436814972
 20
167.794256716
 11
266.609868404
 21
169.967310148
  0
LINE
  8
0
  6
CONTINUOUS
 62
     4
 10
266.719139916
 20
169.976172498
 11
264.503915436
 21
167.760948017
  0
LINE
  8
0
  6
CONTINUOUS
 62
     4
 10
263.359752388
 20
166.61678497
 11
262.619883378
 21
165.87691596
  0
LINE
  8
0
  6
CONTINUOUS
 62
     4
 10
262.578410287
 20
165.735033706
 11
263.451678528
 21
166.608301947
  0
LINE
  8
0
  6
CONTINUOUS
 62
     4
 10
264.571641322
 20
167.72826474
 11
265.625994163
 21
168.782617582
  0
LINE
  8
0
  6
CONTINUOUS
 62
     4
 10
265.796994547
 20
168.953617965
 11
266.827351881
 21
169.983975299
  0
LINE
  8
0
  6
CONTINUOUS
 62
     4
 10
266.934536487
 20
169.990750742
 11
265.92206286
 21
168.978277115
  0
LINE
  8
0
  6
CONTINUOUS
 62
     4
 10
265.639643639
 20
168.695857895
 11
264.639999987
 21
167.696214243
  0
LINE
  8
0
  6
CONTINUOUS
 62
     4
 10
263.543925994
 20
166.60014025
 11
262.534055346
 21
165.590269602
  0
LINE
  8
0
  6
CONTINUOUS
 62
     4
 10
262.486597132
 20
165.442402224
 11
263.636497851
 21
166.592302944
  0
LINE
  8
0
  6
CONTINUOUS
 62
     4
 10
264.708999177
 20
167.66480427
 11
265.684841892
 21
168.640646984
  0
LINE
  8
0
  6
CONTINUOUS
 62
     4
 10
266.040319378
 20
168.996124471
 11
267.040724096
 21
169.996529189
  0
LINE
  8
0
  6
CONTINUOUS
 62
     4
 10
267.145943386
 20
170.001339315
 11
266.152875583
 21
169.008271513
  0
LINE
  8
0
  6
CONTINUOUS
 62
     4
 10
265.75428934
 20
168.60968527
 11
264.778647046
 21
167.634042976
  0
LINE
  8
0
  6
CONTINUOUS
 62
     4
 10
263.729397229
 20
166.584793159
 11
262.435782453
 21
165.291178382
  0
LINE
  8
0
  6
CONTINUOUS
 62
     4
 10
262.381319549
 20
165.136306315
 11
263.822627322
 21
166.577614089
  0
LINE
  8
0
  6
CONTINUOUS
 62
     4
 10
264.848952173
 20
167.60393894
 11
265.820959185
 21
168.575945952
  0
LINE
  8
0
  6
CONTINUOUS
 62
     4
 10
266.260546167
 20
169.015532934
 11
267.250221474
 21
170.005208241
  0
LINE
  8
0
  6
CONTINUOUS
 62
     4
 10
267.353584038
 20
170.008161642
 11
266.362422396
 21
169.017
  0
LINE
  8
0
  6
CONTINUOUS
 62
     4
 10
265.889694317
 20
168.544271921
 11
264.919923588
 21
167.574501192
  0
LINE
  8
0
  6
CONTINUOUS
 62
     4
 10
264.991570797
 20
167.545739238
 11
265.960581061
 21
168.514749503
  0
LINE
  8
0
  6
CONTINUOUS
 62
     4
 10
266.462831559
 20
169.017
 11
267.456055416
 21
170.010223857
  0
LINE
  8
0
  6
CONTINUOUS
 62
     4
 10
267.557658707
 20
170.011417985
 11
266.563240722
 21
169.017
  0
LINE
  8
0
  6
CONTINUOUS
 62
     4
 10
266.033721554
 20
168.487480832
 11
265.063903803
 21
167.517663081
  0
LINE
  8
0
  6
CONTINUOUS
 62
     4
 10
265.136933138
 20
167.490283253
 11
266.10923678
 21
168.462586895
  0
LINE
  8
0
  6
CONTINUOUS
 62
     4
 10
266.663649885
 20
169.017
 11
267.658415851
 21
170.011765967
  0
LINE
  8
0
  6
CONTINUOUS
 62
     4
 10
267.758347714
 20
170.011288667
 11
267.75628285
 21
170.009223802
  0
LINE
  8
0
  6
CONTINUOUS
 62
     4
 10
265.285125754
 20
167.437657543
 11
266.267979795
 21
168.420511584
  0
LINE
  8
0
  6
CONTINUOUS
 62
     4
 10
266.864468211
 20
169.017
 11
267.858468211
 21
170.011
  0
LINE
  8
0
  6
CONTINUOUS
 62
     4
 10
267.958877374
 20
170.011
 11
266.964877374
 21
169.017
  0
LINE
  8
0
  6
CONTINUOUS
 62
     4
 10
266.346604819
 20
168.398727445
 11
265.360313028
 21
167.412435654
  0
LINE
  8
0
  6
CONTINUOUS
 62
     4
 10
265.436244693
 20
167.387958156
 11
266.425628489
 21
168.377341952
  0
LINE
  8
0
  6
CONTINUOUS
 62
     4
 10
267.065286537
 20
169.017
 11
268.059286537
 21
170.011
  0
LINE
  8
0
  6
CONTINUOUS
 62
     4
 10
268.159695699
 20
170.011
 11
267.165695699
 21
169.017
  0
LINE
  8
0
  6
CONTINUOUS
 62
     4
 10
266.505054947
 20
168.356359247
 11
265.512934437
 21
167.364238737
  0
LINE
  8
0
  6
CONTINUOUS
 62
     4
 10
265.590396703
 20
167.341291841
 11
266.584888453
 21
168.335783591
  0
LINE
  8
0
  6
CONTINUOUS
 62
     4
 10
267.266104862
 20
169.017
 11
268.260104862
 21
170.011
  0
LINE
  8
0
  6
CONTINUOUS
 62
     4
 10
268.360514025
 20
170.011
 11
267.366514025
 21
169.017
  0
LINE
  8
0
  6
CONTINUOUS
 62
     4
 10
266.665133388
 20
168.315619363
 11
265.668646742
 21
167.319132716
  0
LINE
  8
0
  6
CONTINUOUS
 62
     4
 10
265.747700666
 20
167.297777478
 11
266.745794257
 21
168.295871069
  0
LINE
  8
0
  6
CONTINUOUS
 62
     4
 10
267.466923188
 20
169.017
 11
268.460923188
 21
170.011
  0
LINE
  8
0
  6
CONTINUOUS
 62
     4
 10
268.561332351
 20
170.011
 11
267.567332351
 21
169.017
  0
LINE
  8
0
  6
CONTINUOUS
 62
     4
 10
266.826875695
 20
168.276543344
 11
265.827575513
 21
167.277243162
  0
LINE
  8
0
  6
CONTINUOUS
 62
     4
 10
265.908409009
 20
167.257667494
 11
266.908382473
 21
168.257640959
  0
LINE
  8
0
  6
CONTINUOUS
 62
     4
 10
267.667741514
 20
169.017
 11
268.661741514
 21
170.011
  0
LINE
  8
0
  6
CONTINUOUS
 62
     4
 10
268.762150677
 20
170.011
 11
267.768150677
 21
169.017
  0
LINE
  8
0
  6
CONTINUOUS
 62
     4
 10
266.990319501
 20
168.239168824
 11
265.98857063
 21
167.237419953
  0
LINE
  8
0
  6
CONTINUOUS
 62
     4
 10
266.066868753
 20
167.215308913
 11
267.072691832
 21
168.221131992
  0
LINE
  8
0
  6
CONTINUOUS
 62
     4
 10
267.86855984
 20
169.017
 11
268.86255984
 21
170.011
  0
LINE
  8
0
  6
CONTINUOUS
 62
     4
 10
268.962969003
 20
170.011
 11
267.968969003
 21
169.017
  0
LINE
  8
0
  6
CONTINUOUS
 62
     4
 10
267.155504673
 20
168.20353567
 11
266.143387839
 21
167.191418836
  0
LINE
  8
0
  6
CONTINUOUS
 62
     4
 10
266.218202429
 20
167.165824263
 11
267.238763384
 21
168.186385218
  0
LINE
  8
0
  6
CONTINUOUS
 62
     4
 10
268.069378166
 20
169.017
 11
269.063378166
 21
170.011
  0
LINE
  8
0
  6
CONTINUOUS
 62
     4
 10
269.163787329
 20
170.011
 11
268.169787329
 21
169.017
  0
LINE
  8
0
  6
CONTINUOUS
 62
     4
 10
267.322473489
 20
168.16968616
 11
266.291378511
 21
167.138591183
  0
LINE
  8
0
  6
CONTINUOUS
 62
     4
 10
266.362974639
 20
167.109778147
 11
267.406640682
 21
168.15344419
  0
LINE
  8
0
  6
CONTINUOUS
 62
     4
 10
268.270196492
 20
169.017
 11
269.264196492
 21
170.011
  0
LINE
  8
0
  6
CONTINUOUS
 62
     4
 10
269.364605655
 20
170.011
 11
268.370605655
 21
169.017
  0
LINE
  8
0
  6
CONTINUOUS
 62
     4
 10
267.514435956
 20
168.160830302
 11
266.433042851
 21
167.079437197
  0
LINE
  8
0
  6
CONTINUOUS
 62
     4
 10
266.501629445
 20
167.047614627
 11
267.596911399
 21
168.142896581
  0
LINE
  8
0
  6
CONTINUOUS
 62
     4
 10
268.471014818
 20
169.017
 11
269.465014818
 21
170.011
  0
LINE
  8
0
  6
CONTINUOUS
 62
     4
 10
269.56542398
 20
170.011
 11
268.57142398
 21
169.017
  0
LINE
  8
0
  6
CONTINUOUS
 62
     4
 10
267.67781735
 20
168.123393369
 11
266.568775608
 21
167.014351628
  0
LINE
  8
0
  6
CONTINUOUS
 62
     4
 10
266.634517961
 20
166.979684817
 11
267.75721672
 21
168.102383576
  0
LINE
  8
0
  6
CONTINUOUS
 62
     4
 10
268.671833143
 20
169.017
 11
269.665833143
 21
170.011
  0
LINE
  8
0
  6
CONTINUOUS
 62
     4
 10
269.766242306
 20
170.011
 11
268.772242306
 21
169.017
  0
LINE
  8
0
  6
CONTINUOUS
 62
     4
 10
267.835166247
 20
168.079923941
 11
266.698889004
 21
166.943646697
  0
LINE
  8
0
  6
CONTINUOUS
 62
     4
 10
266.761917499
 20
166.90626603
 11
267.911717243
 21
168.056065774
  0
LINE
  8
0
  6
CONTINUOUS
 62
     4
 10
268.872651469
 20
169.017
 11
269.866651469
 21
170.011
  0
LINE
  8
0
  6
CONTINUOUS
 62
     4
 10
269.967060632
 20
170.011
 11
268.973060632
 21
169.017
  0
LINE
  8
0
  6
CONTINUOUS
 62
     4
 10
267.986916211
 20
168.030855579
 11
266.820390126
 21
166.864329494
  0
LINE
  8
0
  6
CONTINUOUS
 62
     4
 10
266.861368646
 20
166.804898851
 11
268.060805382
 21
168.004335587
  0
LINE
  8
0
  6
CONTINUOUS
 62
     4
 10
269.073469795
 20
169.017
 11
270.067469795
 21
170.011
  0
LINE
  8
0
  6
CONTINUOUS
 62
     4
 10
270.167878958
 20
170.011
 11
269.173878958
 21
169.017
  0
LINE
  8
0
  6
CONTINUOUS
 62
     4
 10
268.133423165
 20
167.976544207
 11
266.878405799
 21
166.721526841
  0
LINE
  8
0
  6
CONTINUOUS
 62
     4
 10
269.274288121
 20
169.017
 11
270.268288121
 21
170.011
  0
LINE
  8
0
  6
CONTINUOUS
 62
     4
 10
270.368697284
 20
170.011
 11
269.374697284
 21
169.017
  0
LINE
  8
0
  6
CONTINUOUS
 62
     4
 10
269.475106447
 20
169.017
 11
270.469106447
 21
170.011
  0
LINE
  8
0
  6
CONTINUOUS
 62
     4
 10
270.552582221
 20
169.994066611
 11
269.57551561
 21
169.017
  0
LINE
  8
0
  6
CONTINUOUS
 62
     4
 10
269.675924773
 20
169.017
 11
270.524730268
 21
169.865805495
  0
LINE
  8
0
  6
CONTINUOUS
 62
     4
 10
270.493375437
 20
169.734041501
 11
269.776333936
 21
169.017
  0
LINE
  8
0
  6
CONTINUOUS
 62
     4
 10
269.876743099
 20
169.017
 11
270.458156387
 21
169.598413288
  0
LINE
  8
0
  6
CONTINUOUS
 62
     4
 10
270.418639209
 20
169.458486948
 11
269.977152261
 21
169.017
  0
LINE
  8
0
  6
CONTINUOUS
 62
     4
 10
270.077561424
 20
169.017
 11
270.374295092
 21
169.313733668
  0
LINE
  8
0
  6
CONTINUOUS
 62
     4
 10
270.324468247
 20
169.163497659
 11
270.177970587
 21
169.017
  0
LINE
  8
0
  6
CONTINUOUS
 62
     4
 10
269.047375838
 20
167.484768599
 11
266.532607239
 21
164.97
  0
LINE
  8
0
  6
CONTINUOUS
 62
     4
 10
269.23757413
 20
167.273330239
 11
266.934243891
 21
164.97
  0
LINE
  8
0
  6
CONTINUOUS
 62
     4
 10
267.034653054
 20
164.97
 11
269.279170615
 21
167.214517562
  0
LINE
  8
0
  6
CONTINUOUS
 62
     4
 10
269.318292809
 20
167.153230593
 11
267.135062217
 21
164.97
  0
LINE
  8
0
  6
CONTINUOUS
 62
     4
 10
267.23547138
 20
164.97
 11
269.353212164
 21
167.087740785
  0
LINE
  8
0
  6
CONTINUOUS
 62
     4
 10
269.376765029
 20
167.010884486
 11
267.335880542
 21
164.97
  0
LINE
  8
0
  6
CONTINUOUS
 62
     4
 10
267.436289705
 20
164.97
 11
269.396977183
 21
166.930687478
  0
LINE
  8
0
  6
CONTINUOUS
 62
     4
 10
269.413526088
 20
166.84682722
 11
267.536698868
 21
164.97
  0
LINE
  8
0
  6
CONTINUOUS
 62
     4
 10
267.637108031
 20
164.97
 11
269.425998138
 21
166.758890107
  0
LINE
  8
0
  6
CONTINUOUS
 62
     4
 10
269.433851656
 20
166.666334462
 11
267.730462658
 21
164.962945464
  0
LINE
  8
0
  6
CONTINUOUS
 62
     4
 10
267.828366359
 20
164.960440002
 11
269.436357118
 21
166.568430761
  0
LINE
  8
0
  6
CONTINUOUS
 62
     4
 10
269.432494731
 20
166.464159211
 11
267.932637909
 21
164.964302389
  0
LINE
  8
0
  6
CONTINUOUS
 62
     4
 10
268.044776953
 20
164.97603227
 11
269.42076485
 21
166.352020167
  0
LINE
  8
0
  6
CONTINUOUS
 62
     4
 10
269.398798285
 20
166.22964444
 11
268.167152681
 21
164.997998835
  0
LINE
  8
0
  6
CONTINUOUS
 62
     4
 10
268.303936477
 20
165.034373468
 11
269.362423652
 21
166.092860643
  0
LINE
  8
0
  6
CONTINUOUS
 62
     4
 10
269.302811429
 20
165.932839257
 11
268.463957863
 21
165.093985691
  0
LINE
  8
0
  6
CONTINUOUS
 62
     4
 10
268.675329905
 20
165.20494857
 11
269.19184855
 21
165.721467215
  0
LINE
  8
0
  6
CONTINUOUS
 62
     4
 10
266.945976461
 20
164.97
 11
265.405846489
 21
166.510129972
  0
LINE
  8
0
  6
CONTINUOUS
 62
     4
 10
265.507084576
 20
166.509301048
 11
267.046385624
 21
164.97
  0
LINE
  8
0
  6
CONTINUOUS
 62
     4
 10
267.146794787
 20
164.97
 11
265.607903474
 21
166.508891313
  0
LINE
  8
0
  6
CONTINUOUS
 62
     4
 10
263.970725633
 20
168.246478317
 11
264.408726277
 21
167.808477673
  0
LINE
  8
0
  6
CONTINUOUS
 62
     4
 10
265.708308368
 20
166.508895582
 11
267.24720395
 21
164.97
  0
LINE
  8
0
  6
CONTINUOUS
 62
     4
 10
267.347613113
 20
164.97
 11
265.808304318
 21
166.509308795
  0
LINE
  8
0
  6
CONTINUOUS
 62
     4
 10
264.605199003
 20
167.712414111
 11
263.900707424
 21
168.41690569
  0
LINE
  8
0
  6
CONTINUOUS
 62
     4
 10
263.8829792
 20
168.535043076
 11
264.788068353
 21
167.629953923
  0
LINE
  8
0
  6
CONTINUOUS
 62
     4
 10
265.907896259
 20
166.510126017
 11
267.448022276
 21
164.97
  0
LINE
  8
0
  6
CONTINUOUS
 62
     4
 10
267.548431439
 20
164.97
 11
266.007089009
 21
166.51134243
  0
LINE
  8
0
  6
CONTINUOUS
 62
     4
 10
264.960226896
 20
167.558204543
 11
263.881481301
 21
168.636950138
  0
LINE
  8
0
  6
CONTINUOUS
 62
     4
 10
263.890853685
 20
168.727986917
 11
265.123648386
 21
167.495192216
  0
LINE
  8
0
  6
CONTINUOUS
 62
     4
 10
266.105887272
 20
166.51295333
 11
267.649298012
 21
164.96954259
  0
LINE
  8
0
  6
CONTINUOUS
 62
     4
 10
267.757593802
 20
164.961655963
 11
266.204295641
 21
166.514954123
  0
LINE
  8
0
  6
CONTINUOUS
 62
     4
 10
265.279751637
 20
167.439498128
 11
263.908452415
 21
168.81079735
  0
LINE
  8
0
  6
CONTINUOUS
 62
     4
 10
263.937580688
 20
168.88207824
 11
265.429597609
 21
167.390061319
  0
LINE
  8
0
  6
CONTINUOUS
 62
     4
 10
266.302318603
 20
166.517340325
 11
267.858788616
 21
164.960870312
  0
LINE
  8
0
  6
CONTINUOUS
 62
     4
 10
267.95412937
 20
164.965938721
 11
266.399960539
 21
166.520107552
  0
LINE
  8
0
  6
CONTINUOUS
 62
     4
 10
265.574004624
 20
167.346063467
 11
263.97031783
 21
168.949750261
  0
LINE
  8
0
  6
CONTINUOUS
 62
     4
 10
264.005860226
 20
169.014617027
 11
265.713619822
 21
167.306857432
  0
LINE
  8
0
  6
CONTINUOUS
 62
     4
 10
266.497225731
 20
166.523251523
 11
268.044485735
 21
164.975991519
  0
LINE
  8
0
  6
CONTINUOUS
 62
     4
 10
268.130491439
 20
164.990394977
 11
266.594118365
 21
166.526768052
  0
LINE
  8
0
  6
CONTINUOUS
 62
     4
 10
265.848965602
 20
167.271920815
 11
264.044086638
 21
169.076799779
  0
LINE
  8
0
  6
CONTINUOUS
 62
     4
 10
264.084903167
 20
169.136392412
 11
265.982171106
 21
167.239124473
  0
LINE
  8
0
  6
CONTINUOUS
 62
     4
 10
266.690642531
 20
166.530653048
 11
268.212623584
 21
165.008671995
  0
LINE
  8
0
  6
CONTINUOUS
 62
     4
 10
268.291250287
 20
165.030454456
 11
266.771934013
 21
166.54977073
  0
LINE
  8
0
  6
CONTINUOUS
 62
     4
 10
266.124024083
 20
167.19768066
 11
264.128239269
 21
169.193465474
  0
LINE
  8
0
  6
CONTINUOUS
 62
     4
 10
264.174044948
 20
169.248068958
 11
266.27861226
 21
167.143501645
  0
LINE
  8
0
  6
CONTINUOUS
 62
     4
 10
266.828475635
 20
166.59363827
 11
268.366660859
 21
165.055453047
  0
LINE
  8
0
  6
CONTINUOUS
 62
     4
 10
268.439085736
 20
165.083437332
 11
266.866181779
 21
166.656341289
  0
LINE
  8
0
  6
CONTINUOUS
 62
     4
 10
266.451389392
 20
167.071133677
 11
264.222288881
 21
169.300234187
  0
LINE
  8
0
  6
CONTINUOUS
 62
     4
 10
264.272957278
 20
169.349974953
 11
266.653847322
 21
166.969084909
  0
LINE
  8
0
  6
CONTINUOUS
 62
     4
 10
266.877319635
 20
166.745612596
 11
268.508710092
 21
165.114222139
  0
LINE
  8
0
  6
CONTINUOUS
 62
     4
 10
268.575683392
 20
165.147658002
 11
264.326053391
 21
169.397288003
  0
LINE
  8
0
  6
CONTINUOUS
 62
     4
 10
264.381597632
 20
169.442152925
 11
268.640126233
 21
165.183624324
  0
LINE
  8
0
  6
CONTINUOUS
 62
     4
 10
268.702135323
 20
165.222024397
 11
264.4396283
 21
169.48453142
  0
LINE
  8
0
  6
CONTINUOUS
 62
     4
 10
264.50020299
 20
169.524365893
 11
268.761787128
 21
165.262781755
  0
LINE
  8
0
  6
CONTINUOUS
 62
     4
 10
268.819140548
 20
165.305837498
 11
264.563400799
 21
169.561577247
  0
LINE
  8
0
  6
CONTINUOUS
 62
     4
 10
264.629325543
 20
169.596061666
 11
268.874238853
 21
165.351148356
  0
LINE
  8
0
  6
CONTINUOUS
 62
     4
 10
268.927111036
 20
165.398685336
 11
265.686066899
 21
168.639729473
  0
LINE
  8
0
  6
CONTINUOUS
 62
     4
 10
265.654455373
 20
168.671340999
 11
264.698110307
 21
169.627686065
  0
LINE
  8
0
  6
CONTINUOUS
 62
     4
 10
264.769923836
 20
169.656281699
 11
265.628739265
 21
168.79746627
  0
LINE
  8
0
  6
CONTINUOUS
 62
     4
 10
265.875759724
 20
168.550445811
 11
268.977772693
 21
165.448432842
  0
LINE
  8
0
  6
CONTINUOUS
 62
     4
 10
269.026226481
 20
165.500388216
 11
266.042033913
 21
168.484580785
  0
LINE
  8
0
  6
CONTINUOUS
 62
     4
 10
265.655957427
 20
168.87065727
 11
264.844979568
 21
169.68163513
  0
LINE
  8
0
  6
CONTINUOUS
 62
     4
 10
264.923939498
 20
169.703084362
 11
265.705956694
 21
168.921067167
  0
LINE
  8
0
  6
CONTINUOUS
 62
     4
 10
266.186646672
 20
168.440377188
 11
269.072462199
 21
165.554561661
  0
LINE
  8
0
  6
CONTINUOUS
 62
     4
 10
269.116456483
 20
165.61097654
 11
266.321921162
 21
168.405511862
  0
LINE
  8
0
  6
CONTINUOUS
 62
     4
 10
265.778073029
 20
168.949359995
 11
265.00585427
 21
169.721578754
  0
LINE
  8
0
  6
CONTINUOUS
 62
     4
 10
265.08825596
 20
169.739586226
 11
265.860877058
 21
168.966965128
  0
LINE
  8
0
  6
CONTINUOUS
 62
     4
 10
266.459514877
 20
168.368327309
 11
269.158172112
 21
165.669670074
  0
LINE
  8
0
  6
CONTINUOUS
 62
     4
 10
269.19755686
 20
165.730694489
 11
266.595049767
 21
168.333201582
  0
LINE
  8
0
  6
CONTINUOUS
 62
     4
 10
265.945945519
 20
168.98230583
 11
265.171151094
 21
169.757100256
  0
LINE
  8
0
  6
CONTINUOUS
 62
     4
 10
265.254546415
 20
169.774114097
 11
266.0334318
 21
168.995228712
  0
LINE
  8
0
  6
CONTINUOUS
 62
     4
 10
266.728630906
 20
168.300029606
 11
269.234541815
 21
165.794118697
  0
LINE
  8
0
  6
CONTINUOUS
 62
     4
 10
269.269039035
 20
165.86003064
 11
266.860354164
 21
168.268715511
  0
LINE
  8
0
  6
CONTINUOUS
 62
     4
 10
266.12351568
 20
169.005553995
 11
265.338448897
 21
169.790620778
  0
LINE
  8
0
  6
CONTINUOUS
 62
     4
 10
265.422865755
 20
169.806613083
 11
266.216409794
 21
169.013069044
  0
LINE
  8
0
  6
CONTINUOUS
 62
     4
 10
266.990307304
 20
168.239171534
 11
269.300938336
 21
165.928540503
  0
LINE
  8
0
  6
CONTINUOUS
 62
     4
 10
269.330102918
 20
165.999785083
 11
267.118570911
 21
168.21131709
  0
LINE
  8
0
  6
CONTINUOUS
 62
     4
 10
266.312888001
 20
169.017
 11
265.507804451
 21
169.82208355
  0
LINE
  8
0
  6
CONTINUOUS
 62
     4
 10
265.593272714
 20
169.83702445
 11
266.413297164
 21
169.017
  0
LINE
  8
0
  6
CONTINUOUS
 62
     4
 10
267.245219193
 20
168.185077971
 11
269.356363381
 21
166.073933783
  0
LINE
  8
0
  6
CONTINUOUS
 62
     4
 10
269.379509418
 20
166.151196909
 11
267.370320667
 21
168.160385659
  0
LINE
  8
0
  6
CONTINUOUS
 62
     4
 10
266.513706327
 20
169.017
 11
265.679278544
 21
169.851427782
  0
LINE
  8
0
  6
CONTINUOUS
 62
     4
 10
265.765830231
 20
169.865285259
 11
266.61411549
 21
169.017
  0
LINE
  8
0
  6
CONTINUOUS
 62
     4
 10
267.493938757
 20
168.137176733
 11
269.399278095
 21
166.231837394
  0
LINE
  8
0
  6
CONTINUOUS
 62
     4
 10
269.415336899
 20
166.316187754
 11
267.616132306
 21
168.115392347
  0
LINE
  8
0
  6
CONTINUOUS
 62
     4
 10
266.714524653
 20
169.017
 11
265.852936365
 21
169.878588287
  0
LINE
  8
0
  6
CONTINUOUS
 62
     4
 10
265.940605854
 20
169.891327961
 11
266.814933816
 21
169.017
  0
LINE
  8
0
  6
CONTINUOUS
 62
     4
 10
267.719278325
 20
168.112655491
 11
269.427258431
 21
166.404675384
  0
LINE
  8
0
  6
CONTINUOUS
 62
     4
 10
269.43448121
 20
166.497861768
 11
267.85994439
 21
168.072398589
  0
LINE
  8
0
  6
CONTINUOUS
 62
     4
 10
266.915342979
 20
169.017
 11
266.028847937
 21
169.903495041
  0
LINE
  8
0
  6
CONTINUOUS
 62
     4
 10
266.117672203
 20
169.915079938
 11
267.015752142
 21
169.017
  0
LINE
  8
0
  6
CONTINUOUS
 62
     4
 10
268.009990233
 20
168.022761908
 11
269.436245907
 21
166.596506235
  0
LINE
  8
0
  6
CONTINUOUS
 62
     4
 10
269.431485159
 20
166.701676146
 11
268.172154463
 21
167.961006842
  0
LINE
  8
0
  6
CONTINUOUS
 62
     4
 10
267.116161304
 20
169.017
 11
266.207088608
 21
169.926072697
  0
LINE
  8
0
  6
CONTINUOUS
 62
     4
 10
266.297107493
 20
169.936462975
 11
267.216570467
 21
169.017
  0
LINE
  8
0
  6
CONTINUOUS
 62
     4
 10
268.350968904
 20
167.882601563
 11
269.418617266
 21
166.814953202
  0
LINE
  8
0
  6
CONTINUOUS
 62
     4
 10
269.395115271
 20
166.938864359
 11
268.538500273
 21
167.795479358
  0
LINE
  8
0
  6
CONTINUOUS
 62
     4
 10
267.31697963
 20
169.017
 11
266.387739607
 21
169.946240023
  0
LINE
  8
0
  6
CONTINUOUS
 62
     4
 10
266.478996128
 20
169.955392665
 11
267.417388793
 21
169.017
  0
LINE
  8
0
  6
CONTINUOUS
 62
     4
 10
268.718356929
 20
167.716031864
 11
269.356450184
 21
167.07793861
  0
LINE
  8
0
  6
CONTINUOUS
 62
     4
 10
267.517797956
 20
169.017
 11
266.570888687
 21
169.963909269
  0
LINE
  8
0
  6
CONTINUOUS
 62
     4
 10
266.66342939
 20
169.971777729
 11
267.618207119
 21
169.017
  0
LINE
  8
0
  6
CONTINUOUS
 62
     4
 10
267.718616282
 20
169.017
 11
266.756630851
 21
169.978985431
  0
LINE
  8
0
  6
CONTINUOUS
 62
     4
 10
266.850506216
 20
169.985519229
 11
267.819025445
 21
169.017
  0
LINE
  8
0
  6
CONTINUOUS
 62
     4
 10
267.919434608
 20
169.017
 11
266.945069196
 21
169.991365411
  0
LINE
  8
0
  6
CONTINUOUS
 62
     4
 10
267.040334105
 20
169.996509666
 11
268.019843771
 21
169.017
  0
LINE
  8
0
  6
CONTINUOUS
 62
     4
 10
268.120252934
 20
169.017
 11
267.13631589
 21
170.000937044
  0
LINE
  8
0
  6
CONTINUOUS
 62
     4
 10
267.233030173
 20
170.004631924
 11
268.220662097
 21
169.017
  0
LINE
  8
0
  6
CONTINUOUS
 62
     4
 10
268.32107126
 20
169.017
 11
267.330493297
 21
170.007577962
  0
LINE
  8
0
  6
CONTINUOUS
 62
     4
 10
267.428722369
 20
170.009758053
 11
268.421480423
 21
169.017
  0
LINE
  8
0
  6
CONTINUOUS
 62
     4
 10
268.521889585
 20
169.017
 11
267.527735311
 21
170.011154274
  0
LINE
  8
0
  6
CONTINUOUS
 62
     4
 10
267.627550915
 20
170.011747833
 11
268.622298748
 21
169.017
  0
LINE
  8
0
  6
CONTINUOUS
 62
     4
 10
268.722707911
 20
169.017
 11
267.728188903
 21
170.011519008
  0
LINE
  8
0
  6
CONTINUOUS
 62
     4
 10
267.829117074
 20
170.011
 11
268.823117074
 21
169.017
  0
LINE
  8
0
  6
CONTINUOUS
 62
     4
 10
268.923526237
 20
169.017
 11
267.929526237
 21
170.011
  0
LINE
  8
0
  6
CONTINUOUS
 62
     4
 10
268.0299354
 20
170.011
 11
269.0239354
 21
169.017
  0
LINE
  8
0
  6
CONTINUOUS
 62
     4
 10
269.124344563
 20
169.017
 11
268.130344563
 21
170.011
  0
LINE
  8
0
  6
CONTINUOUS
 62
     4
 10
268.230753726
 20
170.011
 11
269.224753726
 21
169.017
  0
LINE
  8
0
  6
CONTINUOUS
 62
     4
 10
269.325162889
 20
169.017
 11
268.331162889
 21
170.011
  0
LINE
  8
0
  6
CONTINUOUS
 62
     4
 10
268.431572052
 20
170.011
 11
269.425572052
 21
169.017
  0
LINE
  8
0
  6
CONTINUOUS
 62
     4
 10
269.525981215
 20
169.017
 11
268.531981215
 21
170.011
  0
LINE
  8
0
  6
CONTINUOUS
 62
     4
 10
268.632390378
 20
170.011
 11
269.626390378
 21
169.017
  0
LINE
  8
0
  6
CONTINUOUS
 62
     4
 10
269.726799541
 20
169.017
 11
268.732799541
 21
170.011
  0
LINE
  8
0
  6
CONTINUOUS
 62
     4
 10
268.833208704
 20
170.011
 11
269.827208704
 21
169.017
  0
LINE
  8
0
  6
CONTINUOUS
 62
     4
 10
269.927617866
 20
169.017
 11
268.933617866
 21
170.011
  0
LINE
  8
0
  6
CONTINUOUS
 62
     4
 10
269.034027029
 20
170.011
 11
270.028027029
 21
169.017
  0
LINE
  8
0
  6
CONTINUOUS
 62
     4
 10
270.128436192
 20
169.017
 11
269.134436192
 21
170.011
  0
LINE
  8
0
  6
CONTINUOUS
 62
     4
 10
269.234845355
 20
170.011
 11
270.228845355
 21
169.017
  0
LINE
  8
0
  6
CONTINUOUS
 62
     4
 10
270.287419193
 20
169.058835325
 11
269.335254518
 21
170.011
  0
LINE
  8
0
  6
CONTINUOUS
 62
     4
 10
269.435663681
 20
170.011
 11
270.313818395
 21
169.132845286
  0
LINE
  8
0
  6
CONTINUOUS
 62
     4
 10
270.339494564
 20
169.20757828
 11
269.536072844
 21
170.011
  0
LINE
  8
0
  6
CONTINUOUS
 62
     4
 10
269.636482007
 20
170.011
 11
270.364435165
 21
169.283046842
  0
LINE
  8
0
  6
CONTINUOUS
 62
     4
 10
270.38862698
 20
169.35926419
 11
269.73689117
 21
170.011
  0
LINE
  8
0
  6
CONTINUOUS
 62
     4
 10
269.837300333
 20
170.011
 11
270.412056068
 21
169.436244264
  0
LINE
  8
0
  6
CONTINUOUS
 62
     4
 10
270.434707716
 20
169.51400178
 11
269.937709496
 21
170.011
  0
LINE
  8
0
  6
CONTINUOUS
 62
     4
 10
270.038118659
 20
170.011
 11
270.456566383
 21
169.592552276
  0
LINE
  8
0
  6
CONTINUOUS
 62
     4
 10
270.477615648
 20
169.671912174
 11
270.138527822
 21
170.011
  0
LINE
  8
0
  6
CONTINUOUS
 62
     4
 10
270.238936985
 20
170.011
 11
270.497838144
 21
169.752098841
  0
LINE
  8
0
  6
CONTINUOUS
 62
     4
 10
270.517215488
 20
169.833130659
 11
270.339346147
 21
170.011
  0
LINE
  8
0
  6
CONTINUOUS
 62
     4
 10
270.43975531
 20
170.011
 11
270.535728209
 21
169.915027102
  0
LINE
  8
0
  6
CONTINUOUS
 62
     4
 10
270.553355657
 20
169.997808817
 11
270.540164473
 21
170.011
  0
LINE
  8
0
  6
CONTINUOUS
 62
     4
 10
266.181859048
 20
168.4348
 11
265.210669894
 21
167.463610847
  0
LINE
  8
0
  6
CONTINUOUS
 62
     4
 10
267.758059048
 20
170.011
 11
266.749859048
 21
169.0028
  0
LINE
  8
0
  6
CONTINUOUS
 62
     4
 10
271.405198387
 20
169.962168239
 11
271.439830148
 21
169.9968
  0
LINE
  8
0
  6
CONTINUOUS
 62
     4
 10
271.540239311
 20
169.9968
 11
271.364629028
 21
169.821189718
  0
LINE
  8
0
  6
CONTINUOUS
 62
     4
 10
271.32405967
 20
169.680211196
 11
271.640648474
 21
169.9968
  0
LINE
  8
0
  6
CONTINUOUS
 62
     4
 10
271.741057637
 20
169.9968
 11
271.283490311
 21
169.539232674
  0
LINE
  8
0
  6
CONTINUOUS
 62
     4
 10
271.242920952
 20
169.398254153
 11
271.8414668
 21
169.9968
  0
LINE
  8
0
  6
CONTINUOUS
 62
     4
 10
271.941875962
 20
169.9968
 11
271.202351593
 21
169.257275631
  0
LINE
  8
0
  6
CONTINUOUS
 62
     4
 10
271.161782235
 20
169.116297109
 11
272.042285125
 21
169.9968
  0
LINE
  8
0
  6
CONTINUOUS
 62
     4
 10
272.142694288
 20
169.9968
 11
271.155937764
 21
169.010043476
  0
LINE
  8
0
  6
CONTINUOUS
 62
     4
 10
271.256554559
 20
169.010251107
 11
272.243103451
 21
169.9968
  0
LINE
  8
0
  6
CONTINUOUS
 62
     4
 10
272.343512614
 20
169.9968
 11
271.35657351
 21
169.009860896
  0
LINE
  8
0
  6
CONTINUOUS
 62
     4
 10
271.45600511
 20
169.008883333
 11
272.443921777
 21
169.9968
  0
LINE
  8
0
  6
CONTINUOUS
 62
     4
 10
272.54433094
 20
169.9968
 11
271.554859486
 21
169.007328546
  0
LINE
  8
0
  6
CONTINUOUS
 62
     4
 10
271.65314642
 20
169.005206317
 11
272.644740103
 21
169.9968
  0
LINE
  8
0
  6
CONTINUOUS
 62
     4
 10
272.745149266
 20
169.9968
 11
271.750875364
 21
169.002526098
  0
LINE
  8
0
  6
CONTINUOUS
 62
     4
 10
271.848055454
 20
168.999297025
 11
272.845558429
 21
169.9968
  0
LINE
  8
0
  6
CONTINUOUS
 62
     4
 10
272.945967592
 20
169.9968
 11
271.944695526
 21
168.995527935
  0
LINE
  8
0
  6
CONTINUOUS
 62
     4
 10
272.040804131
 20
168.991227376
 11
273.046376755
 21
169.9968
  0
LINE
  8
0
  6
CONTINUOUS
 62
     4
 10
273.146785918
 20
169.9968
 11
272.136389542
 21
168.986403624
  0
LINE
  8
0
  6
CONTINUOUS
 62
     4
 10
272.231459772
 20
168.981064691
 11
273.247195081
 21
169.9968
  0
LINE
  8
0
  6
CONTINUOUS
 62
     4
 10
273.347604243
 20
169.9968
 11
272.326022582
 21
168.975218339
  0
LINE
  8
0
  6
CONTINUOUS
 62
     4
 10
272.420085495
 20
168.968872089
 11
273.448013406
 21
169.9968
  0
LINE
  8
0
  6
CONTINUOUS
 62
     4
 10
273.548422569
 20
169.9968
 11
272.513655801
 21
168.962033232
  0
LINE
  8
0
  6
CONTINUOUS
 62
     4
 10
272.60674057
 20
168.954708838
 11
273.648831732
 21
169.9968
  0
LINE
  8
0
  6
CONTINUOUS
 62
     4
 10
273.749997807
 20
169.997556912
 11
272.699346661
 21
168.946905766
  0
LINE
  8
0
  6
CONTINUOUS
 62
     4
 10
272.79148073
 20
168.938630672
 11
273.850370009
 21
169.997519951
  0
LINE
  8
0
  6
CONTINUOUS
 62
     4
 10
273.949244114
 20
169.995984893
 11
273.049484354
 21
169.096225133
  0
LINE
  8
0
  6
CONTINUOUS
 62
     4
 10
273.388197931
 20
169.334529547
 11
274.04668429
 21
169.993015906
  0
LINE
  8
0
  6
CONTINUOUS
 62
     4
 10
274.142749351
 20
169.988671804
 11
273.726911507
 21
169.57283396
  0
LINE
  8
0
  6
CONTINUOUS
 62
     4
 10
274.065625083
 20
169.811138373
 11
274.237493362
 21
169.983006653
  0
LINE
  8
0
  6
CONTINUOUS
 62
     4
 10
271.138919023
 20
169.036847448
 11
271.165676586
 21
169.010089885
  0
LINE
  8
0
  6
CONTINUOUS
 62
     4
 10
271.265935847
 20
169.010239787
 11
271.161356825
 21
169.114818809
  0
LINE
  8
0
  6
CONTINUOUS
 62
     4
 10
271.183794626
 20
169.192790171
 11
271.366797298
 21
169.009787499
  0
LINE
  8
0
  6
CONTINUOUS
 62
     4
 10
271.468271972
 20
169.008721988
 11
271.206232428
 21
169.270761532
  0
LINE
  8
0
  6
CONTINUOUS
 62
     4
 10
271.22867023
 20
169.348732893
 11
271.570371313
 21
169.00703181
  0
LINE
  8
0
  6
CONTINUOUS
 62
     4
 10
271.673107193
 20
169.004705093
 11
271.251108032
 21
169.426704254
  0
LINE
  8
0
  6
CONTINUOUS
 62
     4
 10
271.273545833
 20
169.504675615
 11
271.776491942
 21
169.001729507
  0
LINE
  8
0
  6
CONTINUOUS
 62
     4
 10
271.880538366
 20
168.998092245
 11
271.295983635
 21
169.582646976
  0
LINE
  8
0
  6
CONTINUOUS
 62
     4
 10
271.318421437
 20
169.660618338
 11
271.985259778
 21
168.993779997
  0
LINE
  8
0
  6
CONTINUOUS
 62
     4
 10
272.090670022
 20
168.988778915
 11
271.340859239
 21
169.738589699
  0
LINE
  8
0
  6
CONTINUOUS
 62
     4
 10
271.363297041
 20
169.81656106
 11
272.196783508
 21
168.983074592
  0
LINE
  8
0
  6
CONTINUOUS
 62
     4
 10
272.303615241
 20
168.976652023
 11
271.385734842
 21
169.894532421
  0
LINE
  8
0
  6
CONTINUOUS
 62
     4
 10
271.408172644
 20
169.972503782
 11
272.411180856
 21
168.96949557
  0
LINE
  8
0
  6
CONTINUOUS
 62
     4
 10
272.519496659
 20
168.96158893
 11
271.484285589
 21
169.9968
  0
LINE
  8
0
  6
CONTINUOUS
 62
     4
 10
271.584694752
 20
169.9968
 11
272.628579664
 21
168.952915088
  0
LINE
  8
0
  6
CONTINUOUS
 62
     4
 10
272.738447639
 20
168.943456276
 11
271.685103915
 21
169.9968
  0
LINE
  8
0
  6
CONTINUOUS
 62
     4
 10
271.785513078
 20
169.9968
 11
272.836168132
 21
168.946144946
  0
LINE
  8
0
  6
CONTINUOUS
 62
     4
 10
272.89510901
 20
168.987613231
 11
271.885922241
 21
169.9968
  0
LINE
  8
0
  6
CONTINUOUS
 62
     4
 10
271.986331404
 20
169.9968
 11
272.954049888
 21
169.029081516
  0
LINE
  8
0
  6
CONTINUOUS
 62
     4
 10
273.012990765
 20
169.070549802
 11
272.086740567
 21
169.9968
  0
LINE
  8
0
  6
CONTINUOUS
 62
     4
 10
272.18714973
 20
169.9968
 11
273.071931643
 21
169.112018087
  0
LINE
  8
0
  6
CONTINUOUS
 62
     4
 10
273.13087252
 20
169.153486373
 11
272.287558893
 21
169.9968
  0
LINE
  8
0
  6
CONTINUOUS
 62
     4
 10
272.387968056
 20
169.9968
 11
273.189813398
 21
169.194954658
  0
LINE
  8
0
  6
CONTINUOUS
 62
     4
 10
273.248754275
 20
169.236422943
 11
272.488377219
 21
169.9968
  0
LINE
  8
0
  6
CONTINUOUS
 62
     4
 10
272.588786381
 20
169.9968
 11
273.307695153
 21
169.277891229
  0
LINE
  8
0
  6
CONTINUOUS
 62
     4
 10
273.36663603
 20
169.319359514
 11
272.689195544
 21
169.9968
  0
LINE
  8
0
  6
CONTINUOUS
 62
     4
 10
272.789604707
 20
169.9968
 11
273.425576908
 21
169.360827799
  0
LINE
  8
0
  6
CONTINUOUS
 62
     4
 10
273.484517785
 20
169.402296085
 11
272.89001387
 21
169.9968
  0
LINE
  8
0
  6
CONTINUOUS
 62
     4
 10
272.990423033
 20
169.9968
 11
273.543458663
 21
169.44376437
  0
LINE
  8
0
  6
CONTINUOUS
 62
     4
 10
273.60239954
 20
169.485232656
 11
273.090832196
 21
169.9968
  0
LINE
  8
0
  6
CONTINUOUS
 62
     4
 10
273.191241359
 20
169.9968
 11
273.661340418
 21
169.526700941
  0
LINE
  8
0
  6
CONTINUOUS
 62
     4
 10
273.720281296
 20
169.568169226
 11
273.291650522
 21
169.9968
  0
LINE
  8
0
  6
CONTINUOUS
 62
     4
 10
273.392059685
 20
169.9968
 11
273.779222173
 21
169.609637512
  0
LINE
  8
0
  6
CONTINUOUS
 62
     4
 10
273.838163051
 20
169.651105797
 11
273.492468848
 21
169.9968
  0
LINE
  8
0
  6
CONTINUOUS
 62
     4
 10
273.592878011
 20
169.9968
 11
273.897103928
 21
169.692574083
  0
LINE
  8
0
  6
CONTINUOUS
 62
     4
 10
273.956044806
 20
169.734042368
 11
273.693188567
 21
169.996898607
  0
LINE
  8
0
  6
CONTINUOUS
 62
     4
 10
273.792767784
 20
169.997728552
 11
274.014985683
 21
169.775510653
  0
LINE
  8
0
  6
CONTINUOUS
 62
     4
 10
274.073926561
 20
169.816978939
 11
273.893877736
 21
169.997027764
  0
LINE
  8
0
  6
CONTINUOUS
 62
     4
 10
273.996591795
 20
169.994722867
 11
274.132867438
 21
169.858447224
  0
LINE
  8
0
  6
CONTINUOUS
 62
     4
 10
274.191808316
 20
169.899915509
 11
274.100990649
 21
169.990733177
  0
LINE
  8
0
  6
CONTINUOUS
 62
     4
 10
274.207163353
 20
169.984969635
 11
274.250749193
 21
169.941383795
  0
LINE
  8
0
  6
CONTINUOUS
 62
     4
 10
273.304611223
 20
168.800941779
 11
273.339564041
 21
168.835894596
  0
LINE
  8
0
  6
CONTINUOUS
 62
     4
 10
273.518417862
 20
168.914339255
 11
273.360070154
 21
168.755991547
  0
LINE
  8
0
  6
CONTINUOUS
 62
     4
 10
273.410314021
 20
168.70582625
 11
273.697271684
 21
168.992783913
  0
LINE
  8
0
  6
CONTINUOUS
 62
     4
 10
273.876125505
 20
169.071228572
 11
273.455344101
 21
168.650447168
  0
LINE
  8
0
  6
CONTINUOUS
 62
     4
 10
273.543136132
 20
168.637830036
 11
274.054979327
 21
169.14967323
  0
LINE
  8
0
  6
CONTINUOUS
 62
     4
 10
274.233833148
 20
169.228117889
 11
273.688135945
 21
168.682420686
  0
LINE
  8
0
  6
CONTINUOUS
 62
     4
 10
273.833135759
 20
168.727011337
 11
274.412686969
 21
169.306562547
  0
LINE
  8
0
  6
CONTINUOUS
 62
     4
 10
274.591540791
 20
169.385007206
 11
273.978135573
 21
168.771601987
  0
LINE
  8
0
  6
CONTINUOUS
 62
     4
 10
274.123135386
 20
168.816192638
 11
274.770394612
 21
169.463451864
  0
LINE
  8
0
  6
CONTINUOUS
 62
     4
 10
274.949248434
 20
169.541896523
 11
274.2681352
 21
168.860783289
  0
LINE
  8
0
  6
CONTINUOUS
 62
     4
 10
274.413135013
 20
168.905373939
 11
275.128102255
 21
169.620341182
  0
LINE
  8
0
  6
CONTINUOUS
 62
     4
 10
275.306956077
 20
169.69878584
 11
274.558134827
 21
168.94996459
  0
LINE
  8
0
  6
CONTINUOUS
 62
     4
 10
274.70313464
 20
168.994555241
 11
275.485809898
 21
169.777230499
  0
LINE
  8
0
  6
CONTINUOUS
 62
     4
 10
275.564778851
 20
169.755790289
 11
274.848134454
 21
169.039145891
  0
LINE
  8
0
  6
CONTINUOUS
 62
     4
 10
274.993134267
 20
169.083736542
 11
275.642873144
 21
169.733475419
  0
LINE
  8
0
  6
CONTINUOUS
 62
     4
 10
275.720163898
 20
169.71035701
 11
275.138134081
 21
169.128327193
  0
LINE
  8
0
  6
CONTINUOUS
 62
     4
 10
275.283133895
 20
169.172917843
 11
275.79666692
 21
169.686450869
  0
LINE
  8
0
  6
CONTINUOUS
 62
     4
 10
275.872397163
 20
169.661771949
 11
275.428133708
 21
169.217508494
  0
LINE
  8
0
  6
CONTINUOUS
 62
     4
 10
275.573133522
 20
169.262099144
 11
275.947368782
 21
169.636334404
  0
LINE
  8
0
  6
CONTINUOUS
 62
     4
 10
276.02159518
 20
169.61015164
 11
275.718133335
 21
169.306689795
  0
LINE
  8
0
  6
CONTINUOUS
 62
     4
 10
275.863133149
 20
169.351280446
 11
276.09508906
 21
169.583236357
  0
LINE
  8
0
  6
CONTINUOUS
 62
     4
 10
276.167862461
 20
169.555600595
 11
276.008132962
 21
169.395871096
  0
LINE
  8
0
  6
CONTINUOUS
 62
     4
 10
276.153132776
 20
169.440461747
 11
276.239926801
 21
169.527255772
  0
LINE
  8
0
  6
CONTINUOUS
 62
     4
 10
276.311292909
 20
169.498212717
 11
276.298132589
 21
169.485052398
  0
LINE
  8
0
  6
CONTINUOUS
 62
     4
 10
273.554496971
 20
168.641323745
 11
273.353718169
 21
168.842102547
  0
LINE
  8
0
  6
CONTINUOUS
 62
     4
 10
273.423514782
 20
168.872715097
 11
273.631290442
 21
168.664939436
  0
LINE
  8
0
  6
CONTINUOUS
 62
     4
 10
273.708083914
 20
168.688555128
 11
273.493311395
 21
168.903327646
  0
LINE
  8
0
  6
CONTINUOUS
 62
     4
 10
273.563108008
 20
168.933940196
 11
273.784877385
 21
168.712170819
  0
LINE
  8
0
  6
CONTINUOUS
 62
     4
 10
273.861670857
 20
168.735786511
 11
273.632904622
 21
168.964552746
  0
LINE
  8
0
  6
CONTINUOUS
 62
     4
 10
273.702701235
 20
168.995165295
 11
273.938464328
 21
168.759402202
  0
LINE
  8
0
  6
CONTINUOUS
 62
     4
 10
274.0152578
 20
168.783017894
 11
273.772497848
 21
169.025777845
  0
LINE
  8
0
  6
CONTINUOUS
 62
     4
 10
273.842294461
 20
169.056390395
 11
274.092051271
 21
168.806633585
  0
LINE
  8
0
  6
CONTINUOUS
 62
     4
 10
274.168844743
 20
168.830249276
 11
273.912091075
 21
169.087002944
  0
LINE
  8
0
  6
CONTINUOUS
 62
     4
 10
273.981887688
 20
169.117615494
 11
274.245638214
 21
168.853864968
  0
LINE
  8
0
  6
CONTINUOUS
 62
     4
 10
274.322431685
 20
168.877480659
 11
274.051684301
 21
169.148228044
  0
LINE
  8
0
  6
CONTINUOUS
 62
     4
 10
274.121480914
 20
169.178840593
 11
274.399225157
 21
168.901096351
  0
LINE
  8
0
  6
CONTINUOUS
 62
     4
 10
274.476018628
 20
168.924712042
 11
274.191277528
 21
169.209453143
  0
LINE
  8
0
  6
CONTINUOUS
 62
     4
 10
274.261074141
 20
169.240065693
 11
274.5528121
 21
168.948327734
  0
LINE
  8
0
  6
CONTINUOUS
 62
     4
 10
274.629605571
 20
168.971943425
 11
274.330870754
 21
169.270678242
  0
LINE
  8
0
  6
CONTINUOUS
 62
     4
 10
274.400667367
 20
169.301290792
 11
274.706399043
 21
168.995559117
  0
LINE
  8
0
  6
CONTINUOUS
 62
     4
 10
274.783192514
 20
169.019174808
 11
274.470463981
 21
169.331903342
  0
LINE
  8
0
  6
CONTINUOUS
 62
     4
 10
274.540260594
 20
169.362515891
 11
274.859985986
 21
169.0427905
  0
LINE
  8
0
  6
CONTINUOUS
 62
     4
 10
274.936779457
 20
169.066406191
 11
274.610057207
 21
169.393128441
  0
LINE
  8
0
  6
CONTINUOUS
 62
     4
 10
274.67985382
 20
169.423740991
 11
275.013572929
 21
169.090021882
  0
LINE
  8
0
  6
CONTINUOUS
 62
     4
 10
275.0903664
 20
169.113637574
 11
274.749650434
 21
169.45435354
  0
LINE
  8
0
  6
CONTINUOUS
 62
     4
 10
274.819447047
 20
169.48496609
 11
275.167159872
 21
169.137253265
  0
LINE
  8
0
  6
CONTINUOUS
 62
     4
 10
275.243953343
 20
169.160868957
 11
274.88924366
 21
169.51557864
  0
LINE
  8
0
  6
CONTINUOUS
 62
     4
 10
274.959040273
 20
169.546191189
 11
275.320746815
 21
169.184484648
  0
LINE
  8
0
  6
CONTINUOUS
 62
     4
 10
275.397540286
 20
169.20810034
 11
275.028836887
 21
169.576803739
  0
LINE
  8
0
  6
CONTINUOUS
 62
     4
 10
275.0986335
 20
169.607416289
 11
275.474333758
 21
169.231716031
  0
LINE
  8
0
  6
CONTINUOUS
 62
     4
 10
275.551127229
 20
169.255331723
 11
275.168430113
 21
169.638028838
  0
LINE
  8
0
  6
CONTINUOUS
 62
     4
 10
275.238226726
 20
169.668641388
 11
275.627920701
 21
169.278947414
  0
LINE
  8
0
  6
CONTINUOUS
 62
     4
 10
275.704714172
 20
169.302563105
 11
275.30802334
 21
169.699253938
  0
LINE
  8
0
  6
CONTINUOUS
 62
     4
 10
275.377819953
 20
169.729866488
 11
275.781507644
 21
169.326178797
  0
LINE
  8
0
  6
CONTINUOUS
 62
     4
 10
275.858301115
 20
169.349794488
 11
275.447616566
 21
169.760479037
  0
LINE
  8
0
  6
CONTINUOUS
 62
     4
 10
275.54807725
 20
169.760427517
 11
275.935094587
 21
169.37341018
  0
LINE
  8
0
  6
CONTINUOUS
 62
     4
 10
276.011888058
 20
169.397025871
 11
275.689158835
 21
169.719755095
  0
LINE
  8
0
  6
CONTINUOUS
 62
     4
 10
275.835352097
 20
169.673970995
 11
276.088681529
 21
169.420641563
  0
LINE
  8
0
  6
CONTINUOUS
 62
     4
 10
276.165475001
 20
169.444257254
 11
275.987391305
 21
169.62234095
  0
LINE
  8
0
  6
CONTINUOUS
 62
     4
 10
276.146218327
 20
169.563923091
 11
276.242268472
 21
169.467872946
  0
LINE
  8
0
  6
CONTINUOUS
 62
     4
 10
276.319061944
 20
169.491488637
 11
276.313076043
 21
169.497474538
  0
LINE
  8
0
  6
CONTINUOUS
 62
     4
 10
270.320339492
 20
166.837760529
 11
270.45572879
 21
166.973149827
  0
LINE
  8
0
  6
CONTINUOUS
 62
     4
 10
270.558113389
 20
166.975125263
 11
270.258724779
 21
166.675736652
  0
LINE
  8
0
  6
CONTINUOUS
 62
     4
 10
270.197110065
 20
166.513712776
 11
270.661429853
 21
166.978032564
  0
LINE
  8
0
  6
CONTINUOUS
 62
     4
 10
270.765704829
 20
166.981898377
 11
270.135495351
 21
166.351688899
  0
LINE
  8
0
  6
CONTINUOUS
 62
     4
 10
270.073880638
 20
166.189665023
 11
270.870966499
 21
166.986750884
  0
LINE
  8
0
  6
CONTINUOUS
 62
     4
 10
270.977244707
 20
166.992619929
 11
270.012265924
 21
166.027641146
  0
LINE
  8
0
  6
CONTINUOUS
 62
     4
 10
269.95065121
 20
165.86561727
 11
271.084571097
 21
166.999537156
  0
LINE
  8
0
  6
CONTINUOUS
 62
     4
 10
271.19297927
 20
167.007536166
 11
269.889036497
 21
165.703593393
  0
LINE
  8
0
  6
CONTINUOUS
 62
     4
 10
269.827421783
 20
165.541569516
 11
271.302504959
 21
167.016652692
  0
LINE
  8
0
  6
CONTINUOUS
 62
     4
 10
271.41318622
 20
167.02692479
 11
269.76580707
 21
165.37954564
  0
LINE
  8
0
  6
CONTINUOUS
 62
     4
 10
269.704192356
 20
165.217521763
 11
271.525063651
 21
167.038393058
  0
LINE
  8
0
  6
CONTINUOUS
 62
     4
 10
271.638180635
 20
167.05110088
 11
269.642577642
 21
165.055497887
  0
LINE
  8
0
  6
CONTINUOUS
 62
     4
 10
269.643261279
 20
164.955772361
 11
271.75258362
 21
167.065094701
  0
LINE
  8
0
  6
CONTINUOUS
 62
     4
 10
271.868322423
 20
167.080424342
 11
269.743748
 21
164.955849919
  0
LINE
  8
0
  6
CONTINUOUS
 62
     4
 10
269.844451637
 20
164.956144393
 11
271.985450591
 21
167.097143347
  0
LINE
  8
0
  6
CONTINUOUS
 62
     4
 10
272.104025803
 20
167.115309396
 11
269.945373605
 21
164.956657198
  0
LINE
  8
0
  6
CONTINUOUS
 62
     4
 10
270.046515339
 20
164.957389769
 11
272.224110328
 21
167.134984758
  0
LINE
  8
0
  6
CONTINUOUS
 62
     4
 10
270.249463929
 20
164.959520033
 11
272.46294318
 21
167.172999284
  0
LINE
  8
0
  6
CONTINUOUS
 62
     4
 10
273.585867396
 20
168.2959235
 11
273.704930993
 21
168.414987097
  0
LINE
  8
0
  6
CONTINUOUS
 62
     4
 10
273.836352606
 20
168.445999547
 11
273.572779538
 21
168.182426479
  0
LINE
  8
0
  6
CONTINUOUS
 62
     4
 10
272.588223867
 20
167.197870808
 11
270.351273749
 21
164.96092069
  0
LINE
  8
0
  6
CONTINUOUS
 62
     4
 10
270.45330926
 20
164.962547038
 11
272.733537001
 21
167.242774779
  0
LINE
  8
0
  6
CONTINUOUS
 62
     4
 10
273.527875567
 20
168.037113345
 11
273.967774219
 21
168.477011997
  0
LINE
  8
0
  6
CONTINUOUS
 62
     4
 10
274.099195833
 20
168.508024448
 11
273.441886748
 21
167.850715364
  0
LINE
  8
0
  6
CONTINUOUS
 62
     4
 10
272.919934982
 20
167.328763597
 11
270.555571993
 21
164.964400608
  0
LINE
  8
0
  6
CONTINUOUS
 62
     4
 10
270.658063502
 20
164.966482954
 11
274.230617446
 21
168.539036898
  0
LINE
  8
0
  6
CONTINUOUS
 62
     4
 10
274.362039059
 20
168.570049348
 11
270.760785358
 21
164.968795647
  0
LINE
  8
0
  6
CONTINUOUS
 62
     4
 10
270.863739157
 20
164.971340283
 11
274.493460672
 21
168.601061799
  0
LINE
  8
0
  6
CONTINUOUS
 62
     4
 10
274.624882286
 20
168.632074249
 11
270.966926515
 21
164.974118478
  0
LINE
  8
0
  6
CONTINUOUS
 62
     4
 10
271.070349071
 20
164.977131872
 11
274.756303899
 21
168.663086699
  0
LINE
  8
0
  6
CONTINUOUS
 62
     4
 10
274.887725512
 20
168.69409915
 11
271.174008487
 21
164.980382125
  0
LINE
  8
0
  6
CONTINUOUS
 62
     4
 10
271.277906448
 20
164.983870923
 11
275.019147125
 21
168.7251116
  0
LINE
  8
0
  6
CONTINUOUS
 62
     4
 10
275.150568739
 20
168.75612405
 11
271.382044662
 21
164.987599973
  0
LINE
  8
0
  6
CONTINUOUS
 62
     4
 10
271.486424861
 20
164.99157101
 11
275.281990352
 21
168.787136501
  0
LINE
  8
0
  6
CONTINUOUS
 62
     4
 10
275.413411965
 20
168.818148951
 11
271.591048803
 21
164.995785789
  0
LINE
  8
0
  6
CONTINUOUS
 62
     4
 10
271.695918271
 20
165.000246094
 11
275.544833578
 21
168.849161401
  0
LINE
  8
0
  6
CONTINUOUS
 62
     4
 10
275.676255192
 20
168.880173852
 11
271.801035071
 21
165.004953731
  0
LINE
  8
0
  6
CONTINUOUS
 62
     4
 10
271.906401038
 20
165.009910535
 11
275.807676805
 21
168.911186302
  0
LINE
  8
0
  6
CONTINUOUS
 62
     4
 10
275.939098418
 20
168.942198752
 11
272.012018032
 21
165.015118366
  0
LINE
  8
0
  6
CONTINUOUS
 62
     4
 10
272.117887942
 20
165.020579113
 11
276.070520031
 21
168.973211203
  0
LINE
  8
0
  6
CONTINUOUS
 62
     4
 10
276.201941645
 20
169.004223653
 11
272.224012682
 21
165.02629469
  0
LINE
  8
0
  6
CONTINUOUS
 62
     4
 10
272.330394196
 20
165.032267041
 11
276.333363258
 21
169.035236103
  0
LINE
  8
0
  6
CONTINUOUS
 62
     4
 10
276.464784871
 20
169.066248554
 11
272.437034457
 21
165.038498139
  0
LINE
  8
0
  6
CONTINUOUS
 62
     4
 10
272.543935467
 20
165.044989987
 11
276.596206484
 21
169.097261004
  0
LINE
  8
0
  6
CONTINUOUS
 62
     4
 10
276.727628098
 20
169.128273454
 11
272.651150942
 21
165.051796298
  0
LINE
  8
0
  6
CONTINUOUS
 62
     4
 10
272.75956513
 20
165.059801324
 11
276.859049711
 21
169.159285904
  0
LINE
  8
0
  6
CONTINUOUS
 62
     4
 10
276.976309403
 20
169.176136434
 11
272.869455501
 21
165.069282532
  0
LINE
  8
0
  6
CONTINUOUS
 62
     4
 10
272.980889127
 20
165.080306995
 11
277.037256567
 21
169.136674435
  0
LINE
  8
0
  6
CONTINUOUS
 62
     4
 10
277.095814005
 20
169.09482271
 11
273.093939107
 21
165.092947812
  0
LINE
  8
0
  6
CONTINUOUS
 62
     4
 10
273.208685352
 20
165.107284894
 11
277.152035772
 21
169.050635314
  0
LINE
  8
0
  6
CONTINUOUS
 62
     4
 10
277.2059598
 20
169.004150179
 11
273.325215512
 21
165.123405891
  0
LINE
  8
0
  6
CONTINUOUS
 62
     4
 10
273.44362607
 20
165.141407286
 11
277.257609125
 21
168.955390341
  0
LINE
  8
0
  6
CONTINUOUS
 62
     4
 10
277.306992611
 20
168.904364664
 11
273.564023645
 21
165.161395698
  0
LINE
  8
0
  6
CONTINUOUS
 62
     4
 10
273.686526554
 20
165.183489445
 11
277.354105226
 21
168.851068116
  0
LINE
  8
0
  6
CONTINUOUS
 62
     4
 10
277.398927886
 20
168.795481613
 11
273.811266699
 21
165.207820427
  0
LINE
  8
0
  6
CONTINUOUS
 62
     4
 10
273.938391866
 20
165.23453643
 11
277.441426855
 21
168.737571419
  0
LINE
  8
0
  6
CONTINUOUS
 62
     4
 10
277.48155267
 20
168.677288071
 11
274.068068552
 21
165.263803953
  0
LINE
  8
0
  6
CONTINUOUS
 62
     4
 10
274.20048548
 20
165.295811719
 11
277.519238483
 21
168.614564721
  0
LINE
  8
0
  6
CONTINUOUS
 62
     4
 10
277.554397714
 20
168.549314789
 11
274.335858011
 21
165.330775086
  0
LINE
  8
0
  6
CONTINUOUS
 62
     4
 10
274.474433751
 20
165.368941664
 11
277.586920785
 21
168.481428698
  0
LINE
  8
0
  6
CONTINUOUS
 62
     4
 10
277.616670644
 20
168.410769394
 11
274.616499789
 21
165.410598539
  0
LINE
  8
0
  6
CONTINUOUS
 62
     4
 10
274.762392167
 20
165.456081754
 11
277.643476588
 21
168.337166175
  0
LINE
  8
0
  6
CONTINUOUS
 62
     4
 10
277.667125655
 20
168.260406079
 11
274.9125085
 21
165.505788924
  0
LINE
  8
0
  6
CONTINUOUS
 62
     4
 10
275.067325129
 20
165.56019639
 11
277.687350416
 21
168.180221677
  0
LINE
  8
0
  6
CONTINUOUS
 62
     4
 10
277.703811204
 20
168.096273302
 11
275.227420973
 21
165.619883071
  0
LINE
  8
0
  6
CONTINUOUS
 62
     4
 10
275.393511593
 20
165.685564528
 11
277.716069454
 21
168.008122389
  0
LINE
  8
0
  6
CONTINUOUS
 62
     4
 10
277.723546085
 20
167.915189858
 11
275.566499383
 21
165.758143156
  0
LINE
  8
0
  6
CONTINUOUS
 62
     4
 10
275.747550365
 20
165.838784974
 11
277.725453241
 21
167.81668785
  0
LINE
  8
0
  6
CONTINUOUS
 62
     4
 10
277.720675
 20
167.711500447
 11
275.938217152
 21
165.929042598
  0
LINE
  8
0
  6
CONTINUOUS
 62
     4
 10
276.140647458
 20
166.031063742
 11
277.707540754
 21
167.597957037
  0
LINE
  8
0
  6
CONTINUOUS
 62
     4
 10
277.68334191
 20
167.473349031
 11
276.357964582
 21
166.147971702
  0
LINE
  8
0
  6
CONTINUOUS
 62
     4
 10
276.595033709
 20
166.284631667
 11
277.643108128
 21
167.332706085
  0
LINE
  8
0
  6
CONTINUOUS
 62
     4
 10
277.575457889
 20
167.164646684
 11
276.860238378
 21
166.449427172
  0
LINE
  8
0
  6
CONTINUOUS
 62
     4
 10
277.17061944
 20
166.659399071
 11
277.433783045
 21
166.922562676
  0
LINE
  8
0
  6
CONTINUOUS
 62
     4
 10
269.618314104
 20
164.991693767
 11
269.654237549
 21
164.955770322
  0
LINE
  8
0
  6
CONTINUOUS
 62
     4
 10
269.754545926
 20
164.955871108
 11
269.645977853
 21
165.064439181
  0
LINE
  8
0
  6
CONTINUOUS
 62
     4
 10
269.673641602
 20
165.137184595
 11
269.854639925
 21
164.956186272
  0
LINE
  8
0
  6
CONTINUOUS
 62
     4
 10
269.95452091
 20
164.956714449
 11
269.701305351
 21
165.209930009
  0
LINE
  8
0
  6
CONTINUOUS
 62
     4
 10
269.7289691
 20
165.282675423
 11
270.054190229
 21
164.957454293
  0
LINE
  8
0
  6
CONTINUOUS
 62
     4
 10
270.153649211
 20
164.958404474
 11
269.756632849
 21
165.355420837
  0
LINE
  8
0
  6
CONTINUOUS
 62
     4
 10
269.784296598
 20
165.42816625
 11
270.252899171
 21
164.959563677
  0
LINE
  8
0
  6
CONTINUOUS
 62
     4
 10
270.351941404
 20
164.960930607
 11
269.811960347
 21
165.500911664
  0
LINE
  8
0
  6
CONTINUOUS
 62
     4
 10
269.839624096
 20
165.573657078
 11
270.450777191
 21
164.962503983
  0
LINE
  8
0
  6
CONTINUOUS
 62
     4
 10
270.549407798
 20
164.964282538
 11
269.867287844
 21
165.646402492
  0
LINE
  8
0
  6
CONTINUOUS
 62
     4
 10
269.894951593
 20
165.719147906
 11
270.647834474
 21
164.966265025
  0
LINE
  8
0
  6
CONTINUOUS
 62
     4
 10
270.746058453
 20
164.96845021
 11
269.922615342
 21
165.79189332
  0
LINE
  8
0
  6
CONTINUOUS
 62
     4
 10
269.950279091
 20
165.864638734
 11
270.844080954
 21
164.970836872
  0
LINE
  8
0
  6
CONTINUOUS
 62
     4
 10
270.941903181
 20
164.973423808
 11
269.97794284
 21
165.937384148
  0
LINE
  8
0
  6
CONTINUOUS
 62
     4
 10
270.005606589
 20
166.010129562
 11
271.039526323
 21
164.976209828
  0
LINE
  8
0
  6
CONTINUOUS
 62
     4
 10
271.136951557
 20
164.979193758
 11
270.033270338
 21
166.082874976
  0
LINE
  8
0
  6
CONTINUOUS
 62
     4
 10
270.060934087
 20
166.15562039
 11
271.234180042
 21
164.982374435
  0
LINE
  8
0
  6
CONTINUOUS
 62
     4
 10
271.331212927
 20
164.985750713
 11
270.088597836
 21
166.228365804
  0
LINE
  8
0
  6
CONTINUOUS
 62
     4
 10
270.116261585
 20
166.301111218
 11
271.428051346
 21
164.989321458
  0
LINE
  8
0
  6
CONTINUOUS
 62
     4
 10
271.524696418
 20
164.993085549
 11
270.143925334
 21
166.373856632
  0
LINE
  8
0
  6
CONTINUOUS
 62
     4
 10
270.171589083
 20
166.446602046
 11
271.62114925
 21
164.997041879
  0
LINE
  8
0
  6
CONTINUOUS
 62
     4
 10
271.717410938
 20
165.001189354
 11
270.199252832
 21
166.51934746
  0
LINE
  8
0
  6
CONTINUOUS
 62
     4
 10
270.226916581
 20
166.592092874
 11
271.813482562
 21
165.005526893
  0
LINE
  8
0
  6
CONTINUOUS
 62
     4
 10
271.909365191
 20
165.010053426
 11
270.25458033
 21
166.664838288
  0
LINE
  8
0
  6
CONTINUOUS
 62
     4
 10
270.282244079
 20
166.737583702
 11
272.005059882
 21
165.014767898
  0
LINE
  8
0
  6
CONTINUOUS
 62
     4
 10
272.10056768
 20
165.019669264
 11
270.309907828
 21
166.810329116
  0
LINE
  8
0
  6
CONTINUOUS
 62
     4
 10
270.337571577
 20
166.88307453
 11
272.195889615
 21
165.024756491
  0
LINE
  8
0
  6
CONTINUOUS
 62
     4
 10
272.29102671
 20
165.030028559
 11
270.365235326
 21
166.955819944
  0
LINE
  8
0
  6
CONTINUOUS
 62
     4
 10
270.448421145
 20
166.973043288
 11
272.385979974
 21
165.035484459
  0
LINE
  8
0
  6
CONTINUOUS
 62
     4
 10
272.480750402
 20
165.041123193
 11
270.547006224
 21
166.974867372
  0
LINE
  8
0
  6
CONTINUOUS
 62
     4
 10
270.64478077
 20
166.977501988
 11
272.575338984
 21
165.046943775
  0
LINE
  8
0
  6
CONTINUOUS
 62
     4
 10
272.669626004
 20
165.053065918
 11
270.741763922
 21
166.980927999
  0
LINE
  8
0
  6
CONTINUOUS
 62
     4
 10
270.837973918
 20
166.985127166
 11
272.763022459
 21
165.060078625
  0
LINE
  8
0
  6
CONTINUOUS
 62
     4
 10
272.85550754
 20
165.068002707
 11
270.93342815
 21
166.990082097
  0
LINE
  8
0
  6
CONTINUOUS
 62
     4
 10
271.028143219
 20
166.995776191
 11
272.947105065
 21
165.076814345
  0
LINE
  8
0
  6
CONTINUOUS
 62
     4
 10
273.037837554
 20
165.086491019
 11
271.122134987
 21
167.002193586
  0
LINE
  8
0
  6
CONTINUOUS
 62
     4
 10
271.215418614
 20
167.009319122
 11
273.127726324
 21
165.097011412
  0
LINE
  8
0
  6
CONTINUOUS
 62
     4
 10
273.216791577
 20
165.108355322
 11
271.308008607
 21
167.017138292
  0
LINE
  8
0
  6
CONTINUOUS
 62
     4
 10
271.399918855
 20
167.025637207
 11
273.305052472
 21
165.12050359
  0
LINE
  8
0
  6
CONTINUOUS
 62
     4
 10
273.392527202
 20
165.133438022
 11
271.491162664
 21
167.034802561
  0
LINE
  8
0
  6
CONTINUOUS
 62
     4
 10
271.58175279
 20
167.044621598
 11
273.479233056
 21
165.147141331
  0
LINE
  8
0
  6
CONTINUOUS
 62
     4
 10
273.565186478
 20
165.161597073
 11
271.67170147
 21
167.05508208
  0
LINE
  8
0
  6
CONTINUOUS
 62
     4
 10
271.761020452
 20
167.066172261
 11
273.65040312
 21
165.176789593
  0
LINE
  8
0
  6
CONTINUOUS
 62
     4
 10
273.734897897
 20
165.19270398
 11
271.849721018
 21
167.077880859
  0
LINE
  8
0
  6
CONTINUOUS
 62
     4
 10
271.937814008
 20
167.090197031
 11
273.818685024
 21
165.209326015
  0
LINE
  8
0
  6
CONTINUOUS
 62
     4
 10
273.901778067
 20
165.226642135
 11
272.02530985
 21
167.103110352
  0
LINE
  8
0
  6
CONTINUOUS
 62
     4
 10
272.11221857
 20
167.116610795
 11
273.984189976
 21
165.244639389
  0
LINE
  8
0
  6
CONTINUOUS
 62
     4
 10
274.065933123
 20
165.263305405
 11
272.198549823
 21
167.130688705
  0
LINE
  8
0
  6
CONTINUOUS
 62
     4
 10
272.284312904
 20
167.145334787
 11
274.147019333
 21
165.282628358
  0
LINE
  8
0
  6
CONTINUOUS
 62
     4
 10
274.227459918
 20
165.302596936
 11
272.369516768
 21
167.160540086
  0
LINE
  8
0
  6
CONTINUOUS
 62
     4
 10
272.458172391
 20
167.172293626
 11
274.307265702
 21
165.323200315
  0
LINE
  8
0
  6
CONTINUOUS
 62
     4
 10
274.386447048
 20
165.344428132
 11
272.543337117
 21
167.187538063
  0
LINE
  8
0
  6
CONTINUOUS
 62
     4
 10
272.624007858
 20
167.207276485
 11
274.465013885
 21
165.366270458
  0
LINE
  8
0
  6
CONTINUOUS
 62
     4
 10
274.542975727
 20
165.388717779
 11
272.700664011
 21
167.231029495
  0
LINE
  8
0
  6
CONTINUOUS
 62
     4
 10
272.773667739
 20
167.25843493
 11
274.620341696
 21
165.411760972
  0
LINE
  8
0
  6
CONTINUOUS
 62
     4
 10
274.697120542
 20
165.435391289
 11
272.843296889
 21
167.289214943
  0
LINE
  8
0
  6
CONTINUOUS
 62
     4
 10
272.909766281
 20
167.323154713
 11
274.773320661
 21
165.459600333
  0
LINE
  8
0
  6
CONTINUOUS
 62
     4
 10
274.848950111
 20
165.484380046
 11
272.973241929
 21
167.360088228
  0
LINE
  8
0
  6
CONTINUOUS
 62
     4
 10
273.033850749
 20
167.399888571
 11
274.92401663
 21
165.50972269
  0
LINE
  8
0
  6
CONTINUOUS
 62
     4
 10
274.998527649
 20
165.535620834
 11
273.091687252
 21
167.442461231
  0
LINE
  8
0
  6
CONTINUOUS
 62
     4
 10
273.146818132
 20
167.487739514
 11
275.072490308
 21
165.562067338
  0
LINE
  8
0
  6
CONTINUOUS
 62
     4
 10
275.145911468
 20
165.589055342
 11
273.199285305
 21
167.535681505
  0
LINE
  8
0
  6
CONTINUOUS
 62
     4
 10
273.249107728
 20
167.586268244
 11
275.218797722
 21
165.61657825
  0
LINE
  8
0
  6
CONTINUOUS
 62
     4
 10
275.29115541
 20
165.644629725
 11
273.296282214
 21
167.639502921
  0
LINE
  8
0
  6
CONTINUOUS
 62
     4
 10
273.340783289
 20
167.695411009
 11
275.362990628
 21
165.67320367
  0
LINE
  8
0
  6
CONTINUOUS
 62
     4
 10
275.434309236
 20
165.702294225
 11
273.382562106
 21
167.754041355
  0
LINE
  8
0
  6
CONTINUOUS
 62
     4
 10
273.421544299
 20
167.815468325
 11
275.505116872
 21
165.731895752
  0
LINE
  8
0
  6
CONTINUOUS
 62
     4
 10
275.575418957
 20
165.762002829
 11
273.457626535
 21
167.879795251
  0
LINE
  8
0
  6
CONTINUOUS
 62
     4
 10
273.490671391
 20
167.947159559
 11
275.645220708
 21
165.792610242
  0
LINE
  8
0
  6
CONTINUOUS
 62
     4
 10
275.714527139
 20
165.823712973
 11
273.520499898
 21
168.017740215
  0
LINE
  8
0
  6
CONTINUOUS
 62
     4
 10
273.546880719
 20
168.091768557
 11
275.783343078
 21
165.855306198
  0
LINE
  8
0
  6
CONTINUOUS
 62
     4
 10
275.851673164
 20
165.887385274
 11
273.569514212
 21
168.169544227
  0
LINE
  8
0
  6
CONTINUOUS
 62
     4
 10
273.587750232
 20
168.25171737
 11
275.919521862
 21
165.919945739
  0
LINE
  8
0
  6
CONTINUOUS
 62
     4
 10
275.986893466
 20
165.952983298
 11
273.577652417
 21
168.362224347
  0
LINE
  8
0
  6
CONTINUOUS
 62
     4
 10
273.640502467
 20
168.39978346
 11
276.053792103
 21
165.986493824
  0
LINE
  8
0
  6
CONTINUOUS
 62
     4
 10
276.120221742
 20
166.020473348
 11
273.721741179
 21
168.418953911
  0
LINE
  8
0
  6
CONTINUOUS
 62
     4
 10
273.802979892
 20
168.438124361
 11
276.186186199
 21
166.054918055
  0
LINE
  8
0
  6
CONTINUOUS
 62
     4
 10
276.251689138
 20
166.089824278
 11
273.884218604
 21
168.457294812
  0
LINE
  8
0
  6
CONTINUOUS
 62
     4
 10
273.965457317
 20
168.476465262
 11
276.316734083
 21
166.125188496
  0
LINE
  8
0
  6
CONTINUOUS
 62
     4
 10
276.381324416
 20
166.161007326
 11
274.046696029
 21
168.495635713
  0
LINE
  8
0
  6
CONTINUOUS
 62
     4
 10
274.127934742
 20
168.514806163
 11
276.445463382
 21
166.197277522
  0
LINE
  8
0
  6
CONTINUOUS
 62
     4
 10
276.5091541
 20
166.233995968
 11
274.209173454
 21
168.533976614
  0
LINE
  8
0
  6
CONTINUOUS
 62
     4
 10
274.290412166
 20
168.553147064
 11
276.572399555
 21
166.271159675
  0
LINE
  8
0
  6
CONTINUOUS
 62
     4
 10
276.635202614
 20
166.30876578
 11
274.371650879
 21
168.572317515
  0
LINE
  8
0
  6
CONTINUOUS
 62
     4
 10
274.452889591
 20
168.591487965
 11
276.697566019
 21
166.346811537
  0
LINE
  8
0
  6
CONTINUOUS
 62
     4
 10
276.759492398
 20
166.385294321
 11
274.534128304
 21
168.610658416
  0
LINE
  8
0
  6
CONTINUOUS
 62
     4
 10
274.615367016
 20
168.629828866
 11
276.820984263
 21
166.42421162
  0
LINE
  8
0
  6
CONTINUOUS
 62
     4
 10
276.882044014
 20
166.463561031
 11
274.696605728
 21
168.648999317
  0
LINE
  8
0
  6
CONTINUOUS
 62
     4
 10
274.777844441
 20
168.668169767
 11
276.942673946
 21
166.503340262
  0
LINE
  8
0
  6
CONTINUOUS
 62
     4
 10
277.002876243
 20
166.543547128
 11
274.859083153
 21
168.687340218
  0
LINE
  8
0
  6
CONTINUOUS
 62
     4
 10
274.940321866
 20
168.706510668
 11
277.06265299
 21
166.584179544
  0
LINE
  8
0
  6
CONTINUOUS
 62
     4
 10
277.122006168
 20
166.625235529
 11
275.021560578
 21
168.725681119
  0
LINE
  8
0
  6
CONTINUOUS
 62
     4
 10
275.102799291
 20
168.744851569
 11
277.180937659
 21
166.666713201
  0
LINE
  8
0
  6
CONTINUOUS
 62
     4
 10
277.239449249
 20
166.708610774
 11
275.184038003
 21
168.76402202
  0
LINE
  8
0
  6
CONTINUOUS
 62
     4
 10
275.265276715
 20
168.78319247
 11
277.294847934
 21
166.753621251
  0
LINE
  8
0
  6
CONTINUOUS
 62
     4
 10
277.342530026
 20
166.806348323
 11
275.346515428
 21
168.802362921
  0
LINE
  8
0
  6
CONTINUOUS
 62
     4
 10
275.42775414
 20
168.821533371
 11
277.38792828
 21
166.861359232
  0
LINE
  8
0
  6
CONTINUOUS
 62
     4
 10
277.431012709
 20
166.918683965
 11
275.508992853
 21
168.840703822
  0
LINE
  8
0
  6
CONTINUOUS
 62
     4
 10
275.590231565
 20
168.859874272
 11
277.471737917
 21
166.97836792
  0
LINE
  8
0
  6
CONTINUOUS
 62
     4
 10
277.510041597
 20
167.040473404
 11
275.671470277
 21
168.879044723
  0
LINE
  8
0
  6
CONTINUOUS
 62
     4
 10
275.75270899
 20
168.898215173
 11
277.54584237
 21
167.105081793
  0
LINE
  8
0
  6
CONTINUOUS
 62
     4
 10
277.579036782
 20
167.172296544
 11
275.833947702
 21
168.917385624
  0
LINE
  8
0
  6
CONTINUOUS
 62
     4
 10
275.915186415
 20
168.936556074
 11
277.609495157
 21
167.242247332
  0
LINE
  8
0
  6
CONTINUOUS
 62
     4
 10
277.637055908
 20
167.315095744
 11
275.996425127
 21
168.955726525
  0
LINE
  8
0
  6
CONTINUOUS
 62
     4
 10
276.07766384
 20
168.974896975
 11
277.661517628
 21
167.391043187
  0
LINE
  8
0
  6
CONTINUOUS
 62
     4
 10
277.682627923
 20
167.470342054
 11
276.158902552
 21
168.994067426
  0
LINE
  8
0
  6
CONTINUOUS
 62
     4
 10
276.240141264
 20
169.013237877
 11
277.70006728
 21
167.553311861
  0
LINE
  8
0
  6
CONTINUOUS
 62
     4
 10
277.713425058
 20
167.640363246
 11
276.321379977
 21
169.032408327
  0
LINE
  8
0
  6
CONTINUOUS
 62
     4
 10
276.402618689
 20
169.051578778
 11
277.722162418
 21
167.732035048
  0
LINE
  8
0
  6
CONTINUOUS
 62
     4
 10
277.725552332
 20
167.829054297
 11
276.483857402
 21
169.070749228
  0
LINE
  8
0
  6
CONTINUOUS
 62
     4
 10
276.565096114
 20
169.089919679
 11
277.722576558
 21
167.932439235
  0
LINE
  8
0
  6
CONTINUOUS
 62
     4
 10
277.711734426
 20
168.04369053
 11
276.646334826
 21
169.109090129
  0
LINE
  8
0
  6
CONTINUOUS
 62
     4
 10
276.727573539
 20
169.12826058
 11
277.690648259
 21
168.16518586
  0
LINE
  8
0
  6
CONTINUOUS
 62
     4
 10
277.655113482
 20
168.301129799
 11
276.808812251
 21
169.14743103
  0
LINE
  8
0
  6
CONTINUOUS
 62
     4
 10
276.890050964
 20
169.166601481
 11
277.596159753
 21
168.460492691
  0
LINE
  8
0
  6
CONTINUOUS
 62
     4
 10
277.484587063
 20
168.672474544
 11
276.988505099
 21
169.168556508
  0
LINE
  8
0
  6
CONTINUOUS
 62
     4
 10
263.91619139
 20
166.570768994
 11
262.480719549
 21
165.135297153
  0
LINE
  8
0
  6
CONTINUOUS
 62
     4
 10
262.40254632
 20
165.195836135
 11
262.466519549
 21
165.131862907
  0
LINE
  8
0
  6
CONTINUOUS
 62
     4
 10
262.575037874
 20
165.129206315
 11
264.010092765
 21
166.564261206
  0
LINE
  8
0
  6
CONTINUOUS
 62
     4
 10
262.573019549
 20
165.12577207
 11
262.428560264
 21
165.270231354
  0
LINE
  8
0
  6
CONTINUOUS
 62
     4
 10
264.104334847
 20
166.558094125
 11
262.665319549
 21
165.119078827
  0
LINE
  8
0
  6
CONTINUOUS
 62
     4
 10
262.7616562
 20
165.115006315
 11
264.198921109
 21
166.552271225
  0
LINE
  8
0
  6
CONTINUOUS
 62
     4
 10
262.454150787
 20
165.345049995
 11
262.679519549
 21
165.119681233
  0
LINE
  8
0
  6
CONTINUOUS
 62
     4
 10
264.293855101
 20
166.546796054
 11
262.857019549
 21
165.109960501
  0
LINE
  8
0
  6
CONTINUOUS
 62
     4
 10
262.956419549
 20
165.108951338
 11
264.389140449
 21
166.541672238
  0
LINE
  8
0
  6
CONTINUOUS
 62
     4
 10
264.484780859
 20
166.536903485
 11
263.055819549
 21
165.107942175
  0
LINE
  8
0
  6
CONTINUOUS
 62
     4
 10
263.141992852
 20
165.093706315
 11
264.580780118
 21
166.532493581
  0
LINE
  8
0
  6
CONTINUOUS
 62
     4
 10
264.677142099
 20
166.5284464
 11
263.240419549
 21
165.091723849
  0
LINE
  8
0
  6
CONTINUOUS
 62
     4
 10
263.339819549
 20
165.090714686
 11
264.773870763
 21
166.5247659
  0
LINE
  8
0
  6
CONTINUOUS
 62
     4
 10
264.870970158
 20
166.521456133
 11
263.432119549
 21
165.082605523
  0
LINE
  8
0
  6
CONTINUOUS
 62
     4
 10
263.524419549
 20
165.07449636
 11
264.968444429
 21
166.518521241
  0
LINE
  8
0
  6
CONTINUOUS
 62
     4
 10
265.066297813
 20
166.515965462
 11
263.622738667
 21
165.072406315
  0
LINE
  8
0
  6
CONTINUOUS
 62
     4
 10
263.72314783
 20
165.072406315
 11
265.164534649
 21
166.513793135
  0
LINE
  8
0
  6
CONTINUOUS
 62
     4
 10
265.263159375
 20
166.512008698
 11
263.815519549
 21
165.064368872
  0
LINE
  8
0
  6
CONTINUOUS
 62
     4
 10
263.909766155
 20
165.058206315
 11
265.362176537
 21
166.510616697
  0
LINE
  8
0
  6
CONTINUOUS
 62
     4
 10
265.461590788
 20
166.509621786
 11
264.007219549
 21
165.055250546
  0
LINE
  8
0
  6
CONTINUOUS
 62
     4
 10
264.106619549
 20
165.054241383
 11
265.561406897
 21
166.509028731
  0
LINE
  8
0
  6
CONTINUOUS
 62
     4
 10
265.661629746
 20
166.508842417
 11
264.196793644
 21
165.044006315
  0
LINE
  8
0
  6
CONTINUOUS
 62
     4
 10
264.298319549
 20
165.045123057
 11
265.762264339
 21
166.509067847
  0
LINE
  8
0
  6
CONTINUOUS
 62
     4
 10
265.863315804
 20
166.509710149
 11
264.390619549
 21
165.037013894
  0
LINE
  8
0
  6
CONTINUOUS
 62
     4
 10
264.490019549
 20
165.036004731
 11
265.964789398
 21
166.510774581
  0
LINE
  8
0
  6
CONTINUOUS
 62
     4
 10
266.066690514
 20
166.512266533
 11
264.589419549
 21
165.034995568
  0
LINE
  8
0
  6
CONTINUOUS
 62
     4
 10
264.688819549
 20
165.033986405
 11
266.169024679
 21
166.514191535
  0
LINE
  8
0
  6
CONTINUOUS
 62
     4
 10
266.271797566
 20
166.51655526
 11
264.777948622
 21
165.022706315
  0
LINE
  8
0
  6
CONTINUOUS
 62
     4
 10
264.880519549
 20
165.024868079
 11
266.375014997
 21
166.519363527
  0
LINE
  8
0
  6
CONTINUOUS
 62
     4
 10
266.478682946
 20
166.522622313
 11
264.972819549
 21
165.016758916
  0
LINE
  8
0
  6
CONTINUOUS
 62
     4
 10
265.072219549
 20
165.015749753
 11
266.582807548
 21
166.526337753
  0
LINE
  8
0
  6
CONTINUOUS
 62
     4
 10
266.687395103
 20
166.530516145
 11
265.165385274
 21
165.008506315
  0
LINE
  8
0
  6
CONTINUOUS
 62
     4
 10
265.265794436
 20
165.008506315
 11
268.204804534
 21
167.947516413
  0
LINE
  8
0
  6
CONTINUOUS
 62
     4
 10
268.274981367
 20
167.917284083
 11
265.363319549
 21
165.005622265
  0
LINE
  8
0
  6
CONTINUOUS
 62
     4
 10
265.306519549
 20
165.002910306
 11
263.724228186
 21
166.585201669
  0
LINE
  8
0
  6
CONTINUOUS
 62
     4
 10
263.833001666
 20
166.576837351
 11
265.405919549
 21
165.003919469
  0
LINE
  8
0
  6
CONTINUOUS
 62
     4
 10
265.466612762
 20
165.008506315
 11
268.34398273
 21
167.885876283
  0
LINE
  8
0
  6
CONTINUOUS
 62
     4
 10
268.41183513
 20
167.85331952
 11
265.559921925
 21
165.001406315
  0
LINE
  8
0
  6
CONTINUOUS
 62
     4
 10
265.512419549
 20
164.997828632
 11
263.941251422
 21
166.568996758
  0
LINE
  8
0
  6
CONTINUOUS
 62
     4
 10
265.654419549
 20
164.995494776
 11
268.478562734
 21
167.819637961
  0
LINE
  8
0
  6
CONTINUOUS
 62
     4
 10
264.048985439
 20
166.561671904
 11
265.611819549
 21
164.998837795
  0
LINE
  8
0
  6
CONTINUOUS
 62
     4
 10
265.709660191
 20
165.001406315
 11
264.156211473
 21
166.554855034
  0
LINE
  8
0
  6
CONTINUOUS
 62
     4
 10
268.550395384
 20
167.791061448
 11
265.760740251
 21
165.001406315
  0
LINE
  8
0
  6
CONTINUOUS
 62
     4
 10
265.854049414
 20
164.994306315
 11
268.621846761
 21
167.762103662
  0
LINE
  8
0
  6
CONTINUOUS
 62
     4
 10
264.262937058
 20
166.548538612
 11
265.810619549
 21
165.000856121
  0
LINE
  8
0
  6
CONTINUOUS
 62
     4
 10
265.917119549
 20
164.994765284
 11
264.369169516
 21
166.542715316
  0
LINE
  8
0
  6
CONTINUOUS
 62
     4
 10
268.690394147
 20
167.730241886
 11
265.959719549
 21
164.999567287
  0
LINE
  8
0
  6
CONTINUOUS
 62
     4
 10
266.05486774
 20
164.994306315
 11
268.756191576
 21
167.695630151
  0
LINE
  8
0
  6
CONTINUOUS
 62
     4
 10
264.474915965
 20
166.53737803
 11
266.01798768
 21
164.994306315
  0
LINE
  8
0
  6
CONTINUOUS
 62
     4
 10
266.130119549
 20
164.982583609
 11
264.580183328
 21
166.53251983
  0
LINE
  8
0
  6
CONTINUOUS
 62
     4
 10
268.819361509
 20
167.658390921
 11
266.148176903
 21
164.987206315
  0
LINE
  8
0
  6
CONTINUOUS
 62
     4
 10
264.684978336
 20
166.528133985
 11
266.229519549
 21
164.983592772
  0
LINE
  8
0
  6
CONTINUOUS
 62
     4
 10
266.326315168
 20
164.987206315
 11
264.78930754
 21
166.524213944
  0
LINE
  8
0
  6
CONTINUOUS
 62
     4
 10
266.257919549
 20
164.996539798
 11
268.88000028
 21
167.618620529
  0
LINE
  8
0
  6
CONTINUOUS
 62
     4
 10
266.449619549
 20
164.987421472
 11
268.993961441
 21
167.531763365
  0
LINE
  8
0
  6
CONTINUOUS
 62
     4
 10
264.893177317
 20
166.52075333
 11
266.435419549
 21
164.978511098
  0
LINE
  8
0
  6
CONTINUOUS
 62
     4
 10
268.938182015
 20
167.576393102
 11
266.350219549
 21
164.988430635
  0
LINE
  8
0
  6
CONTINUOUS
 62
     4
 10
266.534819549
 20
164.979520261
 11
264.996593873
 21
166.517745936
  0
LINE
  8
0
  6
CONTINUOUS
 62
     4
 10
265.099563255
 20
166.515185717
 11
266.634219549
 21
164.980529424
  0
LINE
  8
0
  6
CONTINUOUS
 62
     4
 10
266.643122717
 20
164.980106315
 11
269.098446323
 21
167.435429921
  0
LINE
  8
0
  6
CONTINUOUS
 62
     4
 10
269.147178547
 20
167.383752982
 11
266.74353188
 21
164.980106315
  0
LINE
  8
0
  6
CONTINUOUS
 62
     4
 10
266.740719549
 20
164.974438587
 11
265.202091351
 21
166.513066785
  0
LINE
  8
0
  6
CONTINUOUS
 62
     4
 10
265.304183898
 20
166.5113834
 11
266.840119549
 21
164.97544775
  0
LINE
  8
0
  6
CONTINUOUS
 62
     4
 10
266.847219549
 20
164.983384821
 11
269.193562888
 21
167.32972816
  0
LINE
  8
0
  6
CONTINUOUS
 62
     4
 10
263.614922754
 20
166.594097938
 11
265.200019549
 21
165.009001143
  0
LINE
  8
0
  6
CONTINUOUS
 62
     4
 10
265.093519549
 20
165.01509198
 11
263.505076894
 21
166.603534634
  0
LINE
  8
0
  6
CONTINUOUS
 62
     4
 10
263.39468187
 20
166.613520496
 11
264.994119549
 21
165.014082817
  0
LINE
  8
0
  6
CONTINUOUS
 62
     4
 10
264.880519549
 20
165.027273654
 11
263.28372867
 21
166.624064533
  0
LINE
  8
0
  6
CONTINUOUS
 62
     4
 10
263.172208
 20
166.63517604
 11
264.791777724
 21
165.015606315
  0
LINE
  8
0
  6
CONTINUOUS
 62
     4
 10
264.660419549
 20
165.046555328
 11
263.060110269
 21
166.646864608
  0
LINE
  8
0
  6
CONTINUOUS
 62
     4
 10
262.947425574
 20
166.65914014
 11
264.561019549
 21
165.045546166
  0
LINE
  8
0
  6
CONTINUOUS
 62
     4
 10
264.476350236
 20
165.029806315
 11
262.834143688
 21
166.672012864
  0
LINE
  8
0
  6
CONTINUOUS
 62
     4
 10
262.802066821
 20
166.603680567
 11
264.355119549
 21
165.05062784
  0
LINE
  8
0
  6
CONTINUOUS
 62
     4
 10
264.262819549
 20
165.042518677
 11
262.783937196
 21
166.521401029
  0
LINE
  8
0
  6
CONTINUOUS
 62
     4
 10
262.76529637
 20
166.439632693
 11
264.153822747
 21
165.051106315
  0
LINE
  8
0
  6
CONTINUOUS
 62
     4
 10
264.049819549
 20
165.054700351
 11
262.746151283
 21
166.358368617
  0
LINE
  8
0
  6
CONTINUOUS
 62
     4
 10
262.726508643
 20
166.277602094
 11
263.943319549
 21
165.060791188
  0
LINE
  8
0
  6
CONTINUOUS
 62
     4
 10
263.845495258
 20
165.058206315
 11
262.706374935
 21
166.197326639
  0
LINE
  8
0
  6
CONTINUOUS
 62
     4
 10
262.685756431
 20
166.11753598
 11
263.730319549
 21
165.072972862
  0
LINE
  8
0
  6
CONTINUOUS
 62
     4
 10
263.630919549
 20
165.071963699
 11
262.664659197
 21
166.038224051
  0
LINE
  8
0
  6
CONTINUOUS
 62
     4
 10
262.643089102
 20
165.959384983
 11
263.522967769
 21
165.079506315
  0
LINE
  8
0
  6
CONTINUOUS
 62
     4
 10
263.417919549
 20
165.084145373
 11
262.621051828
 21
165.881013093
  0
LINE
  8
0
  6
CONTINUOUS
 62
     4
 10
262.598552876
 20
165.803102883
 11
263.318519549
 21
165.08313621
  0
LINE
  8
0
  6
CONTINUOUS
 62
     4
 10
263.204919549
 20
165.096327047
 11
262.57559757
 21
165.725649026
  0
LINE
  8
0
  6
CONTINUOUS
 62
     4
 10
262.55219107
 20
165.648646364
 11
263.098419549
 21
165.102417885
  0
LINE
  8
0
  6
CONTINUOUS
 62
     4
 10
262.999019549
 20
165.101408722
 11
262.528338372
 21
165.572089898
  0
LINE
  8
0
  6
CONTINUOUS
 62
     4
 10
262.504044321
 20
165.495974786
 11
262.885419549
 21
165.114599559
  0
LINE
  8
0
  6
CONTINUOUS
 62
     4
 10
262.786019549
 20
165.113590396
 11
262.479313609
 21
165.420296335
  0
LINE
  8
0
  6
CONTINUOUS
 62
     4
 10
272.356441049
 20
167.166906315
 11
270.147878289
 21
164.958343556
  0
LINE
  8
0
  6
CONTINUOUS
 62
     3
 10
340.599998093
 20
174.0
 11
244.599999354
 21
174.0
  0
LINE
  8
0
  6
CONTINUOUS
 62
     3
 10
244.599998093
 20
174.0
 11
340.599996831
 21
174.0
  0
LINE
  8
0
  6
CONTINUOUS
 62
     3
 10
285.199998093
 20
173.830510605
 11
269.599998093
 21
173.830510605
  0
LINE
  8
0
  6
CONTINUOUS
 62
     3
 10
254.399998093
 20
173.830510605
 11
269.799998093
 21
173.830510605
  0
TEXT
  8
0
  6
CONTINUOUS
 62
     3
 10
401.25
 20
373.9
 30
0.0
 40
3.5
  1
電源部ユニット
 50
0.0
 41
0.857142857
 51
0.0
  7
KANJI7
  0
TEXT
  8
0
  6
CONTINUOUS
 62
     3
 10
430.65
 20
369.99
 30
0.0
 40
3.5
  1
オプション部ユニット
 50
0.0
 41
0.857142857
 51
0.0
  7
KANJI7
  0
TEXT
  8
0
  6
CONTINUOUS
 62
     3
 10
486.95
 20
375.19
 30
0.0
 40
3.5
  1
入力部ユニット
 50
0.0
 41
0.857142857
 51
0.0
  7
KANJI7
  0
TEXT
  8
0
  6
CONTINUOUS
 62
     4
 10
507.75
 20
120.56
 30
0.0
 40
2.64
  1
９２
 50
90.0
 41
0.772727273
 51
0.0
  7
KANJI6
  0
TEXT
  8
0
  6
CONTINUOUS
 62
     4
 10
507.75
 20
124.64
 30
0.0
 40
1.584
  1
－０
 50
90.0
 41
0.772727273
 51
0.0
  7
KANJI8
  0
TEXT
  8
0
  6
CONTINUOUS
 62
     4
 10
506.166
 20
124.64
 30
0.0
 40
1.584
  1
＋０．８
 50
90.0
 41
0.772727273
 51
0.0
  7
KANJI8
  0
TEXT
  8
0
  6
CONTINUOUS
 62
     4
 10
486.032
 20
142.5
 30
0.0
 40
2.64
  1
９２
 50
0.0
 41
0.772727273
 51
0.0
  7
KANJI6
  0
TEXT
  8
0
  6
CONTINUOUS
 62
     4
 10
490.112
 20
142.5
 30
0.0
 40
1.584
  1
－０
 50
0.0
 41
0.772727273
 51
0.0
  7
KANJI8
  0
TEXT
  8
0
  6
CONTINUOUS
 62
     4
 10
490.112
 20
144.084
 30
0.0
 40
1.584
  1
＋０．８
 50
0.0
 41
0.772727273
 51
0.0
  7
KANJI8
  0
TEXT
  8
0
  6
CONTINUOUS
 62
     4
 10
432.96
 20
102.16
 30
0.0
 40
2.64
  1
ＭＩＮ．　１２０
 50
90.0
 41
0.772727273
 51
0.0
  7
KANJI6
  0
CIRCLE
  8
0
  6
CONTINUOUS
 62
     1
 10
496.994982465
 20
275.9
 40
1.0
  0
CIRCLE
  8
0
  6
CONTINUOUS
 62
     1
 10
496.994982465
 20
275.9
 40
1.6
  0
CIRCLE
  8
0
  6
CONTINUOUS
 62
     1
 10
472.004982465
 20
275.9
 40
1.0
  0
CIRCLE
  8
0
  6
CONTINUOUS
 62
     1
 10
472.004982465
 20
275.9
 40
1.6
  0
LINE
  8
0
  6
CONTINUOUS
 62
     3
 10
499.904982465
 20
270.125
 11
499.904982465
 21
275.9
  0
ARC
  8
0
  6
CONTINUOUS
 62
     3
 10
499.404982465
 20
270.125
 40
0.5
 50
270.0
 51
0.0
  0
LINE
  8
0
  6
CONTINUOUS
 62
     3
 10
499.904982465
 20
281.675
 11
499.904982465
 21
275.9
  0
ARC
  8
0
  6
CONTINUOUS
 62
     3
 10
499.404982465
 20
281.675
 40
0.5
 50
0.0
 51
90.0
  0
LINE
  8
0
  6
CONTINUOUS
 62
     3
 10
499.994982465
 20
275.9
 11
498.494982465
 21
273.301923789
  0
LINE
  8
0
  6
CONTINUOUS
 62
     3
 10
498.494982465
 20
278.498076211
 11
499.994982465
 21
275.9
  0
ARC
  8
0
  6
CONTINUOUS
 62
     3
 10
469.594982465
 20
270.125
 40
0.5
 50
180.0
 51
270.0
  0
LINE
  8
0
  6
CONTINUOUS
 62
     3
 10
484.499982465
 20
269.625
 11
499.404982465
 21
269.625
  0
LINE
  8
0
  6
CONTINUOUS
 62
     3
 10
484.499982465
 20
269.625
 11
499.404982465
 21
269.625
  0
LINE
  8
0
  6
CONTINUOUS
 62
     3
 10
484.499982465
 20
269.625
 11
469.594982465
 21
269.625
  0
LINE
  8
0
  6
CONTINUOUS
 62
     3
 10
484.499982465
 20
269.625
 11
499.404982465
 21
269.625
  0
LINE
  8
0
  6
CONTINUOUS
 62
     3
 10
484.499982465
 20
269.625
 11
499.404982465
 21
269.625
  0
LINE
  8
0
  6
CONTINUOUS
 62
     3
 10
469.004982465
 20
275.9
 11
470.504982465
 21
273.301923789
  0
LINE
  8
0
  6
CONTINUOUS
 62
     3
 10
470.504982465
 20
273.301923789
 11
473.504982465
 21
273.301923789
  0
LINE
  8
0
  6
CONTINUOUS
 62
     3
 10
469.094982465
 20
270.125
 11
469.094982465
 21
275.9
  0
LINE
  8
0
  6
CONTINUOUS
 62
     3
 10
469.094982465
 20
270.125
 11
469.094982465
 21
275.9
  0
LINE
  8
0
  6
CONTINUOUS
 62
     3
 10
484.499982465
 20
282.175
 11
469.594982465
 21
282.175
  0
LINE
  8
0
  6
CONTINUOUS
 62
     3
 10
476.049982465
 20
273.956683066
 11
476.61939423
 21
278.356683066
  0
LINE
  8
0
  6
CONTINUOUS
 62
     3
 10
476.446674477
 20
273.905346453
 11
477.016086242
 21
278.305346453
  0
LINE
  8
0
  6
CONTINUOUS
 62
     3
 10
484.499982465
 20
282.175
 11
469.594982465
 21
282.175
  0
LINE
  8
0
  6
CONTINUOUS
 62
     3
 10
473.504982465
 20
273.301923789
 11
475.004982465
 21
275.9
  0
LINE
  8
0
  6
CONTINUOUS
 62
     3
 10
469.094982465
 20
281.675
 11
469.094982465
 21
275.9
  0
ARC
  8
0
  6
CONTINUOUS
 62
     3
 10
469.594982465
 20
281.675
 40
0.5
 50
90.0
 51
180.0
  0
LINE
  8
0
  6
CONTINUOUS
 62
     3
 10
473.504982465
 20
278.498076211
 11
470.504982465
 21
278.498076211
  0
LINE
  8
0
  6
CONTINUOUS
 62
     3
 10
470.504982465
 20
278.498076211
 11
469.004982465
 21
275.9
  0
LINE
  8
0
  6
CONTINUOUS
 62
     3
 10
475.004982465
 20
275.9
 11
473.504982465
 21
278.498076211
  0
LINE
  8
0
  6
CONTINUOUS
 62
     3
 10
484.499982465
 20
282.175
 11
499.404982465
 21
282.175
  0
LINE
  8
0
  6
CONTINUOUS
 62
     3
 10
484.499982465
 20
282.175
 11
499.404982465
 21
282.175
  0
ARC
  8
0
  6
CONTINUOUS
 62
     3
 10
490.397110642
 20
278.1
 40
2.0
 50
7.373766361
 51
90.0
  0
LINE
  8
0
  6
CONTINUOUS
 62
     3
 10
484.499982465
 20
280.1
 11
490.397110642
 21
280.1
  0
ARC
  8
0
  6
CONTINUOUS
 62
     3
 10
490.397110642
 20
278.1
 40
1.6
 50
7.373766361
 51
90.0
  0
LINE
  8
0
  6
CONTINUOUS
 62
     3
 10
490.397110642
 20
279.7
 11
484.897110642
 21
279.7
  0
LINE
  8
0
  6
CONTINUOUS
 62
     3
 10
484.499982465
 20
280.1
 11
478.602854288
 21
280.1
  0
ARC
  8
0
  6
CONTINUOUS
 62
     3
 10
478.602854288
 20
278.1
 40
1.6
 50
90.0
 51
172.626233639
  0
LINE
  8
0
  6
CONTINUOUS
 62
     3
 10
478.602854288
 20
279.7
 11
484.897110642
 21
279.7
  0
ARC
  8
0
  6
CONTINUOUS
 62
     3
 10
478.602854288
 20
278.1
 40
2.0
 50
90.0
 51
172.626233639
  0
ARC
  8
0
  6
CONTINUOUS
 62
     3
 10
490.966522407
 20
273.7
 40
2.0
 50
270.0
 51
7.373766361
  0
LINE
  8
0
  6
CONTINUOUS
 62
     3
 10
492.949982465
 20
273.956683066
 11
492.380570701
 21
278.356683066
  0
LINE
  8
0
  6
CONTINUOUS
 62
     3
 10
492.553290454
 20
273.905346453
 11
491.983878689
 21
278.305346453
  0
ARC
  8
0
  6
CONTINUOUS
 62
     3
 10
490.966522407
 20
273.7
 40
1.6
 50
270.000278953
 51
9.231676841
  0
LINE
  8
0
  6
CONTINUOUS
 62
     3
 10
484.207941127
 20
271.7
 11
478.033442524
 21
271.7
  0
LINE
  8
0
  6
CONTINUOUS
 62
     3
 10
478.033442524
 20
272.1
 11
484.499982465
 21
272.1
  0
ARC
  8
0
  6
CONTINUOUS
 62
     3
 10
478.033442524
 20
273.7
 40
2.0
 50
172.626233639
 51
270.0
  0
ARC
  8
0
  6
CONTINUOUS
 62
     3
 10
478.033442524
 20
273.7
 40
1.6
 50
170.768323159
 51
269.999721047
  0
LINE
  8
0
  6
CONTINUOUS
 62
     3
 10
490.966522407
 20
272.1
 11
484.499982465
 21
272.1
  0
LINE
  8
0
  6
CONTINUOUS
 62
     3
 10
484.207941127
 20
271.7
 11
490.966522407
 21
271.7
  0
LINE
  8
0
  6
CONTINUOUS
 62
     3
 10
498.494982465
 20
273.301923789
 11
495.494982465
 21
273.301923789
  0
LINE
  8
0
  6
CONTINUOUS
 62
     3
 10
495.494982465
 20
273.301923789
 11
493.994982465
 21
275.9
  0
LINE
  8
0
  6
CONTINUOUS
 62
     3
 10
495.494982465
 20
278.498076211
 11
498.494982465
 21
278.498076211
  0
LINE
  8
0
  6
CONTINUOUS
 62
     3
 10
493.994982465
 20
275.9
 11
495.494982465
 21
278.498076211
  0
ENDSEC
  0
EOF
