  0
SECTION
  2
HEADER
  9
$EXTMIN
 10
0.0
 20
0.0
 30
0.0
  9
$EXTMAX
 10
117.614113694
 20
83.169980398
 30
0.0
  9
$LIMMIN
 10
0.0
 20
0.0
  9
$LIMMAX
 10
117.614113694
 20
83.169980398
  9
$LTSCALE
 40
1.0
  9
$PDMODE
 70
     0
  0
ENDSEC
  0
SECTION
  2
TABLES
  0
TABLE
  2
LTYPE
 70
     1
  0
LTYPE
  2
CONTINUOUS
 70
    64
  3
Solid line
 72
    65
 73
     0
 40
0.0
  0
ENDTAB
  0
TABLE
  2
LAYER
 70
   128
  0
LAYER
  2
0
 70
     0
 62
     7
  6
CONTINUOUS
  0
LAYER
  2
1
 70
     0
 62
     7
  6
CONTINUOUS
  0
LAYER
  2
2
 70
     0
 62
     7
  6
CONTINUOUS
  0
LAYER
  2
3
 70
     0
 62
     7
  6
CONTINUOUS
  0
LAYER
  2
4
 70
     0
 62
     7
  6
CONTINUOUS
  0
LAYER
  2
5
 70
     0
 62
     7
  6
CONTINUOUS
  0
LAYER
  2
6
 70
     0
 62
     7
  6
CONTINUOUS
  0
LAYER
  2
7
 70
     0
 62
     7
  6
CONTINUOUS
  0
LAYER
  2
8
 70
     0
 62
     7
  6
CONTINUOUS
  0
LAYER
  2
9
 70
     0
 62
     7
  6
CONTINUOUS
  0
LAYER
  2
10
 70
     0
 62
     7
  6
CONTINUOUS
  0
LAYER
  2
11
 70
     0
 62
     7
  6
CONTINUOUS
  0
LAYER
  2
12
 70
     0
 62
     7
  6
CONTINUOUS
  0
LAYER
  2
13
 70
     0
 62
     7
  6
CONTINUOUS
  0
LAYER
  2
14
 70
     0
 62
     7
  6
CONTINUOUS
  0
LAYER
  2
15
 70
     0
 62
     7
  6
CONTINUOUS
  0
LAYER
  2
16
 70
     0
 62
     7
  6
CONTINUOUS
  0
LAYER
  2
17
 70
     0
 62
     7
  6
CONTINUOUS
  0
LAYER
  2
18
 70
     0
 62
     7
  6
CONTINUOUS
  0
LAYER
  2
19
 70
     0
 62
     7
  6
CONTINUOUS
  0
LAYER
  2
20
 70
     0
 62
     7
  6
CONTINUOUS
  0
LAYER
  2
21
 70
     0
 62
     7
  6
CONTINUOUS
  0
LAYER
  2
22
 70
     0
 62
     7
  6
CONTINUOUS
  0
LAYER
  2
23
 70
     0
 62
     7
  6
CONTINUOUS
  0
LAYER
  2
24
 70
     0
 62
     7
  6
CONTINUOUS
  0
LAYER
  2
25
 70
     0
 62
     7
  6
CONTINUOUS
  0
LAYER
  2
26
 70
     0
 62
     7
  6
CONTINUOUS
  0
LAYER
  2
27
 70
     0
 62
     7
  6
CONTINUOUS
  0
LAYER
  2
28
 70
     0
 62
     7
  6
CONTINUOUS
  0
LAYER
  2
29
 70
     0
 62
     7
  6
CONTINUOUS
  0
LAYER
  2
30
 70
     0
 62
     7
  6
CONTINUOUS
  0
LAYER
  2
31
 70
     0
 62
     7
  6
CONTINUOUS
  0
LAYER
  2
32
 70
     0
 62
     7
  6
CONTINUOUS
  0
LAYER
  2
33
 70
     0
 62
     7
  6
CONTINUOUS
  0
LAYER
  2
34
 70
     0
 62
     7
  6
CONTINUOUS
  0
LAYER
  2
35
 70
     0
 62
     7
  6
CONTINUOUS
  0
LAYER
  2
36
 70
     0
 62
     7
  6
CONTINUOUS
  0
LAYER
  2
37
 70
     0
 62
     7
  6
CONTINUOUS
  0
LAYER
  2
38
 70
     0
 62
     7
  6
CONTINUOUS
  0
LAYER
  2
39
 70
     0
 62
     7
  6
CONTINUOUS
  0
LAYER
  2
40
 70
     0
 62
     7
  6
CONTINUOUS
  0
LAYER
  2
41
 70
     0
 62
     7
  6
CONTINUOUS
  0
LAYER
  2
42
 70
     0
 62
     7
  6
CONTINUOUS
  0
LAYER
  2
43
 70
     0
 62
     7
  6
CONTINUOUS
  0
LAYER
  2
44
 70
     0
 62
     7
  6
CONTINUOUS
  0
LAYER
  2
45
 70
     0
 62
     7
  6
CONTINUOUS
  0
LAYER
  2
46
 70
     0
 62
     7
  6
CONTINUOUS
  0
LAYER
  2
47
 70
     0
 62
     7
  6
CONTINUOUS
  0
LAYER
  2
48
 70
     0
 62
     7
  6
CONTINUOUS
  0
LAYER
  2
49
 70
     0
 62
     7
  6
CONTINUOUS
  0
LAYER
  2
50
 70
     0
 62
     7
  6
CONTINUOUS
  0
LAYER
  2
51
 70
     0
 62
     7
  6
CONTINUOUS
  0
LAYER
  2
52
 70
     0
 62
     7
  6
CONTINUOUS
  0
LAYER
  2
53
 70
     0
 62
     7
  6
CONTINUOUS
  0
LAYER
  2
54
 70
     0
 62
     7
  6
CONTINUOUS
  0
LAYER
  2
55
 70
     0
 62
     7
  6
CONTINUOUS
  0
LAYER
  2
56
 70
     0
 62
     7
  6
CONTINUOUS
  0
LAYER
  2
57
 70
     0
 62
     7
  6
CONTINUOUS
  0
LAYER
  2
58
 70
     0
 62
     7
  6
CONTINUOUS
  0
LAYER
  2
59
 70
     0
 62
     7
  6
CONTINUOUS
  0
LAYER
  2
60
 70
     0
 62
     7
  6
CONTINUOUS
  0
LAYER
  2
61
 70
     0
 62
     7
  6
CONTINUOUS
  0
LAYER
  2
62
 70
     0
 62
     7
  6
CONTINUOUS
  0
LAYER
  2
63
 70
     0
 62
     7
  6
CONTINUOUS
  0
LAYER
  2
64
 70
     0
 62
     7
  6
CONTINUOUS
  0
LAYER
  2
65
 70
     0
 62
     7
  6
CONTINUOUS
  0
LAYER
  2
66
 70
     0
 62
     7
  6
CONTINUOUS
  0
LAYER
  2
67
 70
     0
 62
     7
  6
CONTINUOUS
  0
LAYER
  2
68
 70
     0
 62
     7
  6
CONTINUOUS
  0
LAYER
  2
69
 70
     0
 62
     7
  6
CONTINUOUS
  0
LAYER
  2
70
 70
     0
 62
     7
  6
CONTINUOUS
  0
LAYER
  2
71
 70
     0
 62
     7
  6
CONTINUOUS
  0
LAYER
  2
72
 70
     0
 62
     7
  6
CONTINUOUS
  0
LAYER
  2
73
 70
     0
 62
     7
  6
CONTINUOUS
  0
LAYER
  2
74
 70
     0
 62
     7
  6
CONTINUOUS
  0
LAYER
  2
75
 70
     0
 62
     7
  6
CONTINUOUS
  0
LAYER
  2
76
 70
     0
 62
     7
  6
CONTINUOUS
  0
LAYER
  2
77
 70
     0
 62
     7
  6
CONTINUOUS
  0
LAYER
  2
78
 70
     0
 62
     7
  6
CONTINUOUS
  0
LAYER
  2
79
 70
     0
 62
     7
  6
CONTINUOUS
  0
LAYER
  2
80
 70
     0
 62
     7
  6
CONTINUOUS
  0
LAYER
  2
81
 70
     0
 62
     7
  6
CONTINUOUS
  0
LAYER
  2
82
 70
     0
 62
     7
  6
CONTINUOUS
  0
LAYER
  2
83
 70
     0
 62
     7
  6
CONTINUOUS
  0
LAYER
  2
84
 70
     0
 62
     7
  6
CONTINUOUS
  0
LAYER
  2
85
 70
     0
 62
     7
  6
CONTINUOUS
  0
LAYER
  2
86
 70
     0
 62
     7
  6
CONTINUOUS
  0
LAYER
  2
87
 70
     0
 62
     7
  6
CONTINUOUS
  0
LAYER
  2
88
 70
     0
 62
     7
  6
CONTINUOUS
  0
LAYER
  2
89
 70
     0
 62
     7
  6
CONTINUOUS
  0
LAYER
  2
90
 70
     0
 62
     7
  6
CONTINUOUS
  0
LAYER
  2
91
 70
     0
 62
     7
  6
CONTINUOUS
  0
LAYER
  2
92
 70
     0
 62
     7
  6
CONTINUOUS
  0
LAYER
  2
93
 70
     0
 62
     7
  6
CONTINUOUS
  0
LAYER
  2
94
 70
     0
 62
     7
  6
CONTINUOUS
  0
LAYER
  2
95
 70
     0
 62
     7
  6
CONTINUOUS
  0
LAYER
  2
96
 70
     0
 62
     7
  6
CONTINUOUS
  0
LAYER
  2
97
 70
     0
 62
     7
  6
CONTINUOUS
  0
LAYER
  2
98
 70
     0
 62
     7
  6
CONTINUOUS
  0
LAYER
  2
99
 70
     0
 62
     7
  6
CONTINUOUS
  0
LAYER
  2
100
 70
     0
 62
     7
  6
CONTINUOUS
  0
LAYER
  2
101
 70
     0
 62
     7
  6
CONTINUOUS
  0
LAYER
  2
102
 70
     0
 62
     7
  6
CONTINUOUS
  0
LAYER
  2
103
 70
     0
 62
     7
  6
CONTINUOUS
  0
LAYER
  2
104
 70
     0
 62
     7
  6
CONTINUOUS
  0
LAYER
  2
105
 70
     0
 62
     7
  6
CONTINUOUS
  0
LAYER
  2
106
 70
     0
 62
     7
  6
CONTINUOUS
  0
LAYER
  2
107
 70
     0
 62
     7
  6
CONTINUOUS
  0
LAYER
  2
108
 70
     0
 62
     7
  6
CONTINUOUS
  0
LAYER
  2
109
 70
     0
 62
     7
  6
CONTINUOUS
  0
LAYER
  2
110
 70
     0
 62
     7
  6
CONTINUOUS
  0
LAYER
  2
111
 70
     0
 62
     7
  6
CONTINUOUS
  0
LAYER
  2
112
 70
     0
 62
     7
  6
CONTINUOUS
  0
LAYER
  2
113
 70
     0
 62
     7
  6
CONTINUOUS
  0
LAYER
  2
114
 70
     0
 62
     7
  6
CONTINUOUS
  0
LAYER
  2
115
 70
     0
 62
     7
  6
CONTINUOUS
  0
LAYER
  2
116
 70
     0
 62
     7
  6
CONTINUOUS
  0
LAYER
  2
117
 70
     0
 62
     7
  6
CONTINUOUS
  0
LAYER
  2
118
 70
     0
 62
     7
  6
CONTINUOUS
  0
LAYER
  2
119
 70
     0
 62
     7
  6
CONTINUOUS
  0
LAYER
  2
120
 70
     0
 62
     7
  6
CONTINUOUS
  0
LAYER
  2
121
 70
     0
 62
     7
  6
CONTINUOUS
  0
LAYER
  2
122
 70
     0
 62
     7
  6
CONTINUOUS
  0
LAYER
  2
123
 70
     0
 62
     7
  6
CONTINUOUS
  0
LAYER
  2
124
 70
     0
 62
     7
  6
CONTINUOUS
  0
LAYER
  2
125
 70
     0
 62
     7
  6
CONTINUOUS
  0
LAYER
  2
126
 70
     0
 62
     7
  6
CONTINUOUS
  0
LAYER
  2
127
 70
     0
 62
     7
  6
CONTINUOUS
  0
ENDTAB
  0
TABLE
  2
STYLE
 70
     3
  0
STYLE
  2
STANDARD
 70
     0
 40
0.0
 41
1.0
 50
0.0
 71
     0
 42
0.2
  3
txt
  4

  0
STYLE
  2
KANJI0
 70
     0
 40
4.5
 41
0.466666667
 50
0.0
 71
     0
 42
4.5
  3

  4
bigfont
  0
STYLE
  2
KANJI1
 70
     0
 40
4.5
 41
0.466666667
 50
0.0
 71
     0
 42
4.5
  3

  4
bigfont
  0
ENDTAB
  0
TABLE
  2
VIEW
 70
     0
  0
ENDTAB
  0
ENDSEC
  0
SECTION
  2
BLOCKS
  0
ENDSEC
  0
SECTION
  2
ENTITIES
  0
LINE
  8
0
  6
CONTINUOUS
 62
     3
 10
23.33
 20
42.325
 11
70.85
 21
42.325
  0
LINE
  8
0
  6
CONTINUOUS
 62
     3
 10
70.85
 20
42.325
 11
70.85
 21
39.85
  0
LINE
  8
0
  6
CONTINUOUS
 62
     3
 10
70.85
 20
39.85
 11
23.33
 21
39.85
  0
LINE
  8
0
  6
CONTINUOUS
 62
     3
 10
23.33
 20
39.85
 11
23.33
 21
42.325
  0
LINE
  8
0
  6
CONTINUOUS
 62
     3
 10
68.87
 20
51.334
 11
68.87
 21
42.424
  0
LINE
  8
0
  6
CONTINUOUS
 62
     3
 10
25.31
 20
42.424
 11
25.31
 21
51.235
  0
LINE
  8
0
  6
CONTINUOUS
 62
     3
 10
25.31
 20
51.235
 11
27.785
 21
51.235
  0
LINE
  8
0
  6
CONTINUOUS
 62
     3
 10
27.785
 20
51.235
 11
27.785
 21
44.5525
  0
ARC
  8
0
  6
CONTINUOUS
 62
     3
 10
28.5275
 20
44.5525
 40
0.7425
 50
180.0
 51
270.0
  0
LINE
  8
0
  6
CONTINUOUS
 62
     3
 10
29.27
 20
46.78
 11
29.27
 21
44.5426
  0
LINE
  8
0
  6
CONTINUOUS
 62
     3
 10
28.5275
 20
43.81
 11
28.5374
 21
43.81
  0
ARC
  8
0
  6
CONTINUOUS
 62
     3
 10
28.5374
 20
44.5426
 40
0.7326
 50
270.0
 51
0.0
  0
LINE
  8
0
  6
CONTINUOUS
 62
     3
 10
31.448
 20
46.78
 11
31.448
 21
45.196
  0
ARC
  8
0
  6
CONTINUOUS
 62
     3
 10
32.834
 20
45.196
 40
1.386
 50
180.0
 51
270.0
  0
LINE
  8
0
  6
CONTINUOUS
 62
     3
 10
32.834
 20
43.81
 11
32.8835
 21
43.81
  0
LINE
  8
0
  6
CONTINUOUS
 62
     3
 10
34.22
 20
45.1465
 11
34.22
 21
46.78
  0
ARC
  8
0
  6
CONTINUOUS
 62
     3
 10
32.8835
 20
45.1465
 40
1.3365
 50
270.0
 51
0.0
  0
ARC
  8
0
  6
CONTINUOUS
 62
     3
 10
65.6525
 20
44.5525
 40
0.7425
 50
270.0
 51
0.0
  0
LINE
  8
0
  6
CONTINUOUS
 62
     3
 10
64.91
 20
46.78
 11
64.91
 21
44.5426
  0
LINE
  8
0
  6
CONTINUOUS
 62
     3
 10
65.6525
 20
43.81
 11
65.6426
 21
43.81
  0
ARC
  8
0
  6
CONTINUOUS
 62
     3
 10
65.6426
 20
44.5426
 40
0.7326
 50
180.0
 51
270.0
  0
LINE
  8
0
  6
CONTINUOUS
 62
     3
 10
62.732
 20
46.78
 11
62.732
 21
45.196
  0
ARC
  8
0
  6
CONTINUOUS
 62
     3
 10
61.346
 20
45.196
 40
1.386
 50
270.0
 51
0.0
  0
LINE
  8
0
  6
CONTINUOUS
 62
     3
 10
61.346
 20
43.81
 11
61.2965
 21
43.81
  0
LINE
  8
0
  6
CONTINUOUS
 62
     3
 10
59.96
 20
45.1465
 11
59.96
 21
46.78
  0
ARC
  8
0
  6
CONTINUOUS
 62
     3
 10
61.2965
 20
45.1465
 40
1.3365
 50
180.0
 51
270.0
  0
LINE
  8
0
  6
CONTINUOUS
 62
     3
 10
33.131
 20
54.898
 11
33.131
 21
55.888
  0
LINE
  8
0
  6
CONTINUOUS
 62
     3
 10
33.131
 20
55.888
 11
32.537
 21
55.888
  0
LINE
  8
0
  6
CONTINUOUS
 62
     3
 10
32.537
 20
55.888
 11
32.537
 21
54.898
  0
LINE
  8
0
  6
CONTINUOUS
 62
     3
 10
61.643
 20
54.898
 11
61.643
 21
55.888
  0
LINE
  8
0
  6
CONTINUOUS
 62
     3
 10
61.643
 20
55.888
 11
61.049
 21
55.888
  0
LINE
  8
0
  6
CONTINUOUS
 62
     3
 10
61.049
 20
55.888
 11
61.049
 21
54.898
  0
LINE
  8
0
  6
CONTINUOUS
 62
     3
 10
34.121
 20
54.898
 11
34.121
 21
56.68
  0
LINE
  8
0
  6
CONTINUOUS
 62
     3
 10
34.121
 20
56.68
 11
60.059
 21
56.68
  0
LINE
  8
0
  6
CONTINUOUS
 62
     3
 10
60.059
 20
56.68
 11
60.059
 21
54.898
  0
LINE
  8
0
  6
CONTINUOUS
 62
     3
 10
68.87
 20
51.334
 11
66.395
 21
51.334
  0
LINE
  8
0
  6
CONTINUOUS
 62
     3
 10
66.395
 20
51.334
 11
66.395
 21
44.5525
  0
LINE
  8
0
  6
CONTINUOUS
 62
     3
 10
66.395
 20
46.78
 11
27.785
 21
46.78
  0
LINE
  8
0
  6
CONTINUOUS
 62
     3
 10
27.785
 20
48.364
 11
66.395
 21
48.364
  0
LINE
  8
0
  6
CONTINUOUS
 62
     3
 10
22.58
 20
53.314
 11
22.58
 21
54.898
  0
LINE
  8
0
  6
CONTINUOUS
 62
     3
 10
71.6
 20
54.898
 11
71.6
 21
53.314
  0
LINE
  8
0
  6
CONTINUOUS
 62
     3
 10
71.63
 20
53.314
 11
22.58
 21
53.314
  0
LINE
  8
0
  6
CONTINUOUS
 62
     3
 10
22.58
 20
54.898
 11
71.63
 21
54.898
  0
LINE
  8
0
  6
CONTINUOUS
 62
     4
 10
15.99
 20
39.85
 11
22.19
 21
39.85
  0
LINE
  8
0
  6
CONTINUOUS
 62
     4
 10
15.99
 20
39.85
 11
8.99
 21
39.85
  0
LINE
  8
0
  6
CONTINUOUS
 62
     4
 10
12.481309813
 20
62.626612478
 11
32.92
 21
62.62
  0
LINE
  8
0
  6
CONTINUOUS
 62
     4
 10
11.94
 20
56.71
 11
32.92
 21
56.71
  0
LINE
  8
0
  6
CONTINUOUS
 62
     4
 10
14.24
 20
56.71
 11
13.592952387
 21
59.124814566
  0
LINE
  8
0
  6
CONTINUOUS
 62
     4
 10
14.24
 20
56.71
 11
14.887047613
 21
59.124814566
  0
LINE
  8
0
  6
CONTINUOUS
 62
     4
 10
14.24
 20
56.71
 11
14.24
 21
62.61
  0
LINE
  8
0
  6
CONTINUOUS
 62
     4
 10
14.24
 20
62.61
 11
14.887047613
 21
60.195185434
  0
LINE
  8
0
  6
CONTINUOUS
 62
     4
 10
14.24
 20
62.61
 11
13.592952387
 21
60.195185434
  0
LINE
  8
0
  6
CONTINUOUS
 62
     4
 10
9.682952387
 20
39.845185434
 11
5.282952387
 21
39.845185434
  0
LINE
  8
0
  6
CONTINUOUS
 62
     4
 10
5.282952387
 20
39.845185434
 11
5.132952387
 21
39.845185434
  0
TEXT
  8
0
  6
CONTINUOUS
 62
     4
 10
13.24
 20
57.359999996
 30
-0.5
 40
4.5
  1
７．５
 50
90.0
 41
0.466666667
 51
0.0
  7
KANJI0
  0
LINE
  8
0
  6
CONTINUOUS
 62
     4
 10
5.892952387
 20
39.855185434
 11
5.245904774
 21
42.27
  0
LINE
  8
0
  6
CONTINUOUS
 62
     4
 10
5.892952387
 20
39.855185434
 11
6.54
 21
42.27
  0
LINE
  8
0
  6
CONTINUOUS
 62
     4
 10
5.892952387
 20
39.855185434
 11
5.892952387
 21
56.715185434
  0
LINE
  8
0
  6
CONTINUOUS
 62
     4
 10
5.892952387
 20
56.715185434
 11
6.54
 21
54.300370869
  0
LINE
  8
0
  6
CONTINUOUS
 62
     4
 10
5.892952387
 20
56.715185434
 11
5.245904774
 21
54.300370869
  0
LINE
  8
0
  6
CONTINUOUS
 62
     4
 10
11.94
 20
56.71
 11
4.97
 21
56.71
  0
LINE
  8
0
  6
CONTINUOUS
 62
     4
 10
17.92
 20
54.895
 11
18.567047613
 21
52.480185434
  0
LINE
  8
0
  6
CONTINUOUS
 62
     4
 10
17.92
 20
54.895
 11
17.272952387
 21
52.480185434
  0
LINE
  8
0
  6
CONTINUOUS
 62
     4
 10
17.92
 20
51.145
 11
17.92
 21
54.895
  0
LINE
  8
0
  6
CONTINUOUS
 62
     4
 10
17.92
 20
54.895
 11
17.92
 21
56.705
  0
LINE
  8
0
  6
CONTINUOUS
 62
     4
 10
17.92
 20
56.705
 11
17.92
 21
60.455
  0
LINE
  8
0
  6
CONTINUOUS
 62
     4
 10
17.92
 20
56.705
 11
17.272952387
 21
59.119814566
  0
LINE
  8
0
  6
CONTINUOUS
 62
     4
 10
17.92
 20
56.705
 11
18.567047613
 21
59.119814566
  0
TEXT
  8
0
  6
CONTINUOUS
 62
     4
 10
16.8
 20
51.989999999
 30
0.0
 40
4.5
  1
２
 50
90.0
 41
0.466666667
 51
0.0
  7
KANJI1
  0
LINE
  8
0
  6
CONTINUOUS
 62
     3
 10
40.568
 20
62.62
 11
40.568
 21
56.68
  0
LINE
  8
0
  6
CONTINUOUS
 62
     3
 10
38.687
 20
56.68
 11
38.687
 21
62.62
  0
LINE
  8
0
  6
CONTINUOUS
 62
     3
 10
38.687
 20
62.62
 11
38.093
 21
62.62
  0
LINE
  8
0
  6
CONTINUOUS
 62
     3
 10
38.093
 20
62.62
 11
38.093
 21
56.68
  0
LINE
  8
0
  6
CONTINUOUS
 62
     3
 10
48.587
 20
56.68
 11
48.587
 21
62.62
  0
LINE
  8
0
  6
CONTINUOUS
 62
     3
 10
48.587
 20
62.62
 11
47.993
 21
62.62
  0
LINE
  8
0
  6
CONTINUOUS
 62
     3
 10
47.993
 20
62.62
 11
47.993
 21
56.68
  0
LINE
  8
0
  6
CONTINUOUS
 62
     3
 10
51.062
 20
56.68
 11
51.062
 21
62.62
  0
LINE
  8
0
  6
CONTINUOUS
 62
     3
 10
51.062
 20
62.62
 11
50.468
 21
62.62
  0
LINE
  8
0
  6
CONTINUOUS
 62
     3
 10
50.468
 20
62.62
 11
50.468
 21
56.68
  0
LINE
  8
0
  6
CONTINUOUS
 62
     3
 10
53.537
 20
56.68
 11
53.537
 21
62.62
  0
LINE
  8
0
  6
CONTINUOUS
 62
     3
 10
53.537
 20
62.62
 11
52.943
 21
62.62
  0
LINE
  8
0
  6
CONTINUOUS
 62
     3
 10
52.943
 20
62.62
 11
52.943
 21
56.68
  0
LINE
  8
0
  6
CONTINUOUS
 62
     3
 10
56.012
 20
56.68
 11
56.012
 21
62.62
  0
LINE
  8
0
  6
CONTINUOUS
 62
     3
 10
56.012
 20
62.62
 11
55.418
 21
62.62
  0
LINE
  8
0
  6
CONTINUOUS
 62
     3
 10
55.418
 20
62.62
 11
55.418
 21
56.68
  0
LINE
  8
0
  6
CONTINUOUS
 62
     3
 10
58.487
 20
56.68
 11
58.487
 21
62.62
  0
LINE
  8
0
  6
CONTINUOUS
 62
     3
 10
58.487
 20
62.62
 11
57.893
 21
62.62
  0
LINE
  8
0
  6
CONTINUOUS
 62
     3
 10
57.893
 20
62.62
 11
57.893
 21
56.68
  0
LINE
  8
0
  6
CONTINUOUS
 62
     3
 10
46.112
 20
56.68
 11
46.112
 21
62.62
  0
LINE
  8
0
  6
CONTINUOUS
 62
     3
 10
46.112
 20
62.62
 11
45.518
 21
62.62
  0
LINE
  8
0
  6
CONTINUOUS
 62
     3
 10
45.518
 20
62.62
 11
45.518
 21
56.68
  0
LINE
  8
0
  6
CONTINUOUS
 62
     3
 10
43.637
 20
56.68
 11
43.637
 21
62.62
  0
LINE
  8
0
  6
CONTINUOUS
 62
     3
 10
43.637
 20
62.62
 11
43.043
 21
62.62
  0
LINE
  8
0
  6
CONTINUOUS
 62
     3
 10
43.043
 20
62.62
 11
43.043
 21
56.68
  0
LINE
  8
0
  6
CONTINUOUS
 62
     3
 10
41.162
 20
56.68
 11
41.162
 21
62.62
  0
LINE
  8
0
  6
CONTINUOUS
 62
     3
 10
41.162
 20
62.62
 11
40.568
 21
62.62
  0
LINE
  8
0
  6
CONTINUOUS
 62
     3
 10
36.187
 20
56.68
 11
36.187
 21
62.62
  0
LINE
  8
0
  6
CONTINUOUS
 62
     3
 10
36.187
 20
62.62
 11
35.593
 21
62.62
  0
LINE
  8
0
  6
CONTINUOUS
 62
     3
 10
35.593
 20
62.62
 11
35.593
 21
56.68
  0
LINE
  8
0
  6
CONTINUOUS
 62
     4
 10
22.73
 20
73.744
 11
24.98
 21
72.994
  0
LINE
  8
0
  6
CONTINUOUS
 62
     4
 10
24.98
 20
74.494
 11
22.73
 21
73.744
  0
LINE
  8
0
  6
CONTINUOUS
 62
     4
 10
71.48
 20
73.744
 11
69.23
 21
72.994
  0
LINE
  8
0
  6
CONTINUOUS
 62
     4
 10
69.23
 20
74.494
 11
71.48
 21
73.744
  0
LINE
  8
0
  6
CONTINUOUS
 62
     4
 10
71.48
 20
73.744
 11
22.73
 21
73.744
  0
LINE
  8
0
  6
CONTINUOUS
 62
     4
 10
22.73
 20
74.494
 11
22.73
 21
55.944
  0
LINE
  8
0
  6
CONTINUOUS
 62
     4
 10
71.48
 20
55.944
 11
71.48
 21
74.494
  0
TEXT
  8
0
  6
CONTINUOUS
 62
     4
 10
44.921
 20
74.225150428
 30
0.0
 40
4.5
  1
４９
 50
0.0
 41
0.466666667
 51
0.0
  7
KANJI1
  0
LINE
  8
0
  6
CONTINUOUS
 62
     4
 10
61.832
 20
67.817332054
 11
62.512
 21
67.830408977
  0
LINE
  8
0
  6
CONTINUOUS
 62
     4
 10
62.272
 20
67.822524361
 11
65.292
 21
67.822524361
  0
LINE
  8
0
  6
CONTINUOUS
 62
     4
 10
56.012
 20
67.82
 11
56.012
 21
64.82
  0
TEXT
  8
0
  6
CONTINUOUS
 62
     4
 10
60.446989539
 20
68.54809154
 30
0.0
 40
4.5
  1
２．５４
 50
0.0
 41
0.466666667
 51
0.0
  7
KANJI1
  0
LINE
  8
0
  6
CONTINUOUS
 62
     4
 10
56.012
 20
67.82
 11
53.597185434
 21
67.172952387
  0
LINE
  8
0
  6
CONTINUOUS
 62
     4
 10
56.012
 20
67.82
 11
53.597185434
 21
68.467047613
  0
LINE
  8
0
  6
CONTINUOUS
 62
     4
 10
56.012
 20
67.82
 11
56.042
 21
67.82
  0
LINE
  8
0
  6
CONTINUOUS
 62
     4
 10
57.892
 20
67.82
 11
61.642
 21
67.82
  0
LINE
  8
0
  6
CONTINUOUS
 62
     4
 10
57.892
 20
67.82
 11
60.306814566
 21
68.467047613
  0
LINE
  8
0
  6
CONTINUOUS
 62
     4
 10
57.892
 20
67.82
 11
60.306814566
 21
67.172952387
  0
LINE
  8
0
  6
CONTINUOUS
 62
     4
 10
57.872
 20
67.82
 11
57.892
 21
67.82
  0
LINE
  8
0
  6
CONTINUOUS
 62
     4
 10
57.892
 20
67.82
 11
57.892
 21
63.317332054
  0
LINE
  8
0
  6
CONTINUOUS
 62
     4
 10
56.012
 20
63.317332054
 11
56.012
 21
67.82
  0
LINE
  8
0
  6
CONTINUOUS
 62
     4
 10
56.012
 20
64.82
 11
56.012
 21
68.817332054
  0
LINE
  8
0
  6
CONTINUOUS
 62
     4
 10
57.892
 20
64.82
 11
57.892
 21
68.817332054
  0
LINE
  8
0
  6
CONTINUOUS
 62
     4
 10
60.442
 20
67.82
 11
70.832
 21
67.800057582
  0
LINE
  8
0
  6
CONTINUOUS
 62
     3
 10
23.33
 20
0.09
 11
70.85
 21
0.09
  0
LINE
  8
0
  6
CONTINUOUS
 62
     3
 10
70.85
 20
0.09
 11
70.85
 21
23.85
  0
LINE
  8
0
  6
CONTINUOUS
 62
     3
 10
70.85
 20
23.85
 11
23.33
 21
23.85
  0
LINE
  8
0
  6
CONTINUOUS
 62
     3
 10
23.33
 20
23.85
 11
23.33
 21
0.09
  0
LINE
  8
0
  6
CONTINUOUS
 62
     3
 10
24.32
 20
1.08
 11
69.86
 21
1.08
  0
LINE
  8
0
  6
CONTINUOUS
 62
     3
 10
69.86
 20
1.08
 11
69.86
 21
22.86
  0
LINE
  8
0
  6
CONTINUOUS
 62
     3
 10
69.86
 20
22.86
 11
24.32
 21
22.86
  0
LINE
  8
0
  6
CONTINUOUS
 62
     3
 10
24.32
 20
22.86
 11
24.32
 21
1.08
  0
LINE
  8
0
  6
CONTINUOUS
 62
     3
 10
44.881263033
 20
11.89159246
 11
44.457859833
 21
7.93982926
  0
LINE
  8
0
  6
CONTINUOUS
 62
     3
 10
39.377021433
 20
12.75408046
 11
39.518155833
 21
12.61294606
  0
LINE
  8
0
  6
CONTINUOUS
 62
     3
 10
41.008553932
 20
17.380561275
 11
44.25758288
 21
17.409507582
  0
LINE
  8
0
  6
CONTINUOUS
 62
     3
 10
43.747805628
 20
7.373152372
 11
39.222921454
 21
7.418669411
  0
LINE
  8
0
  6
CONTINUOUS
 62
     3
 10
39.222921454
 20
7.418669411
 11
39.208148646
 21
7.700551372
  0
LINE
  8
0
  6
CONTINUOUS
 62
     3
 10
39.208148646
 20
7.700551372
 11
40.565853622
 21
8.761002271
  0
POINT
  8
0
  6
CONTINUOUS
 62
     3
 10
40.2311216
 20
16.6210992
  0
LINE
  8
0
  6
CONTINUOUS
 62
     3
 10
39.895849252
 20
16.3858752
 11
39.377021433
 21
12.75408046
  0
LINE
  8
0
  6
CONTINUOUS
 62
     3
 10
43.6810736
 20
15.9938352
 11
44.7003776
 21
17.0915472
  0
LINE
  8
0
  6
CONTINUOUS
 62
     3
 10
44.25758288
 20
17.409507582
 11
44.6219696
 21
17.164927659
  0
LINE
  8
0
  6
CONTINUOUS
 62
     3
 10
43.7594816
 20
13.5631872
 11
44.8571936
 21
12.7006992
  0
LINE
  8
0
  6
CONTINUOUS
 62
     3
 10
44.3867456
 20
12.0734352
 11
44.881263033
 21
11.89159246
  0
LINE
  8
0
  6
CONTINUOUS
 62
     3
 10
43.391511033
 20
11.10751246
 11
44.489223033
 21
12.04840846
  0
LINE
  8
0
  6
CONTINUOUS
 62
     3
 10
39.8390816
 20
16.3074672
 11
40.086106726
 21
16.505087301
  0
LINE
  8
0
  6
CONTINUOUS
 62
     3
 10
44.006506726
 20
15.323512659
 11
45.182626726
 21
16.578040659
  0
LINE
  8
0
  6
CONTINUOUS
 62
     3
 10
45.182626726
 20
16.578040659
 11
45.417850726
 21
16.499632659
  0
LINE
  8
0
  6
CONTINUOUS
 62
     3
 10
45.416985911
 20
16.421224659
 11
45.022397433
 21
12.73839886
  0
LINE
  8
0
  6
CONTINUOUS
 62
     3
 10
43.763257197
 20
13.53816046
 11
43.973298632
 21
15.323512659
  0
LINE
  8
0
  6
CONTINUOUS
 62
     3
 10
40.634962726
 20
17.126896659
 11
41.575858726
 21
15.950776659
  0
LINE
  8
0
  6
CONTINUOUS
 62
     3
 10
40.713370726
 20
17.134013197
 11
41.008553932
 21
17.380561275
  0
LINE
  8
0
  6
CONTINUOUS
 62
     3
 10
43.6810736
 20
15.978652767
 11
41.575858726
 21
15.985260274
  0
LINE
  8
0
  6
CONTINUOUS
 62
     4
 10
39.620749868
 20
8.022818245
 11
39.214882744
 21
7.572057137
  0
LINE
  8
0
  6
CONTINUOUS
 62
     3
 10
42.4265456
 20
8.7018912
 11
43.7594816
 21
7.4473632
  0
LINE
  8
0
  6
CONTINUOUS
 62
     3
 10
43.2106256
 20
9.0155232
 11
44.3867456
 21
7.9178112
  0
LINE
  8
0
  6
CONTINUOUS
 62
     3
 10
40.565853622
 20
8.761002271
 11
42.3481376
 21
8.743073792
  0
LINE
  8
0
  6
CONTINUOUS
 62
     3
 10
43.206112581
 20
9.0939312
 11
43.438555833
 21
11.18592046
  0
LINE
  8
0
  6
CONTINUOUS
 62
     3
 10
42.9754016
 20
11.726168674
 11
40.724371143
 21
11.720762855
  0
LINE
  8
0
  6
CONTINUOUS
 62
     3
 10
39.4470416
 20
12.6222912
 11
41.0152016
 21
13.9552272
  0
LINE
  8
0
  6
CONTINUOUS
 62
     3
 10
40.1527136
 20
12.2302512
 11
41.3288336
 21
13.0927392
  0
LINE
  8
0
  6
CONTINUOUS
 62
     3
 10
41.004395025
 20
13.9552272
 11
41.170435496
 21
15.3665712
  0
LINE
  8
0
  6
CONTINUOUS
 62
     3
 10
40.724371143
 20
11.720762855
 11
40.0743056
 21
12.207172604
  0
LINE
  8
0
  6
CONTINUOUS
 62
     3
 10
43.0538096
 20
13.0927392
 11
43.9162976
 21
12.4654752
  0
LINE
  8
0
  6
CONTINUOUS
 62
     3
 10
41.274495033
 20
13.144869112
 11
42.9754016
 21
13.144489497
  0
LINE
  8
0
  6
CONTINUOUS
 62
     3
 10
42.9754016
 20
11.7598032
 11
43.9162976
 21
12.499078629
  0
LINE
  8
0
  6
CONTINUOUS
 62
     3
 10
40.086106726
 20
16.578040659
 11
41.251025584
 21
15.323512659
  0
LINE
  8
0
  6
CONTINUOUS
 62
     4
 10
23.33
 20
24.6
 11
23.33
 21
30.6
  0
LINE
  8
0
  6
CONTINUOUS
 62
     4
 10
23.33
 20
29.85
 11
25.58
 21
29.1
  0
LINE
  8
0
  6
CONTINUOUS
 62
     4
 10
25.58
 20
30.6
 11
23.33
 21
29.85
  0
LINE
  8
0
  6
CONTINUOUS
 62
     4
 10
23.33
 20
29.85
 11
70.88
 21
29.85
  0
LINE
  8
0
  6
CONTINUOUS
 62
     4
 10
70.88
 20
29.85
 11
68.63
 21
30.6
  0
LINE
  8
0
  6
CONTINUOUS
 62
     4
 10
68.63
 20
29.1
 11
70.88
 21
29.85
  0
LINE
  8
0
  6
CONTINUOUS
 62
     4
 10
70.88
 20
30.6
 11
70.88
 21
24.6
  0
TEXT
  8
0
  6
CONTINUOUS
 62
     4
 10
42.821
 20
30.339
 30
0.0
 40
4.5
  1
４８
 50
0.0
 41
0.466666667
 51
0.0
  7
KANJI1
  0
LINE
  8
0
  6
CONTINUOUS
 62
     3
 10
54.046263033
 20
11.71159246
 11
53.622859833
 21
7.75982926
  0
LINE
  8
0
  6
CONTINUOUS
 62
     3
 10
48.542021433
 20
12.57408046
 11
48.683155833
 21
12.43294606
  0
LINE
  8
0
  6
CONTINUOUS
 62
     3
 10
50.173553932
 20
17.200561275
 11
53.42258288
 21
17.229507582
  0
LINE
  8
0
  6
CONTINUOUS
 62
     3
 10
52.912805628
 20
7.193152372
 11
48.387921454
 21
7.238669411
  0
LINE
  8
0
  6
CONTINUOUS
 62
     3
 10
48.387921454
 20
7.238669411
 11
48.373148646
 21
7.520551372
  0
LINE
  8
0
  6
CONTINUOUS
 62
     3
 10
48.373148646
 20
7.520551372
 11
49.730853622
 21
8.581002271
  0
POINT
  8
0
  6
CONTINUOUS
 62
     3
 10
49.3961216
 20
16.4410992
  0
LINE
  8
0
  6
CONTINUOUS
 62
     3
 10
49.060849252
 20
16.2058752
 11
48.542021433
 21
12.57408046
  0
LINE
  8
0
  6
CONTINUOUS
 62
     3
 10
52.8460736
 20
15.8138352
 11
53.8653776
 21
16.9115472
  0
LINE
  8
0
  6
CONTINUOUS
 62
     3
 10
53.42258288
 20
17.229507582
 11
53.7869696
 21
16.984927659
  0
LINE
  8
0
  6
CONTINUOUS
 62
     3
 10
52.9244816
 20
13.3831872
 11
54.0221936
 21
12.5206992
  0
LINE
  8
0
  6
CONTINUOUS
 62
     3
 10
53.5517456
 20
11.8934352
 11
54.046263033
 21
11.71159246
  0
LINE
  8
0
  6
CONTINUOUS
 62
     3
 10
52.556511033
 20
10.92751246
 11
53.654223033
 21
11.86840846
  0
LINE
  8
0
  6
CONTINUOUS
 62
     3
 10
49.0040816
 20
16.1274672
 11
49.251106726
 21
16.325087301
  0
LINE
  8
0
  6
CONTINUOUS
 62
     3
 10
53.171506726
 20
15.143512659
 11
54.347626726
 21
16.398040659
  0
LINE
  8
0
  6
CONTINUOUS
 62
     3
 10
54.347626726
 20
16.398040659
 11
54.582850726
 21
16.319632659
  0
LINE
  8
0
  6
CONTINUOUS
 62
     3
 10
54.581985911
 20
16.241224659
 11
54.187397433
 21
12.55839886
  0
LINE
  8
0
  6
CONTINUOUS
 62
     3
 10
52.928257197
 20
13.35816046
 11
53.138298632
 21
15.143512659
  0
LINE
  8
0
  6
CONTINUOUS
 62
     3
 10
49.799962726
 20
16.946896659
 11
50.740858726
 21
15.770776659
  0
LINE
  8
0
  6
CONTINUOUS
 62
     3
 10
49.878370726
 20
16.954013197
 11
50.173553932
 21
17.200561275
  0
LINE
  8
0
  6
CONTINUOUS
 62
     3
 10
52.8460736
 20
15.798652767
 11
50.740858726
 21
15.805260274
  0
LINE
  8
0
  6
CONTINUOUS
 62
     4
 10
48.785749868
 20
7.842818245
 11
48.379882744
 21
7.392057137
  0
LINE
  8
0
  6
CONTINUOUS
 62
     3
 10
51.5915456
 20
8.5218912
 11
52.9244816
 21
7.2673632
  0
LINE
  8
0
  6
CONTINUOUS
 62
     3
 10
52.3756256
 20
8.8355232
 11
53.5517456
 21
7.7378112
  0
LINE
  8
0
  6
CONTINUOUS
 62
     3
 10
49.730853622
 20
8.581002271
 11
51.5131376
 21
8.563073792
  0
LINE
  8
0
  6
CONTINUOUS
 62
     3
 10
52.371112581
 20
8.9139312
 11
52.603555833
 21
11.00592046
  0
LINE
  8
0
  6
CONTINUOUS
 62
     3
 10
52.1404016
 20
11.546168674
 11
49.889371143
 21
11.540762855
  0
LINE
  8
0
  6
CONTINUOUS
 62
     3
 10
48.6120416
 20
12.4422912
 11
50.1802016
 21
13.7752272
  0
LINE
  8
0
  6
CONTINUOUS
 62
     3
 10
49.3177136
 20
12.0502512
 11
50.4938336
 21
12.9127392
  0
LINE
  8
0
  6
CONTINUOUS
 62
     3
 10
50.169395025
 20
13.7752272
 11
50.335435496
 21
15.1865712
  0
LINE
  8
0
  6
CONTINUOUS
 62
     3
 10
49.889371143
 20
11.540762855
 11
49.2393056
 21
12.027172604
  0
LINE
  8
0
  6
CONTINUOUS
 62
     3
 10
52.2188096
 20
12.9127392
 11
53.0812976
 21
12.2854752
  0
LINE
  8
0
  6
CONTINUOUS
 62
     3
 10
50.439495033
 20
12.964869112
 11
52.1404016
 21
12.964489497
  0
LINE
  8
0
  6
CONTINUOUS
 62
     3
 10
52.1404016
 20
11.5798032
 11
53.0812976
 21
12.319078629
  0
LINE
  8
0
  6
CONTINUOUS
 62
     3
 10
49.251106726
 20
16.398040659
 11
50.416025584
 21
15.143512659
  0
LINE
  8
0
  6
CONTINUOUS
 62
     3
 10
63.301263033
 20
11.62159246
 11
62.877859833
 21
7.66982926
  0
LINE
  8
0
  6
CONTINUOUS
 62
     3
 10
57.797021433
 20
12.48408046
 11
57.938155833
 21
12.34294606
  0
LINE
  8
0
  6
CONTINUOUS
 62
     3
 10
59.428553932
 20
17.110561275
 11
62.67758288
 21
17.139507582
  0
LINE
  8
0
  6
CONTINUOUS
 62
     3
 10
62.167805628
 20
7.103152372
 11
57.642921454
 21
7.148669411
  0
LINE
  8
0
  6
CONTINUOUS
 62
     3
 10
57.642921454
 20
7.148669411
 11
57.628148646
 21
7.430551372
  0
LINE
  8
0
  6
CONTINUOUS
 62
     3
 10
57.628148646
 20
7.430551372
 11
58.985853622
 21
8.491002271
  0
POINT
  8
0
  6
CONTINUOUS
 62
     3
 10
58.6511216
 20
16.3510992
  0
LINE
  8
0
  6
CONTINUOUS
 62
     3
 10
58.315849252
 20
16.1158752
 11
57.797021433
 21
12.48408046
  0
LINE
  8
0
  6
CONTINUOUS
 62
     3
 10
62.1010736
 20
15.7238352
 11
63.1203776
 21
16.8215472
  0
LINE
  8
0
  6
CONTINUOUS
 62
     3
 10
62.67758288
 20
17.139507582
 11
63.0419696
 21
16.894927659
  0
LINE
  8
0
  6
CONTINUOUS
 62
     3
 10
62.1794816
 20
13.2931872
 11
63.2771936
 21
12.4306992
  0
LINE
  8
0
  6
CONTINUOUS
 62
     3
 10
62.8067456
 20
11.8034352
 11
63.301263033
 21
11.62159246
  0
LINE
  8
0
  6
CONTINUOUS
 62
     3
 10
61.811511033
 20
10.83751246
 11
62.909223033
 21
11.77840846
  0
LINE
  8
0
  6
CONTINUOUS
 62
     3
 10
58.2590816
 20
16.0374672
 11
58.506106726
 21
16.235087301
  0
LINE
  8
0
  6
CONTINUOUS
 62
     3
 10
62.426506726
 20
15.053512659
 11
63.602626726
 21
16.308040659
  0
LINE
  8
0
  6
CONTINUOUS
 62
     3
 10
63.602626726
 20
16.308040659
 11
63.837850726
 21
16.229632659
  0
LINE
  8
0
  6
CONTINUOUS
 62
     3
 10
63.836985911
 20
16.151224659
 11
63.442397433
 21
12.46839886
  0
LINE
  8
0
  6
CONTINUOUS
 62
     3
 10
62.183257197
 20
13.26816046
 11
62.393298632
 21
15.053512659
  0
LINE
  8
0
  6
CONTINUOUS
 62
     3
 10
59.054962726
 20
16.856896659
 11
59.995858726
 21
15.680776659
  0
LINE
  8
0
  6
CONTINUOUS
 62
     3
 10
59.133370726
 20
16.864013197
 11
59.428553932
 21
17.110561275
  0
LINE
  8
0
  6
CONTINUOUS
 62
     3
 10
62.1010736
 20
15.708652767
 11
59.995858726
 21
15.715260274
  0
LINE
  8
0
  6
CONTINUOUS
 62
     4
 10
58.040749868
 20
7.752818245
 11
57.634882744
 21
7.302057137
  0
LINE
  8
0
  6
CONTINUOUS
 62
     3
 10
60.8465456
 20
8.4318912
 11
62.1794816
 21
7.1773632
  0
LINE
  8
0
  6
CONTINUOUS
 62
     3
 10
61.6306256
 20
8.7455232
 11
62.8067456
 21
7.6478112
  0
LINE
  8
0
  6
CONTINUOUS
 62
     3
 10
58.985853622
 20
8.491002271
 11
60.7681376
 21
8.473073792
  0
LINE
  8
0
  6
CONTINUOUS
 62
     3
 10
61.626112581
 20
8.8239312
 11
61.858555833
 21
10.91592046
  0
LINE
  8
0
  6
CONTINUOUS
 62
     3
 10
61.3954016
 20
11.456168674
 11
59.144371143
 21
11.450762855
  0
LINE
  8
0
  6
CONTINUOUS
 62
     3
 10
57.8670416
 20
12.3522912
 11
59.4352016
 21
13.6852272
  0
LINE
  8
0
  6
CONTINUOUS
 62
     3
 10
58.5727136
 20
11.9602512
 11
59.7488336
 21
12.8227392
  0
LINE
  8
0
  6
CONTINUOUS
 62
     3
 10
59.424395025
 20
13.6852272
 11
59.590435496
 21
15.0965712
  0
LINE
  8
0
  6
CONTINUOUS
 62
     3
 10
59.144371143
 20
11.450762855
 11
58.4943056
 21
11.937172604
  0
LINE
  8
0
  6
CONTINUOUS
 62
     3
 10
61.4738096
 20
12.8227392
 11
62.3362976
 21
12.1954752
  0
LINE
  8
0
  6
CONTINUOUS
 62
     3
 10
59.694495033
 20
12.874869112
 11
61.3954016
 21
12.874489497
  0
LINE
  8
0
  6
CONTINUOUS
 62
     3
 10
61.3954016
 20
11.4898032
 11
62.3362976
 21
12.229078629
  0
LINE
  8
0
  6
CONTINUOUS
 62
     3
 10
58.506106726
 20
16.308040659
 11
59.671025584
 21
15.053512659
  0
LINE
  8
0
  6
CONTINUOUS
 62
     3
 10
35.626263033
 20
11.98159246
 11
35.202859833
 21
8.02982926
  0
LINE
  8
0
  6
CONTINUOUS
 62
     3
 10
30.122021433
 20
12.84408046
 11
30.263155833
 21
12.70294606
  0
LINE
  8
0
  6
CONTINUOUS
 62
     3
 10
31.753553932
 20
17.470561275
 11
35.00258288
 21
17.499507582
  0
LINE
  8
0
  6
CONTINUOUS
 62
     3
 10
34.492805628
 20
7.463152372
 11
29.967921454
 21
7.508669411
  0
LINE
  8
0
  6
CONTINUOUS
 62
     3
 10
29.967921454
 20
7.508669411
 11
29.953148646
 21
7.790551372
  0
LINE
  8
0
  6
CONTINUOUS
 62
     3
 10
29.953148646
 20
7.790551372
 11
31.310853622
 21
8.851002271
  0
POINT
  8
0
  6
CONTINUOUS
 62
     3
 10
30.9761216
 20
16.7110992
  0
LINE
  8
0
  6
CONTINUOUS
 62
     3
 10
30.640849252
 20
16.4758752
 11
30.122021433
 21
12.84408046
  0
LINE
  8
0
  6
CONTINUOUS
 62
     3
 10
34.4260736
 20
16.0838352
 11
35.4453776
 21
17.1815472
  0
LINE
  8
0
  6
CONTINUOUS
 62
     3
 10
35.00258288
 20
17.499507582
 11
35.3669696
 21
17.254927659
  0
LINE
  8
0
  6
CONTINUOUS
 62
     3
 10
34.5044816
 20
13.6531872
 11
35.6021936
 21
12.7906992
  0
LINE
  8
0
  6
CONTINUOUS
 62
     3
 10
35.1317456
 20
12.1634352
 11
35.626263033
 21
11.98159246
  0
LINE
  8
0
  6
CONTINUOUS
 62
     3
 10
34.136511033
 20
11.19751246
 11
35.234223033
 21
12.13840846
  0
LINE
  8
0
  6
CONTINUOUS
 62
     3
 10
30.5840816
 20
16.3974672
 11
30.831106726
 21
16.595087301
  0
LINE
  8
0
  6
CONTINUOUS
 62
     3
 10
34.751506726
 20
15.413512659
 11
35.927626726
 21
16.668040659
  0
LINE
  8
0
  6
CONTINUOUS
 62
     3
 10
35.927626726
 20
16.668040659
 11
36.162850726
 21
16.589632659
  0
LINE
  8
0
  6
CONTINUOUS
 62
     3
 10
36.161985911
 20
16.511224659
 11
35.767397433
 21
12.82839886
  0
LINE
  8
0
  6
CONTINUOUS
 62
     3
 10
34.508257197
 20
13.62816046
 11
34.718298632
 21
15.413512659
  0
LINE
  8
0
  6
CONTINUOUS
 62
     3
 10
31.379962726
 20
17.216896659
 11
32.320858726
 21
16.040776659
  0
LINE
  8
0
  6
CONTINUOUS
 62
     3
 10
31.458370726
 20
17.224013197
 11
31.753553932
 21
17.470561275
  0
LINE
  8
0
  6
CONTINUOUS
 62
     3
 10
34.4260736
 20
16.068652767
 11
32.320858726
 21
16.075260274
  0
LINE
  8
0
  6
CONTINUOUS
 62
     4
 10
30.365749868
 20
8.112818245
 11
29.959882744
 21
7.662057137
  0
LINE
  8
0
  6
CONTINUOUS
 62
     3
 10
33.1715456
 20
8.7918912
 11
34.5044816
 21
7.5373632
  0
LINE
  8
0
  6
CONTINUOUS
 62
     3
 10
33.9556256
 20
9.1055232
 11
35.1317456
 21
8.0078112
  0
LINE
  8
0
  6
CONTINUOUS
 62
     3
 10
31.310853622
 20
8.851002271
 11
33.0931376
 21
8.833073792
  0
LINE
  8
0
  6
CONTINUOUS
 62
     3
 10
33.951112581
 20
9.1839312
 11
34.183555833
 21
11.27592046
  0
LINE
  8
0
  6
CONTINUOUS
 62
     3
 10
33.7204016
 20
11.816168674
 11
31.469371143
 21
11.810762855
  0
LINE
  8
0
  6
CONTINUOUS
 62
     3
 10
30.1920416
 20
12.7122912
 11
31.7602016
 21
14.0452272
  0
LINE
  8
0
  6
CONTINUOUS
 62
     3
 10
30.8977136
 20
12.3202512
 11
32.0738336
 21
13.1827392
  0
LINE
  8
0
  6
CONTINUOUS
 62
     3
 10
31.749395025
 20
14.0452272
 11
31.915435496
 21
15.4565712
  0
LINE
  8
0
  6
CONTINUOUS
 62
     3
 10
31.469371143
 20
11.810762855
 11
30.8193056
 21
12.297172604
  0
LINE
  8
0
  6
CONTINUOUS
 62
     3
 10
33.7988096
 20
13.1827392
 11
34.6612976
 21
12.5554752
  0
LINE
  8
0
  6
CONTINUOUS
 62
     3
 10
32.019495033
 20
13.234869112
 11
33.7204016
 21
13.234489497
  0
LINE
  8
0
  6
CONTINUOUS
 62
     3
 10
33.7204016
 20
11.8498032
 11
34.6612976
 21
12.589078629
  0
LINE
  8
0
  6
CONTINUOUS
 62
     3
 10
30.831106726
 20
16.668040659
 11
31.996025584
 21
15.413512659
  0
CIRCLE
  8
0
  6
CONTINUOUS
 62
     3
 10
36.7271552
 20
7.7836464
 40
0.78408
  0
CIRCLE
  8
0
  6
CONTINUOUS
 62
     3
 10
45.9821552
 20
7.6936464
 40
0.78408
  0
CIRCLE
  8
0
  6
CONTINUOUS
 62
     3
 10
55.1471552
 20
7.5136464
 40
0.78408
  0
CIRCLE
  8
0
  6
CONTINUOUS
 62
     3
 10
64.4021552
 20
7.4236464
 40
0.78408
  0
LINE
  8
0
  6
CONTINUOUS
 62
     4
 10
6.93
 20
23.85
 11
6.18
 21
21.6
  0
LINE
  8
0
  6
CONTINUOUS
 62
     4
 10
7.68
 20
21.6
 11
6.93
 21
23.85
  0
LINE
  8
0
  6
CONTINUOUS
 62
     4
 10
6.93
 20
23.85
 11
6.93
 21
0.0
  0
LINE
  8
0
  6
CONTINUOUS
 62
     4
 10
6.93
 20
0.0
 11
6.18
 21
2.25
  0
LINE
  8
0
  6
CONTINUOUS
 62
     4
 10
7.68
 20
2.25
 11
6.93
 21
0.0
  0
TEXT
  8
0
  6
CONTINUOUS
 62
     4
 10
6.231
 20
9.306
 30
0.0
 40
4.5
  1
２４
 50
90.0
 41
0.466666667
 51
0.0
  7
KANJI1
  0
LINE
  8
0
  6
CONTINUOUS
 62
     4
 10
6.18
 20
0.0
 11
22.767805628
 21
0.0
  0
LINE
  8
0
  6
CONTINUOUS
 62
     4
 10
22.767805628
 20
23.85
 11
6.18
 21
23.85
  0
LINE
  8
0
  6
CONTINUOUS
 62
     4
 10
52.262
 20
67.82
 11
57.892
 21
67.82
  0
LINE
  8
0
  6
CONTINUOUS
 62
     4
 10
16.24
 20
54.895
 11
20.57
 21
54.895
  0
LINE
  8
0
  6
CONTINUOUS
 62
     3
 10
117.61
 20
39.85
 11
117.61
 21
42.325
  0
LINE
  8
0
  6
CONTINUOUS
 62
     3
 10
117.61
 20
42.325
 11
93.85
 21
42.325
  0
LINE
  8
0
  6
CONTINUOUS
 62
     3
 10
93.85
 20
42.325
 11
93.85
 21
39.85
  0
LINE
  8
0
  6
CONTINUOUS
 62
     3
 10
93.85
 20
39.85
 11
117.61
 21
39.85
  0
LINE
  8
0
  6
CONTINUOUS
 62
     3
 10
109.69
 20
46.978
 11
109.69
 21
42.325
  0
LINE
  8
0
  6
CONTINUOUS
 62
     3
 10
101.77
 20
42.325
 11
101.77
 21
46.978
  0
LINE
  8
0
  6
CONTINUOUS
 62
     3
 10
100.285
 20
45.988
 11
97.315
 21
45.988
  0
LINE
  8
0
  6
CONTINUOUS
 62
     3
 10
97.315
 20
45.988
 11
97.315
 21
42.325
  0
LINE
  8
0
  6
CONTINUOUS
 62
     3
 10
100.285
 20
42.325
 11
100.285
 21
45.988
  0
LINE
  8
0
  6
CONTINUOUS
 62
     3
 10
101.77
 20
46.483
 11
109.69
 21
46.483
  0
LINE
  8
0
  6
CONTINUOUS
 62
     3
 10
109.69
 20
45.988
 11
101.77
 21
45.988
  0
LINE
  8
0
  6
CONTINUOUS
 62
     3
 10
97.315
 20
45.493
 11
100.285
 21
45.493
  0
LINE
  8
0
  6
CONTINUOUS
 62
     3
 10
101.77
 20
45.493
 11
109.69
 21
45.493
  0
LINE
  8
0
  6
CONTINUOUS
 62
     3
 10
97.315
 20
44.998
 11
100.285
 21
44.998
  0
LINE
  8
0
  6
CONTINUOUS
 62
     3
 10
97.315
 20
44.503
 11
100.285
 21
44.503
  0
LINE
  8
0
  6
CONTINUOUS
 62
     3
 10
97.315
 20
44.008
 11
100.285
 21
44.008
  0
LINE
  8
0
  6
CONTINUOUS
 62
     3
 10
97.315
 20
43.513
 11
100.285
 21
43.513
  0
LINE
  8
0
  6
CONTINUOUS
 62
     3
 10
97.315
 20
43.018
 11
100.285
 21
43.018
  0
LINE
  8
0
  6
CONTINUOUS
 62
     3
 10
101.77
 20
44.998
 11
109.69
 21
44.998
  0
LINE
  8
0
  6
CONTINUOUS
 62
     3
 10
101.77
 20
44.503
 11
109.69
 21
44.503
  0
LINE
  8
0
  6
CONTINUOUS
 62
     3
 10
101.77
 20
44.008
 11
109.69
 21
44.008
  0
LINE
  8
0
  6
CONTINUOUS
 62
     3
 10
101.77
 20
43.513
 11
109.69
 21
43.513
  0
LINE
  8
0
  6
CONTINUOUS
 62
     3
 10
101.77
 20
43.018
 11
109.69
 21
43.018
  0
LINE
  8
0
  6
CONTINUOUS
 62
     3
 10
114.145
 20
45.988
 11
111.175
 21
45.988
  0
LINE
  8
0
  6
CONTINUOUS
 62
     3
 10
111.175
 20
45.988
 11
111.175
 21
42.325
  0
LINE
  8
0
  6
CONTINUOUS
 62
     3
 10
114.145
 20
42.325
 11
114.145
 21
45.988
  0
LINE
  8
0
  6
CONTINUOUS
 62
     3
 10
111.175
 20
45.493
 11
114.145
 21
45.493
  0
LINE
  8
0
  6
CONTINUOUS
 62
     3
 10
111.175
 20
44.998
 11
114.145
 21
44.998
  0
LINE
  8
0
  6
CONTINUOUS
 62
     3
 10
111.175
 20
44.503
 11
114.145
 21
44.503
  0
LINE
  8
0
  6
CONTINUOUS
 62
     3
 10
111.175
 20
44.008
 11
114.145
 21
44.008
  0
LINE
  8
0
  6
CONTINUOUS
 62
     3
 10
111.175
 20
43.513
 11
114.145
 21
43.513
  0
LINE
  8
0
  6
CONTINUOUS
 62
     3
 10
111.175
 20
43.018
 11
114.145
 21
43.018
  0
LINE
  8
0
  6
CONTINUOUS
 62
     3
 10
93.85
 20
46.978
 11
93.85
 21
48.562
  0
LINE
  8
0
  6
CONTINUOUS
 62
     3
 10
117.61
 20
46.978
 11
117.61
 21
48.562
  0
LINE
  8
0
  6
CONTINUOUS
 62
     3
 10
93.85
 20
53.314
 11
117.61
 21
53.314
  0
LINE
  8
0
  6
CONTINUOUS
 62
     3
 10
93.85
 20
54.898
 11
117.61
 21
54.898
  0
LINE
  8
0
  6
CONTINUOUS
 62
     3
 10
93.85
 20
53.314
 11
93.85
 21
54.898
  0
LINE
  8
0
  6
CONTINUOUS
 62
     3
 10
117.61
 20
53.314
 11
117.61
 21
54.898
  0
LINE
  8
0
  6
CONTINUOUS
 62
     3
 10
94.84
 20
42.325
 11
94.84
 21
51.235
  0
LINE
  8
0
  6
CONTINUOUS
 62
     3
 10
94.84
 20
51.235
 11
95.83
 21
51.235
  0
LINE
  8
0
  6
CONTINUOUS
 62
     3
 10
95.83
 20
51.235
 11
97.117
 21
48.562
  0
LINE
  8
0
  6
CONTINUOUS
 62
     3
 10
96.028
 20
48.562
 11
96.028
 21
42.325
  0
LINE
  8
0
  6
CONTINUOUS
 62
     3
 10
93.85
 20
48.562
 11
94.84
 21
48.562
  0
LINE
  8
0
  6
CONTINUOUS
 62
     3
 10
93.85
 20
46.978
 11
94.84
 21
46.978
  0
LINE
  8
0
  6
CONTINUOUS
 62
     3
 10
116.62
 20
42.325
 11
116.62
 21
51.235
  0
LINE
  8
0
  6
CONTINUOUS
 62
     3
 10
116.62
 20
51.235
 11
115.63
 21
51.235
  0
LINE
  8
0
  6
CONTINUOUS
 62
     3
 10
115.63
 20
51.235
 11
114.244
 21
48.562
  0
LINE
  8
0
  6
CONTINUOUS
 62
     3
 10
115.432
 20
48.562
 11
115.432
 21
42.325
  0
LINE
  8
0
  6
CONTINUOUS
 62
     3
 10
116.62
 20
48.562
 11
117.61
 21
48.562
  0
LINE
  8
0
  6
CONTINUOUS
 62
     3
 10
96.028
 20
48.562
 11
115.432
 21
48.562
  0
LINE
  8
0
  6
CONTINUOUS
 62
     3
 10
116.62
 20
46.978
 11
117.61
 21
46.978
  0
LINE
  8
0
  6
CONTINUOUS
 62
     3
 10
96.028
 20
46.978
 11
115.432
 21
46.978
  0
LINE
  8
0
  6
CONTINUOUS
 62
     3
 10
116.62
 20
54.898
 11
116.62
 21
56.878
  0
LINE
  8
0
  6
CONTINUOUS
 62
     3
 10
116.62
 20
56.878
 11
114.145
 21
56.878
  0
LINE
  8
0
  6
CONTINUOUS
 62
     3
 10
114.145
 20
56.878
 11
114.145
 21
54.898
  0
LINE
  8
0
  6
CONTINUOUS
 62
     3
 10
115.036
 20
56.878
 11
115.036
 21
62.818
  0
LINE
  8
0
  6
CONTINUOUS
 62
     3
 10
115.036
 20
62.818
 11
115.63
 21
62.818
  0
LINE
  8
0
  6
CONTINUOUS
 62
     3
 10
115.63
 20
62.818
 11
115.63
 21
56.878
  0
LINE
  8
0
  6
CONTINUOUS
 62
     4
 10
93.1
 20
39.829
 11
82.6
 21
39.829
  0
LINE
  8
0
  6
CONTINUOUS
 62
     4
 10
83.35
 20
39.829
 11
82.6
 21
42.079
  0
LINE
  8
0
  6
CONTINUOUS
 62
     4
 10
84.1
 20
42.079
 11
83.35
 21
39.829
  0
LINE
  8
0
  6
CONTINUOUS
 62
     4
 10
83.35
 20
39.829
 11
83.35
 21
62.779
  0
LINE
  8
0
  6
CONTINUOUS
 62
     4
 10
83.35
 20
62.779
 11
82.6
 21
60.529
  0
LINE
  8
0
  6
CONTINUOUS
 62
     4
 10
84.1
 20
60.529
 11
83.2
 21
62.779
  0
LINE
  8
0
  6
CONTINUOUS
 62
     4
 10
82.45
 20
62.779
 11
114.4
 21
62.779
  0
LINE
  8
0
  6
CONTINUOUS
 62
     4
 10
93.1
 20
42.379
 11
89.05
 21
42.379
  0
LINE
  8
0
  6
CONTINUOUS
 62
     4
 10
89.8
 20
42.379
 11
89.05
 21
44.629
  0
LINE
  8
0
  6
CONTINUOUS
 62
     4
 10
90.55
 20
44.629
 11
89.8
 21
42.379
  0
LINE
  8
0
  6
CONTINUOUS
 62
     4
 10
89.8
 20
42.379
 11
89.779253454
 21
51.403887851
  0
LINE
  8
0
  6
CONTINUOUS
 62
     4
 10
89.8
 20
39.829
 11
89.05
 21
37.579
  0
LINE
  8
0
  6
CONTINUOUS
 62
     4
 10
90.55
 20
37.579
 11
89.8
 21
39.829
  0
TEXT
  8
0
  6
CONTINUOUS
 62
     4
 10
82.556685366
 20
49.72
 30
0.0
 40
4.5
  1
２４
 50
90.0
 41
0.466666667
 51
0.0
  7
KANJI1
  0
TEXT
  8
0
  6
CONTINUOUS
 62
     4
 10
88.9509656
 20
45.82
 30
0.0
 40
4.5
  1
２．５
 50
90.0
 41
0.466666667
 51
0.0
  7
KANJI1
  0
LINE
  8
0
  6
CONTINUOUS
 62
     4
 10
89.8
 20
42.379
 11
89.8
 21
33.829
  0
LINE
  8
0
  6
CONTINUOUS
 62
     3
 10
32.573161786
 20
49.981244898
 11
32.574248609
 21
51.777366755
  0
LINE
  8
0
  6
CONTINUOUS
 62
     3
 10
33.173908377
 20
51.76488499
 11
33.170207939
 21
49.981244898
  0
LINE
  8
0
  6
CONTINUOUS
 62
     3
 10
34.165284862
 20
49.981244898
 11
31.578084863
 21
49.981244898
  0
LINE
  8
0
  6
CONTINUOUS
 62
     3
 10
34.162015218
 20
51.777366738
 11
31.574815219
 21
51.777366738
  0
LINE
  8
0
  6
CONTINUOUS
 62
     3
 10
34.17450811
 20
51.789848525
 11
34.17450811
 21
53.381971601
  0
LINE
  8
0
  6
CONTINUOUS
 62
     3
 10
31.574815219
 20
53.369489836
 11
31.574815219
 21
51.77736676
  0
LINE
  8
0
  6
CONTINUOUS
 62
     3
 10
31.578084863
 20
49.981244898
 11
31.578084863
 21
48.389121822
  0
LINE
  8
0
  6
CONTINUOUS
 62
     3
 10
34.165284862
 20
48.389121822
 11
34.165284862
 21
49.981244898
  0
LINE
  8
0
  6
CONTINUOUS
 62
     3
 10
62.568371609
 20
51.777366738
 11
59.98117161
 21
51.777366738
  0
LINE
  8
0
  6
CONTINUOUS
 62
     3
 10
62.571641253
 20
49.981244898
 11
59.984441254
 21
49.981244898
  0
LINE
  8
0
  6
CONTINUOUS
 62
     3
 10
61.580264768
 20
51.76488499
 11
61.57656433
 21
49.981244898
  0
LINE
  8
0
  6
CONTINUOUS
 62
     3
 10
60.979518177
 20
49.981244898
 11
60.980605
 21
51.777366755
  0
LINE
  8
0
  6
CONTINUOUS
 62
     3
 10
62.580864501
 20
51.789848525
 11
62.580864501
 21
53.381971601
  0
LINE
  8
0
  6
CONTINUOUS
 62
     3
 10
59.98117161
 20
53.369489836
 11
59.98117161
 21
51.77736676
  0
LINE
  8
0
  6
CONTINUOUS
 62
     3
 10
59.984441254
 20
49.981244898
 11
59.984441254
 21
48.389121822
  0
LINE
  8
0
  6
CONTINUOUS
 62
     3
 10
62.571641253
 20
48.389121822
 11
62.571641253
 21
49.981244898
  0
ARC
  8
0
  6
CONTINUOUS
 62
     3
 10
101.785644187
 20
53.480662465
 40
1.514804468
 50
233.130102354
 51
306.869897646
  0
ARC
  8
0
  6
CONTINUOUS
 62
     3
 10
101.785644187
 20
51.700767215
 40
1.484682262
 50
52.253194613
 51
127.746805387
  0
ARC
  8
0
  6
CONTINUOUS
 62
     3
 10
101.785644187
 20
50.299573082
 40
1.514804468
 50
233.130102354
 51
306.869897646
  0
ARC
  8
0
  6
CONTINUOUS
 62
     3
 10
101.785644187
 20
48.519677831
 40
1.484682262
 50
52.253194613
 51
127.746805387
  0
LINE
  8
0
  6
CONTINUOUS
 62
     3
 10
94.514582739
 20
53.177701572
 11
95.87790676
 21
53.177701572
  0
LINE
  8
0
  6
CONTINUOUS
 62
     3
 10
94.514582739
 20
52.117338444
 11
96.029387207
 21
52.117338444
  0
LINE
  8
0
  6
CONTINUOUS
 62
     3
 10
94.514582739
 20
49.996612188
 11
94.875143188
 21
49.982249836
  0
LINE
  8
0
  6
CONTINUOUS
 62
     3
 10
94.514582739
 20
48.93624906
 11
94.838432815
 21
48.938906545
  0
LINE
  8
0
  6
CONTINUOUS
 62
     3
 10
94.514582739
 20
48.93624906
 11
94.514582739
 21
49.996612188
  0
LINE
  8
0
  6
CONTINUOUS
 62
     3
 10
94.514582739
 20
52.117338444
 11
94.514582739
 21
53.177701572
  0
LINE
  8
0
  6
CONTINUOUS
 62
     3
 10
96.180867654
 20
52.117338444
 11
96.178648777
 21
50.522814294
  0
LINE
  8
0
  6
CONTINUOUS
 62
     3
 10
101.331202847
 20
51.965857997
 11
101.331202847
 21
49.845131741
  0
LINE
  8
0
  6
CONTINUOUS
 62
     3
 10
98.604554804
 20
52.117338444
 11
98.604554804
 21
49.845131741
  0
LINE
  8
0
  6
CONTINUOUS
 62
     3
 10
100.876761506
 20
49.996612188
 11
100.876761506
 21
52.117338444
  0
LINE
  8
0
  6
CONTINUOUS
 62
     3
 10
98.150113463
 20
49.996612188
 11
98.150113463
 21
52.117338444
  0
LINE
  8
0
  6
CONTINUOUS
 62
     3
 10
95.73621091
 20
51.230030408
 11
95.726426314
 21
52.117338444
  0
ARC
  8
0
  6
CONTINUOUS
 62
     3
 10
97.998633016
 20
50.754014422
 40
1.975063387
 50
237.528807709
 51
302.471192291
  0
ARC
  8
0
  6
CONTINUOUS
 62
     3
 10
97.998633016
 20
48.140976714
 40
1.880204328
 50
55.669782805
 51
124.330217196
  0
ARC
  8
0
  6
CONTINUOUS
 62
     3
 10
99.967878825
 20
50.148092635
 40
1.396580714
 50
229.398705355
 51
310.601294645
  0
ARC
  8
0
  6
CONTINUOUS
 62
     3
 10
99.967878825
 20
48.633288166
 40
1.396580714
 50
49.398705355
 51
130.601294645
  0
ARC
  8
0
  6
CONTINUOUS
 62
     3
 10
97.998633016
 20
53.935103806
 40
1.975063387
 50
237.528807709
 51
302.471192291
  0
ARC
  8
0
  6
CONTINUOUS
 62
     3
 10
97.998633016
 20
51.322066098
 40
1.880204328
 50
55.669782805
 51
124.330217196
  0
ARC
  8
0
  6
CONTINUOUS
 62
     3
 10
96.180867654
 20
54.010844029
 40
1.89955514
 50
265.42607874
 51
293.498565676
  0
ARC
  8
0
  6
CONTINUOUS
 62
     3
 10
96.105127431
 20
51.965857997
 40
1.232961509
 50
47.489552922
 51
100.619655276
  0
ARC
  8
0
  6
CONTINUOUS
 62
     3
 10
99.967878825
 20
53.329182019
 40
1.396580714
 50
229.398705355
 51
310.601294645
  0
ARC
  8
0
  6
CONTINUOUS
 62
     3
 10
99.967878825
 20
51.81437755
 40
1.396580714
 50
49.398705355
 51
130.601294645
  0
LINE
  8
0
  6
CONTINUOUS
 62
     3
 10
115.79039587
 20
51.922647223
 11
115.787977042
 21
51.262737332
  0
LINE
  8
0
  6
CONTINUOUS
 62
     3
 10
103.754889996
 20
51.965857997
 11
103.754889996
 21
49.845131741
  0
LINE
  8
0
  6
CONTINUOUS
 62
     3
 10
115.34623289
 20
50.654390788
 11
115.33595453
 21
52.07412767
  0
LINE
  8
0
  6
CONTINUOUS
 62
     3
 10
103.300448656
 20
49.996612188
 11
103.300448656
 21
52.117338444
  0
ARC
  8
0
  6
CONTINUOUS
 62
     3
 10
103.679149773
 20
50.451053528
 40
1.681705876
 50
234.162347046
 51
305.837652954
  0
ARC
  8
0
  6
CONTINUOUS
 62
     3
 10
103.679149773
 20
48.481807719
 40
1.561424706
 50
50.906141114
 51
129.093858886
  0
LINE
  8
0
  6
CONTINUOUS
 62
     3
 10
116.611770492
 20
49.950617445
 11
117.002239445
 21
49.953401414
  0
LINE
  8
0
  6
CONTINUOUS
 62
     3
 10
116.635648433
 20
48.745852808
 11
117.002239445
 21
48.741557839
  0
LINE
  8
0
  6
CONTINUOUS
 62
     3
 10
117.002239445
 20
49.953401414
 11
117.002239445
 21
48.741557839
  0
ARC
  8
0
  6
CONTINUOUS
 62
     3
 10
115.5631752
 20
54.119113702
 40
2.208187996
 50
239.036243468
 51
275.906141114
  0
ARC
  8
0
  6
CONTINUOUS
 62
     3
 10
115.638915423
 20
50.900154207
 40
2.280082659
 50
78.503436982
 51
122.106255955
  0
ARC
  8
0
  6
CONTINUOUS
 62
     3
 10
103.679149773
 20
53.632142912
 40
1.681705876
 50
234.162347046
 51
305.837652954
  0
ARC
  8
0
  6
CONTINUOUS
 62
     3
 10
103.679149773
 20
51.662897103
 40
1.561424706
 50
50.906141114
 51
129.093858886
  0
LINE
  8
0
  6
CONTINUOUS
 62
     3
 10
117.002239445
 20
53.134490798
 11
117.002239445
 21
51.922647223
  0
LINE
  8
0
  6
CONTINUOUS
 62
     3
 10
115.79039587
 20
51.922647223
 11
117.002239445
 21
51.922647223
  0
LINE
  8
0
  6
CONTINUOUS
 62
     3
 10
116.093356764
 20
53.134490798
 11
117.002239445
 21
53.134490798
  0
ARC
  8
0
  6
CONTINUOUS
 62
     3
 10
107.70039875
 20
50.130654585
 40
1.396580714
 50
229.398705355
 51
310.601294645
  0
ARC
  8
0
  6
CONTINUOUS
 62
     3
 10
109.518164112
 20
50.282135032
 40
1.514804468
 50
233.130102354
 51
306.869897646
  0
ARC
  8
0
  6
CONTINUOUS
 62
     3
 10
111.411669698
 20
50.433615478
 40
1.681705876
 50
234.162347046
 51
305.837652954
  0
ARC
  8
0
  6
CONTINUOUS
 62
     3
 10
107.70039875
 20
51.7969395
 40
1.396580714
 50
49.398705355
 51
130.601294645
  0
ARC
  8
0
  6
CONTINUOUS
 62
     3
 10
107.70039875
 20
53.311743969
 40
1.396580714
 50
229.398705355
 51
310.601294645
  0
ARC
  8
0
  6
CONTINUOUS
 62
     3
 10
107.70039875
 20
48.615850116
 40
1.396580714
 50
49.398705355
 51
130.601294645
  0
ARC
  8
0
  6
CONTINUOUS
 62
     3
 10
109.518164112
 20
48.502239781
 40
1.484682262
 50
52.253194613
 51
127.746805387
  0
ARC
  8
0
  6
CONTINUOUS
 62
     3
 10
109.518164112
 20
51.683329165
 40
1.484682262
 50
52.253194613
 51
127.746805387
  0
ARC
  8
0
  6
CONTINUOUS
 62
     3
 10
109.518164112
 20
53.463224415
 40
1.514804468
 50
233.130102354
 51
306.869897646
  0
LINE
  8
0
  6
CONTINUOUS
 62
     3
 10
108.609281431
 20
49.979174138
 11
108.609281431
 21
52.099900394
  0
LINE
  8
0
  6
CONTINUOUS
 62
     3
 10
109.063722772
 20
51.948419947
 11
109.063722772
 21
49.827693691
  0
LINE
  8
0
  6
CONTINUOUS
 62
     3
 10
111.032968581
 20
49.979174138
 11
111.032968581
 21
52.099900394
  0
LINE
  8
0
  6
CONTINUOUS
 62
     3
 10
111.487409921
 20
51.948419947
 11
111.487409921
 21
49.827693691
  0
ARC
  8
0
  6
CONTINUOUS
 62
     3
 10
111.411669698
 20
48.464369669
 40
1.561424706
 50
50.906141114
 51
129.093858886
  0
ARC
  8
0
  6
CONTINUOUS
 62
     3
 10
111.411669698
 20
51.645459053
 40
1.561424706
 50
50.906141114
 51
129.093858886
  0
ARC
  8
0
  6
CONTINUOUS
 62
     3
 10
111.411669698
 20
53.614704862
 40
1.681705876
 50
234.162347046
 51
305.837652954
  0
ARC
  8
0
  6
CONTINUOUS
 62
     3
 10
105.731152941
 20
51.304628048
 40
1.880204328
 50
55.669782805
 51
124.330217196
  0
ARC
  8
0
  6
CONTINUOUS
 62
     3
 10
105.731152941
 20
53.917665756
 40
1.975063387
 50
237.528807709
 51
302.471192291
  0
LINE
  8
0
  6
CONTINUOUS
 62
     3
 10
106.337074729
 20
52.099900394
 11
106.337074729
 21
49.827693691
  0
LINE
  8
0
  6
CONTINUOUS
 62
     3
 10
105.882633388
 20
49.979174138
 11
105.882633388
 21
52.099900394
  0
ARC
  8
0
  6
CONTINUOUS
 62
     3
 10
105.731152941
 20
48.123538664
 40
1.880204328
 50
55.669782805
 51
124.330217196
  0
ARC
  8
0
  6
CONTINUOUS
 62
     3
 10
105.731152941
 20
50.736576372
 40
1.975063387
 50
237.528807709
 51
302.471192291
  0
ARC
  8
0
  6
CONTINUOUS
 62
     3
 10
113.387158904
 20
50.448077849
 40
1.681705876
 50
234.162347046
 51
305.837652954
  0
LINE
  8
0
  6
CONTINUOUS
 62
     3
 10
113.008457787
 20
49.993636509
 11
113.008457787
 21
52.114362765
  0
LINE
  8
0
  6
CONTINUOUS
 62
     3
 10
113.462899127
 20
51.962882318
 11
113.462899127
 21
49.842156062
  0
ARC
  8
0
  6
CONTINUOUS
 62
     3
 10
113.387158904
 20
48.47883204
 40
1.561424706
 50
50.906141114
 51
129.093858886
  0
ARC
  8
0
  6
CONTINUOUS
 62
     3
 10
113.387158904
 20
51.659921424
 40
1.561424706
 50
50.906141114
 51
129.093858886
  0
ARC
  8
0
  6
CONTINUOUS
 62
     3
 10
113.387158904
 20
53.629167233
 40
1.681705876
 50
234.162347046
 51
305.837652954
  0
LINE
  8
0
  6
CONTINUOUS
 62
     3
 10
96.945625641
 20
49.69266541
 11
96.44343824
 21
49.94809579
  0
LINE
  8
0
  6
CONTINUOUS
 62
     3
 10
114.379171047
 20
49.688193549
 11
114.92836668
 21
49.926760746
  0
LINE
  8
0
  6
CONTINUOUS
 62
     3
 10
107.145
 20
54.898
 11
107.145
 21
59.898
  0
LINE
  8
0
  6
CONTINUOUS
 62
     3
 10
107.145
 20
59.898
 11
100.145
 21
59.898
  0
LINE
  8
0
  6
CONTINUOUS
 62
     3
 10
100.145
 20
59.898
 11
100.145
 21
54.898
  0
TEXT
  8
0
  6
CONTINUOUS
 62
     4
 10
4.2
 20
46.334999997
 30
0.0
 40
4.5
  1
２３
 50
90.0
 41
0.466666667
 51
0.0
  7
KANJI1
  0
ENDSEC
  0
EOF
