  0
SECTION
  2
HEADER
  9
$ACADVER
  1
AC1024
  9
$ACADMAINTVER
 70
    38
  9
$DWGCODEPAGE
  3
ANSI_932
  9
$LASTSAVEDBY
  1
user1
  9
$INSBASE
 10
0.0
 20
0.0
 30
0.0
  9
$EXTMIN
 10
-1.558815053331234E+64
 20
-5.941616374145985E+73
 30
0.0
  9
$EXTMAX
 10
3.329982210498346E+99
 20
1.269263905633295E+99
 30
0.3
  9
$LIMMIN
 10
0.0
 20
0.0
  9
$LIMMAX
 10
12.0
 20
9.0
  9
$ORTHOMODE
 70
     0
  9
$REGENMODE
 70
     1
  9
$FILLMODE
 70
     1
  9
$QTEXTMODE
 70
     0
  9
$MIRRTEXT
 70
     1
  9
$LTSCALE
 40
1.0
  9
$ATTMODE
 70
     1
  9
$TEXTSIZE
 40
0.2
  9
$TRACEWID
 40
0.05
  9
$TEXTSTYLE
  7
STANDARD
  9
$CLAYER
  8
0
  9
$CELTYPE
  6
CONTINUOUS
  9
$CECOLOR
 62
   256
  9
$CELTSCALE
 40
1.0
  9
$DISPSILH
 70
     0
  9
$DIMSCALE
 40
1.0
  9
$DIMASZ
 40
0.18
  9
$DIMEXO
 40
0.0625
  9
$DIMDLI
 40
0.38
  9
$DIMRND
 40
0.0
  9
$DIMDLE
 40
0.0
  9
$DIMEXE
 40
0.18
  9
$DIMTP
 40
0.0
  9
$DIMTM
 40
0.0
  9
$DIMTXT
 40
0.18
  9
$DIMCEN
 40
0.09
  9
$DIMTSZ
 40
0.0
  9
$DIMTOL
 70
     0
  9
$DIMLIM
 70
     0
  9
$DIMTIH
 70
     1
  9
$DIMTOH
 70
     1
  9
$DIMSE1
 70
     0
  9
$DIMSE2
 70
     0
  9
$DIMTAD
 70
     0
  9
$DIMZIN
 70
     0
  9
$DIMBLK
  1

  9
$DIMASO
 70
     1
  9
$DIMSHO
 70
     1
  9
$DIMPOST
  1

  9
$DIMAPOST
  1

  9
$DIMALT
 70
     0
  9
$DIMALTD
 70
     2
  9
$DIMALTF
 40
25.4
  9
$DIMLFAC
 40
1.0
  9
$DIMTOFL
 70
     0
  9
$DIMTVP
 40
0.0
  9
$DIMTIX
 70
     0
  9
$DIMSOXD
 70
     0
  9
$DIMSAH
 70
     0
  9
$DIMBLK1
  1

  9
$DIMBLK2
  1

  9
$DIMSTYLE
  2
STANDARD
  9
$DIMCLRD
 70
     0
  9
$DIMCLRE
 70
     0
  9
$DIMCLRT
 70
     0
  9
$DIMTFAC
 40
1.0
  9
$DIMGAP
 40
0.09
  9
$DIMJUST
 70
     0
  9
$DIMSD1
 70
     0
  9
$DIMSD2
 70
     0
  9
$DIMTOLJ
 70
     1
  9
$DIMTZIN
 70
     0
  9
$DIMALTZ
 70
     0
  9
$DIMALTTZ
 70
     0
  9
$DIMUPT
 70
     0
  9
$DIMDEC
 70
     4
  9
$DIMTDEC
 70
     4
  9
$DIMALTU
 70
     2
  9
$DIMALTTD
 70
     2
  9
$DIMTXSTY
  7
STANDARD
  9
$DIMAUNIT
 70
     0
  9
$DIMADEC
 70
     0
  9
$DIMALTRND
 40
0.0
  9
$DIMAZIN
 70
     0
  9
$DIMDSEP
 70
    46
  9
$DIMATFIT
 70
     3
  9
$DIMFRAC
 70
     0
  9
$DIMLDRBLK
  1

  9
$DIMLUNIT
 70
     2
  9
$DIMLWD
 70
    -2
  9
$DIMLWE
 70
    -2
  9
$DIMTMOVE
 70
     0
  9
$DIMFXL
 40
1.0
  9
$DIMFXLON
 70
     0
  9
$DIMJOGANG
 40
0.7853981633974483
  9
$DIMTFILL
 70
     0
  9
$DIMTFILLCLR
 70
     0
  9
$DIMARCSYM
 70
     0
  9
$DIMLTYPE
  6

  9
$DIMLTEX1
  6

  9
$DIMLTEX2
  6

  9
$DIMTXTDIRECTION
 70
     0
  9
$LUNITS
 70
     2
  9
$LUPREC
 70
     4
  9
$SKETCHINC
 40
0.1
  9
$FILLETRAD
 40
0.0
  9
$AUNITS
 70
     0
  9
$AUPREC
 70
     0
  9
$MENU
  1
.
  9
$ELEVATION
 40
0.0
  9
$PELEVATION
 40
0.0
  9
$THICKNESS
 40
0.0
  9
$LIMCHECK
 70
     0
  9
$CHAMFERA
 40
0.0
  9
$CHAMFERB
 40
0.0
  9
$CHAMFERC
 40
0.0
  9
$CHAMFERD
 40
0.0
  9
$SKPOLY
 70
     0
  9
$TDCREATE
 40
2452153.690183137
  9
$TDUCREATE
 40
2452153.315183136
  9
$TDUPDATE
 40
2456875.579538750
  9
$TDUUPDATE
 40
2456875.204538750
  9
$TDINDWG
 40
0.0119745949
  9
$TDUSRTIMER
 40
0.0119732060
  9
$USRTIMER
 70
     1
  9
$ANGBASE
 50
0.0
  9
$ANGDIR
 70
     0
  9
$PDMODE
 70
     0
  9
$PDSIZE
 40
0.0
  9
$PLINEWID
 40
0.0
  9
$SPLFRAME
 70
     0
  9
$SPLINETYPE
 70
     6
  9
$SPLINESEGS
 70
     8
  9
$HANDSEED
  5
972
  9
$SURFTAB1
 70
     6
  9
$SURFTAB2
 70
     6
  9
$SURFTYPE
 70
     6
  9
$SURFU
 70
     6
  9
$SURFV
 70
     6
  9
$UCSBASE
  2

  9
$UCSNAME
  2

  9
$UCSORG
 10
0.0
 20
0.0
 30
0.0
  9
$UCSXDIR
 10
1.0
 20
0.0
 30
0.0
  9
$UCSYDIR
 10
0.0
 20
1.0
 30
0.0
  9
$UCSORTHOREF
  2

  9
$UCSORTHOVIEW
 70
     0
  9
$UCSORGTOP
 10
0.0
 20
0.0
 30
0.0
  9
$UCSORGBOTTOM
 10
0.0
 20
0.0
 30
0.0
  9
$UCSORGLEFT
 10
0.0
 20
0.0
 30
0.0
  9
$UCSORGRIGHT
 10
0.0
 20
0.0
 30
0.0
  9
$UCSORGFRONT
 10
0.0
 20
0.0
 30
0.0
  9
$UCSORGBACK
 10
0.0
 20
0.0
 30
0.0
  9
$PUCSBASE
  2

  9
$PUCSNAME
  2

  9
$PUCSORG
 10
0.0
 20
0.0
 30
0.0
  9
$PUCSXDIR
 10
1.0
 20
0.0
 30
0.0
  9
$PUCSYDIR
 10
0.0
 20
1.0
 30
0.0
  9
$PUCSORTHOREF
  2

  9
$PUCSORTHOVIEW
 70
     0
  9
$PUCSORGTOP
 10
0.0
 20
0.0
 30
0.0
  9
$PUCSORGBOTTOM
 10
0.0
 20
0.0
 30
0.0
  9
$PUCSORGLEFT
 10
0.0
 20
0.0
 30
0.0
  9
$PUCSORGRIGHT
 10
0.0
 20
0.0
 30
0.0
  9
$PUCSORGFRONT
 10
0.0
 20
0.0
 30
0.0
  9
$PUCSORGBACK
 10
0.0
 20
0.0
 30
0.0
  9
$USERI1
 70
     0
  9
$USERI2
 70
     0
  9
$USERI3
 70
     0
  9
$USERI4
 70
     0
  9
$USERI5
 70
     0
  9
$USERR1
 40
0.0
  9
$USERR2
 40
0.0
  9
$USERR3
 40
0.0
  9
$USERR4
 40
0.0
  9
$USERR5
 40
0.0
  9
$WORLDVIEW
 70
     1
  9
$SHADEDGE
 70
     3
  9
$SHADEDIF
 70
    70
  9
$TILEMODE
 70
     1
  9
$MAXACTVP
 70
    64
  9
$PINSBASE
 10
0.0
 20
0.0
 30
0.0
  9
$PLIMCHECK
 70
     0
  9
$PEXTMIN
 10
1.000000000000000E+20
 20
1.000000000000000E+20
 30
1.000000000000000E+20
  9
$PEXTMAX
 10
-1.000000000000000E+20
 20
-1.000000000000000E+20
 30
-1.000000000000000E+20
  9
$PLIMMIN
 10
0.0
 20
0.0
  9
$PLIMMAX
 10
12.0
 20
9.0
  9
$UNITMODE
 70
     0
  9
$VISRETAIN
 70
     1
  9
$PLINEGEN
 70
     0
  9
$PSLTSCALE
 70
     1
  9
$TREEDEPTH
 70
  3020
  9
$CMLSTYLE
  2
Standard
  9
$CMLJUST
 70
     0
  9
$CMLSCALE
 40
1.0
  9
$PROXYGRAPHICS
 70
     1
  9
$MEASUREMENT
 70
     0
  9
$CELWEIGHT
370
    -1
  9
$ENDCAPS
280
     0
  9
$JOINSTYLE
280
     0
  9
$LWDISPLAY
290
     0
  9
$INSUNITS
 70
     0
  9
$HYPERLINKBASE
  1

  9
$STYLESHEET
  1

  9
$XEDIT
290
     1
  9
$CEPSNTYPE
380
     0
  9
$PSTYLEMODE
290
     1
  9
$FINGERPRINTGUID
  2
{28753DC2-4FEB-11D7-9C19-0040267F10D4}
  9
$VERSIONGUID
  2
{2B502B83-7FB5-4318-A2A8-7ADA7EE66398}
  9
$EXTNAMES
290
     1
  9
$PSVPSCALE
 40
0.0
  9
$OLESTARTUP
290
     0
  9
$SORTENTS
280
   127
  9
$INDEXCTL
280
     0
  9
$HIDETEXT
280
     0
  9
$XCLIPFRAME
280
     2
  9
$HALOGAP
280
     0
  9
$OBSCOLOR
 70
   257
  9
$OBSLTYPE
280
     0
  9
$INTERSECTIONDISPLAY
280
     0
  9
$INTERSECTIONCOLOR
 70
   257
  9
$DIMASSOC
280
     1
  9
$PROJECTNAME
  1

  9
$CAMERADISPLAY
290
     0
  9
$LENSLENGTH
 40
50.0
  9
$CAMERAHEIGHT
 40
0.0
  9
$STEPSPERSEC
 40
2.0
  9
$STEPSIZE
 40
6.0
  9
$3DDWFPREC
 40
2.0
  9
$PSOLWIDTH
 40
0.25
  9
$PSOLHEIGHT
 40
4.0
  9
$LOFTANG1
 40
1.570796326794896
  9
$LOFTANG2
 40
1.570796326794896
  9
$LOFTMAG1
 40
0.0
  9
$LOFTMAG2
 40
0.0
  9
$LOFTPARAM
 70
     7
  9
$LOFTNORMALS
280
     1
  9
$LATITUDE
 40
37.795
  9
$LONGITUDE
 40
-122.394
  9
$NORTHDIRECTION
 40
0.0
  9
$TIMEZONE
 70
 -8000
  9
$LIGHTGLYPHDISPLAY
280
     1
  9
$TILEMODELIGHTSYNCH
280
     1
  9
$CMATERIAL
347
81E
  9
$SOLIDHIST
280
     1
  9
$SHOWHIST
280
     1
  9
$DWFFRAME
280
     2
  9
$DGNFRAME
280
     0
  9
$REALWORLDSCALE
290
     1
  9
$INTERFERECOLOR
 62
     1
  9
$INTERFEREOBJVS
345
840
  9
$INTERFEREVPVS
346
83D
  9
$CSHADOW
280
     0
  9
$SHADOWPLANELOCATION
 40
0.0
  0
ENDSEC
  0
SECTION
  2
CLASSES
  0
CLASS
  1
ACDBDICTIONARYWDFLT
  2
AcDbDictionaryWithDefault
  3
ObjectDBX Classes
 90
        0
 91
        1
280
     0
281
     0
  0
CLASS
  1
MATERIAL
  2
AcDbMaterial
  3
ObjectDBX Classes
 90
     1153
 91
        3
280
     0
281
     0
  0
CLASS
  1
VISUALSTYLE
  2
AcDbVisualStyle
  3
ObjectDBX Classes
 90
     4095
 91
       24
280
     0
281
     0
  0
CLASS
  1
TABLESTYLE
  2
AcDbTableStyle
  3
ObjectDBX Classes
 90
     4095
 91
        1
280
     0
281
     0
  0
CLASS
  1
SCALE
  2
AcDbScale
  3
ObjectDBX Classes
 90
     1153
 91
       17
280
     0
281
     0
  0
CLASS
  1
MLEADERSTYLE
  2
AcDbMLeaderStyle
  3
ACDB_MLEADERSTYLE_CLASS
 90
     4095
 91
        1
280
     0
281
     0
  0
CLASS
  1
DICTIONARYVAR
  2
AcDbDictionaryVar
  3
ObjectDBX Classes
 90
        0
 91
        7
280
     0
281
     0
  0
CLASS
  1
CELLSTYLEMAP
  2
AcDbCellStyleMap
  3
ObjectDBX Classes
 90
     1152
 91
        1
280
     0
281
     0
  0
ENDSEC
  0
SECTION
  2
TABLES
  0
TABLE
  2
VPORT
  5
40B
330
0
100
AcDbSymbolTable
 70
     1
  0
VPORT
  5
818
330
40B
100
AcDbSymbolTableRecord
100
AcDbViewportTableRecord
  2
*Active
 70
     0
 10
0.0
 20
0.0
 11
1.0
 21
1.0
 12
233.6144626300299
 22
194.1723955518828
 13
0.0
 23
0.0
 14
1.0
 24
1.0
 15
0.0
 25
0.0
 16
0.0
 26
0.0
 36
1.0
 17
0.0
 27
0.0
 37
0.0
 40
153.3215207274479
 41
2.654700854700854
 42
50.0
 43
0.0
 44
0.0
 50
0.0
 51
0.0
 71
     0
 72
   100
 73
     1
 74
     1
 75
     0
 76
     0
 77
     0
 78
     0
281
     0
 65
     1
110
0.0
120
0.0
130
0.0
111
1.0
121
0.0
131
0.0
112
0.0
122
1.0
132
0.0
 79
     0
146
0.0
348
83C
 60
     3
 61
     5
292
     1
282
     1
141
0.0
142
0.0
 63
   250
421
  3355443
  0
ENDTAB
  0
TABLE
  2
LTYPE
  5
408
330
0
100
AcDbSymbolTable
 70
     2
  0
LTYPE
  5
416
330
408
100
AcDbSymbolTableRecord
100
AcDbLinetypeTableRecord
  2
ByBlock
 70
     0
  3

 72
    65
 73
     0
 40
0.0
  0
LTYPE
  5
417
330
408
100
AcDbSymbolTableRecord
100
AcDbLinetypeTableRecord
  2
ByLayer
 70
     0
  3

 72
    65
 73
     0
 40
0.0
  0
LTYPE
  5
418
330
408
100
AcDbSymbolTableRecord
100
AcDbLinetypeTableRecord
  2
CONTINUOUS
 70
     0
  3
Solid line
 72
    65
 73
     0
 40
0.0
  0
LTYPE
  5
426
330
408
100
AcDbSymbolTableRecord
100
AcDbLinetypeTableRecord
  2
LTYPE1
 70
     0
  3
CENTER
 72
    65
 73
     4
 40
15.0
 49
10.5
 74
     0
 49
-1.5
 74
     0
 49
1.5
 74
     0
 49
-1.5
 74
     0
  0
ENDTAB
  0
TABLE
  2
LAYER
  5
405
330
0
100
AcDbSymbolTable
 70
   128
  0
LAYER
  5
413
102
{ACAD_XDICTIONARY
360
867
102
}
330
405
100
AcDbSymbolTableRecord
100
AcDbLayerTableRecord
  2
0
 70
     0
 62
     7
  6
CONTINUOUS
370
    -3
390
412
347
82E
  0
LAYER
  5
427
102
{ACAD_XDICTIONARY
360
869
102
}
330
405
100
AcDbSymbolTableRecord
100
AcDbLayerTableRecord
  2
1
 70
     0
 62
     7
  6
CONTINUOUS
370
    -3
390
412
347
82E
  0
LAYER
  5
428
102
{ACAD_XDICTIONARY
360
86B
102
}
330
405
100
AcDbSymbolTableRecord
100
AcDbLayerTableRecord
  2
2
 70
     0
 62
     7
  6
CONTINUOUS
370
    -3
390
412
347
82E
  0
LAYER
  5
429
102
{ACAD_XDICTIONARY
360
86D
102
}
330
405
100
AcDbSymbolTableRecord
100
AcDbLayerTableRecord
  2
3
 70
     0
 62
     7
  6
CONTINUOUS
370
    -3
390
412
347
82E
  0
LAYER
  5
42A
102
{ACAD_XDICTIONARY
360
86F
102
}
330
405
100
AcDbSymbolTableRecord
100
AcDbLayerTableRecord
  2
4
 70
     0
 62
     7
  6
CONTINUOUS
370
    -3
390
412
347
82E
  0
LAYER
  5
42B
102
{ACAD_XDICTIONARY
360
871
102
}
330
405
100
AcDbSymbolTableRecord
100
AcDbLayerTableRecord
  2
5
 70
     0
 62
     7
  6
CONTINUOUS
370
    -3
390
412
347
82E
  0
LAYER
  5
42C
102
{ACAD_XDICTIONARY
360
873
102
}
330
405
100
AcDbSymbolTableRecord
100
AcDbLayerTableRecord
  2
6
 70
     0
 62
     7
  6
CONTINUOUS
370
    -3
390
412
347
82E
  0
LAYER
  5
42D
102
{ACAD_XDICTIONARY
360
875
102
}
330
405
100
AcDbSymbolTableRecord
100
AcDbLayerTableRecord
  2
7
 70
     0
 62
     7
  6
CONTINUOUS
370
    -3
390
412
347
82E
  0
LAYER
  5
42E
102
{ACAD_XDICTIONARY
360
877
102
}
330
405
100
AcDbSymbolTableRecord
100
AcDbLayerTableRecord
  2
8
 70
     0
 62
     7
  6
CONTINUOUS
370
    -3
390
412
347
82E
  0
LAYER
  5
42F
102
{ACAD_XDICTIONARY
360
879
102
}
330
405
100
AcDbSymbolTableRecord
100
AcDbLayerTableRecord
  2
9
 70
     0
 62
     7
  6
CONTINUOUS
370
    -3
390
412
347
82E
  0
LAYER
  5
430
102
{ACAD_XDICTIONARY
360
87B
102
}
330
405
100
AcDbSymbolTableRecord
100
AcDbLayerTableRecord
  2
10
 70
     0
 62
     7
  6
CONTINUOUS
370
    -3
390
412
347
82E
  0
LAYER
  5
431
102
{ACAD_XDICTIONARY
360
87D
102
}
330
405
100
AcDbSymbolTableRecord
100
AcDbLayerTableRecord
  2
11
 70
     0
 62
     7
  6
CONTINUOUS
370
    -3
390
412
347
82E
  0
LAYER
  5
432
102
{ACAD_XDICTIONARY
360
87F
102
}
330
405
100
AcDbSymbolTableRecord
100
AcDbLayerTableRecord
  2
12
 70
     0
 62
     7
  6
CONTINUOUS
370
    -3
390
412
347
82E
  0
LAYER
  5
433
102
{ACAD_XDICTIONARY
360
881
102
}
330
405
100
AcDbSymbolTableRecord
100
AcDbLayerTableRecord
  2
13
 70
     0
 62
     7
  6
CONTINUOUS
370
    -3
390
412
347
82E
  0
LAYER
  5
434
102
{ACAD_XDICTIONARY
360
883
102
}
330
405
100
AcDbSymbolTableRecord
100
AcDbLayerTableRecord
  2
14
 70
     0
 62
     7
  6
CONTINUOUS
370
    -3
390
412
347
82E
  0
LAYER
  5
435
102
{ACAD_XDICTIONARY
360
885
102
}
330
405
100
AcDbSymbolTableRecord
100
AcDbLayerTableRecord
  2
15
 70
     0
 62
     7
  6
CONTINUOUS
370
    -3
390
412
347
82E
  0
LAYER
  5
436
102
{ACAD_XDICTIONARY
360
887
102
}
330
405
100
AcDbSymbolTableRecord
100
AcDbLayerTableRecord
  2
16
 70
     0
 62
     7
  6
CONTINUOUS
370
    -3
390
412
347
82E
  0
LAYER
  5
437
102
{ACAD_XDICTIONARY
360
889
102
}
330
405
100
AcDbSymbolTableRecord
100
AcDbLayerTableRecord
  2
17
 70
     0
 62
     7
  6
CONTINUOUS
370
    -3
390
412
347
82E
  0
LAYER
  5
438
102
{ACAD_XDICTIONARY
360
88B
102
}
330
405
100
AcDbSymbolTableRecord
100
AcDbLayerTableRecord
  2
18
 70
     0
 62
     7
  6
CONTINUOUS
370
    -3
390
412
347
82E
  0
LAYER
  5
439
102
{ACAD_XDICTIONARY
360
88D
102
}
330
405
100
AcDbSymbolTableRecord
100
AcDbLayerTableRecord
  2
19
 70
     0
 62
     7
  6
CONTINUOUS
370
    -3
390
412
347
82E
  0
LAYER
  5
43A
102
{ACAD_XDICTIONARY
360
88F
102
}
330
405
100
AcDbSymbolTableRecord
100
AcDbLayerTableRecord
  2
20
 70
     0
 62
     7
  6
CONTINUOUS
370
    -3
390
412
347
82E
  0
LAYER
  5
43B
102
{ACAD_XDICTIONARY
360
891
102
}
330
405
100
AcDbSymbolTableRecord
100
AcDbLayerTableRecord
  2
21
 70
     0
 62
     7
  6
CONTINUOUS
370
    -3
390
412
347
82E
  0
LAYER
  5
43C
102
{ACAD_XDICTIONARY
360
893
102
}
330
405
100
AcDbSymbolTableRecord
100
AcDbLayerTableRecord
  2
22
 70
     0
 62
     7
  6
CONTINUOUS
370
    -3
390
412
347
82E
  0
LAYER
  5
43D
102
{ACAD_XDICTIONARY
360
895
102
}
330
405
100
AcDbSymbolTableRecord
100
AcDbLayerTableRecord
  2
23
 70
     0
 62
     7
  6
CONTINUOUS
370
    -3
390
412
347
82E
  0
LAYER
  5
43E
102
{ACAD_XDICTIONARY
360
897
102
}
330
405
100
AcDbSymbolTableRecord
100
AcDbLayerTableRecord
  2
24
 70
     0
 62
     7
  6
CONTINUOUS
370
    -3
390
412
347
82E
  0
LAYER
  5
43F
102
{ACAD_XDICTIONARY
360
899
102
}
330
405
100
AcDbSymbolTableRecord
100
AcDbLayerTableRecord
  2
25
 70
     0
 62
     7
  6
CONTINUOUS
370
    -3
390
412
347
82E
  0
LAYER
  5
440
102
{ACAD_XDICTIONARY
360
89B
102
}
330
405
100
AcDbSymbolTableRecord
100
AcDbLayerTableRecord
  2
26
 70
     0
 62
     7
  6
CONTINUOUS
370
    -3
390
412
347
82E
  0
LAYER
  5
441
102
{ACAD_XDICTIONARY
360
89D
102
}
330
405
100
AcDbSymbolTableRecord
100
AcDbLayerTableRecord
  2
27
 70
     0
 62
     7
  6
CONTINUOUS
370
    -3
390
412
347
82E
  0
LAYER
  5
442
102
{ACAD_XDICTIONARY
360
89F
102
}
330
405
100
AcDbSymbolTableRecord
100
AcDbLayerTableRecord
  2
28
 70
     0
 62
     7
  6
CONTINUOUS
370
    -3
390
412
347
82E
  0
LAYER
  5
443
102
{ACAD_XDICTIONARY
360
8A1
102
}
330
405
100
AcDbSymbolTableRecord
100
AcDbLayerTableRecord
  2
29
 70
     0
 62
     7
  6
CONTINUOUS
370
    -3
390
412
347
82E
  0
LAYER
  5
444
102
{ACAD_XDICTIONARY
360
8A3
102
}
330
405
100
AcDbSymbolTableRecord
100
AcDbLayerTableRecord
  2
30
 70
     0
 62
     7
  6
CONTINUOUS
370
    -3
390
412
347
82E
  0
LAYER
  5
445
102
{ACAD_XDICTIONARY
360
8A5
102
}
330
405
100
AcDbSymbolTableRecord
100
AcDbLayerTableRecord
  2
31
 70
     0
 62
     7
  6
CONTINUOUS
370
    -3
390
412
347
82E
  0
LAYER
  5
446
102
{ACAD_XDICTIONARY
360
8A7
102
}
330
405
100
AcDbSymbolTableRecord
100
AcDbLayerTableRecord
  2
32
 70
     0
 62
     7
  6
CONTINUOUS
370
    -3
390
412
347
82E
  0
LAYER
  5
447
102
{ACAD_XDICTIONARY
360
8A9
102
}
330
405
100
AcDbSymbolTableRecord
100
AcDbLayerTableRecord
  2
33
 70
     0
 62
     7
  6
CONTINUOUS
370
    -3
390
412
347
82E
  0
LAYER
  5
448
102
{ACAD_XDICTIONARY
360
8AB
102
}
330
405
100
AcDbSymbolTableRecord
100
AcDbLayerTableRecord
  2
34
 70
     0
 62
     7
  6
CONTINUOUS
370
    -3
390
412
347
82E
  0
LAYER
  5
449
102
{ACAD_XDICTIONARY
360
8AD
102
}
330
405
100
AcDbSymbolTableRecord
100
AcDbLayerTableRecord
  2
35
 70
     0
 62
     7
  6
CONTINUOUS
370
    -3
390
412
347
82E
  0
LAYER
  5
44A
102
{ACAD_XDICTIONARY
360
8AF
102
}
330
405
100
AcDbSymbolTableRecord
100
AcDbLayerTableRecord
  2
36
 70
     0
 62
     7
  6
CONTINUOUS
370
    -3
390
412
347
82E
  0
LAYER
  5
44B
102
{ACAD_XDICTIONARY
360
8B1
102
}
330
405
100
AcDbSymbolTableRecord
100
AcDbLayerTableRecord
  2
37
 70
     0
 62
     7
  6
CONTINUOUS
370
    -3
390
412
347
82E
  0
LAYER
  5
44C
102
{ACAD_XDICTIONARY
360
8B3
102
}
330
405
100
AcDbSymbolTableRecord
100
AcDbLayerTableRecord
  2
38
 70
     0
 62
     7
  6
CONTINUOUS
370
    -3
390
412
347
82E
  0
LAYER
  5
44D
102
{ACAD_XDICTIONARY
360
8B5
102
}
330
405
100
AcDbSymbolTableRecord
100
AcDbLayerTableRecord
  2
39
 70
     0
 62
     7
  6
CONTINUOUS
370
    -3
390
412
347
82E
  0
LAYER
  5
44E
102
{ACAD_XDICTIONARY
360
8B7
102
}
330
405
100
AcDbSymbolTableRecord
100
AcDbLayerTableRecord
  2
40
 70
     0
 62
     7
  6
CONTINUOUS
370
    -3
390
412
347
82E
  0
LAYER
  5
44F
102
{ACAD_XDICTIONARY
360
8B9
102
}
330
405
100
AcDbSymbolTableRecord
100
AcDbLayerTableRecord
  2
41
 70
     0
 62
     7
  6
CONTINUOUS
370
    -3
390
412
347
82E
  0
LAYER
  5
450
102
{ACAD_XDICTIONARY
360
8BB
102
}
330
405
100
AcDbSymbolTableRecord
100
AcDbLayerTableRecord
  2
42
 70
     0
 62
     7
  6
CONTINUOUS
370
    -3
390
412
347
82E
  0
LAYER
  5
451
102
{ACAD_XDICTIONARY
360
8BD
102
}
330
405
100
AcDbSymbolTableRecord
100
AcDbLayerTableRecord
  2
43
 70
     0
 62
     7
  6
CONTINUOUS
370
    -3
390
412
347
82E
  0
LAYER
  5
452
102
{ACAD_XDICTIONARY
360
8BF
102
}
330
405
100
AcDbSymbolTableRecord
100
AcDbLayerTableRecord
  2
44
 70
     0
 62
     7
  6
CONTINUOUS
370
    -3
390
412
347
82E
  0
LAYER
  5
453
102
{ACAD_XDICTIONARY
360
8C1
102
}
330
405
100
AcDbSymbolTableRecord
100
AcDbLayerTableRecord
  2
45
 70
     0
 62
     7
  6
CONTINUOUS
370
    -3
390
412
347
82E
  0
LAYER
  5
454
102
{ACAD_XDICTIONARY
360
8C3
102
}
330
405
100
AcDbSymbolTableRecord
100
AcDbLayerTableRecord
  2
46
 70
     0
 62
     7
  6
CONTINUOUS
370
    -3
390
412
347
82E
  0
LAYER
  5
455
102
{ACAD_XDICTIONARY
360
8C5
102
}
330
405
100
AcDbSymbolTableRecord
100
AcDbLayerTableRecord
  2
47
 70
     0
 62
     7
  6
CONTINUOUS
370
    -3
390
412
347
82E
  0
LAYER
  5
456
102
{ACAD_XDICTIONARY
360
8C7
102
}
330
405
100
AcDbSymbolTableRecord
100
AcDbLayerTableRecord
  2
48
 70
     0
 62
     7
  6
CONTINUOUS
370
    -3
390
412
347
82E
  0
LAYER
  5
457
102
{ACAD_XDICTIONARY
360
8C9
102
}
330
405
100
AcDbSymbolTableRecord
100
AcDbLayerTableRecord
  2
49
 70
     0
 62
     7
  6
CONTINUOUS
370
    -3
390
412
347
82E
  0
LAYER
  5
458
102
{ACAD_XDICTIONARY
360
8CB
102
}
330
405
100
AcDbSymbolTableRecord
100
AcDbLayerTableRecord
  2
50
 70
     0
 62
     7
  6
CONTINUOUS
370
    -3
390
412
347
82E
  0
LAYER
  5
459
102
{ACAD_XDICTIONARY
360
8CD
102
}
330
405
100
AcDbSymbolTableRecord
100
AcDbLayerTableRecord
  2
51
 70
     0
 62
     7
  6
CONTINUOUS
370
    -3
390
412
347
82E
  0
LAYER
  5
45A
102
{ACAD_XDICTIONARY
360
8CF
102
}
330
405
100
AcDbSymbolTableRecord
100
AcDbLayerTableRecord
  2
52
 70
     0
 62
     7
  6
CONTINUOUS
370
    -3
390
412
347
82E
  0
LAYER
  5
45B
102
{ACAD_XDICTIONARY
360
8D1
102
}
330
405
100
AcDbSymbolTableRecord
100
AcDbLayerTableRecord
  2
53
 70
     0
 62
     7
  6
CONTINUOUS
370
    -3
390
412
347
82E
  0
LAYER
  5
45C
102
{ACAD_XDICTIONARY
360
8D3
102
}
330
405
100
AcDbSymbolTableRecord
100
AcDbLayerTableRecord
  2
54
 70
     0
 62
     7
  6
CONTINUOUS
370
    -3
390
412
347
82E
  0
LAYER
  5
45D
102
{ACAD_XDICTIONARY
360
8D5
102
}
330
405
100
AcDbSymbolTableRecord
100
AcDbLayerTableRecord
  2
55
 70
     0
 62
     7
  6
CONTINUOUS
370
    -3
390
412
347
82E
  0
LAYER
  5
45E
102
{ACAD_XDICTIONARY
360
8D7
102
}
330
405
100
AcDbSymbolTableRecord
100
AcDbLayerTableRecord
  2
56
 70
     0
 62
     7
  6
CONTINUOUS
370
    -3
390
412
347
82E
  0
LAYER
  5
45F
102
{ACAD_XDICTIONARY
360
8D9
102
}
330
405
100
AcDbSymbolTableRecord
100
AcDbLayerTableRecord
  2
57
 70
     0
 62
     7
  6
CONTINUOUS
370
    -3
390
412
347
82E
  0
LAYER
  5
460
102
{ACAD_XDICTIONARY
360
8DB
102
}
330
405
100
AcDbSymbolTableRecord
100
AcDbLayerTableRecord
  2
58
 70
     0
 62
     7
  6
CONTINUOUS
370
    -3
390
412
347
82E
  0
LAYER
  5
461
102
{ACAD_XDICTIONARY
360
8DD
102
}
330
405
100
AcDbSymbolTableRecord
100
AcDbLayerTableRecord
  2
59
 70
     0
 62
     7
  6
CONTINUOUS
370
    -3
390
412
347
82E
  0
LAYER
  5
462
102
{ACAD_XDICTIONARY
360
8DF
102
}
330
405
100
AcDbSymbolTableRecord
100
AcDbLayerTableRecord
  2
60
 70
     0
 62
     7
  6
CONTINUOUS
370
    -3
390
412
347
82E
  0
LAYER
  5
463
102
{ACAD_XDICTIONARY
360
8E1
102
}
330
405
100
AcDbSymbolTableRecord
100
AcDbLayerTableRecord
  2
61
 70
     0
 62
     7
  6
CONTINUOUS
370
    -3
390
412
347
82E
  0
LAYER
  5
464
102
{ACAD_XDICTIONARY
360
8E3
102
}
330
405
100
AcDbSymbolTableRecord
100
AcDbLayerTableRecord
  2
62
 70
     0
 62
     7
  6
CONTINUOUS
370
    -3
390
412
347
82E
  0
LAYER
  5
465
102
{ACAD_XDICTIONARY
360
8E5
102
}
330
405
100
AcDbSymbolTableRecord
100
AcDbLayerTableRecord
  2
63
 70
     0
 62
     7
  6
CONTINUOUS
370
    -3
390
412
347
82E
  0
LAYER
  5
466
102
{ACAD_XDICTIONARY
360
8E7
102
}
330
405
100
AcDbSymbolTableRecord
100
AcDbLayerTableRecord
  2
64
 70
     0
 62
     7
  6
CONTINUOUS
370
    -3
390
412
347
82E
  0
LAYER
  5
467
102
{ACAD_XDICTIONARY
360
8E9
102
}
330
405
100
AcDbSymbolTableRecord
100
AcDbLayerTableRecord
  2
65
 70
     0
 62
     7
  6
CONTINUOUS
370
    -3
390
412
347
82E
  0
LAYER
  5
468
102
{ACAD_XDICTIONARY
360
8EB
102
}
330
405
100
AcDbSymbolTableRecord
100
AcDbLayerTableRecord
  2
66
 70
     0
 62
     7
  6
CONTINUOUS
370
    -3
390
412
347
82E
  0
LAYER
  5
469
102
{ACAD_XDICTIONARY
360
8ED
102
}
330
405
100
AcDbSymbolTableRecord
100
AcDbLayerTableRecord
  2
67
 70
     0
 62
     7
  6
CONTINUOUS
370
    -3
390
412
347
82E
  0
LAYER
  5
46A
102
{ACAD_XDICTIONARY
360
8EF
102
}
330
405
100
AcDbSymbolTableRecord
100
AcDbLayerTableRecord
  2
68
 70
     0
 62
     7
  6
CONTINUOUS
370
    -3
390
412
347
82E
  0
LAYER
  5
46B
102
{ACAD_XDICTIONARY
360
8F1
102
}
330
405
100
AcDbSymbolTableRecord
100
AcDbLayerTableRecord
  2
69
 70
     0
 62
     7
  6
CONTINUOUS
370
    -3
390
412
347
82E
  0
LAYER
  5
46C
102
{ACAD_XDICTIONARY
360
8F3
102
}
330
405
100
AcDbSymbolTableRecord
100
AcDbLayerTableRecord
  2
70
 70
     0
 62
     7
  6
CONTINUOUS
370
    -3
390
412
347
82E
  0
LAYER
  5
46D
102
{ACAD_XDICTIONARY
360
8F5
102
}
330
405
100
AcDbSymbolTableRecord
100
AcDbLayerTableRecord
  2
71
 70
     0
 62
     7
  6
CONTINUOUS
370
    -3
390
412
347
82E
  0
LAYER
  5
46E
102
{ACAD_XDICTIONARY
360
8F7
102
}
330
405
100
AcDbSymbolTableRecord
100
AcDbLayerTableRecord
  2
72
 70
     0
 62
     7
  6
CONTINUOUS
370
    -3
390
412
347
82E
  0
LAYER
  5
46F
102
{ACAD_XDICTIONARY
360
8F9
102
}
330
405
100
AcDbSymbolTableRecord
100
AcDbLayerTableRecord
  2
73
 70
     0
 62
     7
  6
CONTINUOUS
370
    -3
390
412
347
82E
  0
LAYER
  5
470
102
{ACAD_XDICTIONARY
360
8FB
102
}
330
405
100
AcDbSymbolTableRecord
100
AcDbLayerTableRecord
  2
74
 70
     0
 62
     7
  6
CONTINUOUS
370
    -3
390
412
347
82E
  0
LAYER
  5
471
102
{ACAD_XDICTIONARY
360
8FD
102
}
330
405
100
AcDbSymbolTableRecord
100
AcDbLayerTableRecord
  2
75
 70
     0
 62
     7
  6
CONTINUOUS
370
    -3
390
412
347
82E
  0
LAYER
  5
472
102
{ACAD_XDICTIONARY
360
8FF
102
}
330
405
100
AcDbSymbolTableRecord
100
AcDbLayerTableRecord
  2
76
 70
     0
 62
     7
  6
CONTINUOUS
370
    -3
390
412
347
82E
  0
LAYER
  5
473
102
{ACAD_XDICTIONARY
360
901
102
}
330
405
100
AcDbSymbolTableRecord
100
AcDbLayerTableRecord
  2
77
 70
     0
 62
     7
  6
CONTINUOUS
370
    -3
390
412
347
82E
  0
LAYER
  5
474
102
{ACAD_XDICTIONARY
360
903
102
}
330
405
100
AcDbSymbolTableRecord
100
AcDbLayerTableRecord
  2
78
 70
     0
 62
     7
  6
CONTINUOUS
370
    -3
390
412
347
82E
  0
LAYER
  5
475
102
{ACAD_XDICTIONARY
360
905
102
}
330
405
100
AcDbSymbolTableRecord
100
AcDbLayerTableRecord
  2
79
 70
     0
 62
     7
  6
CONTINUOUS
370
    -3
390
412
347
82E
  0
LAYER
  5
476
102
{ACAD_XDICTIONARY
360
907
102
}
330
405
100
AcDbSymbolTableRecord
100
AcDbLayerTableRecord
  2
80
 70
     0
 62
     7
  6
CONTINUOUS
370
    -3
390
412
347
82E
  0
LAYER
  5
477
102
{ACAD_XDICTIONARY
360
909
102
}
330
405
100
AcDbSymbolTableRecord
100
AcDbLayerTableRecord
  2
81
 70
     0
 62
     7
  6
CONTINUOUS
370
    -3
390
412
347
82E
  0
LAYER
  5
478
102
{ACAD_XDICTIONARY
360
90B
102
}
330
405
100
AcDbSymbolTableRecord
100
AcDbLayerTableRecord
  2
82
 70
     0
 62
     7
  6
CONTINUOUS
370
    -3
390
412
347
82E
  0
LAYER
  5
479
102
{ACAD_XDICTIONARY
360
90D
102
}
330
405
100
AcDbSymbolTableRecord
100
AcDbLayerTableRecord
  2
83
 70
     0
 62
     7
  6
CONTINUOUS
370
    -3
390
412
347
82E
  0
LAYER
  5
47A
102
{ACAD_XDICTIONARY
360
90F
102
}
330
405
100
AcDbSymbolTableRecord
100
AcDbLayerTableRecord
  2
84
 70
     0
 62
     7
  6
CONTINUOUS
370
    -3
390
412
347
82E
  0
LAYER
  5
47B
102
{ACAD_XDICTIONARY
360
911
102
}
330
405
100
AcDbSymbolTableRecord
100
AcDbLayerTableRecord
  2
85
 70
     0
 62
     7
  6
CONTINUOUS
370
    -3
390
412
347
82E
  0
LAYER
  5
47C
102
{ACAD_XDICTIONARY
360
913
102
}
330
405
100
AcDbSymbolTableRecord
100
AcDbLayerTableRecord
  2
86
 70
     0
 62
     7
  6
CONTINUOUS
370
    -3
390
412
347
82E
  0
LAYER
  5
47D
102
{ACAD_XDICTIONARY
360
915
102
}
330
405
100
AcDbSymbolTableRecord
100
AcDbLayerTableRecord
  2
87
 70
     0
 62
     7
  6
CONTINUOUS
370
    -3
390
412
347
82E
  0
LAYER
  5
47E
102
{ACAD_XDICTIONARY
360
917
102
}
330
405
100
AcDbSymbolTableRecord
100
AcDbLayerTableRecord
  2
88
 70
     0
 62
     7
  6
CONTINUOUS
370
    -3
390
412
347
82E
  0
LAYER
  5
47F
102
{ACAD_XDICTIONARY
360
919
102
}
330
405
100
AcDbSymbolTableRecord
100
AcDbLayerTableRecord
  2
89
 70
     0
 62
     7
  6
CONTINUOUS
370
    -3
390
412
347
82E
  0
LAYER
  5
480
102
{ACAD_XDICTIONARY
360
91B
102
}
330
405
100
AcDbSymbolTableRecord
100
AcDbLayerTableRecord
  2
90
 70
     0
 62
     7
  6
CONTINUOUS
370
    -3
390
412
347
82E
  0
LAYER
  5
481
102
{ACAD_XDICTIONARY
360
91D
102
}
330
405
100
AcDbSymbolTableRecord
100
AcDbLayerTableRecord
  2
91
 70
     0
 62
     7
  6
CONTINUOUS
370
    -3
390
412
347
82E
  0
LAYER
  5
482
102
{ACAD_XDICTIONARY
360
91F
102
}
330
405
100
AcDbSymbolTableRecord
100
AcDbLayerTableRecord
  2
92
 70
     0
 62
     7
  6
CONTINUOUS
370
    -3
390
412
347
82E
  0
LAYER
  5
483
102
{ACAD_XDICTIONARY
360
921
102
}
330
405
100
AcDbSymbolTableRecord
100
AcDbLayerTableRecord
  2
93
 70
     0
 62
     7
  6
CONTINUOUS
370
    -3
390
412
347
82E
  0
LAYER
  5
484
102
{ACAD_XDICTIONARY
360
923
102
}
330
405
100
AcDbSymbolTableRecord
100
AcDbLayerTableRecord
  2
94
 70
     0
 62
     7
  6
CONTINUOUS
370
    -3
390
412
347
82E
  0
LAYER
  5
485
102
{ACAD_XDICTIONARY
360
925
102
}
330
405
100
AcDbSymbolTableRecord
100
AcDbLayerTableRecord
  2
95
 70
     0
 62
     7
  6
CONTINUOUS
370
    -3
390
412
347
82E
  0
LAYER
  5
486
102
{ACAD_XDICTIONARY
360
927
102
}
330
405
100
AcDbSymbolTableRecord
100
AcDbLayerTableRecord
  2
96
 70
     0
 62
     7
  6
CONTINUOUS
370
    -3
390
412
347
82E
  0
LAYER
  5
487
102
{ACAD_XDICTIONARY
360
929
102
}
330
405
100
AcDbSymbolTableRecord
100
AcDbLayerTableRecord
  2
97
 70
     0
 62
     7
  6
CONTINUOUS
370
    -3
390
412
347
82E
  0
LAYER
  5
488
102
{ACAD_XDICTIONARY
360
92B
102
}
330
405
100
AcDbSymbolTableRecord
100
AcDbLayerTableRecord
  2
98
 70
     0
 62
     7
  6
CONTINUOUS
370
    -3
390
412
347
82E
  0
LAYER
  5
489
102
{ACAD_XDICTIONARY
360
92D
102
}
330
405
100
AcDbSymbolTableRecord
100
AcDbLayerTableRecord
  2
99
 70
     0
 62
     7
  6
CONTINUOUS
370
    -3
390
412
347
82E
  0
LAYER
  5
48A
102
{ACAD_XDICTIONARY
360
92F
102
}
330
405
100
AcDbSymbolTableRecord
100
AcDbLayerTableRecord
  2
100
 70
     0
 62
     7
  6
CONTINUOUS
370
    -3
390
412
347
82E
  0
LAYER
  5
48B
102
{ACAD_XDICTIONARY
360
931
102
}
330
405
100
AcDbSymbolTableRecord
100
AcDbLayerTableRecord
  2
101
 70
     0
 62
     7
  6
CONTINUOUS
370
    -3
390
412
347
82E
  0
LAYER
  5
48C
102
{ACAD_XDICTIONARY
360
933
102
}
330
405
100
AcDbSymbolTableRecord
100
AcDbLayerTableRecord
  2
102
 70
     0
 62
     7
  6
CONTINUOUS
370
    -3
390
412
347
82E
  0
LAYER
  5
48D
102
{ACAD_XDICTIONARY
360
935
102
}
330
405
100
AcDbSymbolTableRecord
100
AcDbLayerTableRecord
  2
103
 70
     0
 62
     7
  6
CONTINUOUS
370
    -3
390
412
347
82E
  0
LAYER
  5
48E
102
{ACAD_XDICTIONARY
360
937
102
}
330
405
100
AcDbSymbolTableRecord
100
AcDbLayerTableRecord
  2
104
 70
     0
 62
     7
  6
CONTINUOUS
370
    -3
390
412
347
82E
  0
LAYER
  5
48F
102
{ACAD_XDICTIONARY
360
939
102
}
330
405
100
AcDbSymbolTableRecord
100
AcDbLayerTableRecord
  2
105
 70
     0
 62
     7
  6
CONTINUOUS
370
    -3
390
412
347
82E
  0
LAYER
  5
490
102
{ACAD_XDICTIONARY
360
93B
102
}
330
405
100
AcDbSymbolTableRecord
100
AcDbLayerTableRecord
  2
106
 70
     0
 62
     7
  6
CONTINUOUS
370
    -3
390
412
347
82E
  0
LAYER
  5
491
102
{ACAD_XDICTIONARY
360
93D
102
}
330
405
100
AcDbSymbolTableRecord
100
AcDbLayerTableRecord
  2
107
 70
     0
 62
     7
  6
CONTINUOUS
370
    -3
390
412
347
82E
  0
LAYER
  5
492
102
{ACAD_XDICTIONARY
360
93F
102
}
330
405
100
AcDbSymbolTableRecord
100
AcDbLayerTableRecord
  2
108
 70
     0
 62
     7
  6
CONTINUOUS
370
    -3
390
412
347
82E
  0
LAYER
  5
493
102
{ACAD_XDICTIONARY
360
941
102
}
330
405
100
AcDbSymbolTableRecord
100
AcDbLayerTableRecord
  2
109
 70
     0
 62
     7
  6
CONTINUOUS
370
    -3
390
412
347
82E
  0
LAYER
  5
494
102
{ACAD_XDICTIONARY
360
943
102
}
330
405
100
AcDbSymbolTableRecord
100
AcDbLayerTableRecord
  2
110
 70
     0
 62
     7
  6
CONTINUOUS
370
    -3
390
412
347
82E
  0
LAYER
  5
495
102
{ACAD_XDICTIONARY
360
945
102
}
330
405
100
AcDbSymbolTableRecord
100
AcDbLayerTableRecord
  2
111
 70
     0
 62
     7
  6
CONTINUOUS
370
    -3
390
412
347
82E
  0
LAYER
  5
496
102
{ACAD_XDICTIONARY
360
947
102
}
330
405
100
AcDbSymbolTableRecord
100
AcDbLayerTableRecord
  2
112
 70
     0
 62
     7
  6
CONTINUOUS
370
    -3
390
412
347
82E
  0
LAYER
  5
497
102
{ACAD_XDICTIONARY
360
949
102
}
330
405
100
AcDbSymbolTableRecord
100
AcDbLayerTableRecord
  2
113
 70
     0
 62
     7
  6
CONTINUOUS
370
    -3
390
412
347
82E
  0
LAYER
  5
498
102
{ACAD_XDICTIONARY
360
94B
102
}
330
405
100
AcDbSymbolTableRecord
100
AcDbLayerTableRecord
  2
114
 70
     0
 62
     7
  6
CONTINUOUS
370
    -3
390
412
347
82E
  0
LAYER
  5
499
102
{ACAD_XDICTIONARY
360
94D
102
}
330
405
100
AcDbSymbolTableRecord
100
AcDbLayerTableRecord
  2
115
 70
     0
 62
     7
  6
CONTINUOUS
370
    -3
390
412
347
82E
  0
LAYER
  5
49A
102
{ACAD_XDICTIONARY
360
94F
102
}
330
405
100
AcDbSymbolTableRecord
100
AcDbLayerTableRecord
  2
116
 70
     0
 62
     7
  6
CONTINUOUS
370
    -3
390
412
347
82E
  0
LAYER
  5
49B
102
{ACAD_XDICTIONARY
360
951
102
}
330
405
100
AcDbSymbolTableRecord
100
AcDbLayerTableRecord
  2
117
 70
     0
 62
     7
  6
CONTINUOUS
370
    -3
390
412
347
82E
  0
LAYER
  5
49C
102
{ACAD_XDICTIONARY
360
953
102
}
330
405
100
AcDbSymbolTableRecord
100
AcDbLayerTableRecord
  2
118
 70
     0
 62
     7
  6
CONTINUOUS
370
    -3
390
412
347
82E
  0
LAYER
  5
49D
102
{ACAD_XDICTIONARY
360
955
102
}
330
405
100
AcDbSymbolTableRecord
100
AcDbLayerTableRecord
  2
119
 70
     0
 62
     7
  6
CONTINUOUS
370
    -3
390
412
347
82E
  0
LAYER
  5
49E
102
{ACAD_XDICTIONARY
360
957
102
}
330
405
100
AcDbSymbolTableRecord
100
AcDbLayerTableRecord
  2
120
 70
     0
 62
     7
  6
CONTINUOUS
370
    -3
390
412
347
82E
  0
LAYER
  5
49F
102
{ACAD_XDICTIONARY
360
959
102
}
330
405
100
AcDbSymbolTableRecord
100
AcDbLayerTableRecord
  2
121
 70
     0
 62
     7
  6
CONTINUOUS
370
    -3
390
412
347
82E
  0
LAYER
  5
4A0
102
{ACAD_XDICTIONARY
360
95B
102
}
330
405
100
AcDbSymbolTableRecord
100
AcDbLayerTableRecord
  2
122
 70
     0
 62
     7
  6
CONTINUOUS
370
    -3
390
412
347
82E
  0
LAYER
  5
4A1
102
{ACAD_XDICTIONARY
360
95D
102
}
330
405
100
AcDbSymbolTableRecord
100
AcDbLayerTableRecord
  2
123
 70
     0
 62
     7
  6
CONTINUOUS
370
    -3
390
412
347
82E
  0
LAYER
  5
4A2
102
{ACAD_XDICTIONARY
360
95F
102
}
330
405
100
AcDbSymbolTableRecord
100
AcDbLayerTableRecord
  2
124
 70
     0
 62
     7
  6
CONTINUOUS
370
    -3
390
412
347
82E
  0
LAYER
  5
4A3
102
{ACAD_XDICTIONARY
360
961
102
}
330
405
100
AcDbSymbolTableRecord
100
AcDbLayerTableRecord
  2
125
 70
     0
 62
     7
  6
CONTINUOUS
370
    -3
390
412
347
82E
  0
LAYER
  5
4A4
102
{ACAD_XDICTIONARY
360
963
102
}
330
405
100
AcDbSymbolTableRecord
100
AcDbLayerTableRecord
  2
126
 70
     0
 62
     7
  6
CONTINUOUS
370
    -3
390
412
347
82E
  0
LAYER
  5
4A5
102
{ACAD_XDICTIONARY
360
965
102
}
330
405
100
AcDbSymbolTableRecord
100
AcDbLayerTableRecord
  2
127
 70
     0
 62
     7
  6
CONTINUOUS
370
    -3
390
412
347
82E
  0
ENDTAB
  0
TABLE
  2
STYLE
  5
406
330
0
100
AcDbSymbolTable
 70
     5
  0
STYLE
  5
414
330
406
100
AcDbSymbolTableRecord
100
AcDbTextStyleTableRecord
  2
STANDARD
 70
     0
 40
0.0
 41
1.0
 50
0.0
 71
     0
 42
0.2
  3
txt
  4

  0
STYLE
  5
4A6
330
406
100
AcDbSymbolTableRecord
100
AcDbTextStyleTableRecord
  2
KANJI0
 70
     0
 40
2.5
 41
0.8
 50
0.0
 71
     0
 42
2.5
  3
txt
  4
bigfont
  0
STYLE
  5
4A7
330
406
100
AcDbSymbolTableRecord
100
AcDbTextStyleTableRecord
  2
KANJI1
 70
     0
 40
2.0
 41
0.9
 50
0.0
 71
     0
 42
2.0
  3
txt
  4
bigfont
  0
STYLE
  5
4A8
330
406
100
AcDbSymbolTableRecord
100
AcDbTextStyleTableRecord
  2
KANJI2
 70
     0
 40
1.5
 41
0.8
 50
0.0
 71
     0
 42
1.5
  3
txt
  4
bigfont
  0
STYLE
  5
4A9
330
406
100
AcDbSymbolTableRecord
100
AcDbTextStyleTableRecord
  2
KANJI3
 70
     0
 40
4.511999999999996
 41
0.875
 50
0.0
 71
     0
 42
4.511999999999996
  3
txt
  4
bigfont
  0
ENDTAB
  0
TABLE
  2
VIEW
  5
409
330
0
100
AcDbSymbolTable
 70
     0
  0
ENDTAB
  0
TABLE
  2
UCS
  5
40A
330
0
100
AcDbSymbolTable
 70
     0
  0
ENDTAB
  0
TABLE
  2
APPID
  5
40C
330
0
100
AcDbSymbolTable
 70
     1
  0
APPID
  5
415
330
40C
100
AcDbSymbolTableRecord
100
AcDbRegAppTableRecord
  2
ACAD
 70
     0
  0
ENDTAB
  0
TABLE
  2
DIMSTYLE
  5
40D
330
0
100
AcDbSymbolTable
 70
     1
100
AcDbDimStyleTable
 71
     0
  0
DIMSTYLE
105
4AA
330
40D
100
AcDbSymbolTableRecord
100
AcDbDimStyleTableRecord
  2
STANDARD
 70
     0
279
     2
340
414
  0
ENDTAB
  0
TABLE
  2
BLOCK_RECORD
  5
404
330
0
100
AcDbSymbolTable
 70
     2
  0
BLOCK_RECORD
  5
421
330
404
100
AcDbSymbolTableRecord
100
AcDbBlockTableRecord
  2
*Model_Space
340
424
 70
     0
280
     1
281
     0
  0
BLOCK_RECORD
  5
41D
330
404
100
AcDbSymbolTableRecord
100
AcDbBlockTableRecord
  2
*Paper_Space
340
420
 70
     0
280
     1
281
     0
  0
BLOCK_RECORD
  5
4AD
330
404
100
AcDbSymbolTableRecord
100
AcDbBlockTableRecord
  2
$MODEL_SPACE
340
0
 70
     0
280
     1
281
     0
  0
BLOCK_RECORD
  5
4B0
330
404
100
AcDbSymbolTableRecord
100
AcDbBlockTableRecord
  2
$PAPER_SPACE
340
0
 70
     0
280
     1
281
     0
  0
ENDTAB
  0
ENDSEC
  0
SECTION
  2
BLOCKS
  0
BLOCK
  5
422
330
421
100
AcDbEntity
  8
0
100
AcDbBlockBegin
  2
*Model_Space
 70
     0
 10
0.0
 20
0.0
 30
0.0
  3
*Model_Space
  1

  0
ENDBLK
  5
423
330
421
100
AcDbEntity
  8
0
100
AcDbBlockEnd
  0
BLOCK
  5
41E
330
41D
100
AcDbEntity
 67
     1
  8
0
100
AcDbBlockBegin
  2
*Paper_Space
 70
     0
 10
0.0
 20
0.0
 30
0.0
  3
*Paper_Space
  1

  0
ENDBLK
  5
41F
330
41D
100
AcDbEntity
 67
     1
  8
0
100
AcDbBlockEnd
  0
BLOCK
  5
4AE
330
4AD
100
AcDbEntity
  8
0
100
AcDbBlockBegin
  2
$MODEL_SPACE
 70
     0
 10
0.0
 20
0.0
 30
0.0
  3
$MODEL_SPACE
  1

  0
ENDBLK
  5
4AF
330
4AD
100
AcDbEntity
  8
0
100
AcDbBlockEnd
  0
BLOCK
  5
4B1
330
4B0
100
AcDbEntity
  8
0
100
AcDbBlockBegin
  2
$PAPER_SPACE
 70
     0
 10
0.0
 20
0.0
 30
0.0
  3
$PAPER_SPACE
  1

  0
ENDBLK
  5
4B2
330
4B0
100
AcDbEntity
  8
0
100
AcDbBlockEnd
  0
ENDSEC
  0
SECTION
  2
ENTITIES
  0
POINT
  5
4B3
330
421
100
AcDbEntity
  8
0
  6
Continuous
 62
     1
100
AcDbPoint
 10
3.329982210498346E+99
 20
1.269263905633295E+99
 30
0.0
  0
POINT
  5
4B4
330
421
100
AcDbEntity
  8
0
  6
Continuous
 62
     1
100
AcDbPoint
 10
3.329982210498346E+99
 20
1.269263905633295E+99
 30
0.0
  0
POINT
  5
4B5
330
421
100
AcDbEntity
  8
0
  6
Continuous
 62
     1
100
AcDbPoint
 10
-1.558815053331234E+64
 20
-5.941616374145985E+73
 30
0.0
  0
POINT
  5
4B6
330
421
100
AcDbEntity
  8
0
  6
Continuous
 62
     1
100
AcDbPoint
 10
-1.558815053331234E+64
 20
-5.941616374145985E+73
 30
0.0
  0
POINT
  5
4B7
330
421
100
AcDbEntity
  8
0
  6
Continuous
 62
     1
100
AcDbPoint
 10
3.329982210498346E+99
 20
1.269263905633295E+99
 30
0.0
  0
POINT
  5
4B8
330
421
100
AcDbEntity
  8
0
  6
Continuous
 62
     1
100
AcDbPoint
 10
3.329982210498346E+99
 20
1.269263905633295E+99
 30
0.0
  0
POINT
  5
4B9
330
421
100
AcDbEntity
  8
0
  6
Continuous
 62
     1
100
AcDbPoint
 10
-1.558815053331234E+64
 20
-5.941616374145985E+73
 30
0.0
  0
POINT
  5
4BA
330
421
100
AcDbEntity
  8
0
  6
Continuous
 62
     1
100
AcDbPoint
 10
-1.558815053331234E+64
 20
-5.941616374145985E+73
 30
0.0
  0
POINT
  5
4BB
330
421
100
AcDbEntity
  8
0
  6
Continuous
 62
     1
100
AcDbPoint
 10
3.329982210498346E+99
 20
1.269263905633295E+99
 30
0.0
  0
POINT
  5
4BC
330
421
100
AcDbEntity
  8
0
  6
Continuous
 62
     1
100
AcDbPoint
 10
3.329982210498346E+99
 20
1.269263905633295E+99
 30
0.0
  0
POINT
  5
4BD
330
421
100
AcDbEntity
  8
0
  6
Continuous
 62
     1
100
AcDbPoint
 10
-1.558815053331234E+64
 20
-5.941616374145985E+73
 30
0.0
  0
POINT
  5
4BE
330
421
100
AcDbEntity
  8
0
  6
Continuous
 62
     1
100
AcDbPoint
 10
-1.558815053331234E+64
 20
-5.941616374145985E+73
 30
0.0
  0
POINT
  5
4BF
330
421
100
AcDbEntity
  8
0
  6
Continuous
 62
     1
100
AcDbPoint
 10
3.329982210498346E+99
 20
1.269263905633295E+99
 30
0.0
  0
POINT
  5
4C0
330
421
100
AcDbEntity
  8
0
  6
Continuous
 62
     1
100
AcDbPoint
 10
3.329982210498346E+99
 20
1.269263905633295E+99
 30
0.0
  0
POINT
  5
4C1
330
421
100
AcDbEntity
  8
0
  6
Continuous
 62
     1
100
AcDbPoint
 10
-1.558815053331234E+64
 20
-5.941616374145985E+73
 30
0.0
  0
POINT
  5
4C2
330
421
100
AcDbEntity
  8
0
  6
Continuous
 62
     1
100
AcDbPoint
 10
-1.558815053331234E+64
 20
-5.941616374145985E+73
 30
0.0
  0
LINE
  5
4C4
330
421
100
AcDbEntity
  8
0
  6
Continuous
 62
     4
100
AcDbLine
 10
128.506791006
 20
93.86772623899997
 30
0.0
 11
128.520791006
 21
93.85623030399999
 31
0.0
  0
POINT
  5
4C9
330
421
100
AcDbEntity
  8
0
  6
Continuous
 62
     3
100
AcDbPoint
 10
58.32711860899999
 20
128.9271186219999
 30
0.0
  0
LINE
  5
4CA
330
421
100
AcDbEntity
  8
0
  6
Continuous
 62
     3
100
AcDbLine
 10
64.32711860800001
 20
133.1771186229999
 30
0.0
 11
64.32711860800001
 21
133.4271186229998
 31
0.0
  0
LINE
  5
4CF
330
421
100
AcDbEntity
  8
1
  6
LTYPE1
 62
     3
100
AcDbLine
 10
105.177118647
 20
216.8999999709998
 30
0.0
 11
105.7321186549998
 21
216.8999999709998
 31
0.0
  0
LINE
  5
4D2
330
421
100
AcDbEntity
  8
0
  6
Continuous
 62
     3
100
AcDbLine
 10
90.8
 20
95.57999999999998
 30
0.0
 11
73.79999999999999
 21
95.57999999999998
 31
0.0
  0
LINE
  5
4D3
330
421
100
AcDbEntity
  8
0
  6
Continuous
 62
     3
100
AcDbLine
 10
74.79999999999998
 20
95.57999999999998
 30
0.0
 11
74.28236191
 21
93.648148347
 31
0.0
  0
LINE
  5
4D4
330
421
100
AcDbEntity
  8
0
  6
Continuous
 62
     3
100
AcDbLine
 10
74.79999999999998
 20
95.57999999999998
 30
0.0
 11
75.31763809
 21
93.648148347
 31
0.0
  0
LINE
  5
4D5
330
421
100
AcDbEntity
  8
0
  6
Continuous
 62
     3
100
AcDbLine
 10
74.79999999999998
 20
95.57999999999998
 30
0.0
 11
74.79999999999998
 21
71.58
 31
0.0
  0
LINE
  5
4D6
330
421
100
AcDbEntity
  8
0
  6
Continuous
 62
     3
100
AcDbLine
 10
74.79999999999998
 20
71.58
 30
0.0
 11
75.31763809
 21
73.51185165300001
 31
0.0
  0
LINE
  5
4D7
330
421
100
AcDbEntity
  8
0
  6
Continuous
 62
     3
100
AcDbLine
 10
74.79999999999998
 20
71.58
 30
0.0
 11
74.28236191
 21
73.51185165300001
 31
0.0
  0
LINE
  5
4D8
330
421
100
AcDbEntity
  8
0
  6
Continuous
 62
     3
100
AcDbLine
 10
90.8
 20
71.58
 30
0.0
 11
73.79999999999999
 21
71.58
 31
0.0
  0
TEXT
  5
4D9
330
421
100
AcDbEntity
  8
0
  6
Continuous
 62
     3
100
AcDbText
 10
73.79999999999999
 20
81.43
 30
0.3
 40
2.5
  1
２４
 50
90.0
 41
0.8
  7
KANJI0
100
AcDbText
  0
LINE
  5
4E3
330
421
100
AcDbEntity
  8
0
  6
Continuous
 62
     3
100
AcDbLine
 10
91.78
 20
96.5
 30
0.0
 11
91.78
 21
107.6
 31
0.0
  0
LINE
  5
4E4
330
421
100
AcDbEntity
  8
0
  6
Continuous
 62
     3
100
AcDbLine
 10
91.78
 20
106.6
 30
0.0
 11
93.711851653
 21
106.08236191
 31
0.0
  0
LINE
  5
4E5
330
421
100
AcDbEntity
  8
0
  6
Continuous
 62
     3
100
AcDbLine
 10
91.78
 20
106.6
 30
0.0
 11
93.711851653
 21
107.11763809
 31
0.0
  0
LINE
  5
4E6
330
421
100
AcDbEntity
  8
0
  6
Continuous
 62
     3
100
AcDbLine
 10
91.78
 20
106.6
 30
0.0
 11
139.7799999999998
 21
106.6
 31
0.0
  0
LINE
  5
4E7
330
421
100
AcDbEntity
  8
0
  6
Continuous
 62
     3
100
AcDbLine
 10
139.7799999999998
 20
106.6
 30
0.0
 11
137.848148347
 21
107.11763809
 31
0.0
  0
LINE
  5
4E8
330
421
100
AcDbEntity
  8
0
  6
Continuous
 62
     3
100
AcDbLine
 10
139.7799999999998
 20
106.6
 30
0.0
 11
137.848148347
 21
106.08236191
 31
0.0
  0
LINE
  5
4E9
330
421
100
AcDbEntity
  8
0
  6
Continuous
 62
     3
100
AcDbLine
 10
139.7799999999998
 20
96.5
 30
0.0
 11
139.7799999999998
 21
107.6
 31
0.0
  0
TEXT
  5
4EA
330
421
100
AcDbEntity
  8
0
  6
Continuous
 62
     3
100
AcDbText
 10
113.63
 20
107.6
 30
0.3
 40
2.5
  1
４８
 41
0.8
  7
KANJI0
100
AcDbText
  0
LINE
  5
4EB
330
421
100
AcDbEntity
  8
0
  6
Continuous
 62
     3
100
AcDbLine
 10
132.7271186409996
 20
162.927118602
 30
0.3
 11
134.1771186409999
 21
162.927118602
 31
0.3
  0
LINE
  5
4EC
330
421
100
AcDbEntity
  8
0
  6
Continuous
 62
     3
100
AcDbLine
 10
133.3271186409999
 20
163.927118602
 30
0.0
 11
133.32711864
 21
161.927118602
 31
0.0
  0
LINE
  5
4ED
330
421
100
AcDbEntity
  8
0
  6
Continuous
 62
     3
100
AcDbLine
 10
127.627118641
 20
162.9271186039999
 30
0.0
 11
129.0771186409999
 21
162.9271186029998
 31
0.0
  0
LINE
  5
4EE
330
421
100
AcDbEntity
  8
0
  6
Continuous
 62
     3
100
AcDbLine
 10
128.3271186409999
 20
163.927118603
 30
0.0
 11
128.32711864
 21
161.9271186029998
 31
0.0
  0
LINE
  5
4EF
330
421
100
AcDbEntity
  8
0
  6
Continuous
 62
     3
100
AcDbLine
 10
122.727118641
 20
162.9271186049996
 30
0.0
 11
124.177118641
 21
162.9271186039999
 31
0.0
  0
LINE
  5
4F0
330
421
100
AcDbEntity
  8
0
  6
Continuous
 62
     3
100
AcDbLine
 10
123.4271186409998
 20
163.927118605
 30
0.0
 11
123.4271186399999
 21
161.9271186049996
 31
0.0
  0
LINE
  5
4F1
330
421
100
AcDbEntity
  8
0
  6
Continuous
 62
     3
100
AcDbLine
 10
117.627118641
 20
162.9271186059999
 30
0.0
 11
119.0771186409999
 21
162.9271186059999
 31
0.0
  0
LINE
  5
4F2
330
421
100
AcDbEntity
  8
0
  6
Continuous
 62
     3
100
AcDbLine
 10
118.327118641
 20
163.927118606
 30
0.0
 11
118.32711864
 21
161.9271186059999
 31
0.0
  0
LINE
  5
4F3
330
421
100
AcDbEntity
  8
0
  6
Continuous
 62
     3
100
AcDbLine
 10
112.627118641
 20
162.927118607
 30
0.0
 11
114.077118641
 21
162.927118607
 31
0.0
  0
LINE
  5
4F4
330
421
100
AcDbEntity
  8
0
  6
Continuous
 62
     3
100
AcDbLine
 10
113.327118641
 20
163.927118607
 30
0.0
 11
113.32711864
 21
161.927118607
 31
0.0
  0
LINE
  5
4F5
330
421
100
AcDbEntity
  8
0
  6
Continuous
 62
     3
100
AcDbLine
 10
113.3299999999999
 20
164.15
 30
0.0
 11
113.3299999999999
 21
173.3999999999998
 31
0.0
  0
LINE
  5
4F6
330
421
100
AcDbEntity
  8
0
  6
Continuous
 62
     3
100
AcDbLine
 10
113.3299999999999
 20
172.4
 30
0.0
 11
111.398148347
 21
172.91763809
 31
0.0
  0
LINE
  5
4F7
330
421
100
AcDbEntity
  8
0
  6
Continuous
 62
     3
100
AcDbLine
 10
113.3299999999999
 20
172.4
 30
0.0
 11
111.398148347
 21
171.8823619099999
 31
0.0
  0
LINE
  5
4F8
330
421
100
AcDbEntity
  8
0
  6
Continuous
 62
     3
100
AcDbLine
 10
110.3299999999999
 20
172.4
 30
0.0
 11
113.3299999999999
 21
172.4
 31
0.0
  0
LINE
  5
4F9
330
421
100
AcDbEntity
  8
0
  6
Continuous
 62
     3
100
AcDbLine
 10
113.3299999999999
 20
172.4
 30
0.0
 11
115.83
 21
172.4
 31
0.0
  0
LINE
  5
4FA
330
421
100
AcDbEntity
  8
0
  6
Continuous
 62
     3
100
AcDbLine
 10
115.83
 20
172.4
 30
0.0
 11
125.43
 21
172.4
 31
0.0
  0
LINE
  5
4FB
330
421
100
AcDbEntity
  8
0
  6
Continuous
 62
     3
100
AcDbLine
 10
115.83
 20
172.4
 30
0.0
 11
117.7618516529997
 21
171.8823619099999
 31
0.0
  0
LINE
  5
4FC
330
421
100
AcDbEntity
  8
0
  6
Continuous
 62
     3
100
AcDbLine
 10
115.83
 20
172.4
 30
0.0
 11
117.7618516529997
 21
172.91763809
 31
0.0
  0
TEXT
  5
4FD
330
421
100
AcDbEntity
  8
0
  6
Continuous
 62
     3
100
AcDbText
 10
118.8299999999999
 20
173.3999999999998
 30
0.3
 40
2.5
  1
２.５
 41
0.8
  7
KANJI0
100
AcDbText
  0
LINE
  5
4FE
330
421
100
AcDbEntity
  8
0
  6
Continuous
 62
     3
100
AcDbLine
 10
133.33
 20
163.9499999999999
 30
0.3
 11
133.33
 21
178.9499999999999
 31
0.3
  0
LINE
  5
4FF
330
421
100
AcDbEntity
  8
0
  6
Continuous
 62
     3
100
AcDbLine
 10
133.33
 20
177.9499999999999
 30
0.0
 11
131.398148347
 21
178.46763809
 31
0.0
  0
LINE
  5
500
330
421
100
AcDbEntity
  8
0
  6
Continuous
 62
     3
100
AcDbLine
 10
133.33
 20
177.9499999999999
 30
0.0
 11
131.398148347
 21
177.43236191
 31
0.0
  0
LINE
  5
501
330
421
100
AcDbEntity
  8
0
  6
Continuous
 62
     3
100
AcDbLine
 10
133.33
 20
177.9499999999999
 30
0.0
 11
113.3299999999999
 21
177.9499999999999
 31
0.0
  0
LINE
  5
502
330
421
100
AcDbEntity
  8
0
  6
Continuous
 62
     3
100
AcDbLine
 10
113.3299999999999
 20
177.9499999999999
 30
0.0
 11
115.261851653
 21
177.43236191
 31
0.0
  0
LINE
  5
503
330
421
100
AcDbEntity
  8
0
  6
Continuous
 62
     3
100
AcDbLine
 10
113.3299999999999
 20
177.9499999999999
 30
0.0
 11
115.261851653
 21
178.46763809
 31
0.0
  0
LINE
  5
504
330
421
100
AcDbEntity
  8
0
  6
Continuous
 62
     3
100
AcDbLine
 10
113.3299999999999
 20
173.4499999999999
 30
0.0
 11
113.3299999999999
 21
178.9499999999999
 31
0.0
  0
TEXT
  5
505
330
421
100
AcDbEntity
  8
0
  6
Continuous
 62
     3
100
AcDbText
 10
116.68
 20
178.9499999999999
 30
0.3
 40
2.5
  1
５×４＝２０
 41
0.8
  7
KANJI0
100
AcDbText
  0
LINE
  5
506
330
421
100
AcDbEntity
  8
0
  6
Continuous
 62
     3
100
AcDbLine
 10
134.43
 20
162.9
 30
0.3
 11
146.93
 21
162.9
 31
0.3
  0
LINE
  5
507
330
421
100
AcDbEntity
  8
0
  6
Continuous
 62
     3
100
AcDbLine
 10
145.9299999999998
 20
162.9
 30
0.0
 11
145.4123619099999
 21
160.968148347
 31
0.0
  0
LINE
  5
508
330
421
100
AcDbEntity
  8
0
  6
Continuous
 62
     3
100
AcDbLine
 10
145.9299999999998
 20
162.9
 30
0.0
 11
146.44763809
 21
160.968148347
 31
0.0
  0
LINE
  5
509
330
421
100
AcDbEntity
  8
0
  6
Continuous
 62
     3
100
AcDbLine
 10
145.9299999999998
 20
159.9
 30
0.0
 11
145.9299999999998
 21
162.9
 31
0.0
  0
LINE
  5
50A
330
421
100
AcDbEntity
  8
0
  6
Continuous
 62
     3
100
AcDbLine
 10
145.9299999999998
 20
162.9
 30
0.0
 11
145.9299999999998
 21
168.1
 31
0.0
  0
LINE
  5
50B
330
421
100
AcDbEntity
  8
0
  6
Continuous
 62
     3
100
AcDbLine
 10
145.9299999999998
 20
168.1
 30
0.0
 11
145.9299999999998
 21
177.6999999999999
 31
0.0
  0
LINE
  5
50C
330
421
100
AcDbEntity
  8
0
  6
Continuous
 62
     3
100
AcDbLine
 10
145.9299999999998
 20
168.1
 30
0.0
 11
146.44763809
 21
170.0318516529998
 31
0.0
  0
LINE
  5
50D
330
421
100
AcDbEntity
  8
0
  6
Continuous
 62
     3
100
AcDbLine
 10
145.9299999999998
 20
168.1
 30
0.0
 11
145.4123619099999
 21
170.0318516529998
 31
0.0
  0
LINE
  5
50E
330
421
100
AcDbEntity
  8
0
  6
Continuous
 62
     3
100
AcDbLine
 10
138.43
 20
168.1
 30
0.0
 11
146.93
 21
168.1
 31
0.0
  0
TEXT
  5
50F
330
421
100
AcDbEntity
  8
0
  6
Continuous
 62
     3
100
AcDbText
 10
144.93
 20
171.1
 30
0.3
 40
2.5
  1
５.２
 50
90.0
 41
0.8
  7
KANJI0
100
AcDbText
  0
LINE
  5
510
330
421
100
AcDbEntity
  8
0
  6
Continuous
 62
     3
100
AcDbLine
 10
93.73000000000001
 20
169.1
 30
0.3
 11
93.73000000000001
 21
184.25
 31
0.3
  0
LINE
  5
511
330
421
100
AcDbEntity
  8
0
  6
Continuous
 62
     3
100
AcDbLine
 10
93.73000000000001
 20
183.2499999999996
 30
0.0
 11
95.66185165300002
 21
182.73236191
 31
0.0
  0
LINE
  5
512
330
421
100
AcDbEntity
  8
0
  6
Continuous
 62
     3
100
AcDbLine
 10
93.73000000000001
 20
183.2499999999996
 30
0.0
 11
95.66185165300002
 21
183.7676380899999
 31
0.0
  0
LINE
  5
513
330
421
100
AcDbEntity
  8
0
  6
Continuous
 62
     3
100
AcDbLine
 10
93.73000000000001
 20
183.2499999999996
 30
0.0
 11
137.83
 21
183.2499999999996
 31
0.0
  0
LINE
  5
514
330
421
100
AcDbEntity
  8
0
  6
Continuous
 62
     3
100
AcDbLine
 10
137.83
 20
183.2499999999996
 30
0.0
 11
135.898148347
 21
183.7676380899999
 31
0.0
  0
LINE
  5
515
330
421
100
AcDbEntity
  8
0
  6
Continuous
 62
     3
100
AcDbLine
 10
137.83
 20
183.2499999999996
 30
0.0
 11
135.898148347
 21
182.73236191
 31
0.0
  0
LINE
  5
516
330
421
100
AcDbEntity
  8
0
  6
Continuous
 62
     3
100
AcDbLine
 10
137.83
 20
169.1
 30
0.0
 11
137.83
 21
184.25
 31
0.0
  0
TEXT
  5
517
330
421
100
AcDbEntity
  8
0
  6
Continuous
 62
     3
100
AcDbText
 10
113.63
 20
184.25
 30
0.3
 40
2.5
  1
４４
 41
0.8
  7
KANJI0
100
AcDbText
  0
LINE
  5
518
330
421
100
AcDbEntity
  8
0
  6
Continuous
 62
     3
100
AcDbLine
 10
99.227118655
 20
217.699999973
 30
0.3
 11
100.827118655
 21
217.699999973
 31
0.3
  0
LINE
  5
519
330
421
100
AcDbEntity
  8
0
  6
Continuous
 62
     3
100
AcDbLine
 10
99.827118655
 20
218.899999973
 30
0.0
 11
99.827118655
 21
216.499999973
 31
0.0
  0
LINE
  5
51A
330
421
100
AcDbEntity
  8
0
  6
Continuous
 62
     3
100
AcDbLine
 10
113.327118656
 20
220.09999997
 30
0.0
 11
113.327118655
 21
218.2999999699999
 31
0.0
  0
LINE
  5
51B
330
421
100
AcDbEntity
  8
0
  6
Continuous
 62
     3
100
AcDbLine
 10
112.687118655
 20
219.29999997
 30
0.0
 11
114.067118655
 21
219.299999969
 31
0.0
  0
LINE
  5
51C
330
421
100
AcDbEntity
  8
0
  6
Continuous
 62
     3
100
AcDbLine
 10
118.327118656
 20
220.099999968
 30
0.0
 11
118.327118655
 21
218.2999999679999
 31
0.0
  0
LINE
  5
51D
330
421
100
AcDbEntity
  8
0
  6
Continuous
 62
     3
100
AcDbLine
 10
117.687118655
 20
219.299999968
 30
0.0
 11
119.067118655
 21
219.299999968
 31
0.0
  0
LINE
  5
51E
330
421
100
AcDbEntity
  8
0
  6
Continuous
 62
     3
100
AcDbLine
 10
122.687118655
 20
219.299999967
 30
0.0
 11
124.0671186549999
 21
219.299999967
 31
0.0
  0
LINE
  5
51F
330
421
100
AcDbEntity
  8
0
  6
Continuous
 62
     3
100
AcDbLine
 10
123.327118656
 20
220.3
 30
0.0
 11
123.327118655
 21
218.299999967
 31
0.0
  0
LINE
  5
520
330
421
100
AcDbEntity
  8
0
  6
Continuous
 62
     3
100
AcDbLine
 10
128.327118656
 20
220.099999966
 30
0.0
 11
128.3271186549999
 21
218.2999999659998
 31
0.0
  0
LINE
  5
521
330
421
100
AcDbEntity
  8
0
  6
Continuous
 62
     3
100
AcDbLine
 10
127.6871186549999
 20
219.2999999659998
 30
0.0
 11
129.067118655
 21
219.299999965
 31
0.0
  0
LINE
  5
522
330
421
100
AcDbEntity
  8
0
  6
Continuous
 62
     3
100
AcDbLine
 10
133.327118656
 20
220.099999964
 30
0.0
 11
133.3271186549999
 21
218.299999964
 31
0.0
  0
LINE
  5
523
330
421
100
AcDbEntity
  8
0
  6
Continuous
 62
     3
100
AcDbLine
 10
132.687118655
 20
219.299999964
 30
0.0
 11
134.067118655
 21
219.299999964
 31
0.0
  0
LINE
  5
524
330
421
100
AcDbEntity
  8
0
  6
Continuous
 62
     3
100
AcDbLine
 10
146.18
 20
216.9
 30
0.0
 11
145.6623619099999
 21
214.968148347
 31
0.0
  0
LINE
  5
525
330
421
100
AcDbEntity
  8
0
  6
Continuous
 62
     3
100
AcDbLine
 10
146.18
 20
216.9
 30
0.0
 11
146.69763809
 21
214.968148347
 31
0.0
  0
LINE
  5
526
330
421
100
AcDbEntity
  8
0
  6
Continuous
 62
     3
100
AcDbLine
 10
146.18
 20
213.9
 30
0.0
 11
146.18
 21
216.9
 31
0.0
  0
LINE
  5
527
330
421
100
AcDbEntity
  8
0
  6
Continuous
 62
     3
100
AcDbLine
 10
146.18
 20
216.9
 30
0.0
 11
146.18
 21
219.3
 31
0.0
  0
LINE
  5
528
330
421
100
AcDbEntity
  8
0
  6
Continuous
 62
     3
100
AcDbLine
 10
146.18
 20
219.3
 30
0.0
 11
146.18
 21
228.9
 31
0.0
  0
LINE
  5
529
330
421
100
AcDbEntity
  8
0
  6
Continuous
 62
     3
100
AcDbLine
 10
146.18
 20
219.3
 30
0.0
 11
146.69763809
 21
221.2318516529998
 31
0.0
  0
LINE
  5
52A
330
421
100
AcDbEntity
  8
0
  6
Continuous
 62
     3
100
AcDbLine
 10
146.18
 20
219.3
 30
0.0
 11
145.6623619099999
 21
221.2318516529998
 31
0.0
  0
LINE
  5
52B
330
421
100
AcDbEntity
  8
0
  6
Continuous
 62
     3
100
AcDbLine
 10
134.18
 20
219.3
 30
0.0
 11
147.1799999999998
 21
219.3
 31
0.0
  0
TEXT
  5
52C
330
421
100
AcDbEntity
  8
0
  6
Continuous
 62
     3
100
AcDbText
 10
145.18
 20
222.3
 30
0.3
 40
2.5
  1
２.３
 50
90.0
 41
0.8
  7
KANJI0
100
AcDbText
  0
LINE
  5
52D
330
421
100
AcDbEntity
  8
0
  6
LTYPE1
 62
     3
100
AcDbLine
 10
147.6299999999999
 20
216.899999962
 30
0.3
 11
83.58
 21
216.899999976
 31
0.3
  0
LINE
  5
52E
330
421
100
AcDbEntity
  8
0
  6
Continuous
 62
     3
100
AcDbLine
 10
85.83
 20
216.9
 30
0.0
 11
85.31236191000003
 21
214.968148347
 31
0.0
  0
LINE
  5
52F
330
421
100
AcDbEntity
  8
0
  6
Continuous
 62
     3
100
AcDbLine
 10
85.83
 20
216.9
 30
0.0
 11
86.34763809
 21
214.968148347
 31
0.0
  0
LINE
  5
530
330
421
100
AcDbEntity
  8
0
  6
Continuous
 62
     3
100
AcDbLine
 10
85.83
 20
213.9
 30
0.0
 11
85.83
 21
216.9
 31
0.0
  0
LINE
  5
531
330
421
100
AcDbEntity
  8
0
  6
Continuous
 62
     3
100
AcDbLine
 10
85.83
 20
216.9
 30
0.0
 11
85.83
 21
217.7
 31
0.0
  0
LINE
  5
532
330
421
100
AcDbEntity
  8
0
  6
Continuous
 62
     3
100
AcDbLine
 10
85.83
 20
217.7
 30
0.0
 11
85.83
 21
227.3
 31
0.0
  0
LINE
  5
533
330
421
100
AcDbEntity
  8
0
  6
Continuous
 62
     3
100
AcDbLine
 10
85.83
 20
217.7
 30
0.0
 11
86.34763809
 21
219.6318516529999
 31
0.0
  0
LINE
  5
534
330
421
100
AcDbEntity
  8
0
  6
Continuous
 62
     3
100
AcDbLine
 10
85.83
 20
217.7
 30
0.0
 11
85.31236191000003
 21
219.6318516529999
 31
0.0
  0
LINE
  5
535
330
421
100
AcDbEntity
  8
0
  6
Continuous
 62
     3
100
AcDbLine
 10
99.32999999999999
 20
217.7
 30
0.0
 11
84.83
 21
217.7
 31
0.0
  0
TEXT
  5
536
330
421
100
AcDbEntity
  8
0
  6
Continuous
 62
     3
100
AcDbText
 10
84.83
 20
220.6999999999999
 30
0.3
 40
2.5
  1
０.８
 50
90.0
 41
0.8
  7
KANJI0
100
AcDbText
  0
LINE
  5
537
330
421
100
AcDbEntity
  8
0
  6
Continuous
 62
     3
100
AcDbLine
 10
115.83
 20
233.3499999999999
 30
0.3
 11
117.7618516529997
 21
232.83236191
 31
0.3
  0
LINE
  5
538
330
421
100
AcDbEntity
  8
0
  6
Continuous
 62
     3
100
AcDbLine
 10
115.83
 20
233.3499999999999
 30
0.0
 11
117.7618516529997
 21
233.86763809
 31
0.0
  0
LINE
  5
539
330
421
100
AcDbEntity
  8
0
  6
Continuous
 62
     3
100
AcDbLine
 10
125.43
 20
233.3499999999999
 30
0.0
 11
115.83
 21
233.3499999999999
 31
0.0
  0
LINE
  5
53A
330
421
100
AcDbEntity
  8
0
  6
Continuous
 62
     3
100
AcDbLine
 10
115.83
 20
233.3499999999999
 30
0.0
 11
113.3299999999999
 21
233.3499999999999
 31
0.0
  0
LINE
  5
53B
330
421
100
AcDbEntity
  8
0
  6
Continuous
 62
     3
100
AcDbLine
 10
113.3299999999999
 20
233.3499999999999
 30
0.0
 11
110.3299999999999
 21
233.3499999999999
 31
0.0
  0
LINE
  5
53C
330
421
100
AcDbEntity
  8
0
  6
Continuous
 62
     3
100
AcDbLine
 10
113.3299999999999
 20
233.3499999999999
 30
0.0
 11
111.398148347
 21
233.86763809
 31
0.0
  0
LINE
  5
53D
330
421
100
AcDbEntity
  8
0
  6
Continuous
 62
     3
100
AcDbLine
 10
113.3299999999999
 20
233.3499999999999
 30
0.0
 11
111.398148347
 21
232.83236191
 31
0.0
  0
LINE
  5
53E
330
421
100
AcDbEntity
  8
0
  6
Continuous
 62
     3
100
AcDbLine
 10
113.3299999999999
 20
220.35
 30
0.0
 11
113.3299999999999
 21
234.35
 31
0.0
  0
TEXT
  5
53F
330
421
100
AcDbEntity
  8
0
  6
Continuous
 62
     3
100
AcDbText
 10
118.8299999999999
 20
234.35
 30
0.3
 40
2.5
  1
２.５
 41
0.8
  7
KANJI0
100
AcDbText
  0
LINE
  5
540
330
421
100
AcDbEntity
  8
0
  6
Continuous
 62
     3
100
AcDbLine
 10
113.3299999999999
 20
234.35
 30
0.3
 11
113.3299999999999
 21
239.0
 31
0.3
  0
LINE
  5
541
330
421
100
AcDbEntity
  8
0
  6
Continuous
 62
     3
100
AcDbLine
 10
113.3299999999999
 20
238.0
 30
0.0
 11
115.261851653
 21
237.48236191
 31
0.0
  0
LINE
  5
542
330
421
100
AcDbEntity
  8
0
  6
Continuous
 62
     3
100
AcDbLine
 10
113.3299999999999
 20
238.0
 30
0.0
 11
115.261851653
 21
238.5176380899999
 31
0.0
  0
LINE
  5
543
330
421
100
AcDbEntity
  8
0
  6
Continuous
 62
     3
100
AcDbLine
 10
113.3299999999999
 20
238.0
 30
0.0
 11
133.33
 21
238.0
 31
0.0
  0
LINE
  5
544
330
421
100
AcDbEntity
  8
0
  6
Continuous
 62
     3
100
AcDbLine
 10
133.33
 20
238.0
 30
0.0
 11
131.398148347
 21
238.5176380899999
 31
0.0
  0
LINE
  5
545
330
421
100
AcDbEntity
  8
0
  6
Continuous
 62
     3
100
AcDbLine
 10
133.33
 20
238.0
 30
0.0
 11
131.398148347
 21
237.48236191
 31
0.0
  0
LINE
  5
546
330
421
100
AcDbEntity
  8
0
  6
Continuous
 62
     3
100
AcDbLine
 10
133.33
 20
220.3
 30
0.0
 11
133.33
 21
239.0
 31
0.0
  0
TEXT
  5
547
330
421
100
AcDbEntity
  8
0
  6
Continuous
 62
     3
100
AcDbText
 10
116.3799999999999
 20
239.0
 30
0.3
 40
2.5
  1
５×４＝２０
 41
0.8
  7
KANJI0
100
AcDbText
  0
LINE
  5
549
330
421
100
AcDbEntity
  8
0
  6
Continuous
 62
     3
100
AcDbLine
 10
99.83
 20
218.55
 30
0.0
 11
99.83
 21
243.5999999999999
 31
0.0
  0
LINE
  5
54A
330
421
100
AcDbEntity
  8
0
  6
Continuous
 62
     3
100
AcDbLine
 10
99.83
 20
242.6
 30
0.0
 11
101.761851653
 21
242.08236191
 31
0.0
  0
LINE
  5
54B
330
421
100
AcDbEntity
  8
0
  6
Continuous
 62
     3
100
AcDbLine
 10
99.83
 20
242.6
 30
0.0
 11
101.761851653
 21
243.11763809
 31
0.0
  0
LINE
  5
54C
330
421
100
AcDbEntity
  8
0
  6
Continuous
 62
     3
100
AcDbLine
 10
99.83
 20
242.6
 30
0.0
 11
115.83
 21
242.6
 31
0.0
  0
LINE
  5
54D
330
421
100
AcDbEntity
  8
0
  6
Continuous
 62
     3
100
AcDbLine
 10
115.83
 20
242.6
 30
0.0
 11
113.898148347
 21
243.11763809
 31
0.0
  0
LINE
  5
54E
330
421
100
AcDbEntity
  8
0
  6
Continuous
 62
     3
100
AcDbLine
 10
115.83
 20
242.6
 30
0.0
 11
113.898148347
 21
242.08236191
 31
0.0
  0
POINT
  5
54F
330
421
100
AcDbEntity
  8
0
  6
Continuous
 62
     3
100
AcDbPoint
 10
115.83
 20
241.5999999999999
 30
0.0
  0
TEXT
  5
550
330
421
100
AcDbEntity
  8
0
  6
Continuous
 62
     3
100
AcDbText
 10
105.68
 20
243.5999999999999
 30
0.3
 40
2.5
  1
１６
 41
0.8
  7
KANJI0
100
AcDbText
  0
LINE
  5
551
330
421
100
AcDbEntity
  8
0
  6
Continuous
 62
     3
100
AcDbLine
 10
91.33
 20
128.9
 30
0.3
 11
86.12999999999997
 21
128.9
 31
0.3
  0
LINE
  5
552
330
421
100
AcDbEntity
  8
0
  6
Continuous
 62
     3
100
AcDbLine
 10
87.12999999999999
 20
128.9
 30
0.0
 11
87.64763808999999
 21
130.8318516529997
 31
0.0
  0
LINE
  5
553
330
421
100
AcDbEntity
  8
0
  6
Continuous
 62
     3
100
AcDbLine
 10
87.12999999999999
 20
128.9
 30
0.0
 11
86.61236191
 21
130.8318516529997
 31
0.0
  0
LINE
  5
554
330
421
100
AcDbEntity
  8
0
  6
Continuous
 62
     3
100
AcDbLine
 10
87.12999999999999
 20
128.9
 30
0.0
 11
87.12999999999999
 21
168.12
 31
0.0
  0
LINE
  5
555
330
421
100
AcDbEntity
  8
0
  6
Continuous
 62
     3
100
AcDbLine
 10
87.12999999999999
 20
168.12
 30
0.0
 11
86.61236191
 21
166.188148347
 31
0.0
  0
LINE
  5
556
330
421
100
AcDbEntity
  8
0
  6
Continuous
 62
     3
100
AcDbLine
 10
87.12999999999999
 20
168.12
 30
0.0
 11
87.64763808999999
 21
166.188148347
 31
0.0
  0
LINE
  5
557
330
421
100
AcDbEntity
  8
0
  6
Continuous
 62
     3
100
AcDbLine
 10
93.13
 20
168.12
 30
0.0
 11
86.12999999999997
 21
168.12
 31
0.0
  0
TEXT
  5
558
330
421
100
AcDbEntity
  8
0
  6
Continuous
 62
     3
100
AcDbText
 10
86.12999999999997
 20
144.06
 30
0.3
 40
2.5
  1
３９.２
 50
90.0
 41
0.8
  7
KANJI0
100
AcDbText
  0
LINE
  5
559
330
421
100
AcDbEntity
  8
0
  6
Continuous
 62
     3
100
AcDbLine
 10
87.12999999999999
 20
128.9
 30
0.3
 11
87.64763808999999
 21
130.8318516529997
 31
0.3
  0
LINE
  5
55A
330
421
100
AcDbEntity
  8
0
  6
Continuous
 62
     3
100
AcDbLine
 10
87.12999999999999
 20
128.9
 30
0.0
 11
86.61236191
 21
130.8318516529997
 31
0.0
  0
LINE
  5
55B
330
421
100
AcDbEntity
  8
0
  6
Continuous
 62
     3
100
AcDbLine
 10
87.12999999999999
 20
131.9
 30
0.0
 11
87.12999999999999
 21
128.9
 31
0.0
  0
LINE
  5
55C
330
421
100
AcDbEntity
  8
0
  6
Continuous
 62
     3
100
AcDbLine
 10
87.12999999999999
 20
128.9
 30
0.0
 11
87.12999999999999
 21
128.4499999999999
 31
0.0
  0
LINE
  5
55D
330
421
100
AcDbEntity
  8
0
  6
Continuous
 62
     3
100
AcDbLine
 10
87.12999999999999
 20
128.4499999999999
 30
0.0
 11
87.12999999999999
 21
118.8499999999996
 31
0.0
  0
LINE
  5
55E
330
421
100
AcDbEntity
  8
0
  6
Continuous
 62
     3
100
AcDbLine
 10
87.12999999999999
 20
128.4499999999999
 30
0.0
 11
86.61236191
 21
126.518148347
 31
0.0
  0
LINE
  5
55F
330
421
100
AcDbEntity
  8
0
  6
Continuous
 62
     3
100
AcDbLine
 10
87.12999999999999
 20
128.4499999999999
 30
0.0
 11
87.64763808999999
 21
126.518148347
 31
0.0
  0
LINE
  5
560
330
421
100
AcDbEntity
  8
0
  6
Continuous
 62
     3
100
AcDbLine
 10
91.57999999999999
 20
128.4499999999999
 30
0.0
 11
86.12999999999997
 21
128.4499999999999
 31
0.0
  0
TEXT
  5
561
330
421
100
AcDbEntity
  8
0
  6
Continuous
 62
     3
100
AcDbText
 10
86.12999999999997
 20
118.8499999999996
 30
0.3
 40
2.5
  1
０.５
 50
90.0
 41
0.8
  7
KANJI0
100
AcDbText
  0
LINE
  5
562
330
421
100
AcDbEntity
  8
0
  6
Continuous
 62
     3
100
AcDbLine
 10
163.7299999999999
 20
176.35
 30
0.3
 11
165.6618516529999
 21
175.83236191
 31
0.3
  0
LINE
  5
563
330
421
100
AcDbEntity
  8
0
  6
Continuous
 62
     3
100
AcDbLine
 10
163.7299999999999
 20
176.35
 30
0.0
 11
165.6618516529999
 21
176.86763809
 31
0.0
  0
LINE
  5
564
330
421
100
AcDbEntity
  8
0
  6
Continuous
 62
     3
100
AcDbLine
 10
163.7299999999999
 20
176.35
 30
0.0
 11
184.8799999999999
 21
176.35
 31
0.0
  0
LINE
  5
565
330
421
100
AcDbEntity
  8
0
  6
Continuous
 62
     3
100
AcDbLine
 10
184.8799999999999
 20
176.35
 30
0.0
 11
182.9481483469998
 21
176.86763809
 31
0.0
  0
LINE
  5
566
330
421
100
AcDbEntity
  8
0
  6
Continuous
 62
     3
100
AcDbLine
 10
184.8799999999999
 20
176.35
 30
0.0
 11
182.9481483469998
 21
175.83236191
 31
0.0
  0
TEXT
  5
567
330
421
100
AcDbEntity
  8
0
  6
Continuous
 62
     3
100
AcDbText
 10
169.855
 20
177.35
 30
0.3
 40
2.5
  1
２１.２
 41
0.8
  7
KANJI0
100
AcDbText
  0
LINE
  5
568
330
421
100
AcDbEntity
  8
0
  6
Continuous
 62
     3
100
AcDbLine
 10
163.7299999999999
 20
161.65
 30
0.3
 11
163.7299999999999
 21
177.35
 31
0.3
  0
LINE
  5
569
330
421
100
AcDbEntity
  8
0
  6
Continuous
 62
     3
100
AcDbLine
 10
184.8799999999999
 20
169.05
 30
0.0
 11
184.8799999999999
 21
177.35
 31
0.0
  0
LINE
  5
56B
330
421
100
AcDbEntity
  8
0
  6
Continuous
 62
     3
100
AcDbLine
 10
174.38
 20
171.0
 30
0.0
 11
176.3118516529999
 21
170.48236191
 31
0.0
  0
LINE
  5
56C
330
421
100
AcDbEntity
  8
0
  6
Continuous
 62
     3
100
AcDbLine
 10
174.38
 20
171.0
 30
0.0
 11
176.3118516529999
 21
171.51763809
 31
0.0
  0
LINE
  5
56D
330
421
100
AcDbEntity
  8
0
  6
Continuous
 62
     3
100
AcDbLine
 10
183.9799999999999
 20
171.0
 30
0.0
 11
174.38
 21
171.0
 31
0.0
  0
LINE
  5
56E
330
421
100
AcDbEntity
  8
0
  6
Continuous
 62
     3
100
AcDbLine
 10
174.38
 20
171.0
 30
0.0
 11
168.08
 21
171.0
 31
0.0
  0
LINE
  5
56F
330
421
100
AcDbEntity
  8
0
  6
Continuous
 62
     3
100
AcDbLine
 10
168.08
 20
171.0
 30
0.0
 11
165.08
 21
171.0
 31
0.0
  0
LINE
  5
570
330
421
100
AcDbEntity
  8
0
  6
Continuous
 62
     3
100
AcDbLine
 10
168.08
 20
171.0
 30
0.0
 11
166.148148347
 21
171.51763809
 31
0.0
  0
LINE
  5
571
330
421
100
AcDbEntity
  8
0
  6
Continuous
 62
     3
100
AcDbLine
 10
168.08
 20
171.0
 30
0.0
 11
166.148148347
 21
170.48236191
 31
0.0
  0
LINE
  5
572
330
421
100
AcDbEntity
  8
0
  6
Continuous
 62
     3
100
AcDbLine
 10
168.08
 20
169.0
 30
0.0
 11
168.08
 21
172.0
 31
0.0
  0
TEXT
  5
573
330
421
100
AcDbEntity
  8
0
  6
Continuous
 62
     3
100
AcDbText
 10
177.38
 20
172.0
 30
0.3
 40
2.5
  1
６.３
 41
0.8
  7
KANJI0
100
AcDbText
  0
LINE
  5
574
330
421
100
AcDbEntity
  8
0
  6
Continuous
 62
     3
100
AcDbLine
 10
167.2299999999999
 20
168.12
 30
0.3
 11
157.53
 21
168.12
 31
0.3
  0
LINE
  5
575
330
421
100
AcDbEntity
  8
0
  6
Continuous
 62
     3
100
AcDbLine
 10
158.53
 20
168.12
 30
0.0
 11
159.04763809
 21
170.051851653
 31
0.0
  0
LINE
  5
576
330
421
100
AcDbEntity
  8
0
  6
Continuous
 62
     3
100
AcDbLine
 10
158.53
 20
168.12
 30
0.0
 11
158.01236191
 21
170.051851653
 31
0.0
  0
LINE
  5
577
330
421
100
AcDbEntity
  8
0
  6
Continuous
 62
     3
100
AcDbLine
 10
158.53
 20
171.12
 30
0.0
 11
158.53
 21
168.12
 31
0.0
  0
LINE
  5
578
330
421
100
AcDbEntity
  8
0
  6
Continuous
 62
     3
100
AcDbLine
 10
158.53
 20
168.12
 30
0.0
 11
158.53
 21
160.4199999999998
 31
0.0
  0
LINE
  5
579
330
421
100
AcDbEntity
  8
0
  6
Continuous
 62
     3
100
AcDbLine
 10
158.53
 20
160.4199999999998
 30
0.0
 11
158.01236191
 21
158.488148347
 31
0.0
  0
LINE
  5
57A
330
421
100
AcDbEntity
  8
0
  6
Continuous
 62
     3
100
AcDbLine
 10
158.53
 20
160.4199999999998
 30
0.0
 11
159.04763809
 21
158.488148347
 31
0.0
  0
LINE
  5
57B
330
421
100
AcDbEntity
  8
0
  6
Continuous
 62
     3
100
AcDbLine
 10
162.7299999999999
 20
160.4199999999998
 30
0.0
 11
157.53
 21
160.4199999999998
 31
0.0
  0
TEXT
  5
57C
330
421
100
AcDbEntity
  8
0
  6
Continuous
 62
     3
100
AcDbText
 10
157.53
 20
160.82
 30
0.3
 40
2.5
  1
７.７
 50
90.0
 41
0.8
  7
KANJI0
100
AcDbText
  0
LINE
  5
57D
330
421
100
AcDbEntity
  8
0
  6
Continuous
 62
     3
100
AcDbLine
 10
158.53
 20
160.4199999999998
 30
0.3
 11
158.53
 21
157.62
 31
0.3
  0
LINE
  5
57E
330
421
100
AcDbEntity
  8
0
  6
Continuous
 62
     3
100
AcDbLine
 10
158.53
 20
160.4199999999998
 30
0.0
 11
158.01236191
 21
158.488148347
 31
0.0
  0
LINE
  5
57F
330
421
100
AcDbEntity
  8
0
  6
Continuous
 62
     3
100
AcDbLine
 10
158.53
 20
160.4199999999998
 30
0.0
 11
159.04763809
 21
158.488148347
 31
0.0
  0
LINE
  5
580
330
421
100
AcDbEntity
  8
0
  6
Continuous
 62
     3
100
AcDbLine
 10
158.53
 20
160.4199999999998
 30
0.0
 11
158.53
 21
133.4199999999997
 31
0.0
  0
LINE
  5
581
330
421
100
AcDbEntity
  8
0
  6
Continuous
 62
     3
100
AcDbLine
 10
158.53
 20
133.4199999999997
 30
0.0
 11
159.04763809
 21
135.3518516529998
 31
0.0
  0
LINE
  5
582
330
421
100
AcDbEntity
  8
0
  6
Continuous
 62
     3
100
AcDbLine
 10
158.53
 20
133.4199999999997
 30
0.0
 11
158.01236191
 21
135.3518516529998
 31
0.0
  0
LINE
  5
583
330
421
100
AcDbEntity
  8
0
  6
Continuous
 62
     3
100
AcDbLine
 10
161.43
 20
133.4199999999997
 30
0.0
 11
157.53
 21
133.4199999999997
 31
0.0
  0
TEXT
  5
584
330
421
100
AcDbEntity
  8
0
  6
Continuous
 62
     3
100
AcDbText
 10
157.53
 20
144.77
 30
0.3
 40
2.5
  1
２７
 50
90.0
 41
0.8
  7
KANJI0
100
AcDbText
  0
LINE
  5
585
330
421
100
AcDbEntity
  8
0
  6
Continuous
 62
     3
100
AcDbLine
 10
134.83
 20
161.62
 30
0.3
 11
135.4872758029999
 21
159.731088006
 31
0.3
  0
LINE
  5
586
330
421
100
AcDbEntity
  8
0
  6
Continuous
 62
     3
100
AcDbLine
 10
134.83
 20
161.62
 30
0.0
 11
136.343673539
 21
160.312792129
 31
0.0
  0
LINE
  5
587
330
421
100
AcDbEntity
  8
0
  6
Continuous
 62
     3
100
AcDbLine
 10
134.83
 20
161.62
 30
0.0
 11
142.03
 21
151.02
 31
0.0
  0
LINE
  5
588
330
421
100
AcDbEntity
  8
0
  6
Continuous
 62
     3
100
AcDbLine
 10
142.03
 20
151.02
 30
0.0
 11
150.93
 21
151.02
 31
0.0
  0
TEXT
  5
589
330
421
100
AcDbEntity
  8
0
  6
Continuous
 62
     3
100
AcDbText
 10
142.03
 20
152.02
 30
0.3
 40
2.5
  1
５－Φ４
 41
0.8
  7
KANJI0
100
AcDbText
  0
LINE
  5
58A
330
421
100
AcDbEntity
  8
0
  6
Continuous
 62
     3
100
AcDbLine
 10
98.13
 20
219.02
 30
0.3
 11
97.31250947500001
 21
220.845297028
 31
0.3
  0
LINE
  5
58B
330
421
100
AcDbEntity
  8
0
  6
Continuous
 62
     3
100
AcDbLine
 10
98.13
 20
219.02
 30
0.0
 11
96.509383924
 21
220.192008334
 31
0.0
  0
LINE
  5
58C
330
421
100
AcDbEntity
  8
0
  6
Continuous
 62
     3
100
AcDbLine
 10
98.13
 20
219.02
 30
0.0
 11
87.23
 21
232.4199999999999
 31
0.0
  0
LINE
  5
58D
330
421
100
AcDbEntity
  8
0
  6
Continuous
 62
     3
100
AcDbLine
 10
87.23
 20
232.4199999999999
 30
0.0
 11
78.33
 21
232.4199999999999
 31
0.0
  0
TEXT
  5
58E
330
421
100
AcDbEntity
  8
0
  6
Continuous
 62
     3
100
AcDbText
 10
78.33
 20
233.42
 30
0.3
 40
2.5
  1
Φ４.５
 41
0.8
  7
KANJI0
100
AcDbText
  0
LINE
  5
58F
330
421
100
AcDbEntity
  8
0
  6
Continuous
 62
     3
100
AcDbLine
 10
129.23
 20
221.0199999999999
 30
0.3
 11
130.80916873
 21
222.247284043
 31
0.3
  0
LINE
  5
590
330
421
100
AcDbEntity
  8
0
  6
Continuous
 62
     3
100
AcDbLine
 10
129.23
 20
221.0199999999999
 30
0.0
 11
129.9839582149996
 21
222.872443524
 31
0.0
  0
LINE
  5
591
330
421
100
AcDbEntity
  8
0
  6
Continuous
 62
     3
100
AcDbLine
 10
129.23
 20
221.0199999999999
 30
0.0
 11
139.2299999999996
 21
234.22
 31
0.0
  0
LINE
  5
592
330
421
100
AcDbEntity
  8
0
  6
Continuous
 62
     3
100
AcDbLine
 10
139.2299999999996
 20
234.22
 30
0.0
 11
148.13
 21
234.22
 31
0.0
  0
TEXT
  5
593
330
421
100
AcDbEntity
  8
0
  6
Continuous
 62
     3
100
AcDbText
 10
139.2299999999996
 20
235.2199999999999
 30
0.3
 40
2.5
  1
５－Φ４
 41
0.8
  7
KANJI0
100
AcDbText
  0
LINE
  5
594
330
421
100
AcDbEntity
  8
0
  6
Continuous
 62
     3
100
AcDbLine
 10
231.9521186459998
 20
133.427118602
 30
0.3
 11
223.9521186459997
 21
133.4271186039998
 31
0.3
  0
LINE
  5
596
330
421
100
AcDbEntity
  8
0
  6
Continuous
 62
     4
100
AcDbLine
 10
370.73
 20
168.47
 30
0.0
 11
370.73
 21
169.9699999999999
 31
0.0
  0
LINE
  5
597
330
421
100
AcDbEntity
  8
0
  6
LTYPE1
 62
     3
100
AcDbLine
 10
268.73
 20
185.47
 30
0.0
 11
397.23
 21
185.47
 31
0.0
  0
LINE
  5
598
330
421
100
AcDbEntity
  8
0
  6
LTYPE1
 62
     3
100
AcDbLine
 10
370.73
 20
164.47
 30
0.0
 11
370.73
 21
238.47
 31
0.0
  0
LINE
  5
599
330
421
100
AcDbEntity
  8
0
  6
LTYPE1
 62
     3
100
AcDbLine
 10
305.73
 20
234.9699999999999
 30
0.0
 11
305.73
 21
164.9699999999999
 31
0.0
  0
LINE
  5
59A
330
421
100
AcDbEntity
  8
0
  6
Continuous
 62
     1
100
AcDbLine
 10
283.23
 20
209.47
 30
0.0
 11
328.23
 21
209.47
 31
0.0
  0
LINE
  5
59B
330
421
100
AcDbEntity
  8
0
  6
Continuous
 62
     1
100
AcDbLine
 10
348.23
 20
209.47
 30
0.0
 11
393.23
 21
209.47
 31
0.0
  0
LINE
  5
59C
330
421
100
AcDbEntity
  8
0
  6
Continuous
 62
     1
100
AcDbLine
 10
348.23
 20
231.47
 30
0.0
 11
348.23
 21
209.47
 31
0.0
  0
LINE
  5
59D
330
421
100
AcDbEntity
  8
0
  6
Continuous
 62
     1
100
AcDbLine
 10
328.23
 20
174.4699999999999
 30
0.0
 11
328.23
 21
196.47
 31
0.0
  0
LINE
  5
59E
330
421
100
AcDbEntity
  8
0
  6
Continuous
 62
     1
100
AcDbLine
 10
328.23
 20
196.47
 30
0.0
 11
283.23
 21
196.47
 31
0.0
  0
LINE
  5
59F
330
421
100
AcDbEntity
  8
0
  6
Continuous
 62
     1
100
AcDbLine
 10
393.23
 20
196.47
 30
0.0
 11
348.23
 21
196.47
 31
0.0
  0
LINE
  5
5A0
330
421
100
AcDbEntity
  8
0
  6
Continuous
 62
     1
100
AcDbLine
 10
348.23
 20
196.47
 30
0.0
 11
348.23
 21
174.4699999999999
 31
0.0
  0
LINE
  5
5A1
330
421
100
AcDbEntity
  8
0
  6
Continuous
 62
     1
100
AcDbLine
 10
328.23
 20
209.47
 30
0.0
 11
328.23
 21
231.47
 31
0.0
  0
LINE
  5
5A2
330
421
100
AcDbEntity
  8
0
  6
Continuous
 62
     1
100
AcDbLine
 10
393.23
 20
209.47
 30
0.0
 11
393.23
 21
231.47
 31
0.0
  0
LINE
  5
5A3
330
421
100
AcDbEntity
  8
0
  6
Continuous
 62
     1
100
AcDbLine
 10
393.23
 20
231.47
 30
0.0
 11
348.23
 21
231.47
 31
0.0
  0
LINE
  5
5A4
330
421
100
AcDbEntity
  8
0
  6
Continuous
 62
     1
100
AcDbLine
 10
393.23
 20
174.4699999999999
 30
0.0
 11
393.23
 21
196.47
 31
0.0
  0
LINE
  5
5A5
330
421
100
AcDbEntity
  8
0
  6
Continuous
 62
     1
100
AcDbLine
 10
348.23
 20
174.4699999999999
 30
0.0
 11
393.23
 21
174.4699999999999
 31
0.0
  0
LINE
  5
5A6
330
421
100
AcDbEntity
  8
0
  6
Continuous
 62
     1
100
AcDbLine
 10
283.23
 20
174.4699999999999
 30
0.0
 11
328.23
 21
174.4699999999999
 31
0.0
  0
LINE
  5
5A7
330
421
100
AcDbEntity
  8
0
  6
Continuous
 62
     1
100
AcDbLine
 10
283.23
 20
196.47
 30
0.0
 11
283.23
 21
174.4699999999999
 31
0.0
  0
LINE
  5
5A8
330
421
100
AcDbEntity
  8
0
  6
Continuous
 62
     1
100
AcDbLine
 10
328.23
 20
231.47
 30
0.0
 11
283.23
 21
231.47
 31
0.0
  0
LINE
  5
5A9
330
421
100
AcDbEntity
  8
0
  6
Continuous
 62
     1
100
AcDbLine
 10
283.23
 20
231.47
 30
0.0
 11
283.23
 21
209.47
 31
0.0
  0
ARC
  5
5AA
330
421
100
AcDbEntity
  8
0
  6
Continuous
 62
     1
100
AcDbCircle
 10
48.320086606
 20
167.627118622
 30
0.0
 40
0.5
100
AcDbArc
 50
90.0
 51
179.188499316
  0
ARC
  5
5AB
330
421
100
AcDbEntity
  8
0
  6
Continuous
 62
     1
100
AcDbCircle
 10
64.15241842899999
 20
167.6271186239999
 30
0.0
 40
0.5
100
AcDbArc
 50
2.973731082
 51
90.0
  0
LINE
  5
5AC
330
421
100
AcDbEntity
  8
0
  6
Continuous
 62
     1
100
AcDbLine
 10
64.15241842899999
 20
168.127118624
 30
0.0
 11
48.320086606
 21
168.127118622
 31
0.0
  0
LINE
  5
5AD
330
421
100
AcDbEntity
  8
0
  6
Continuous
 62
     1
100
AcDbLine
 10
64.651745142
 20
167.653057674
 30
0.0
 11
65.02711859899999
 21
160.427118624
 31
0.0
  0
ARC
  5
5AE
330
421
100
AcDbEntity
  8
0
  6
Continuous
 62
     1
100
AcDbCircle
 10
68.44321576
 20
159.927118624
 30
0.0
 40
0.5
100
AcDbArc
 50
0.8115006859999997
 51
90.0
  0
LINE
  5
5AF
330
421
100
AcDbEntity
  8
0
  6
Continuous
 62
     1
100
AcDbLine
 10
68.44321576
 20
160.427118624
 30
0.0
 11
65.02711859899999
 21
160.427118624
 31
0.0
  0
LINE
  5
5B0
330
421
100
AcDbEntity
  8
0
  6
Continuous
 62
     1
100
AcDbLine
 10
63.32711860799999
 20
133.7271186229999
 30
0.0
 11
63.32711860399999
 21
150.9271186229999
 31
0.0
  0
ARC
  5
5B1
330
421
100
AcDbEntity
  8
0
  6
Continuous
 62
     1
100
AcDbCircle
 10
63.827118604
 20
150.9271186229999
 30
0.0
 40
0.5
100
AcDbArc
 50
0.0
 51
180.0
  0
LINE
  5
5B2
330
421
100
AcDbEntity
  8
0
  6
Continuous
 62
     1
100
AcDbLine
 10
64.32711860399999
 20
150.9271186229999
 30
0.0
 11
64.32711860800001
 21
133.4271186229998
 31
0.0
  0
LINE
  5
5B3
330
421
100
AcDbEntity
  8
0
  6
Continuous
 62
     1
100
AcDbLine
 10
53.32711860799999
 20
133.7271186199999
 30
0.0
 11
53.32711860399999
 21
150.9271186199999
 31
0.0
  0
ARC
  5
5B4
330
421
100
AcDbEntity
  8
0
  6
Continuous
 62
     1
100
AcDbCircle
 10
52.827118604
 20
150.9271186199999
 30
0.0
 40
0.5
100
AcDbArc
 50
0.0
 51
180.0
  0
LINE
  5
5B5
330
421
100
AcDbEntity
  8
0
  6
Continuous
 62
     1
100
AcDbLine
 10
52.327118604
 20
150.9271186199999
 30
0.0
 11
52.327118608
 21
133.177118621
 31
0.0
  0
LINE
  5
5B6
330
421
100
AcDbEntity
  8
0
  6
Continuous
 62
     1
100
AcDbLine
 10
47.05011184199999
 20
128.9271186189999
 30
0.0
 11
47.827118609
 21
128.9271186189999
 31
0.0
  0
ARC
  5
5B7
330
421
100
AcDbEntity
  8
0
  6
Continuous
 62
     1
100
AcDbCircle
 10
47.05011184199999
 20
129.427118619
 30
0.0
 40
0.5
100
AcDbArc
 50
183.17983012
 51
269.999999999
  0
LINE
  5
5B8
330
421
100
AcDbEntity
  8
0
  6
Continuous
 62
     1
100
AcDbLine
 10
47.827118609
 20
130.5271186189999
 30
0.0
 11
47.827118609
 21
130.9271186189999
 31
0.0
  0
LINE
  5
5B9
330
421
100
AcDbEntity
  8
0
  6
Continuous
 62
     1
100
AcDbLine
 10
47.827118609
 20
130.9271186189999
 30
0.0
 11
48.70211860899999
 21
130.9271186189999
 31
0.0
  0
LINE
  5
5BA
330
421
100
AcDbEntity
  8
0
  6
Continuous
 62
     1
100
AcDbLine
 10
46.32711860799999
 20
133.4271186179998
 30
0.0
 11
47.33406305199999
 21
133.427118619
 31
0.0
  0
LINE
  5
5BB
330
421
100
AcDbEntity
  8
0
  6
Continuous
 62
     1
100
AcDbLine
 10
47.827118609
 20
128.9271186189999
 30
0.0
 11
47.827118609
 21
130.9271186189999
 31
0.0
  0
LINE
  5
5BC
330
421
100
AcDbEntity
  8
0
  6
Continuous
 62
     1
100
AcDbLine
 10
46.32711860799999
 20
133.4271186179998
 30
0.0
 11
46.55088166499999
 21
129.3993836089998
 31
0.0
  0
LINE
  5
5BD
330
421
100
AcDbEntity
  8
0
  6
Continuous
 62
     1
100
AcDbLine
 10
52.327118608
 20
133.4271186199996
 30
0.0
 11
47.33406305199999
 21
133.427118619
 31
0.0
  0
LINE
  5
5BE
330
421
100
AcDbEntity
  8
0
  6
Continuous
 62
     1
100
AcDbLine
 10
47.820136755
 20
167.6342000649999
 30
0.0
 11
47.335617191
 21
133.427118619
 31
0.0
  0
LINE
  5
5BF
330
421
100
AcDbEntity
  8
0
  6
Continuous
 62
     1
100
AcDbLine
 10
70.327118608
 20
133.4271186249999
 30
0.0
 11
70.103355553
 21
129.399383615
 31
0.0
  0
ARC
  5
5C0
330
421
100
AcDbEntity
  8
0
  6
Continuous
 62
     1
100
AcDbCircle
 10
69.60412537599999
 20
129.427118625
 30
0.0
 40
0.5
100
AcDbArc
 50
269.999999999
 51
356.8201698799999
  0
LINE
  5
5C1
330
421
100
AcDbEntity
  8
0
  6
Continuous
 62
     1
100
AcDbLine
 10
68.82711860899999
 20
130.5271186239999
 30
0.0
 11
68.82711860899999
 21
130.9271186239998
 31
0.0
  0
LINE
  5
5C2
330
421
100
AcDbEntity
  8
0
  6
Continuous
 62
     1
100
AcDbLine
 10
68.82711860899999
 20
128.927118624
 30
0.0
 11
68.82711860899999
 21
130.9271186239998
 31
0.0
  0
LINE
  5
5C3
330
421
100
AcDbEntity
  8
0
  6
Continuous
 62
     1
100
AcDbLine
 10
70.327118608
 20
133.4271186249999
 30
0.0
 11
64.32711860800001
 21
133.4271186229998
 31
0.0
  0
LINE
  5
5C4
330
421
100
AcDbEntity
  8
0
  6
Continuous
 62
     1
100
AcDbLine
 10
68.825
 20
128.927118624
 30
0.0
 11
69.60412537599999
 21
128.9271186249999
 31
0.0
  0
LINE
  5
5C5
330
421
100
AcDbEntity
  8
0
  6
Continuous
 62
     1
100
AcDbLine
 10
68.94316561
 20
159.934200067
 30
0.0
 11
69.31862002399999
 21
133.4271186229998
 31
0.0
  0
LINE
  5
5C6
330
421
100
AcDbEntity
  8
0
  6
Continuous
 62
     1
100
AcDbLine
 10
68.82711860899999
 20
130.9271186239998
 30
0.0
 11
48.277118609
 21
130.9271186199999
 31
0.0
  0
ARC
  5
5C7
330
421
100
AcDbEntity
  8
0
  6
Continuous
 62
     1
100
AcDbCircle
 10
58.04932347800001
 20
244.709139313
 30
0.0
 40
116.2595954709999
100
AcDbArc
 50
264.954667232
 51
275.318169297
  0
LINE
  5
5C8
330
421
100
AcDbEntity
  8
0
  6
Continuous
 62
     1
100
AcDbLine
 10
64.32711860800001
 20
133.1771186229999
 30
0.0
 11
52.327118608
 21
133.177118621
 31
0.0
  0
LINE
  5
5C9
330
421
100
AcDbEntity
  8
0
  6
Continuous
 62
     1
100
AcDbLine
 10
58.32711860799999
 20
133.727118622
 30
0.0
 11
63.32711860799999
 21
133.7271186229999
 31
0.0
  0
LINE
  5
5CA
330
421
100
AcDbEntity
  8
0
  6
Continuous
 62
     1
100
AcDbLine
 10
63.32711860799999
 20
133.9771186229999
 30
0.0
 11
58.32711860799999
 21
133.977118622
 31
0.0
  0
LINE
  5
5CB
330
421
100
AcDbEntity
  8
0
  6
Continuous
 62
     1
100
AcDbLine
 10
58.32711860799999
 20
134.477118622
 30
0.0
 11
63.32711860799999
 21
134.477118623
 31
0.0
  0
LINE
  5
5CC
330
421
100
AcDbEntity
  8
0
  6
Continuous
 62
     1
100
AcDbLine
 10
63.32711860799999
 20
134.9771186229999
 30
0.0
 11
58.32711860799999
 21
134.977118622
 31
0.0
  0
LINE
  5
5CD
330
421
100
AcDbEntity
  8
0
  6
Continuous
 62
     1
100
AcDbLine
 10
58.32711860799999
 20
135.477118622
 30
0.0
 11
63.32711860799999
 21
135.477118623
 31
0.0
  0
LINE
  5
5CE
330
421
100
AcDbEntity
  8
0
  6
Continuous
 62
     1
100
AcDbLine
 10
63.32711860799999
 20
135.9771186229999
 30
0.0
 11
58.32711860799999
 21
135.977118622
 31
0.0
  0
LINE
  5
5CF
330
421
100
AcDbEntity
  8
0
  6
Continuous
 62
     1
100
AcDbLine
 10
58.32711860699999
 20
136.477118622
 30
0.0
 11
63.32711860699999
 21
136.477118623
 31
0.0
  0
LINE
  5
5D0
330
421
100
AcDbEntity
  8
0
  6
Continuous
 62
     1
100
AcDbLine
 10
63.32711860699999
 20
136.9771186229999
 30
0.0
 11
58.32711860699999
 21
136.977118622
 31
0.0
  0
LINE
  5
5D1
330
421
100
AcDbEntity
  8
0
  6
Continuous
 62
     1
100
AcDbLine
 10
58.32711860699999
 20
137.477118622
 30
0.0
 11
63.32711860699999
 21
137.477118623
 31
0.0
  0
LINE
  5
5D2
330
421
100
AcDbEntity
  8
0
  6
Continuous
 62
     1
100
AcDbLine
 10
63.32711860699999
 20
137.9771186229999
 30
0.0
 11
58.32711860699999
 21
137.977118622
 31
0.0
  0
LINE
  5
5D3
330
421
100
AcDbEntity
  8
0
  6
Continuous
 62
     1
100
AcDbLine
 10
58.32711860699999
 20
138.477118622
 30
0.0
 11
63.32711860699999
 21
138.477118623
 31
0.0
  0
LINE
  5
5D4
330
421
100
AcDbEntity
  8
0
  6
Continuous
 62
     1
100
AcDbLine
 10
58.32711860799999
 20
133.727118622
 30
0.0
 11
53.32711860799999
 21
133.7271186199999
 31
0.0
  0
LINE
  5
5D5
330
421
100
AcDbEntity
  8
0
  6
Continuous
 62
     1
100
AcDbLine
 10
53.32711860799999
 20
133.9771186199999
 30
0.0
 11
58.32711860799999
 21
133.977118622
 31
0.0
  0
LINE
  5
5D6
330
421
100
AcDbEntity
  8
0
  6
Continuous
 62
     1
100
AcDbLine
 10
58.32711860799999
 20
134.477118622
 30
0.0
 11
53.32711860799999
 21
134.47711862
 31
0.0
  0
LINE
  5
5D7
330
421
100
AcDbEntity
  8
0
  6
Continuous
 62
     1
100
AcDbLine
 10
53.32711860799999
 20
134.9771186199999
 30
0.0
 11
58.32711860799999
 21
134.977118622
 31
0.0
  0
LINE
  5
5D8
330
421
100
AcDbEntity
  8
0
  6
Continuous
 62
     1
100
AcDbLine
 10
58.32711860799999
 20
135.477118622
 30
0.0
 11
53.32711860799999
 21
135.47711862
 31
0.0
  0
LINE
  5
5D9
330
421
100
AcDbEntity
  8
0
  6
Continuous
 62
     1
100
AcDbLine
 10
53.32711860799999
 20
135.9771186199999
 30
0.0
 11
58.32711860799999
 21
135.977118622
 31
0.0
  0
LINE
  5
5DA
330
421
100
AcDbEntity
  8
0
  6
Continuous
 62
     1
100
AcDbLine
 10
58.32711860699999
 20
136.477118622
 30
0.0
 11
53.32711860699999
 21
136.47711862
 31
0.0
  0
LINE
  5
5DB
330
421
100
AcDbEntity
  8
0
  6
Continuous
 62
     1
100
AcDbLine
 10
53.32711860699999
 20
136.9771186199999
 30
0.0
 11
58.32711860699999
 21
136.977118622
 31
0.0
  0
LINE
  5
5DC
330
421
100
AcDbEntity
  8
0
  6
Continuous
 62
     1
100
AcDbLine
 10
58.32711860699999
 20
137.477118622
 30
0.0
 11
53.32711860699999
 21
137.47711862
 31
0.0
  0
LINE
  5
5DD
330
421
100
AcDbEntity
  8
0
  6
Continuous
 62
     1
100
AcDbLine
 10
53.32711860699999
 20
137.9771186199999
 30
0.0
 11
58.32711860699999
 21
137.977118622
 31
0.0
  0
LINE
  5
5DE
330
421
100
AcDbEntity
  8
0
  6
Continuous
 62
     1
100
AcDbLine
 10
58.32711860699999
 20
138.477118622
 30
0.0
 11
53.32711860699999
 21
138.47711862
 31
0.0
  0
LINE
  5
5DF
330
421
100
AcDbEntity
  8
0
  6
Continuous
 62
     1
100
AcDbLine
 10
91.82711863200001
 20
133.427118624
 30
0.0
 11
115.827118632
 21
133.427118617
 31
0.0
  0
LINE
  5
5E0
330
421
100
AcDbEntity
  8
0
  6
Continuous
 62
     1
100
AcDbLine
 10
92.43711863299999
 20
133.7271186239999
 30
0.0
 11
92.43711863299999
 21
133.9771186239999
 31
0.0
  0
LINE
  5
5E1
330
421
100
AcDbEntity
  8
0
  6
Continuous
 62
     1
100
AcDbLine
 10
92.62711863299999
 20
133.7271186239999
 30
0.0
 11
92.43711863299999
 21
133.7271186239999
 31
0.0
  0
LINE
  5
5E2
330
421
100
AcDbEntity
  8
0
  6
Continuous
 62
     1
100
AcDbLine
 10
92.43711863299999
 20
133.9771186239999
 30
0.0
 11
92.24711863299999
 21
133.9771186239999
 31
0.0
  0
LINE
  5
5E3
330
421
100
AcDbEntity
  8
0
  6
Continuous
 62
     1
100
AcDbLine
 10
92.24711863299999
 20
133.9771186239999
 30
0.0
 11
92.24711863299999
 21
134.4771186239998
 31
0.0
  0
LINE
  5
5E4
330
421
100
AcDbEntity
  8
0
  6
Continuous
 62
     1
100
AcDbLine
 10
92.24711863299999
 20
134.4771186239998
 30
0.0
 11
92.05711863299999
 21
134.4771186239998
 31
0.0
  0
LINE
  5
5E5
330
421
100
AcDbEntity
  8
0
  6
Continuous
 62
     1
100
AcDbLine
 10
91.10711863300002
 20
136.9771186239999
 30
0.0
 11
91.107118634
 21
137.4771186239998
 31
0.0
  0
LINE
  5
5E6
330
421
100
AcDbEntity
  8
0
  6
Continuous
 62
     1
100
AcDbLine
 10
91.107118634
 20
137.4771186239998
 30
0.0
 11
90.91711863399996
 21
137.4771186239998
 31
0.0
  0
LINE
  5
5E7
330
421
100
AcDbEntity
  8
0
  6
Continuous
 62
     1
100
AcDbLine
 10
90.91711863399996
 20
137.4771186239998
 30
0.0
 11
90.91711863399996
 21
137.9771186239999
 31
0.0
  0
LINE
  5
5E8
330
421
100
AcDbEntity
  8
0
  6
Continuous
 62
     1
100
AcDbLine
 10
90.91711863399996
 20
137.9771186239999
 30
0.0
 11
90.727118634
 21
137.9771186239999
 31
0.0
  0
LINE
  5
5E9
330
421
100
AcDbEntity
  8
0
  6
Continuous
 62
     1
100
AcDbLine
 10
90.727118634
 20
137.9771186239999
 30
0.0
 11
90.727118634
 21
138.4771186239998
 31
0.0
  0
LINE
  5
5EA
330
421
100
AcDbEntity
  8
0
  6
Continuous
 62
     1
100
AcDbLine
 10
92.05711863299999
 20
134.4771186239998
 30
0.0
 11
92.05711863299999
 21
134.9771186239999
 31
0.0
  0
LINE
  5
5EB
330
421
100
AcDbEntity
  8
0
  6
Continuous
 62
     1
100
AcDbLine
 10
92.05711863299999
 20
134.9771186239999
 30
0.0
 11
91.86711863299999
 21
134.9771186239999
 31
0.0
  0
LINE
  5
5EC
330
421
100
AcDbEntity
  8
0
  6
Continuous
 62
     1
100
AcDbLine
 10
91.86711863299999
 20
134.9771186239999
 30
0.0
 11
91.86711863299999
 21
135.4771186239998
 31
0.0
  0
LINE
  5
5ED
330
421
100
AcDbEntity
  8
0
  6
Continuous
 62
     1
100
AcDbLine
 10
91.86711863299999
 20
135.4771186239998
 30
0.0
 11
91.67711863299999
 21
135.4771186239998
 31
0.0
  0
LINE
  5
5EE
330
421
100
AcDbEntity
  8
0
  6
Continuous
 62
     1
100
AcDbLine
 10
91.67711863299999
 20
135.4771186239998
 30
0.0
 11
91.67711863299999
 21
135.9771186239999
 31
0.0
  0
LINE
  5
5EF
330
421
100
AcDbEntity
  8
0
  6
Continuous
 62
     1
100
AcDbLine
 10
91.67711863299999
 20
135.9771186239999
 30
0.0
 11
91.48711863299999
 21
135.9771186239999
 31
0.0
  0
LINE
  5
5F0
330
421
100
AcDbEntity
  8
0
  6
Continuous
 62
     1
100
AcDbLine
 10
91.48711863299999
 20
135.9771186239999
 30
0.0
 11
91.48711863299999
 21
136.4771186239998
 31
0.0
  0
LINE
  5
5F1
330
421
100
AcDbEntity
  8
0
  6
Continuous
 62
     1
100
AcDbLine
 10
91.48711863299999
 20
136.4771186239998
 30
0.0
 11
91.297118633
 21
136.4771186239998
 31
0.0
  0
LINE
  5
5F2
330
421
100
AcDbEntity
  8
0
  6
Continuous
 62
     1
100
AcDbLine
 10
91.297118633
 20
136.4771186239998
 30
0.0
 11
91.297118633
 21
136.9771186239999
 31
0.0
  0
LINE
  5
5F3
330
421
100
AcDbEntity
  8
0
  6
Continuous
 62
     1
100
AcDbLine
 10
91.297118633
 20
136.9771186239999
 30
0.0
 11
91.10711863300002
 21
136.9771186239999
 31
0.0
  0
LINE
  5
5F4
330
421
100
AcDbEntity
  8
0
  6
Continuous
 62
     1
100
AcDbLine
 10
92.62711863299999
 20
133.7271186239999
 30
0.0
 11
93.227118634
 21
137.7271186229999
 31
0.0
  0
LINE
  5
5F5
330
421
100
AcDbEntity
  8
0
  6
Continuous
 62
     1
100
AcDbLine
 10
93.227118634
 20
137.7271186229999
 30
0.0
 11
93.02711863399999
 21
138.477118623
 31
0.0
  0
ARC
  5
5F6
330
421
100
AcDbEntity
  8
0
  6
Continuous
 62
     1
100
AcDbCircle
 10
69.82711863600001
 20
147.791623716
 30
0.0
 40
25.0
100
AcDbArc
 50
338.1251667129999
 51
341.192418184
  0
LINE
  5
5F7
330
421
100
AcDbEntity
  8
0
  6
Continuous
 62
     1
100
AcDbLine
 10
93.427118644
 20
133.4271186199996
 30
0.0
 11
93.596013913
 21
148.1421188399996
 31
0.0
  0
ARC
  5
5F8
330
421
100
AcDbEntity
  8
0
  6
Continuous
 62
     1
100
AcDbCircle
 10
95.57711863899999
 20
138.427118608
 30
0.0
 40
0.5
100
AcDbArc
 50
179.999654417
 51
270.0002562899999
  0
ARC
  5
5F9
330
421
100
AcDbEntity
  8
0
  6
Continuous
 62
     1
100
AcDbCircle
 10
68.634224413
 20
150.177718181
 30
0.0
 40
25.0
100
AcDbArc
 50
332.0938949169998
 51
1.423668565
  0
LINE
  5
5FA
330
421
100
AcDbEntity
  8
0
  6
Continuous
 62
     1
100
AcDbLine
 10
91.82711863200001
 20
133.427118624
 30
0.0
 11
92.05088168799999
 21
129.3993836139998
 31
0.0
  0
LINE
  5
5FB
330
421
100
AcDbEntity
  8
0
  6
Continuous
 62
     1
100
AcDbLine
 10
92.575
 20
128.4499999999999
 30
0.0
 11
92.575
 21
128.9499999999996
 31
0.0
  0
ARC
  5
5FC
330
421
100
AcDbEntity
  8
0
  6
Continuous
 62
     1
100
AcDbCircle
 10
92.550111865
 20
129.427118624
 30
0.0
 40
0.5
100
AcDbArc
 50
183.17983012
 51
269.999999989
  0
LINE
  5
5FD
330
421
100
AcDbEntity
  8
0
  6
Continuous
 62
     1
100
AcDbLine
 10
92.550111865
 20
128.927118624
 30
0.0
 11
115.827118631
 21
128.927118617
 31
0.0
  0
LINE
  5
5FE
330
421
100
AcDbEntity
  8
0
  6
Continuous
 62
     1
100
AcDbLine
 10
139.2171186329999
 20
133.727118611
 30
0.0
 11
139.2171186329999
 21
133.977118611
 31
0.0
  0
LINE
  5
5FF
330
421
100
AcDbEntity
  8
0
  6
Continuous
 62
     1
100
AcDbLine
 10
139.0271186329999
 20
133.727118611
 30
0.0
 11
139.2171186329999
 21
133.727118611
 31
0.0
  0
LINE
  5
600
330
421
100
AcDbEntity
  8
0
  6
Continuous
 62
     1
100
AcDbLine
 10
139.2171186329999
 20
133.977118611
 30
0.0
 11
139.4071186329999
 21
133.977118611
 31
0.0
  0
LINE
  5
601
330
421
100
AcDbEntity
  8
0
  6
Continuous
 62
     1
100
AcDbLine
 10
139.4071186329999
 20
133.977118611
 30
0.0
 11
139.4071186329999
 21
134.477118611
 31
0.0
  0
LINE
  5
602
330
421
100
AcDbEntity
  8
0
  6
Continuous
 62
     1
100
AcDbLine
 10
139.4071186329999
 20
134.477118611
 30
0.0
 11
139.5971186329998
 21
134.477118611
 31
0.0
  0
LINE
  5
603
330
421
100
AcDbEntity
  8
0
  6
Continuous
 62
     1
100
AcDbLine
 10
139.5971186329998
 20
134.477118611
 30
0.0
 11
139.5971186329998
 21
134.977118611
 31
0.0
  0
LINE
  5
604
330
421
100
AcDbEntity
  8
0
  6
Continuous
 62
     1
100
AcDbLine
 10
139.5971186329998
 20
134.977118611
 30
0.0
 11
139.787118633
 21
134.977118611
 31
0.0
  0
LINE
  5
605
330
421
100
AcDbEntity
  8
0
  6
Continuous
 62
     1
100
AcDbLine
 10
139.787118633
 20
134.977118611
 30
0.0
 11
139.787118633
 21
135.477118611
 31
0.0
  0
LINE
  5
606
330
421
100
AcDbEntity
  8
0
  6
Continuous
 62
     1
100
AcDbLine
 10
139.787118633
 20
135.477118611
 30
0.0
 11
139.9771186329997
 21
135.477118611
 31
0.0
  0
LINE
  5
607
330
421
100
AcDbEntity
  8
0
  6
Continuous
 62
     1
100
AcDbLine
 10
139.9771186329997
 20
135.477118611
 30
0.0
 11
139.9771186329997
 21
135.977118611
 31
0.0
  0
LINE
  5
608
330
421
100
AcDbEntity
  8
0
  6
Continuous
 62
     1
100
AcDbLine
 10
139.9771186329997
 20
135.977118611
 30
0.0
 11
140.1671186329997
 21
135.977118611
 31
0.0
  0
LINE
  5
609
330
421
100
AcDbEntity
  8
0
  6
Continuous
 62
     1
100
AcDbLine
 10
140.1671186329997
 20
135.977118611
 30
0.0
 11
140.1671186329997
 21
136.477118611
 31
0.0
  0
LINE
  5
60A
330
421
100
AcDbEntity
  8
0
  6
Continuous
 62
     1
100
AcDbLine
 10
140.1671186329997
 20
136.477118611
 30
0.0
 11
140.3571186329997
 21
136.477118611
 31
0.0
  0
LINE
  5
60B
330
421
100
AcDbEntity
  8
0
  6
Continuous
 62
     1
100
AcDbLine
 10
140.3571186329997
 20
136.477118611
 30
0.0
 11
140.3571186329997
 21
136.977118611
 31
0.0
  0
LINE
  5
60C
330
421
100
AcDbEntity
  8
0
  6
Continuous
 62
     1
100
AcDbLine
 10
140.3571186329997
 20
136.977118611
 30
0.0
 11
140.5471186329998
 21
136.977118611
 31
0.0
  0
LINE
  5
60D
330
421
100
AcDbEntity
  8
0
  6
Continuous
 62
     1
100
AcDbLine
 10
140.5471186329998
 20
136.977118611
 30
0.0
 11
140.5471186339999
 21
137.477118611
 31
0.0
  0
LINE
  5
60E
330
421
100
AcDbEntity
  8
0
  6
Continuous
 62
     1
100
AcDbLine
 10
140.5471186339999
 20
137.477118611
 30
0.0
 11
140.7371186339998
 21
137.477118611
 31
0.0
  0
LINE
  5
60F
330
421
100
AcDbEntity
  8
0
  6
Continuous
 62
     1
100
AcDbLine
 10
140.7371186339998
 20
137.477118611
 30
0.0
 11
140.7371186339998
 21
137.977118611
 31
0.0
  0
LINE
  5
610
330
421
100
AcDbEntity
  8
0
  6
Continuous
 62
     1
100
AcDbLine
 10
140.7371186339998
 20
137.977118611
 30
0.0
 11
140.9271186339998
 21
137.977118611
 31
0.0
  0
LINE
  5
611
330
421
100
AcDbEntity
  8
0
  6
Continuous
 62
     1
100
AcDbLine
 10
140.9271186339998
 20
137.977118611
 30
0.0
 11
140.9271186339998
 21
138.477118611
 31
0.0
  0
LINE
  5
612
330
421
100
AcDbEntity
  8
0
  6
Continuous
 62
     1
100
AcDbLine
 10
139.0271186329999
 20
133.727118611
 30
0.0
 11
138.427118634
 21
137.7271186119999
 31
0.0
  0
LINE
  5
613
330
421
100
AcDbEntity
  8
0
  6
Continuous
 62
     1
100
AcDbLine
 10
138.427118634
 20
137.7271186119999
 30
0.0
 11
138.6271186339999
 21
138.477118611
 31
0.0
  0
ARC
  5
614
330
421
100
AcDbEntity
  8
0
  6
Continuous
 62
     1
100
AcDbCircle
 10
161.8271186359999
 20
147.791623692
 30
0.0
 40
25.0
100
AcDbArc
 50
198.8075818159996
 51
201.8748332869999
  0
LINE
  5
615
330
421
100
AcDbEntity
  8
0
  6
Continuous
 62
     1
100
AcDbLine
 10
138.227118633
 20
133.427118615
 30
0.0
 11
138.05466526
 21
148.452118836
 31
0.0
  0
LINE
  5
616
330
421
100
AcDbEntity
  8
0
  6
Continuous
 62
     1
100
AcDbLine
 10
139.8271186329997
 20
133.427118616
 30
0.0
 11
139.603355576
 21
129.399383602
 31
0.0
  0
ARC
  5
617
330
421
100
AcDbEntity
  8
0
  6
Continuous
 62
     1
100
AcDbCircle
 10
139.1041253999999
 20
129.427118611
 30
0.0
 40
0.5
100
AcDbArc
 50
269.999999989
 51
356.8201698799999
  0
ARC
  5
618
330
421
100
AcDbEntity
  8
0
  6
Continuous
 62
     1
100
AcDbCircle
 10
136.0771186389999
 20
138.427118607
 30
0.0
 40
0.5
100
AcDbArc
 50
270.000289135
 51
0.000327848
  0
LINE
  5
619
330
421
100
AcDbEntity
  8
0
  6
Continuous
 62
     1
100
AcDbLine
 10
139.0749999999999
 20
128.9499999999996
 30
0.0
 11
139.0749999999999
 21
128.4499999999999
 31
0.0
  0
LINE
  5
61A
330
421
100
AcDbEntity
  8
0
  6
Continuous
 62
     1
100
AcDbLine
 10
95.577120876
 20
137.9271186079997
 30
0.0
 11
136.0771211629999
 21
137.927118607
 31
0.0
  0
LINE
  5
61B
330
421
100
AcDbEntity
  8
0
  6
Continuous
 62
     1
100
AcDbLine
 10
139.827118632
 20
133.427118611
 30
0.0
 11
115.827118632
 21
133.427118617
 31
0.0
  0
LINE
  5
61C
330
421
100
AcDbEntity
  8
0
  6
Continuous
 62
     1
100
AcDbLine
 10
139.1041253989999
 20
128.9271186109999
 30
0.0
 11
115.827118631
 21
128.927118617
 31
0.0
  0
LINE
  5
61D
330
421
100
AcDbEntity
  8
0
  6
Continuous
 62
     1
100
AcDbLine
 10
139.0749999999999
 20
128.4499999999999
 30
0.0
 11
92.575
 21
128.4499999999999
 31
0.0
  0
ARC
  5
61E
330
421
100
AcDbEntity
  8
0
  6
Continuous
 62
     1
100
AcDbCircle
 10
163.020012861
 20
150.177718157
 30
0.0
 40
25.0
100
AcDbArc
 50
178.576331032
 51
207.906105083
  0
LINE
  5
61F
330
421
100
AcDbEntity
  8
0
  6
Continuous
 62
     1
100
AcDbLine
 10
136.5771186389999
 20
138.427121468
 30
0.0
 11
136.57711864
 21
157.927118607
 31
0.0
  0
LINE
  5
620
330
421
100
AcDbEntity
  8
0
  6
Continuous
 62
     1
100
AcDbLine
 10
137.3345462479999
 20
168.127118601
 30
0.0
 11
115.827118642
 21
168.127118607
 31
0.0
  0
ARC
  5
621
330
421
100
AcDbEntity
  8
0
  6
Continuous
 62
     1
100
AcDbCircle
 10
137.3345462479999
 20
167.627118601
 30
0.0
 40
0.5
100
AcDbArc
 50
0.6575984350000002
 51
89.99999999100003
  0
ARC
  5
622
330
421
100
AcDbEntity
  8
0
  6
Continuous
 62
     1
100
AcDbCircle
 10
137.4172190659996
 20
159.927118606
 30
0.0
 40
0.5
100
AcDbArc
 50
0.0
 51
90.0
  0
LINE
  5
623
330
421
100
AcDbEntity
  8
0
  6
Continuous
 62
     1
100
AcDbLine
 10
138.0277300729999
 20
150.7988470129998
 30
0.0
 11
137.834513316
 21
167.632857104
 31
0.0
  0
ARC
  5
624
330
421
100
AcDbEntity
  8
0
  6
Continuous
 62
     1
100
AcDbCircle
 10
136.07711864
 20
157.927118607
 30
0.0
 40
0.5
100
AcDbArc
 50
0.0
 51
89.99962143100002
  0
CIRCLE
  5
625
330
421
100
AcDbEntity
  8
0
  6
Continuous
 62
     1
100
AcDbCircle
 10
133.4271186409999
 20
162.927118602
 30
0.0
 40
2.0
  0
CIRCLE
  5
626
330
421
100
AcDbEntity
  8
0
  6
Continuous
 62
     1
100
AcDbCircle
 10
128.3271186409999
 20
162.9271186029998
 30
0.0
 40
2.0
  0
CIRCLE
  5
627
330
421
100
AcDbEntity
  8
0
  6
Continuous
 62
     1
100
AcDbCircle
 10
118.327118641
 20
162.9271186059999
 30
0.0
 40
2.0
  0
CIRCLE
  5
628
330
421
100
AcDbEntity
  8
0
  6
Continuous
 62
     1
100
AcDbCircle
 10
123.4271186409998
 20
162.9271186049996
 30
0.0
 40
2.0
  0
CIRCLE
  5
629
330
421
100
AcDbEntity
  8
0
  6
Continuous
 62
     1
100
AcDbCircle
 10
106.427118641
 20
163.5271186079999
 30
0.0
 40
1.75
  0
CIRCLE
  5
62A
330
421
100
AcDbEntity
  8
0
  6
Continuous
 62
     1
100
AcDbCircle
 10
101.927118641
 20
163.5271186079999
 30
0.0
 40
1.75
  0
CIRCLE
  5
62B
330
421
100
AcDbEntity
  8
0
  6
Continuous
 62
     1
100
AcDbCircle
 10
113.327118641
 20
162.927118607
 30
0.0
 40
2.0
  0
ARC
  5
62C
330
421
100
AcDbEntity
  8
0
  6
Continuous
 62
     1
100
AcDbCircle
 10
94.31969103600001
 20
167.627118612
 30
0.0
 40
0.5
100
AcDbArc
 50
89.99999999100003
 51
179.3424015649999
  0
LINE
  5
62D
330
421
100
AcDbEntity
  8
0
  6
Continuous
 62
     1
100
AcDbLine
 10
94.31969103600001
 20
168.127118612
 30
0.0
 11
115.827118642
 21
168.127118607
 31
0.0
  0
ARC
  5
62E
330
421
100
AcDbEntity
  8
0
  6
Continuous
 62
     1
100
AcDbCircle
 10
94.23701821600001
 20
159.927118611
 30
0.0
 40
0.5
100
AcDbArc
 50
90.0
 51
180.0
  0
ARC
  5
62F
330
421
100
AcDbEntity
  8
0
  6
Continuous
 62
     1
100
AcDbCircle
 10
95.57711863999999
 20
157.9271186079998
 30
0.0
 40
0.5
100
AcDbArc
 50
90.0
 51
180.0000000009999
  0
LINE
  5
630
330
421
100
AcDbEntity
  8
0
  6
Continuous
 62
     1
100
AcDbLine
 10
95.07711863999999
 20
157.9271186079998
 30
0.0
 11
95.07711863899999
 21
138.427121623
 31
0.0
  0
LINE
  5
631
330
421
100
AcDbEntity
  8
0
  6
Continuous
 62
     1
100
AcDbLine
 10
137.4172190659996
 20
160.427118606
 30
0.0
 11
94.137018216
 21
160.427118608
 31
0.0
  0
LINE
  5
632
330
421
100
AcDbEntity
  8
0
  6
Continuous
 62
     1
100
AcDbLine
 10
136.0771219429999
 20
158.427118607
 30
0.0
 11
95.57711863999999
 21
158.427118608
 31
0.0
  0
LINE
  5
633
330
421
100
AcDbEntity
  8
0
  6
Continuous
 62
     1
100
AcDbLine
 10
93.62650720499999
 20
150.7988468569998
 30
0.0
 11
93.819723967
 21
167.632857115
 31
0.0
  0
ARC
  5
634
330
421
100
AcDbEntity
  8
0
  6
Continuous
 62
     1
100
AcDbCircle
 10
92.27711862499999
 20
95.07711862399998
 30
0.0
 40
0.5
100
AcDbArc
 50
90.0
 51
180.0
  0
ARC
  5
635
330
421
100
AcDbEntity
  8
0
  6
Continuous
 62
     1
100
AcDbCircle
 10
92.27711862499999
 20
95.07711862399998
 30
0.0
 40
0.25
100
AcDbArc
 50
90.0
 51
180.0
  0
LINE
  5
636
330
421
100
AcDbEntity
  8
0
  6
Continuous
 62
     1
100
AcDbLine
 10
92.02711862500001
 20
95.07711862399998
 30
0.0
 11
92.02711862500001
 21
94.07711862399999
 31
0.0
  0
LINE
  5
637
330
421
100
AcDbEntity
  8
0
  6
Continuous
 62
     1
100
AcDbLine
 10
115.7771186249999
 20
94.07711861700001
 30
0.0
 11
91.777118625
 21
94.07711862399999
 31
0.0
  0
LINE
  5
638
330
421
100
AcDbEntity
  8
0
  6
Continuous
 62
     1
100
AcDbLine
 10
90.67711862400001
 20
88.57711862399998
 30
0.0
 11
91.757118624
 21
88.57711862399998
 31
0.0
  0
LINE
  5
639
330
421
100
AcDbEntity
  8
0
  6
Continuous
 62
     1
100
AcDbLine
 10
90.67711862400001
 20
88.57711862399998
 30
0.0
 11
90.67711862200001
 21
83.577118624
 31
0.0
  0
LINE
  5
63A
330
421
100
AcDbEntity
  8
0
  6
Continuous
 62
     1
100
AcDbLine
 10
90.87711862399999
 20
88.57711862399998
 30
0.0
 11
90.877118622
 21
83.577118624
 31
0.0
  0
LINE
  5
63B
330
421
100
AcDbEntity
  8
0
  6
Continuous
 62
     1
100
AcDbLine
 10
91.077118624
 20
88.57711862399998
 30
0.0
 11
91.07711862200002
 21
83.577118624
 31
0.0
  0
LINE
  5
63C
330
421
100
AcDbEntity
  8
0
  6
Continuous
 62
     1
100
AcDbLine
 10
91.27711862399999
 20
88.57711862399998
 30
0.0
 11
91.27711862199999
 21
83.577118624
 31
0.0
  0
LINE
  5
63D
330
421
100
AcDbEntity
  8
0
  6
Continuous
 62
     1
100
AcDbLine
 10
91.47711862399996
 20
88.57711862399998
 30
0.0
 11
91.47711862200001
 21
83.577118624
 31
0.0
  0
LINE
  5
63E
330
421
100
AcDbEntity
  8
0
  6
Continuous
 62
     1
100
AcDbLine
 10
90.67711862100001
 20
78.57711862399999
 30
0.0
 11
91.757118621
 21
78.57711862399999
 31
0.0
  0
LINE
  5
63F
330
421
100
AcDbEntity
  8
0
  6
Continuous
 62
     1
100
AcDbLine
 10
90.67711862100001
 20
78.57711862399999
 30
0.0
 11
90.67711862200001
 21
83.577118624
 31
0.0
  0
LINE
  5
640
330
421
100
AcDbEntity
  8
0
  6
Continuous
 62
     1
100
AcDbLine
 10
90.877118621
 20
78.57711862399999
 30
0.0
 11
90.877118622
 21
83.577118624
 31
0.0
  0
LINE
  5
641
330
421
100
AcDbEntity
  8
0
  6
Continuous
 62
     1
100
AcDbLine
 10
91.077118621
 20
78.57711862399999
 30
0.0
 11
91.07711862200002
 21
83.577118624
 31
0.0
  0
LINE
  5
642
330
421
100
AcDbEntity
  8
0
  6
Continuous
 62
     1
100
AcDbLine
 10
91.27711862099998
 20
78.57711862399999
 30
0.0
 11
91.27711862199999
 21
83.577118624
 31
0.0
  0
LINE
  5
643
330
421
100
AcDbEntity
  8
0
  6
Continuous
 62
     1
100
AcDbLine
 10
91.47711862100001
 20
78.57711862399999
 30
0.0
 11
91.47711862200001
 21
83.577118624
 31
0.0
  0
ARC
  5
644
330
421
100
AcDbEntity
  8
0
  6
Continuous
 62
     1
100
AcDbCircle
 10
92.27711861899999
 20
72.077118624
 30
0.0
 40
0.25
100
AcDbArc
 50
180.0
 51
270.0
  0
LINE
  5
645
330
421
100
AcDbEntity
  8
0
  6
Continuous
 62
     1
100
AcDbLine
 10
92.02711861999999
 20
73.07711862399999
 30
0.0
 11
92.02711861899999
 21
72.077118624
 31
0.0
  0
ARC
  5
646
330
421
100
AcDbEntity
  8
0
  6
Continuous
 62
     1
100
AcDbCircle
 10
92.27711861899999
 20
72.077118624
 30
0.0
 40
0.5
100
AcDbArc
 50
180.0000000009999
 51
270.0
  0
LINE
  5
647
330
421
100
AcDbEntity
  8
0
  6
Continuous
 62
     1
100
AcDbLine
 10
91.777118625
 20
95.07711862399998
 30
0.0
 11
91.77711861899997
 21
72.077118624
 31
0.0
  0
LINE
  5
648
330
421
100
AcDbEntity
  8
0
  6
Continuous
 62
     1
100
AcDbLine
 10
140.8771186209999
 20
78.577118611
 30
0.0
 11
139.797118621
 21
78.577118611
 31
0.0
  0
LINE
  5
649
330
421
100
AcDbEntity
  8
0
  6
Continuous
 62
     1
100
AcDbLine
 10
140.8771186209999
 20
78.577118611
 30
0.0
 11
140.877118622
 21
83.577118611
 31
0.0
  0
LINE
  5
64A
330
421
100
AcDbEntity
  8
0
  6
Continuous
 62
     1
100
AcDbLine
 10
140.677118621
 20
78.577118611
 30
0.0
 11
140.677118622
 21
83.577118611
 31
0.0
  0
LINE
  5
64B
330
421
100
AcDbEntity
  8
0
  6
Continuous
 62
     1
100
AcDbLine
 10
140.477118621
 20
78.577118611
 30
0.0
 11
140.477118622
 21
83.577118611
 31
0.0
  0
LINE
  5
64C
330
421
100
AcDbEntity
  8
0
  6
Continuous
 62
     1
100
AcDbLine
 10
140.277118621
 20
78.577118611
 30
0.0
 11
140.277118622
 21
83.577118611
 31
0.0
  0
LINE
  5
64D
330
421
100
AcDbEntity
  8
0
  6
Continuous
 62
     1
100
AcDbLine
 10
140.077118621
 20
78.577118611
 30
0.0
 11
140.077118622
 21
83.577118611
 31
0.0
  0
ARC
  5
64E
330
421
100
AcDbEntity
  8
0
  6
Continuous
 62
     1
100
AcDbCircle
 10
139.2771186189999
 20
72.077118611
 30
0.0
 40
0.25
100
AcDbArc
 50
270.0
 51
0.0
  0
LINE
  5
64F
330
421
100
AcDbEntity
  8
0
  6
Continuous
 62
     1
100
AcDbLine
 10
139.527118619
 20
72.077118611
 30
0.0
 11
139.52711862
 21
73.077118611
 31
0.0
  0
ARC
  5
650
330
421
100
AcDbEntity
  8
0
  6
Continuous
 62
     1
100
AcDbCircle
 10
139.2771186189999
 20
72.077118611
 30
0.0
 40
0.5
100
AcDbArc
 50
270.0
 51
0.000066922
  0
LINE
  5
651
330
421
100
AcDbEntity
  8
0
  6
Continuous
 62
     1
100
AcDbLine
 10
92.27711861899999
 20
71.57711862399999
 30
0.0
 11
139.2771186189999
 21
71.57711861100001
 31
0.0
  0
LINE
  5
652
330
421
100
AcDbEntity
  8
0
  6
Continuous
 62
     1
100
AcDbLine
 10
92.27711861899999
 20
71.82711862399999
 30
0.0
 11
139.2771186189999
 21
71.827118611
 31
0.0
  0
LINE
  5
653
330
421
100
AcDbEntity
  8
0
  6
Continuous
 62
     1
100
AcDbLine
 10
92.01999999999999
 20
73.07711862399999
 30
0.0
 11
139.77711862
 21
73.077118611
 31
0.0
  0
LINE
  5
654
330
421
100
AcDbEntity
  8
0
  6
Continuous
 62
     1
100
AcDbLine
 10
140.8771186239999
 20
88.577118611
 30
0.0
 11
139.797118624
 21
88.577118611
 31
0.0
  0
LINE
  5
655
330
421
100
AcDbEntity
  8
0
  6
Continuous
 62
     1
100
AcDbLine
 10
140.8771186239999
 20
88.577118611
 30
0.0
 11
140.877118622
 21
83.577118611
 31
0.0
  0
LINE
  5
656
330
421
100
AcDbEntity
  8
0
  6
Continuous
 62
     1
100
AcDbLine
 10
140.677118624
 20
88.577118611
 30
0.0
 11
140.677118622
 21
83.577118611
 31
0.0
  0
LINE
  5
657
330
421
100
AcDbEntity
  8
0
  6
Continuous
 62
     1
100
AcDbLine
 10
140.4771186239998
 20
88.577118611
 30
0.0
 11
140.477118622
 21
83.577118611
 31
0.0
  0
LINE
  5
658
330
421
100
AcDbEntity
  8
0
  6
Continuous
 62
     1
100
AcDbLine
 10
140.277118624
 20
88.577118611
 30
0.0
 11
140.277118622
 21
83.577118611
 31
0.0
  0
LINE
  5
659
330
421
100
AcDbEntity
  8
0
  6
Continuous
 62
     1
100
AcDbLine
 10
140.077118624
 20
88.577118611
 30
0.0
 11
140.077118622
 21
83.577118611
 31
0.0
  0
ARC
  5
65A
330
421
100
AcDbEntity
  8
0
  6
Continuous
 62
     1
100
AcDbCircle
 10
139.277118625
 20
95.077118611
 30
0.0
 40
0.5
100
AcDbArc
 50
0.0
 51
90.0
  0
ARC
  5
65B
330
421
100
AcDbEntity
  8
0
  6
Continuous
 62
     1
100
AcDbCircle
 10
139.277118625
 20
95.077118611
 30
0.0
 40
0.25
100
AcDbArc
 50
0.0
 51
90.0
  0
LINE
  5
65C
330
421
100
AcDbEntity
  8
0
  6
Continuous
 62
     1
100
AcDbLine
 10
139.527118625
 20
94.07711861100001
 30
0.0
 11
139.527118625
 21
95.077118611
 31
0.0
  0
LINE
  5
65D
330
421
100
AcDbEntity
  8
0
  6
Continuous
 62
     1
100
AcDbLine
 10
115.7771186249999
 20
94.07711861700001
 30
0.0
 11
139.777118625
 21
94.07711861100001
 31
0.0
  0
LINE
  5
65E
330
421
100
AcDbEntity
  8
0
  6
Continuous
 62
     1
100
AcDbLine
 10
139.277118626
 20
95.57711861100001
 30
0.0
 11
92.27711862600001
 21
95.57711862399999
 31
0.0
  0
LINE
  5
65F
330
421
100
AcDbEntity
  8
0
  6
Continuous
 62
     1
100
AcDbLine
 10
139.277118625
 20
95.32711861100001
 30
0.0
 11
92.27711862499999
 21
95.32711862399999
 31
0.0
  0
LINE
  5
660
330
421
100
AcDbEntity
  8
0
  6
Continuous
 62
     1
100
AcDbLine
 10
139.7771186189999
 20
72.07711919499998
 30
0.0
 11
139.777118625
 21
95.077118611
 31
0.0
  0
LINE
  5
661
330
421
100
AcDbEntity
  8
0
  6
Continuous
 62
     1
100
AcDbLine
 10
133.18
 20
89.67499999999999
 30
0.0
 11
129.63
 21
89.67499999999999
 31
0.0
  0
LINE
  5
662
330
421
100
AcDbEntity
  8
0
  6
Continuous
 62
     1
100
AcDbLine
 10
133.18
 20
89.67499999999999
 30
0.0
 11
133.58
 21
89.17499999999998
 31
0.0
  0
LINE
  5
663
330
421
100
AcDbEntity
  8
0
  6
Continuous
 62
     1
100
AcDbLine
 10
133.58
 20
89.17499999999998
 30
0.0
 11
132.9799999999996
 21
88.67499999999997
 31
0.0
  0
LINE
  5
664
330
421
100
AcDbEntity
  8
0
  6
Continuous
 62
     1
100
AcDbLine
 10
132.9799999999996
 20
88.57499999999998
 30
0.0
 11
133.58
 21
89.075
 31
0.0
  0
LINE
  5
665
330
421
100
AcDbEntity
  8
0
  6
Continuous
 62
     1
100
AcDbLine
 10
133.58
 20
89.075
 30
0.0
 11
133.9799999999996
 21
88.67499999999997
 31
0.0
  0
LINE
  5
666
330
421
100
AcDbEntity
  8
0
  6
Continuous
 62
     1
100
AcDbLine
 10
133.9799999999996
 20
88.67499999999997
 30
0.0
 11
133.3799999999999
 21
85.075
 31
0.0
  0
LINE
  5
667
330
421
100
AcDbEntity
  8
0
  6
Continuous
 62
     1
100
AcDbLine
 10
127.8299999999999
 20
79.47499999999998
 30
0.0
 11
127.38
 21
79.97499999999998
 31
0.0
  0
LINE
  5
668
330
421
100
AcDbEntity
  8
0
  6
Continuous
 62
     1
100
AcDbLine
 10
127.38
 20
79.97499999999998
 30
0.0
 11
128.0299999999996
 21
80.47499999999997
 31
0.0
  0
LINE
  5
669
330
421
100
AcDbEntity
  8
0
  6
Continuous
 62
     1
100
AcDbLine
 10
127.98
 20
80.575
 30
0.0
 11
128.58
 21
83.97499999999999
 31
0.0
  0
LINE
  5
66A
330
421
100
AcDbEntity
  8
0
  6
Continuous
 62
     1
100
AcDbLine
 10
127.98
 20
80.575
 30
0.0
 11
127.38
 21
80.075
 31
0.0
  0
LINE
  5
66B
330
421
100
AcDbEntity
  8
0
  6
Continuous
 62
     1
100
AcDbLine
 10
127.38
 20
80.075
 30
0.0
 11
126.93
 21
80.47499999999997
 31
0.0
  0
LINE
  5
66C
330
421
100
AcDbEntity
  8
0
  6
Continuous
 62
     1
100
AcDbLine
 10
131.58
 20
80.47499999999997
 30
0.0
 11
131.9799999999996
 21
79.97499999999998
 31
0.0
  0
LINE
  5
66D
330
421
100
AcDbEntity
  8
0
  6
Continuous
 62
     1
100
AcDbLine
 10
131.9799999999996
 20
79.97499999999998
 30
0.0
 11
131.38
 21
79.47499999999998
 31
0.0
  0
LINE
  5
66E
330
421
100
AcDbEntity
  8
0
  6
Continuous
 62
     1
100
AcDbLine
 10
133.18
 20
84.075
 30
0.0
 11
132.58
 21
80.47499999999997
 31
0.0
  0
LINE
  5
66F
330
421
100
AcDbEntity
  8
0
  6
Continuous
 62
     1
100
AcDbLine
 10
132.58
 20
80.47499999999997
 30
0.0
 11
132.03
 21
80.075
 31
0.0
  0
LINE
  5
670
330
421
100
AcDbEntity
  8
0
  6
Continuous
 62
     1
100
AcDbLine
 10
132.03
 20
80.075
 30
0.0
 11
131.58
 21
80.575
 31
0.0
  0
LINE
  5
671
330
421
100
AcDbEntity
  8
0
  6
Continuous
 62
     1
100
AcDbLine
 10
131.58
 20
80.575
 30
0.0
 11
132.18
 21
83.97499999999999
 31
0.0
  0
CIRCLE
  5
672
330
421
100
AcDbEntity
  8
0
  6
Continuous
 62
     1
100
AcDbCircle
 10
134.0999999999999
 20
79.97499999999998
 30
0.0
 40
0.5
  0
LINE
  5
673
330
421
100
AcDbEntity
  8
0
  6
Continuous
 62
     1
100
AcDbLine
 10
131.58
 20
80.47499999999997
 30
0.0
 11
128.0299999999996
 21
80.47499999999997
 31
0.0
  0
LINE
  5
674
330
421
100
AcDbEntity
  8
0
  6
Continuous
 62
     1
100
AcDbLine
 10
127.8299999999999
 20
79.47499999999998
 30
0.0
 11
131.38
 21
79.47499999999998
 31
0.0
  0
LINE
  5
675
330
421
100
AcDbEntity
  8
0
  6
Continuous
 62
     1
100
AcDbLine
 10
132.38
 20
85.075
 30
0.0
 11
132.78
 21
84.57500000000001
 31
0.0
  0
LINE
  5
676
330
421
100
AcDbEntity
  8
0
  6
Continuous
 62
     1
100
AcDbLine
 10
132.78
 20
84.57500000000001
 30
0.0
 11
132.18
 21
84.075
 31
0.0
  0
LINE
  5
677
330
421
100
AcDbEntity
  8
0
  6
Continuous
 62
     1
100
AcDbLine
 10
133.3799999999999
 20
85.075
 30
0.0
 11
132.83
 21
84.67499999999999
 31
0.0
  0
LINE
  5
678
330
421
100
AcDbEntity
  8
0
  6
Continuous
 62
     1
100
AcDbLine
 10
132.83
 20
84.67499999999999
 30
0.0
 11
132.38
 21
85.17499999999998
 31
0.0
  0
LINE
  5
679
330
421
100
AcDbEntity
  8
0
  6
Continuous
 62
     1
100
AcDbLine
 10
132.18
 20
83.97499999999999
 30
0.0
 11
132.78
 21
84.47499999999998
 31
0.0
  0
LINE
  5
67A
330
421
100
AcDbEntity
  8
0
  6
Continuous
 62
     1
100
AcDbLine
 10
132.78
 20
84.47499999999998
 30
0.0
 11
133.18
 21
84.075
 31
0.0
  0
LINE
  5
67B
330
421
100
AcDbEntity
  8
0
  6
Continuous
 62
     1
100
AcDbLine
 10
132.38
 20
85.17499999999998
 30
0.0
 11
132.9799999999996
 21
88.57499999999998
 31
0.0
  0
LINE
  5
67C
330
421
100
AcDbEntity
  8
0
  6
Continuous
 62
     1
100
AcDbLine
 10
128.6299999999999
 20
84.075
 30
0.0
 11
132.18
 21
84.075
 31
0.0
  0
LINE
  5
67D
330
421
100
AcDbEntity
  8
0
  6
Continuous
 62
     1
100
AcDbLine
 10
128.6299999999999
 20
84.075
 30
0.0
 11
128.18
 21
84.57500000000001
 31
0.0
  0
LINE
  5
67E
330
421
100
AcDbEntity
  8
0
  6
Continuous
 62
     1
100
AcDbLine
 10
128.18
 20
84.57500000000001
 30
0.0
 11
128.83
 21
85.075
 31
0.0
  0
LINE
  5
67F
330
421
100
AcDbEntity
  8
0
  6
Continuous
 62
     1
100
AcDbLine
 10
128.58
 20
83.97499999999999
 30
0.0
 11
128.1299999999999
 21
84.47499999999998
 31
0.0
  0
LINE
  5
680
330
421
100
AcDbEntity
  8
0
  6
Continuous
 62
     1
100
AcDbLine
 10
128.1299999999999
 20
84.47499999999998
 30
0.0
 11
127.58
 21
84.075
 31
0.0
  0
LINE
  5
681
330
421
100
AcDbEntity
  8
0
  6
Continuous
 62
     1
100
AcDbLine
 10
128.78
 20
85.17499999999998
 30
0.0
 11
128.18
 21
84.67499999999999
 31
0.0
  0
LINE
  5
682
330
421
100
AcDbEntity
  8
0
  6
Continuous
 62
     1
100
AcDbLine
 10
128.18
 20
84.67499999999999
 30
0.0
 11
127.73
 21
85.075
 31
0.0
  0
LINE
  5
683
330
421
100
AcDbEntity
  8
0
  6
Continuous
 62
     1
100
AcDbLine
 10
126.93
 20
80.47499999999997
 30
0.0
 11
127.58
 21
84.075
 31
0.0
  0
LINE
  5
684
330
421
100
AcDbEntity
  8
0
  6
Continuous
 62
     1
100
AcDbLine
 10
132.38
 20
85.075
 30
0.0
 11
128.83
 21
85.075
 31
0.0
  0
LINE
  5
685
330
421
100
AcDbEntity
  8
0
  6
Continuous
 62
     1
100
AcDbLine
 10
129.4299999999996
 20
88.67499999999997
 30
0.0
 11
128.9799999999999
 21
89.17499999999998
 31
0.0
  0
LINE
  5
686
330
421
100
AcDbEntity
  8
0
  6
Continuous
 62
     1
100
AcDbLine
 10
128.9799999999999
 20
89.17499999999998
 30
0.0
 11
129.63
 21
89.67499999999999
 31
0.0
  0
LINE
  5
687
330
421
100
AcDbEntity
  8
0
  6
Continuous
 62
     1
100
AcDbLine
 10
129.38
 20
88.57499999999998
 30
0.0
 11
128.93
 21
89.075
 31
0.0
  0
LINE
  5
688
330
421
100
AcDbEntity
  8
0
  6
Continuous
 62
     1
100
AcDbLine
 10
128.93
 20
89.075
 30
0.0
 11
128.38
 21
88.67499999999997
 31
0.0
  0
LINE
  5
689
330
421
100
AcDbEntity
  8
0
  6
Continuous
 62
     1
100
AcDbLine
 10
129.4299999999996
 20
88.67499999999997
 30
0.0
 11
132.9799999999996
 21
88.67499999999997
 31
0.0
  0
LINE
  5
68A
330
421
100
AcDbEntity
  8
0
  6
Continuous
 62
     1
100
AcDbLine
 10
127.73
 20
85.075
 30
0.0
 11
128.38
 21
88.67499999999997
 31
0.0
  0
LINE
  5
68B
330
421
100
AcDbEntity
  8
0
  6
Continuous
 62
     1
100
AcDbLine
 10
128.78
 20
85.17499999999998
 30
0.0
 11
129.38
 21
88.57499999999998
 31
0.0
  0
LINE
  5
68C
330
421
100
AcDbEntity
  8
0
  6
Continuous
 62
     1
100
AcDbLine
 10
123.38
 20
89.67499999999999
 30
0.0
 11
123.78
 21
89.17499999999998
 31
0.0
  0
LINE
  5
68D
330
421
100
AcDbEntity
  8
0
  6
Continuous
 62
     1
100
AcDbLine
 10
123.78
 20
89.17499999999998
 30
0.0
 11
123.18
 21
88.67499999999997
 31
0.0
  0
LINE
  5
68E
330
421
100
AcDbEntity
  8
0
  6
Continuous
 62
     1
100
AcDbLine
 10
123.18
 20
88.57499999999998
 30
0.0
 11
123.78
 21
89.075
 31
0.0
  0
LINE
  5
68F
330
421
100
AcDbEntity
  8
0
  6
Continuous
 62
     1
100
AcDbLine
 10
123.78
 20
89.075
 30
0.0
 11
124.18
 21
88.67499999999997
 31
0.0
  0
LINE
  5
690
330
421
100
AcDbEntity
  8
0
  6
Continuous
 62
     1
100
AcDbLine
 10
122.58
 20
85.075
 30
0.0
 11
122.98
 21
84.57500000000001
 31
0.0
  0
LINE
  5
691
330
421
100
AcDbEntity
  8
0
  6
Continuous
 62
     1
100
AcDbLine
 10
122.98
 20
84.57500000000001
 30
0.0
 11
122.3799999999999
 21
84.075
 31
0.0
  0
LINE
  5
692
330
421
100
AcDbEntity
  8
0
  6
Continuous
 62
     1
100
AcDbLine
 10
123.58
 20
85.075
 30
0.0
 11
123.0299999999999
 21
84.67499999999999
 31
0.0
  0
LINE
  5
693
330
421
100
AcDbEntity
  8
0
  6
Continuous
 62
     1
100
AcDbLine
 10
123.0299999999999
 20
84.67499999999999
 30
0.0
 11
122.58
 21
85.17499999999998
 31
0.0
  0
LINE
  5
694
330
421
100
AcDbEntity
  8
0
  6
Continuous
 62
     1
100
AcDbLine
 10
122.3799999999999
 20
83.97499999999999
 30
0.0
 11
122.98
 21
84.47499999999998
 31
0.0
  0
LINE
  5
695
330
421
100
AcDbEntity
  8
0
  6
Continuous
 62
     1
100
AcDbLine
 10
122.98
 20
84.47499999999998
 30
0.0
 11
123.38
 21
84.075
 31
0.0
  0
LINE
  5
696
330
421
100
AcDbEntity
  8
0
  6
Continuous
 62
     1
100
AcDbLine
 10
124.18
 20
88.67499999999997
 30
0.0
 11
123.58
 21
85.075
 31
0.0
  0
LINE
  5
697
330
421
100
AcDbEntity
  8
0
  6
Continuous
 62
     1
100
AcDbLine
 10
122.58
 20
85.17499999999998
 30
0.0
 11
123.18
 21
88.57499999999998
 31
0.0
  0
LINE
  5
698
330
421
100
AcDbEntity
  8
0
  6
Continuous
 62
     1
100
AcDbLine
 10
121.7799999999999
 20
80.47499999999997
 30
0.0
 11
122.1799999999996
 21
79.97499999999998
 31
0.0
  0
LINE
  5
699
330
421
100
AcDbEntity
  8
0
  6
Continuous
 62
     1
100
AcDbLine
 10
122.1799999999996
 20
79.97499999999998
 30
0.0
 11
121.5799999999999
 21
79.47499999999998
 31
0.0
  0
LINE
  5
69A
330
421
100
AcDbEntity
  8
0
  6
Continuous
 62
     1
100
AcDbLine
 10
122.78
 20
80.47499999999997
 30
0.0
 11
122.23
 21
80.075
 31
0.0
  0
LINE
  5
69B
330
421
100
AcDbEntity
  8
0
  6
Continuous
 62
     1
100
AcDbLine
 10
122.23
 20
80.075
 30
0.0
 11
121.7799999999999
 21
80.575
 31
0.0
  0
CIRCLE
  5
69C
330
421
100
AcDbEntity
  8
0
  6
Continuous
 62
     1
100
AcDbCircle
 10
124.275
 20
79.97499999999998
 30
0.0
 40
0.5
  0
LINE
  5
69D
330
421
100
AcDbEntity
  8
0
  6
Continuous
 62
     1
100
AcDbLine
 10
123.38
 20
84.075
 30
0.0
 11
122.78
 21
80.47499999999997
 31
0.0
  0
LINE
  5
69E
330
421
100
AcDbEntity
  8
0
  6
Continuous
 62
     1
100
AcDbLine
 10
121.7799999999999
 20
80.575
 30
0.0
 11
122.3799999999999
 21
83.97499999999999
 31
0.0
  0
LINE
  5
69F
330
421
100
AcDbEntity
  8
0
  6
Continuous
 62
     1
100
AcDbLine
 10
118.03
 20
79.47499999999998
 30
0.0
 11
117.5799999999999
 21
79.97499999999998
 31
0.0
  0
LINE
  5
6A0
330
421
100
AcDbEntity
  8
0
  6
Continuous
 62
     1
100
AcDbLine
 10
117.5799999999999
 20
79.97499999999998
 30
0.0
 11
118.23
 21
80.47499999999997
 31
0.0
  0
LINE
  5
6A1
330
421
100
AcDbEntity
  8
0
  6
Continuous
 62
     1
100
AcDbLine
 10
118.18
 20
80.575
 30
0.0
 11
117.5799999999999
 21
80.075
 31
0.0
  0
LINE
  5
6A2
330
421
100
AcDbEntity
  8
0
  6
Continuous
 62
     1
100
AcDbLine
 10
117.5799999999999
 20
80.075
 30
0.0
 11
117.13
 21
80.47499999999997
 31
0.0
  0
LINE
  5
6A3
330
421
100
AcDbEntity
  8
0
  6
Continuous
 62
     1
100
AcDbLine
 10
121.7799999999999
 20
80.47499999999997
 30
0.0
 11
118.23
 21
80.47499999999997
 31
0.0
  0
LINE
  5
6A4
330
421
100
AcDbEntity
  8
0
  6
Continuous
 62
     1
100
AcDbLine
 10
118.03
 20
79.47499999999998
 30
0.0
 11
121.5799999999999
 21
79.47499999999998
 31
0.0
  0
LINE
  5
6A5
330
421
100
AcDbEntity
  8
0
  6
Continuous
 62
     1
100
AcDbLine
 10
118.8299999999999
 20
84.075
 30
0.0
 11
118.3799999999999
 21
84.57500000000001
 31
0.0
  0
LINE
  5
6A6
330
421
100
AcDbEntity
  8
0
  6
Continuous
 62
     1
100
AcDbLine
 10
118.3799999999999
 20
84.57500000000001
 30
0.0
 11
119.03
 21
85.075
 31
0.0
  0
LINE
  5
6A7
330
421
100
AcDbEntity
  8
0
  6
Continuous
 62
     1
100
AcDbLine
 10
118.7799999999999
 20
83.97499999999999
 30
0.0
 11
118.33
 21
84.47499999999998
 31
0.0
  0
LINE
  5
6A8
330
421
100
AcDbEntity
  8
0
  6
Continuous
 62
     1
100
AcDbLine
 10
118.33
 20
84.47499999999998
 30
0.0
 11
117.7799999999999
 21
84.075
 31
0.0
  0
LINE
  5
6A9
330
421
100
AcDbEntity
  8
0
  6
Continuous
 62
     1
100
AcDbLine
 10
118.9799999999999
 20
85.17499999999998
 30
0.0
 11
118.3799999999999
 21
84.67499999999999
 31
0.0
  0
LINE
  5
6AA
330
421
100
AcDbEntity
  8
0
  6
Continuous
 62
     1
100
AcDbLine
 10
118.3799999999999
 20
84.67499999999999
 30
0.0
 11
117.93
 21
85.075
 31
0.0
  0
LINE
  5
6AB
330
421
100
AcDbEntity
  8
0
  6
Continuous
 62
     1
100
AcDbLine
 10
122.58
 20
85.075
 30
0.0
 11
119.03
 21
85.075
 31
0.0
  0
LINE
  5
6AC
330
421
100
AcDbEntity
  8
0
  6
Continuous
 62
     1
100
AcDbLine
 10
118.8299999999999
 20
84.075
 30
0.0
 11
122.3799999999999
 21
84.075
 31
0.0
  0
LINE
  5
6AD
330
421
100
AcDbEntity
  8
0
  6
Continuous
 62
     1
100
AcDbLine
 10
117.13
 20
80.47499999999997
 30
0.0
 11
117.7799999999999
 21
84.075
 31
0.0
  0
LINE
  5
6AE
330
421
100
AcDbEntity
  8
0
  6
Continuous
 62
     1
100
AcDbLine
 10
118.18
 20
80.575
 30
0.0
 11
118.7799999999999
 21
83.97499999999999
 31
0.0
  0
LINE
  5
6AF
330
421
100
AcDbEntity
  8
0
  6
Continuous
 62
     1
100
AcDbLine
 10
119.6299999999999
 20
88.67499999999997
 30
0.0
 11
119.18
 21
89.17499999999998
 31
0.0
  0
LINE
  5
6B0
330
421
100
AcDbEntity
  8
0
  6
Continuous
 62
     1
100
AcDbLine
 10
119.18
 20
89.17499999999998
 30
0.0
 11
119.8299999999999
 21
89.67499999999999
 31
0.0
  0
LINE
  5
6B1
330
421
100
AcDbEntity
  8
0
  6
Continuous
 62
     1
100
AcDbLine
 10
119.5799999999999
 20
88.57499999999998
 30
0.0
 11
119.13
 21
89.075
 31
0.0
  0
LINE
  5
6B2
330
421
100
AcDbEntity
  8
0
  6
Continuous
 62
     1
100
AcDbLine
 10
119.13
 20
89.075
 30
0.0
 11
118.5799999999999
 21
88.67499999999997
 31
0.0
  0
LINE
  5
6B3
330
421
100
AcDbEntity
  8
0
  6
Continuous
 62
     1
100
AcDbLine
 10
123.38
 20
89.67499999999999
 30
0.0
 11
119.8299999999999
 21
89.67499999999999
 31
0.0
  0
LINE
  5
6B4
330
421
100
AcDbEntity
  8
0
  6
Continuous
 62
     1
100
AcDbLine
 10
119.6299999999999
 20
88.67499999999997
 30
0.0
 11
123.18
 21
88.67499999999997
 31
0.0
  0
LINE
  5
6B5
330
421
100
AcDbEntity
  8
0
  6
Continuous
 62
     1
100
AcDbLine
 10
117.93
 20
85.075
 30
0.0
 11
118.5799999999999
 21
88.67499999999997
 31
0.0
  0
LINE
  5
6B6
330
421
100
AcDbEntity
  8
0
  6
Continuous
 62
     1
100
AcDbLine
 10
118.9799999999999
 20
85.17499999999998
 30
0.0
 11
119.5799999999999
 21
88.57499999999998
 31
0.0
  0
LINE
  5
6B7
330
421
100
AcDbEntity
  8
0
  6
Continuous
 62
     1
100
AcDbLine
 10
113.5799999999999
 20
89.67499999999999
 30
0.0
 11
113.98
 21
89.17499999999998
 31
0.0
  0
LINE
  5
6B8
330
421
100
AcDbEntity
  8
0
  6
Continuous
 62
     1
100
AcDbLine
 10
113.98
 20
89.17499999999998
 30
0.0
 11
113.3799999999999
 21
88.67499999999997
 31
0.0
  0
LINE
  5
6B9
330
421
100
AcDbEntity
  8
0
  6
Continuous
 62
     1
100
AcDbLine
 10
113.3799999999999
 20
88.57499999999998
 30
0.0
 11
113.98
 21
89.075
 31
0.0
  0
LINE
  5
6BA
330
421
100
AcDbEntity
  8
0
  6
Continuous
 62
     1
100
AcDbLine
 10
113.98
 20
89.075
 30
0.0
 11
114.3799999999999
 21
88.67499999999997
 31
0.0
  0
LINE
  5
6BB
330
421
100
AcDbEntity
  8
0
  6
Continuous
 62
     1
100
AcDbLine
 10
109.03
 20
84.075
 30
0.0
 11
112.5799999999999
 21
84.075
 31
0.0
  0
LINE
  5
6BC
330
421
100
AcDbEntity
  8
0
  6
Continuous
 62
     1
100
AcDbLine
 10
112.78
 20
85.075
 30
0.0
 11
113.18
 21
84.57500000000001
 31
0.0
  0
LINE
  5
6BD
330
421
100
AcDbEntity
  8
0
  6
Continuous
 62
     1
100
AcDbLine
 10
113.18
 20
84.57500000000001
 30
0.0
 11
112.5799999999999
 21
84.075
 31
0.0
  0
LINE
  5
6BE
330
421
100
AcDbEntity
  8
0
  6
Continuous
 62
     1
100
AcDbLine
 10
113.78
 20
85.075
 30
0.0
 11
113.23
 21
84.67499999999999
 31
0.0
  0
LINE
  5
6BF
330
421
100
AcDbEntity
  8
0
  6
Continuous
 62
     1
100
AcDbLine
 10
113.23
 20
84.67499999999999
 30
0.0
 11
112.78
 21
85.17499999999998
 31
0.0
  0
LINE
  5
6C0
330
421
100
AcDbEntity
  8
0
  6
Continuous
 62
     1
100
AcDbLine
 10
112.5799999999999
 20
83.97499999999999
 30
0.0
 11
113.18
 21
84.47499999999998
 31
0.0
  0
LINE
  5
6C1
330
421
100
AcDbEntity
  8
0
  6
Continuous
 62
     1
100
AcDbLine
 10
113.18
 20
84.47499999999998
 30
0.0
 11
113.5799999999999
 21
84.075
 31
0.0
  0
LINE
  5
6C2
330
421
100
AcDbEntity
  8
0
  6
Continuous
 62
     1
100
AcDbLine
 10
114.3799999999999
 20
88.67499999999997
 30
0.0
 11
113.78
 21
85.075
 31
0.0
  0
LINE
  5
6C3
330
421
100
AcDbEntity
  8
0
  6
Continuous
 62
     1
100
AcDbLine
 10
112.78
 20
85.17499999999998
 30
0.0
 11
113.3799999999999
 21
88.57499999999998
 31
0.0
  0
LINE
  5
6C4
330
421
100
AcDbEntity
  8
0
  6
Continuous
 62
     1
100
AcDbLine
 10
111.98
 20
80.47499999999997
 30
0.0
 11
112.3799999999999
 21
79.97499999999998
 31
0.0
  0
LINE
  5
6C5
330
421
100
AcDbEntity
  8
0
  6
Continuous
 62
     1
100
AcDbLine
 10
112.3799999999999
 20
79.97499999999998
 30
0.0
 11
111.78
 21
79.47499999999998
 31
0.0
  0
LINE
  5
6C6
330
421
100
AcDbEntity
  8
0
  6
Continuous
 62
     1
100
AcDbLine
 10
112.98
 20
80.47499999999997
 30
0.0
 11
112.43
 21
80.075
 31
0.0
  0
LINE
  5
6C7
330
421
100
AcDbEntity
  8
0
  6
Continuous
 62
     1
100
AcDbLine
 10
112.43
 20
80.075
 30
0.0
 11
111.98
 21
80.575
 31
0.0
  0
CIRCLE
  5
6C8
330
421
100
AcDbEntity
  8
0
  6
Continuous
 62
     1
100
AcDbCircle
 10
114.4749999999997
 20
79.97499999999998
 30
0.0
 40
0.5
  0
LINE
  5
6C9
330
421
100
AcDbEntity
  8
0
  6
Continuous
 62
     1
100
AcDbLine
 10
113.5799999999999
 20
84.075
 30
0.0
 11
112.98
 21
80.47499999999997
 31
0.0
  0
LINE
  5
6CA
330
421
100
AcDbEntity
  8
0
  6
Continuous
 62
     1
100
AcDbLine
 10
111.98
 20
80.575
 30
0.0
 11
112.5799999999999
 21
83.97499999999999
 31
0.0
  0
LINE
  5
6CB
330
421
100
AcDbEntity
  8
0
  6
Continuous
 62
     1
100
AcDbLine
 10
108.23
 20
79.47499999999998
 30
0.0
 11
111.78
 21
79.47499999999998
 31
0.0
  0
LINE
  5
6CC
330
421
100
AcDbEntity
  8
0
  6
Continuous
 62
     1
100
AcDbLine
 10
108.23
 20
79.47499999999998
 30
0.0
 11
107.78
 21
79.97499999999998
 31
0.0
  0
LINE
  5
6CD
330
421
100
AcDbEntity
  8
0
  6
Continuous
 62
     1
100
AcDbLine
 10
107.78
 20
79.97499999999998
 30
0.0
 11
108.43
 21
80.47499999999997
 31
0.0
  0
LINE
  5
6CE
330
421
100
AcDbEntity
  8
0
  6
Continuous
 62
     1
100
AcDbLine
 10
107.3299999999999
 20
80.47499999999997
 30
0.0
 11
107.98
 21
84.075
 31
0.0
  0
LINE
  5
6CF
330
421
100
AcDbEntity
  8
0
  6
Continuous
 62
     1
100
AcDbLine
 10
108.3799999999999
 20
80.575
 30
0.0
 11
108.98
 21
83.97499999999999
 31
0.0
  0
LINE
  5
6D0
330
421
100
AcDbEntity
  8
0
  6
Continuous
 62
     1
100
AcDbLine
 10
108.3799999999999
 20
80.575
 30
0.0
 11
107.78
 21
80.075
 31
0.0
  0
LINE
  5
6D1
330
421
100
AcDbEntity
  8
0
  6
Continuous
 62
     1
100
AcDbLine
 10
107.78
 20
80.075
 30
0.0
 11
107.3299999999999
 21
80.47499999999997
 31
0.0
  0
LINE
  5
6D2
330
421
100
AcDbEntity
  8
0
  6
Continuous
 62
     1
100
AcDbLine
 10
111.98
 20
80.47499999999997
 30
0.0
 11
108.43
 21
80.47499999999997
 31
0.0
  0
LINE
  5
6D3
330
421
100
AcDbEntity
  8
0
  6
Continuous
 62
     1
100
AcDbLine
 10
109.03
 20
84.075
 30
0.0
 11
108.58
 21
84.57500000000001
 31
0.0
  0
LINE
  5
6D4
330
421
100
AcDbEntity
  8
0
  6
Continuous
 62
     1
100
AcDbLine
 10
108.58
 20
84.57500000000001
 30
0.0
 11
109.23
 21
85.075
 31
0.0
  0
LINE
  5
6D5
330
421
100
AcDbEntity
  8
0
  6
Continuous
 62
     1
100
AcDbLine
 10
108.98
 20
83.97499999999999
 30
0.0
 11
108.5299999999999
 21
84.47499999999998
 31
0.0
  0
LINE
  5
6D6
330
421
100
AcDbEntity
  8
0
  6
Continuous
 62
     1
100
AcDbLine
 10
108.5299999999999
 20
84.47499999999998
 30
0.0
 11
107.98
 21
84.075
 31
0.0
  0
LINE
  5
6D7
330
421
100
AcDbEntity
  8
0
  6
Continuous
 62
     1
100
AcDbLine
 10
109.18
 20
85.17499999999998
 30
0.0
 11
108.58
 21
84.67499999999999
 31
0.0
  0
LINE
  5
6D8
330
421
100
AcDbEntity
  8
0
  6
Continuous
 62
     1
100
AcDbLine
 10
108.58
 20
84.67499999999999
 30
0.0
 11
108.1299999999999
 21
85.075
 31
0.0
  0
LINE
  5
6D9
330
421
100
AcDbEntity
  8
0
  6
Continuous
 62
     1
100
AcDbLine
 10
112.78
 20
85.075
 30
0.0
 11
109.23
 21
85.075
 31
0.0
  0
LINE
  5
6DA
330
421
100
AcDbEntity
  8
0
  6
Continuous
 62
     1
100
AcDbLine
 10
109.83
 20
88.67499999999997
 30
0.0
 11
109.3799999999999
 21
89.17499999999998
 31
0.0
  0
LINE
  5
6DB
330
421
100
AcDbEntity
  8
0
  6
Continuous
 62
     1
100
AcDbLine
 10
109.3799999999999
 20
89.17499999999998
 30
0.0
 11
110.03
 21
89.67499999999999
 31
0.0
  0
LINE
  5
6DC
330
421
100
AcDbEntity
  8
0
  6
Continuous
 62
     1
100
AcDbLine
 10
109.78
 20
88.57499999999998
 30
0.0
 11
109.3299999999999
 21
89.075
 31
0.0
  0
LINE
  5
6DD
330
421
100
AcDbEntity
  8
0
  6
Continuous
 62
     1
100
AcDbLine
 10
109.3299999999999
 20
89.075
 30
0.0
 11
108.78
 21
88.67499999999997
 31
0.0
  0
LINE
  5
6DE
330
421
100
AcDbEntity
  8
0
  6
Continuous
 62
     1
100
AcDbLine
 10
113.5799999999999
 20
89.67499999999999
 30
0.0
 11
110.03
 21
89.67499999999999
 31
0.0
  0
LINE
  5
6DF
330
421
100
AcDbEntity
  8
0
  6
Continuous
 62
     1
100
AcDbLine
 10
109.83
 20
88.67499999999997
 30
0.0
 11
113.3799999999999
 21
88.67499999999997
 31
0.0
  0
LINE
  5
6E0
330
421
100
AcDbEntity
  8
0
  6
Continuous
 62
     1
100
AcDbLine
 10
108.1299999999999
 20
85.075
 30
0.0
 11
108.78
 21
88.67499999999997
 31
0.0
  0
LINE
  5
6E1
330
421
100
AcDbEntity
  8
0
  6
Continuous
 62
     1
100
AcDbLine
 10
109.18
 20
85.17499999999998
 30
0.0
 11
109.78
 21
88.57499999999998
 31
0.0
  0
LINE
  5
6E2
330
421
100
AcDbEntity
  8
0
  6
Continuous
 62
     1
100
AcDbLine
 10
100.0299999999999
 20
88.67499999999997
 30
0.0
 11
99.58
 21
89.17499999999998
 31
0.0
  0
LINE
  5
6E3
330
421
100
AcDbEntity
  8
0
  6
Continuous
 62
     1
100
AcDbLine
 10
99.58
 20
89.17499999999998
 30
0.0
 11
100.2299999999999
 21
89.67499999999999
 31
0.0
  0
LINE
  5
6E4
330
421
100
AcDbEntity
  8
0
  6
Continuous
 62
     1
100
AcDbLine
 10
99.98000000000001
 20
88.57499999999998
 30
0.0
 11
99.53000000000001
 21
89.075
 31
0.0
  0
LINE
  5
6E5
330
421
100
AcDbEntity
  8
0
  6
Continuous
 62
     1
100
AcDbLine
 10
99.53000000000001
 20
89.075
 30
0.0
 11
98.98000000000001
 21
88.67499999999997
 31
0.0
  0
LINE
  5
6E6
330
421
100
AcDbEntity
  8
0
  6
Continuous
 62
     1
100
AcDbLine
 10
98.43000000000001
 20
79.47499999999998
 30
0.0
 11
97.98000000000001
 21
79.97499999999998
 31
0.0
  0
LINE
  5
6E7
330
421
100
AcDbEntity
  8
0
  6
Continuous
 62
     1
100
AcDbLine
 10
97.98000000000001
 20
79.97499999999998
 30
0.0
 11
98.62999999999999
 21
80.47499999999997
 31
0.0
  0
LINE
  5
6E8
330
421
100
AcDbEntity
  8
0
  6
Continuous
 62
     1
100
AcDbLine
 10
98.58
 20
80.575
 30
0.0
 11
97.98000000000001
 21
80.075
 31
0.0
  0
LINE
  5
6E9
330
421
100
AcDbEntity
  8
0
  6
Continuous
 62
     1
100
AcDbLine
 10
97.98000000000001
 20
80.075
 30
0.0
 11
97.53
 21
80.47499999999997
 31
0.0
  0
LINE
  5
6EA
330
421
100
AcDbEntity
  8
0
  6
Continuous
 62
     1
100
AcDbLine
 10
102.18
 20
80.47499999999997
 30
0.0
 11
102.58
 21
79.97499999999998
 31
0.0
  0
LINE
  5
6EB
330
421
100
AcDbEntity
  8
0
  6
Continuous
 62
     1
100
AcDbLine
 10
102.58
 20
79.97499999999998
 30
0.0
 11
101.98
 21
79.47499999999998
 31
0.0
  0
LINE
  5
6EC
330
421
100
AcDbEntity
  8
0
  6
Continuous
 62
     1
100
AcDbLine
 10
103.18
 20
80.47499999999997
 30
0.0
 11
102.6299999999999
 21
80.075
 31
0.0
  0
LINE
  5
6ED
330
421
100
AcDbEntity
  8
0
  6
Continuous
 62
     1
100
AcDbLine
 10
102.6299999999999
 20
80.075
 30
0.0
 11
102.18
 21
80.575
 31
0.0
  0
LINE
  5
6EE
330
421
100
AcDbEntity
  8
0
  6
Continuous
 62
     1
100
AcDbLine
 10
102.18
 20
80.575
 30
0.0
 11
102.78
 21
83.97499999999999
 31
0.0
  0
CIRCLE
  5
6EF
330
421
100
AcDbEntity
  8
0
  6
Continuous
 62
     1
100
AcDbCircle
 10
104.675
 20
79.97499999999998
 30
0.0
 40
0.5
  0
LINE
  5
6F0
330
421
100
AcDbEntity
  8
0
  6
Continuous
 62
     1
100
AcDbLine
 10
102.18
 20
80.47499999999997
 30
0.0
 11
98.62999999999999
 21
80.47499999999997
 31
0.0
  0
LINE
  5
6F1
330
421
100
AcDbEntity
  8
0
  6
Continuous
 62
     1
100
AcDbLine
 10
98.43000000000001
 20
79.47499999999998
 30
0.0
 11
101.98
 21
79.47499999999998
 31
0.0
  0
LINE
  5
6F2
330
421
100
AcDbEntity
  8
0
  6
Continuous
 62
     1
100
AcDbLine
 10
102.98
 20
85.075
 30
0.0
 11
103.38
 21
84.57500000000001
 31
0.0
  0
LINE
  5
6F3
330
421
100
AcDbEntity
  8
0
  6
Continuous
 62
     1
100
AcDbLine
 10
103.38
 20
84.57500000000001
 30
0.0
 11
102.78
 21
84.075
 31
0.0
  0
LINE
  5
6F4
330
421
100
AcDbEntity
  8
0
  6
Continuous
 62
     1
100
AcDbLine
 10
103.98
 20
85.075
 30
0.0
 11
103.4299999999996
 21
84.67499999999999
 31
0.0
  0
LINE
  5
6F5
330
421
100
AcDbEntity
  8
0
  6
Continuous
 62
     1
100
AcDbLine
 10
103.4299999999996
 20
84.67499999999999
 30
0.0
 11
102.98
 21
85.17499999999998
 31
0.0
  0
LINE
  5
6F6
330
421
100
AcDbEntity
  8
0
  6
Continuous
 62
     1
100
AcDbLine
 10
102.78
 20
83.97499999999999
 30
0.0
 11
103.38
 21
84.47499999999998
 31
0.0
  0
LINE
  5
6F7
330
421
100
AcDbEntity
  8
0
  6
Continuous
 62
     1
100
AcDbLine
 10
103.38
 20
84.47499999999998
 30
0.0
 11
103.78
 21
84.075
 31
0.0
  0
LINE
  5
6F8
330
421
100
AcDbEntity
  8
0
  6
Continuous
 62
     1
100
AcDbLine
 10
103.78
 20
84.075
 30
0.0
 11
103.18
 21
80.47499999999997
 31
0.0
  0
LINE
  5
6F9
330
421
100
AcDbEntity
  8
0
  6
Continuous
 62
     1
100
AcDbLine
 10
103.78
 20
89.67499999999999
 30
0.0
 11
100.2299999999999
 21
89.67499999999999
 31
0.0
  0
LINE
  5
6FA
330
421
100
AcDbEntity
  8
0
  6
Continuous
 62
     1
100
AcDbLine
 10
103.78
 20
89.67499999999999
 30
0.0
 11
104.18
 21
89.17499999999998
 31
0.0
  0
LINE
  5
6FB
330
421
100
AcDbEntity
  8
0
  6
Continuous
 62
     1
100
AcDbLine
 10
104.18
 20
89.17499999999998
 30
0.0
 11
103.58
 21
88.67499999999997
 31
0.0
  0
LINE
  5
6FC
330
421
100
AcDbEntity
  8
0
  6
Continuous
 62
     1
100
AcDbLine
 10
103.58
 20
88.57499999999998
 30
0.0
 11
104.18
 21
89.075
 31
0.0
  0
LINE
  5
6FD
330
421
100
AcDbEntity
  8
0
  6
Continuous
 62
     1
100
AcDbLine
 10
104.18
 20
89.075
 30
0.0
 11
104.58
 21
88.67499999999997
 31
0.0
  0
LINE
  5
6FE
330
421
100
AcDbEntity
  8
0
  6
Continuous
 62
     1
100
AcDbLine
 10
100.0299999999999
 20
88.67499999999997
 30
0.0
 11
103.58
 21
88.67499999999997
 31
0.0
  0
LINE
  5
6FF
330
421
100
AcDbEntity
  8
0
  6
Continuous
 62
     1
100
AcDbLine
 10
104.58
 20
88.67499999999997
 30
0.0
 11
103.98
 21
85.075
 31
0.0
  0
LINE
  5
700
330
421
100
AcDbEntity
  8
0
  6
Continuous
 62
     1
100
AcDbLine
 10
102.98
 20
85.17499999999998
 30
0.0
 11
103.58
 21
88.57499999999998
 31
0.0
  0
LINE
  5
701
330
421
100
AcDbEntity
  8
0
  6
Continuous
 62
     1
100
AcDbLine
 10
99.23000000000001
 20
84.075
 30
0.0
 11
102.78
 21
84.075
 31
0.0
  0
LINE
  5
702
330
421
100
AcDbEntity
  8
0
  6
Continuous
 62
     1
100
AcDbLine
 10
99.23000000000001
 20
84.075
 30
0.0
 11
98.78
 21
84.57500000000001
 31
0.0
  0
LINE
  5
703
330
421
100
AcDbEntity
  8
0
  6
Continuous
 62
     1
100
AcDbLine
 10
98.78
 20
84.57500000000001
 30
0.0
 11
99.43000000000001
 21
85.075
 31
0.0
  0
LINE
  5
704
330
421
100
AcDbEntity
  8
0
  6
Continuous
 62
     1
100
AcDbLine
 10
99.18000000000001
 20
83.97499999999999
 30
0.0
 11
98.73000000000001
 21
84.47499999999998
 31
0.0
  0
LINE
  5
705
330
421
100
AcDbEntity
  8
0
  6
Continuous
 62
     1
100
AcDbLine
 10
98.73000000000001
 20
84.47499999999998
 30
0.0
 11
98.18000000000001
 21
84.075
 31
0.0
  0
LINE
  5
706
330
421
100
AcDbEntity
  8
0
  6
Continuous
 62
     1
100
AcDbLine
 10
99.38
 20
85.17499999999998
 30
0.0
 11
98.78
 21
84.67499999999999
 31
0.0
  0
LINE
  5
707
330
421
100
AcDbEntity
  8
0
  6
Continuous
 62
     1
100
AcDbLine
 10
98.78
 20
84.67499999999999
 30
0.0
 11
98.33
 21
85.075
 31
0.0
  0
LINE
  5
708
330
421
100
AcDbEntity
  8
0
  6
Continuous
 62
     1
100
AcDbLine
 10
99.38
 20
85.17499999999998
 30
0.0
 11
99.98000000000001
 21
88.57499999999998
 31
0.0
  0
LINE
  5
709
330
421
100
AcDbEntity
  8
0
  6
Continuous
 62
     1
100
AcDbLine
 10
98.33
 20
85.075
 30
0.0
 11
98.98000000000001
 21
88.67499999999997
 31
0.0
  0
LINE
  5
70A
330
421
100
AcDbEntity
  8
0
  6
Continuous
 62
     1
100
AcDbLine
 10
97.53
 20
80.47499999999997
 30
0.0
 11
98.18000000000001
 21
84.075
 31
0.0
  0
LINE
  5
70B
330
421
100
AcDbEntity
  8
0
  6
Continuous
 62
     1
100
AcDbLine
 10
98.58
 20
80.575
 30
0.0
 11
99.18000000000001
 21
83.97499999999999
 31
0.0
  0
LINE
  5
70C
330
421
100
AcDbEntity
  8
0
  6
Continuous
 62
     1
100
AcDbLine
 10
102.98
 20
85.075
 30
0.0
 11
99.43000000000001
 21
85.075
 31
0.0
  0
LINE
  5
70D
330
421
100
AcDbEntity
  8
0
  6
Continuous
 62
     1
100
AcDbLine
 10
203.972881368
 20
133.427118611
 30
0.0
 11
227.972881368
 21
133.427118617
 31
0.0
  0
LINE
  5
70E
330
421
100
AcDbEntity
  8
0
  6
Continuous
 62
     1
100
AcDbLine
 10
204.582881367
 20
133.727118611
 30
0.0
 11
204.582881367
 21
133.977118611
 31
0.0
  0
LINE
  5
70F
330
421
100
AcDbEntity
  8
0
  6
Continuous
 62
     1
100
AcDbLine
 10
204.772881367
 20
133.727118611
 30
0.0
 11
204.582881367
 21
133.727118611
 31
0.0
  0
LINE
  5
710
330
421
100
AcDbEntity
  8
0
  6
Continuous
 62
     1
100
AcDbLine
 10
204.582881367
 20
133.977118611
 30
0.0
 11
204.392881367
 21
133.977118611
 31
0.0
  0
LINE
  5
711
330
421
100
AcDbEntity
  8
0
  6
Continuous
 62
     1
100
AcDbLine
 10
204.392881367
 20
133.977118611
 30
0.0
 11
204.392881367
 21
134.477118611
 31
0.0
  0
LINE
  5
712
330
421
100
AcDbEntity
  8
0
  6
Continuous
 62
     1
100
AcDbLine
 10
204.392881367
 20
134.477118611
 30
0.0
 11
204.2028813669999
 21
134.477118611
 31
0.0
  0
LINE
  5
713
330
421
100
AcDbEntity
  8
0
  6
Continuous
 62
     1
100
AcDbLine
 10
204.2028813669999
 20
134.477118611
 30
0.0
 11
204.2028813669999
 21
134.977118611
 31
0.0
  0
LINE
  5
714
330
421
100
AcDbEntity
  8
0
  6
Continuous
 62
     1
100
AcDbLine
 10
204.2028813669999
 20
134.977118611
 30
0.0
 11
204.0128813669999
 21
134.977118611
 31
0.0
  0
LINE
  5
715
330
421
100
AcDbEntity
  8
0
  6
Continuous
 62
     1
100
AcDbLine
 10
204.0128813669999
 20
134.977118611
 30
0.0
 11
204.0128813669999
 21
135.477118611
 31
0.0
  0
LINE
  5
716
330
421
100
AcDbEntity
  8
0
  6
Continuous
 62
     1
100
AcDbLine
 10
204.0128813669999
 20
135.477118611
 30
0.0
 11
203.8228813669999
 21
135.477118611
 31
0.0
  0
LINE
  5
717
330
421
100
AcDbEntity
  8
0
  6
Continuous
 62
     1
100
AcDbLine
 10
203.8228813669999
 20
135.477118611
 30
0.0
 11
203.8228813669999
 21
135.977118611
 31
0.0
  0
LINE
  5
718
330
421
100
AcDbEntity
  8
0
  6
Continuous
 62
     1
100
AcDbLine
 10
203.8228813669999
 20
135.977118611
 30
0.0
 11
203.6328813669999
 21
135.977118611
 31
0.0
  0
LINE
  5
719
330
421
100
AcDbEntity
  8
0
  6
Continuous
 62
     1
100
AcDbLine
 10
203.6328813669999
 20
135.977118611
 30
0.0
 11
203.6328813669999
 21
136.477118611
 31
0.0
  0
LINE
  5
71A
330
421
100
AcDbEntity
  8
0
  6
Continuous
 62
     1
100
AcDbLine
 10
203.6328813669999
 20
136.477118611
 30
0.0
 11
203.4428813669999
 21
136.477118611
 31
0.0
  0
LINE
  5
71B
330
421
100
AcDbEntity
  8
0
  6
Continuous
 62
     1
100
AcDbLine
 10
203.4428813669999
 20
136.477118611
 30
0.0
 11
203.4428813669999
 21
136.977118611
 31
0.0
  0
LINE
  5
71C
330
421
100
AcDbEntity
  8
0
  6
Continuous
 62
     1
100
AcDbLine
 10
203.4428813669999
 20
136.977118611
 30
0.0
 11
203.252881367
 21
136.977118611
 31
0.0
  0
LINE
  5
71D
330
421
100
AcDbEntity
  8
0
  6
Continuous
 62
     1
100
AcDbLine
 10
203.252881367
 20
136.977118611
 30
0.0
 11
203.2528813659999
 21
137.477118611
 31
0.0
  0
LINE
  5
71E
330
421
100
AcDbEntity
  8
0
  6
Continuous
 62
     1
100
AcDbLine
 10
203.2528813659999
 20
137.477118611
 30
0.0
 11
203.0628813659999
 21
137.477118611
 31
0.0
  0
LINE
  5
71F
330
421
100
AcDbEntity
  8
0
  6
Continuous
 62
     1
100
AcDbLine
 10
203.0628813659999
 20
137.477118611
 30
0.0
 11
203.0628813659999
 21
137.977118611
 31
0.0
  0
LINE
  5
720
330
421
100
AcDbEntity
  8
0
  6
Continuous
 62
     1
100
AcDbLine
 10
203.0628813659999
 20
137.977118611
 30
0.0
 11
202.8728813659998
 21
137.977118611
 31
0.0
  0
LINE
  5
721
330
421
100
AcDbEntity
  8
0
  6
Continuous
 62
     1
100
AcDbLine
 10
202.8728813659998
 20
137.977118611
 30
0.0
 11
202.8728813659998
 21
138.477118611
 31
0.0
  0
LINE
  5
722
330
421
100
AcDbEntity
  8
0
  6
Continuous
 62
     1
100
AcDbLine
 10
204.772881367
 20
133.727118611
 30
0.0
 11
205.3728813659998
 21
137.7271186119999
 31
0.0
  0
LINE
  5
723
330
421
100
AcDbEntity
  8
0
  6
Continuous
 62
     1
100
AcDbLine
 10
205.3728813659998
 20
137.7271186119999
 30
0.0
 11
205.172881366
 21
138.477118611
 31
0.0
  0
ARC
  5
724
330
421
100
AcDbEntity
  8
0
  6
Continuous
 62
     1
100
AcDbCircle
 10
181.972881364
 20
147.791623692
 30
0.0
 40
25.0
100
AcDbArc
 50
338.1251667129999
 51
341.192418184
  0
ARC
  5
725
330
421
100
AcDbEntity
  8
0
  6
Continuous
 62
     1
100
AcDbCircle
 10
180.779987139
 20
150.177718157
 30
0.0
 40
25.0
100
AcDbArc
 50
332.0938949169998
 51
1.423668968
  0
LINE
  5
726
330
421
100
AcDbEntity
  8
0
  6
Continuous
 62
     1
100
AcDbLine
 10
205.572881367
 20
133.427118615
 30
0.0
 11
205.74533474
 21
148.452118836
 31
0.0
  0
LINE
  5
727
330
421
100
AcDbEntity
  8
0
  6
Continuous
 62
     1
100
AcDbLine
 10
206.465453752
 20
168.127118601
 30
0.0
 11
227.9728813579999
 21
168.127118607
 31
0.0
  0
LINE
  5
728
330
421
100
AcDbEntity
  8
0
  6
Continuous
 62
     1
100
AcDbLine
 10
205.772269927
 20
150.7988470129998
 30
0.0
 11
205.965486684
 21
167.632857104
 31
0.0
  0
ARC
  5
729
330
421
100
AcDbEntity
  8
0
  6
Continuous
 62
     1
100
AcDbCircle
 10
206.465453752
 20
167.627118601
 30
0.0
 40
0.5
100
AcDbArc
 50
90.00000000899998
 51
179.3424015649999
  0
LINE
  5
72A
330
421
100
AcDbEntity
  8
0
  6
Continuous
 62
     1
100
AcDbLine
 10
203.972881367
 20
133.427118616
 30
0.0
 11
204.196644424
 21
129.399383602
 31
0.0
  0
LINE
  5
72B
330
421
100
AcDbEntity
  8
0
  6
Continuous
 62
     1
100
AcDbLine
 10
204.695874601
 20
128.9271186109999
 30
0.0
 11
227.972881369
 21
128.927118617
 31
0.0
  0
ARC
  5
72C
330
421
100
AcDbEntity
  8
0
  6
Continuous
 62
     1
100
AcDbCircle
 10
204.6958746
 20
129.427118611
 30
0.0
 40
0.5
100
AcDbArc
 50
183.17983012
 51
270.000000011
  0
LINE
  5
72D
330
421
100
AcDbEntity
  8
0
  6
Continuous
 62
     1
100
AcDbLine
 10
204.725
 20
128.9
 30
0.0
 11
204.725
 21
128.4
 31
0.0
  0
LINE
  5
72E
330
421
100
AcDbEntity
  8
0
  6
Continuous
 62
     1
100
AcDbLine
 10
251.972881368
 20
133.427118624
 30
0.0
 11
227.972881368
 21
133.427118617
 31
0.0
  0
LINE
  5
72F
330
421
100
AcDbEntity
  8
0
  6
Continuous
 62
     1
100
AcDbLine
 10
251.362881367
 20
133.7271186239999
 30
0.0
 11
251.362881367
 21
133.9771186239999
 31
0.0
  0
LINE
  5
730
330
421
100
AcDbEntity
  8
0
  6
Continuous
 62
     1
100
AcDbLine
 10
251.172881367
 20
133.7271186239999
 30
0.0
 11
251.362881367
 21
133.7271186239999
 31
0.0
  0
LINE
  5
731
330
421
100
AcDbEntity
  8
0
  6
Continuous
 62
     1
100
AcDbLine
 10
251.362881367
 20
133.9771186239999
 30
0.0
 11
251.552881367
 21
133.9771186239999
 31
0.0
  0
LINE
  5
732
330
421
100
AcDbEntity
  8
0
  6
Continuous
 62
     1
100
AcDbLine
 10
251.552881367
 20
133.9771186239999
 30
0.0
 11
251.552881367
 21
134.4771186239998
 31
0.0
  0
LINE
  5
733
330
421
100
AcDbEntity
  8
0
  6
Continuous
 62
     1
100
AcDbLine
 10
251.552881367
 20
134.4771186239998
 30
0.0
 11
251.742881367
 21
134.4771186239998
 31
0.0
  0
LINE
  5
734
330
421
100
AcDbEntity
  8
0
  6
Continuous
 62
     1
100
AcDbLine
 10
251.742881367
 20
134.4771186239998
 30
0.0
 11
251.742881367
 21
134.9771186239999
 31
0.0
  0
LINE
  5
735
330
421
100
AcDbEntity
  8
0
  6
Continuous
 62
     1
100
AcDbLine
 10
251.742881367
 20
134.9771186239999
 30
0.0
 11
251.932881367
 21
134.9771186239999
 31
0.0
  0
LINE
  5
736
330
421
100
AcDbEntity
  8
0
  6
Continuous
 62
     1
100
AcDbLine
 10
251.932881367
 20
134.9771186239999
 30
0.0
 11
251.932881367
 21
135.4771186239998
 31
0.0
  0
LINE
  5
737
330
421
100
AcDbEntity
  8
0
  6
Continuous
 62
     1
100
AcDbLine
 10
251.932881367
 20
135.4771186239998
 30
0.0
 11
252.122881367
 21
135.4771186239998
 31
0.0
  0
LINE
  5
738
330
421
100
AcDbEntity
  8
0
  6
Continuous
 62
     1
100
AcDbLine
 10
252.122881367
 20
135.4771186239998
 30
0.0
 11
252.122881367
 21
135.9771186239999
 31
0.0
  0
LINE
  5
739
330
421
100
AcDbEntity
  8
0
  6
Continuous
 62
     1
100
AcDbLine
 10
252.122881367
 20
135.9771186239999
 30
0.0
 11
252.312881367
 21
135.9771186239999
 31
0.0
  0
LINE
  5
73A
330
421
100
AcDbEntity
  8
0
  6
Continuous
 62
     1
100
AcDbLine
 10
252.312881367
 20
135.9771186239999
 30
0.0
 11
252.312881367
 21
136.4771186239998
 31
0.0
  0
LINE
  5
73B
330
421
100
AcDbEntity
  8
0
  6
Continuous
 62
     1
100
AcDbLine
 10
252.312881367
 20
136.4771186239998
 30
0.0
 11
252.502881367
 21
136.4771186239998
 31
0.0
  0
LINE
  5
73C
330
421
100
AcDbEntity
  8
0
  6
Continuous
 62
     1
100
AcDbLine
 10
252.502881367
 20
136.4771186239998
 30
0.0
 11
252.502881367
 21
136.9771186239999
 31
0.0
  0
LINE
  5
73D
330
421
100
AcDbEntity
  8
0
  6
Continuous
 62
     1
100
AcDbLine
 10
252.502881367
 20
136.9771186239999
 30
0.0
 11
252.692881367
 21
136.9771186239999
 31
0.0
  0
LINE
  5
73E
330
421
100
AcDbEntity
  8
0
  6
Continuous
 62
     1
100
AcDbLine
 10
252.692881367
 20
136.9771186239999
 30
0.0
 11
252.692881366
 21
137.4771186239998
 31
0.0
  0
LINE
  5
73F
330
421
100
AcDbEntity
  8
0
  6
Continuous
 62
     1
100
AcDbLine
 10
252.692881366
 20
137.4771186239998
 30
0.0
 11
252.882881366
 21
137.4771186239998
 31
0.0
  0
LINE
  5
740
330
421
100
AcDbEntity
  8
0
  6
Continuous
 62
     1
100
AcDbLine
 10
252.882881366
 20
137.4771186239998
 30
0.0
 11
252.882881366
 21
137.9771186239999
 31
0.0
  0
LINE
  5
741
330
421
100
AcDbEntity
  8
0
  6
Continuous
 62
     1
100
AcDbLine
 10
252.882881366
 20
137.9771186239999
 30
0.0
 11
253.072881366
 21
137.9771186239999
 31
0.0
  0
LINE
  5
742
330
421
100
AcDbEntity
  8
0
  6
Continuous
 62
     1
100
AcDbLine
 10
253.072881366
 20
137.9771186239999
 30
0.0
 11
253.072881366
 21
138.4771186239998
 31
0.0
  0
LINE
  5
743
330
421
100
AcDbEntity
  8
0
  6
Continuous
 62
     1
100
AcDbLine
 10
251.172881367
 20
133.7271186239999
 30
0.0
 11
250.5728813659996
 21
137.7271186229999
 31
0.0
  0
LINE
  5
744
330
421
100
AcDbEntity
  8
0
  6
Continuous
 62
     1
100
AcDbLine
 10
250.5728813659996
 20
137.7271186229999
 30
0.0
 11
250.772881366
 21
138.477118623
 31
0.0
  0
ARC
  5
745
330
421
100
AcDbEntity
  8
0
  6
Continuous
 62
     1
100
AcDbCircle
 10
273.9728813639998
 20
147.791623716
 30
0.0
 40
25.0
100
AcDbArc
 50
198.8075818159996
 51
201.8748332869999
  0
ARC
  5
746
330
421
100
AcDbEntity
  8
0
  6
Continuous
 62
     1
100
AcDbCircle
 10
275.1657755869998
 20
150.177718181
 30
0.0
 40
25.0
100
AcDbArc
 50
178.5763314349999
 51
207.906105083
  0
LINE
  5
747
330
421
100
AcDbEntity
  8
0
  6
Continuous
 62
     1
100
AcDbLine
 10
250.3728813559999
 20
133.4271186199996
 30
0.0
 11
250.203986087
 21
148.1421188399996
 31
0.0
  0
LINE
  5
748
330
421
100
AcDbEntity
  8
0
  6
Continuous
 62
     1
100
AcDbLine
 10
249.480308964
 20
168.127118612
 30
0.0
 11
227.9728813579999
 21
168.127118607
 31
0.0
  0
LINE
  5
749
330
421
100
AcDbEntity
  8
0
  6
Continuous
 62
     1
100
AcDbLine
 10
250.1734927949999
 20
150.7988468569998
 30
0.0
 11
249.980276033
 21
167.632857115
 31
0.0
  0
ARC
  5
74A
330
421
100
AcDbEntity
  8
0
  6
Continuous
 62
     1
100
AcDbCircle
 10
249.480308964
 20
167.627118612
 30
0.0
 40
0.5
100
AcDbArc
 50
0.6575984350000002
 51
90.00000000899998
  0
LINE
  5
74B
330
421
100
AcDbEntity
  8
0
  6
Continuous
 62
     1
100
AcDbLine
 10
251.2498881349999
 20
128.927118624
 30
0.0
 11
227.972881369
 21
128.927118617
 31
0.0
  0
LINE
  5
74C
330
421
100
AcDbEntity
  8
0
  6
Continuous
 62
     1
100
AcDbLine
 10
251.972881368
 20
133.427118624
 30
0.0
 11
251.749118312
 21
129.3993836139998
 31
0.0
  0
ARC
  5
74D
330
421
100
AcDbEntity
  8
0
  6
Continuous
 62
     1
100
AcDbCircle
 10
251.2498881349999
 20
129.427118624
 30
0.0
 40
0.5
100
AcDbArc
 50
270.000000011
 51
356.8201698799999
  0
LINE
  5
74E
330
421
100
AcDbEntity
  8
0
  6
Continuous
 62
     1
100
AcDbLine
 10
251.2249999999999
 20
128.4
 30
0.0
 11
251.2249999999999
 21
128.9
 31
0.0
  0
LINE
  5
74F
330
421
100
AcDbEntity
  8
0
  6
Continuous
 62
     1
100
AcDbLine
 10
204.725
 20
128.4
 30
0.0
 11
251.2249999999999
 21
128.4
 31
0.0
  0
LINE
  5
750
330
421
100
AcDbEntity
  8
0
  6
Continuous
 62
     1
100
AcDbLine
 10
224.9521186459998
 20
132.127118604
 30
0.0
 11
224.9521186449999
 21
130.927118602
 31
0.0
  0
LINE
  5
751
330
421
100
AcDbEntity
  8
0
  6
Continuous
 62
     1
100
AcDbLine
 10
224.9521186449999
 20
130.927118602
 30
0.0
 11
230.952118645
 21
130.927118602
 31
0.0
  0
LINE
  5
752
330
421
100
AcDbEntity
  8
0
  6
Continuous
 62
     1
100
AcDbLine
 10
230.975
 20
132.125
 30
0.0
 11
224.9249999999999
 21
132.125
 31
0.0
  0
LINE
  5
753
330
421
100
AcDbEntity
  8
0
  6
Continuous
 62
     1
100
AcDbLine
 10
230.952118645
 20
130.927118602
 30
0.0
 11
230.9521186459998
 21
132.1271186029999
 31
0.0
  0
LINE
  5
754
330
421
100
AcDbEntity
  8
0
  6
Continuous
 62
     1
100
AcDbLine
 10
223.952118647
 20
138.627118604
 30
0.0
 11
231.952118647
 21
138.6271186029999
 31
0.0
  0
LINE
  5
755
330
421
100
AcDbEntity
  8
0
  6
Continuous
 62
     1
100
AcDbLine
 10
231.952118647
 20
138.6271186029999
 30
0.0
 11
231.952118647
 21
136.827118603
 31
0.0
  0
LINE
  5
756
330
421
100
AcDbEntity
  8
0
  6
Continuous
 62
     1
100
AcDbLine
 10
231.952118647
 20
136.827118603
 30
0.0
 11
227.952118647
 21
136.827118603
 31
0.0
  0
LINE
  5
757
330
421
100
AcDbEntity
  8
0
  6
Continuous
 62
     1
100
AcDbLine
 10
227.952118647
 20
136.827118603
 30
0.0
 11
223.952118647
 21
136.8271186039999
 31
0.0
  0
LINE
  5
758
330
421
100
AcDbEntity
  8
0
  6
Continuous
 62
     1
100
AcDbLine
 10
223.952118647
 20
136.8271186039999
 30
0.0
 11
223.952118647
 21
138.627118604
 31
0.0
  0
ARC
  5
759
330
421
100
AcDbEntity
  8
0
  6
Continuous
 62
     1
100
AcDbCircle
 10
184.379913394
 20
167.627118622
 30
0.0
 40
0.5
100
AcDbArc
 50
0.8115006839999999
 51
90.0
  0
LINE
  5
75A
330
421
100
AcDbEntity
  8
0
  6
Continuous
 62
     1
100
AcDbLine
 10
185.6498881579999
 20
128.9271186189999
 30
0.0
 11
184.872881391
 21
128.9271186189999
 31
0.0
  0
ARC
  5
75B
330
421
100
AcDbEntity
  8
0
  6
Continuous
 62
     1
100
AcDbCircle
 10
185.6498881579999
 20
129.427118619
 30
0.0
 40
0.5
100
AcDbArc
 50
270.0000000009998
 51
356.8201698799999
  0
LINE
  5
75C
330
421
100
AcDbEntity
  8
0
  6
Continuous
 62
     1
100
AcDbLine
 10
184.872881391
 20
130.5271186189999
 30
0.0
 11
184.872881391
 21
130.9271186189999
 31
0.0
  0
LINE
  5
75D
330
421
100
AcDbEntity
  8
0
  6
Continuous
 62
     1
100
AcDbLine
 10
184.872881391
 20
130.9271186189999
 30
0.0
 11
183.9978813909999
 21
130.9271186189999
 31
0.0
  0
LINE
  5
75E
330
421
100
AcDbEntity
  8
0
  6
Continuous
 62
     1
100
AcDbLine
 10
186.372881392
 20
133.4271186179998
 30
0.0
 11
185.3659369479999
 21
133.427118619
 31
0.0
  0
LINE
  5
75F
330
421
100
AcDbEntity
  8
0
  6
Continuous
 62
     1
100
AcDbLine
 10
184.872881391
 20
128.9271186189999
 30
0.0
 11
184.872881391
 21
130.9271186189999
 31
0.0
  0
LINE
  5
760
330
421
100
AcDbEntity
  8
0
  6
Continuous
 62
     1
100
AcDbLine
 10
186.372881392
 20
133.4271186179998
 30
0.0
 11
186.149118335
 21
129.3993836089998
 31
0.0
  0
LINE
  5
761
330
421
100
AcDbEntity
  8
0
  6
Continuous
 62
     1
100
AcDbLine
 10
184.879863245
 20
167.6342000649999
 30
0.0
 11
185.364382809
 21
133.427118619
 31
0.0
  0
LINE
  5
762
330
421
100
AcDbEntity
  8
0
  6
Continuous
 62
     1
100
AcDbLine
 10
162.372881392
 20
133.4271186249999
 30
0.0
 11
162.596644447
 21
129.399383615
 31
0.0
  0
ARC
  5
763
330
421
100
AcDbEntity
  8
0
  6
Continuous
 62
     1
100
AcDbCircle
 10
163.095874624
 20
129.427118625
 30
0.0
 40
0.5
100
AcDbArc
 50
183.17983012
 51
270.0000000009998
  0
LINE
  5
764
330
421
100
AcDbEntity
  8
0
  6
Continuous
 62
     1
100
AcDbLine
 10
163.872881391
 20
130.5271186239999
 30
0.0
 11
163.872881391
 21
130.9271186239998
 31
0.0
  0
LINE
  5
765
330
421
100
AcDbEntity
  8
0
  6
Continuous
 62
     1
100
AcDbLine
 10
163.872881391
 20
128.927118624
 30
0.0
 11
163.872881391
 21
130.9271186239998
 31
0.0
  0
LINE
  5
766
330
421
100
AcDbEntity
  8
0
  6
Continuous
 62
     1
100
AcDbLine
 10
163.8749999999998
 20
128.927118624
 30
0.0
 11
163.095874624
 21
128.9271186249999
 31
0.0
  0
LINE
  5
767
330
421
100
AcDbEntity
  8
0
  6
Continuous
 62
     1
100
AcDbLine
 10
163.872881391
 20
130.9271186239998
 30
0.0
 11
184.4228813909998
 21
130.9271186199999
 31
0.0
  0
ARC
  5
768
330
421
100
AcDbEntity
  8
0
  6
Continuous
 62
     1
100
AcDbCircle
 10
174.375
 20
238.9499999999999
 30
0.0
 40
110.4999999999999
100
AcDbArc
 50
264.547378012
 51
275.4526219879999
  0
LINE
  5
769
330
421
100
AcDbEntity
  8
0
  6
Continuous
 62
     1
100
AcDbLine
 10
174.372881392
 20
133.727118622
 30
0.0
 11
169.372881392
 21
133.7271186229999
 31
0.0
  0
LINE
  5
76A
330
421
100
AcDbEntity
  8
0
  6
Continuous
 62
     1
100
AcDbLine
 10
169.372881392
 20
133.7271186229999
 30
0.0
 11
169.3728813959999
 21
150.9271186229999
 31
0.0
  0
ARC
  5
76B
330
421
100
AcDbEntity
  8
0
  6
Continuous
 62
     1
100
AcDbCircle
 10
168.872881396
 20
150.9271186229999
 30
0.0
 40
0.5
100
AcDbArc
 50
0.0
 51
180.0
  0
LINE
  5
76C
330
421
100
AcDbEntity
  8
0
  6
Continuous
 62
     1
100
AcDbLine
 10
169.372881392
 20
133.9771186229999
 30
0.0
 11
174.372881392
 21
133.977118622
 31
0.0
  0
LINE
  5
76D
330
421
100
AcDbEntity
  8
0
  6
Continuous
 62
     1
100
AcDbLine
 10
174.372881392
 20
134.477118622
 30
0.0
 11
169.372881392
 21
134.477118623
 31
0.0
  0
LINE
  5
76E
330
421
100
AcDbEntity
  8
0
  6
Continuous
 62
     1
100
AcDbLine
 10
169.372881392
 20
134.9771186229999
 30
0.0
 11
174.372881392
 21
134.977118622
 31
0.0
  0
LINE
  5
76F
330
421
100
AcDbEntity
  8
0
  6
Continuous
 62
     1
100
AcDbLine
 10
174.372881392
 20
135.477118622
 30
0.0
 11
169.372881392
 21
135.477118623
 31
0.0
  0
LINE
  5
770
330
421
100
AcDbEntity
  8
0
  6
Continuous
 62
     1
100
AcDbLine
 10
169.372881392
 20
135.9771186229999
 30
0.0
 11
174.372881392
 21
135.977118622
 31
0.0
  0
LINE
  5
771
330
421
100
AcDbEntity
  8
0
  6
Continuous
 62
     1
100
AcDbLine
 10
174.3728813929998
 20
136.477118622
 30
0.0
 11
169.3728813929998
 21
136.477118623
 31
0.0
  0
LINE
  5
772
330
421
100
AcDbEntity
  8
0
  6
Continuous
 62
     1
100
AcDbLine
 10
169.3728813929998
 20
136.9771186229999
 30
0.0
 11
174.3728813929998
 21
136.977118622
 31
0.0
  0
LINE
  5
773
330
421
100
AcDbEntity
  8
0
  6
Continuous
 62
     1
100
AcDbLine
 10
174.3728813929998
 20
137.477118622
 30
0.0
 11
169.3728813929998
 21
137.477118623
 31
0.0
  0
LINE
  5
774
330
421
100
AcDbEntity
  8
0
  6
Continuous
 62
     1
100
AcDbLine
 10
169.3728813929998
 20
137.9771186229999
 30
0.0
 11
174.3728813929998
 21
137.977118622
 31
0.0
  0
LINE
  5
775
330
421
100
AcDbEntity
  8
0
  6
Continuous
 62
     1
100
AcDbLine
 10
174.3728813929998
 20
138.477118622
 30
0.0
 11
169.3728813929998
 21
138.477118623
 31
0.0
  0
LINE
  5
776
330
421
100
AcDbEntity
  8
0
  6
Continuous
 62
     1
100
AcDbLine
 10
168.372881392
 20
133.1771186229999
 30
0.0
 11
168.372881392
 21
133.4271186229998
 31
0.0
  0
LINE
  5
777
330
421
100
AcDbEntity
  8
0
  6
Continuous
 62
     1
100
AcDbLine
 10
168.372881396
 20
150.9271186229999
 30
0.0
 11
168.372881392
 21
133.4271186229998
 31
0.0
  0
LINE
  5
778
330
421
100
AcDbEntity
  8
0
  6
Continuous
 62
     1
100
AcDbLine
 10
162.372881392
 20
133.4271186249999
 30
0.0
 11
168.372881392
 21
133.4271186229998
 31
0.0
  0
LINE
  5
779
330
421
100
AcDbEntity
  8
0
  6
Continuous
 62
     1
100
AcDbLine
 10
174.372881392
 20
133.727118622
 30
0.0
 11
179.372881392
 21
133.7271186199999
 31
0.0
  0
LINE
  5
77A
330
421
100
AcDbEntity
  8
0
  6
Continuous
 62
     1
100
AcDbLine
 10
179.372881392
 20
133.7271186199999
 30
0.0
 11
179.372881396
 21
150.9271186199999
 31
0.0
  0
ARC
  5
77B
330
421
100
AcDbEntity
  8
0
  6
Continuous
 62
     1
100
AcDbCircle
 10
179.8728813959999
 20
150.9271186199999
 30
0.0
 40
0.5
100
AcDbArc
 50
0.0
 51
180.0
  0
LINE
  5
77C
330
421
100
AcDbEntity
  8
0
  6
Continuous
 62
     1
100
AcDbLine
 10
179.372881392
 20
133.9771186199999
 30
0.0
 11
174.372881392
 21
133.977118622
 31
0.0
  0
LINE
  5
77D
330
421
100
AcDbEntity
  8
0
  6
Continuous
 62
     1
100
AcDbLine
 10
174.372881392
 20
134.477118622
 30
0.0
 11
179.372881392
 21
134.47711862
 31
0.0
  0
LINE
  5
77E
330
421
100
AcDbEntity
  8
0
  6
Continuous
 62
     1
100
AcDbLine
 10
179.372881392
 20
134.9771186199999
 30
0.0
 11
174.372881392
 21
134.977118622
 31
0.0
  0
LINE
  5
77F
330
421
100
AcDbEntity
  8
0
  6
Continuous
 62
     1
100
AcDbLine
 10
174.372881392
 20
135.477118622
 30
0.0
 11
179.372881392
 21
135.47711862
 31
0.0
  0
LINE
  5
780
330
421
100
AcDbEntity
  8
0
  6
Continuous
 62
     1
100
AcDbLine
 10
179.372881392
 20
135.9771186199999
 30
0.0
 11
174.372881392
 21
135.977118622
 31
0.0
  0
LINE
  5
781
330
421
100
AcDbEntity
  8
0
  6
Continuous
 62
     1
100
AcDbLine
 10
174.3728813929998
 20
136.477118622
 30
0.0
 11
179.372881393
 21
136.47711862
 31
0.0
  0
LINE
  5
782
330
421
100
AcDbEntity
  8
0
  6
Continuous
 62
     1
100
AcDbLine
 10
179.372881393
 20
136.9771186199999
 30
0.0
 11
174.3728813929998
 21
136.977118622
 31
0.0
  0
LINE
  5
783
330
421
100
AcDbEntity
  8
0
  6
Continuous
 62
     1
100
AcDbLine
 10
174.3728813929998
 20
137.477118622
 30
0.0
 11
179.372881393
 21
137.47711862
 31
0.0
  0
LINE
  5
784
330
421
100
AcDbEntity
  8
0
  6
Continuous
 62
     1
100
AcDbLine
 10
179.372881393
 20
137.9771186199999
 30
0.0
 11
174.3728813929998
 21
137.977118622
 31
0.0
  0
LINE
  5
785
330
421
100
AcDbEntity
  8
0
  6
Continuous
 62
     1
100
AcDbLine
 10
174.3728813929998
 20
138.477118622
 30
0.0
 11
179.372881393
 21
138.47711862
 31
0.0
  0
LINE
  5
786
330
421
100
AcDbEntity
  8
0
  6
Continuous
 62
     1
100
AcDbLine
 10
180.372881396
 20
150.9271186199999
 30
0.0
 11
180.372881392
 21
133.177118621
 31
0.0
  0
LINE
  5
787
330
421
100
AcDbEntity
  8
0
  6
Continuous
 62
     1
100
AcDbLine
 10
180.372881392
 20
133.4271186199996
 30
0.0
 11
185.3659369479999
 21
133.427118619
 31
0.0
  0
LINE
  5
788
330
421
100
AcDbEntity
  8
0
  6
Continuous
 62
     1
100
AcDbLine
 10
168.372881392
 20
133.1771186229999
 30
0.0
 11
180.372881392
 21
133.177118621
 31
0.0
  0
ARC
  5
789
330
421
100
AcDbEntity
  8
0
  6
Continuous
 62
     1
100
AcDbCircle
 10
164.25678424
 20
159.927118624
 30
0.0
 40
0.5
100
AcDbArc
 50
90.0
 51
179.188499314
  0
LINE
  5
78A
330
421
100
AcDbEntity
  8
0
  6
Continuous
 62
     1
100
AcDbLine
 10
163.7568343899999
 20
159.934200067
 30
0.0
 11
163.381379976
 21
133.4271186229998
 31
0.0
  0
LINE
  5
78B
330
421
100
AcDbEntity
  8
0
  6
Continuous
 62
     1
100
AcDbLine
 10
164.25678424
 20
160.427118624
 30
0.0
 11
167.672881401
 21
160.427118624
 31
0.0
  0
ARC
  5
78C
330
421
100
AcDbEntity
  8
0
  6
Continuous
 62
     1
100
AcDbCircle
 10
168.547581571
 20
167.6271186239999
 30
0.0
 40
0.5
100
AcDbArc
 50
90.0
 51
177.0262689179998
  0
LINE
  5
78D
330
421
100
AcDbEntity
  8
0
  6
Continuous
 62
     1
100
AcDbLine
 10
168.547581571
 20
168.127118624
 30
0.0
 11
184.379913394
 21
168.127118622
 31
0.0
  0
LINE
  5
78E
330
421
100
AcDbEntity
  8
0
  6
Continuous
 62
     1
100
AcDbLine
 10
168.0482548579998
 20
167.653057674
 30
0.0
 11
167.672881401
 21
160.427118624
 31
0.0
  0
LINE
  5
78F
330
421
100
AcDbEntity
  8
0
  6
Continuous
 62
     1
100
AcDbLine
 10
97.32711865200002
 20
206.399999974
 30
0.0
 11
118.577118652
 21
206.399999969
 31
0.0
  0
ARC
  5
790
330
421
100
AcDbEntity
  8
0
  6
Continuous
 62
     1
100
AcDbCircle
 10
94.32711865200001
 20
206.8999999749999
 30
0.0
 40
0.5
100
AcDbArc
 50
180.0
 51
270.0
  0
ARC
  5
791
330
421
100
AcDbEntity
  8
0
  6
Continuous
 62
     1
100
AcDbCircle
 10
93.62711865299999
 20
206.099999974
 30
0.0
 40
0.3
100
AcDbArc
 50
180.0
 51
270.0
  0
ARC
  5
792
330
421
100
AcDbEntity
  8
0
  6
Continuous
 62
     1
100
AcDbCircle
 10
92.32711865300002
 20
205.399999974
 30
0.0
 40
0.5
100
AcDbArc
 50
180.0
 51
270.0
  0
LINE
  5
793
330
421
100
AcDbEntity
  8
0
  6
Continuous
 62
     1
100
AcDbLine
 10
90.72711866300002
 20
211.899999972
 30
0.0
 11
90.72711866300002
 21
216.899999972
 31
0.0
  0
LINE
  5
794
330
421
100
AcDbEntity
  8
0
  6
Continuous
 62
     1
100
AcDbLine
 10
90.72711866300002
 20
211.899999972
 30
0.0
 11
93.227118662
 21
211.8999999709997
 31
0.0
  0
LINE
  5
795
330
421
100
AcDbEntity
  8
0
  6
Continuous
 62
     1
100
AcDbLine
 10
93.82711865700001
 20
226.899999975
 30
0.0
 11
93.82711865300001
 21
211.0999999709996
 31
0.0
  0
ARC
  5
796
330
421
100
AcDbEntity
  8
0
  6
Continuous
 62
     1
100
AcDbCircle
 10
94.32711865299999
 20
211.0999999709996
 30
0.0
 40
0.5
100
AcDbArc
 50
180.0000000009999
 51
270.0
  0
LINE
  5
797
330
421
100
AcDbEntity
  8
0
  6
Continuous
 62
     1
100
AcDbLine
 10
91.82711865399999
 20
211.7999999739998
 30
0.0
 11
91.82711865299999
 21
205.399999974
 31
0.0
  0
LINE
  5
798
330
421
100
AcDbEntity
  8
0
  6
Continuous
 62
     1
100
AcDbLine
 10
93.82711865300001
 20
211.047118609
 30
0.0
 11
93.82711865200001
 21
206.8999999749999
 31
0.0
  0
LINE
  5
799
330
421
100
AcDbEntity
  8
0
  6
Continuous
 62
     1
100
AcDbLine
 10
112.327118655
 20
215.299999969
 30
0.0
 11
109.827118655
 21
215.29999997
 31
0.0
  0
LINE
  5
79A
330
421
100
AcDbEntity
  8
0
  6
Continuous
 62
     1
100
AcDbLine
 10
112.327118655
 20
215.299999969
 30
0.0
 11
112.327118655
 21
214.299999969
 31
0.0
  0
LINE
  5
79B
330
421
100
AcDbEntity
  8
0
  6
Continuous
 62
     1
100
AcDbLine
 10
113.327118655
 20
214.299999969
 30
0.0
 11
113.327118655
 21
215.299999969
 31
0.0
  0
LINE
  5
79C
330
421
100
AcDbEntity
  8
0
  6
Continuous
 62
     1
100
AcDbLine
 10
109.3271186549998
 20
214.2999999699999
 30
0.0
 11
112.327118655
 21
214.299999969
 31
0.0
  0
ARC
  5
79D
330
421
100
AcDbEntity
  8
0
  6
Continuous
 62
     1
100
AcDbCircle
 10
109.3271186549998
 20
214.79999997
 30
0.0
 40
0.5
100
AcDbArc
 50
180.0000000009999
 51
270.0
  0
LINE
  5
79F
330
421
100
AcDbEntity
  8
0
  6
Continuous
 62
     1
100
AcDbLine
 10
132.3271186549999
 20
215.299999967
 30
0.0
 11
132.3271186539997
 21
214.299999967
 31
0.0
  0
LINE
  5
7A0
330
421
100
AcDbEntity
  8
0
  6
Continuous
 62
     1
100
AcDbLine
 10
135.8271186549999
 20
215.299999967
 30
0.0
 11
133.3271186549999
 21
215.299999967
 31
0.0
  0
LINE
  5
7A1
330
421
100
AcDbEntity
  8
0
  6
Continuous
 62
     1
100
AcDbLine
 10
133.3271186539997
 20
214.299999967
 30
0.0
 11
133.3271186549999
 21
215.299999967
 31
0.0
  0
LINE
  5
7A2
330
421
100
AcDbEntity
  8
0
  6
Continuous
 62
     1
100
AcDbLine
 10
133.3271186539997
 20
214.299999967
 30
0.0
 11
136.327118654
 21
214.299999967
 31
0.0
  0
ARC
  5
7A3
330
421
100
AcDbEntity
  8
0
  6
Continuous
 62
     1
100
AcDbCircle
 10
136.327118654
 20
214.799999967
 30
0.0
 40
0.5
100
AcDbArc
 50
270.0
 51
0.0
  0
LINE
  5
7A4
330
421
100
AcDbEntity
  8
0
  6
Continuous
 62
     1
100
AcDbLine
 10
132.3271186549999
 20
215.299999967
 30
0.0
 11
113.327118655
 21
215.299999969
 31
0.0
  0
LINE
  5
7A5
330
421
100
AcDbEntity
  8
0
  6
Continuous
 62
     1
100
AcDbLine
 10
113.327118655
 20
214.299999969
 30
0.0
 11
132.3271186539997
 21
214.299999967
 31
0.0
  0
ARC
  5
7A6
330
421
100
AcDbEntity
  8
0
  6
Continuous
 62
     1
100
AcDbCircle
 10
137.327118652
 20
206.8999999629999
 30
0.0
 40
0.5
100
AcDbArc
 50
270.0
 51
0.0
  0
ARC
  5
7A7
330
421
100
AcDbEntity
  8
0
  6
Continuous
 62
     1
100
AcDbCircle
 10
138.027118653
 20
206.0999999639999
 30
0.0
 40
0.3
100
AcDbArc
 50
270.0
 51
0.0
  0
ARC
  5
7A8
330
421
100
AcDbEntity
  8
0
  6
Continuous
 62
     1
100
AcDbCircle
 10
139.3271186529998
 20
205.399999964
 30
0.0
 40
0.5
100
AcDbArc
 50
270.0
 51
0.0
  0
LINE
  5
7A9
330
421
100
AcDbEntity
  8
0
  6
Continuous
 62
     1
100
AcDbLine
 10
140.927118646
 20
211.899999962
 30
0.0
 11
140.927118647
 21
216.899999962
 31
0.0
  0
LINE
  5
7AA
330
421
100
AcDbEntity
  8
0
  6
Continuous
 62
     1
100
AcDbLine
 10
137.8271186529999
 20
211.099999967
 30
0.0
 11
137.827118654
 21
212.699999967
 31
0.0
  0
LINE
  5
7AB
330
421
100
AcDbEntity
  8
0
  6
Continuous
 62
     1
100
AcDbLine
 10
139.8271186529999
 20
205.399999964
 30
0.0
 11
139.827118654
 21
210.0999999659999
 31
0.0
  0
LINE
  5
7AC
330
421
100
AcDbEntity
  8
0
  6
Continuous
 62
     1
100
AcDbLine
 10
140.927118646
 20
211.899999962
 30
0.0
 11
138.33
 21
211.899999963
 31
0.0
  0
LINE
  5
7AD
330
421
100
AcDbEntity
  8
0
  6
Continuous
 62
     1
100
AcDbLine
 10
139.827118654
 20
210.0
 30
0.0
 11
139.827118654
 21
211.799999964
 31
0.0
  0
LINE
  5
7AE
330
421
100
AcDbEntity
  8
0
  6
Continuous
 62
     1
100
AcDbLine
 10
94.32711865200001
 20
206.399999975
 30
0.0
 11
137.327118652
 21
206.399999963
 31
0.0
  0
LINE
  5
7AF
330
421
100
AcDbEntity
  8
0
  6
Continuous
 62
     1
100
AcDbLine
 10
93.62711865299999
 20
205.799999974
 30
0.0
 11
138.027118653
 21
205.799999964
 31
0.0
  0
LINE
  5
7B0
330
421
100
AcDbEntity
  8
0
  6
Continuous
 62
     1
100
AcDbLine
 10
92.327118652
 20
204.899999974
 30
0.0
 11
139.327118652
 21
204.899999964
 31
0.0
  0
LINE
  5
7B1
330
421
100
AcDbEntity
  8
0
  6
Continuous
 62
     1
100
AcDbLine
 10
137.8271186519999
 20
206.8999999629999
 30
0.0
 11
137.8271186529999
 21
211.132118605
 31
0.0
  0
ARC
  5
7B2
330
421
100
AcDbEntity
  8
0
  6
Continuous
 62
     1
100
AcDbCircle
 10
137.3271186529999
 20
211.099999967
 30
0.0
 40
0.5
100
AcDbArc
 50
270.0
 51
0.0
  0
LINE
  5
7B3
330
421
100
AcDbEntity
  8
0
  6
Continuous
 62
     1
100
AcDbLine
 10
138.3271186529998
 20
206.0999999639999
 30
0.0
 11
138.327118654
 21
211.899999967
 31
0.0
  0
LINE
  5
7B4
330
421
100
AcDbEntity
  8
0
  6
Continuous
 62
     1
100
AcDbLine
 10
94.32711865299999
 20
210.5999999709998
 30
0.0
 11
137.3271186529999
 21
210.5999999669998
 31
0.0
  0
LINE
  5
7B5
330
421
100
AcDbEntity
  8
0
  6
Continuous
 62
     1
100
AcDbLine
 10
140.927118648
 20
221.899999962
 30
0.0
 11
140.927118647
 21
216.899999962
 31
0.0
  0
LINE
  5
7B6
330
421
100
AcDbEntity
  8
0
  6
Continuous
 62
     1
100
AcDbLine
 10
140.927118648
 20
221.899999962
 30
0.0
 11
138.427118648
 21
221.8999999629999
 31
0.0
  0
CIRCLE
  5
7B7
330
421
100
AcDbEntity
  8
0
  6
Continuous
 62
     1
100
AcDbCircle
 10
133.3271186549999
 20
219.299999964
 30
0.0
 40
2.0
  0
CIRCLE
  5
7B8
330
421
100
AcDbEntity
  8
0
  6
Continuous
 62
     1
100
AcDbCircle
 10
128.3271186549999
 20
219.2999999659998
 30
0.0
 40
2.0
  0
CIRCLE
  5
7B9
330
421
100
AcDbEntity
  8
0
  6
Continuous
 62
     1
100
AcDbCircle
 10
123.327118655
 20
219.299999967
 30
0.0
 40
2.0
  0
CIRCLE
  5
7BA
330
421
100
AcDbEntity
  8
0
  6
Continuous
 62
     1
100
AcDbCircle
 10
118.327118655
 20
219.299999968
 30
0.0
 40
2.0
  0
CIRCLE
  5
7BB
330
421
100
AcDbEntity
  8
0
  6
Continuous
 62
     1
100
AcDbCircle
 10
113.327118655
 20
219.29999997
 30
0.0
 40
2.0
  0
LINE
  5
7BC
330
421
100
AcDbEntity
  8
0
  6
Continuous
 62
     1
100
AcDbLine
 10
121.327118656
 20
225.3999999679999
 30
0.0
 11
121.327118656
 21
226.399999968
 31
0.0
  0
LINE
  5
7BD
330
421
100
AcDbEntity
  8
0
  6
Continuous
 62
     1
100
AcDbLine
 10
125.327118656
 20
226.399999968
 30
0.0
 11
125.327118656
 21
225.3999999679999
 31
0.0
  0
LINE
  5
7BE
330
421
100
AcDbEntity
  8
0
  6
Continuous
 62
     1
100
AcDbLine
 10
121.327118656
 20
226.399999968
 30
0.0
 11
125.327118656
 21
226.399999968
 31
0.0
  0
LINE
  5
7BF
330
421
100
AcDbEntity
  8
0
  6
Continuous
 62
     1
100
AcDbLine
 10
125.327118656
 20
225.3999999679999
 30
0.0
 11
121.327118656
 21
225.3999999679999
 31
0.0
  0
ARC
  5
7C0
330
421
100
AcDbEntity
  8
0
  6
Continuous
 62
     1
100
AcDbCircle
 10
136.327118656
 20
225.899999967
 30
0.0
 40
0.5
100
AcDbArc
 50
0.0
 51
90.0
  0
LINE
  5
7C1
330
421
100
AcDbEntity
  8
0
  6
Continuous
 62
     1
100
AcDbLine
 10
135.827118656
 20
225.3999999669999
 30
0.0
 11
134.327118656
 21
225.3999999669999
 31
0.0
  0
LINE
  5
7C2
330
421
100
AcDbEntity
  8
0
  6
Continuous
 62
     1
100
AcDbLine
 10
134.327118656
 20
226.399999967
 30
0.0
 11
136.327118656
 21
226.399999967
 31
0.0
  0
LINE
  5
7C3
330
421
100
AcDbEntity
  8
0
  6
Continuous
 62
     1
100
AcDbLine
 10
134.327118656
 20
225.3999999669999
 30
0.0
 11
134.327118656
 21
226.399999967
 31
0.0
  0
LINE
  5
7C4
330
421
100
AcDbEntity
  8
0
  6
Continuous
 62
     1
100
AcDbLine
 10
135.827118656
 20
225.3999999669999
 30
0.0
 11
135.8271186549999
 21
215.299999967
 31
0.0
  0
LINE
  5
7C5
330
421
100
AcDbEntity
  8
0
  6
Continuous
 62
     1
100
AcDbLine
 10
136.827118654
 20
214.799999967
 30
0.0
 11
136.827118656
 21
225.899999967
 31
0.0
  0
ARC
  5
7C6
330
421
100
AcDbEntity
  8
0
  6
Continuous
 62
     1
100
AcDbCircle
 10
137.327118657
 20
226.899999963
 30
0.0
 40
0.5
100
AcDbArc
 50
0.0
 51
90.0
  0
ARC
  5
7C7
330
421
100
AcDbEntity
  8
0
  6
Continuous
 62
     1
100
AcDbCircle
 10
138.027118658
 20
227.699999964
 30
0.0
 40
0.3
100
AcDbArc
 50
0.0
 51
90.0
  0
ARC
  5
7C8
330
421
100
AcDbEntity
  8
0
  6
Continuous
 62
     1
100
AcDbCircle
 10
139.3271186579999
 20
228.399999964
 30
0.0
 40
0.5
100
AcDbArc
 50
0.0
 51
90.0
  0
LINE
  5
7C9
330
421
100
AcDbEntity
  8
0
  6
Continuous
 62
     1
100
AcDbLine
 10
137.827118654
 20
212.5999999999999
 30
0.0
 11
137.8271186569998
 21
226.899999963
 31
0.0
  0
LINE
  5
7CA
330
421
100
AcDbEntity
  8
0
  6
Continuous
 62
     1
100
AcDbLine
 10
138.327118654
 20
211.6999999999999
 30
0.0
 11
138.3271186579999
 21
227.699999964
 31
0.0
  0
LINE
  5
7CB
330
421
100
AcDbEntity
  8
0
  6
Continuous
 62
     1
100
AcDbLine
 10
139.827118656
 20
221.8999999629999
 30
0.0
 11
139.8271186579999
 21
228.399999964
 31
0.0
  0
ARC
  5
7CC
330
421
100
AcDbEntity
  8
0
  6
Continuous
 62
     1
100
AcDbCircle
 10
109.327118656
 20
225.89999997
 30
0.0
 40
0.5
100
AcDbArc
 50
90.0
 51
180.0000000009999
  0
LINE
  5
7CD
330
421
100
AcDbEntity
  8
0
  6
Continuous
 62
     1
100
AcDbLine
 10
109.327118656
 20
226.39999997
 30
0.0
 11
111.327118656
 21
226.399999969
 31
0.0
  0
LINE
  5
7CE
330
421
100
AcDbEntity
  8
0
  6
Continuous
 62
     1
100
AcDbLine
 10
111.327118656
 20
225.399999969
 30
0.0
 11
111.327118656
 21
226.399999969
 31
0.0
  0
LINE
  5
7CF
330
421
100
AcDbEntity
  8
0
  6
Continuous
 62
     1
100
AcDbLine
 10
111.327118656
 20
225.399999969
 30
0.0
 11
109.827118656
 21
225.3999999699999
 31
0.0
  0
LINE
  5
7D0
330
421
100
AcDbEntity
  8
0
  6
Continuous
 62
     1
100
AcDbLine
 10
109.827118656
 20
225.3999999699999
 30
0.0
 11
109.827118655
 21
215.29999997
 31
0.0
  0
LINE
  5
7D1
330
421
100
AcDbEntity
  8
0
  6
Continuous
 62
     1
100
AcDbLine
 10
108.827118655
 20
214.79999997
 30
0.0
 11
108.827118656
 21
225.89999997
 31
0.0
  0
ARC
  5
7D2
330
421
100
AcDbEntity
  8
0
  6
Continuous
 62
     1
100
AcDbCircle
 10
94.32711865700001
 20
226.899999975
 30
0.0
 40
0.5
100
AcDbArc
 50
90.0
 51
180.0
  0
ARC
  5
7D3
330
421
100
AcDbEntity
  8
0
  6
Continuous
 62
     1
100
AcDbCircle
 10
93.62711865799999
 20
227.699999974
 30
0.0
 40
0.3
100
AcDbArc
 50
90.0
 51
180.0
  0
ARC
  5
7D4
330
421
100
AcDbEntity
  8
0
  6
Continuous
 62
     1
100
AcDbCircle
 10
92.32711865799997
 20
228.399999974
 30
0.0
 40
0.5
100
AcDbArc
 50
90.0
 51
180.0
  0
LINE
  5
7D5
330
421
100
AcDbEntity
  8
0
  6
Continuous
 62
     1
100
AcDbLine
 10
93.32711865799996
 20
227.699999974
 30
0.0
 11
93.32711865300002
 21
206.099999974
 31
0.0
  0
LINE
  5
7D6
330
421
100
AcDbEntity
  8
0
  6
Continuous
 62
     1
100
AcDbLine
 10
137.327118657
 20
227.3999999629999
 30
0.0
 11
94.32711865700001
 21
227.399999975
 31
0.0
  0
LINE
  5
7D7
330
421
100
AcDbEntity
  8
0
  6
Continuous
 62
     1
100
AcDbLine
 10
138.027118658
 20
227.999999964
 30
0.0
 11
93.62711865799999
 21
227.999999974
 31
0.0
  0
LINE
  5
7D8
330
421
100
AcDbEntity
  8
0
  6
Continuous
 62
     1
100
AcDbLine
 10
139.3271186579999
 20
228.899999964
 30
0.0
 11
92.32711865799997
 21
228.899999974
 31
0.0
  0
LINE
  5
7D9
330
421
100
AcDbEntity
  8
0
  6
Continuous
 62
     1
100
AcDbLine
 10
91.82711865799999
 20
228.399999974
 30
0.0
 11
91.82711865600001
 21
221.8999999709998
 31
0.0
  0
LINE
  5
7DA
330
421
100
AcDbEntity
  8
0
  6
Continuous
 62
     1
100
AcDbLine
 10
90.727118664
 20
221.899999972
 30
0.0
 11
93.32711865600002
 21
221.8999999709998
 31
0.0
  0
LINE
  5
7DB
330
421
100
AcDbEntity
  8
0
  6
Continuous
 62
     1
100
AcDbLine
 10
90.727118664
 20
221.899999972
 30
0.0
 11
90.72711866300002
 21
216.899999972
 31
0.0
  0
LINE
  5
7DC
330
421
100
AcDbEntity
  8
0
  6
Continuous
 62
     3
100
AcDbLine
 10
111.327118656
 20
225.499999969
 30
0.0
 11
121.327118656
 21
225.4999999679998
 31
0.0
  0
LINE
  5
7DD
330
421
100
AcDbEntity
  8
0
  6
Continuous
 62
     3
100
AcDbLine
 10
111.327118656
 20
225.899999969
 30
0.0
 11
121.327118656
 21
225.899999969
 31
0.0
  0
LINE
  5
7DE
330
421
100
AcDbEntity
  8
0
  6
Continuous
 62
     3
100
AcDbLine
 10
121.327118656
 20
226.2999999679999
 30
0.0
 11
111.327118656
 21
226.299999969
 31
0.0
  0
LINE
  5
7DF
330
421
100
AcDbEntity
  8
0
  6
Continuous
 62
     3
100
AcDbLine
 10
134.327118656
 20
226.299999967
 30
0.0
 11
125.327118656
 21
226.2999999679999
 31
0.0
  0
LINE
  5
7E0
330
421
100
AcDbEntity
  8
0
  6
Continuous
 62
     3
100
AcDbLine
 10
125.327118656
 20
225.4999999679998
 30
0.0
 11
134.327118656
 21
225.499999967
 31
0.0
  0
LINE
  5
7E1
330
421
100
AcDbEntity
  8
0
  6
Continuous
 62
     3
100
AcDbLine
 10
125.327118656
 20
225.8999999679998
 30
0.0
 11
134.327118656
 21
225.8999999679998
 31
0.0
  0
LINE
  5
7E3
330
421
100
AcDbEntity
  8
0
  6
Continuous
 62
     3
100
AcDbLine
 10
270.6
 20
185.47
 30
0.0
 11
271.11763809
 21
187.401851653
 31
0.0
  0
LINE
  5
7E4
330
421
100
AcDbEntity
  8
0
  6
Continuous
 62
     3
100
AcDbLine
 10
270.6
 20
185.47
 30
0.0
 11
270.0823619099999
 21
187.401851653
 31
0.0
  0
LINE
  5
7E5
330
421
100
AcDbEntity
  8
0
  6
Continuous
 62
     3
100
AcDbLine
 10
270.6
 20
185.47
 30
0.0
 11
270.6
 21
220.4699999999998
 31
0.0
  0
LINE
  5
7E6
330
421
100
AcDbEntity
  8
0
  6
Continuous
 62
     3
100
AcDbLine
 10
270.6
 20
220.4699999999998
 30
0.0
 11
270.0823619099999
 21
218.538148347
 31
0.0
  0
LINE
  5
7E7
330
421
100
AcDbEntity
  8
0
  6
Continuous
 62
     3
100
AcDbLine
 10
270.6
 20
220.4699999999998
 30
0.0
 11
271.11763809
 21
218.538148347
 31
0.0
  0
TEXT
  5
7E8
330
421
100
AcDbEntity
  8
0
  6
Continuous
 62
     3
100
AcDbText
 10
269.6
 20
198.8199999999999
 30
0.3
 40
2.5
  1
ＭＩＮ　３５
 50
90.0
 41
0.8
  7
KANJI0
100
AcDbText
  0
LINE
  5
7E9
330
421
100
AcDbEntity
  8
0
  6
Continuous
 62
     3
100
AcDbLine
 10
282.2
 20
231.47
 30
0.3
 11
276.6
 21
231.47
 31
0.3
  0
LINE
  5
7EA
330
421
100
AcDbEntity
  8
0
  6
Continuous
 62
     3
100
AcDbLine
 10
277.6
 20
231.47
 30
0.0
 11
277.0823619099999
 21
229.5381483469999
 31
0.0
  0
LINE
  5
7EB
330
421
100
AcDbEntity
  8
0
  6
Continuous
 62
     3
100
AcDbLine
 10
277.6
 20
231.47
 30
0.0
 11
278.11763809
 21
229.5381483469999
 31
0.0
  0
LINE
  5
7EC
330
421
100
AcDbEntity
  8
0
  6
Continuous
 62
     3
100
AcDbLine
 10
277.6
 20
231.47
 30
0.0
 11
277.6
 21
209.47
 31
0.0
  0
LINE
  5
7ED
330
421
100
AcDbEntity
  8
0
  6
Continuous
 62
     3
100
AcDbLine
 10
277.6
 20
209.47
 30
0.0
 11
278.11763809
 21
211.4018516529998
 31
0.0
  0
LINE
  5
7EE
330
421
100
AcDbEntity
  8
0
  6
Continuous
 62
     3
100
AcDbLine
 10
277.6
 20
209.47
 30
0.0
 11
277.0823619099999
 21
211.4018516529998
 31
0.0
  0
LINE
  5
7EF
330
421
100
AcDbEntity
  8
0
  6
Continuous
 62
     3
100
AcDbLine
 10
282.2
 20
209.47
 30
0.0
 11
276.6
 21
209.47
 31
0.0
  0
TEXT
  5
7F0
330
421
100
AcDbEntity
  8
0
  6
Continuous
 62
     3
100
AcDbText
 10
276.6
 20
215.65
 30
0.3
 40
2.5
  1
２２
 50
90.0
 41
0.8
  7
KANJI0
100
AcDbText
  0
TEXT
  5
7F1
330
421
100
AcDbEntity
  8
0
  6
Continuous
 62
     3
100
AcDbText
 10
276.6
 20
220.4499999999999
 30
0.18
 40
1.5
  1
－０
 50
90.0
 41
0.8
  7
KANJI2
100
AcDbText
  0
TEXT
  5
7F2
330
421
100
AcDbEntity
  8
0
  6
Continuous
 62
     3
100
AcDbText
 10
275.1
 20
220.4499999999999
 30
0.18
 40
1.5
  1
＋０.３
 50
90.0
 41
0.8
  7
KANJI2
100
AcDbText
  0
LINE
  5
7F3
330
421
100
AcDbEntity
  8
0
  6
Continuous
 62
     3
100
AcDbLine
 10
283.23
 20
232.4899999999999
 30
0.18
 11
283.23
 21
237.57
 31
0.18
  0
LINE
  5
7F4
330
421
100
AcDbEntity
  8
0
  6
Continuous
 62
     3
100
AcDbLine
 10
283.23
 20
236.5699999999999
 30
0.0
 11
285.1618516529999
 21
236.0523619099998
 31
0.0
  0
LINE
  5
7F5
330
421
100
AcDbEntity
  8
0
  6
Continuous
 62
     3
100
AcDbLine
 10
283.23
 20
236.5699999999999
 30
0.0
 11
285.1618516529999
 21
237.0876380899999
 31
0.0
  0
LINE
  5
7F6
330
421
100
AcDbEntity
  8
0
  6
Continuous
 62
     3
100
AcDbLine
 10
283.23
 20
236.5699999999999
 30
0.0
 11
328.22
 21
236.5699999999999
 31
0.0
  0
LINE
  5
7F7
330
421
100
AcDbEntity
  8
0
  6
Continuous
 62
     3
100
AcDbLine
 10
328.22
 20
236.5699999999999
 30
0.0
 11
326.288148347
 21
237.0876380899999
 31
0.0
  0
LINE
  5
7F8
330
421
100
AcDbEntity
  8
0
  6
Continuous
 62
     3
100
AcDbLine
 10
328.22
 20
236.5699999999999
 30
0.0
 11
326.288148347
 21
236.0523619099998
 31
0.0
  0
LINE
  5
7F9
330
421
100
AcDbEntity
  8
0
  6
Continuous
 62
     3
100
AcDbLine
 10
328.22
 20
232.4899999999999
 30
0.0
 11
328.22
 21
237.57
 31
0.0
  0
TEXT
  5
7FA
330
421
100
AcDbEntity
  8
0
  6
Continuous
 62
     3
100
AcDbText
 10
300.9049999999998
 20
237.57
 30
0.3
 40
2.5
  1
４５
 41
0.8
  7
KANJI0
100
AcDbText
  0
TEXT
  5
7FB
330
421
100
AcDbEntity
  8
0
  6
Continuous
 62
     3
100
AcDbText
 10
305.7049999999998
 20
237.57
 30
0.18
 40
1.5
  1
－０
 41
0.8
  7
KANJI2
100
AcDbText
  0
TEXT
  5
7FC
330
421
100
AcDbEntity
  8
0
  6
Continuous
 62
     3
100
AcDbText
 10
305.7049999999998
 20
239.0699999999999
 30
0.18
 40
1.5
  1
＋０.６
 41
0.8
  7
KANJI2
100
AcDbText
  0
LINE
  5
7FD
330
421
100
AcDbEntity
  8
0
  6
Continuous
 62
     3
100
AcDbLine
 10
370.73
 20
167.61
 30
0.18
 11
368.798148347
 21
168.1276380899998
 31
0.18
  0
LINE
  5
7FE
330
421
100
AcDbEntity
  8
0
  6
Continuous
 62
     3
100
AcDbLine
 10
370.73
 20
167.61
 30
0.0
 11
368.798148347
 21
167.0923619099999
 31
0.0
  0
LINE
  5
7FF
330
421
100
AcDbEntity
  8
0
  6
Continuous
 62
     3
100
AcDbLine
 10
370.73
 20
167.61
 30
0.0
 11
305.73
 21
167.61
 31
0.0
  0
LINE
  5
800
330
421
100
AcDbEntity
  8
0
  6
Continuous
 62
     3
100
AcDbLine
 10
305.73
 20
167.61
 30
0.0
 11
307.6618516529998
 21
167.0923619099999
 31
0.0
  0
LINE
  5
801
330
421
100
AcDbEntity
  8
0
  6
Continuous
 62
     3
100
AcDbLine
 10
305.73
 20
167.61
 30
0.0
 11
307.6618516529998
 21
168.1276380899998
 31
0.0
  0
TEXT
  5
802
330
421
100
AcDbEntity
  8
0
  6
Continuous
 62
     3
100
AcDbText
 10
333.5799999999998
 20
168.61
 30
0.3
 40
2.5
  1
ＭＩＮ　６５
 41
0.8
  7
KANJI0
100
AcDbText
  0
LINE
  5
803
330
421
100
AcDbEntity
  8
0
  6
LTYPE1
 62
     3
100
AcDbLine
 10
278.73
 20
220.4699999999998
 30
0.3
 11
396.73
 21
220.4699999999998
 31
0.3
  0
LINE
  5
804
330
421
100
AcDbEntity
  8
0
  6
LTYPE1
 62
     3
100
AcDbLine
 10
269.23
 20
220.4699999999998
 30
0.0
 11
272.73
 21
220.4699999999998
 31
0.0
  0
TEXT
  5
806
330
421
100
AcDbEntity
  8
2
  6
Continuous
 62
     3
100
AcDbText
 10
321.0020999999998
 20
247.8893999999999
 30
0.0
 40
4.511999999999996
  1
ＰＡＮＥＬ　ＣＵＴ
 41
0.875
  7
KANJI3
100
AcDbText
  0
ENDSEC
  0
SECTION
  2
OBJECTS
  0
DICTIONARY
  5
40F
330
0
100
AcDbDictionary
281
     1
  3
ACAD_COLOR
350
84F
  3
ACAD_GROUP
350
410
  3
ACAD_LAYOUT
350
41C
  3
ACAD_MATERIAL
350
81D
  3
ACAD_MLEADERSTYLE
350
864
  3
ACAD_MLINESTYLE
350
419
  3
ACAD_PLOTSETTINGS
350
41B
  3
ACAD_PLOTSTYLENAME
350
411
  3
ACAD_SCALELIST
350
852
  3
ACAD_TABLESTYLE
350
850
  3
ACAD_VISUALSTYLE
350
836
  3
ACDB_RECOMPOSE_DATA
350
971
  3
AcDbVariableDictionary
350
967
  0
DICTIONARY
  5
867
330
413
100
AcDbDictionary
280
     1
281
     1
  3
ADSK_XREC_LAYER_RECONCILED
360
868
  0
DICTIONARY
  5
869
330
427
100
AcDbDictionary
280
     1
281
     1
  3
ADSK_XREC_LAYER_RECONCILED
360
86A
  0
DICTIONARY
  5
86B
330
428
100
AcDbDictionary
280
     1
281
     1
  3
ADSK_XREC_LAYER_RECONCILED
360
86C
  0
DICTIONARY
  5
86D
330
429
100
AcDbDictionary
280
     1
281
     1
  3
ADSK_XREC_LAYER_RECONCILED
360
86E
  0
DICTIONARY
  5
86F
330
42A
100
AcDbDictionary
280
     1
281
     1
  3
ADSK_XREC_LAYER_RECONCILED
360
870
  0
DICTIONARY
  5
871
330
42B
100
AcDbDictionary
280
     1
281
     1
  3
ADSK_XREC_LAYER_RECONCILED
360
872
  0
DICTIONARY
  5
873
330
42C
100
AcDbDictionary
280
     1
281
     1
  3
ADSK_XREC_LAYER_RECONCILED
360
874
  0
DICTIONARY
  5
875
330
42D
100
AcDbDictionary
280
     1
281
     1
  3
ADSK_XREC_LAYER_RECONCILED
360
876
  0
DICTIONARY
  5
877
330
42E
100
AcDbDictionary
280
     1
281
     1
  3
ADSK_XREC_LAYER_RECONCILED
360
878
  0
DICTIONARY
  5
879
330
42F
100
AcDbDictionary
280
     1
281
     1
  3
ADSK_XREC_LAYER_RECONCILED
360
87A
  0
DICTIONARY
  5
87B
330
430
100
AcDbDictionary
280
     1
281
     1
  3
ADSK_XREC_LAYER_RECONCILED
360
87C
  0
DICTIONARY
  5
87D
330
431
100
AcDbDictionary
280
     1
281
     1
  3
ADSK_XREC_LAYER_RECONCILED
360
87E
  0
DICTIONARY
  5
87F
330
432
100
AcDbDictionary
280
     1
281
     1
  3
ADSK_XREC_LAYER_RECONCILED
360
880
  0
DICTIONARY
  5
881
330
433
100
AcDbDictionary
280
     1
281
     1
  3
ADSK_XREC_LAYER_RECONCILED
360
882
  0
DICTIONARY
  5
883
330
434
100
AcDbDictionary
280
     1
281
     1
  3
ADSK_XREC_LAYER_RECONCILED
360
884
  0
DICTIONARY
  5
885
330
435
100
AcDbDictionary
280
     1
281
     1
  3
ADSK_XREC_LAYER_RECONCILED
360
886
  0
DICTIONARY
  5
887
330
436
100
AcDbDictionary
280
     1
281
     1
  3
ADSK_XREC_LAYER_RECONCILED
360
888
  0
DICTIONARY
  5
889
330
437
100
AcDbDictionary
280
     1
281
     1
  3
ADSK_XREC_LAYER_RECONCILED
360
88A
  0
DICTIONARY
  5
88B
330
438
100
AcDbDictionary
280
     1
281
     1
  3
ADSK_XREC_LAYER_RECONCILED
360
88C
  0
DICTIONARY
  5
88D
330
439
100
AcDbDictionary
280
     1
281
     1
  3
ADSK_XREC_LAYER_RECONCILED
360
88E
  0
DICTIONARY
  5
88F
330
43A
100
AcDbDictionary
280
     1
281
     1
  3
ADSK_XREC_LAYER_RECONCILED
360
890
  0
DICTIONARY
  5
891
330
43B
100
AcDbDictionary
280
     1
281
     1
  3
ADSK_XREC_LAYER_RECONCILED
360
892
  0
DICTIONARY
  5
893
330
43C
100
AcDbDictionary
280
     1
281
     1
  3
ADSK_XREC_LAYER_RECONCILED
360
894
  0
DICTIONARY
  5
895
330
43D
100
AcDbDictionary
280
     1
281
     1
  3
ADSK_XREC_LAYER_RECONCILED
360
896
  0
DICTIONARY
  5
897
330
43E
100
AcDbDictionary
280
     1
281
     1
  3
ADSK_XREC_LAYER_RECONCILED
360
898
  0
DICTIONARY
  5
899
330
43F
100
AcDbDictionary
280
     1
281
     1
  3
ADSK_XREC_LAYER_RECONCILED
360
89A
  0
DICTIONARY
  5
89B
330
440
100
AcDbDictionary
280
     1
281
     1
  3
ADSK_XREC_LAYER_RECONCILED
360
89C
  0
DICTIONARY
  5
89D
330
441
100
AcDbDictionary
280
     1
281
     1
  3
ADSK_XREC_LAYER_RECONCILED
360
89E
  0
DICTIONARY
  5
89F
330
442
100
AcDbDictionary
280
     1
281
     1
  3
ADSK_XREC_LAYER_RECONCILED
360
8A0
  0
DICTIONARY
  5
8A1
330
443
100
AcDbDictionary
280
     1
281
     1
  3
ADSK_XREC_LAYER_RECONCILED
360
8A2
  0
DICTIONARY
  5
8A3
330
444
100
AcDbDictionary
280
     1
281
     1
  3
ADSK_XREC_LAYER_RECONCILED
360
8A4
  0
DICTIONARY
  5
8A5
330
445
100
AcDbDictionary
280
     1
281
     1
  3
ADSK_XREC_LAYER_RECONCILED
360
8A6
  0
DICTIONARY
  5
8A7
330
446
100
AcDbDictionary
280
     1
281
     1
  3
ADSK_XREC_LAYER_RECONCILED
360
8A8
  0
DICTIONARY
  5
8A9
330
447
100
AcDbDictionary
280
     1
281
     1
  3
ADSK_XREC_LAYER_RECONCILED
360
8AA
  0
DICTIONARY
  5
8AB
330
448
100
AcDbDictionary
280
     1
281
     1
  3
ADSK_XREC_LAYER_RECONCILED
360
8AC
  0
DICTIONARY
  5
8AD
330
449
100
AcDbDictionary
280
     1
281
     1
  3
ADSK_XREC_LAYER_RECONCILED
360
8AE
  0
DICTIONARY
  5
8AF
330
44A
100
AcDbDictionary
280
     1
281
     1
  3
ADSK_XREC_LAYER_RECONCILED
360
8B0
  0
DICTIONARY
  5
8B1
330
44B
100
AcDbDictionary
280
     1
281
     1
  3
ADSK_XREC_LAYER_RECONCILED
360
8B2
  0
DICTIONARY
  5
8B3
330
44C
100
AcDbDictionary
280
     1
281
     1
  3
ADSK_XREC_LAYER_RECONCILED
360
8B4
  0
DICTIONARY
  5
8B5
330
44D
100
AcDbDictionary
280
     1
281
     1
  3
ADSK_XREC_LAYER_RECONCILED
360
8B6
  0
DICTIONARY
  5
8B7
330
44E
100
AcDbDictionary
280
     1
281
     1
  3
ADSK_XREC_LAYER_RECONCILED
360
8B8
  0
DICTIONARY
  5
8B9
330
44F
100
AcDbDictionary
280
     1
281
     1
  3
ADSK_XREC_LAYER_RECONCILED
360
8BA
  0
DICTIONARY
  5
8BB
330
450
100
AcDbDictionary
280
     1
281
     1
  3
ADSK_XREC_LAYER_RECONCILED
360
8BC
  0
DICTIONARY
  5
8BD
330
451
100
AcDbDictionary
280
     1
281
     1
  3
ADSK_XREC_LAYER_RECONCILED
360
8BE
  0
DICTIONARY
  5
8BF
330
452
100
AcDbDictionary
280
     1
281
     1
  3
ADSK_XREC_LAYER_RECONCILED
360
8C0
  0
DICTIONARY
  5
8C1
330
453
100
AcDbDictionary
280
     1
281
     1
  3
ADSK_XREC_LAYER_RECONCILED
360
8C2
  0
DICTIONARY
  5
8C3
330
454
100
AcDbDictionary
280
     1
281
     1
  3
ADSK_XREC_LAYER_RECONCILED
360
8C4
  0
DICTIONARY
  5
8C5
330
455
100
AcDbDictionary
280
     1
281
     1
  3
ADSK_XREC_LAYER_RECONCILED
360
8C6
  0
DICTIONARY
  5
8C7
330
456
100
AcDbDictionary
280
     1
281
     1
  3
ADSK_XREC_LAYER_RECONCILED
360
8C8
  0
DICTIONARY
  5
8C9
330
457
100
AcDbDictionary
280
     1
281
     1
  3
ADSK_XREC_LAYER_RECONCILED
360
8CA
  0
DICTIONARY
  5
8CB
330
458
100
AcDbDictionary
280
     1
281
     1
  3
ADSK_XREC_LAYER_RECONCILED
360
8CC
  0
DICTIONARY
  5
8CD
330
459
100
AcDbDictionary
280
     1
281
     1
  3
ADSK_XREC_LAYER_RECONCILED
360
8CE
  0
DICTIONARY
  5
8CF
330
45A
100
AcDbDictionary
280
     1
281
     1
  3
ADSK_XREC_LAYER_RECONCILED
360
8D0
  0
DICTIONARY
  5
8D1
330
45B
100
AcDbDictionary
280
     1
281
     1
  3
ADSK_XREC_LAYER_RECONCILED
360
8D2
  0
DICTIONARY
  5
8D3
330
45C
100
AcDbDictionary
280
     1
281
     1
  3
ADSK_XREC_LAYER_RECONCILED
360
8D4
  0
DICTIONARY
  5
8D5
330
45D
100
AcDbDictionary
280
     1
281
     1
  3
ADSK_XREC_LAYER_RECONCILED
360
8D6
  0
DICTIONARY
  5
8D7
330
45E
100
AcDbDictionary
280
     1
281
     1
  3
ADSK_XREC_LAYER_RECONCILED
360
8D8
  0
DICTIONARY
  5
8D9
330
45F
100
AcDbDictionary
280
     1
281
     1
  3
ADSK_XREC_LAYER_RECONCILED
360
8DA
  0
DICTIONARY
  5
8DB
330
460
100
AcDbDictionary
280
     1
281
     1
  3
ADSK_XREC_LAYER_RECONCILED
360
8DC
  0
DICTIONARY
  5
8DD
330
461
100
AcDbDictionary
280
     1
281
     1
  3
ADSK_XREC_LAYER_RECONCILED
360
8DE
  0
DICTIONARY
  5
8DF
330
462
100
AcDbDictionary
280
     1
281
     1
  3
ADSK_XREC_LAYER_RECONCILED
360
8E0
  0
DICTIONARY
  5
8E1
330
463
100
AcDbDictionary
280
     1
281
     1
  3
ADSK_XREC_LAYER_RECONCILED
360
8E2
  0
DICTIONARY
  5
8E3
330
464
100
AcDbDictionary
280
     1
281
     1
  3
ADSK_XREC_LAYER_RECONCILED
360
8E4
  0
DICTIONARY
  5
8E5
330
465
100
AcDbDictionary
280
     1
281
     1
  3
ADSK_XREC_LAYER_RECONCILED
360
8E6
  0
DICTIONARY
  5
8E7
330
466
100
AcDbDictionary
280
     1
281
     1
  3
ADSK_XREC_LAYER_RECONCILED
360
8E8
  0
DICTIONARY
  5
8E9
330
467
100
AcDbDictionary
280
     1
281
     1
  3
ADSK_XREC_LAYER_RECONCILED
360
8EA
  0
DICTIONARY
  5
8EB
330
468
100
AcDbDictionary
280
     1
281
     1
  3
ADSK_XREC_LAYER_RECONCILED
360
8EC
  0
DICTIONARY
  5
8ED
330
469
100
AcDbDictionary
280
     1
281
     1
  3
ADSK_XREC_LAYER_RECONCILED
360
8EE
  0
DICTIONARY
  5
8EF
330
46A
100
AcDbDictionary
280
     1
281
     1
  3
ADSK_XREC_LAYER_RECONCILED
360
8F0
  0
DICTIONARY
  5
8F1
330
46B
100
AcDbDictionary
280
     1
281
     1
  3
ADSK_XREC_LAYER_RECONCILED
360
8F2
  0
DICTIONARY
  5
8F3
330
46C
100
AcDbDictionary
280
     1
281
     1
  3
ADSK_XREC_LAYER_RECONCILED
360
8F4
  0
DICTIONARY
  5
8F5
330
46D
100
AcDbDictionary
280
     1
281
     1
  3
ADSK_XREC_LAYER_RECONCILED
360
8F6
  0
DICTIONARY
  5
8F7
330
46E
100
AcDbDictionary
280
     1
281
     1
  3
ADSK_XREC_LAYER_RECONCILED
360
8F8
  0
DICTIONARY
  5
8F9
330
46F
100
AcDbDictionary
280
     1
281
     1
  3
ADSK_XREC_LAYER_RECONCILED
360
8FA
  0
DICTIONARY
  5
8FB
330
470
100
AcDbDictionary
280
     1
281
     1
  3
ADSK_XREC_LAYER_RECONCILED
360
8FC
  0
DICTIONARY
  5
8FD
330
471
100
AcDbDictionary
280
     1
281
     1
  3
ADSK_XREC_LAYER_RECONCILED
360
8FE
  0
DICTIONARY
  5
8FF
330
472
100
AcDbDictionary
280
     1
281
     1
  3
ADSK_XREC_LAYER_RECONCILED
360
900
  0
DICTIONARY
  5
901
330
473
100
AcDbDictionary
280
     1
281
     1
  3
ADSK_XREC_LAYER_RECONCILED
360
902
  0
DICTIONARY
  5
903
330
474
100
AcDbDictionary
280
     1
281
     1
  3
ADSK_XREC_LAYER_RECONCILED
360
904
  0
DICTIONARY
  5
905
330
475
100
AcDbDictionary
280
     1
281
     1
  3
ADSK_XREC_LAYER_RECONCILED
360
906
  0
DICTIONARY
  5
907
330
476
100
AcDbDictionary
280
     1
281
     1
  3
ADSK_XREC_LAYER_RECONCILED
360
908
  0
DICTIONARY
  5
909
330
477
100
AcDbDictionary
280
     1
281
     1
  3
ADSK_XREC_LAYER_RECONCILED
360
90A
  0
DICTIONARY
  5
90B
330
478
100
AcDbDictionary
280
     1
281
     1
  3
ADSK_XREC_LAYER_RECONCILED
360
90C
  0
DICTIONARY
  5
90D
330
479
100
AcDbDictionary
280
     1
281
     1
  3
ADSK_XREC_LAYER_RECONCILED
360
90E
  0
DICTIONARY
  5
90F
330
47A
100
AcDbDictionary
280
     1
281
     1
  3
ADSK_XREC_LAYER_RECONCILED
360
910
  0
DICTIONARY
  5
911
330
47B
100
AcDbDictionary
280
     1
281
     1
  3
ADSK_XREC_LAYER_RECONCILED
360
912
  0
DICTIONARY
  5
913
330
47C
100
AcDbDictionary
280
     1
281
     1
  3
ADSK_XREC_LAYER_RECONCILED
360
914
  0
DICTIONARY
  5
915
330
47D
100
AcDbDictionary
280
     1
281
     1
  3
ADSK_XREC_LAYER_RECONCILED
360
916
  0
DICTIONARY
  5
917
330
47E
100
AcDbDictionary
280
     1
281
     1
  3
ADSK_XREC_LAYER_RECONCILED
360
918
  0
DICTIONARY
  5
919
330
47F
100
AcDbDictionary
280
     1
281
     1
  3
ADSK_XREC_LAYER_RECONCILED
360
91A
  0
DICTIONARY
  5
91B
330
480
100
AcDbDictionary
280
     1
281
     1
  3
ADSK_XREC_LAYER_RECONCILED
360
91C
  0
DICTIONARY
  5
91D
330
481
100
AcDbDictionary
280
     1
281
     1
  3
ADSK_XREC_LAYER_RECONCILED
360
91E
  0
DICTIONARY
  5
91F
330
482
100
AcDbDictionary
280
     1
281
     1
  3
ADSK_XREC_LAYER_RECONCILED
360
920
  0
DICTIONARY
  5
921
330
483
100
AcDbDictionary
280
     1
281
     1
  3
ADSK_XREC_LAYER_RECONCILED
360
922
  0
DICTIONARY
  5
923
330
484
100
AcDbDictionary
280
     1
281
     1
  3
ADSK_XREC_LAYER_RECONCILED
360
924
  0
DICTIONARY
  5
925
330
485
100
AcDbDictionary
280
     1
281
     1
  3
ADSK_XREC_LAYER_RECONCILED
360
926
  0
DICTIONARY
  5
927
330
486
100
AcDbDictionary
280
     1
281
     1
  3
ADSK_XREC_LAYER_RECONCILED
360
928
  0
DICTIONARY
  5
929
330
487
100
AcDbDictionary
280
     1
281
     1
  3
ADSK_XREC_LAYER_RECONCILED
360
92A
  0
DICTIONARY
  5
92B
330
488
100
AcDbDictionary
280
     1
281
     1
  3
ADSK_XREC_LAYER_RECONCILED
360
92C
  0
DICTIONARY
  5
92D
330
489
100
AcDbDictionary
280
     1
281
     1
  3
ADSK_XREC_LAYER_RECONCILED
360
92E
  0
DICTIONARY
  5
92F
330
48A
100
AcDbDictionary
280
     1
281
     1
  3
ADSK_XREC_LAYER_RECONCILED
360
930
  0
DICTIONARY
  5
931
330
48B
100
AcDbDictionary
280
     1
281
     1
  3
ADSK_XREC_LAYER_RECONCILED
360
932
  0
DICTIONARY
  5
933
330
48C
100
AcDbDictionary
280
     1
281
     1
  3
ADSK_XREC_LAYER_RECONCILED
360
934
  0
DICTIONARY
  5
935
330
48D
100
AcDbDictionary
280
     1
281
     1
  3
ADSK_XREC_LAYER_RECONCILED
360
936
  0
DICTIONARY
  5
937
330
48E
100
AcDbDictionary
280
     1
281
     1
  3
ADSK_XREC_LAYER_RECONCILED
360
938
  0
DICTIONARY
  5
939
330
48F
100
AcDbDictionary
280
     1
281
     1
  3
ADSK_XREC_LAYER_RECONCILED
360
93A
  0
DICTIONARY
  5
93B
330
490
100
AcDbDictionary
280
     1
281
     1
  3
ADSK_XREC_LAYER_RECONCILED
360
93C
  0
DICTIONARY
  5
93D
330
491
100
AcDbDictionary
280
     1
281
     1
  3
ADSK_XREC_LAYER_RECONCILED
360
93E
  0
DICTIONARY
  5
93F
330
492
100
AcDbDictionary
280
     1
281
     1
  3
ADSK_XREC_LAYER_RECONCILED
360
940
  0
DICTIONARY
  5
941
330
493
100
AcDbDictionary
280
     1
281
     1
  3
ADSK_XREC_LAYER_RECONCILED
360
942
  0
DICTIONARY
  5
943
330
494
100
AcDbDictionary
280
     1
281
     1
  3
ADSK_XREC_LAYER_RECONCILED
360
944
  0
DICTIONARY
  5
945
330
495
100
AcDbDictionary
280
     1
281
     1
  3
ADSK_XREC_LAYER_RECONCILED
360
946
  0
DICTIONARY
  5
947
330
496
100
AcDbDictionary
280
     1
281
     1
  3
ADSK_XREC_LAYER_RECONCILED
360
948
  0
DICTIONARY
  5
949
330
497
100
AcDbDictionary
280
     1
281
     1
  3
ADSK_XREC_LAYER_RECONCILED
360
94A
  0
DICTIONARY
  5
94B
330
498
100
AcDbDictionary
280
     1
281
     1
  3
ADSK_XREC_LAYER_RECONCILED
360
94C
  0
DICTIONARY
  5
94D
330
499
100
AcDbDictionary
280
     1
281
     1
  3
ADSK_XREC_LAYER_RECONCILED
360
94E
  0
DICTIONARY
  5
94F
330
49A
100
AcDbDictionary
280
     1
281
     1
  3
ADSK_XREC_LAYER_RECONCILED
360
950
  0
DICTIONARY
  5
951
330
49B
100
AcDbDictionary
280
     1
281
     1
  3
ADSK_XREC_LAYER_RECONCILED
360
952
  0
DICTIONARY
  5
953
330
49C
100
AcDbDictionary
280
     1
281
     1
  3
ADSK_XREC_LAYER_RECONCILED
360
954
  0
DICTIONARY
  5
955
330
49D
100
AcDbDictionary
280
     1
281
     1
  3
ADSK_XREC_LAYER_RECONCILED
360
956
  0
DICTIONARY
  5
957
330
49E
100
AcDbDictionary
280
     1
281
     1
  3
ADSK_XREC_LAYER_RECONCILED
360
958
  0
DICTIONARY
  5
959
330
49F
100
AcDbDictionary
280
     1
281
     1
  3
ADSK_XREC_LAYER_RECONCILED
360
95A
  0
DICTIONARY
  5
95B
330
4A0
100
AcDbDictionary
280
     1
281
     1
  3
ADSK_XREC_LAYER_RECONCILED
360
95C
  0
DICTIONARY
  5
95D
330
4A1
100
AcDbDictionary
280
     1
281
     1
  3
ADSK_XREC_LAYER_RECONCILED
360
95E
  0
DICTIONARY
  5
95F
330
4A2
100
AcDbDictionary
280
     1
281
     1
  3
ADSK_XREC_LAYER_RECONCILED
360
960
  0
DICTIONARY
  5
961
330
4A3
100
AcDbDictionary
280
     1
281
     1
  3
ADSK_XREC_LAYER_RECONCILED
360
962
  0
DICTIONARY
  5
963
330
4A4
100
AcDbDictionary
280
     1
281
     1
  3
ADSK_XREC_LAYER_RECONCILED
360
964
  0
DICTIONARY
  5
965
330
4A5
100
AcDbDictionary
280
     1
281
     1
  3
ADSK_XREC_LAYER_RECONCILED
360
966
  0
DICTIONARY
  5
84F
102
{ACAD_REACTORS
330
40F
102
}
330
40F
100
AcDbDictionary
281
     1
  0
DICTIONARY
  5
410
102
{ACAD_REACTORS
330
40F
102
}
330
40F
100
AcDbDictionary
281
     1
  0
DICTIONARY
  5
41C
102
{ACAD_REACTORS
330
40F
102
}
330
40F
100
AcDbDictionary
281
     1
  3
Model
350
424
  3
ﾚｲｱｳﾄ1
350
420
  0
DICTIONARY
  5
81D
102
{ACAD_REACTORS
330
40F
102
}
330
40F
100
AcDbDictionary
281
     1
  3
ByBlock
350
826
  3
ByLayer
350
81E
  3
Global
350
82E
  0
DICTIONARY
  5
864
102
{ACAD_REACTORS
330
40F
102
}
330
40F
100
AcDbDictionary
281
     1
  3
Standard
350
865
  0
DICTIONARY
  5
419
102
{ACAD_REACTORS
330
40F
102
}
330
40F
100
AcDbDictionary
281
     1
  3
Standard
350
41A
  0
DICTIONARY
  5
41B
102
{ACAD_REACTORS
330
40F
102
}
330
40F
100
AcDbDictionary
281
     1
  0
ACDBDICTIONARYWDFLT
  5
411
102
{ACAD_REACTORS
330
40F
102
}
330
40F
100
AcDbDictionary
281
     1
  3
Normal
350
412
100
AcDbDictionaryWithDefault
340
412
  0
DICTIONARY
  5
852
102
{ACAD_REACTORS
330
40F
102
}
330
40F
100
AcDbDictionary
281
     1
  3
A0
350
853
  3
A1
350
854
  3
A2
350
855
  3
A3
350
856
  3
A4
350
857
  3
A5
350
858
  3
A6
350
859
  3
A7
350
85A
  3
A8
350
85B
  3
A9
350
85C
  3
B0
350
85D
  3
B1
350
85E
  3
B2
350
85F
  3
B3
350
860
  3
B4
350
861
  3
B5
350
862
  3
B6
350
863
  0
DICTIONARY
  5
850
102
{ACAD_REACTORS
330
40F
102
}
330
40F
100
AcDbDictionary
281
     1
  3
Standard
350
851
  0
DICTIONARY
  5
836
102
{ACAD_REACTORS
330
40F
102
}
330
40F
100
AcDbDictionary
281
     1
  3
2dWireframe
350
83C
  3
Basic
350
83B
  3
Brighten
350
842
  3
ColorChange
350
846
  3
Conceptual
350
83F
  3
Dim
350
841
  3
EdgeColorOff
350
84E
  3
Facepattern
350
845
  3
Flat
350
837
  3
FlatWithEdges
350
838
  3
Gouraud
350
839
  3
GouraudWithEdges
350
83A
  3
Hidden
350
83E
  3
JitterOff
350
84C
  3
Linepattern
350
844
  3
OverhangOff
350
84D
  3
Realistic
350
840
  3
Shaded
350
84B
  3
Shaded with edges
350
84A
  3
Shades of Gray
350
847
  3
Sketchy
350
848
  3
Thicken
350
843
  3
Wireframe
350
83D
  3
X-Ray
350
849
  0
XRECORD
  5
971
102
{ACAD_REACTORS
330
40F
102
}
330
40F
100
AcDbXrecord
280
     1
 90
        1
330
851
  0
DICTIONARY
  5
967
102
{ACAD_REACTORS
330
40F
102
}
330
40F
100
AcDbDictionary
281
     1
  3
CANNOSCALE
350
96B
  3
CMLEADERSTYLE
350
969
  3
CTABLESTYLE
350
968
  3
LAYEREVAL
350
96D
  3
LAYERNOTIFY
350
96E
  3
LIGHTINGUNITS
350
96C
  3
MSLTSCALE
350
96A
  0
XRECORD
  5
868
102
{ACAD_REACTORS
330
867
102
}
330
867
100
AcDbXrecord
280
     1
290
     1
  0
XRECORD
  5
86A
102
{ACAD_REACTORS
330
869
102
}
330
869
100
AcDbXrecord
280
     1
290
     1
  0
XRECORD
  5
86C
102
{ACAD_REACTORS
330
86B
102
}
330
86B
100
AcDbXrecord
280
     1
290
     1
  0
XRECORD
  5
86E
102
{ACAD_REACTORS
330
86D
102
}
330
86D
100
AcDbXrecord
280
     1
290
     1
  0
XRECORD
  5
870
102
{ACAD_REACTORS
330
86F
102
}
330
86F
100
AcDbXrecord
280
     1
290
     1
  0
XRECORD
  5
872
102
{ACAD_REACTORS
330
871
102
}
330
871
100
AcDbXrecord
280
     1
290
     1
  0
XRECORD
  5
874
102
{ACAD_REACTORS
330
873
102
}
330
873
100
AcDbXrecord
280
     1
290
     1
  0
XRECORD
  5
876
102
{ACAD_REACTORS
330
875
102
}
330
875
100
AcDbXrecord
280
     1
290
     1
  0
XRECORD
  5
878
102
{ACAD_REACTORS
330
877
102
}
330
877
100
AcDbXrecord
280
     1
290
     1
  0
XRECORD
  5
87A
102
{ACAD_REACTORS
330
879
102
}
330
879
100
AcDbXrecord
280
     1
290
     1
  0
XRECORD
  5
87C
102
{ACAD_REACTORS
330
87B
102
}
330
87B
100
AcDbXrecord
280
     1
290
     1
  0
XRECORD
  5
87E
102
{ACAD_REACTORS
330
87D
102
}
330
87D
100
AcDbXrecord
280
     1
290
     1
  0
XRECORD
  5
880
102
{ACAD_REACTORS
330
87F
102
}
330
87F
100
AcDbXrecord
280
     1
290
     1
  0
XRECORD
  5
882
102
{ACAD_REACTORS
330
881
102
}
330
881
100
AcDbXrecord
280
     1
290
     1
  0
XRECORD
  5
884
102
{ACAD_REACTORS
330
883
102
}
330
883
100
AcDbXrecord
280
     1
290
     1
  0
XRECORD
  5
886
102
{ACAD_REACTORS
330
885
102
}
330
885
100
AcDbXrecord
280
     1
290
     1
  0
XRECORD
  5
888
102
{ACAD_REACTORS
330
887
102
}
330
887
100
AcDbXrecord
280
     1
290
     1
  0
XRECORD
  5
88A
102
{ACAD_REACTORS
330
889
102
}
330
889
100
AcDbXrecord
280
     1
290
     1
  0
XRECORD
  5
88C
102
{ACAD_REACTORS
330
88B
102
}
330
88B
100
AcDbXrecord
280
     1
290
     1
  0
XRECORD
  5
88E
102
{ACAD_REACTORS
330
88D
102
}
330
88D
100
AcDbXrecord
280
     1
290
     1
  0
XRECORD
  5
890
102
{ACAD_REACTORS
330
88F
102
}
330
88F
100
AcDbXrecord
280
     1
290
     1
  0
XRECORD
  5
892
102
{ACAD_REACTORS
330
891
102
}
330
891
100
AcDbXrecord
280
     1
290
     1
  0
XRECORD
  5
894
102
{ACAD_REACTORS
330
893
102
}
330
893
100
AcDbXrecord
280
     1
290
     1
  0
XRECORD
  5
896
102
{ACAD_REACTORS
330
895
102
}
330
895
100
AcDbXrecord
280
     1
290
     1
  0
XRECORD
  5
898
102
{ACAD_REACTORS
330
897
102
}
330
897
100
AcDbXrecord
280
     1
290
     1
  0
XRECORD
  5
89A
102
{ACAD_REACTORS
330
899
102
}
330
899
100
AcDbXrecord
280
     1
290
     1
  0
XRECORD
  5
89C
102
{ACAD_REACTORS
330
89B
102
}
330
89B
100
AcDbXrecord
280
     1
290
     1
  0
XRECORD
  5
89E
102
{ACAD_REACTORS
330
89D
102
}
330
89D
100
AcDbXrecord
280
     1
290
     1
  0
XRECORD
  5
8A0
102
{ACAD_REACTORS
330
89F
102
}
330
89F
100
AcDbXrecord
280
     1
290
     1
  0
XRECORD
  5
8A2
102
{ACAD_REACTORS
330
8A1
102
}
330
8A1
100
AcDbXrecord
280
     1
290
     1
  0
XRECORD
  5
8A4
102
{ACAD_REACTORS
330
8A3
102
}
330
8A3
100
AcDbXrecord
280
     1
290
     1
  0
XRECORD
  5
8A6
102
{ACAD_REACTORS
330
8A5
102
}
330
8A5
100
AcDbXrecord
280
     1
290
     1
  0
XRECORD
  5
8A8
102
{ACAD_REACTORS
330
8A7
102
}
330
8A7
100
AcDbXrecord
280
     1
290
     1
  0
XRECORD
  5
8AA
102
{ACAD_REACTORS
330
8A9
102
}
330
8A9
100
AcDbXrecord
280
     1
290
     1
  0
XRECORD
  5
8AC
102
{ACAD_REACTORS
330
8AB
102
}
330
8AB
100
AcDbXrecord
280
     1
290
     1
  0
XRECORD
  5
8AE
102
{ACAD_REACTORS
330
8AD
102
}
330
8AD
100
AcDbXrecord
280
     1
290
     1
  0
XRECORD
  5
8B0
102
{ACAD_REACTORS
330
8AF
102
}
330
8AF
100
AcDbXrecord
280
     1
290
     1
  0
XRECORD
  5
8B2
102
{ACAD_REACTORS
330
8B1
102
}
330
8B1
100
AcDbXrecord
280
     1
290
     1
  0
XRECORD
  5
8B4
102
{ACAD_REACTORS
330
8B3
102
}
330
8B3
100
AcDbXrecord
280
     1
290
     1
  0
XRECORD
  5
8B6
102
{ACAD_REACTORS
330
8B5
102
}
330
8B5
100
AcDbXrecord
280
     1
290
     1
  0
XRECORD
  5
8B8
102
{ACAD_REACTORS
330
8B7
102
}
330
8B7
100
AcDbXrecord
280
     1
290
     1
  0
XRECORD
  5
8BA
102
{ACAD_REACTORS
330
8B9
102
}
330
8B9
100
AcDbXrecord
280
     1
290
     1
  0
XRECORD
  5
8BC
102
{ACAD_REACTORS
330
8BB
102
}
330
8BB
100
AcDbXrecord
280
     1
290
     1
  0
XRECORD
  5
8BE
102
{ACAD_REACTORS
330
8BD
102
}
330
8BD
100
AcDbXrecord
280
     1
290
     1
  0
XRECORD
  5
8C0
102
{ACAD_REACTORS
330
8BF
102
}
330
8BF
100
AcDbXrecord
280
     1
290
     1
  0
XRECORD
  5
8C2
102
{ACAD_REACTORS
330
8C1
102
}
330
8C1
100
AcDbXrecord
280
     1
290
     1
  0
XRECORD
  5
8C4
102
{ACAD_REACTORS
330
8C3
102
}
330
8C3
100
AcDbXrecord
280
     1
290
     1
  0
XRECORD
  5
8C6
102
{ACAD_REACTORS
330
8C5
102
}
330
8C5
100
AcDbXrecord
280
     1
290
     1
  0
XRECORD
  5
8C8
102
{ACAD_REACTORS
330
8C7
102
}
330
8C7
100
AcDbXrecord
280
     1
290
     1
  0
XRECORD
  5
8CA
102
{ACAD_REACTORS
330
8C9
102
}
330
8C9
100
AcDbXrecord
280
     1
290
     1
  0
XRECORD
  5
8CC
102
{ACAD_REACTORS
330
8CB
102
}
330
8CB
100
AcDbXrecord
280
     1
290
     1
  0
XRECORD
  5
8CE
102
{ACAD_REACTORS
330
8CD
102
}
330
8CD
100
AcDbXrecord
280
     1
290
     1
  0
XRECORD
  5
8D0
102
{ACAD_REACTORS
330
8CF
102
}
330
8CF
100
AcDbXrecord
280
     1
290
     1
  0
XRECORD
  5
8D2
102
{ACAD_REACTORS
330
8D1
102
}
330
8D1
100
AcDbXrecord
280
     1
290
     1
  0
XRECORD
  5
8D4
102
{ACAD_REACTORS
330
8D3
102
}
330
8D3
100
AcDbXrecord
280
     1
290
     1
  0
XRECORD
  5
8D6
102
{ACAD_REACTORS
330
8D5
102
}
330
8D5
100
AcDbXrecord
280
     1
290
     1
  0
XRECORD
  5
8D8
102
{ACAD_REACTORS
330
8D7
102
}
330
8D7
100
AcDbXrecord
280
     1
290
     1
  0
XRECORD
  5
8DA
102
{ACAD_REACTORS
330
8D9
102
}
330
8D9
100
AcDbXrecord
280
     1
290
     1
  0
XRECORD
  5
8DC
102
{ACAD_REACTORS
330
8DB
102
}
330
8DB
100
AcDbXrecord
280
     1
290
     1
  0
XRECORD
  5
8DE
102
{ACAD_REACTORS
330
8DD
102
}
330
8DD
100
AcDbXrecord
280
     1
290
     1
  0
XRECORD
  5
8E0
102
{ACAD_REACTORS
330
8DF
102
}
330
8DF
100
AcDbXrecord
280
     1
290
     1
  0
XRECORD
  5
8E2
102
{ACAD_REACTORS
330
8E1
102
}
330
8E1
100
AcDbXrecord
280
     1
290
     1
  0
XRECORD
  5
8E4
102
{ACAD_REACTORS
330
8E3
102
}
330
8E3
100
AcDbXrecord
280
     1
290
     1
  0
XRECORD
  5
8E6
102
{ACAD_REACTORS
330
8E5
102
}
330
8E5
100
AcDbXrecord
280
     1
290
     1
  0
XRECORD
  5
8E8
102
{ACAD_REACTORS
330
8E7
102
}
330
8E7
100
AcDbXrecord
280
     1
290
     1
  0
XRECORD
  5
8EA
102
{ACAD_REACTORS
330
8E9
102
}
330
8E9
100
AcDbXrecord
280
     1
290
     1
  0
XRECORD
  5
8EC
102
{ACAD_REACTORS
330
8EB
102
}
330
8EB
100
AcDbXrecord
280
     1
290
     1
  0
XRECORD
  5
8EE
102
{ACAD_REACTORS
330
8ED
102
}
330
8ED
100
AcDbXrecord
280
     1
290
     1
  0
XRECORD
  5
8F0
102
{ACAD_REACTORS
330
8EF
102
}
330
8EF
100
AcDbXrecord
280
     1
290
     1
  0
XRECORD
  5
8F2
102
{ACAD_REACTORS
330
8F1
102
}
330
8F1
100
AcDbXrecord
280
     1
290
     1
  0
XRECORD
  5
8F4
102
{ACAD_REACTORS
330
8F3
102
}
330
8F3
100
AcDbXrecord
280
     1
290
     1
  0
XRECORD
  5
8F6
102
{ACAD_REACTORS
330
8F5
102
}
330
8F5
100
AcDbXrecord
280
     1
290
     1
  0
XRECORD
  5
8F8
102
{ACAD_REACTORS
330
8F7
102
}
330
8F7
100
AcDbXrecord
280
     1
290
     1
  0
XRECORD
  5
8FA
102
{ACAD_REACTORS
330
8F9
102
}
330
8F9
100
AcDbXrecord
280
     1
290
     1
  0
XRECORD
  5
8FC
102
{ACAD_REACTORS
330
8FB
102
}
330
8FB
100
AcDbXrecord
280
     1
290
     1
  0
XRECORD
  5
8FE
102
{ACAD_REACTORS
330
8FD
102
}
330
8FD
100
AcDbXrecord
280
     1
290
     1
  0
XRECORD
  5
900
102
{ACAD_REACTORS
330
8FF
102
}
330
8FF
100
AcDbXrecord
280
     1
290
     1
  0
XRECORD
  5
902
102
{ACAD_REACTORS
330
901
102
}
330
901
100
AcDbXrecord
280
     1
290
     1
  0
XRECORD
  5
904
102
{ACAD_REACTORS
330
903
102
}
330
903
100
AcDbXrecord
280
     1
290
     1
  0
XRECORD
  5
906
102
{ACAD_REACTORS
330
905
102
}
330
905
100
AcDbXrecord
280
     1
290
     1
  0
XRECORD
  5
908
102
{ACAD_REACTORS
330
907
102
}
330
907
100
AcDbXrecord
280
     1
290
     1
  0
XRECORD
  5
90A
102
{ACAD_REACTORS
330
909
102
}
330
909
100
AcDbXrecord
280
     1
290
     1
  0
XRECORD
  5
90C
102
{ACAD_REACTORS
330
90B
102
}
330
90B
100
AcDbXrecord
280
     1
290
     1
  0
XRECORD
  5
90E
102
{ACAD_REACTORS
330
90D
102
}
330
90D
100
AcDbXrecord
280
     1
290
     1
  0
XRECORD
  5
910
102
{ACAD_REACTORS
330
90F
102
}
330
90F
100
AcDbXrecord
280
     1
290
     1
  0
XRECORD
  5
912
102
{ACAD_REACTORS
330
911
102
}
330
911
100
AcDbXrecord
280
     1
290
     1
  0
XRECORD
  5
914
102
{ACAD_REACTORS
330
913
102
}
330
913
100
AcDbXrecord
280
     1
290
     1
  0
XRECORD
  5
916
102
{ACAD_REACTORS
330
915
102
}
330
915
100
AcDbXrecord
280
     1
290
     1
  0
XRECORD
  5
918
102
{ACAD_REACTORS
330
917
102
}
330
917
100
AcDbXrecord
280
     1
290
     1
  0
XRECORD
  5
91A
102
{ACAD_REACTORS
330
919
102
}
330
919
100
AcDbXrecord
280
     1
290
     1
  0
XRECORD
  5
91C
102
{ACAD_REACTORS
330
91B
102
}
330
91B
100
AcDbXrecord
280
     1
290
     1
  0
XRECORD
  5
91E
102
{ACAD_REACTORS
330
91D
102
}
330
91D
100
AcDbXrecord
280
     1
290
     1
  0
XRECORD
  5
920
102
{ACAD_REACTORS
330
91F
102
}
330
91F
100
AcDbXrecord
280
     1
290
     1
  0
XRECORD
  5
922
102
{ACAD_REACTORS
330
921
102
}
330
921
100
AcDbXrecord
280
     1
290
     1
  0
XRECORD
  5
924
102
{ACAD_REACTORS
330
923
102
}
330
923
100
AcDbXrecord
280
     1
290
     1
  0
XRECORD
  5
926
102
{ACAD_REACTORS
330
925
102
}
330
925
100
AcDbXrecord
280
     1
290
     1
  0
XRECORD
  5
928
102
{ACAD_REACTORS
330
927
102
}
330
927
100
AcDbXrecord
280
     1
290
     1
  0
XRECORD
  5
92A
102
{ACAD_REACTORS
330
929
102
}
330
929
100
AcDbXrecord
280
     1
290
     1
  0
XRECORD
  5
92C
102
{ACAD_REACTORS
330
92B
102
}
330
92B
100
AcDbXrecord
280
     1
290
     1
  0
XRECORD
  5
92E
102
{ACAD_REACTORS
330
92D
102
}
330
92D
100
AcDbXrecord
280
     1
290
     1
  0
XRECORD
  5
930
102
{ACAD_REACTORS
330
92F
102
}
330
92F
100
AcDbXrecord
280
     1
290
     1
  0
XRECORD
  5
932
102
{ACAD_REACTORS
330
931
102
}
330
931
100
AcDbXrecord
280
     1
290
     1
  0
XRECORD
  5
934
102
{ACAD_REACTORS
330
933
102
}
330
933
100
AcDbXrecord
280
     1
290
     1
  0
XRECORD
  5
936
102
{ACAD_REACTORS
330
935
102
}
330
935
100
AcDbXrecord
280
     1
290
     1
  0
XRECORD
  5
938
102
{ACAD_REACTORS
330
937
102
}
330
937
100
AcDbXrecord
280
     1
290
     1
  0
XRECORD
  5
93A
102
{ACAD_REACTORS
330
939
102
}
330
939
100
AcDbXrecord
280
     1
290
     1
  0
XRECORD
  5
93C
102
{ACAD_REACTORS
330
93B
102
}
330
93B
100
AcDbXrecord
280
     1
290
     1
  0
XRECORD
  5
93E
102
{ACAD_REACTORS
330
93D
102
}
330
93D
100
AcDbXrecord
280
     1
290
     1
  0
XRECORD
  5
940
102
{ACAD_REACTORS
330
93F
102
}
330
93F
100
AcDbXrecord
280
     1
290
     1
  0
XRECORD
  5
942
102
{ACAD_REACTORS
330
941
102
}
330
941
100
AcDbXrecord
280
     1
290
     1
  0
XRECORD
  5
944
102
{ACAD_REACTORS
330
943
102
}
330
943
100
AcDbXrecord
280
     1
290
     1
  0
XRECORD
  5
946
102
{ACAD_REACTORS
330
945
102
}
330
945
100
AcDbXrecord
280
     1
290
     1
  0
XRECORD
  5
948
102
{ACAD_REACTORS
330
947
102
}
330
947
100
AcDbXrecord
280
     1
290
     1
  0
XRECORD
  5
94A
102
{ACAD_REACTORS
330
949
102
}
330
949
100
AcDbXrecord
280
     1
290
     1
  0
XRECORD
  5
94C
102
{ACAD_REACTORS
330
94B
102
}
330
94B
100
AcDbXrecord
280
     1
290
     1
  0
XRECORD
  5
94E
102
{ACAD_REACTORS
330
94D
102
}
330
94D
100
AcDbXrecord
280
     1
290
     1
  0
XRECORD
  5
950
102
{ACAD_REACTORS
330
94F
102
}
330
94F
100
AcDbXrecord
280
     1
290
     1
  0
XRECORD
  5
952
102
{ACAD_REACTORS
330
951
102
}
330
951
100
AcDbXrecord
280
     1
290
     1
  0
XRECORD
  5
954
102
{ACAD_REACTORS
330
953
102
}
330
953
100
AcDbXrecord
280
     1
290
     1
  0
XRECORD
  5
956
102
{ACAD_REACTORS
330
955
102
}
330
955
100
AcDbXrecord
280
     1
290
     1
  0
XRECORD
  5
958
102
{ACAD_REACTORS
330
957
102
}
330
957
100
AcDbXrecord
280
     1
290
     1
  0
XRECORD
  5
95A
102
{ACAD_REACTORS
330
959
102
}
330
959
100
AcDbXrecord
280
     1
290
     1
  0
XRECORD
  5
95C
102
{ACAD_REACTORS
330
95B
102
}
330
95B
100
AcDbXrecord
280
     1
290
     1
  0
XRECORD
  5
95E
102
{ACAD_REACTORS
330
95D
102
}
330
95D
100
AcDbXrecord
280
     1
290
     1
  0
XRECORD
  5
960
102
{ACAD_REACTORS
330
95F
102
}
330
95F
100
AcDbXrecord
280
     1
290
     1
  0
XRECORD
  5
962
102
{ACAD_REACTORS
330
961
102
}
330
961
100
AcDbXrecord
280
     1
290
     1
  0
XRECORD
  5
964
102
{ACAD_REACTORS
330
963
102
}
330
963
100
AcDbXrecord
280
     1
290
     1
  0
XRECORD
  5
966
102
{ACAD_REACTORS
330
965
102
}
330
965
100
AcDbXrecord
280
     1
290
     1
  0
LAYOUT
  5
424
102
{ACAD_REACTORS
330
41C
102
}
330
41C
100
AcDbPlotSettings
  1

  2
Canon LBP-880
  4

  6

 40
0.0
 41
0.0
 42
0.0
 43
0.0
 44
0.0
 45
0.0
 46
0.0
 47
0.0
 48
0.0
 49
0.0
140
0.0
141
0.0
142
1.0
143
1.0
 70
  1712
 72
     0
 73
     0
 74
     0
  7

 75
     0
147
1.0
 76
     0
 77
     2
 78
   300
148
0.0
149
0.0
100
AcDbLayout
  1
Model
 70
     1
 71
     0
 10
0.0
 20
0.0
 11
12.0
 21
9.0
 12
0.0
 22
0.0
 32
0.0
 14
0.0
 24
0.0
 34
0.0
 15
0.0
 25
0.0
 35
0.0
146
0.0
 13
0.0
 23
0.0
 33
0.0
 16
1.0
 26
0.0
 36
0.0
 17
0.0
 27
1.0
 37
0.0
 76
     0
330
421
331
818
  0
LAYOUT
  5
420
102
{ACAD_REACTORS
330
41C
102
}
330
41C
100
AcDbPlotSettings
  1

  2
Canon LBP-880
  4

  6

 40
0.0
 41
0.0
 42
0.0
 43
0.0
 44
0.0
 45
0.0
 46
0.0
 47
0.0
 48
0.0
 49
0.0
140
0.0
141
0.0
142
1.0
143
1.0
 70
   688
 72
     0
 73
     0
 74
     5
  7

 75
    16
147
1.0
 76
     0
 77
     2
 78
   300
148
0.0
149
0.0
100
AcDbLayout
  1
ﾚｲｱｳﾄ1
 70
     1
 71
     1
 10
0.0
 20
0.0
 11
12.0
 21
9.0
 12
0.0
 22
0.0
 32
0.0
 14
1.000000000000000E+20
 24
1.000000000000000E+20
 34
1.000000000000000E+20
 15
-1.000000000000000E+20
 25
-1.000000000000000E+20
 35
-1.000000000000000E+20
146
0.0
 13
0.0
 23
0.0
 33
0.0
 16
1.0
 26
0.0
 36
0.0
 17
0.0
 27
1.0
 37
0.0
 76
     0
330
41D
  0
MATERIAL
  5
826
102
{ACAD_XDICTIONARY
360
827
102
}
102
{ACAD_REACTORS
330
81D
102
}
330
81D
100
AcDbMaterial
  1
ByBlock
 72
     0
 43
0.0208333333333333
 43
0.0
 43
0.0
 43
0.0
 43
0.0
 43
0.0208333333333333
 43
0.0
 43
0.0
 43
0.0
 43
0.0
 43
1.0
 43
0.0
 43
0.0
 43
0.0
 43
0.0
 43
1.0
 77
     0
 47
0.0208333333333333
 47
0.0
 47
0.0
 47
0.0
 47
0.0
 47
0.0208333333333333
 47
0.0
 47
0.0
 47
0.0
 47
0.0
 47
1.0
 47
0.0
 47
0.0
 47
0.0
 47
0.0
 47
1.0
171
     0
 49
0.0208333333333333
 49
0.0
 49
0.0
 49
0.0
 49
0.0
 49
0.0208333333333333
 49
0.0
 49
0.0
 49
0.0
 49
0.0
 49
1.0
 49
0.0
 49
0.0
 49
0.0
 49
0.0
 49
1.0
175
     0
142
0.0208333333333333
142
0.0
142
0.0
142
0.0
142
0.0
142
0.0208333333333333
142
0.0
142
0.0
142
0.0
142
0.0
142
1.0
142
0.0
142
0.0
142
0.0
142
0.0
142
1.0
179
     0
144
0.0208333333333333
144
0.0
144
0.0
144
0.0
144
0.0
144
0.0208333333333333
144
0.0
144
0.0
144
0.0
144
0.0
144
1.0
144
0.0
144
0.0
144
0.0
144
0.0
144
1.0
147
0.0208333333333333
147
0.0
147
0.0
147
0.0
147
0.0
147
0.0208333333333333
147
0.0
147
0.0
147
0.0
147
0.0
147
1.0
147
0.0
147
0.0
147
0.0
147
0.0
147
1.0
  0
MATERIAL
  5
81E
102
{ACAD_XDICTIONARY
360
81F
102
}
102
{ACAD_REACTORS
330
81D
102
}
330
81D
100
AcDbMaterial
  1
ByLayer
 72
     0
 43
0.0208333333333333
 43
0.0
 43
0.0
 43
0.0
 43
0.0
 43
0.0208333333333333
 43
0.0
 43
0.0
 43
0.0
 43
0.0
 43
1.0
 43
0.0
 43
0.0
 43
0.0
 43
0.0
 43
1.0
 77
     0
 47
0.0208333333333333
 47
0.0
 47
0.0
 47
0.0
 47
0.0
 47
0.0208333333333333
 47
0.0
 47
0.0
 47
0.0
 47
0.0
 47
1.0
 47
0.0
 47
0.0
 47
0.0
 47
0.0
 47
1.0
171
     0
 49
0.0208333333333333
 49
0.0
 49
0.0
 49
0.0
 49
0.0
 49
0.0208333333333333
 49
0.0
 49
0.0
 49
0.0
 49
0.0
 49
1.0
 49
0.0
 49
0.0
 49
0.0
 49
0.0
 49
1.0
175
     0
142
0.0208333333333333
142
0.0
142
0.0
142
0.0
142
0.0
142
0.0208333333333333
142
0.0
142
0.0
142
0.0
142
0.0
142
1.0
142
0.0
142
0.0
142
0.0
142
0.0
142
1.0
179
     0
144
0.0208333333333333
144
0.0
144
0.0
144
0.0
144
0.0
144
0.0208333333333333
144
0.0
144
0.0
144
0.0
144
0.0
144
1.0
144
0.0
144
0.0
144
0.0
144
0.0
144
1.0
147
0.0208333333333333
147
0.0
147
0.0
147
0.0
147
0.0
147
0.0208333333333333
147
0.0
147
0.0
147
0.0
147
0.0
147
1.0
147
0.0
147
0.0
147
0.0
147
0.0
147
1.0
  0
MATERIAL
  5
82E
102
{ACAD_XDICTIONARY
360
82F
102
}
102
{ACAD_REACTORS
330
81D
102
}
330
81D
100
AcDbMaterial
  1
Global
 72
     0
 43
0.0208333333333333
 43
0.0
 43
0.0
 43
0.0
 43
0.0
 43
0.0208333333333333
 43
0.0
 43
0.0
 43
0.0
 43
0.0
 43
1.0
 43
0.0
 43
0.0
 43
0.0
 43
0.0
 43
1.0
 77
     0
 47
0.0208333333333333
 47
0.0
 47
0.0
 47
0.0
 47
0.0
 47
0.0208333333333333
 47
0.0
 47
0.0
 47
0.0
 47
0.0
 47
1.0
 47
0.0
 47
0.0
 47
0.0
 47
0.0
 47
1.0
171
     0
 49
0.0208333333333333
 49
0.0
 49
0.0
 49
0.0
 49
0.0
 49
0.0208333333333333
 49
0.0
 49
0.0
 49
0.0
 49
0.0
 49
1.0
 49
0.0
 49
0.0
 49
0.0
 49
0.0
 49
1.0
175
     0
142
0.0208333333333333
142
0.0
142
0.0
142
0.0
142
0.0
142
0.0208333333333333
142
0.0
142
0.0
142
0.0
142
0.0
142
1.0
142
0.0
142
0.0
142
0.0
142
0.0
142
1.0
179
     0
144
0.0208333333333333
144
0.0
144
0.0
144
0.0
144
0.0
144
0.0208333333333333
144
0.0
144
0.0
144
0.0
144
0.0
144
1.0
144
0.0
144
0.0
144
0.0
144
0.0
144
1.0
147
0.0208333333333333
147
0.0
147
0.0
147
0.0
147
0.0
147
0.0208333333333333
147
0.0
147
0.0
147
0.0
147
0.0
147
1.0
147
0.0
147
0.0
147
0.0
147
0.0
147
1.0
  0
MLEADERSTYLE
  5
865
102
{ACAD_REACTORS
330
864
102
}
330
864
100
AcDbMLeaderStyle
179
     2
170
     2
171
     1
172
     0
 90
        2
 40
0.0
 41
0.0
173
     1
 91
-1056964608
340
416
 92
       -2
290
     1
 42
0.09
291
     1
 43
0.36
  3
Standard
 44
0.18
300

342
414
174
     1
178
     6
175
     1
176
     0
 93
-1056964608
 45
0.18
292
     0
297
     0
 46
0.18
 94
-1056964608
 47
1.0
 49
1.0
140
1.0
293
     1
141
0.0
294
     1
177
     0
142
1.0
295
     0
296
     0
143
0.125
271
     0
272
     9
273
     9
  0
MLINESTYLE
  5
41A
102
{ACAD_REACTORS
330
419
102
}
330
419
100
AcDbMlineStyle
  2
STANDARD
 70
     0
  3

 62
   256
 51
90.0
 52
90.0
 71
     2
 49
0.5
 62
   256
  6
BYLAYER
 49
-0.5
 62
   256
  6
BYLAYER
  0
ACDBPLACEHOLDER
  5
412
102
{ACAD_REACTORS
330
411
102
}
330
411
  0
SCALE
  5
853
102
{ACAD_REACTORS
330
852
102
}
330
852
100
AcDbScale
 70
     0
300
1:1
140
1.0
141
1.0
290
     1
  0
SCALE
  5
854
102
{ACAD_REACTORS
330
852
102
}
330
852
100
AcDbScale
 70
     0
300
1/128" = 1'-0"
140
0.0078125
141
12.0
290
     0
  0
SCALE
  5
855
102
{ACAD_REACTORS
330
852
102
}
330
852
100
AcDbScale
 70
     0
300
1/64" = 1'-0"
140
0.015625
141
12.0
290
     0
  0
SCALE
  5
856
102
{ACAD_REACTORS
330
852
102
}
330
852
100
AcDbScale
 70
     0
300
1/32" = 1'-0"
140
0.03125
141
12.0
290
     0
  0
SCALE
  5
857
102
{ACAD_REACTORS
330
852
102
}
330
852
100
AcDbScale
 70
     0
300
1/16" = 1'-0"
140
0.0625
141
12.0
290
     0
  0
SCALE
  5
858
102
{ACAD_REACTORS
330
852
102
}
330
852
100
AcDbScale
 70
     0
300
3/32" = 1'-0"
140
0.09375
141
12.0
290
     0
  0
SCALE
  5
859
102
{ACAD_REACTORS
330
852
102
}
330
852
100
AcDbScale
 70
     0
300
1/8" = 1'-0"
140
0.125
141
12.0
290
     0
  0
SCALE
  5
85A
102
{ACAD_REACTORS
330
852
102
}
330
852
100
AcDbScale
 70
     0
300
3/16" = 1'-0"
140
0.1875
141
12.0
290
     0
  0
SCALE
  5
85B
102
{ACAD_REACTORS
330
852
102
}
330
852
100
AcDbScale
 70
     0
300
1/4" = 1'-0"
140
0.25
141
12.0
290
     0
  0
SCALE
  5
85C
102
{ACAD_REACTORS
330
852
102
}
330
852
100
AcDbScale
 70
     0
300
3/8" = 1'-0"
140
0.375
141
12.0
290
     0
  0
SCALE
  5
85D
102
{ACAD_REACTORS
330
852
102
}
330
852
100
AcDbScale
 70
     0
300
1/2" = 1'-0"
140
0.5
141
12.0
290
     0
  0
SCALE
  5
85E
102
{ACAD_REACTORS
330
852
102
}
330
852
100
AcDbScale
 70
     0
300
3/4" = 1'-0"
140
0.75
141
12.0
290
     0
  0
SCALE
  5
85F
102
{ACAD_REACTORS
330
852
102
}
330
852
100
AcDbScale
 70
     0
300
1" = 1'-0"
140
1.0
141
12.0
290
     0
  0
SCALE
  5
860
102
{ACAD_REACTORS
330
852
102
}
330
852
100
AcDbScale
 70
     0
300
1-1/2" = 1'-0"
140
1.5
141
12.0
290
     0
  0
SCALE
  5
861
102
{ACAD_REACTORS
330
852
102
}
330
852
100
AcDbScale
 70
     0
300
3" = 1'-0"
140
3.0
141
12.0
290
     0
  0
SCALE
  5
862
102
{ACAD_REACTORS
330
852
102
}
330
852
100
AcDbScale
 70
     0
300
6" = 1'-0"
140
6.0
141
12.0
290
     0
  0
SCALE
  5
863
102
{ACAD_REACTORS
330
852
102
}
330
852
100
AcDbScale
 70
     0
300
1'-0" = 1'-0"
140
12.0
141
12.0
290
     0
  0
TABLESTYLE
  5
851
102
{ACAD_XDICTIONARY
360
96F
102
}
102
{ACAD_REACTORS
330
850
102
}
330
850
100
AcDbTableStyle
280
     0
  3
Standard
 70
     0
 71
     0
 40
0.06
 41
0.06
280
     0
281
     0
  7
STANDARD
140
0.18
170
     2
 62
     0
 63
     7
283
     0
 90
      512
 91
        0
  1

274
    -2
284
     1
 64
     0
275
    -2
285
     1
 65
     0
276
    -2
286
     1
 66
     0
277
    -2
287
     1
 67
     0
278
    -2
288
     1
 68
     0
279
    -2
289
     1
 69
     0
  7
STANDARD
140
0.25
170
     5
 62
     0
 63
     7
283
     0
 90
      512
 91
        0
  1

274
    -2
284
     1
 64
     0
275
    -2
285
     1
 65
     0
276
    -2
286
     1
 66
     0
277
    -2
287
     1
 67
     0
278
    -2
288
     1
 68
     0
279
    -2
289
     1
 69
     0
  7
STANDARD
140
0.18
170
     5
 62
     0
 63
     7
283
     0
 90
      512
 91
        0
  1

274
    -2
284
     1
 64
     0
275
    -2
285
     1
 65
     0
276
    -2
286
     1
 66
     0
277
    -2
287
     1
 67
     0
278
    -2
288
     1
 68
     0
279
    -2
289
     1
 69
     0
  0
VISUALSTYLE
  5
83C
102
{ACAD_REACTORS
330
836
102
}
330
836
100
AcDbVisualStyle
  2
2dWireframe
 70
     4
177
     2
291
     0
 71
     0
176
     1
 72
     2
176
     1
 73
     0
176
     1
 90
        0
176
     1
 40
0.6
176
     1
 41
30.0
176
     1
 63
     7
421
 16777215
176
     1
 74
     1
176
     1
 91
        4
176
     1
 64
     7
176
     1
 65
   257
176
     1
 75
     1
176
     1
175
     1
176
     1
 42
1.0
176
     1
 92
        0
176
     1
 66
   257
176
     1
 43
1.0
176
     1
 76
     1
176
     1
 77
     6
176
     1
 78
     2
176
     1
 67
     7
176
     1
 79
     5
176
     1
170
     0
176
     1
171
     0
176
     1
290
     0
176
     1
 93
        1
176
     1
 44
0.0
176
     1
173
     0
176
     1
  0
VISUALSTYLE
  5
83B
102
{ACAD_REACTORS
330
836
102
}
330
836
100
AcDbVisualStyle
  2
Basic
 70
     7
177
     2
291
     1
 71
     1
176
     1
 72
     0
176
     1
 73
     1
176
     1
 90
        0
176
     1
 40
0.6
176
     1
 41
30.0
176
     1
 63
     7
421
 16777215
176
     1
 74
     0
176
     1
 91
        4
176
     1
 64
     7
176
     1
 65
   257
176
     1
 75
     1
176
     1
175
     1
176
     1
 42
1.0
176
     1
 92
        8
176
     1
 66
     7
176
     1
 43
1.0
176
     1
 76
     1
176
     1
 77
     6
176
     1
 78
     2
176
     1
 67
     7
176
     1
 79
     5
176
     1
170
     0
176
     1
171
     0
176
     1
290
     0
176
     1
 93
        1
176
     1
 44
0.0
176
     1
173
     0
176
     1
  0
VISUALSTYLE
  5
842
102
{ACAD_REACTORS
330
836
102
}
330
836
100
AcDbVisualStyle
  2
Brighten
 70
    12
177
     2
291
     1
 71
     2
176
     1
 72
     2
176
     1
 73
     0
176
     1
 90
        0
176
     1
 40
0.6
176
     1
 41
30.0
176
     1
 63
     7
421
 16777215
176
     1
 74
     1
176
     1
 91
        4
176
     1
 64
     7
176
     1
 65
   257
176
     1
 75
     1
176
     1
175
     1
176
     1
 42
1.0
176
     1
 92
        8
176
     1
 66
     7
176
     1
 43
1.0
176
     1
 76
     1
176
     1
 77
     6
176
     1
 78
     2
176
     1
 67
     7
176
     1
 79
     5
176
     1
170
     0
176
     1
171
     0
176
     1
290
     0
176
     1
 93
        1
176
     1
 44
50.0
176
     1
173
     0
176
     1
  0
VISUALSTYLE
  5
846
102
{ACAD_REACTORS
330
836
102
}
330
836
100
AcDbVisualStyle
  2
ColorChange
 70
    16
177
     2
291
     1
 71
     2
176
     1
 72
     2
176
     1
 73
     3
176
     1
 90
        0
176
     1
 40
0.6
176
     1
 41
30.0
176
     1
 63
     8
421
  8421504
176
     1
 74
     1
176
     1
 91
        4
176
     1
 64
     7
176
     1
 65
   257
176
     1
 75
     1
176
     1
175
     1
176
     1
 42
1.0
176
     1
 92
        8
176
     1
 66
     8
424
  8421504
176
     1
 43
1.0
176
     1
 76
     1
176
     1
 77
     6
176
     1
 78
     2
176
     1
 67
     7
176
     1
 79
     5
176
     1
170
     0
176
     1
171
     0
176
     1
290
     0
176
     1
 93
        1
176
     1
 44
0.0
176
     1
173
     0
176
     1
  0
VISUALSTYLE
  5
83F
102
{ACAD_REACTORS
330
836
102
}
330
836
100
AcDbVisualStyle
  2
Conceptual
 70
     9
177
     2
291
     0
 71
     3
176
     1
 72
     2
176
     1
 73
     0
176
     1
 90
        0
176
     1
 40
0.6
176
     1
 41
30.0
176
     1
 63
     7
421
 16777215
176
     1
 74
     2
176
     1
 91
        2
176
     1
 64
     7
176
     1
 65
   257
176
     1
 75
     1
176
     1
175
     1
176
     1
 42
179.0
176
     1
 92
        8
176
     1
 66
     7
176
     1
 43
1.0
176
     1
 76
     1
176
     1
 77
     6
176
     1
 78
     2
176
     1
 67
     7
176
     1
 79
     3
176
     1
170
     0
176
     1
171
     0
176
     1
290
     0
176
     1
 93
        1
176
     1
 44
0.0
176
     1
173
     0
176
     1
  0
VISUALSTYLE
  5
841
102
{ACAD_REACTORS
330
836
102
}
330
836
100
AcDbVisualStyle
  2
Dim
 70
    11
177
     2
291
     1
 71
     2
176
     1
 72
     2
176
     1
 73
     0
176
     1
 90
        0
176
     1
 40
0.6
176
     1
 41
30.0
176
     1
 63
     7
421
 16777215
176
     1
 74
     1
176
     1
 91
        4
176
     1
 64
     7
176
     1
 65
   257
176
     1
 75
     1
176
     1
175
     1
176
     1
 42
1.0
176
     1
 92
        8
176
     1
 66
     7
176
     1
 43
1.0
176
     1
 76
     1
176
     1
 77
     6
176
     1
 78
     2
176
     1
 67
     7
176
     1
 79
     5
176
     1
170
     0
176
     1
171
     0
176
     1
290
     0
176
     1
 93
        1
176
     1
 44
-50.0
176
     1
173
     0
176
     1
  0
VISUALSTYLE
  5
84E
102
{ACAD_REACTORS
330
836
102
}
330
836
100
AcDbVisualStyle
  2
EdgeColorOff
 70
    22
177
     2
291
     1
 71
     2
176
     0
 72
     2
176
     0
 73
     0
176
     0
 90
        0
176
     0
 40
0.6
176
     0
 41
30.0
176
     0
 63
     7
421
 16777215
176
     0
 74
     1
176
     0
 91
        4
176
     0
 64
     7
176
     0
 65
   257
176
     0
 75
     1
176
     0
175
     1
176
     0
 42
1.0
176
     0
 92
        8
176
     2
 66
     7
176
     0
 43
1.0
176
     0
 76
     1
176
     0
 77
     6
176
     0
 78
     2
176
     0
 67
     7
176
     0
 79
     5
176
     0
170
     0
176
     0
171
     0
176
     0
290
     0
176
     0
 93
        1
176
     0
 44
0.0
176
     0
173
     0
176
     0
  0
VISUALSTYLE
  5
845
102
{ACAD_REACTORS
330
836
102
}
330
836
100
AcDbVisualStyle
  2
Facepattern
 70
    15
177
     2
291
     1
 71
     2
176
     1
 72
     2
176
     1
 73
     0
176
     1
 90
        0
176
     1
 40
0.6
176
     1
 41
30.0
176
     1
 63
     7
421
 16777215
176
     1
 74
     1
176
     1
 91
        4
176
     1
 64
     7
176
     1
 65
   257
176
     1
 75
     1
176
     1
175
     1
176
     1
 42
1.0
176
     1
 92
        8
176
     1
 66
     7
176
     1
 43
1.0
176
     1
 76
     1
176
     1
 77
     6
176
     1
 78
     2
176
     1
 67
     7
176
     1
 79
     5
176
     1
170
     0
176
     1
171
     0
176
     1
290
     0
176
     1
 93
        1
176
     1
 44
0.0
176
     1
173
     0
176
     1
  0
VISUALSTYLE
  5
837
102
{ACAD_REACTORS
330
836
102
}
330
836
100
AcDbVisualStyle
  2
Flat
 70
     0
177
     2
291
     1
 71
     2
176
     1
 72
     1
176
     1
 73
     1
176
     1
 90
        2
176
     1
 40
0.6
176
     1
 41
30.0
176
     1
 63
     7
421
 16777215
176
     1
 74
     0
176
     1
 91
        0
176
     1
 64
     7
176
     1
 65
   257
176
     1
 75
     1
176
     1
175
     1
176
     1
 42
1.0
176
     1
 92
        8
176
     1
 66
     7
176
     1
 43
1.0
176
     1
 76
     1
176
     1
 77
     6
176
     1
 78
     2
176
     1
 67
     7
176
     1
 79
     5
176
     1
170
     0
176
     1
171
     0
176
     1
290
     0
176
     1
 93
       13
176
     1
 44
0.0
176
     1
173
     0
176
     1
  0
VISUALSTYLE
  5
838
102
{ACAD_REACTORS
330
836
102
}
330
836
100
AcDbVisualStyle
  2
FlatWithEdges
 70
     1
177
     2
291
     1
 71
     2
176
     1
 72
     1
176
     1
 73
     1
176
     1
 90
        2
176
     1
 40
0.6
176
     1
 41
30.0
176
     1
 63
     7
421
 16777215
176
     1
 74
     1
176
     1
 91
        0
176
     1
 64
     7
176
     1
 65
   257
176
     1
 75
     1
176
     1
175
     1
176
     1
 42
1.0
176
     1
 92
        0
176
     1
 66
   257
176
     1
 43
1.0
176
     1
 76
     1
176
     1
 77
     6
176
     1
 78
     2
176
     1
 67
     7
176
     1
 79
     5
176
     1
170
     0
176
     1
171
     0
176
     1
290
     0
176
     1
 93
       13
176
     1
 44
0.0
176
     1
173
     0
176
     1
  0
VISUALSTYLE
  5
839
102
{ACAD_REACTORS
330
836
102
}
330
836
100
AcDbVisualStyle
  2
Gouraud
 70
     2
177
     2
291
     1
 71
     2
176
     1
 72
     2
176
     1
 73
     1
176
     1
 90
        2
176
     1
 40
0.6
176
     1
 41
30.0
176
     1
 63
     7
421
 16777215
176
     1
 74
     0
176
     1
 91
        0
176
     1
 64
     7
176
     1
 65
   257
176
     1
 75
     1
176
     1
175
     1
176
     1
 42
1.0
176
     1
 92
        0
176
     1
 66
     7
176
     1
 43
1.0
176
     1
 76
     1
176
     1
 77
     6
176
     1
 78
     2
176
     1
 67
     7
176
     1
 79
     5
176
     1
170
     0
176
     1
171
     0
176
     1
290
     0
176
     1
 93
       13
176
     1
 44
0.0
176
     1
173
     0
176
     1
  0
VISUALSTYLE
  5
83A
102
{ACAD_REACTORS
330
836
102
}
330
836
100
AcDbVisualStyle
  2
GouraudWithEdges
 70
     3
177
     2
291
     1
 71
     2
176
     1
 72
     2
176
     1
 73
     1
176
     1
 90
        2
176
     1
 40
0.6
176
     1
 41
30.0
176
     1
 63
     7
421
 16777215
176
     1
 74
     1
176
     1
 91
        0
176
     1
 64
     7
176
     1
 65
   257
176
     1
 75
     1
176
     1
175
     1
176
     1
 42
1.0
176
     1
 92
        0
176
     1
 66
   257
176
     1
 43
1.0
176
     1
 76
     1
176
     1
 77
     6
176
     1
 78
     2
176
     1
 67
     7
176
     1
 79
     5
176
     1
170
     0
176
     1
171
     0
176
     1
290
     0
176
     1
 93
       13
176
     1
 44
0.0
176
     1
173
     0
176
     1
  0
VISUALSTYLE
  5
83E
102
{ACAD_REACTORS
330
836
102
}
330
836
100
AcDbVisualStyle
  2
Hidden
 70
     6
177
     2
291
     0
 71
     1
176
     1
 72
     2
176
     1
 73
     2
176
     1
 90
        0
176
     1
 40
0.6
176
     1
 41
30.0
176
     1
 63
     7
421
 16777215
176
     1
 74
     2
176
     1
 91
        2
176
     1
 64
     7
176
     1
 65
   257
176
     1
 75
     2
176
     1
175
     1
176
     1
 42
40.0
176
     1
 92
        0
176
     1
 66
   257
176
     1
 43
1.0
176
     1
 76
     1
176
     1
 77
     6
176
     1
 78
     2
176
     1
 67
     7
176
     1
 79
     3
176
     1
170
     0
176
     1
171
     0
176
     1
290
     0
176
     1
 93
        1
176
     1
 44
0.0
176
     1
173
     0
176
     1
  0
VISUALSTYLE
  5
84C
102
{ACAD_REACTORS
330
836
102
}
330
836
100
AcDbVisualStyle
  2
JitterOff
 70
    20
177
     2
291
     1
 71
     2
176
     0
 72
     2
176
     0
 73
     0
176
     0
 90
        0
176
     0
 40
0.6
176
     0
 41
30.0
176
     0
 63
     7
421
 16777215
176
     0
 74
     1
176
     0
 91
        4
176
     0
 64
     7
176
     0
 65
   257
176
     0
 75
     1
176
     0
175
     1
176
     0
 42
1.0
176
     0
 92
       10
176
     2
 66
     7
176
     0
 43
1.0
176
     0
 76
     1
176
     0
 77
     6
176
     0
 78
     2
176
     0
 67
     7
176
     0
 79
     5
176
     0
170
     0
176
     0
171
     0
176
     0
290
     0
176
     0
 93
        1
176
     0
 44
0.0
176
     0
173
     0
176
     0
  0
VISUALSTYLE
  5
844
102
{ACAD_REACTORS
330
836
102
}
330
836
100
AcDbVisualStyle
  2
Linepattern
 70
    14
177
     2
291
     1
 71
     2
176
     1
 72
     2
176
     1
 73
     0
176
     1
 90
        0
176
     1
 40
0.6
176
     1
 41
30.0
176
     1
 63
     7
421
 16777215
176
     1
 74
     1
176
     1
 91
        4
176
     1
 64
     7
176
     1
 65
   257
176
     1
 75
     7
176
     1
175
     7
176
     1
 42
1.0
176
     1
 92
        8
176
     1
 66
     7
176
     1
 43
1.0
176
     1
 76
     1
176
     1
 77
     6
176
     1
 78
     2
176
     1
 67
     7
176
     1
 79
     5
176
     1
170
     0
176
     1
171
     0
176
     1
290
     0
176
     1
 93
        1
176
     1
 44
0.0
176
     1
173
     0
176
     1
  0
VISUALSTYLE
  5
84D
102
{ACAD_REACTORS
330
836
102
}
330
836
100
AcDbVisualStyle
  2
OverhangOff
 70
    21
177
     2
291
     1
 71
     2
176
     0
 72
     2
176
     0
 73
     0
176
     0
 90
        0
176
     0
 40
0.6
176
     0
 41
30.0
176
     0
 63
     7
421
 16777215
176
     0
 74
     1
176
     0
 91
        4
176
     0
 64
     7
176
     0
 65
   257
176
     0
 75
     1
176
     0
175
     1
176
     0
 42
1.0
176
     0
 92
        9
176
     2
 66
     7
176
     0
 43
1.0
176
     0
 76
     1
176
     0
 77
     6
176
     0
 78
     2
176
     0
 67
     7
176
     0
 79
     5
176
     0
170
     0
176
     0
171
     0
176
     0
290
     0
176
     0
 93
        1
176
     0
 44
0.0
176
     0
173
     0
176
     0
  0
VISUALSTYLE
  5
840
102
{ACAD_REACTORS
330
836
102
}
330
836
100
AcDbVisualStyle
  2
Realistic
 70
     8
177
     2
291
     0
 71
     2
176
     1
 72
     3
176
     1
 73
     0
176
     1
 90
        2
176
     1
 40
0.6
176
     1
 41
30.0
176
     1
 63
     7
421
 16777215
176
     1
 74
     0
176
     1
 91
        0
176
     1
 64
     7
176
     1
 65
   257
176
     1
 75
     1
176
     1
175
     1
176
     1
 42
1.0
176
     1
 92
        8
176
     1
 66
   257
176
     1
 43
1.0
176
     1
 76
     1
176
     1
 77
     6
176
     1
 78
     2
176
     1
 67
     7
176
     1
 79
     3
176
     1
170
     0
176
     1
171
     0
176
     1
290
     0
176
     1
 93
       13
176
     1
 44
0.0
176
     1
173
     0
176
     1
  0
VISUALSTYLE
  5
84B
102
{ACAD_REACTORS
330
836
102
}
330
836
100
AcDbVisualStyle
  2
Shaded
 70
    27
177
     2
291
     0
 71
     2
176
     1
 72
     2
176
     1
 73
     1
176
     1
 90
        2
176
     1
 40
0.6
176
     1
 41
30.0
176
     1
 63
     7
421
 16777215
176
     1
 74
     0
176
     1
 91
        4
176
     1
 64
     7
176
     1
 65
   257
176
     1
 75
     1
176
     1
175
     1
176
     1
 42
1.0
176
     1
 92
        8
176
     1
 66
   257
176
     1
 43
1.0
176
     1
 76
     1
176
     1
 77
     6
176
     1
 78
     2
176
     1
 67
     8
425
  7895160
176
     1
 79
     3
176
     1
170
     0
176
     1
171
     0
176
     1
290
     0
176
     1
 93
        5
176
     1
 44
0.0
176
     1
173
     0
176
     1
  0
VISUALSTYLE
  5
84A
102
{ACAD_REACTORS
330
836
102
}
330
836
100
AcDbVisualStyle
  2
Shaded with edges
 70
    26
177
     2
291
     0
 71
     2
176
     1
 72
     2
176
     1
 73
     1
176
     1
 90
        2
176
     1
 40
0.6
176
     1
 41
30.0
176
     1
 63
     7
421
 16777215
176
     1
 74
     1
176
     1
 91
       10
176
     1
 64
     7
176
     1
 65
   257
176
     1
 75
     2
176
     1
175
     1
176
     1
 42
1.0
176
     1
 92
        8
176
     1
 66
   257
176
     1
 43
1.0
176
     1
 76
     1
176
     1
 77
     6
176
     1
 78
     2
176
     1
 67
     7
176
     1
 79
     3
176
     1
170
     0
176
     1
171
     0
176
     1
290
     0
176
     1
 93
        5
176
     1
 44
0.0
176
     1
173
     0
176
     1
  0
VISUALSTYLE
  5
847
102
{ACAD_REACTORS
330
836
102
}
330
836
100
AcDbVisualStyle
  2
Shades of Gray
 70
    23
177
     2
291
     0
 71
     2
176
     1
 72
     2
176
     1
 73
     3
176
     1
 90
        0
176
     1
 40
0.6
176
     1
 41
30.0
176
     1
 63
     7
421
 16777215
176
     1
 74
     2
176
     1
 91
        2
176
     1
 64
     7
176
     1
 65
     7
176
     1
 75
     1
176
     1
175
     1
176
     1
 42
40.0
176
     1
 92
        8
176
     1
 66
     7
176
     1
 43
1.0
176
     1
 76
     1
176
     1
 77
     6
176
     1
 78
     2
176
     1
 67
     7
176
     1
 79
     3
176
     1
170
     0
176
     1
171
     0
176
     1
290
     0
176
     1
 93
        1
176
     1
 44
0.0
176
     1
173
     0
176
     1
  0
VISUALSTYLE
  5
848
102
{ACAD_REACTORS
330
836
102
}
330
836
100
AcDbVisualStyle
  2
Sketchy
 70
    24
177
     2
291
     0
 71
     1
176
     1
 72
     2
176
     1
 73
     2
176
     1
 90
        0
176
     1
 40
0.6
176
     1
 41
30.0
176
     1
 63
     7
421
 16777215
176
     1
 74
     2
176
     1
 91
        2
176
     1
 64
     7
176
     1
 65
     7
176
     1
 75
     1
176
     1
175
     1
176
     1
 42
40.0
176
     1
 92
       11
176
     1
 66
     7
176
     1
 43
1.0
176
     1
 76
     1
176
     1
 77
     6
176
     1
 78
     2
176
     1
 67
     7
176
     1
 79
     6
176
     1
170
     0
176
     1
171
     0
176
     1
290
     0
176
     1
 93
        1
176
     1
 44
0.0
176
     1
173
     0
176
     1
  0
VISUALSTYLE
  5
843
102
{ACAD_REACTORS
330
836
102
}
330
836
100
AcDbVisualStyle
  2
Thicken
 70
    13
177
     2
291
     1
 71
     2
176
     1
 72
     2
176
     1
 73
     0
176
     1
 90
        0
176
     1
 40
0.6
176
     1
 41
30.0
176
     1
 63
     7
421
 16777215
176
     1
 74
     1
176
     1
 91
        4
176
     1
 64
     7
176
     1
 65
   257
176
     1
 75
     1
176
     1
175
     1
176
     1
 42
1.0
176
     1
 92
       12
176
     1
 66
     7
176
     1
 43
1.0
176
     1
 76
     1
176
     1
 77
     6
176
     1
 78
     2
176
     1
 67
     7
176
     1
 79
     5
176
     1
170
     0
176
     1
171
     0
176
     1
290
     0
176
     1
 93
        1
176
     1
 44
0.0
176
     1
173
     0
176
     1
  0
VISUALSTYLE
  5
83D
102
{ACAD_REACTORS
330
836
102
}
330
836
100
AcDbVisualStyle
  2
Wireframe
 70
     5
177
     2
291
     0
 71
     0
176
     1
 72
     2
176
     1
 73
     0
176
     1
 90
        0
176
     1
 40
0.6
176
     1
 41
30.0
176
     1
 63
     7
421
 16777215
176
     1
 74
     1
176
     1
 91
        4
176
     1
 64
     7
176
     1
 65
   257
176
     1
 75
     1
176
     1
175
     1
176
     1
 42
1.0
176
     1
 92
        0
176
     1
 66
   257
176
     1
 43
1.0
176
     1
 76
     1
176
     1
 77
     6
176
     1
 78
     2
176
     1
 67
     7
176
     1
 79
     3
176
     1
170
     0
176
     1
171
     0
176
     1
290
     0
176
     1
 93
        1
176
     1
 44
0.0
176
     1
173
     0
176
     1
  0
VISUALSTYLE
  5
849
102
{ACAD_REACTORS
330
836
102
}
330
836
100
AcDbVisualStyle
  2
X-Ray
 70
    25
177
     2
291
     0
 71
     2
176
     1
 72
     2
176
     1
 73
     1
176
     1
 90
        1
176
     1
 40
0.5
176
     1
 41
30.0
176
     1
 63
     7
421
 16777215
176
     1
 74
     1
176
     1
 91
        0
176
     1
 64
     7
176
     1
 65
   257
176
     1
 75
     1
176
     1
175
     1
176
     1
 42
1.0
176
     1
 92
        8
176
     1
 66
     7
176
     1
 43
1.0
176
     1
 76
     1
176
     1
 77
     6
176
     1
 78
     2
176
     1
 67
     7
176
     1
 79
     3
176
     1
170
     0
176
     1
171
     0
176
     1
290
     0
176
     1
 93
       13
176
     1
 44
0.0
176
     1
173
     0
176
     1
  0
DICTIONARYVAR
  5
96B
102
{ACAD_REACTORS
330
967
102
}
330
967
100
DictionaryVariables
280
     0
  1
1:1
  0
DICTIONARYVAR
  5
969
102
{ACAD_REACTORS
330
967
102
}
330
967
100
DictionaryVariables
280
     0
  1
STANDARD
  0
DICTIONARYVAR
  5
968
102
{ACAD_REACTORS
330
967
102
}
330
967
100
DictionaryVariables
280
     0
  1
STANDARD
  0
DICTIONARYVAR
  5
96D
102
{ACAD_REACTORS
330
967
102
}
330
967
100
DictionaryVariables
280
     0
  1
1
  0
DICTIONARYVAR
  5
96E
102
{ACAD_REACTORS
330
967
102
}
330
967
100
DictionaryVariables
280
     0
  1
15
  0
DICTIONARYVAR
  5
96C
102
{ACAD_REACTORS
330
967
102
}
330
967
100
DictionaryVariables
280
     0
  1
0
  0
DICTIONARYVAR
  5
96A
102
{ACAD_REACTORS
330
967
102
}
330
967
100
DictionaryVariables
280
     0
  1
0
  0
DICTIONARY
  5
827
330
826
100
AcDbDictionary
280
     1
281
     1
  3
BUMPTILE
360
829
  3
DIFFUSETILE
360
828
  3
OPACITYTILE
360
82C
  3
REFLECTIONTILE
360
82B
  3
REFRACTIONTILE
360
82D
  3
SPECULARTILE
360
82A
  0
DICTIONARY
  5
81F
330
81E
100
AcDbDictionary
280
     1
281
     1
  3
BUMPTILE
360
821
  3
DIFFUSETILE
360
820
  3
OPACITYTILE
360
824
  3
REFLECTIONTILE
360
823
  3
REFRACTIONTILE
360
825
  3
SPECULARTILE
360
822
  0
DICTIONARY
  5
82F
330
82E
100
AcDbDictionary
280
     1
281
     1
  3
BUMPTILE
360
831
  3
DIFFUSETILE
360
830
  3
OPACITYTILE
360
834
  3
REFLECTIONTILE
360
833
  3
REFRACTIONTILE
360
835
  3
SPECULARTILE
360
832
  0
DICTIONARY
  5
96F
330
851
100
AcDbDictionary
280
     1
281
     1
  3
ACAD_ROUNDTRIP_2008_TABLESTYLE_CELLSTYLEMAP
360
970
  0
XRECORD
  5
829
102
{ACAD_REACTORS
330
827
102
}
330
827
100
AcDbXrecord
280
     1
270
     1
271
     1
  0
XRECORD
  5
828
102
{ACAD_REACTORS
330
827
102
}
330
827
100
AcDbXrecord
280
     1
270
     1
271
     1
  0
XRECORD
  5
82C
102
{ACAD_REACTORS
330
827
102
}
330
827
100
AcDbXrecord
280
     1
270
     1
271
     1
  0
XRECORD
  5
82B
102
{ACAD_REACTORS
330
827
102
}
330
827
100
AcDbXrecord
280
     1
270
     1
271
     1
  0
XRECORD
  5
82D
102
{ACAD_REACTORS
330
827
102
}
330
827
100
AcDbXrecord
280
     1
270
     1
271
     1
  0
XRECORD
  5
82A
102
{ACAD_REACTORS
330
827
102
}
330
827
100
AcDbXrecord
280
     1
270
     1
271
     1
  0
XRECORD
  5
821
102
{ACAD_REACTORS
330
81F
102
}
330
81F
100
AcDbXrecord
280
     1
270
     1
271
     1
  0
XRECORD
  5
820
102
{ACAD_REACTORS
330
81F
102
}
330
81F
100
AcDbXrecord
280
     1
270
     1
271
     1
  0
XRECORD
  5
824
102
{ACAD_REACTORS
330
81F
102
}
330
81F
100
AcDbXrecord
280
     1
270
     1
271
     1
  0
XRECORD
  5
823
102
{ACAD_REACTORS
330
81F
102
}
330
81F
100
AcDbXrecord
280
     1
270
     1
271
     1
  0
XRECORD
  5
825
102
{ACAD_REACTORS
330
81F
102
}
330
81F
100
AcDbXrecord
280
     1
270
     1
271
     1
  0
XRECORD
  5
822
102
{ACAD_REACTORS
330
81F
102
}
330
81F
100
AcDbXrecord
280
     1
270
     1
271
     1
  0
XRECORD
  5
831
102
{ACAD_REACTORS
330
82F
102
}
330
82F
100
AcDbXrecord
280
     1
270
     1
271
     1
  0
XRECORD
  5
830
102
{ACAD_REACTORS
330
82F
102
}
330
82F
100
AcDbXrecord
280
     1
270
     1
271
     1
  0
XRECORD
  5
834
102
{ACAD_REACTORS
330
82F
102
}
330
82F
100
AcDbXrecord
280
     1
270
     1
271
     1
  0
XRECORD
  5
833
102
{ACAD_REACTORS
330
82F
102
}
330
82F
100
AcDbXrecord
280
     1
270
     1
271
     1
  0
XRECORD
  5
835
102
{ACAD_REACTORS
330
82F
102
}
330
82F
100
AcDbXrecord
280
     1
270
     1
271
     1
  0
XRECORD
  5
832
102
{ACAD_REACTORS
330
82F
102
}
330
82F
100
AcDbXrecord
280
     1
270
     1
271
     1
  0
CELLSTYLEMAP
  5
970
102
{ACAD_REACTORS
330
96F
102
}
330
96F
100
AcDbCellStyleMap
 90
        3
300
CELLSTYLE
  1
TABLEFORMAT_BEGIN
 90
        5
170
     1
 91
        0
 92
    32768
 62
   257
 93
        1
300
CONTENTFORMAT
  1
CONTENTFORMAT_BEGIN
 90
        0
 91
        0
 92
      512
 93
        0
300

 40
0.0
140
1.0
 94
        5
 62
     0
340
414
144
0.25
309
CONTENTFORMAT_END
171
     0
 94
        0
309
TABLEFORMAT_END
  1
CELLSTYLE_BEGIN
 90
        1
 91
        1
300
_TITLE
309
CELLSTYLE_END
300
CELLSTYLE
  1
TABLEFORMAT_BEGIN
 90
        5
170
     1
 91
        0
 92
        0
 62
   257
 93
        1
300
CONTENTFORMAT
  1
CONTENTFORMAT_BEGIN
 90
        0
 91
        0
 92
      512
 93
        0
300

 40
0.0
140
1.0
 94
        5
 62
     0
340
414
144
0.18
309
CONTENTFORMAT_END
171
     0
 94
        0
309
TABLEFORMAT_END
  1
CELLSTYLE_BEGIN
 90
        2
 91
        1
300
_HEADER
309
CELLSTYLE_END
300
CELLSTYLE
  1
TABLEFORMAT_BEGIN
 90
        5
170
     1
 91
        0
 92
        0
 62
   257
 93
        1
300
CONTENTFORMAT
  1
CONTENTFORMAT_BEGIN
 90
        0
 91
        0
 92
      512
 93
        0
300

 40
0.0
140
1.0
 94
        2
 62
     0
340
414
144
0.18
309
CONTENTFORMAT_END
171
     0
 94
        0
309
TABLEFORMAT_END
  1
CELLSTYLE_BEGIN
 90
        3
 91
        2
300
_DATA
309
CELLSTYLE_END
  0
ENDSEC
  0
EOF
