  0
SECTION
  2
HEADER
  9
$ACADVER
  1
AC1015
  9
$ACADMAINTVER
 70
    20
  9
$DWGCODEPAGE
  3
ANSI_932
  9
$INSBASE
 10
0.0
 20
0.0
 30
0.0
  9
$EXTMIN
 10
3.198721781689982
 20
-3.069056995419572
 30
0.0
  9
$EXTMAX
 10
221.7221306367842
 20
201.8726806688406
 30
0.4
  9
$LIMMIN
 10
0.0
 20
0.0
  9
$LIMMAX
 10
12.0
 20
9.0
  9
$ORTHOMODE
 70
     1
  9
$REGENMODE
 70
     1
  9
$FILLMODE
 70
     1
  9
$QTEXTMODE
 70
     0
  9
$MIRRTEXT
 70
     1
  9
$LTSCALE
 40
1.0
  9
$ATTMODE
 70
     1
  9
$TEXTSIZE
 40
0.2
  9
$TRACEWID
 40
0.05
  9
$TEXTSTYLE
  7
STANDARD
  9
$CLAYER
  8
0
  9
$CELTYPE
  6
CONTINUOUS
  9
$CECOLOR
 62
   256
  9
$CELTSCALE
 40
1.0
  9
$DISPSILH
 70
     0
  9
$DIMSCALE
 40
1.0
  9
$DIMASZ
 40
0.18
  9
$DIMEXO
 40
0.0625
  9
$DIMDLI
 40
0.38
  9
$DIMRND
 40
0.0
  9
$DIMDLE
 40
0.0
  9
$DIMEXE
 40
0.18
  9
$DIMTP
 40
0.0
  9
$DIMTM
 40
0.0
  9
$DIMTXT
 40
0.18
  9
$DIMCEN
 40
0.09
  9
$DIMTSZ
 40
0.0
  9
$DIMTOL
 70
     0
  9
$DIMLIM
 70
     0
  9
$DIMTIH
 70
     1
  9
$DIMTOH
 70
     1
  9
$DIMSE1
 70
     0
  9
$DIMSE2
 70
     0
  9
$DIMTAD
 70
     0
  9
$DIMZIN
 70
     0
  9
$DIMBLK
  1

  9
$DIMASO
 70
     1
  9
$DIMSHO
 70
     1
  9
$DIMPOST
  1

  9
$DIMAPOST
  1

  9
$DIMALT
 70
     0
  9
$DIMALTD
 70
     2
  9
$DIMALTF
 40
25.4
  9
$DIMLFAC
 40
1.0
  9
$DIMTOFL
 70
     0
  9
$DIMTVP
 40
0.0
  9
$DIMTIX
 70
     0
  9
$DIMSOXD
 70
     0
  9
$DIMSAH
 70
     0
  9
$DIMBLK1
  1

  9
$DIMBLK2
  1

  9
$DIMSTYLE
  2
STANDARD
  9
$DIMCLRD
 70
     0
  9
$DIMCLRE
 70
     0
  9
$DIMCLRT
 70
     0
  9
$DIMTFAC
 40
1.0
  9
$DIMGAP
 40
0.09
  9
$DIMJUST
 70
     0
  9
$DIMSD1
 70
     0
  9
$DIMSD2
 70
     0
  9
$DIMTOLJ
 70
     1
  9
$DIMTZIN
 70
     0
  9
$DIMALTZ
 70
     0
  9
$DIMALTTZ
 70
     0
  9
$DIMUPT
 70
     0
  9
$DIMDEC
 70
     4
  9
$DIMTDEC
 70
     4
  9
$DIMALTU
 70
     2
  9
$DIMALTTD
 70
     2
  9
$DIMTXSTY
  7
STANDARD
  9
$DIMAUNIT
 70
     0
  9
$DIMADEC
 70
     0
  9
$DIMALTRND
 40
0.0
  9
$DIMAZIN
 70
     0
  9
$DIMDSEP
 70
    46
  9
$DIMATFIT
 70
     3
  9
$DIMFRAC
 70
     0
  9
$DIMLDRBLK
  1

  9
$DIMLUNIT
 70
     2
  9
$DIMLWD
 70
    -2
  9
$DIMLWE
 70
    -2
  9
$DIMTMOVE
 70
     0
  9
$LUNITS
 70
     2
  9
$LUPREC
 70
     4
  9
$SKETCHINC
 40
0.1
  9
$FILLETRAD
 40
0.0
  9
$AUNITS
 70
     0
  9
$AUPREC
 70
     0
  9
$MENU
  1
.
  9
$ELEVATION
 40
0.0
  9
$PELEVATION
 40
0.0
  9
$THICKNESS
 40
0.0
  9
$LIMCHECK
 70
     0
  9
$CHAMFERA
 40
0.0
  9
$CHAMFERB
 40
0.0
  9
$CHAMFERC
 40
0.0
  9
$CHAMFERD
 40
0.0
  9
$SKPOLY
 70
     0
  9
$TDCREATE
 40
2452152.858991436
  9
$TDUCREATE
 40
2452152.483991436
  9
$TDUPDATE
 40
2457836.384407801
  9
$TDUUPDATE
 40
2457836.009407802
  9
$TDINDWG
 40
0.0250527083
  9
$TDUSRTIMER
 40
0.0250485069
  9
$USRTIMER
 70
     1
  9
$ANGBASE
 50
0.0
  9
$ANGDIR
 70
     0
  9
$PDMODE
 70
     0
  9
$PDSIZE
 40
0.0
  9
$PLINEWID
 40
0.0
  9
$SPLFRAME
 70
     0
  9
$SPLINETYPE
 70
     6
  9
$SPLINESEGS
 70
     8
  9
$HANDSEED
  5
7DE
  9
$SURFTAB1
 70
     6
  9
$SURFTAB2
 70
     6
  9
$SURFTYPE
 70
     6
  9
$SURFU
 70
     6
  9
$SURFV
 70
     6
  9
$UCSBASE
  2

  9
$UCSNAME
  2

  9
$UCSORG
 10
0.0
 20
0.0
 30
0.0
  9
$UCSXDIR
 10
1.0
 20
0.0
 30
0.0
  9
$UCSYDIR
 10
0.0
 20
1.0
 30
0.0
  9
$UCSORTHOREF
  2

  9
$UCSORTHOVIEW
 70
     0
  9
$UCSORGTOP
 10
0.0
 20
0.0
 30
0.0
  9
$UCSORGBOTTOM
 10
0.0
 20
0.0
 30
0.0
  9
$UCSORGLEFT
 10
0.0
 20
0.0
 30
0.0
  9
$UCSORGRIGHT
 10
0.0
 20
0.0
 30
0.0
  9
$UCSORGFRONT
 10
0.0
 20
0.0
 30
0.0
  9
$UCSORGBACK
 10
0.0
 20
0.0
 30
0.0
  9
$PUCSBASE
  2

  9
$PUCSNAME
  2

  9
$PUCSORG
 10
0.0
 20
0.0
 30
0.0
  9
$PUCSXDIR
 10
1.0
 20
0.0
 30
0.0
  9
$PUCSYDIR
 10
0.0
 20
1.0
 30
0.0
  9
$PUCSORTHOREF
  2

  9
$PUCSORTHOVIEW
 70
     0
  9
$PUCSORGTOP
 10
0.0
 20
0.0
 30
0.0
  9
$PUCSORGBOTTOM
 10
0.0
 20
0.0
 30
0.0
  9
$PUCSORGLEFT
 10
0.0
 20
0.0
 30
0.0
  9
$PUCSORGRIGHT
 10
0.0
 20
0.0
 30
0.0
  9
$PUCSORGFRONT
 10
0.0
 20
0.0
 30
0.0
  9
$PUCSORGBACK
 10
0.0
 20
0.0
 30
0.0
  9
$USERI1
 70
     0
  9
$USERI2
 70
     0
  9
$USERI3
 70
     0
  9
$USERI4
 70
     0
  9
$USERI5
 70
     0
  9
$USERR1
 40
0.0
  9
$USERR2
 40
0.0
  9
$USERR3
 40
0.0
  9
$USERR4
 40
0.0
  9
$USERR5
 40
0.0
  9
$WORLDVIEW
 70
     1
  9
$SHADEDGE
 70
     3
  9
$SHADEDIF
 70
    70
  9
$TILEMODE
 70
     1
  9
$MAXACTVP
 70
    64
  9
$PINSBASE
 10
0.0
 20
0.0
 30
0.0
  9
$PLIMCHECK
 70
     0
  9
$PEXTMIN
 10
1.000000000000000E+20
 20
1.000000000000000E+20
 30
1.000000000000000E+20
  9
$PEXTMAX
 10
-1.000000000000000E+20
 20
-1.000000000000000E+20
 30
-1.000000000000000E+20
  9
$PLIMMIN
 10
0.0
 20
0.0
  9
$PLIMMAX
 10
12.0
 20
9.0
  9
$UNITMODE
 70
     0
  9
$VISRETAIN
 70
     1
  9
$PLINEGEN
 70
     0
  9
$PSLTSCALE
 70
     1
  9
$TREEDEPTH
 70
  3020
  9
$CMLSTYLE
  2
Standard
  9
$CMLJUST
 70
     0
  9
$CMLSCALE
 40
1.0
  9
$PROXYGRAPHICS
 70
     1
  9
$MEASUREMENT
 70
     0
  9
$CELWEIGHT
370
    -1
  9
$ENDCAPS
280
     0
  9
$JOINSTYLE
280
     0
  9
$LWDISPLAY
290
     0
  9
$INSUNITS
 70
     0
  9
$HYPERLINKBASE
  1

  9
$STYLESHEET
  1

  9
$XEDIT
290
     1
  9
$CEPSNTYPE
380
     0
  9
$PSTYLEMODE
290
     1
  9
$FINGERPRINTGUID
  2
{82C08EE2-4B0B-11D7-9C19-0040267F10D4}
  9
$VERSIONGUID
  2
{EDCF4E0B-C980-4187-819B-84B97DBA1E57}
  9
$EXTNAMES
290
     1
  9
$PSVPSCALE
 40
0.0
  9
$OLESTARTUP
290
     0
  0
ENDSEC
  0
SECTION
  2
CLASSES
  0
CLASS
  1
ACDBDICTIONARYWDFLT
  2
AcDbDictionaryWithDefault
  3
ObjectDBX Classes
 90
        0
280
     0
281
     0
  0
CLASS
  1
MATERIAL
  2
AcDbMaterial
  3
ObjectDBX Classes
 90
     1153
280
     0
281
     0
  0
CLASS
  1
VISUALSTYLE
  2
AcDbVisualStyle
  3
ObjectDBX Classes
 90
     4095
280
     0
281
     0
  0
CLASS
  1
TABLESTYLE
  2
AcDbTableStyle
  3
ObjectDBX Classes
 90
     4095
280
     0
281
     0
  0
CLASS
  1
SCALE
  2
AcDbScale
  3
ObjectDBX Classes
 90
     1153
280
     0
281
     0
  0
CLASS
  1
MLEADERSTYLE
  2
AcDbMLeaderStyle
  3
ACDB_MLEADERSTYLE_CLASS
 90
     4095
280
     0
281
     0
  0
CLASS
  1
DICTIONARYVAR
  2
AcDbDictionaryVar
  3
ObjectDBX Classes
 90
        0
280
     0
281
     0
  0
CLASS
  1
CELLSTYLEMAP
  2
AcDbCellStyleMap
  3
ObjectDBX Classes
 90
     1152
280
     0
281
     0
  0
CLASS
  1
ACDBPLACEHOLDER
  2
AcDbPlaceHolder
  3
ObjectDBX Classes
 90
        0
280
     0
281
     0
  0
CLASS
  1
LAYOUT
  2
AcDbLayout
  3
ObjectDBX Classes
 90
        0
280
     0
281
     0
  0
ENDSEC
  0
SECTION
  2
TABLES
  0
TABLE
  2
VPORT
  5
2DD
330
0
100
AcDbSymbolTable
 70
     1
  0
VPORT
  5
5B0
330
2DD
100
AcDbSymbolTableRecord
100
AcDbViewportTableRecord
  2
*Active
 70
     0
 10
0.0
 20
0.0
 11
1.0
 21
1.0
 12
143.7557504617726
 22
107.2761327565648
 13
0.0
 23
0.0
 14
1.0
 24
1.0
 15
0.0
 25
0.0
 16
0.0
 26
0.0
 36
1.0
 17
0.0
 27
0.0
 37
0.0
 40
218.3856001032301
 41
1.723964868255959
 42
50.0
 43
0.0
 44
0.0
 50
0.0
 51
0.0
 71
     0
 72
   100
 73
     1
 74
     1
 75
     0
 76
     0
 77
     0
 78
     0
281
     0
 65
     1
110
0.0
120
0.0
130
0.0
111
1.0
121
0.0
131
0.0
112
0.0
122
1.0
132
0.0
 79
     0
146
0.0
  0
ENDTAB
  0
TABLE
  2
LTYPE
  5
2DA
330
0
100
AcDbSymbolTable
 70
     4
  0
LTYPE
  5
2E8
330
2DA
100
AcDbSymbolTableRecord
100
AcDbLinetypeTableRecord
  2
ByBlock
 70
     0
  3

 72
    65
 73
     0
 40
0.0
  0
LTYPE
  5
2E9
330
2DA
100
AcDbSymbolTableRecord
100
AcDbLinetypeTableRecord
  2
ByLayer
 70
     0
  3

 72
    65
 73
     0
 40
0.0
  0
LTYPE
  5
2EA
330
2DA
100
AcDbSymbolTableRecord
100
AcDbLinetypeTableRecord
  2
CONTINUOUS
 70
     0
  3
Solid line
 72
    65
 73
     0
 40
0.0
  0
LTYPE
  5
2F8
330
2DA
100
AcDbSymbolTableRecord
100
AcDbLinetypeTableRecord
  2
LTYPE1
 70
     0
  3
PHANTOM
 72
    65
 73
     6
 40
10.0
 49
7.5
 74
     0
 49
-0.5
 74
     0
 49
0.5
 74
     0
 49
-0.5
 74
     0
 49
0.5
 74
     0
 49
-0.5
 74
     0
  0
LTYPE
  5
2F9
330
2DA
100
AcDbSymbolTableRecord
100
AcDbLinetypeTableRecord
  2
LTYPE2
 70
     0
  3
CENTER
 72
    65
 73
     4
 40
15.0
 49
10.5
 74
     0
 49
-1.5
 74
     0
 49
1.5
 74
     0
 49
-1.5
 74
     0
  0
ENDTAB
  0
TABLE
  2
LAYER
  5
2D7
330
0
100
AcDbSymbolTable
 70
   128
  0
LAYER
  5
2E5
102
{ACAD_XDICTIONARY
360
5FF
102
}
330
2D7
100
AcDbSymbolTableRecord
100
AcDbLayerTableRecord
  2
0
 70
     0
 62
     7
  6
CONTINUOUS
370
    -3
390
2E4
  0
LAYER
  5
2FA
102
{ACAD_XDICTIONARY
360
601
102
}
330
2D7
100
AcDbSymbolTableRecord
100
AcDbLayerTableRecord
  2
1
 70
     0
 62
     7
  6
CONTINUOUS
370
    -3
390
2E4
  0
LAYER
  5
2FB
102
{ACAD_XDICTIONARY
360
603
102
}
330
2D7
100
AcDbSymbolTableRecord
100
AcDbLayerTableRecord
  2
2
 70
     0
 62
     7
  6
CONTINUOUS
370
    -3
390
2E4
  0
LAYER
  5
2FC
102
{ACAD_XDICTIONARY
360
605
102
}
330
2D7
100
AcDbSymbolTableRecord
100
AcDbLayerTableRecord
  2
3
 70
     0
 62
     7
  6
CONTINUOUS
370
    -3
390
2E4
  0
LAYER
  5
2FD
102
{ACAD_XDICTIONARY
360
607
102
}
330
2D7
100
AcDbSymbolTableRecord
100
AcDbLayerTableRecord
  2
4
 70
     0
 62
     7
  6
CONTINUOUS
370
    -3
390
2E4
  0
LAYER
  5
2FE
102
{ACAD_XDICTIONARY
360
609
102
}
330
2D7
100
AcDbSymbolTableRecord
100
AcDbLayerTableRecord
  2
5
 70
     0
 62
     7
  6
CONTINUOUS
370
    -3
390
2E4
  0
LAYER
  5
2FF
102
{ACAD_XDICTIONARY
360
60B
102
}
330
2D7
100
AcDbSymbolTableRecord
100
AcDbLayerTableRecord
  2
6
 70
     0
 62
     7
  6
CONTINUOUS
370
    -3
390
2E4
  0
LAYER
  5
300
102
{ACAD_XDICTIONARY
360
60D
102
}
330
2D7
100
AcDbSymbolTableRecord
100
AcDbLayerTableRecord
  2
7
 70
     0
 62
     7
  6
CONTINUOUS
370
    -3
390
2E4
  0
LAYER
  5
301
102
{ACAD_XDICTIONARY
360
60F
102
}
330
2D7
100
AcDbSymbolTableRecord
100
AcDbLayerTableRecord
  2
8
 70
     0
 62
     7
  6
CONTINUOUS
370
    -3
390
2E4
  0
LAYER
  5
302
102
{ACAD_XDICTIONARY
360
611
102
}
330
2D7
100
AcDbSymbolTableRecord
100
AcDbLayerTableRecord
  2
9
 70
     0
 62
     7
  6
CONTINUOUS
370
    -3
390
2E4
  0
LAYER
  5
303
102
{ACAD_XDICTIONARY
360
613
102
}
330
2D7
100
AcDbSymbolTableRecord
100
AcDbLayerTableRecord
  2
10
 70
     0
 62
     7
  6
CONTINUOUS
370
    -3
390
2E4
  0
LAYER
  5
304
102
{ACAD_XDICTIONARY
360
615
102
}
330
2D7
100
AcDbSymbolTableRecord
100
AcDbLayerTableRecord
  2
11
 70
     0
 62
     7
  6
CONTINUOUS
370
    -3
390
2E4
  0
LAYER
  5
305
102
{ACAD_XDICTIONARY
360
617
102
}
330
2D7
100
AcDbSymbolTableRecord
100
AcDbLayerTableRecord
  2
12
 70
     0
 62
     7
  6
CONTINUOUS
370
    -3
390
2E4
  0
LAYER
  5
306
102
{ACAD_XDICTIONARY
360
619
102
}
330
2D7
100
AcDbSymbolTableRecord
100
AcDbLayerTableRecord
  2
13
 70
     0
 62
     7
  6
CONTINUOUS
370
    -3
390
2E4
  0
LAYER
  5
307
102
{ACAD_XDICTIONARY
360
61B
102
}
330
2D7
100
AcDbSymbolTableRecord
100
AcDbLayerTableRecord
  2
14
 70
     0
 62
     7
  6
CONTINUOUS
370
    -3
390
2E4
  0
LAYER
  5
308
102
{ACAD_XDICTIONARY
360
61D
102
}
330
2D7
100
AcDbSymbolTableRecord
100
AcDbLayerTableRecord
  2
15
 70
     0
 62
     7
  6
CONTINUOUS
370
    -3
390
2E4
  0
LAYER
  5
309
102
{ACAD_XDICTIONARY
360
61F
102
}
330
2D7
100
AcDbSymbolTableRecord
100
AcDbLayerTableRecord
  2
16
 70
     0
 62
     7
  6
CONTINUOUS
370
    -3
390
2E4
  0
LAYER
  5
30A
102
{ACAD_XDICTIONARY
360
621
102
}
330
2D7
100
AcDbSymbolTableRecord
100
AcDbLayerTableRecord
  2
17
 70
     0
 62
     7
  6
CONTINUOUS
370
    -3
390
2E4
  0
LAYER
  5
30B
102
{ACAD_XDICTIONARY
360
623
102
}
330
2D7
100
AcDbSymbolTableRecord
100
AcDbLayerTableRecord
  2
18
 70
     0
 62
     7
  6
CONTINUOUS
370
    -3
390
2E4
  0
LAYER
  5
30C
102
{ACAD_XDICTIONARY
360
625
102
}
330
2D7
100
AcDbSymbolTableRecord
100
AcDbLayerTableRecord
  2
19
 70
     0
 62
     7
  6
CONTINUOUS
370
    -3
390
2E4
  0
LAYER
  5
30D
102
{ACAD_XDICTIONARY
360
627
102
}
330
2D7
100
AcDbSymbolTableRecord
100
AcDbLayerTableRecord
  2
20
 70
     0
 62
     7
  6
CONTINUOUS
370
    -3
390
2E4
  0
LAYER
  5
30E
102
{ACAD_XDICTIONARY
360
629
102
}
330
2D7
100
AcDbSymbolTableRecord
100
AcDbLayerTableRecord
  2
21
 70
     0
 62
     7
  6
CONTINUOUS
370
    -3
390
2E4
  0
LAYER
  5
30F
102
{ACAD_XDICTIONARY
360
62B
102
}
330
2D7
100
AcDbSymbolTableRecord
100
AcDbLayerTableRecord
  2
22
 70
     0
 62
     7
  6
CONTINUOUS
370
    -3
390
2E4
  0
LAYER
  5
310
102
{ACAD_XDICTIONARY
360
62D
102
}
330
2D7
100
AcDbSymbolTableRecord
100
AcDbLayerTableRecord
  2
23
 70
     0
 62
     7
  6
CONTINUOUS
370
    -3
390
2E4
  0
LAYER
  5
311
102
{ACAD_XDICTIONARY
360
62F
102
}
330
2D7
100
AcDbSymbolTableRecord
100
AcDbLayerTableRecord
  2
24
 70
     0
 62
     7
  6
CONTINUOUS
370
    -3
390
2E4
  0
LAYER
  5
312
102
{ACAD_XDICTIONARY
360
631
102
}
330
2D7
100
AcDbSymbolTableRecord
100
AcDbLayerTableRecord
  2
25
 70
     0
 62
     7
  6
CONTINUOUS
370
    -3
390
2E4
  0
LAYER
  5
313
102
{ACAD_XDICTIONARY
360
633
102
}
330
2D7
100
AcDbSymbolTableRecord
100
AcDbLayerTableRecord
  2
26
 70
     0
 62
     7
  6
CONTINUOUS
370
    -3
390
2E4
  0
LAYER
  5
314
102
{ACAD_XDICTIONARY
360
635
102
}
330
2D7
100
AcDbSymbolTableRecord
100
AcDbLayerTableRecord
  2
27
 70
     0
 62
     7
  6
CONTINUOUS
370
    -3
390
2E4
  0
LAYER
  5
315
102
{ACAD_XDICTIONARY
360
637
102
}
330
2D7
100
AcDbSymbolTableRecord
100
AcDbLayerTableRecord
  2
28
 70
     0
 62
     7
  6
CONTINUOUS
370
    -3
390
2E4
  0
LAYER
  5
316
102
{ACAD_XDICTIONARY
360
639
102
}
330
2D7
100
AcDbSymbolTableRecord
100
AcDbLayerTableRecord
  2
29
 70
     0
 62
     7
  6
CONTINUOUS
370
    -3
390
2E4
  0
LAYER
  5
317
102
{ACAD_XDICTIONARY
360
63B
102
}
330
2D7
100
AcDbSymbolTableRecord
100
AcDbLayerTableRecord
  2
30
 70
     0
 62
     7
  6
CONTINUOUS
370
    -3
390
2E4
  0
LAYER
  5
318
102
{ACAD_XDICTIONARY
360
63D
102
}
330
2D7
100
AcDbSymbolTableRecord
100
AcDbLayerTableRecord
  2
31
 70
     0
 62
     7
  6
CONTINUOUS
370
    -3
390
2E4
  0
LAYER
  5
319
102
{ACAD_XDICTIONARY
360
63F
102
}
330
2D7
100
AcDbSymbolTableRecord
100
AcDbLayerTableRecord
  2
32
 70
     0
 62
     7
  6
CONTINUOUS
370
    -3
390
2E4
  0
LAYER
  5
31A
102
{ACAD_XDICTIONARY
360
641
102
}
330
2D7
100
AcDbSymbolTableRecord
100
AcDbLayerTableRecord
  2
33
 70
     0
 62
     7
  6
CONTINUOUS
370
    -3
390
2E4
  0
LAYER
  5
31B
102
{ACAD_XDICTIONARY
360
643
102
}
330
2D7
100
AcDbSymbolTableRecord
100
AcDbLayerTableRecord
  2
34
 70
     0
 62
     7
  6
CONTINUOUS
370
    -3
390
2E4
  0
LAYER
  5
31C
102
{ACAD_XDICTIONARY
360
645
102
}
330
2D7
100
AcDbSymbolTableRecord
100
AcDbLayerTableRecord
  2
35
 70
     0
 62
     7
  6
CONTINUOUS
370
    -3
390
2E4
  0
LAYER
  5
31D
102
{ACAD_XDICTIONARY
360
647
102
}
330
2D7
100
AcDbSymbolTableRecord
100
AcDbLayerTableRecord
  2
36
 70
     0
 62
     7
  6
CONTINUOUS
370
    -3
390
2E4
  0
LAYER
  5
31E
102
{ACAD_XDICTIONARY
360
649
102
}
330
2D7
100
AcDbSymbolTableRecord
100
AcDbLayerTableRecord
  2
37
 70
     0
 62
     7
  6
CONTINUOUS
370
    -3
390
2E4
  0
LAYER
  5
31F
102
{ACAD_XDICTIONARY
360
64B
102
}
330
2D7
100
AcDbSymbolTableRecord
100
AcDbLayerTableRecord
  2
38
 70
     0
 62
     7
  6
CONTINUOUS
370
    -3
390
2E4
  0
LAYER
  5
320
102
{ACAD_XDICTIONARY
360
64D
102
}
330
2D7
100
AcDbSymbolTableRecord
100
AcDbLayerTableRecord
  2
39
 70
     0
 62
     7
  6
CONTINUOUS
370
    -3
390
2E4
  0
LAYER
  5
321
102
{ACAD_XDICTIONARY
360
64F
102
}
330
2D7
100
AcDbSymbolTableRecord
100
AcDbLayerTableRecord
  2
40
 70
     0
 62
     7
  6
CONTINUOUS
370
    -3
390
2E4
  0
LAYER
  5
322
102
{ACAD_XDICTIONARY
360
651
102
}
330
2D7
100
AcDbSymbolTableRecord
100
AcDbLayerTableRecord
  2
41
 70
     0
 62
     7
  6
CONTINUOUS
370
    -3
390
2E4
  0
LAYER
  5
323
102
{ACAD_XDICTIONARY
360
653
102
}
330
2D7
100
AcDbSymbolTableRecord
100
AcDbLayerTableRecord
  2
42
 70
     0
 62
     7
  6
CONTINUOUS
370
    -3
390
2E4
  0
LAYER
  5
324
102
{ACAD_XDICTIONARY
360
655
102
}
330
2D7
100
AcDbSymbolTableRecord
100
AcDbLayerTableRecord
  2
43
 70
     0
 62
     7
  6
CONTINUOUS
370
    -3
390
2E4
  0
LAYER
  5
325
102
{ACAD_XDICTIONARY
360
657
102
}
330
2D7
100
AcDbSymbolTableRecord
100
AcDbLayerTableRecord
  2
44
 70
     0
 62
     7
  6
CONTINUOUS
370
    -3
390
2E4
  0
LAYER
  5
326
102
{ACAD_XDICTIONARY
360
659
102
}
330
2D7
100
AcDbSymbolTableRecord
100
AcDbLayerTableRecord
  2
45
 70
     0
 62
     7
  6
CONTINUOUS
370
    -3
390
2E4
  0
LAYER
  5
327
102
{ACAD_XDICTIONARY
360
65B
102
}
330
2D7
100
AcDbSymbolTableRecord
100
AcDbLayerTableRecord
  2
46
 70
     0
 62
     7
  6
CONTINUOUS
370
    -3
390
2E4
  0
LAYER
  5
328
102
{ACAD_XDICTIONARY
360
65D
102
}
330
2D7
100
AcDbSymbolTableRecord
100
AcDbLayerTableRecord
  2
47
 70
     0
 62
     7
  6
CONTINUOUS
370
    -3
390
2E4
  0
LAYER
  5
329
102
{ACAD_XDICTIONARY
360
65F
102
}
330
2D7
100
AcDbSymbolTableRecord
100
AcDbLayerTableRecord
  2
48
 70
     0
 62
     7
  6
CONTINUOUS
370
    -3
390
2E4
  0
LAYER
  5
32A
102
{ACAD_XDICTIONARY
360
661
102
}
330
2D7
100
AcDbSymbolTableRecord
100
AcDbLayerTableRecord
  2
49
 70
     0
 62
     7
  6
CONTINUOUS
370
    -3
390
2E4
  0
LAYER
  5
32B
102
{ACAD_XDICTIONARY
360
663
102
}
330
2D7
100
AcDbSymbolTableRecord
100
AcDbLayerTableRecord
  2
50
 70
     0
 62
     7
  6
CONTINUOUS
370
    -3
390
2E4
  0
LAYER
  5
32C
102
{ACAD_XDICTIONARY
360
665
102
}
330
2D7
100
AcDbSymbolTableRecord
100
AcDbLayerTableRecord
  2
51
 70
     0
 62
     7
  6
CONTINUOUS
370
    -3
390
2E4
  0
LAYER
  5
32D
102
{ACAD_XDICTIONARY
360
667
102
}
330
2D7
100
AcDbSymbolTableRecord
100
AcDbLayerTableRecord
  2
52
 70
     0
 62
     7
  6
CONTINUOUS
370
    -3
390
2E4
  0
LAYER
  5
32E
102
{ACAD_XDICTIONARY
360
669
102
}
330
2D7
100
AcDbSymbolTableRecord
100
AcDbLayerTableRecord
  2
53
 70
     0
 62
     7
  6
CONTINUOUS
370
    -3
390
2E4
  0
LAYER
  5
32F
102
{ACAD_XDICTIONARY
360
66B
102
}
330
2D7
100
AcDbSymbolTableRecord
100
AcDbLayerTableRecord
  2
54
 70
     0
 62
     7
  6
CONTINUOUS
370
    -3
390
2E4
  0
LAYER
  5
330
102
{ACAD_XDICTIONARY
360
66D
102
}
330
2D7
100
AcDbSymbolTableRecord
100
AcDbLayerTableRecord
  2
55
 70
     0
 62
     7
  6
CONTINUOUS
370
    -3
390
2E4
  0
LAYER
  5
331
102
{ACAD_XDICTIONARY
360
66F
102
}
330
2D7
100
AcDbSymbolTableRecord
100
AcDbLayerTableRecord
  2
56
 70
     0
 62
     7
  6
CONTINUOUS
370
    -3
390
2E4
  0
LAYER
  5
332
102
{ACAD_XDICTIONARY
360
671
102
}
330
2D7
100
AcDbSymbolTableRecord
100
AcDbLayerTableRecord
  2
57
 70
     0
 62
     7
  6
CONTINUOUS
370
    -3
390
2E4
  0
LAYER
  5
333
102
{ACAD_XDICTIONARY
360
673
102
}
330
2D7
100
AcDbSymbolTableRecord
100
AcDbLayerTableRecord
  2
58
 70
     0
 62
     7
  6
CONTINUOUS
370
    -3
390
2E4
  0
LAYER
  5
334
102
{ACAD_XDICTIONARY
360
675
102
}
330
2D7
100
AcDbSymbolTableRecord
100
AcDbLayerTableRecord
  2
59
 70
     0
 62
     7
  6
CONTINUOUS
370
    -3
390
2E4
  0
LAYER
  5
335
102
{ACAD_XDICTIONARY
360
677
102
}
330
2D7
100
AcDbSymbolTableRecord
100
AcDbLayerTableRecord
  2
60
 70
     0
 62
     7
  6
CONTINUOUS
370
    -3
390
2E4
  0
LAYER
  5
336
102
{ACAD_XDICTIONARY
360
679
102
}
330
2D7
100
AcDbSymbolTableRecord
100
AcDbLayerTableRecord
  2
61
 70
     0
 62
     7
  6
CONTINUOUS
370
    -3
390
2E4
  0
LAYER
  5
337
102
{ACAD_XDICTIONARY
360
67B
102
}
330
2D7
100
AcDbSymbolTableRecord
100
AcDbLayerTableRecord
  2
62
 70
     0
 62
     7
  6
CONTINUOUS
370
    -3
390
2E4
  0
LAYER
  5
338
102
{ACAD_XDICTIONARY
360
67D
102
}
330
2D7
100
AcDbSymbolTableRecord
100
AcDbLayerTableRecord
  2
63
 70
     0
 62
     7
  6
CONTINUOUS
370
    -3
390
2E4
  0
LAYER
  5
339
102
{ACAD_XDICTIONARY
360
67F
102
}
330
2D7
100
AcDbSymbolTableRecord
100
AcDbLayerTableRecord
  2
64
 70
     0
 62
     7
  6
CONTINUOUS
370
    -3
390
2E4
  0
LAYER
  5
33A
102
{ACAD_XDICTIONARY
360
681
102
}
330
2D7
100
AcDbSymbolTableRecord
100
AcDbLayerTableRecord
  2
65
 70
     0
 62
     7
  6
CONTINUOUS
370
    -3
390
2E4
  0
LAYER
  5
33B
102
{ACAD_XDICTIONARY
360
683
102
}
330
2D7
100
AcDbSymbolTableRecord
100
AcDbLayerTableRecord
  2
66
 70
     0
 62
     7
  6
CONTINUOUS
370
    -3
390
2E4
  0
LAYER
  5
33C
102
{ACAD_XDICTIONARY
360
685
102
}
330
2D7
100
AcDbSymbolTableRecord
100
AcDbLayerTableRecord
  2
67
 70
     0
 62
     7
  6
CONTINUOUS
370
    -3
390
2E4
  0
LAYER
  5
33D
102
{ACAD_XDICTIONARY
360
687
102
}
330
2D7
100
AcDbSymbolTableRecord
100
AcDbLayerTableRecord
  2
68
 70
     0
 62
     7
  6
CONTINUOUS
370
    -3
390
2E4
  0
LAYER
  5
33E
102
{ACAD_XDICTIONARY
360
689
102
}
330
2D7
100
AcDbSymbolTableRecord
100
AcDbLayerTableRecord
  2
69
 70
     0
 62
     7
  6
CONTINUOUS
370
    -3
390
2E4
  0
LAYER
  5
33F
102
{ACAD_XDICTIONARY
360
68B
102
}
330
2D7
100
AcDbSymbolTableRecord
100
AcDbLayerTableRecord
  2
70
 70
     0
 62
     7
  6
CONTINUOUS
370
    -3
390
2E4
  0
LAYER
  5
340
102
{ACAD_XDICTIONARY
360
68D
102
}
330
2D7
100
AcDbSymbolTableRecord
100
AcDbLayerTableRecord
  2
71
 70
     0
 62
     7
  6
CONTINUOUS
370
    -3
390
2E4
  0
LAYER
  5
341
102
{ACAD_XDICTIONARY
360
68F
102
}
330
2D7
100
AcDbSymbolTableRecord
100
AcDbLayerTableRecord
  2
72
 70
     0
 62
     7
  6
CONTINUOUS
370
    -3
390
2E4
  0
LAYER
  5
342
102
{ACAD_XDICTIONARY
360
691
102
}
330
2D7
100
AcDbSymbolTableRecord
100
AcDbLayerTableRecord
  2
73
 70
     0
 62
     7
  6
CONTINUOUS
370
    -3
390
2E4
  0
LAYER
  5
343
102
{ACAD_XDICTIONARY
360
693
102
}
330
2D7
100
AcDbSymbolTableRecord
100
AcDbLayerTableRecord
  2
74
 70
     0
 62
     7
  6
CONTINUOUS
370
    -3
390
2E4
  0
LAYER
  5
344
102
{ACAD_XDICTIONARY
360
695
102
}
330
2D7
100
AcDbSymbolTableRecord
100
AcDbLayerTableRecord
  2
75
 70
     0
 62
     7
  6
CONTINUOUS
370
    -3
390
2E4
  0
LAYER
  5
345
102
{ACAD_XDICTIONARY
360
697
102
}
330
2D7
100
AcDbSymbolTableRecord
100
AcDbLayerTableRecord
  2
76
 70
     0
 62
     7
  6
CONTINUOUS
370
    -3
390
2E4
  0
LAYER
  5
346
102
{ACAD_XDICTIONARY
360
699
102
}
330
2D7
100
AcDbSymbolTableRecord
100
AcDbLayerTableRecord
  2
77
 70
     0
 62
     7
  6
CONTINUOUS
370
    -3
390
2E4
  0
LAYER
  5
347
102
{ACAD_XDICTIONARY
360
69B
102
}
330
2D7
100
AcDbSymbolTableRecord
100
AcDbLayerTableRecord
  2
78
 70
     0
 62
     7
  6
CONTINUOUS
370
    -3
390
2E4
  0
LAYER
  5
348
102
{ACAD_XDICTIONARY
360
69D
102
}
330
2D7
100
AcDbSymbolTableRecord
100
AcDbLayerTableRecord
  2
79
 70
     0
 62
     7
  6
CONTINUOUS
370
    -3
390
2E4
  0
LAYER
  5
349
102
{ACAD_XDICTIONARY
360
69F
102
}
330
2D7
100
AcDbSymbolTableRecord
100
AcDbLayerTableRecord
  2
80
 70
     0
 62
     7
  6
CONTINUOUS
370
    -3
390
2E4
  0
LAYER
  5
34A
102
{ACAD_XDICTIONARY
360
6A1
102
}
330
2D7
100
AcDbSymbolTableRecord
100
AcDbLayerTableRecord
  2
81
 70
     0
 62
     7
  6
CONTINUOUS
370
    -3
390
2E4
  0
LAYER
  5
34B
102
{ACAD_XDICTIONARY
360
6A3
102
}
330
2D7
100
AcDbSymbolTableRecord
100
AcDbLayerTableRecord
  2
82
 70
     0
 62
     7
  6
CONTINUOUS
370
    -3
390
2E4
  0
LAYER
  5
34C
102
{ACAD_XDICTIONARY
360
6A5
102
}
330
2D7
100
AcDbSymbolTableRecord
100
AcDbLayerTableRecord
  2
83
 70
     0
 62
     7
  6
CONTINUOUS
370
    -3
390
2E4
  0
LAYER
  5
34D
102
{ACAD_XDICTIONARY
360
6A7
102
}
330
2D7
100
AcDbSymbolTableRecord
100
AcDbLayerTableRecord
  2
84
 70
     0
 62
     7
  6
CONTINUOUS
370
    -3
390
2E4
  0
LAYER
  5
34E
102
{ACAD_XDICTIONARY
360
6A9
102
}
330
2D7
100
AcDbSymbolTableRecord
100
AcDbLayerTableRecord
  2
85
 70
     0
 62
     7
  6
CONTINUOUS
370
    -3
390
2E4
  0
LAYER
  5
34F
102
{ACAD_XDICTIONARY
360
6AB
102
}
330
2D7
100
AcDbSymbolTableRecord
100
AcDbLayerTableRecord
  2
86
 70
     0
 62
     7
  6
CONTINUOUS
370
    -3
390
2E4
  0
LAYER
  5
350
102
{ACAD_XDICTIONARY
360
6AD
102
}
330
2D7
100
AcDbSymbolTableRecord
100
AcDbLayerTableRecord
  2
87
 70
     0
 62
     7
  6
CONTINUOUS
370
    -3
390
2E4
  0
LAYER
  5
351
102
{ACAD_XDICTIONARY
360
6AF
102
}
330
2D7
100
AcDbSymbolTableRecord
100
AcDbLayerTableRecord
  2
88
 70
     0
 62
     7
  6
CONTINUOUS
370
    -3
390
2E4
  0
LAYER
  5
352
102
{ACAD_XDICTIONARY
360
6B1
102
}
330
2D7
100
AcDbSymbolTableRecord
100
AcDbLayerTableRecord
  2
89
 70
     0
 62
     7
  6
CONTINUOUS
370
    -3
390
2E4
  0
LAYER
  5
353
102
{ACAD_XDICTIONARY
360
6B3
102
}
330
2D7
100
AcDbSymbolTableRecord
100
AcDbLayerTableRecord
  2
90
 70
     0
 62
     7
  6
CONTINUOUS
370
    -3
390
2E4
  0
LAYER
  5
354
102
{ACAD_XDICTIONARY
360
6B5
102
}
330
2D7
100
AcDbSymbolTableRecord
100
AcDbLayerTableRecord
  2
91
 70
     0
 62
     7
  6
CONTINUOUS
370
    -3
390
2E4
  0
LAYER
  5
355
102
{ACAD_XDICTIONARY
360
6B7
102
}
330
2D7
100
AcDbSymbolTableRecord
100
AcDbLayerTableRecord
  2
92
 70
     0
 62
     7
  6
CONTINUOUS
370
    -3
390
2E4
  0
LAYER
  5
356
102
{ACAD_XDICTIONARY
360
6B9
102
}
330
2D7
100
AcDbSymbolTableRecord
100
AcDbLayerTableRecord
  2
93
 70
     0
 62
     7
  6
CONTINUOUS
370
    -3
390
2E4
  0
LAYER
  5
357
102
{ACAD_XDICTIONARY
360
6BB
102
}
330
2D7
100
AcDbSymbolTableRecord
100
AcDbLayerTableRecord
  2
94
 70
     0
 62
     7
  6
CONTINUOUS
370
    -3
390
2E4
  0
LAYER
  5
358
102
{ACAD_XDICTIONARY
360
6BD
102
}
330
2D7
100
AcDbSymbolTableRecord
100
AcDbLayerTableRecord
  2
95
 70
     0
 62
     7
  6
CONTINUOUS
370
    -3
390
2E4
  0
LAYER
  5
359
102
{ACAD_XDICTIONARY
360
6BF
102
}
330
2D7
100
AcDbSymbolTableRecord
100
AcDbLayerTableRecord
  2
96
 70
     0
 62
     7
  6
CONTINUOUS
370
    -3
390
2E4
  0
LAYER
  5
35A
102
{ACAD_XDICTIONARY
360
6C1
102
}
330
2D7
100
AcDbSymbolTableRecord
100
AcDbLayerTableRecord
  2
97
 70
     0
 62
     7
  6
CONTINUOUS
370
    -3
390
2E4
  0
LAYER
  5
35B
102
{ACAD_XDICTIONARY
360
6C3
102
}
330
2D7
100
AcDbSymbolTableRecord
100
AcDbLayerTableRecord
  2
98
 70
     0
 62
     7
  6
CONTINUOUS
370
    -3
390
2E4
  0
LAYER
  5
35C
102
{ACAD_XDICTIONARY
360
6C5
102
}
330
2D7
100
AcDbSymbolTableRecord
100
AcDbLayerTableRecord
  2
99
 70
     0
 62
     7
  6
CONTINUOUS
370
    -3
390
2E4
  0
LAYER
  5
35D
102
{ACAD_XDICTIONARY
360
6C7
102
}
330
2D7
100
AcDbSymbolTableRecord
100
AcDbLayerTableRecord
  2
100
 70
     0
 62
     7
  6
CONTINUOUS
370
    -3
390
2E4
  0
LAYER
  5
35E
102
{ACAD_XDICTIONARY
360
6C9
102
}
330
2D7
100
AcDbSymbolTableRecord
100
AcDbLayerTableRecord
  2
101
 70
     0
 62
     7
  6
CONTINUOUS
370
    -3
390
2E4
  0
LAYER
  5
35F
102
{ACAD_XDICTIONARY
360
6CB
102
}
330
2D7
100
AcDbSymbolTableRecord
100
AcDbLayerTableRecord
  2
102
 70
     0
 62
     7
  6
CONTINUOUS
370
    -3
390
2E4
  0
LAYER
  5
360
102
{ACAD_XDICTIONARY
360
6CD
102
}
330
2D7
100
AcDbSymbolTableRecord
100
AcDbLayerTableRecord
  2
103
 70
     0
 62
     7
  6
CONTINUOUS
370
    -3
390
2E4
  0
LAYER
  5
361
102
{ACAD_XDICTIONARY
360
6CF
102
}
330
2D7
100
AcDbSymbolTableRecord
100
AcDbLayerTableRecord
  2
104
 70
     0
 62
     7
  6
CONTINUOUS
370
    -3
390
2E4
  0
LAYER
  5
362
102
{ACAD_XDICTIONARY
360
6D1
102
}
330
2D7
100
AcDbSymbolTableRecord
100
AcDbLayerTableRecord
  2
105
 70
     0
 62
     7
  6
CONTINUOUS
370
    -3
390
2E4
  0
LAYER
  5
363
102
{ACAD_XDICTIONARY
360
6D3
102
}
330
2D7
100
AcDbSymbolTableRecord
100
AcDbLayerTableRecord
  2
106
 70
     0
 62
     7
  6
CONTINUOUS
370
    -3
390
2E4
  0
LAYER
  5
364
102
{ACAD_XDICTIONARY
360
6D5
102
}
330
2D7
100
AcDbSymbolTableRecord
100
AcDbLayerTableRecord
  2
107
 70
     0
 62
     7
  6
CONTINUOUS
370
    -3
390
2E4
  0
LAYER
  5
365
102
{ACAD_XDICTIONARY
360
6D7
102
}
330
2D7
100
AcDbSymbolTableRecord
100
AcDbLayerTableRecord
  2
108
 70
     0
 62
     7
  6
CONTINUOUS
370
    -3
390
2E4
  0
LAYER
  5
366
102
{ACAD_XDICTIONARY
360
6D9
102
}
330
2D7
100
AcDbSymbolTableRecord
100
AcDbLayerTableRecord
  2
109
 70
     0
 62
     7
  6
CONTINUOUS
370
    -3
390
2E4
  0
LAYER
  5
367
102
{ACAD_XDICTIONARY
360
6DB
102
}
330
2D7
100
AcDbSymbolTableRecord
100
AcDbLayerTableRecord
  2
110
 70
     0
 62
     7
  6
CONTINUOUS
370
    -3
390
2E4
  0
LAYER
  5
368
102
{ACAD_XDICTIONARY
360
6DD
102
}
330
2D7
100
AcDbSymbolTableRecord
100
AcDbLayerTableRecord
  2
111
 70
     0
 62
     7
  6
CONTINUOUS
370
    -3
390
2E4
  0
LAYER
  5
369
102
{ACAD_XDICTIONARY
360
6DF
102
}
330
2D7
100
AcDbSymbolTableRecord
100
AcDbLayerTableRecord
  2
112
 70
     0
 62
     7
  6
CONTINUOUS
370
    -3
390
2E4
  0
LAYER
  5
36A
102
{ACAD_XDICTIONARY
360
6E1
102
}
330
2D7
100
AcDbSymbolTableRecord
100
AcDbLayerTableRecord
  2
113
 70
     0
 62
     7
  6
CONTINUOUS
370
    -3
390
2E4
  0
LAYER
  5
36B
102
{ACAD_XDICTIONARY
360
6E3
102
}
330
2D7
100
AcDbSymbolTableRecord
100
AcDbLayerTableRecord
  2
114
 70
     0
 62
     7
  6
CONTINUOUS
370
    -3
390
2E4
  0
LAYER
  5
36C
102
{ACAD_XDICTIONARY
360
6E5
102
}
330
2D7
100
AcDbSymbolTableRecord
100
AcDbLayerTableRecord
  2
115
 70
     0
 62
     7
  6
CONTINUOUS
370
    -3
390
2E4
  0
LAYER
  5
36D
102
{ACAD_XDICTIONARY
360
6E7
102
}
330
2D7
100
AcDbSymbolTableRecord
100
AcDbLayerTableRecord
  2
116
 70
     0
 62
     7
  6
CONTINUOUS
370
    -3
390
2E4
  0
LAYER
  5
36E
102
{ACAD_XDICTIONARY
360
6E9
102
}
330
2D7
100
AcDbSymbolTableRecord
100
AcDbLayerTableRecord
  2
117
 70
     0
 62
     7
  6
CONTINUOUS
370
    -3
390
2E4
  0
LAYER
  5
36F
102
{ACAD_XDICTIONARY
360
6EB
102
}
330
2D7
100
AcDbSymbolTableRecord
100
AcDbLayerTableRecord
  2
118
 70
     0
 62
     7
  6
CONTINUOUS
370
    -3
390
2E4
  0
LAYER
  5
370
102
{ACAD_XDICTIONARY
360
6ED
102
}
330
2D7
100
AcDbSymbolTableRecord
100
AcDbLayerTableRecord
  2
119
 70
     0
 62
     7
  6
CONTINUOUS
370
    -3
390
2E4
  0
LAYER
  5
371
102
{ACAD_XDICTIONARY
360
6EF
102
}
330
2D7
100
AcDbSymbolTableRecord
100
AcDbLayerTableRecord
  2
120
 70
     0
 62
     7
  6
CONTINUOUS
370
    -3
390
2E4
  0
LAYER
  5
372
102
{ACAD_XDICTIONARY
360
6F1
102
}
330
2D7
100
AcDbSymbolTableRecord
100
AcDbLayerTableRecord
  2
121
 70
     0
 62
     7
  6
CONTINUOUS
370
    -3
390
2E4
  0
LAYER
  5
373
102
{ACAD_XDICTIONARY
360
6F3
102
}
330
2D7
100
AcDbSymbolTableRecord
100
AcDbLayerTableRecord
  2
122
 70
     0
 62
     7
  6
CONTINUOUS
370
    -3
390
2E4
  0
LAYER
  5
374
102
{ACAD_XDICTIONARY
360
6F5
102
}
330
2D7
100
AcDbSymbolTableRecord
100
AcDbLayerTableRecord
  2
123
 70
     0
 62
     7
  6
CONTINUOUS
370
    -3
390
2E4
  0
LAYER
  5
375
102
{ACAD_XDICTIONARY
360
6F7
102
}
330
2D7
100
AcDbSymbolTableRecord
100
AcDbLayerTableRecord
  2
124
 70
     0
 62
     7
  6
CONTINUOUS
370
    -3
390
2E4
  0
LAYER
  5
376
102
{ACAD_XDICTIONARY
360
6F9
102
}
330
2D7
100
AcDbSymbolTableRecord
100
AcDbLayerTableRecord
  2
125
 70
     0
 62
     7
  6
CONTINUOUS
370
    -3
390
2E4
  0
LAYER
  5
377
102
{ACAD_XDICTIONARY
360
6FB
102
}
330
2D7
100
AcDbSymbolTableRecord
100
AcDbLayerTableRecord
  2
126
 70
     0
 62
     7
  6
CONTINUOUS
370
    -3
390
2E4
  0
LAYER
  5
378
102
{ACAD_XDICTIONARY
360
6FD
102
}
330
2D7
100
AcDbSymbolTableRecord
100
AcDbLayerTableRecord
  2
127
 70
     0
 62
     7
  6
CONTINUOUS
370
    -3
390
2E4
  0
ENDTAB
  0
TABLE
  2
STYLE
  5
2D8
330
0
100
AcDbSymbolTable
 70
     6
  0
STYLE
  5
2E6
330
2D8
100
AcDbSymbolTableRecord
100
AcDbTextStyleTableRecord
  2
STANDARD
 70
     0
 40
0.0
 41
1.0
 50
0.0
 71
     0
 42
0.2
  3
txt
  4

  0
STYLE
  5
379
330
2D8
100
AcDbSymbolTableRecord
100
AcDbTextStyleTableRecord
  2
KANJI0
 70
     0
 40
2.5
 41
0.8
 50
0.0
 71
     0
 42
2.5
  3
txt
  4
bigfont
  0
STYLE
  5
37A
330
2D8
100
AcDbSymbolTableRecord
100
AcDbTextStyleTableRecord
  2
KANJI1
 70
     0
 40
2.0
 41
0.85
 50
0.0
 71
     0
 42
2.0
  3
txt
  4
bigfont
  0
STYLE
  5
37B
330
2D8
100
AcDbSymbolTableRecord
100
AcDbTextStyleTableRecord
  2
KANJI2
 70
     0
 40
1.5
 41
0.8666666670000001
 50
0.0
 71
     0
 42
1.5
  3
txt
  4
bigfont
  0
STYLE
  5
37C
330
2D8
100
AcDbSymbolTableRecord
100
AcDbTextStyleTableRecord
  2
KANJI3
 70
     0
 40
3.0
 41
0.8
 50
0.0
 71
     0
 42
3.0
  3
txt
  4
bigfont
  0
STYLE
  5
37D
330
2D8
100
AcDbSymbolTableRecord
100
AcDbTextStyleTableRecord
  2
KANJI4
 70
     0
 40
2.116666999999999
 41
1.0
 50
0.0
 71
     0
 42
2.116666999999999
  3
txt
  4
bigfont
  0
ENDTAB
  0
TABLE
  2
VIEW
  5
2DB
330
0
100
AcDbSymbolTable
 70
     0
  0
ENDTAB
  0
TABLE
  2
UCS
  5
2DC
330
0
100
AcDbSymbolTable
 70
     0
  0
ENDTAB
  0
TABLE
  2
APPID
  5
2DE
330
0
100
AcDbSymbolTable
 70
     3
  0
APPID
  5
2E7
330
2DE
100
AcDbSymbolTableRecord
100
AcDbRegAppTableRecord
  2
ACAD
 70
     0
  0
APPID
  5
751
330
2DE
100
AcDbSymbolTableRecord
100
AcDbRegAppTableRecord
  2
ACAD_MLEADERVER
 70
     0
  0
APPID
  5
79C
330
2DE
100
AcDbSymbolTableRecord
100
AcDbRegAppTableRecord
  2
ACAD_EXEMPT_FROM_CAD_STANDARDS
 70
     0
  0
ENDTAB
  0
TABLE
  2
DIMSTYLE
  5
2DF
330
0
100
AcDbSymbolTable
 70
     2
100
AcDbDimStyleTable
 71
     1
340
37E
  0
DIMSTYLE
105
37E
330
2DF
100
AcDbSymbolTableRecord
100
AcDbDimStyleTableRecord
  2
STANDARD
 70
     0
279
     2
340
2E6
  0
ENDTAB
  0
TABLE
  2
BLOCK_RECORD
  5
2D6
330
0
100
AcDbSymbolTable
 70
     3
  0
BLOCK_RECORD
  5
2F3
330
2D6
100
AcDbSymbolTableRecord
100
AcDbBlockTableRecord
  2
*Model_Space
340
2F6
  0
BLOCK_RECORD
  5
2EF
330
2D6
100
AcDbSymbolTableRecord
100
AcDbBlockTableRecord
  2
*Paper_Space
340
2F2
  0
BLOCK_RECORD
  5
381
330
2D6
100
AcDbSymbolTableRecord
100
AcDbBlockTableRecord
  2
$MODEL_SPACE
340
0
  0
BLOCK_RECORD
  5
384
330
2D6
100
AcDbSymbolTableRecord
100
AcDbBlockTableRecord
  2
$PAPER_SPACE
340
0
  0
ENDTAB
  0
ENDSEC
  0
SECTION
  2
BLOCKS
  0
BLOCK
  5
2F4
330
2F3
100
AcDbEntity
  8
0
100
AcDbBlockBegin
  2
*Model_Space
 70
     0
 10
0.0
 20
0.0
 30
0.0
  3
*Model_Space
  1

  0
ENDBLK
  5
2F5
330
2F3
100
AcDbEntity
  8
0
100
AcDbBlockEnd
  0
BLOCK
  5
2F0
330
2EF
100
AcDbEntity
 67
     1
  8
0
100
AcDbBlockBegin
  2
*Paper_Space
 70
     0
 10
0.0
 20
0.0
 30
0.0
  3
*Paper_Space
  1

  0
ENDBLK
  5
2F1
330
2EF
100
AcDbEntity
 67
     1
  8
0
100
AcDbBlockEnd
  0
BLOCK
  5
382
330
381
100
AcDbEntity
  8
0
100
AcDbBlockBegin
  2
$MODEL_SPACE
 70
     0
 10
0.0
 20
0.0
 30
0.0
  3
$MODEL_SPACE
  1

  0
ENDBLK
  5
383
330
381
100
AcDbEntity
  8
0
100
AcDbBlockEnd
  0
BLOCK
  5
385
330
384
100
AcDbEntity
  8
0
100
AcDbBlockBegin
  2
$PAPER_SPACE
 70
     0
 10
0.0
 20
0.0
 30
0.0
  3
$PAPER_SPACE
  1

  0
ENDBLK
  5
386
330
384
100
AcDbEntity
  8
0
100
AcDbBlockEnd
  0
ENDSEC
  0
SECTION
  2
ENTITIES
  0
LINE
  5
389
330
2F3
100
AcDbEntity
  8
0
  6
Continuous
 62
     3
100
AcDbLine
 10
22.0
 20
26.2
 30
0.0
 11
23.931851653
 21
25.68236191
 31
0.0
  0
LINE
  5
38A
330
2F3
100
AcDbEntity
  8
0
  6
Continuous
 62
     3
100
AcDbLine
 10
22.0
 20
26.2
 30
0.0
 11
23.931851653
 21
26.71763809
 31
0.0
  0
LINE
  5
38B
330
2F3
100
AcDbEntity
  8
0
  6
Continuous
 62
     1
100
AcDbLine
 10
118.0
 20
82.2
 30
0.0
 11
22.0
 21
82.2
 31
0.0
  0
LINE
  5
38C
330
2F3
100
AcDbEntity
  8
0
  6
Continuous
 62
     1
100
AcDbLine
 10
22.0
 20
82.2
 30
0.0
 11
22.0
 21
34.2
 31
0.0
  0
LINE
  5
38D
330
2F3
100
AcDbEntity
  8
0
  6
Continuous
 62
     1
100
AcDbLine
 10
22.0
 20
34.2
 30
0.0
 11
118.0
 21
34.2
 31
0.0
  0
LINE
  5
38E
330
2F3
100
AcDbEntity
  8
0
  6
Continuous
 62
     1
100
AcDbLine
 10
118.0
 20
34.2
 30
0.0
 11
118.0
 21
82.2
 31
0.0
  0
LINE
  5
38F
330
2F3
100
AcDbEntity
  8
0
  6
Continuous
 62
     1
100
AcDbLine
 10
118.0
 20
81.69999999999998
 30
0.0
 11
22.0
 21
81.69999999999998
 31
0.0
  0
LINE
  5
390
330
2F3
100
AcDbEntity
  8
0
  6
Continuous
 62
     1
100
AcDbLine
 10
22.0
 20
34.70000000000001
 30
0.0
 11
118.0
 21
34.70000000000001
 31
0.0
  0
LINE
  5
391
330
2F3
100
AcDbEntity
  8
0
  6
Continuous
 62
     1
100
AcDbLine
 10
70.0
 20
73.7
 30
0.0
 11
25.0
 21
73.7
 31
0.0
  0
LINE
  5
392
330
2F3
100
AcDbEntity
  8
0
  6
Continuous
 62
     1
100
AcDbLine
 10
70.0
 20
73.7
 30
0.0
 11
115.0
 21
73.7
 31
0.0
  0
LINE
  5
393
330
2F3
100
AcDbEntity
  8
0
  6
Continuous
 62
     1
100
AcDbLine
 10
115.0
 20
42.7
 30
0.0
 11
25.0
 21
42.7
 31
0.0
  0
LINE
  5
394
330
2F3
100
AcDbEntity
  8
0
  6
Continuous
 62
     1
100
AcDbLine
 10
25.0
 20
72.2
 30
0.0
 11
115.0
 21
72.2
 31
0.0
  0
LINE
  5
395
330
2F3
100
AcDbEntity
  8
0
  6
Continuous
 62
     1
100
AcDbLine
 10
115.0
 20
44.2
 30
0.0
 11
25.0
 21
44.2
 31
0.0
  0
POINT
  5
396
330
2F3
100
AcDbEntity
  8
0
  6
Continuous
 62
     1
100
AcDbPoint
 10
25.0
 20
44.2
 30
0.0
  0
LINE
  5
397
330
2F3
100
AcDbEntity
  8
0
  6
Continuous
 62
     1
100
AcDbLine
 10
115.0
 20
71.7
 30
0.0
 11
25.0
 21
71.7
 31
0.0
  0
LINE
  5
398
330
2F3
100
AcDbEntity
  8
0
  6
Continuous
 62
     1
100
AcDbLine
 10
115.0
 20
42.7
 30
0.0
 11
115.0
 21
73.7
 31
0.0
  0
LINE
  5
399
330
2F3
100
AcDbEntity
  8
0
  6
Continuous
 62
     1
100
AcDbLine
 10
25.0
 20
73.7
 30
0.0
 11
25.0
 21
42.7
 31
0.0
  0
LINE
  5
39A
330
2F3
100
AcDbEntity
  8
0
  6
Continuous
 62
     1
100
AcDbLine
 10
115.0
 20
44.7
 30
0.0
 11
25.0
 21
44.7
 31
0.0
  0
LINE
  5
39B
330
2F3
100
AcDbEntity
  8
0
  6
Continuous
 62
     1
100
AcDbLine
 10
21.07499999999999
 20
52.2
 30
0.0
 11
21.07499999999999
 21
64.2
 31
0.0
  0
LINE
  5
39C
330
2F3
100
AcDbEntity
  8
0
  6
Continuous
 62
     1
100
AcDbLine
 10
118.965
 20
52.2
 30
0.0
 11
118.965
 21
64.2
 31
0.0
  0
LINE
  5
39D
330
2F3
100
AcDbEntity
  8
0
  6
Continuous
 62
     1
100
AcDbLine
 10
118.965
 20
52.2
 30
0.0
 11
118.0
 21
52.2
 31
0.0
  0
LINE
  5
39E
330
2F3
100
AcDbEntity
  8
0
  6
Continuous
 62
     1
100
AcDbLine
 10
118.965
 20
64.2
 30
0.0
 11
118.0
 21
64.2
 31
0.0
  0
LINE
  5
39F
330
2F3
100
AcDbEntity
  8
0
  6
Continuous
 62
     1
100
AcDbLine
 10
21.07499999999999
 20
52.2
 30
0.0
 11
22.0
 21
52.2
 31
0.0
  0
LINE
  5
3A0
330
2F3
100
AcDbEntity
  8
0
  6
Continuous
 62
     1
100
AcDbLine
 10
21.07499999999999
 20
64.2
 30
0.0
 11
22.0
 21
64.2
 31
0.0
  0
LINE
  5
3A1
330
2F3
100
AcDbEntity
  8
0
  6
Continuous
 62
     1
100
AcDbLine
 10
94.0
 20
49.45
 30
0.0
 11
94.0
 21
66.95
 31
0.0
  0
LINE
  5
3A2
330
2F3
100
AcDbEntity
  8
0
  6
Continuous
 62
     1
100
AcDbLine
 10
94.0
 20
66.95
 30
0.0
 11
46.0
 21
66.95
 31
0.0
  0
LINE
  5
3A3
330
2F3
100
AcDbEntity
  8
0
  6
Continuous
 62
     1
100
AcDbLine
 10
46.0
 20
66.95
 30
0.0
 11
46.0
 21
49.45
 31
0.0
  0
LINE
  5
3A4
330
2F3
100
AcDbEntity
  8
0
  6
Continuous
 62
     1
100
AcDbLine
 10
46.0
 20
49.45
 30
0.0
 11
94.0
 21
49.45
 31
0.0
  0
LINE
  5
3A5
330
2F3
100
AcDbEntity
  8
0
  6
Continuous
 62
     1
100
AcDbLine
 10
75.47681093299998
 20
58.797681093
 30
0.0
 11
73.39559908799998
 21
58.797681093
 31
0.0
  0
LINE
  5
3A6
330
2F3
100
AcDbEntity
  8
0
  6
Continuous
 62
     1
100
AcDbLine
 10
73.30511161699999
 20
57.440369021
 30
0.0
 11
77.82948519199999
 21
57.440369021
 31
0.0
  0
LINE
  5
3A7
330
2F3
100
AcDbEntity
  8
0
  6
Continuous
 62
     1
100
AcDbLine
 10
77.82948519199999
 20
58.978656036
 30
0.0
 11
79.00582232100001
 21
58.07378132100001
 31
0.0
  0
LINE
  5
3A8
330
2F3
100
AcDbEntity
  8
0
  6
Continuous
 62
     1
100
AcDbLine
 10
77.73899772
 20
58.707193622
 30
0.0
 11
78.91533484999998
 21
57.802318907
 31
0.0
  0
LINE
  5
3A9
330
2F3
100
AcDbEntity
  8
0
  6
Continuous
 62
     1
100
AcDbLine
 10
78.91533484999998
 20
57.802318907
 30
0.0
 11
77.64851024899998
 21
57.440369021
 31
0.0
  0
LINE
  5
3AA
330
2F3
100
AcDbEntity
  8
0
  6
Continuous
 62
     1
100
AcDbLine
 10
77.64851024899998
 20
57.168906606
 30
0.0
 11
79.00582232100001
 21
57.53085649199999
 31
0.0
  0
LINE
  5
3AB
330
2F3
100
AcDbEntity
  8
0
  6
Continuous
 62
     1
100
AcDbLine
 10
73.30511161699999
 20
58.797681093
 30
0.0
 11
72.128774487
 21
58.25475626399999
 31
0.0
  0
LINE
  5
3AC
330
2F3
100
AcDbEntity
  8
0
  6
Continuous
 62
     1
100
AcDbLine
 10
72.128774487
 20
58.25475626399999
 30
0.0
 11
73.214624145
 21
57.440369021
 31
0.0
  0
LINE
  5
3AD
330
2F3
100
AcDbEntity
  8
0
  6
Continuous
 62
     1
100
AcDbLine
 10
71.94779954399999
 20
58.435731207
 30
0.0
 11
73.30511161699999
 21
59.159630979
 31
0.0
  0
LINE
  5
3AE
330
2F3
100
AcDbEntity
  8
0
  6
Continuous
 62
     1
100
AcDbLine
 10
77.64851024899998
 20
58.797681093
 30
0.0
 11
75.567298404
 21
58.797681093
 31
0.0
  0
POINT
  5
3AF
330
2F3
100
AcDbEntity
  8
0
  6
Continuous
 62
     1
100
AcDbPoint
 10
78.64387243500002
 20
64.498391798
 30
0.0
  0
LINE
  5
3B0
330
2F3
100
AcDbEntity
  8
0
  6
Continuous
 62
     1
100
AcDbLine
 10
78.37241002099998
 20
63.141079725
 30
0.0
 11
79.277284736
 21
64.22692938299997
 31
0.0
  0
LINE
  5
3B1
330
2F3
100
AcDbEntity
  8
0
  6
Continuous
 62
     1
100
AcDbLine
 10
79.639234622
 20
64.13644191199999
 30
0.0
 11
78.553384964
 21
62.779129839
 31
0.0
  0
LINE
  5
3B2
330
2F3
100
AcDbEntity
  8
0
  6
Continuous
 62
     1
100
AcDbLine
 10
74.11949885999998
 20
63.231567197
 30
0.0
 11
73.30511161699999
 21
64.22692938299997
 31
0.0
  0
LINE
  5
3B3
330
2F3
100
AcDbEntity
  8
0
  6
Continuous
 62
     1
100
AcDbLine
 10
73.938523917
 20
62.869617311
 30
0.0
 11
73.03364920199999
 21
64.04595444
 31
0.0
  0
LINE
  5
3B4
330
2F3
100
AcDbEntity
  8
0
  6
Continuous
 62
     1
100
AcDbLine
 10
73.358838553
 20
59.31798405399999
 30
0.0
 11
73.91307431600001
 21
62.846995443
 31
0.0
  0
LINE
  5
3B5
330
2F3
100
AcDbEntity
  8
0
  6
Continuous
 62
     1
100
AcDbLine
 10
72.943161731
 20
64.020100877
 30
0.0
 11
72.76218678800001
 21
63.864979497
 31
0.0
  0
LINE
  5
3B6
330
2F3
100
AcDbEntity
  8
0
  6
Continuous
 62
     1
100
AcDbLine
 10
73.39559908799998
 20
64.407904326
 30
0.0
 11
73.30511161699999
 21
64.330343636
 31
0.0
  0
LINE
  5
3B7
330
2F3
100
AcDbEntity
  8
0
  6
Continuous
 62
     1
100
AcDbLine
 10
71.88841714100002
 20
58.413109339
 30
0.0
 11
72.668871583
 21
63.751870158
 31
0.0
  0
LINE
  5
3B8
330
2F3
100
AcDbEntity
  8
0
  6
Continuous
 62
     1
100
AcDbLine
 10
74.20998633199999
 20
63.141079725
 30
0.0
 11
78.46289749199998
 21
63.141079725
 31
0.0
  0
LINE
  5
3B9
330
2F3
100
AcDbEntity
  8
0
  6
Continuous
 62
     1
100
AcDbLine
 10
78.41482602300001
 20
62.66602049999999
 30
0.0
 11
77.83796839199999
 21
58.956034168
 31
0.0
  0
LINE
  5
3BA
330
2F3
100
AcDbEntity
  8
0
  6
Continuous
 62
     1
100
AcDbLine
 10
79.729722093
 20
64.14936869299999
 30
0.0
 11
79.910697036
 21
64.04595444
 31
0.0
  0
LINE
  5
3BB
330
2F3
100
AcDbEntity
  8
0
  6
Continuous
 62
     1
100
AcDbLine
 10
79.277284736
 20
64.407904326
 30
0.0
 11
79.367772207
 21
64.35619720000001
 31
0.0
  0
LINE
  5
3BC
330
2F3
100
AcDbEntity
  8
0
  6
Continuous
 62
     1
100
AcDbLine
 10
73.48608656
 20
64.498391798
 30
0.0
 11
79.18679726399999
 21
64.498391798
 31
0.0
  0
LINE
  5
3BD
330
2F3
100
AcDbEntity
  8
0
  6
Continuous
 62
     1
100
AcDbLine
 10
79.94180210399999
 20
64.023332572
 30
0.0
 11
79.082171125
 21
58.051159453
 31
0.0
  0
POINT
  5
3BE
330
2F3
100
AcDbEntity
  8
0
  6
Continuous
 62
     1
100
AcDbPoint
 10
72.30974942999998
 20
51.830145788
 30
0.0
  0
LINE
  5
3BF
330
2F3
100
AcDbEntity
  8
0
  6
Continuous
 62
     1
100
AcDbLine
 10
77.015097948
 20
53.368432803
 30
0.0
 11
78.010460135
 21
52.373070617
 31
0.0
  0
LINE
  5
3C0
330
2F3
100
AcDbEntity
  8
0
  6
Continuous
 62
     1
100
AcDbLine
 10
76.83412300499998
 20
53.18745786
 30
0.0
 11
77.82948519199999
 21
52.192095674
 31
0.0
  0
LINE
  5
3C1
330
2F3
100
AcDbEntity
  8
0
  6
Continuous
 62
     1
100
AcDbLine
 10
71.40487471500001
 20
52.28258314499999
 30
0.0
 11
72.490724373
 21
53.096970389
 31
0.0
  0
LINE
  5
3C2
330
2F3
100
AcDbEntity
  8
0
  6
Continuous
 62
     1
100
AcDbLine
 10
71.344549734
 20
52.192095674
 30
0.0
 11
71.585849658
 21
51.830145788
 31
0.0
  0
LINE
  5
3C3
330
2F3
100
AcDbEntity
  8
0
  6
Continuous
 62
     1
100
AcDbLine
 10
76.83412300499998
 20
53.18745786
 30
0.0
 11
72.490724373
 21
53.18745786
 31
0.0
  0
LINE
  5
3C4
330
2F3
100
AcDbEntity
  8
0
  6
Continuous
 62
     1
100
AcDbLine
 10
78.010460135
 20
52.32279979899999
 30
0.0
 11
78.19143507799998
 21
52.463558088
 31
0.0
  0
LINE
  5
3C5
330
2F3
100
AcDbEntity
  8
0
  6
Continuous
 62
     1
100
AcDbLine
 10
77.37704783399998
 20
51.830145788
 30
0.0
 11
77.82948519199999
 21
52.18204151
 31
0.0
  0
LINE
  5
3C6
330
2F3
100
AcDbEntity
  8
0
  6
Continuous
 62
     1
100
AcDbLine
 10
77.37704783399998
 20
51.830145788
 30
0.0
 11
71.49536218699998
 21
51.830145788
 31
0.0
  0
LINE
  5
3C7
330
2F3
100
AcDbEntity
  8
0
  6
Continuous
 62
     1
100
AcDbLine
 10
79.01430552099999
 20
57.50823462399999
 30
0.0
 11
78.26778388200001
 21
52.44093622
 31
0.0
  0
LINE
  5
3C8
330
2F3
100
AcDbEntity
  8
0
  6
Continuous
 62
     1
100
AcDbLine
 10
77.512779041
 20
57.03317539899999
 30
0.0
 11
77.06034168399999
 21
53.41367653899999
 31
0.0
  0
LINE
  5
3C9
330
2F3
100
AcDbEntity
  8
0
  6
Continuous
 62
     1
100
AcDbLine
 10
86.430432798
 20
58.797681093
 30
0.0
 11
84.34922095300001
 21
58.797681093
 31
0.0
  0
LINE
  5
3CA
330
2F3
100
AcDbEntity
  8
0
  6
Continuous
 62
     1
100
AcDbLine
 10
84.25873348199997
 20
57.440369021
 30
0.0
 11
88.783107057
 21
57.440369021
 31
0.0
  0
LINE
  5
3CB
330
2F3
100
AcDbEntity
  8
0
  6
Continuous
 62
     1
100
AcDbLine
 10
88.783107057
 20
58.978656036
 30
0.0
 11
89.959444186
 21
58.07378132100001
 31
0.0
  0
LINE
  5
3CC
330
2F3
100
AcDbEntity
  8
0
  6
Continuous
 62
     1
100
AcDbLine
 10
88.692619585
 20
58.707193622
 30
0.0
 11
89.86895671499999
 21
57.802318907
 31
0.0
  0
LINE
  5
3CD
330
2F3
100
AcDbEntity
  8
0
  6
Continuous
 62
     1
100
AcDbLine
 10
89.86895671499999
 20
57.802318907
 30
0.0
 11
88.60213211399997
 21
57.440369021
 31
0.0
  0
LINE
  5
3CE
330
2F3
100
AcDbEntity
  8
0
  6
Continuous
 62
     1
100
AcDbLine
 10
88.60213211399997
 20
57.168906606
 30
0.0
 11
89.959444186
 21
57.53085649199999
 31
0.0
  0
LINE
  5
3CF
330
2F3
100
AcDbEntity
  8
0
  6
Continuous
 62
     1
100
AcDbLine
 10
84.25873348199997
 20
58.797681093
 30
0.0
 11
83.08239635200001
 21
58.25475626399999
 31
0.0
  0
LINE
  5
3D0
330
2F3
100
AcDbEntity
  8
0
  6
Continuous
 62
     1
100
AcDbLine
 10
83.08239635200001
 20
58.25475626399999
 30
0.0
 11
84.16824601
 21
57.440369021
 31
0.0
  0
LINE
  5
3D1
330
2F3
100
AcDbEntity
  8
0
  6
Continuous
 62
     1
100
AcDbLine
 10
82.90142140899998
 20
58.435731207
 30
0.0
 11
84.25873348199997
 21
59.159630979
 31
0.0
  0
LINE
  5
3D2
330
2F3
100
AcDbEntity
  8
0
  6
Continuous
 62
     1
100
AcDbLine
 10
88.60213211399997
 20
58.797681093
 30
0.0
 11
86.520920269
 21
58.797681093
 31
0.0
  0
POINT
  5
3D3
330
2F3
100
AcDbEntity
  8
0
  6
Continuous
 62
     1
100
AcDbPoint
 10
89.59749429999998
 20
64.498391798
 30
0.0
  0
LINE
  5
3D4
330
2F3
100
AcDbEntity
  8
0
  6
Continuous
 62
     1
100
AcDbLine
 10
90.59285648700001
 20
64.13644191199999
 30
0.0
 11
89.50700682899997
 21
62.779129839
 31
0.0
  0
LINE
  5
3D5
330
2F3
100
AcDbEntity
  8
0
  6
Continuous
 62
     1
100
AcDbLine
 10
84.892145782
 20
62.869617311
 30
0.0
 11
83.98727106699999
 21
64.04595444
 31
0.0
  0
LINE
  5
3D6
330
2F3
100
AcDbEntity
  8
0
  6
Continuous
 62
     1
100
AcDbLine
 10
84.31246041799999
 20
59.31798405399999
 30
0.0
 11
84.86669618099998
 21
62.846995443
 31
0.0
  0
LINE
  5
3D7
330
2F3
100
AcDbEntity
  8
0
  6
Continuous
 62
     1
100
AcDbLine
 10
83.89678359600003
 20
64.020100877
 30
0.0
 11
83.71580865299998
 21
63.864979497
 31
0.0
  0
LINE
  5
3D8
330
2F3
100
AcDbEntity
  8
0
  6
Continuous
 62
     1
100
AcDbLine
 10
84.34922095300001
 20
64.407904326
 30
0.0
 11
84.25873348199997
 21
64.330343636
 31
0.0
  0
LINE
  5
3D9
330
2F3
100
AcDbEntity
  8
0
  6
Continuous
 62
     1
100
AcDbLine
 10
82.84203900600001
 20
58.413109339
 30
0.0
 11
83.622493448
 21
63.751870158
 31
0.0
  0
LINE
  5
3DA
330
2F3
100
AcDbEntity
  8
0
  6
Continuous
 62
     1
100
AcDbLine
 10
89.368447888
 20
62.66602049999999
 30
0.0
 11
88.79159025700001
 21
58.956034168
 31
0.0
  0
LINE
  5
3DB
330
2F3
100
AcDbEntity
  8
0
  6
Continuous
 62
     1
100
AcDbLine
 10
90.68334395799999
 20
64.14936869299999
 30
0.0
 11
90.864318901
 21
64.04595444
 31
0.0
  0
LINE
  5
3DC
330
2F3
100
AcDbEntity
  8
0
  6
Continuous
 62
     1
100
AcDbLine
 10
84.439708425
 20
64.498391798
 30
0.0
 11
90.14041912899999
 21
64.498391798
 31
0.0
  0
LINE
  5
3DD
330
2F3
100
AcDbEntity
  8
0
  6
Continuous
 62
     1
100
AcDbLine
 10
90.89542396899997
 20
64.023332572
 30
0.0
 11
90.03579299
 21
58.051159453
 31
0.0
  0
POINT
  5
3DE
330
2F3
100
AcDbEntity
  8
0
  6
Continuous
 62
     1
100
AcDbPoint
 10
83.263371295
 20
51.830145788
 30
0.0
  0
LINE
  5
3DF
330
2F3
100
AcDbEntity
  8
0
  6
Continuous
 62
     1
100
AcDbLine
 10
87.96871981299998
 20
53.368432803
 30
0.0
 11
88.96408199999996
 21
52.373070617
 31
0.0
  0
LINE
  5
3E0
330
2F3
100
AcDbEntity
  8
0
  6
Continuous
 62
     1
100
AcDbLine
 10
87.78774486999997
 20
53.18745786
 30
0.0
 11
88.783107057
 21
52.192095674
 31
0.0
  0
LINE
  5
3E1
330
2F3
100
AcDbEntity
  8
0
  6
Continuous
 62
     1
100
AcDbLine
 10
82.35849657999997
 20
52.28258314499999
 30
0.0
 11
83.44434623800001
 21
53.096970389
 31
0.0
  0
LINE
  5
3E2
330
2F3
100
AcDbEntity
  8
0
  6
Continuous
 62
     1
100
AcDbLine
 10
82.29817159899999
 20
52.192095674
 30
0.0
 11
82.539471523
 21
51.830145788
 31
0.0
  0
LINE
  5
3E3
330
2F3
100
AcDbEntity
  8
0
  6
Continuous
 62
     1
100
AcDbLine
 10
87.78774486999997
 20
53.18745786
 30
0.0
 11
83.44434623800001
 21
53.18745786
 31
0.0
  0
LINE
  5
3E4
330
2F3
100
AcDbEntity
  8
0
  6
Continuous
 62
     1
100
AcDbLine
 10
88.96408199999996
 20
52.32279979899999
 30
0.0
 11
89.14505694299998
 21
52.463558088
 31
0.0
  0
LINE
  5
3E5
330
2F3
100
AcDbEntity
  8
0
  6
Continuous
 62
     1
100
AcDbLine
 10
88.330669699
 20
51.830145788
 30
0.0
 11
88.783107057
 21
52.18204151
 31
0.0
  0
LINE
  5
3E6
330
2F3
100
AcDbEntity
  8
0
  6
Continuous
 62
     1
100
AcDbLine
 10
88.330669699
 20
51.830145788
 30
0.0
 11
82.448984052
 21
51.830145788
 31
0.0
  0
LINE
  5
3E7
330
2F3
100
AcDbEntity
  8
0
  6
Continuous
 62
     1
100
AcDbLine
 10
89.96792738599998
 20
57.50823462399999
 30
0.0
 11
89.221405747
 21
52.44093622
 31
0.0
  0
LINE
  5
3E8
330
2F3
100
AcDbEntity
  8
0
  6
Continuous
 62
     1
100
AcDbLine
 10
88.46640090600002
 20
57.03317539899999
 30
0.0
 11
88.01396354899997
 21
53.41367653899999
 31
0.0
  0
LINE
  5
3E9
330
2F3
100
AcDbEntity
  8
0
  6
Continuous
 62
     1
100
AcDbLine
 10
85.163608197
 20
63.141079725
 30
0.0
 11
89.32603188600003
 21
63.141079725
 31
0.0
  0
LINE
  5
3EA
330
2F3
100
AcDbEntity
  8
0
  6
Continuous
 62
     1
100
AcDbLine
 10
85.147155929
 20
63.141079725
 30
0.0
 11
84.25873348199997
 21
64.22692938299997
 31
0.0
  0
LINE
  5
3EB
330
2F3
100
AcDbEntity
  8
0
  6
Continuous
 62
     1
100
AcDbLine
 10
89.32603188600003
 20
63.141079725
 30
0.0
 11
90.30631282700001
 21
64.317416855
 31
0.0
  0
LINE
  5
3EC
330
2F3
100
AcDbEntity
  8
0
  6
Continuous
 62
     1
100
AcDbLine
 10
90.14041912899999
 20
64.459611453
 30
0.0
 11
90.321394072
 21
64.35619720000001
 31
0.0
  0
LINE
  5
3ED
330
2F3
100
AcDbEntity
  8
0
  6
Continuous
 62
     1
100
AcDbLine
 10
64.52318906800001
 20
58.797681093
 30
0.0
 11
62.441977223
 21
58.797681093
 31
0.0
  0
LINE
  5
3EE
330
2F3
100
AcDbEntity
  8
0
  6
Continuous
 62
     1
100
AcDbLine
 10
62.351489752
 20
57.440369021
 30
0.0
 11
66.875863327
 21
57.440369021
 31
0.0
  0
LINE
  5
3EF
330
2F3
100
AcDbEntity
  8
0
  6
Continuous
 62
     1
100
AcDbLine
 10
66.875863327
 20
58.978656036
 30
0.0
 11
68.05220045600001
 21
58.07378132100001
 31
0.0
  0
LINE
  5
3F0
330
2F3
100
AcDbEntity
  8
0
  6
Continuous
 62
     1
100
AcDbLine
 10
66.78537585499999
 20
58.707193622
 30
0.0
 11
67.961712985
 21
57.802318907
 31
0.0
  0
LINE
  5
3F1
330
2F3
100
AcDbEntity
  8
0
  6
Continuous
 62
     1
100
AcDbLine
 10
67.961712985
 20
57.802318907
 30
0.0
 11
66.69488838399999
 21
57.440369021
 31
0.0
  0
LINE
  5
3F2
330
2F3
100
AcDbEntity
  8
0
  6
Continuous
 62
     1
100
AcDbLine
 10
66.69488838399999
 20
57.168906606
 30
0.0
 11
68.05220045600001
 21
57.53085649199999
 31
0.0
  0
LINE
  5
3F3
330
2F3
100
AcDbEntity
  8
0
  6
Continuous
 62
     1
100
AcDbLine
 10
62.351489752
 20
58.797681093
 30
0.0
 11
61.175152622
 21
58.25475626399999
 31
0.0
  0
LINE
  5
3F4
330
2F3
100
AcDbEntity
  8
0
  6
Continuous
 62
     1
100
AcDbLine
 10
61.175152622
 20
58.25475626399999
 30
0.0
 11
62.26100227999999
 21
57.440369021
 31
0.0
  0
LINE
  5
3F5
330
2F3
100
AcDbEntity
  8
0
  6
Continuous
 62
     1
100
AcDbLine
 10
60.994177679
 20
58.435731207
 30
0.0
 11
62.351489752
 21
59.159630979
 31
0.0
  0
LINE
  5
3F6
330
2F3
100
AcDbEntity
  8
0
  6
Continuous
 62
     1
100
AcDbLine
 10
66.69488838399999
 20
58.797681093
 30
0.0
 11
64.613676539
 21
58.797681093
 31
0.0
  0
POINT
  5
3F7
330
2F3
100
AcDbEntity
  8
0
  6
Continuous
 62
     1
100
AcDbPoint
 10
67.69025057
 20
64.498391798
 30
0.0
  0
LINE
  5
3F8
330
2F3
100
AcDbEntity
  8
0
  6
Continuous
 62
     1
100
AcDbLine
 10
67.418788156
 20
63.141079725
 30
0.0
 11
68.32366287100001
 21
64.22692938299997
 31
0.0
  0
LINE
  5
3F9
330
2F3
100
AcDbEntity
  8
0
  6
Continuous
 62
     1
100
AcDbLine
 10
68.685612757
 20
64.13644191199999
 30
0.0
 11
67.599763099
 21
62.779129839
 31
0.0
  0
LINE
  5
3FA
330
2F3
100
AcDbEntity
  8
0
  6
Continuous
 62
     1
100
AcDbLine
 10
63.165876995
 20
63.231567197
 30
0.0
 11
62.351489752
 21
64.22692938299997
 31
0.0
  0
LINE
  5
3FB
330
2F3
100
AcDbEntity
  8
0
  6
Continuous
 62
     1
100
AcDbLine
 10
62.984902052
 20
62.869617311
 30
0.0
 11
62.08002733699998
 21
64.04595444
 31
0.0
  0
LINE
  5
3FC
330
2F3
100
AcDbEntity
  8
0
  6
Continuous
 62
     1
100
AcDbLine
 10
62.405216688
 20
59.31798405399999
 30
0.0
 11
62.959452451
 21
62.846995443
 31
0.0
  0
LINE
  5
3FD
330
2F3
100
AcDbEntity
  8
0
  6
Continuous
 62
     1
100
AcDbLine
 10
61.989539866
 20
64.020100877
 30
0.0
 11
61.808564923
 21
63.864979497
 31
0.0
  0
LINE
  5
3FE
330
2F3
100
AcDbEntity
  8
0
  6
Continuous
 62
     1
100
AcDbLine
 10
62.441977223
 20
64.407904326
 30
0.0
 11
62.351489752
 21
64.330343636
 31
0.0
  0
LINE
  5
3FF
330
2F3
100
AcDbEntity
  8
0
  6
Continuous
 62
     1
100
AcDbLine
 10
60.934795276
 20
58.413109339
 30
0.0
 11
61.715249718
 21
63.751870158
 31
0.0
  0
LINE
  5
400
330
2F3
100
AcDbEntity
  8
0
  6
Continuous
 62
     1
100
AcDbLine
 10
63.25636446699999
 20
63.141079725
 30
0.0
 11
67.50927562699999
 21
63.141079725
 31
0.0
  0
LINE
  5
401
330
2F3
100
AcDbEntity
  8
0
  6
Continuous
 62
     1
100
AcDbLine
 10
67.461204158
 20
62.66602049999999
 30
0.0
 11
66.88434652699999
 21
58.956034168
 31
0.0
  0
LINE
  5
402
330
2F3
100
AcDbEntity
  8
0
  6
Continuous
 62
     1
100
AcDbLine
 10
68.776100228
 20
64.14936869299999
 30
0.0
 11
68.95707517099999
 21
64.04595444
 31
0.0
  0
LINE
  5
403
330
2F3
100
AcDbEntity
  8
0
  6
Continuous
 62
     1
100
AcDbLine
 10
68.32366287100001
 20
64.407904326
 30
0.0
 11
68.414150342
 21
64.35619720000001
 31
0.0
  0
LINE
  5
404
330
2F3
100
AcDbEntity
  8
0
  6
Continuous
 62
     1
100
AcDbLine
 10
62.532464695
 20
64.498391798
 30
0.0
 11
68.23317539899999
 21
64.498391798
 31
0.0
  0
LINE
  5
405
330
2F3
100
AcDbEntity
  8
0
  6
Continuous
 62
     1
100
AcDbLine
 10
68.988180239
 20
64.023332572
 30
0.0
 11
68.12854925999999
 21
58.051159453
 31
0.0
  0
POINT
  5
406
330
2F3
100
AcDbEntity
  8
0
  6
Continuous
 62
     1
100
AcDbPoint
 10
61.356127565
 20
51.830145788
 30
0.0
  0
LINE
  5
407
330
2F3
100
AcDbEntity
  8
0
  6
Continuous
 62
     1
100
AcDbLine
 10
66.061476083
 20
53.368432803
 30
0.0
 11
67.05683827
 21
52.373070617
 31
0.0
  0
LINE
  5
408
330
2F3
100
AcDbEntity
  8
0
  6
Continuous
 62
     1
100
AcDbLine
 10
65.88050114000001
 20
53.18745786
 30
0.0
 11
66.875863327
 21
52.192095674
 31
0.0
  0
LINE
  5
409
330
2F3
100
AcDbEntity
  8
0
  6
Continuous
 62
     1
100
AcDbLine
 10
60.45125285000001
 20
52.28258314499999
 30
0.0
 11
61.537102508
 21
53.096970389
 31
0.0
  0
LINE
  5
40A
330
2F3
100
AcDbEntity
  8
0
  6
Continuous
 62
     1
100
AcDbLine
 10
60.39092786899999
 20
52.192095674
 30
0.0
 11
60.632227793
 21
51.830145788
 31
0.0
  0
LINE
  5
40B
330
2F3
100
AcDbEntity
  8
0
  6
Continuous
 62
     1
100
AcDbLine
 10
65.88050114000001
 20
53.18745786
 30
0.0
 11
61.537102508
 21
53.18745786
 31
0.0
  0
LINE
  5
40C
330
2F3
100
AcDbEntity
  8
0
  6
Continuous
 62
     1
100
AcDbLine
 10
67.05683827
 20
52.32279979899999
 30
0.0
 11
67.23781321299999
 21
52.463558088
 31
0.0
  0
LINE
  5
40D
330
2F3
100
AcDbEntity
  8
0
  6
Continuous
 62
     1
100
AcDbLine
 10
66.42342596899999
 20
51.830145788
 30
0.0
 11
66.875863327
 21
52.18204151
 31
0.0
  0
LINE
  5
40E
330
2F3
100
AcDbEntity
  8
0
  6
Continuous
 62
     1
100
AcDbLine
 10
66.42342596899999
 20
51.830145788
 30
0.0
 11
60.54174032199998
 21
51.830145788
 31
0.0
  0
LINE
  5
40F
330
2F3
100
AcDbEntity
  8
0
  6
Continuous
 62
     1
100
AcDbLine
 10
68.06068365600001
 20
57.50823462399999
 30
0.0
 11
67.314162017
 21
52.44093622
 31
0.0
  0
LINE
  5
410
330
2F3
100
AcDbEntity
  8
0
  6
Continuous
 62
     1
100
AcDbLine
 10
66.10671981899999
 20
53.41367653899999
 30
0.0
 11
66.559157176
 21
57.03317539899999
 31
0.0
  0
LINE
  5
411
330
2F3
100
AcDbEntity
  8
0
  6
Continuous
 62
     1
100
AcDbLine
 10
55.92224146199999
 20
58.978656036
 30
0.0
 11
57.09857859100001
 21
58.07378132100001
 31
0.0
  0
LINE
  5
412
330
2F3
100
AcDbEntity
  8
0
  6
Continuous
 62
     1
100
AcDbLine
 10
55.74126651899999
 20
57.168906606
 30
0.0
 11
57.09857859100001
 21
57.53085649199999
 31
0.0
  0
LINE
  5
413
330
2F3
100
AcDbEntity
  8
0
  6
Continuous
 62
     1
100
AcDbLine
 10
57.731990892
 20
64.13644191199999
 30
0.0
 11
56.64614123399999
 21
62.779129839
 31
0.0
  0
LINE
  5
414
330
2F3
100
AcDbEntity
  8
0
  6
Continuous
 62
     1
100
AcDbLine
 10
56.507582293
 20
62.66602049999999
 30
0.0
 11
55.93072466199998
 21
58.956034168
 31
0.0
  0
LINE
  5
415
330
2F3
100
AcDbEntity
  8
0
  6
Continuous
 62
     1
100
AcDbLine
 10
57.822478363
 20
64.14936869299999
 30
0.0
 11
58.003453306
 21
64.04595444
 31
0.0
  0
LINE
  5
416
330
2F3
100
AcDbEntity
  8
0
  6
Continuous
 62
     1
100
AcDbLine
 10
58.034558374
 20
64.023332572
 30
0.0
 11
57.17492739499999
 21
58.051159453
 31
0.0
  0
LINE
  5
417
330
2F3
100
AcDbEntity
  8
0
  6
Continuous
 62
     1
100
AcDbLine
 10
55.107854218
 20
53.368432803
 30
0.0
 11
56.103216405
 21
52.373070617
 31
0.0
  0
LINE
  5
418
330
2F3
100
AcDbEntity
  8
0
  6
Continuous
 62
     1
100
AcDbLine
 10
56.103216405
 20
52.32279979899999
 30
0.0
 11
56.284191348
 21
52.463558088
 31
0.0
  0
LINE
  5
419
330
2F3
100
AcDbEntity
  8
0
  6
Continuous
 62
     1
100
AcDbLine
 10
57.107061791
 20
57.50823462399999
 30
0.0
 11
56.360540152
 21
52.44093622
 31
0.0
  0
LINE
  5
41A
330
2F3
100
AcDbEntity
  8
0
  6
Continuous
 62
     1
100
AcDbLine
 10
55.605535311
 20
57.03317539899999
 30
0.0
 11
55.153097954
 21
53.41367653899999
 31
0.0
  0
LINE
  5
41B
330
2F3
100
AcDbEntity
  8
0
  6
Continuous
 62
     1
100
AcDbLine
 10
54.819425403
 20
58.661949886
 30
0.0
 11
54.683694195
 21
57.576100228
 31
0.0
  0
LINE
  5
41C
330
2F3
100
AcDbEntity
  8
0
  6
Continuous
 62
     1
100
AcDbLine
 10
49.752126999
 20
58.661949886
 30
0.0
 11
49.616395791
 21
57.576100228
 31
0.0
  0
LINE
  5
41D
330
2F3
100
AcDbEntity
  8
0
  6
Continuous
 62
     1
100
AcDbLine
 10
54.83639180399999
 20
58.661949886
 30
0.0
 11
49.752126999
 21
58.661949886
 31
0.0
  0
LINE
  5
41E
330
2F3
100
AcDbEntity
  8
0
  6
Continuous
 62
     1
100
AcDbLine
 10
49.616395791
 20
57.576100228
 30
0.0
 11
54.66672779399999
 21
57.576100228
 31
0.0
  0
LINE
  5
41F
330
2F3
100
AcDbEntity
  8
0
  6
Continuous
 62
     1
100
AcDbLine
 10
51.91251538100001
 20
60.743161731
 30
0.0
 11
52.99836503899999
 21
60.743161731
 31
0.0
  0
LINE
  5
420
330
2F3
100
AcDbEntity
  8
0
  6
Continuous
 62
     1
100
AcDbLine
 10
52.34233086999999
 20
55.494888384
 30
0.0
 11
51.256481212
 21
55.494888384
 31
0.0
  0
LINE
  5
421
330
2F3
100
AcDbEntity
  8
0
  6
Continuous
 62
     1
100
AcDbLine
 10
52.77214636
 20
59.11438724399999
 30
0.0
 11
51.686296702
 21
59.11438724399999
 31
0.0
  0
LINE
  5
422
330
2F3
100
AcDbEntity
  8
0
  6
Continuous
 62
     1
100
AcDbLine
 10
51.482699891
 20
57.123662871
 30
0.0
 11
52.56854954899999
 21
57.123662871
 31
0.0
  0
LINE
  5
423
330
2F3
100
AcDbEntity
  8
0
  6
Continuous
 62
     1
100
AcDbLine
 10
52.545927681
 20
57.123662871
 30
0.0
 11
52.34233086999999
 21
55.494888384
 31
0.0
  0
LINE
  5
424
330
2F3
100
AcDbEntity
  8
0
  6
Continuous
 62
     1
100
AcDbLine
 10
51.460078023
 20
57.123662871
 30
0.0
 11
51.256481212
 21
55.494888384
 31
0.0
  0
LINE
  5
425
330
2F3
100
AcDbEntity
  8
0
  6
Continuous
 62
     1
100
AcDbLine
 10
51.91251538100001
 20
60.743161731
 30
0.0
 11
51.70891857
 21
59.11438724399999
 31
0.0
  0
LINE
  5
426
330
2F3
100
AcDbEntity
  8
0
  6
Continuous
 62
     1
100
AcDbLine
 10
52.99836503899999
 20
60.743161731
 30
0.0
 11
52.794768228
 21
59.11438724399999
 31
0.0
  0
LINE
  5
427
330
2F3
100
AcDbEntity
  8
0
  6
Continuous
 62
     1
100
AcDbLine
 10
207.0
 20
144.6999999999998
 30
0.0
 11
161.0
 21
144.6999999999998
 31
0.0
  0
LINE
  5
428
330
2F3
100
AcDbEntity
  8
0
  6
Continuous
 62
     1
100
AcDbLine
 10
161.0
 20
144.6999999999998
 30
0.0
 11
161.0
 21
167.1999999999998
 31
0.0
  0
LINE
  5
429
330
2F3
100
AcDbEntity
  8
0
  6
Continuous
 62
     1
100
AcDbLine
 10
207.0
 20
144.6999999999998
 30
0.0
 11
207.0
 21
167.1999999999998
 31
0.0
  0
LINE
  5
42A
330
2F3
100
AcDbEntity
  8
0
  6
Continuous
 62
     1
100
AcDbLine
 10
207.0
 20
167.1999999999998
 30
0.0
 11
161.0
 21
167.1999999999998
 31
0.0
  0
LINE
  5
42B
330
2F3
100
AcDbEntity
  8
0
  6
Continuous
 62
     3
100
AcDbLine
 10
136.0
 20
82.2
 30
0.0
 11
135.48236191
 21
80.26814834699999
 31
0.0
  0
LINE
  5
42C
330
2F3
100
AcDbEntity
  8
0
  6
Continuous
 62
     3
100
AcDbLine
 10
136.0
 20
82.2
 30
0.0
 11
136.5176380899999
 21
80.26814834699999
 31
0.0
  0
LINE
  5
42D
330
2F3
100
AcDbEntity
  8
0
  6
Continuous
 62
     3
100
AcDbLine
 10
136.0
 20
82.2
 30
0.0
 11
136.0
 21
34.2
 31
0.0
  0
LINE
  5
42E
330
2F3
100
AcDbEntity
  8
0
  6
Continuous
 62
     3
100
AcDbLine
 10
136.0
 20
34.2
 30
0.0
 11
136.5176380899999
 21
36.13185165300001
 31
0.0
  0
LINE
  5
42F
330
2F3
100
AcDbEntity
  8
0
  6
Continuous
 62
     3
100
AcDbLine
 10
136.0
 20
34.2
 30
0.0
 11
135.48236191
 21
36.13185165300001
 31
0.0
  0
LINE
  5
430
330
2F3
100
AcDbEntity
  8
0
  6
Continuous
 62
     3
100
AcDbLine
 10
119.0
 20
34.2
 30
0.0
 11
137.0
 21
34.2
 31
0.0
  0
LINE
  5
431
330
2F3
100
AcDbEntity
  8
0
  6
Continuous
 62
     3
100
AcDbLine
 10
119.0
 20
82.2
 30
0.0
 11
137.0
 21
82.2
 31
0.0
  0
TEXT
  5
432
330
2F3
100
AcDbEntity
  8
0
  6
Continuous
 62
     3
100
AcDbText
 10
135.0
 20
59.5
 30
0.0
 40
2.0
  1
４８
 50
90.0
 41
0.85
  7
KANJI1
100
AcDbText
  0
LINE
  5
433
330
2F3
100
AcDbEntity
  8
0
  6
Continuous
 62
     3
100
AcDbLine
 10
22.0
 20
26.2
 30
0.0
 11
118.0
 21
26.2
 31
0.0
  0
LINE
  5
434
330
2F3
100
AcDbEntity
  8
0
  6
Continuous
 62
     3
100
AcDbLine
 10
118.0
 20
26.2
 30
0.0
 11
116.068148347
 21
26.71763809
 31
0.0
  0
LINE
  5
435
330
2F3
100
AcDbEntity
  8
0
  6
Continuous
 62
     3
100
AcDbLine
 10
118.0
 20
26.2
 30
0.0
 11
116.068148347
 21
25.68236191
 31
0.0
  0
LINE
  5
436
330
2F3
100
AcDbEntity
  8
0
  6
Continuous
 62
     3
100
AcDbLine
 10
118.0
 20
33.2
 30
0.0
 11
118.0
 21
25.2
 31
0.0
  0
LINE
  5
437
330
2F3
100
AcDbEntity
  8
0
  6
Continuous
 62
     3
100
AcDbLine
 10
22.0
 20
33.2
 30
0.0
 11
22.0
 21
25.2
 31
0.0
  0
TEXT
  5
438
330
2F3
100
AcDbEntity
  8
0
  6
Continuous
 62
     3
100
AcDbText
 10
71.29999999999999
 20
27.2
 30
0.0
 40
2.0
  1
９６
 41
0.85
  7
KANJI1
100
AcDbText
  0
LINE
  5
448
330
2F3
100
AcDbEntity
  8
0
  6
Continuous
 62
     3
100
AcDbLine
 10
161.0
 20
168.1999999999999
 30
0.0
 11
161.0
 21
173.2
 31
0.0
  0
LINE
  5
449
330
2F3
100
AcDbEntity
  8
0
  6
Continuous
 62
     3
100
AcDbLine
 10
161.0
 20
172.1999999999999
 30
0.0
 11
162.9318516529998
 21
171.6823619099999
 31
0.0
  0
LINE
  5
44A
330
2F3
100
AcDbEntity
  8
0
  6
Continuous
 62
     3
100
AcDbLine
 10
161.0
 20
172.1999999999999
 30
0.0
 11
162.9318516529998
 21
172.71763809
 31
0.0
  0
LINE
  5
44B
330
2F3
100
AcDbEntity
  8
0
  6
Continuous
 62
     3
100
AcDbLine
 10
161.0
 20
172.1999999999999
 30
0.0
 11
207.0
 21
172.1999999999999
 31
0.0
  0
LINE
  5
44C
330
2F3
100
AcDbEntity
  8
0
  6
Continuous
 62
     3
100
AcDbLine
 10
207.0
 20
172.1999999999999
 30
0.0
 11
205.068148348
 21
172.71763809
 31
0.0
  0
LINE
  5
44D
330
2F3
100
AcDbEntity
  8
0
  6
Continuous
 62
     3
100
AcDbLine
 10
207.0
 20
172.1999999999999
 30
0.0
 11
205.068148348
 21
171.6823619099999
 31
0.0
  0
LINE
  5
44E
330
2F3
100
AcDbEntity
  8
0
  6
Continuous
 62
     3
100
AcDbLine
 10
207.0
 20
168.1999999999999
 30
0.0
 11
207.0
 21
173.2
 31
0.0
  0
TEXT
  5
44F
330
2F3
100
AcDbEntity
  8
0
  6
Continuous
 62
     3
100
AcDbText
 10
186.3
 20
173.2
 30
0.0
 40
2.0
  1
９２
 41
0.85
  7
KANJI1
100
AcDbText
  0
TEXT
  5
450
330
2F3
100
AcDbEntity
  8
0
  6
Continuous
 62
     3
100
AcDbText
 10
190.05
 20
174.9499999999999
 30
0.0
 40
1.5
  1
＋０.８
 41
0.8666666670000001
  7
KANJI2
100
AcDbText
  0
TEXT
  5
451
330
2F3
100
AcDbEntity
  8
0
  6
Continuous
 62
     3
100
AcDbText
 10
190.05
 20
173.4499999999999
 30
0.0
 40
1.5
  1
－０
 41
0.8666666670000001
  7
KANJI2
100
AcDbText
  0
LINE
  5
452
330
2F3
100
AcDbEntity
  8
0
  6
Continuous
 62
     3
100
AcDbLine
 10
208.0
 20
167.1999999999998
 30
0.0
 11
218.0
 21
167.1999999999998
 31
0.0
  0
LINE
  5
453
330
2F3
100
AcDbEntity
  8
0
  6
Continuous
 62
     3
100
AcDbLine
 10
217.0
 20
167.1999999999998
 30
0.0
 11
216.48236191
 21
165.268148347
 31
0.0
  0
LINE
  5
454
330
2F3
100
AcDbEntity
  8
0
  6
Continuous
 62
     3
100
AcDbLine
 10
217.0
 20
167.1999999999998
 30
0.0
 11
217.5176380899999
 21
165.268148347
 31
0.0
  0
LINE
  5
455
330
2F3
100
AcDbEntity
  8
0
  6
Continuous
 62
     3
100
AcDbLine
 10
217.0
 20
167.1999999999998
 30
0.0
 11
217.0
 21
144.6999999999998
 31
0.0
  0
LINE
  5
456
330
2F3
100
AcDbEntity
  8
0
  6
Continuous
 62
     3
100
AcDbLine
 10
217.0
 20
144.6999999999998
 30
0.0
 11
217.5176380899999
 21
146.6318516529999
 31
0.0
  0
LINE
  5
457
330
2F3
100
AcDbEntity
  8
0
  6
Continuous
 62
     3
100
AcDbLine
 10
217.0
 20
144.6999999999998
 30
0.0
 11
216.48236191
 21
146.6318516529999
 31
0.0
  0
LINE
  5
458
330
2F3
100
AcDbEntity
  8
0
  6
Continuous
 62
     3
100
AcDbLine
 10
208.0
 20
144.6999999999998
 30
0.0
 11
218.0
 21
144.6999999999998
 31
0.0
  0
TEXT
  5
459
330
2F3
100
AcDbEntity
  8
0
  6
Continuous
 62
     3
100
AcDbText
 10
216.0
 20
156.25
 30
0.0
 40
2.0
  1
４５
 50
90.0
 41
0.85
  7
KANJI1
100
AcDbText
  0
TEXT
  5
45A
330
2F3
100
AcDbEntity
  8
0
  6
Continuous
 62
     3
100
AcDbText
 10
215.75
 20
160.0
 30
0.0
 40
1.5
  1
－０
 50
90.0
 41
0.8666666670000001
  7
KANJI2
100
AcDbText
  0
TEXT
  5
45B
330
2F3
100
AcDbEntity
  8
0
  6
Continuous
 62
     3
100
AcDbText
 10
214.25
 20
160.0
 30
0.0
 40
1.5
  1
＋０.６
 50
90.0
 41
0.8666666670000001
  7
KANJI2
100
AcDbText
  0
TEXT
  5
45F
330
2F3
100
AcDbEntity
  8
0
  6
Continuous
 62
     1
100
AcDbText
 10
173.2
 20
181.0999999999999
 30
0.4
 40
3.0
  1
ＰＡＮＥＬ　ＣＵＴ
 41
0.8
  7
KANJI3
100
AcDbText
  0
LINE
  5
460
330
2F3
100
AcDbEntity
  8
0
  6
Continuous
 62
     1
100
AcDbLine
 10
22.0
 20
104.7
 30
0.4
 11
118.0
 21
104.7
 31
0.4
  0
LINE
  5
461
330
2F3
100
AcDbEntity
  8
0
  6
Continuous
 62
     1
100
AcDbLine
 10
118.0
 20
104.7
 30
0.0
 11
118.0
 21
110.0
 31
0.0
  0
LINE
  5
462
330
2F3
100
AcDbEntity
  8
0
  6
Continuous
 62
     1
100
AcDbLine
 10
118.0
 20
110.0
 30
0.0
 11
22.0
 21
110.0
 31
0.0
  0
LINE
  5
463
330
2F3
100
AcDbEntity
  8
0
  6
Continuous
 62
     1
100
AcDbLine
 10
22.0
 20
110.0
 30
0.0
 11
22.0
 21
104.7
 31
0.0
  0
LINE
  5
464
330
2F3
100
AcDbEntity
  8
0
  6
Continuous
 62
     1
100
AcDbLine
 10
22.0
 20
110.0
 30
0.0
 11
118.0
 21
110.0
 31
0.0
  0
LINE
  5
465
330
2F3
100
AcDbEntity
  8
0
  6
Continuous
 62
     1
100
AcDbLine
 10
118.0
 20
110.0
 30
0.0
 11
118.0
 21
111.0
 31
0.0
  0
LINE
  5
466
330
2F3
100
AcDbEntity
  8
0
  6
Continuous
 62
     1
100
AcDbLine
 10
118.0
 20
111.0
 30
0.0
 11
22.0
 21
111.0
 31
0.0
  0
LINE
  5
467
330
2F3
100
AcDbEntity
  8
0
  6
Continuous
 62
     1
100
AcDbLine
 10
22.0
 20
111.0
 30
0.0
 11
22.0
 21
110.0
 31
0.0
  0
LINE
  5
468
330
2F3
100
AcDbEntity
  8
0
  6
Continuous
 62
     1
100
AcDbLine
 10
116.0
 20
111.0
 30
0.0
 11
115.900109
 21
123.1999999999999
 31
0.0
  0
LINE
  5
469
330
2F3
100
AcDbEntity
  8
0
  6
Continuous
 62
     1
100
AcDbLine
 10
115.900109
 20
123.1999999999999
 30
0.0
 11
24.1
 21
123.1999999999999
 31
0.0
  0
LINE
  5
46A
330
2F3
100
AcDbEntity
  8
0
  6
Continuous
 62
     1
100
AcDbLine
 10
24.0
 20
111.0
 30
0.0
 11
24.1
 21
123.1999999999999
 31
0.0
  0
ARC
  5
46B
330
2F3
100
AcDbEntity
  8
0
  6
Continuous
 62
     1
100
AcDbCircle
 10
8.410381187999997
 20
123.155935401
 30
0.0
 40
15.68968069
100
AcDbArc
 50
350.049047906
 51
0.160915886
  0
ARC
  5
46C
330
2F3
100
AcDbEntity
  8
0
  6
Continuous
 62
     1
100
AcDbCircle
 10
13.420609744
 20
122.184540657
 30
0.0
 40
10.587354843
100
AcDbArc
 50
337.3587339549998
 51
350.541456549
  0
ARC
  5
46D
330
2F3
100
AcDbEntity
  8
0
  6
Continuous
 62
     1
100
AcDbCircle
 10
18.821312327
 20
119.8207898689998
 30
0.0
 40
4.694037162999999
100
AcDbArc
 50
315.7965271559998
 51
338.6103081879999
  0
ARC
  5
46E
330
2F3
100
AcDbEntity
  8
0
  6
Continuous
 62
     1
100
AcDbCircle
 10
20.91305308
 20
117.746158566
 30
0.0
 40
1.748321910999997
100
AcDbArc
 50
272.850589077
 51
316.742299759
  0
LINE
  5
46F
330
2F3
100
AcDbEntity
  8
0
  6
Continuous
 62
     1
100
AcDbLine
 10
21.0
 20
116.0
 30
0.0
 11
24.0
 21
111.0
 31
0.0
  0
LINE
  5
470
330
2F3
100
AcDbEntity
  8
0
  6
Continuous
 62
     1
100
AcDbLine
 10
24.0
 20
114.0
 30
0.0
 11
23.0
 21
115.45
 31
0.0
  0
ARC
  5
471
330
2F3
100
AcDbEntity
  8
0
  6
Continuous
 62
     1
100
AcDbCircle
 10
17.994443426
 20
117.8312093479999
 30
0.0
 40
6.007928099999999
100
AcDbArc
 50
351.977296969
 51
1.60991685
  0
ARC
  5
472
330
2F3
100
AcDbEntity
  8
0
  6
Continuous
 62
     1
100
AcDbCircle
 10
20.350230674
 20
117.461569014
 30
0.0
 40
3.623799591
100
AcDbArc
 50
339.0165050109998
 51
352.566045118
  0
ARC
  5
473
330
2F3
100
AcDbEntity
  8
0
  6
Continuous
 62
     1
100
AcDbCircle
 10
22.435475669
 20
116.617723358
 30
0.0
 40
1.375276294
100
AcDbArc
 50
314.672884936
 51
340.7315695939995
  0
ARC
  5
474
330
2F3
100
AcDbEntity
  8
0
  6
Continuous
 62
     1
100
AcDbCircle
 10
23.054567276
 20
115.9921067269999
 30
0.0
 40
0.4951228320000002
100
AcDbArc
 50
263.672603343
 51
314.6253129319998
  0
LINE
  5
475
330
2F3
100
AcDbEntity
  8
0
  6
Continuous
 62
     1
100
AcDbLine
 10
116.0
 20
111.0
 30
0.0
 11
115.9
 21
123.1999999999999
 31
0.0
  0
ARC
  5
476
330
2F3
100
AcDbEntity
  8
0
  6
Continuous
 62
     1
100
AcDbCircle
 10
131.5896193119999
 20
123.155941052
 30
0.0
 40
15.689681174
100
AcDbArc
 50
179.839104757
 51
189.950972737
  0
ARC
  5
477
330
2F3
100
AcDbEntity
  8
0
  6
Continuous
 62
     1
100
AcDbCircle
 10
126.579390756
 20
122.1845363299999
 30
0.0
 40
10.587353639
100
AcDbArc
 50
189.4585207969998
 51
202.641243391
  0
ARC
  5
478
330
2F3
100
AcDbEntity
  8
0
  6
Continuous
 62
     1
100
AcDbCircle
 10
121.1786881729999
 20
119.820792348
 30
0.0
 40
4.694038532999998
100
AcDbArc
 50
201.389717751
 51
224.2034987829998
  0
ARC
  5
479
330
2F3
100
AcDbEntity
  8
0
  6
Continuous
 62
     1
100
AcDbCircle
 10
119.08694742
 20
117.746157325
 30
0.0
 40
1.748320695999999
100
AcDbArc
 50
223.257681852
 51
267.149392535
  0
LINE
  5
47A
330
2F3
100
AcDbEntity
  8
0
  6
Continuous
 62
     1
100
AcDbLine
 10
119.0
 20
116.0
 30
0.0
 11
116.0
 21
111.0
 31
0.0
  0
LINE
  5
47B
330
2F3
100
AcDbEntity
  8
0
  6
Continuous
 62
     1
100
AcDbLine
 10
116.0
 20
114.0
 30
0.0
 11
117.0
 21
115.45
 31
0.0
  0
ARC
  5
47C
330
2F3
100
AcDbEntity
  8
0
  6
Continuous
 62
     1
100
AcDbCircle
 10
122.005556574
 20
117.8312093479999
 30
0.0
 40
6.007928099999999
100
AcDbArc
 50
178.39008315
 51
188.0227030309998
  0
ARC
  5
47D
330
2F3
100
AcDbEntity
  8
0
  6
Continuous
 62
     1
100
AcDbCircle
 10
119.6497693259999
 20
117.461569014
 30
0.0
 40
3.623799591
100
AcDbArc
 50
187.433954882
 51
200.983494989
  0
ARC
  5
47E
330
2F3
100
AcDbEntity
  8
0
  6
Continuous
 62
     1
100
AcDbCircle
 10
117.5645243309999
 20
116.617723358
 30
0.0
 40
1.375276294
100
AcDbArc
 50
199.2684304059999
 51
225.327115064
  0
ARC
  5
47F
330
2F3
100
AcDbEntity
  8
0
  6
Continuous
 62
     1
100
AcDbCircle
 10
116.9454327239999
 20
115.9921067269999
 30
0.0
 40
0.4951228320000002
100
AcDbArc
 50
225.374687068
 51
276.327396657
  0
LINE
  5
480
330
2F3
100
AcDbEntity
  8
0
  6
Continuous
 62
     1
100
AcDbLine
 10
58.5
 20
123.1999999999999
 30
0.0
 11
65.5
 21
123.1999999999999
 31
0.0
  0
LINE
  5
481
330
2F3
100
AcDbEntity
  8
0
  6
Continuous
 62
     1
100
AcDbLine
 10
65.5
 20
123.1999999999999
 30
0.0
 11
65.5
 21
124.1999999999999
 31
0.0
  0
LINE
  5
482
330
2F3
100
AcDbEntity
  8
0
  6
Continuous
 62
     1
100
AcDbLine
 10
65.5
 20
124.1999999999999
 30
0.0
 11
58.5
 21
124.1999999999999
 31
0.0
  0
LINE
  5
483
330
2F3
100
AcDbEntity
  8
0
  6
Continuous
 62
     1
100
AcDbLine
 10
58.5
 20
124.1999999999999
 30
0.0
 11
58.5
 21
123.1999999999999
 31
0.0
  0
LINE
  5
484
330
2F3
100
AcDbEntity
  8
0
  6
Continuous
 62
     1
100
AcDbLine
 10
60.0
 20
124.1999999999999
 30
0.0
 11
64.0
 21
124.1999999999999
 31
0.0
  0
ARC
  5
485
330
2F3
100
AcDbEntity
  8
0
  6
Continuous
 62
     1
100
AcDbCircle
 10
64.00000037399999
 20
124.699999626
 30
0.0
 40
0.4999996260000001
100
AcDbArc
 50
269.9999571949999
 51
0.0000428
  0
LINE
  5
486
330
2F3
100
AcDbEntity
  8
0
  6
Continuous
 62
     1
100
AcDbLine
 10
64.5
 20
124.7
 30
0.0
 11
64.5
 21
125.0
 31
0.0
  0
ARC
  5
487
330
2F3
100
AcDbEntity
  8
0
  6
Continuous
 62
     1
100
AcDbCircle
 10
64.00000037399999
 20
125.000000374
 30
0.0
 40
0.4999996260000001
100
AcDbArc
 50
359.9999571919996
 51
90.000042804
  0
LINE
  5
488
330
2F3
100
AcDbEntity
  8
0
  6
Continuous
 62
     1
100
AcDbLine
 10
64.0
 20
125.5
 30
0.0
 11
60.0
 21
125.5
 31
0.0
  0
ARC
  5
489
330
2F3
100
AcDbEntity
  8
0
  6
Continuous
 62
     1
100
AcDbCircle
 10
59.999999626
 20
125.000000374
 30
0.0
 40
0.4999996260000001
100
AcDbArc
 50
89.99995719499997
 51
180.0000427999999
  0
LINE
  5
48A
330
2F3
100
AcDbEntity
  8
0
  6
Continuous
 62
     1
100
AcDbLine
 10
59.5
 20
125.0
 30
0.0
 11
59.5
 21
124.7
 31
0.0
  0
ARC
  5
48B
330
2F3
100
AcDbEntity
  8
0
  6
Continuous
 62
     1
100
AcDbCircle
 10
59.999999626
 20
124.699999626
 30
0.0
 40
0.4999996260000001
100
AcDbArc
 50
179.9999571999999
 51
270.000042804
  0
LINE
  5
48C
330
2F3
100
AcDbEntity
  8
0
  6
Continuous
 62
     1
100
AcDbLine
 10
69.5
 20
123.1999999999999
 30
0.0
 11
76.5
 21
123.1999999999999
 31
0.0
  0
LINE
  5
48D
330
2F3
100
AcDbEntity
  8
0
  6
Continuous
 62
     1
100
AcDbLine
 10
76.5
 20
123.1999999999999
 30
0.0
 11
76.5
 21
124.1999999999999
 31
0.0
  0
LINE
  5
48E
330
2F3
100
AcDbEntity
  8
0
  6
Continuous
 62
     1
100
AcDbLine
 10
76.5
 20
124.1999999999999
 30
0.0
 11
69.5
 21
124.1999999999999
 31
0.0
  0
LINE
  5
48F
330
2F3
100
AcDbEntity
  8
0
  6
Continuous
 62
     1
100
AcDbLine
 10
69.5
 20
124.1999999999999
 30
0.0
 11
69.5
 21
123.1999999999999
 31
0.0
  0
LINE
  5
490
330
2F3
100
AcDbEntity
  8
0
  6
Continuous
 62
     1
100
AcDbLine
 10
71.0
 20
124.1999999999999
 30
0.0
 11
75.0
 21
124.1999999999999
 31
0.0
  0
ARC
  5
491
330
2F3
100
AcDbEntity
  8
0
  6
Continuous
 62
     1
100
AcDbCircle
 10
75.00000037399998
 20
124.699999626
 30
0.0
 40
0.4999996260000001
100
AcDbArc
 50
269.9999571959998
 51
0.0000428
  0
LINE
  5
492
330
2F3
100
AcDbEntity
  8
0
  6
Continuous
 62
     1
100
AcDbLine
 10
75.5
 20
124.7
 30
0.0
 11
75.5
 21
125.0
 31
0.0
  0
ARC
  5
493
330
2F3
100
AcDbEntity
  8
0
  6
Continuous
 62
     1
100
AcDbCircle
 10
75.00000037399998
 20
125.000000374
 30
0.0
 40
0.4999996260000001
100
AcDbArc
 50
359.9999571919996
 51
90.00004280299998
  0
LINE
  5
494
330
2F3
100
AcDbEntity
  8
0
  6
Continuous
 62
     1
100
AcDbLine
 10
75.0
 20
125.5
 30
0.0
 11
71.0
 21
125.5
 31
0.0
  0
ARC
  5
495
330
2F3
100
AcDbEntity
  8
0
  6
Continuous
 62
     1
100
AcDbCircle
 10
70.99999962600001
 20
125.000000374
 30
0.0
 40
0.4999996260000001
100
AcDbArc
 50
89.99995719499997
 51
180.0000427999999
  0
LINE
  5
496
330
2F3
100
AcDbEntity
  8
0
  6
Continuous
 62
     1
100
AcDbLine
 10
70.5
 20
125.0
 30
0.0
 11
70.5
 21
124.7
 31
0.0
  0
ARC
  5
497
330
2F3
100
AcDbEntity
  8
0
  6
Continuous
 62
     1
100
AcDbCircle
 10
70.99999962600001
 20
124.699999626
 30
0.0
 40
0.4999996260000001
100
AcDbArc
 50
179.9999571999999
 51
270.000042805
  0
LINE
  5
498
330
2F3
100
AcDbEntity
  8
0
  6
Continuous
 62
     1
100
AcDbLine
 10
80.5
 20
123.1999999999999
 30
0.0
 11
87.5
 21
123.1999999999999
 31
0.0
  0
LINE
  5
499
330
2F3
100
AcDbEntity
  8
0
  6
Continuous
 62
     1
100
AcDbLine
 10
87.5
 20
123.1999999999999
 30
0.0
 11
87.5
 21
124.1999999999999
 31
0.0
  0
LINE
  5
49A
330
2F3
100
AcDbEntity
  8
0
  6
Continuous
 62
     1
100
AcDbLine
 10
87.5
 20
124.1999999999999
 30
0.0
 11
80.5
 21
124.1999999999999
 31
0.0
  0
LINE
  5
49B
330
2F3
100
AcDbEntity
  8
0
  6
Continuous
 62
     1
100
AcDbLine
 10
80.5
 20
124.1999999999999
 30
0.0
 11
80.5
 21
123.1999999999999
 31
0.0
  0
LINE
  5
49C
330
2F3
100
AcDbEntity
  8
0
  6
Continuous
 62
     1
100
AcDbLine
 10
82.0
 20
124.1999999999999
 30
0.0
 11
86.0
 21
124.1999999999999
 31
0.0
  0
ARC
  5
49D
330
2F3
100
AcDbEntity
  8
0
  6
Continuous
 62
     1
100
AcDbCircle
 10
86.00000037399999
 20
124.699999626
 30
0.0
 40
0.4999996260000001
100
AcDbArc
 50
269.9999571959998
 51
0.0000428
  0
LINE
  5
49E
330
2F3
100
AcDbEntity
  8
0
  6
Continuous
 62
     1
100
AcDbLine
 10
86.5
 20
124.7
 30
0.0
 11
86.5
 21
125.0
 31
0.0
  0
ARC
  5
49F
330
2F3
100
AcDbEntity
  8
0
  6
Continuous
 62
     1
100
AcDbCircle
 10
86.00000037399999
 20
125.000000374
 30
0.0
 40
0.4999996260000001
100
AcDbArc
 50
359.9999571999999
 51
90.000042804
  0
LINE
  5
4A0
330
2F3
100
AcDbEntity
  8
0
  6
Continuous
 62
     1
100
AcDbLine
 10
86.0
 20
125.5
 30
0.0
 11
82.0
 21
125.5
 31
0.0
  0
ARC
  5
4A1
330
2F3
100
AcDbEntity
  8
0
  6
Continuous
 62
     1
100
AcDbCircle
 10
81.99999962600001
 20
125.000000374
 30
0.0
 40
0.4999996260000001
100
AcDbArc
 50
89.99995719700001
 51
180.0000428079999
  0
LINE
  5
4A2
330
2F3
100
AcDbEntity
  8
0
  6
Continuous
 62
     1
100
AcDbLine
 10
81.5
 20
125.0
 30
0.0
 11
81.5
 21
124.7
 31
0.0
  0
ARC
  5
4A3
330
2F3
100
AcDbEntity
  8
0
  6
Continuous
 62
     1
100
AcDbCircle
 10
81.99999962600001
 20
124.699999626
 30
0.0
 40
0.4999996260000001
100
AcDbArc
 50
179.9999571999999
 51
270.000042805
  0
LINE
  5
4A4
330
2F3
100
AcDbEntity
  8
0
  6
Continuous
 62
     1
100
AcDbLine
 10
22.0
 20
147.0
 30
0.0
 11
118.0
 21
147.0
 31
0.0
  0
LINE
  5
4A5
330
2F3
100
AcDbEntity
  8
0
  6
Continuous
 62
     1
100
AcDbLine
 10
118.0
 20
147.0
 30
0.0
 11
118.0
 21
195.0
 31
0.0
  0
LINE
  5
4A6
330
2F3
100
AcDbEntity
  8
0
  6
Continuous
 62
     1
100
AcDbLine
 10
118.0
 20
195.0
 30
0.0
 11
22.0
 21
195.0
 31
0.0
  0
LINE
  5
4A7
330
2F3
100
AcDbEntity
  8
0
  6
Continuous
 62
     1
100
AcDbLine
 10
22.0
 20
195.0
 30
0.0
 11
22.0
 21
147.0
 31
0.0
  0
LINE
  5
4A8
330
2F3
100
AcDbEntity
  8
0
  6
Continuous
 62
     1
100
AcDbLine
 10
24.5
 20
149.0
 30
0.0
 11
115.5
 21
149.0
 31
0.0
  0
LINE
  5
4A9
330
2F3
100
AcDbEntity
  8
0
  6
Continuous
 62
     1
100
AcDbLine
 10
115.5
 20
149.0
 30
0.0
 11
115.5
 21
193.0
 31
0.0
  0
LINE
  5
4AA
330
2F3
100
AcDbEntity
  8
0
  6
Continuous
 62
     1
100
AcDbLine
 10
115.5
 20
193.0
 30
0.0
 11
24.5
 21
193.0
 31
0.0
  0
LINE
  5
4AB
330
2F3
100
AcDbEntity
  8
0
  6
Continuous
 62
     1
100
AcDbLine
 10
24.5
 20
193.0
 30
0.0
 11
24.5
 21
149.0
 31
0.0
  0
LINE
  5
4AC
330
2F3
100
AcDbEntity
  8
0
  6
Continuous
 62
     1
100
AcDbLine
 10
34.5
 20
190.5
 30
0.0
 11
41.5
 21
190.5
 31
0.0
  0
LINE
  5
4AD
330
2F3
100
AcDbEntity
  8
0
  6
Continuous
 62
     1
100
AcDbLine
 10
41.5
 20
190.5
 30
0.0
 11
41.5
 21
193.0
 31
0.0
  0
LINE
  5
4AE
330
2F3
100
AcDbEntity
  8
0
  6
Continuous
 62
     1
100
AcDbLine
 10
41.5
 20
193.0
 30
0.0
 11
34.5
 21
193.0
 31
0.0
  0
LINE
  5
4AF
330
2F3
100
AcDbEntity
  8
0
  6
Continuous
 62
     1
100
AcDbLine
 10
34.5
 20
193.0
 30
0.0
 11
34.5
 21
190.5
 31
0.0
  0
LINE
  5
4B0
330
2F3
100
AcDbEntity
  8
0
  6
Continuous
 62
     1
100
AcDbLine
 10
98.50000000000001
 20
190.5
 30
0.0
 11
105.4999999999999
 21
190.5
 31
0.0
  0
LINE
  5
4B1
330
2F3
100
AcDbEntity
  8
0
  6
Continuous
 62
     1
100
AcDbLine
 10
105.4999999999999
 20
190.5
 30
0.0
 11
105.4999999999999
 21
193.0
 31
0.0
  0
LINE
  5
4B2
330
2F3
100
AcDbEntity
  8
0
  6
Continuous
 62
     1
100
AcDbLine
 10
105.4999999999999
 20
193.0
 30
0.0
 11
98.50000000000001
 21
193.0
 31
0.0
  0
LINE
  5
4B3
330
2F3
100
AcDbEntity
  8
0
  6
Continuous
 62
     1
100
AcDbLine
 10
98.50000000000001
 20
193.0
 30
0.0
 11
98.50000000000001
 21
190.5
 31
0.0
  0
LINE
  5
4B4
330
2F3
100
AcDbEntity
  8
0
  6
Continuous
 62
     1
100
AcDbLine
 10
89.0
 20
150.0
 30
0.0
 11
95.0
 21
150.0
 31
0.0
  0
LINE
  5
4B5
330
2F3
100
AcDbEntity
  8
0
  6
Continuous
 62
     1
100
AcDbLine
 10
95.0
 20
150.0
 30
0.0
 11
95.0
 21
152.0
 31
0.0
  0
LINE
  5
4B6
330
2F3
100
AcDbEntity
  8
0
  6
Continuous
 62
     1
100
AcDbLine
 10
95.0
 20
152.0
 30
0.0
 11
89.0
 21
152.0
 31
0.0
  0
LINE
  5
4B7
330
2F3
100
AcDbEntity
  8
0
  6
Continuous
 62
     1
100
AcDbLine
 10
89.0
 20
152.0
 30
0.0
 11
89.0
 21
150.0
 31
0.0
  0
LINE
  5
4B8
330
2F3
100
AcDbEntity
  8
0
  6
Continuous
 62
     1
100
AcDbLine
 10
45.0
 20
150.0
 30
0.0
 11
51.0
 21
150.0
 31
0.0
  0
LINE
  5
4B9
330
2F3
100
AcDbEntity
  8
0
  6
Continuous
 62
     1
100
AcDbLine
 10
51.0
 20
150.0
 30
0.0
 11
51.0
 21
152.0
 31
0.0
  0
LINE
  5
4BA
330
2F3
100
AcDbEntity
  8
0
  6
Continuous
 62
     1
100
AcDbLine
 10
51.0
 20
152.0
 30
0.0
 11
45.0
 21
152.0
 31
0.0
  0
LINE
  5
4BB
330
2F3
100
AcDbEntity
  8
0
  6
Continuous
 62
     1
100
AcDbLine
 10
45.0
 20
152.0
 30
0.0
 11
45.0
 21
150.0
 31
0.0
  0
LINE
  5
4BC
330
2F3
100
AcDbEntity
  8
0
  6
Continuous
 62
     1
100
AcDbLine
 10
32.5
 20
156.4999999999996
 30
0.0
 11
107.4999999999999
 21
156.4999999999996
 31
0.0
  0
LINE
  5
4BD
330
2F3
100
AcDbEntity
  8
0
  6
Continuous
 62
     1
100
AcDbLine
 10
107.4999999999999
 20
156.4999999999996
 30
0.0
 11
107.4999999999999
 21
174.5
 31
0.0
  0
LINE
  5
4BE
330
2F3
100
AcDbEntity
  8
0
  6
Continuous
 62
     1
100
AcDbLine
 10
107.4999999999999
 20
174.5
 30
0.0
 11
32.5
 21
174.5
 31
0.0
  0
LINE
  5
4BF
330
2F3
100
AcDbEntity
  8
0
  6
Continuous
 62
     1
100
AcDbLine
 10
32.5
 20
174.5
 30
0.0
 11
32.5
 21
156.4999999999996
 31
0.0
  0
LINE
  5
4C0
330
2F3
100
AcDbEntity
  8
0
  6
Continuous
 62
     1
100
AcDbLine
 10
45.49999999999999
 20
179.0
 30
0.0
 11
94.50000000000001
 21
179.0
 31
0.0
  0
LINE
  5
4C1
330
2F3
100
AcDbEntity
  8
0
  6
Continuous
 62
     1
100
AcDbLine
 10
94.50000000000001
 20
179.0
 30
0.0
 11
94.50000000000001
 21
188.0
 31
0.0
  0
LINE
  5
4C2
330
2F3
100
AcDbEntity
  8
0
  6
Continuous
 62
     1
100
AcDbLine
 10
94.50000000000001
 20
188.0
 30
0.0
 11
45.49999999999999
 21
188.0
 31
0.0
  0
LINE
  5
4C3
330
2F3
100
AcDbEntity
  8
0
  6
Continuous
 62
     1
100
AcDbLine
 10
45.49999999999999
 20
188.0
 30
0.0
 11
45.49999999999999
 21
179.0
 31
0.0
  0
LINE
  5
4C4
330
2F3
100
AcDbEntity
  8
0
  6
Continuous
 62
     1
100
AcDbLine
 10
69.5
 20
181.0
 30
0.0
 11
76.5
 21
181.0
 31
0.0
  0
LINE
  5
4C5
330
2F3
100
AcDbEntity
  8
0
  6
Continuous
 62
     1
100
AcDbLine
 10
76.5
 20
181.0
 30
0.0
 11
76.5
 21
187.0
 31
0.0
  0
LINE
  5
4C6
330
2F3
100
AcDbEntity
  8
0
  6
Continuous
 62
     1
100
AcDbLine
 10
76.5
 20
187.0
 30
0.0
 11
69.5
 21
187.0
 31
0.0
  0
LINE
  5
4C7
330
2F3
100
AcDbEntity
  8
0
  6
Continuous
 62
     1
100
AcDbLine
 10
69.5
 20
187.0
 30
0.0
 11
69.5
 21
181.0
 31
0.0
  0
ARC
  5
4C8
330
2F3
100
AcDbEntity
  8
0
  6
Continuous
 62
     1
100
AcDbCircle
 10
73.0
 20
184.0
 30
0.0
 40
3.0
100
AcDbArc
 50
0.0
 51
180.0
  0
ARC
  5
4C9
330
2F3
100
AcDbEntity
  8
0
  6
Continuous
 62
     1
100
AcDbCircle
 10
73.0
 20
184.0
 30
0.0
 40
3.0
100
AcDbArc
 50
180.0
 51
0.0
  0
LINE
  5
4CA
330
2F3
100
AcDbEntity
  8
0
  6
Continuous
 62
     1
100
AcDbLine
 10
71.5
 20
184.0
 30
0.0
 11
74.5
 21
184.0
 31
0.0
  0
LINE
  5
4CB
330
2F3
100
AcDbEntity
  8
0
  6
Continuous
 62
     1
100
AcDbLine
 10
73.0
 20
185.5
 30
0.0
 11
73.0
 21
182.5
 31
0.0
  0
LINE
  5
4CC
330
2F3
100
AcDbEntity
  8
0
  6
Continuous
 62
     1
100
AcDbLine
 10
80.5
 20
181.0
 30
0.0
 11
87.5
 21
181.0
 31
0.0
  0
LINE
  5
4CD
330
2F3
100
AcDbEntity
  8
0
  6
Continuous
 62
     1
100
AcDbLine
 10
87.5
 20
181.0
 30
0.0
 11
87.5
 21
187.0
 31
0.0
  0
LINE
  5
4CE
330
2F3
100
AcDbEntity
  8
0
  6
Continuous
 62
     1
100
AcDbLine
 10
87.5
 20
187.0
 30
0.0
 11
80.5
 21
187.0
 31
0.0
  0
LINE
  5
4CF
330
2F3
100
AcDbEntity
  8
0
  6
Continuous
 62
     1
100
AcDbLine
 10
80.5
 20
187.0
 30
0.0
 11
80.5
 21
181.0
 31
0.0
  0
ARC
  5
4D0
330
2F3
100
AcDbEntity
  8
0
  6
Continuous
 62
     1
100
AcDbCircle
 10
84.0
 20
184.0
 30
0.0
 40
3.0
100
AcDbArc
 50
0.0
 51
180.0
  0
ARC
  5
4D1
330
2F3
100
AcDbEntity
  8
0
  6
Continuous
 62
     1
100
AcDbCircle
 10
84.0
 20
184.0
 30
0.0
 40
3.0
100
AcDbArc
 50
180.0
 51
0.0
  0
LINE
  5
4D2
330
2F3
100
AcDbEntity
  8
0
  6
Continuous
 62
     1
100
AcDbLine
 10
82.5
 20
184.0
 30
0.0
 11
85.5
 21
184.0
 31
0.0
  0
LINE
  5
4D3
330
2F3
100
AcDbEntity
  8
0
  6
Continuous
 62
     1
100
AcDbLine
 10
84.0
 20
185.5
 30
0.0
 11
84.0
 21
182.5
 31
0.0
  0
LINE
  5
4D4
330
2F3
100
AcDbEntity
  8
0
  6
Continuous
 62
     1
100
AcDbLine
 10
58.5
 20
181.0
 30
0.0
 11
65.5
 21
181.0
 31
0.0
  0
LINE
  5
4D5
330
2F3
100
AcDbEntity
  8
0
  6
Continuous
 62
     1
100
AcDbLine
 10
65.5
 20
181.0
 30
0.0
 11
65.5
 21
187.0
 31
0.0
  0
LINE
  5
4D6
330
2F3
100
AcDbEntity
  8
0
  6
Continuous
 62
     1
100
AcDbLine
 10
65.5
 20
187.0
 30
0.0
 11
58.5
 21
187.0
 31
0.0
  0
LINE
  5
4D7
330
2F3
100
AcDbEntity
  8
0
  6
Continuous
 62
     1
100
AcDbLine
 10
58.5
 20
187.0
 30
0.0
 11
58.5
 21
181.0
 31
0.0
  0
ARC
  5
4D8
330
2F3
100
AcDbEntity
  8
0
  6
Continuous
 62
     1
100
AcDbCircle
 10
62.0
 20
184.0
 30
0.0
 40
3.0
100
AcDbArc
 50
0.0
 51
180.0
  0
ARC
  5
4D9
330
2F3
100
AcDbEntity
  8
0
  6
Continuous
 62
     1
100
AcDbCircle
 10
62.0
 20
184.0
 30
0.0
 40
3.0
100
AcDbArc
 50
180.0
 51
0.0
  0
LINE
  5
4DA
330
2F3
100
AcDbEntity
  8
0
  6
Continuous
 62
     1
100
AcDbLine
 10
60.5
 20
184.0
 30
0.0
 11
63.5
 21
184.0
 31
0.0
  0
LINE
  5
4DB
330
2F3
100
AcDbEntity
  8
0
  6
Continuous
 62
     1
100
AcDbLine
 10
62.0
 20
185.5
 30
0.0
 11
62.0
 21
182.5
 31
0.0
  0
LINE
  5
4DC
330
2F3
100
AcDbEntity
  8
0
  6
Continuous
 62
     1
100
AcDbLine
 10
47.5
 20
181.0
 30
0.0
 11
49.5
 21
181.0
 31
0.0
  0
LINE
  5
4DD
330
2F3
100
AcDbEntity
  8
0
  6
Continuous
 62
     1
100
AcDbLine
 10
49.5
 20
181.0
 30
0.0
 11
49.5
 21
186.0
 31
0.0
  0
LINE
  5
4DE
330
2F3
100
AcDbEntity
  8
0
  6
Continuous
 62
     1
100
AcDbLine
 10
49.5
 20
186.0
 30
0.0
 11
47.5
 21
186.0
 31
0.0
  0
LINE
  5
4DF
330
2F3
100
AcDbEntity
  8
0
  6
Continuous
 62
     1
100
AcDbLine
 10
47.5
 20
186.0
 30
0.0
 11
47.5
 21
181.0
 31
0.0
  0
ARC
  5
4E0
330
2F3
100
AcDbEntity
  8
0
  6
Continuous
 62
     1
100
AcDbCircle
 10
48.5
 20
182.2499999999998
 30
0.0
 40
0.25
100
AcDbArc
 50
0.0
 51
180.0
  0
ARC
  5
4E1
330
2F3
100
AcDbEntity
  8
0
  6
Continuous
 62
     1
100
AcDbCircle
 10
48.5
 20
182.2499999999998
 30
0.0
 40
0.25
100
AcDbArc
 50
180.0
 51
0.0
  0
ARC
  5
4E2
330
2F3
100
AcDbEntity
  8
0
  6
Continuous
 62
     1
100
AcDbCircle
 10
48.5
 20
184.75
 30
0.0
 40
0.25
100
AcDbArc
 50
0.0
 51
180.0
  0
ARC
  5
4E3
330
2F3
100
AcDbEntity
  8
0
  6
Continuous
 62
     1
100
AcDbCircle
 10
48.5
 20
184.75
 30
0.0
 40
0.25
100
AcDbArc
 50
180.0
 51
0.0
  0
LINE
  5
4E4
330
2F3
100
AcDbEntity
  8
0
  6
Continuous
 62
     1
100
AcDbLine
 10
49.5
 20
181.0
 30
0.0
 11
51.5
 21
181.0
 31
0.0
  0
LINE
  5
4E5
330
2F3
100
AcDbEntity
  8
0
  6
Continuous
 62
     1
100
AcDbLine
 10
51.5
 20
181.0
 30
0.0
 11
51.5
 21
186.0
 31
0.0
  0
LINE
  5
4E6
330
2F3
100
AcDbEntity
  8
0
  6
Continuous
 62
     1
100
AcDbLine
 10
51.5
 20
186.0
 30
0.0
 11
49.5
 21
186.0
 31
0.0
  0
LINE
  5
4E7
330
2F3
100
AcDbEntity
  8
0
  6
Continuous
 62
     1
100
AcDbLine
 10
49.5
 20
186.0
 30
0.0
 11
49.5
 21
181.0
 31
0.0
  0
ARC
  5
4E8
330
2F3
100
AcDbEntity
  8
0
  6
Continuous
 62
     1
100
AcDbCircle
 10
50.5
 20
182.2499999999998
 30
0.0
 40
0.25
100
AcDbArc
 50
0.0
 51
180.0
  0
ARC
  5
4E9
330
2F3
100
AcDbEntity
  8
0
  6
Continuous
 62
     1
100
AcDbCircle
 10
50.5
 20
182.2499999999998
 30
0.0
 40
0.25
100
AcDbArc
 50
180.0
 51
0.0
  0
ARC
  5
4EA
330
2F3
100
AcDbEntity
  8
0
  6
Continuous
 62
     1
100
AcDbCircle
 10
50.5
 20
184.75
 30
0.0
 40
0.25
100
AcDbArc
 50
0.0
 51
180.0
  0
ARC
  5
4EB
330
2F3
100
AcDbEntity
  8
0
  6
Continuous
 62
     1
100
AcDbCircle
 10
50.5
 20
184.75
 30
0.0
 40
0.25
100
AcDbArc
 50
180.0
 51
0.0
  0
LINE
  5
4EC
330
2F3
100
AcDbEntity
  8
0
  6
Continuous
 62
     1
100
AcDbLine
 10
51.5
 20
181.0
 30
0.0
 11
53.5
 21
181.0
 31
0.0
  0
LINE
  5
4ED
330
2F3
100
AcDbEntity
  8
0
  6
Continuous
 62
     1
100
AcDbLine
 10
53.5
 20
181.0
 30
0.0
 11
53.5
 21
186.0
 31
0.0
  0
LINE
  5
4EE
330
2F3
100
AcDbEntity
  8
0
  6
Continuous
 62
     1
100
AcDbLine
 10
53.5
 20
186.0
 30
0.0
 11
51.5
 21
186.0
 31
0.0
  0
LINE
  5
4EF
330
2F3
100
AcDbEntity
  8
0
  6
Continuous
 62
     1
100
AcDbLine
 10
51.5
 20
186.0
 30
0.0
 11
51.5
 21
181.0
 31
0.0
  0
ARC
  5
4F0
330
2F3
100
AcDbEntity
  8
0
  6
Continuous
 62
     1
100
AcDbCircle
 10
52.5
 20
182.2499999999998
 30
0.0
 40
0.25
100
AcDbArc
 50
0.0
 51
180.0
  0
ARC
  5
4F1
330
2F3
100
AcDbEntity
  8
0
  6
Continuous
 62
     1
100
AcDbCircle
 10
52.5
 20
182.2499999999998
 30
0.0
 40
0.25
100
AcDbArc
 50
180.0
 51
0.0
  0
ARC
  5
4F2
330
2F3
100
AcDbEntity
  8
0
  6
Continuous
 62
     1
100
AcDbCircle
 10
52.5
 20
184.75
 30
0.0
 40
0.25
100
AcDbArc
 50
0.0
 51
180.0
  0
ARC
  5
4F3
330
2F3
100
AcDbEntity
  8
0
  6
Continuous
 62
     1
100
AcDbCircle
 10
52.5
 20
184.75
 30
0.0
 40
0.25
100
AcDbArc
 50
180.0
 51
0.0
  0
LINE
  5
4F4
330
2F3
100
AcDbEntity
  8
0
  6
Continuous
 62
     1
100
AcDbLine
 10
24.5
 20
164.5
 30
0.0
 11
26.5
 21
164.5
 31
0.0
  0
LINE
  5
4F5
330
2F3
100
AcDbEntity
  8
0
  6
Continuous
 62
     1
100
AcDbLine
 10
26.5
 20
164.5
 30
0.0
 11
26.5
 21
177.5
 31
0.0
  0
LINE
  5
4F6
330
2F3
100
AcDbEntity
  8
0
  6
Continuous
 62
     1
100
AcDbLine
 10
26.5
 20
177.5
 30
0.0
 11
24.5
 21
177.5
 31
0.0
  0
LINE
  5
4F7
330
2F3
100
AcDbEntity
  8
0
  6
Continuous
 62
     1
100
AcDbLine
 10
24.5
 20
177.5
 30
0.0
 11
24.5
 21
164.5
 31
0.0
  0
LINE
  5
4F8
330
2F3
100
AcDbEntity
  8
0
  6
Continuous
 62
     1
100
AcDbLine
 10
113.5
 20
164.5
 30
0.0
 11
115.5
 21
164.5
 31
0.0
  0
LINE
  5
4F9
330
2F3
100
AcDbEntity
  8
0
  6
Continuous
 62
     1
100
AcDbLine
 10
115.5
 20
164.5
 30
0.0
 11
115.5
 21
177.5
 31
0.0
  0
LINE
  5
4FA
330
2F3
100
AcDbEntity
  8
0
  6
Continuous
 62
     1
100
AcDbLine
 10
115.5
 20
177.5
 30
0.0
 11
113.5
 21
177.5
 31
0.0
  0
LINE
  5
4FB
330
2F3
100
AcDbEntity
  8
0
  6
Continuous
 62
     1
100
AcDbLine
 10
113.5
 20
177.5
 30
0.0
 11
113.5
 21
164.5
 31
0.0
  0
LINE
  5
4FC
330
2F3
100
AcDbEntity
  8
0
  6
Continuous
 62
     1
100
AcDbLine
 10
113.5
 20
165.5
 30
0.0
 11
115.5
 21
165.5
 31
0.0
  0
LINE
  5
4FD
330
2F3
100
AcDbEntity
  8
0
  6
Continuous
 62
     1
100
AcDbLine
 10
115.5
 20
165.5
 30
0.0
 11
115.5
 21
176.5
 31
0.0
  0
LINE
  5
4FE
330
2F3
100
AcDbEntity
  8
0
  6
Continuous
 62
     1
100
AcDbLine
 10
115.5
 20
176.5
 30
0.0
 11
113.5
 21
176.5
 31
0.0
  0
LINE
  5
4FF
330
2F3
100
AcDbEntity
  8
0
  6
Continuous
 62
     1
100
AcDbLine
 10
113.5
 20
176.5
 30
0.0
 11
113.5
 21
165.5
 31
0.0
  0
LINE
  5
500
330
2F3
100
AcDbEntity
  8
0
  6
Continuous
 62
     1
100
AcDbLine
 10
115.5
 20
165.5
 30
0.0
 11
119.0
 21
165.5
 31
0.0
  0
LINE
  5
501
330
2F3
100
AcDbEntity
  8
0
  6
Continuous
 62
     1
100
AcDbLine
 10
119.0
 20
165.5
 30
0.0
 11
119.0
 21
176.5
 31
0.0
  0
LINE
  5
502
330
2F3
100
AcDbEntity
  8
0
  6
Continuous
 62
     1
100
AcDbLine
 10
119.0
 20
176.5
 30
0.0
 11
115.5
 21
176.5
 31
0.0
  0
LINE
  5
503
330
2F3
100
AcDbEntity
  8
0
  6
Continuous
 62
     1
100
AcDbLine
 10
115.5
 20
176.5
 30
0.0
 11
115.5
 21
165.5
 31
0.0
  0
LINE
  5
504
330
2F3
100
AcDbEntity
  8
0
  6
Continuous
 62
     1
100
AcDbLine
 10
24.5
 20
165.5
 30
0.0
 11
26.5
 21
165.5
 31
0.0
  0
LINE
  5
505
330
2F3
100
AcDbEntity
  8
0
  6
Continuous
 62
     1
100
AcDbLine
 10
26.5
 20
165.5
 30
0.0
 11
26.5
 21
176.5
 31
0.0
  0
LINE
  5
506
330
2F3
100
AcDbEntity
  8
0
  6
Continuous
 62
     1
100
AcDbLine
 10
26.5
 20
176.5
 30
0.0
 11
24.5
 21
176.5
 31
0.0
  0
LINE
  5
507
330
2F3
100
AcDbEntity
  8
0
  6
Continuous
 62
     1
100
AcDbLine
 10
24.5
 20
176.5
 30
0.0
 11
24.5
 21
165.5
 31
0.0
  0
LINE
  5
508
330
2F3
100
AcDbEntity
  8
0
  6
Continuous
 62
     1
100
AcDbLine
 10
21.0
 20
165.5
 30
0.0
 11
24.5
 21
165.5
 31
0.0
  0
LINE
  5
509
330
2F3
100
AcDbEntity
  8
0
  6
Continuous
 62
     1
100
AcDbLine
 10
24.5
 20
165.5
 30
0.0
 11
24.5
 21
176.5
 31
0.0
  0
LINE
  5
50A
330
2F3
100
AcDbEntity
  8
0
  6
Continuous
 62
     1
100
AcDbLine
 10
24.5
 20
176.5
 30
0.0
 11
21.0
 21
176.5
 31
0.0
  0
LINE
  5
50B
330
2F3
100
AcDbEntity
  8
0
  6
Continuous
 62
     1
100
AcDbLine
 10
21.0
 20
176.5
 30
0.0
 11
21.0
 21
165.5
 31
0.0
  0
LINE
  5
50C
330
2F3
100
AcDbEntity
  8
0
  6
Continuous
 62
     3
100
AcDbLine
 10
26.486
 20
139.2379999999996
 30
0.0
 11
24.19999999999999
 21
140.0
 31
0.0
  0
LINE
  5
50D
330
2F3
100
AcDbEntity
  8
0
  6
Continuous
 62
     3
100
AcDbLine
 10
24.19999999999999
 20
140.0
 30
0.0
 11
26.486
 21
140.762
 31
0.0
  0
LINE
  5
50E
330
2F3
100
AcDbEntity
  8
0
  6
Continuous
 62
     3
100
AcDbLine
 10
113.714
 20
140.762
 30
0.0
 11
116.0
 21
140.0
 31
0.0
  0
LINE
  5
50F
330
2F3
100
AcDbEntity
  8
0
  6
Continuous
 62
     3
100
AcDbLine
 10
116.0
 20
140.0
 30
0.0
 11
113.714
 21
139.2379999999996
 31
0.0
  0
LINE
  5
510
330
2F3
100
AcDbEntity
  8
0
  6
Continuous
 62
     3
100
AcDbLine
 10
62.0
 20
134.0
 30
0.0
 11
62.0
 21
127.0
 31
0.0
  0
LINE
  5
511
330
2F3
100
AcDbEntity
  8
0
  6
Continuous
 62
     3
100
AcDbLine
 10
64.486
 20
128.238
 30
0.0
 11
62.2
 21
129.0
 31
0.0
  0
LINE
  5
512
330
2F3
100
AcDbEntity
  8
0
  6
Continuous
 62
     3
100
AcDbLine
 10
62.2
 20
129.0
 30
0.0
 11
64.486
 21
129.762
 31
0.0
  0
LINE
  5
513
330
2F3
100
AcDbEntity
  8
0
  6
Continuous
 62
     3
100
AcDbLine
 10
72.38600000000002
 20
134.238
 30
0.0
 11
70.09999999999999
 21
135.0
 31
0.0
  0
LINE
  5
514
330
2F3
100
AcDbEntity
  8
0
  6
Continuous
 62
     3
100
AcDbLine
 10
70.09999999999999
 20
135.0
 30
0.0
 11
72.38600000000002
 21
135.762
 31
0.0
  0
LINE
  5
515
330
2F3
100
AcDbEntity
  8
0
  6
Continuous
 62
     3
100
AcDbLine
 10
84.0
 20
140.0
 30
0.0
 11
84.0
 21
127.0
 31
0.0
  0
LINE
  5
516
330
2F3
100
AcDbEntity
  8
0
  6
Continuous
 62
     3
100
AcDbLine
 10
81.714
 20
129.762
 30
0.0
 11
84.0
 21
129.0
 31
0.0
  0
LINE
  5
517
330
2F3
100
AcDbEntity
  8
0
  6
Continuous
 62
     3
100
AcDbLine
 10
84.0
 20
129.0
 30
0.0
 11
81.714
 21
128.238
 31
0.0
  0
TEXT
  5
518
330
2F3
100
AcDbEntity
  8
0
  6
Continuous
 62
     3
100
AcDbText
 10
77.44166699999998
 20
130.70625
 30
0.0
 40
2.116666999999999
  1
１１
  7
KANJI4
100
AcDbText
  0
LINE
  5
519
330
2F3
100
AcDbEntity
  8
0
  6
Continuous
 62
     3
100
AcDbLine
 10
82.11399999999997
 20
135.762
 30
0.0
 11
84.40000000000003
 21
135.0
 31
0.0
  0
LINE
  5
51A
330
2F3
100
AcDbEntity
  8
0
  6
Continuous
 62
     3
100
AcDbLine
 10
84.40000000000003
 20
135.0
 30
0.0
 11
82.11399999999997
 21
134.238
 31
0.0
  0
TEXT
  5
51B
330
2F3
100
AcDbEntity
  8
0
  6
Continuous
 62
     3
100
AcDbText
 10
75.43769899999998
 20
136.70625
 30
0.0
 40
2.116666999999999
  1
１４
  7
KANJI4
100
AcDbText
  0
LINE
  5
51C
330
2F3
100
AcDbEntity
  8
0
  6
Continuous
 62
     3
100
AcDbLine
 10
73.0
 20
134.0
 30
0.0
 11
73.0
 21
127.0
 31
0.0
  0
LINE
  5
51D
330
2F3
100
AcDbEntity
  8
0
  6
Continuous
 62
     3
100
AcDbLine
 10
70.714
 20
129.762
 30
0.0
 11
73.0
 21
129.0
 31
0.0
  0
LINE
  5
51E
330
2F3
100
AcDbEntity
  8
0
  6
Continuous
 62
     3
100
AcDbLine
 10
73.0
 20
129.0
 30
0.0
 11
70.714
 21
128.238
 31
0.0
  0
LINE
  5
51F
330
2F3
100
AcDbEntity
  8
0
  6
Continuous
 62
     3
100
AcDbLine
 10
75.486
 20
128.238
 30
0.0
 11
73.2
 21
129.0
 31
0.0
  0
LINE
  5
520
330
2F3
100
AcDbEntity
  8
0
  6
Continuous
 62
     3
100
AcDbLine
 10
73.2
 20
129.0
 30
0.0
 11
75.486
 21
129.762
 31
0.0
  0
LINE
  5
521
330
2F3
100
AcDbEntity
  8
0
  6
Continuous
 62
     3
100
AcDbLine
 10
18.0
 20
122.0
 30
0.0
 11
24.0
 21
111.0
 31
0.0
  0
LINE
  5
522
330
2F3
100
AcDbEntity
  8
0
  6
Continuous
 62
     3
100
AcDbLine
 10
21.286
 20
119.2379999999999
 30
0.0
 11
19.0
 21
120.0
 31
0.0
  0
LINE
  5
523
330
2F3
100
AcDbEntity
  8
0
  6
Continuous
 62
     3
100
AcDbLine
 10
19.0
 20
120.0
 30
0.0
 11
21.286
 21
120.762
 31
0.0
  0
TEXT
  5
524
330
2F3
100
AcDbEntity
  8
0
  6
Continuous
 62
     3
100
AcDbText
 10
63.02658799999999
 20
116.7062499999999
 30
0.0
 40
2.116666999999999
  1
      ９１.８５
  7
KANJI4
100
AcDbText
  0
LINE
  5
525
330
2F3
100
AcDbEntity
  8
0
  6
Continuous
 62
     3
100
AcDbLine
 10
110.0
 20
122.0
 30
0.0
 11
116.0
 21
111.0
 31
0.0
  0
LINE
  5
526
330
2F3
100
AcDbEntity
  8
0
  6
Continuous
 62
     3
100
AcDbLine
 10
108.7139999999999
 20
120.762
 30
0.0
 11
111.0
 21
120.0
 31
0.0
  0
LINE
  5
527
330
2F3
100
AcDbEntity
  8
0
  6
Continuous
 62
     3
100
AcDbLine
 10
111.0
 20
120.0
 30
0.0
 11
108.7139999999999
 21
119.2379999999999
 31
0.0
  0
LINE
  5
528
330
2F3
100
AcDbEntity
  8
0
  6
Continuous
 62
     3
100
AcDbLine
 10
115.9
 20
142.4
 30
0.0
 11
115.9
 21
125.0
 31
0.0
  0
TEXT
  5
52A
330
2F3
100
AcDbEntity
  8
0
  6
Continuous
 62
     3
100
AcDbText
 10
74.82619099999998
 20
141.68625
 30
0.0
 40
2.116666999999999
  1
９１.６
  7
KANJI4
100
AcDbText
  0
TEXT
  5
52B
330
2F3
100
AcDbEntity
  8
0
  6
Continuous
 62
     3
100
AcDbText
 10
63.56166700000001
 20
130.68625
 30
0.0
 40
2.116666999999999
  1
１１
  7
KANJI4
100
AcDbText
  0
LINE
  5
52C
330
2F3
100
AcDbEntity
  8
0
  6
Continuous
 62
     3
100
AcDbLine
 10
24.19999999999999
 20
140.0
 30
0.0
 11
116.0
 21
140.0
 31
0.0
  0
LINE
  5
52D
330
2F3
100
AcDbEntity
  8
0
  6
Continuous
 62
     3
100
AcDbLine
 10
24.0
 20
142.5
 30
0.0
 11
24.0
 21
125.0
 31
0.0
  0
LINE
  5
52E
330
2F3
100
AcDbEntity
  8
0
  6
Continuous
 62
     3
100
AcDbLine
 10
18.821312327
 20
120.0
 30
0.0
 11
111.0
 21
120.0
 31
0.0
  0
LINE
  5
52F
330
2F3
100
AcDbEntity
  8
0
  6
Continuous
 62
     3
100
AcDbLine
 10
70.09999999999999
 20
135.0
 30
0.0
 11
84.40000000000003
 21
135.0
 31
0.0
  0
LINE
  5
530
330
2F3
100
AcDbEntity
  8
0
  6
Continuous
 62
     3
100
AcDbLine
 10
73.2
 20
129.0
 30
0.0
 11
84.0
 21
129.0
 31
0.0
  0
LINE
  5
531
330
2F3
100
AcDbEntity
  8
0
  6
Continuous
 62
     3
100
AcDbLine
 10
62.2
 20
129.0
 30
0.0
 11
73.2
 21
129.0
 31
0.0
  0
LINE
  5
532
330
2F3
100
AcDbEntity
  8
0
  6
Continuous
 62
     3
100
AcDbLine
 10
38.0
 20
64.55
 30
0.0
 11
37.48236191
 21
62.61814834699999
 31
0.0
  0
LINE
  5
533
330
2F3
100
AcDbEntity
  8
0
  6
Continuous
 62
     3
100
AcDbLine
 10
38.0
 20
64.55
 30
0.0
 11
38.51763808999999
 21
62.61814834699999
 31
0.0
  0
LINE
  5
534
330
2F3
100
AcDbEntity
  8
0
  6
Continuous
 62
     3
100
AcDbLine
 10
38.0
 20
64.55
 30
0.0
 11
38.0
 21
51.85
 31
0.0
  0
LINE
  5
535
330
2F3
100
AcDbEntity
  8
0
  6
Continuous
 62
     3
100
AcDbLine
 10
38.0
 20
51.85
 30
0.0
 11
38.51763808999999
 21
53.781851653
 31
0.0
  0
LINE
  5
536
330
2F3
100
AcDbEntity
  8
0
  6
Continuous
 62
     3
100
AcDbLine
 10
38.0
 20
51.85
 30
0.0
 11
37.48236191
 21
53.781851653
 31
0.0
  0
LINE
  5
537
330
2F3
100
AcDbEntity
  8
0
  6
Continuous
 62
     3
100
AcDbLine
 10
37.0
 20
64.55
 30
0.0
 11
56.183694195
 21
64.55
 31
0.0
  0
LINE
  5
538
330
2F3
100
AcDbEntity
  8
0
  6
Continuous
 62
     3
100
AcDbLine
 10
37.0
 20
51.85
 30
0.0
 11
54.5
 21
51.85
 31
0.0
  0
LINE
  5
539
330
2F3
100
AcDbEntity
  8
0
  6
Continuous
 62
     3
100
AcDbLine
 10
38.0
 20
58.2
 30
0.0
 11
38.51763808999999
 21
60.13185165300001
 31
0.0
  0
LINE
  5
53A
330
2F3
100
AcDbEntity
  8
0
  6
Continuous
 62
     3
100
AcDbLine
 10
38.0
 20
58.2
 30
0.0
 11
37.48236191
 21
60.13185165300001
 31
0.0
  0
LINE
  5
53B
330
2F3
100
AcDbEntity
  8
0
  6
Continuous
 62
     3
100
AcDbLine
 10
38.0
 20
58.2
 30
0.0
 11
37.48236191
 21
56.268148347
 31
0.0
  0
LINE
  5
53C
330
2F3
100
AcDbEntity
  8
0
  6
Continuous
 62
     3
100
AcDbLine
 10
38.0
 20
58.2
 30
0.0
 11
38.51763808999999
 21
56.268148347
 31
0.0
  0
TEXT
  5
53D
330
2F3
100
AcDbEntity
  8
0
  6
Continuous
 62
     3
100
AcDbText
 10
36.0
 20
59.0
 30
0.0
 40
2.0
  1
５.３５
 50
90.0
 41
0.85
  7
KANJI1
100
AcDbText
  0
TEXT
  5
53E
330
2F3
100
AcDbEntity
  8
0
  6
Continuous
 62
     3
100
AcDbText
 10
36.0
 20
50.5
 30
0.0
 40
2.0
  1
７.３５
 50
90.0
 41
0.85
  7
KANJI1
100
AcDbText
  0
LINE
  5
53F
330
2F3
100
AcDbEntity
  8
0
  6
Continuous
 62
     3
100
AcDbLine
 10
159.8
 20
31.69999999999999
 30
0.0
 11
159.8
 21
14.19999999999999
 31
0.0
  0
LINE
  5
540
330
2F3
100
AcDbEntity
  8
0
  6
Continuous
 62
     3
100
AcDbLine
 10
166.0
 20
31.69999999999999
 30
0.0
 11
166.0
 21
21.69999999999999
 31
0.0
  0
LINE
  5
541
330
2F3
100
AcDbEntity
  8
0
  6
Continuous
 62
     3
100
AcDbLine
 10
162.086
 20
28.43799999999999
 30
0.0
 11
159.8
 21
29.19999999999999
 31
0.0
  0
LINE
  5
542
330
2F3
100
AcDbEntity
  8
0
  6
Continuous
 62
     3
100
AcDbLine
 10
159.8
 20
29.19999999999999
 30
0.0
 11
162.086
 21
29.96199999999999
 31
0.0
  0
LINE
  5
543
330
2F3
100
AcDbEntity
  8
0
  6
Continuous
 62
     3
100
AcDbLine
 10
163.714
 20
29.96199999999999
 30
0.0
 11
166.0
 21
29.19999999999999
 31
0.0
  0
LINE
  5
544
330
2F3
100
AcDbEntity
  8
0
  6
Continuous
 62
     3
100
AcDbLine
 10
166.0
 20
29.19999999999999
 30
0.0
 11
163.714
 21
28.43799999999999
 31
0.0
  0
TEXT
  5
545
330
2F3
100
AcDbEntity
  8
0
  6
Continuous
 62
     3
100
AcDbText
 10
160.70754
 20
25.90625
 30
0.0
 40
2.116666999999999
  1
６．３
  7
KANJI4
100
AcDbText
  0
LINE
  5
546
330
2F3
100
AcDbEntity
  8
0
  6
Continuous
 62
     3
100
AcDbLine
 10
168.2859999999998
 20
28.43799999999999
 30
0.0
 11
166.0
 21
29.19999999999999
 31
0.0
  0
LINE
  5
547
330
2F3
100
AcDbEntity
  8
0
  6
Continuous
 62
     3
100
AcDbLine
 10
166.0
 20
29.19999999999999
 30
0.0
 11
168.2859999999998
 21
29.96199999999999
 31
0.0
  0
LINE
  5
548
330
2F3
100
AcDbEntity
  8
0
  6
Continuous
 62
     3
100
AcDbLine
 10
175.9139999999999
 20
29.96199999999999
 30
0.0
 11
178.2
 21
29.19999999999999
 31
0.0
  0
LINE
  5
549
330
2F3
100
AcDbEntity
  8
0
  6
Continuous
 62
     3
100
AcDbLine
 10
178.2
 20
29.19999999999999
 30
0.0
 11
175.9139999999999
 21
28.43799999999999
 31
0.0
  0
TEXT
  5
54A
330
2F3
100
AcDbEntity
  8
0
  6
Continuous
 62
     3
100
AcDbText
 10
169.0761909999999
 20
25.90625
 30
0.0
 40
2.116666999999999
  1
１２．２
  7
KANJI4
100
AcDbText
  0
LINE
  5
54B
330
2F3
100
AcDbEntity
  8
0
  6
Continuous
 62
     3
100
AcDbLine
 10
180.3
 20
39.7
 30
0.0
 11
180.3
 21
14.19999999999999
 31
0.0
  0
LINE
  5
54C
330
2F3
100
AcDbEntity
  8
0
  6
Continuous
 62
     3
100
AcDbLine
 10
162.086
 20
15.93799999999998
 30
0.0
 11
159.8
 21
16.69999999999999
 31
0.0
  0
LINE
  5
54D
330
2F3
100
AcDbEntity
  8
0
  6
Continuous
 62
     3
100
AcDbLine
 10
159.8
 20
16.69999999999999
 30
0.0
 11
162.086
 21
17.46199999999999
 31
0.0
  0
LINE
  5
54E
330
2F3
100
AcDbEntity
  8
0
  6
Continuous
 62
     3
100
AcDbLine
 10
178.014
 20
17.46199999999999
 30
0.0
 11
180.3
 21
16.69999999999999
 31
0.0
  0
LINE
  5
54F
330
2F3
100
AcDbEntity
  8
0
  6
Continuous
 62
     3
100
AcDbLine
 10
180.3
 20
16.69999999999999
 30
0.0
 11
178.014
 21
15.93799999999998
 31
0.0
  0
TEXT
  5
550
330
2F3
100
AcDbEntity
  8
0
  6
Continuous
 62
     3
100
AcDbText
 10
168.349008
 20
13.40625
 30
0.0
 40
2.116666999999999
  1
２２
  7
KANJI4
100
AcDbText
  0
LINE
  5
551
330
2F3
100
AcDbEntity
  8
0
  6
Continuous
 62
     1
100
AcDbLine
 10
165.0
 20
79.2
 30
0.0
 11
164.5
 21
79.2
 31
0.0
  0
LINE
  5
552
330
2F3
100
AcDbEntity
  8
0
  6
Continuous
 62
     1
100
AcDbLine
 10
164.5
 20
79.2
 30
0.0
 11
164.5
 21
36.2
 31
0.0
  0
LINE
  5
553
330
2F3
100
AcDbEntity
  8
0
  6
Continuous
 62
     1
100
AcDbLine
 10
164.5
 20
36.2
 30
0.0
 11
165.0
 21
36.2
 31
0.0
  0
LINE
  5
554
330
2F3
100
AcDbEntity
  8
0
  6
Continuous
 62
     1
100
AcDbLine
 10
165.0
 20
33.7
 30
0.0
 11
166.0
 21
33.7
 31
0.0
  0
LINE
  5
555
330
2F3
100
AcDbEntity
  8
0
  6
Continuous
 62
     1
100
AcDbLine
 10
166.0
 20
33.7
 30
0.0
 11
166.0
 21
81.69999999999998
 31
0.0
  0
LINE
  5
556
330
2F3
100
AcDbEntity
  8
0
  6
Continuous
 62
     1
100
AcDbLine
 10
166.0
 20
81.69999999999998
 30
0.0
 11
165.0
 21
81.69999999999998
 31
0.0
  0
LINE
  5
557
330
2F3
100
AcDbEntity
  8
0
  6
Continuous
 62
     1
100
AcDbLine
 10
165.0
 20
81.69999999999998
 30
0.0
 11
165.0
 21
33.7
 31
0.0
  0
LINE
  5
558
330
2F3
100
AcDbEntity
  8
0
  6
Continuous
 62
     1
100
AcDbLine
 10
159.8
 20
33.7
 30
0.0
 11
165.0
 21
33.7
 31
0.0
  0
LINE
  5
559
330
2F3
100
AcDbEntity
  8
0
  6
Continuous
 62
     1
100
AcDbLine
 10
165.0
 20
33.7
 30
0.0
 11
159.8
 21
33.7
 31
0.0
  0
LINE
  5
55A
330
2F3
100
AcDbEntity
  8
0
  6
Continuous
 62
     1
100
AcDbLine
 10
159.8
 20
33.7
 30
0.0
 11
159.8
 21
35.20000000000001
 31
0.0
  0
LINE
  5
55B
330
2F3
100
AcDbEntity
  8
0
  6
Continuous
 62
     1
100
AcDbLine
 10
159.8
 20
35.20000000000001
 30
0.0
 11
159.8
 21
33.7
 31
0.0
  0
LINE
  5
55C
330
2F3
100
AcDbEntity
  8
0
  6
Continuous
 62
     1
100
AcDbLine
 10
159.8
 20
35.20000000000001
 30
0.0
 11
160.0
 21
35.20000000000001
 31
0.0
  0
LINE
  5
55D
330
2F3
100
AcDbEntity
  8
0
  6
Continuous
 62
     1
100
AcDbLine
 10
160.0
 20
35.20000000000001
 30
0.0
 11
159.8
 21
35.20000000000001
 31
0.0
  0
LINE
  5
55E
330
2F3
100
AcDbEntity
  8
0
  6
Continuous
 62
     1
100
AcDbLine
 10
160.0
 20
35.20000000000001
 30
0.0
 11
160.0
 21
80.20000000000001
 31
0.0
  0
LINE
  5
55F
330
2F3
100
AcDbEntity
  8
0
  6
Continuous
 62
     1
100
AcDbLine
 10
160.0
 20
80.20000000000001
 30
0.0
 11
159.6999999999999
 21
80.20000000000001
 31
0.0
  0
LINE
  5
560
330
2F3
100
AcDbEntity
  8
0
  6
Continuous
 62
     1
100
AcDbLine
 10
159.6999999999999
 20
80.20000000000001
 30
0.0
 11
159.6999999999999
 21
81.69999999999998
 31
0.0
  0
LINE
  5
561
330
2F3
100
AcDbEntity
  8
0
  6
Continuous
 62
     1
100
AcDbLine
 10
159.6999999999999
 20
81.69999999999998
 30
0.0
 11
165.0
 21
81.69999999999998
 31
0.0
  0
LINE
  5
562
330
2F3
100
AcDbEntity
  8
0
  6
Continuous
 62
     1
100
AcDbLine
 10
166.0
 20
80.4
 30
0.0
 11
178.2
 21
80.20000000000001
 31
0.0
  0
LINE
  5
563
330
2F3
100
AcDbEntity
  8
0
  6
Continuous
 62
     1
100
AcDbLine
 10
166.0
 20
35.0
 30
0.0
 11
178.2
 21
35.20000000000001
 31
0.0
  0
LINE
  5
564
330
2F3
100
AcDbEntity
  8
0
  6
Continuous
 62
     1
100
AcDbLine
 10
178.2
 20
35.20000000000001
 30
0.0
 11
178.2
 21
80.20000000000001
 31
0.0
  0
LINE
  5
565
330
2F3
100
AcDbEntity
  8
0
  6
Continuous
 62
     1
100
AcDbLine
 10
178.2
 20
64.7
 30
0.0
 11
166.0
 21
64.7
 31
0.0
  0
LINE
  5
566
330
2F3
100
AcDbEntity
  8
0
  6
Continuous
 62
     1
100
AcDbLine
 10
178.2
 20
51.7
 30
0.0
 11
166.0
 21
51.7
 31
0.0
  0
LINE
  5
567
330
2F3
100
AcDbEntity
  8
0
  6
Continuous
 62
     1
100
AcDbLine
 10
171.5
 20
52.7
 30
0.0
 11
178.2
 21
52.7
 31
0.0
  0
LINE
  5
568
330
2F3
100
AcDbEntity
  8
0
  6
Continuous
 62
     1
100
AcDbLine
 10
178.2
 20
52.7
 30
0.0
 11
178.2
 21
63.7
 31
0.0
  0
LINE
  5
569
330
2F3
100
AcDbEntity
  8
0
  6
Continuous
 62
     1
100
AcDbLine
 10
178.2
 20
63.7
 30
0.0
 11
171.5
 21
63.7
 31
0.0
  0
LINE
  5
56A
330
2F3
100
AcDbEntity
  8
0
  6
Continuous
 62
     1
100
AcDbLine
 10
171.5
 20
63.7
 30
0.0
 11
171.5
 21
52.7
 31
0.0
  0
LINE
  5
56B
330
2F3
100
AcDbEntity
  8
0
  6
Continuous
 62
     1
100
AcDbLine
 10
166.5
 20
52.7
 30
0.0
 11
171.5
 21
52.7
 31
0.0
  0
LINE
  5
56C
330
2F3
100
AcDbEntity
  8
0
  6
Continuous
 62
     1
100
AcDbLine
 10
171.5
 20
52.7
 30
0.0
 11
171.5
 21
63.7
 31
0.0
  0
LINE
  5
56D
330
2F3
100
AcDbEntity
  8
0
  6
Continuous
 62
     1
100
AcDbLine
 10
171.5
 20
63.7
 30
0.0
 11
166.5
 21
63.7
 31
0.0
  0
LINE
  5
56E
330
2F3
100
AcDbEntity
  8
0
  6
Continuous
 62
     1
100
AcDbLine
 10
166.5
 20
63.7
 30
0.0
 11
166.5
 21
52.7
 31
0.0
  0
LINE
  5
56F
330
2F3
100
AcDbEntity
  8
0
  6
Continuous
 62
     1
100
AcDbLine
 10
167.0
 20
63.7
 30
0.0
 11
167.0
 21
52.7
 31
0.0
  0
LINE
  5
570
330
2F3
100
AcDbEntity
  8
0
  6
Continuous
 62
     1
100
AcDbLine
 10
167.5
 20
63.7
 30
0.0
 11
167.5
 21
52.7
 31
0.0
  0
LINE
  5
571
330
2F3
100
AcDbEntity
  8
0
  6
Continuous
 62
     1
100
AcDbLine
 10
168.0
 20
63.7
 30
0.0
 11
168.0
 21
52.7
 31
0.0
  0
LINE
  5
572
330
2F3
100
AcDbEntity
  8
0
  6
Continuous
 62
     1
100
AcDbLine
 10
168.5
 20
63.7
 30
0.0
 11
168.5
 21
52.7
 31
0.0
  0
LINE
  5
573
330
2F3
100
AcDbEntity
  8
0
  6
Continuous
 62
     1
100
AcDbLine
 10
169.0
 20
63.7
 30
0.0
 11
169.0
 21
52.7
 31
0.0
  0
LINE
  5
574
330
2F3
100
AcDbEntity
  8
0
  6
Continuous
 62
     1
100
AcDbLine
 10
169.5
 20
63.7
 30
0.0
 11
169.5
 21
52.7
 31
0.0
  0
LINE
  5
575
330
2F3
100
AcDbEntity
  8
0
  6
Continuous
 62
     1
100
AcDbLine
 10
170.0
 20
63.7
 30
0.0
 11
170.0
 21
52.7
 31
0.0
  0
LINE
  5
576
330
2F3
100
AcDbEntity
  8
0
  6
Continuous
 62
     1
100
AcDbLine
 10
170.5
 20
63.7
 30
0.0
 11
170.5
 21
52.7
 31
0.0
  0
LINE
  5
577
330
2F3
100
AcDbEntity
  8
0
  6
Continuous
 62
     1
100
AcDbLine
 10
171.0
 20
63.7
 30
0.0
 11
171.0
 21
52.7
 31
0.0
  0
LINE
  5
578
330
2F3
100
AcDbEntity
  8
0
  6
Continuous
 62
     3
100
AcDbLine
 10
159.8
 20
29.19999999999999
 30
0.0
 11
166.0
 21
29.19999999999999
 31
0.0
  0
LINE
  5
579
330
2F3
100
AcDbEntity
  8
0
  6
Continuous
 62
     3
100
AcDbLine
 10
166.0
 20
29.19999999999999
 30
0.0
 11
178.2
 21
29.19999999999999
 31
0.0
  0
LINE
  5
57A
330
2F3
100
AcDbEntity
  8
0
  6
Continuous
 62
     3
100
AcDbLine
 10
159.8
 20
16.69999999999999
 30
0.0
 11
180.3
 21
16.69999999999999
 31
0.0
  0
LINE
  5
57B
330
2F3
100
AcDbEntity
  8
0
  6
Continuous
 62
     1
100
AcDbLine
 10
178.2
 20
42.6
 30
0.0
 11
179.0
 21
42.6
 31
0.0
  0
LINE
  5
57C
330
2F3
100
AcDbEntity
  8
0
  6
Continuous
 62
     1
100
AcDbLine
 10
179.0
 20
42.6
 30
0.0
 11
179.0
 21
48.6
 31
0.0
  0
LINE
  5
57D
330
2F3
100
AcDbEntity
  8
0
  6
Continuous
 62
     1
100
AcDbLine
 10
179.0
 20
48.6
 30
0.0
 11
178.2
 21
48.6
 31
0.0
  0
LINE
  5
57E
330
2F3
100
AcDbEntity
  8
0
  6
Continuous
 62
     1
100
AcDbLine
 10
178.2
 20
48.6
 30
0.0
 11
178.2
 21
42.6
 31
0.0
  0
LINE
  5
57F
330
2F3
100
AcDbEntity
  8
0
  6
Continuous
 62
     1
100
AcDbLine
 10
180.3
 20
43.6
 30
0.0
 11
180.3
 21
47.6
 31
0.0
  0
ARC
  5
580
330
2F3
100
AcDbEntity
  8
0
  6
Continuous
 62
     1
100
AcDbCircle
 10
179.800000374
 20
47.600000374
 30
0.0
 40
0.4999996260000001
100
AcDbArc
 50
359.9999571999999
 51
90.000042805
  0
LINE
  5
581
330
2F3
100
AcDbEntity
  8
0
  6
Continuous
 62
     1
100
AcDbLine
 10
179.8
 20
48.1
 30
0.0
 11
179.4999999999998
 21
48.1
 31
0.0
  0
ARC
  5
582
330
2F3
100
AcDbEntity
  8
0
  6
Continuous
 62
     1
100
AcDbCircle
 10
179.4999996259998
 20
47.600000374
 30
0.0
 40
0.4999996260000001
100
AcDbArc
 50
89.99995719599999
 51
180.0000427999999
  0
LINE
  5
583
330
2F3
100
AcDbEntity
  8
0
  6
Continuous
 62
     1
100
AcDbLine
 10
179.0
 20
47.6
 30
0.0
 11
179.0
 21
43.6
 31
0.0
  0
ARC
  5
584
330
2F3
100
AcDbEntity
  8
0
  6
Continuous
 62
     1
100
AcDbCircle
 10
179.4999996259998
 20
43.599999626
 30
0.0
 40
0.4999996260000001
100
AcDbArc
 50
179.9999571999999
 51
270.000042805
  0
LINE
  5
585
330
2F3
100
AcDbEntity
  8
0
  6
Continuous
 62
     1
100
AcDbLine
 10
179.4999999999998
 20
43.1
 30
0.0
 11
179.8
 21
43.1
 31
0.0
  0
ARC
  5
586
330
2F3
100
AcDbEntity
  8
0
  6
Continuous
 62
     1
100
AcDbCircle
 10
179.800000374
 20
43.599999626
 30
0.0
 40
0.4999996260000001
100
AcDbArc
 50
269.9999571959998
 51
0.000042808
  0
LINE
  5
587
330
2F3
100
AcDbEntity
  8
0
  6
Continuous
 62
     3
100
AcDbLine
 10
166.0
 20
80.29999999999999
 30
0.0
 11
210.0
 21
97.596551724
 31
0.0
  0
LINE
  5
588
330
2F3
100
AcDbEntity
  8
0
  6
Continuous
 62
     3
100
AcDbLine
 10
166.0
 20
35.0
 30
0.0
 11
210.0
 21
52.296551724
 31
0.0
  0
LINE
  5
589
330
2F3
100
AcDbEntity
  8
0
  6
Continuous
 62
     3
100
AcDbLine
 10
206.638
 20
94.214
 30
0.0
 11
207.4
 21
96.5
 31
0.0
  0
LINE
  5
58A
330
2F3
100
AcDbEntity
  8
0
  6
Continuous
 62
     3
100
AcDbLine
 10
207.4
 20
96.5
 30
0.0
 11
208.162
 21
94.214
 31
0.0
  0
LINE
  5
58B
330
2F3
100
AcDbEntity
  8
0
  6
Continuous
 62
     3
100
AcDbLine
 10
208.162
 20
53.48600000000001
 30
0.0
 11
207.4
 21
51.2
 31
0.0
  0
LINE
  5
58C
330
2F3
100
AcDbEntity
  8
0
  6
Continuous
 62
     3
100
AcDbLine
 10
207.4
 20
51.2
 30
0.0
 11
206.638
 21
53.48600000000001
 31
0.0
  0
TEXT
  5
58D
330
2F3
100
AcDbEntity
  8
0
  6
Continuous
 62
     3
100
AcDbText
 10
209.10625
 20
76.72499999999998
 30
0.0
 40
2.116666999999999
  1
４４．９
 50
270.0
  7
KANJI4
100
AcDbText
  0
LINE
  5
58E
330
2F3
100
AcDbEntity
  8
0
  6
Continuous
 62
     3
100
AcDbLine
 10
207.4
 20
96.5
 30
0.0
 11
207.4
 21
51.2
 31
0.0
  0
LINE
  5
58F
330
2F3
100
AcDbEntity
  8
0
  6
Continuous
 62
     3
100
AcDbLine
 10
192.738
 20
77.914
 30
0.0
 11
193.5
 21
80.20000000000001
 31
0.0
  0
LINE
  5
590
330
2F3
100
AcDbEntity
  8
0
  6
Continuous
 62
     3
100
AcDbLine
 10
193.5
 20
80.20000000000001
 30
0.0
 11
194.2619999999998
 21
77.914
 31
0.0
  0
LINE
  5
591
330
2F3
100
AcDbEntity
  8
0
  6
Continuous
 62
     3
100
AcDbLine
 10
193.5
 20
80.20000000000001
 30
0.0
 11
193.5
 21
35.20000000000001
 31
0.0
  0
TEXT
  5
592
330
2F3
100
AcDbEntity
  8
0
  6
Continuous
 62
     3
100
AcDbText
 10
194.70625
 20
72.67539599999998
 30
0.0
 40
2.116666999999999
  1
４４．８
 50
270.0
  7
KANJI4
100
AcDbText
  0
LINE
  5
593
330
2F3
100
AcDbEntity
  8
0
  6
Continuous
 62
     3
100
AcDbLine
 10
194.2619999999998
 20
37.48599999999999
 30
0.0
 11
193.5
 21
35.20000000000001
 31
0.0
  0
LINE
  5
594
330
2F3
100
AcDbEntity
  8
0
  6
Continuous
 62
     3
100
AcDbLine
 10
193.5
 20
35.20000000000001
 30
0.0
 11
192.738
 21
37.48599999999999
 31
0.0
  0
LINE
  5
595
330
2F3
100
AcDbEntity
  8
0
  6
Continuous
 62
     3
100
AcDbLine
 10
180.1999999999999
 20
35.20000000000001
 30
0.0
 11
194.5
 21
35.20000000000001
 31
0.0
  0
LINE
  5
596
330
2F3
100
AcDbEntity
  8
0
  6
Continuous
 62
     3
100
AcDbLine
 10
180.0
 20
80.20000000000001
 30
0.0
 11
194.5
 21
80.20000000000001
 31
0.0
  0
LINE
  5
597
330
2F3
100
AcDbEntity
  8
0
  6
Continuous
 62
     3
100
AcDbLine
 10
185.762
 20
47.886
 30
0.0
 11
185.0
 21
45.6
 31
0.0
  0
LINE
  5
598
330
2F3
100
AcDbEntity
  8
0
  6
Continuous
 62
     3
100
AcDbLine
 10
185.0
 20
45.6
 30
0.0
 11
184.238
 21
47.886
 31
0.0
  0
LINE
  5
599
330
2F3
100
AcDbEntity
  8
0
  6
Continuous
 62
     3
100
AcDbLine
 10
185.0
 20
58.2
 30
0.0
 11
185.0
 21
45.6
 31
0.0
  0
LINE
  5
59A
330
2F3
100
AcDbEntity
  8
0
  6
Continuous
 62
     3
100
AcDbLine
 10
184.238
 20
55.914
 30
0.0
 11
185.0
 21
58.2
 31
0.0
  0
LINE
  5
59B
330
2F3
100
AcDbEntity
  8
0
  6
Continuous
 62
     3
100
AcDbLine
 10
185.0
 20
58.2
 30
0.0
 11
185.762
 21
55.914
 31
0.0
  0
TEXT
  5
59C
330
2F3
100
AcDbEntity
  8
0
  6
Continuous
 62
     3
100
AcDbText
 10
186.20625
 20
56.175396
 30
0.0
 40
2.116666999999999
  1
１２．６
 50
270.0
  7
KANJI4
100
AcDbText
  0
LINE
  5
59D
330
2F3
100
AcDbEntity
  8
0
  6
LTYPE2
 62
     3
100
AcDbLine
 10
171.5
 20
45.6
 30
0.0
 11
186.5
 21
45.6
 31
0.0
  0
LINE
  5
59E
330
2F3
100
AcDbEntity
  8
0
  6
Continuous
 62
     3
100
AcDbLine
 10
178.2
 20
34.2
 30
0.0
 11
178.2
 21
21.69999999999999
 31
0.0
  0
LINE
  5
799
330
2F3
100
AcDbEntity
  8
0
  6
LTYPE2
100
AcDbLine
 10
70.0
 20
201.8726806688406
 30
0.0
 11
70.0
 21
14.19623049183053
 31
0.0
  0
LINE
  5
79B
330
2F3
100
AcDbEntity
  8
0
  6
LTYPE2
100
AcDbLine
 10
3.198721781689982
 20
58.2
 30
0.0
 11
221.7221306367842
 21
58.2
 31
0.0
  0
ENDSEC
  0
SECTION
  2
OBJECTS
  0
DICTIONARY
  5
2E1
330
0
100
AcDbDictionary
281
     1
  3
ACAD_COLOR
350
5E7
  3
ACAD_GROUP
350
2E2
  3
ACAD_LAYOUT
350
2EE
  3
ACAD_MATERIAL
350
5B5
  3
ACAD_MLEADERSTYLE
350
5FC
  3
ACAD_MLINESTYLE
350
2EB
  3
ACAD_PLOTSETTINGS
350
2ED
  3
ACAD_PLOTSTYLENAME
350
2E3
  3
ACAD_SCALELIST
350
5EA
  3
ACAD_TABLESTYLE
350
5E8
  3
ACAD_VISUALSTYLE
350
5CE
  3
ACDB_RECOMPOSE_DATA
350
7A7
  3
AcDbVariableDictionary
350
6FF
  3
DWGPROPS
350
7A8
  0
DICTIONARY
  5
5FF
330
2E5
100
AcDbDictionary
280
     1
281
     1
  3
ADSK_XREC_LAYER_RECONCILED
360
600
  0
DICTIONARY
  5
601
330
2FA
100
AcDbDictionary
280
     1
281
     1
  3
ADSK_XREC_LAYER_RECONCILED
360
602
  0
DICTIONARY
  5
603
330
2FB
100
AcDbDictionary
280
     1
281
     1
  3
ADSK_XREC_LAYER_RECONCILED
360
604
  0
DICTIONARY
  5
605
330
2FC
100
AcDbDictionary
280
     1
281
     1
  3
ADSK_XREC_LAYER_RECONCILED
360
606
  0
DICTIONARY
  5
607
330
2FD
100
AcDbDictionary
280
     1
281
     1
  3
ADSK_XREC_LAYER_RECONCILED
360
608
  0
DICTIONARY
  5
609
330
2FE
100
AcDbDictionary
280
     1
281
     1
  3
ADSK_XREC_LAYER_RECONCILED
360
60A
  0
DICTIONARY
  5
60B
330
2FF
100
AcDbDictionary
280
     1
281
     1
  3
ADSK_XREC_LAYER_RECONCILED
360
60C
  0
DICTIONARY
  5
60D
330
300
100
AcDbDictionary
280
     1
281
     1
  3
ADSK_XREC_LAYER_RECONCILED
360
60E
  0
DICTIONARY
  5
60F
330
301
100
AcDbDictionary
280
     1
281
     1
  3
ADSK_XREC_LAYER_RECONCILED
360
610
  0
DICTIONARY
  5
611
330
302
100
AcDbDictionary
280
     1
281
     1
  3
ADSK_XREC_LAYER_RECONCILED
360
612
  0
DICTIONARY
  5
613
330
303
100
AcDbDictionary
280
     1
281
     1
  3
ADSK_XREC_LAYER_RECONCILED
360
614
  0
DICTIONARY
  5
615
330
304
100
AcDbDictionary
280
     1
281
     1
  3
ADSK_XREC_LAYER_RECONCILED
360
616
  0
DICTIONARY
  5
617
330
305
100
AcDbDictionary
280
     1
281
     1
  3
ADSK_XREC_LAYER_RECONCILED
360
618
  0
DICTIONARY
  5
619
330
306
100
AcDbDictionary
280
     1
281
     1
  3
ADSK_XREC_LAYER_RECONCILED
360
61A
  0
DICTIONARY
  5
61B
330
307
100
AcDbDictionary
280
     1
281
     1
  3
ADSK_XREC_LAYER_RECONCILED
360
61C
  0
DICTIONARY
  5
61D
330
308
100
AcDbDictionary
280
     1
281
     1
  3
ADSK_XREC_LAYER_RECONCILED
360
61E
  0
DICTIONARY
  5
61F
330
309
100
AcDbDictionary
280
     1
281
     1
  3
ADSK_XREC_LAYER_RECONCILED
360
620
  0
DICTIONARY
  5
621
330
30A
100
AcDbDictionary
280
     1
281
     1
  3
ADSK_XREC_LAYER_RECONCILED
360
622
  0
DICTIONARY
  5
623
330
30B
100
AcDbDictionary
280
     1
281
     1
  3
ADSK_XREC_LAYER_RECONCILED
360
624
  0
DICTIONARY
  5
625
330
30C
100
AcDbDictionary
280
     1
281
     1
  3
ADSK_XREC_LAYER_RECONCILED
360
626
  0
DICTIONARY
  5
627
330
30D
100
AcDbDictionary
280
     1
281
     1
  3
ADSK_XREC_LAYER_RECONCILED
360
628
  0
DICTIONARY
  5
629
330
30E
100
AcDbDictionary
280
     1
281
     1
  3
ADSK_XREC_LAYER_RECONCILED
360
62A
  0
DICTIONARY
  5
62B
330
30F
100
AcDbDictionary
280
     1
281
     1
  3
ADSK_XREC_LAYER_RECONCILED
360
62C
  0
DICTIONARY
  5
62D
330
310
100
AcDbDictionary
280
     1
281
     1
  3
ADSK_XREC_LAYER_RECONCILED
360
62E
  0
DICTIONARY
  5
62F
330
311
100
AcDbDictionary
280
     1
281
     1
  3
ADSK_XREC_LAYER_RECONCILED
360
630
  0
DICTIONARY
  5
631
330
312
100
AcDbDictionary
280
     1
281
     1
  3
ADSK_XREC_LAYER_RECONCILED
360
632
  0
DICTIONARY
  5
633
330
313
100
AcDbDictionary
280
     1
281
     1
  3
ADSK_XREC_LAYER_RECONCILED
360
634
  0
DICTIONARY
  5
635
330
314
100
AcDbDictionary
280
     1
281
     1
  3
ADSK_XREC_LAYER_RECONCILED
360
636
  0
DICTIONARY
  5
637
330
315
100
AcDbDictionary
280
     1
281
     1
  3
ADSK_XREC_LAYER_RECONCILED
360
638
  0
DICTIONARY
  5
639
330
316
100
AcDbDictionary
280
     1
281
     1
  3
ADSK_XREC_LAYER_RECONCILED
360
63A
  0
DICTIONARY
  5
63B
330
317
100
AcDbDictionary
280
     1
281
     1
  3
ADSK_XREC_LAYER_RECONCILED
360
63C
  0
DICTIONARY
  5
63D
330
318
100
AcDbDictionary
280
     1
281
     1
  3
ADSK_XREC_LAYER_RECONCILED
360
63E
  0
DICTIONARY
  5
63F
330
319
100
AcDbDictionary
280
     1
281
     1
  3
ADSK_XREC_LAYER_RECONCILED
360
640
  0
DICTIONARY
  5
641
330
31A
100
AcDbDictionary
280
     1
281
     1
  3
ADSK_XREC_LAYER_RECONCILED
360
642
  0
DICTIONARY
  5
643
330
31B
100
AcDbDictionary
280
     1
281
     1
  3
ADSK_XREC_LAYER_RECONCILED
360
644
  0
DICTIONARY
  5
645
330
31C
100
AcDbDictionary
280
     1
281
     1
  3
ADSK_XREC_LAYER_RECONCILED
360
646
  0
DICTIONARY
  5
647
330
31D
100
AcDbDictionary
280
     1
281
     1
  3
ADSK_XREC_LAYER_RECONCILED
360
648
  0
DICTIONARY
  5
649
330
31E
100
AcDbDictionary
280
     1
281
     1
  3
ADSK_XREC_LAYER_RECONCILED
360
64A
  0
DICTIONARY
  5
64B
330
31F
100
AcDbDictionary
280
     1
281
     1
  3
ADSK_XREC_LAYER_RECONCILED
360
64C
  0
DICTIONARY
  5
64D
330
320
100
AcDbDictionary
280
     1
281
     1
  3
ADSK_XREC_LAYER_RECONCILED
360
64E
  0
DICTIONARY
  5
64F
330
321
100
AcDbDictionary
280
     1
281
     1
  3
ADSK_XREC_LAYER_RECONCILED
360
650
  0
DICTIONARY
  5
651
330
322
100
AcDbDictionary
280
     1
281
     1
  3
ADSK_XREC_LAYER_RECONCILED
360
652
  0
DICTIONARY
  5
653
330
323
100
AcDbDictionary
280
     1
281
     1
  3
ADSK_XREC_LAYER_RECONCILED
360
654
  0
DICTIONARY
  5
655
330
324
100
AcDbDictionary
280
     1
281
     1
  3
ADSK_XREC_LAYER_RECONCILED
360
656
  0
DICTIONARY
  5
657
330
325
100
AcDbDictionary
280
     1
281
     1
  3
ADSK_XREC_LAYER_RECONCILED
360
658
  0
DICTIONARY
  5
659
330
326
100
AcDbDictionary
280
     1
281
     1
  3
ADSK_XREC_LAYER_RECONCILED
360
65A
  0
DICTIONARY
  5
65B
330
327
100
AcDbDictionary
280
     1
281
     1
  3
ADSK_XREC_LAYER_RECONCILED
360
65C
  0
DICTIONARY
  5
65D
330
328
100
AcDbDictionary
280
     1
281
     1
  3
ADSK_XREC_LAYER_RECONCILED
360
65E
  0
DICTIONARY
  5
65F
330
329
100
AcDbDictionary
280
     1
281
     1
  3
ADSK_XREC_LAYER_RECONCILED
360
660
  0
DICTIONARY
  5
661
330
32A
100
AcDbDictionary
280
     1
281
     1
  3
ADSK_XREC_LAYER_RECONCILED
360
662
  0
DICTIONARY
  5
663
330
32B
100
AcDbDictionary
280
     1
281
     1
  3
ADSK_XREC_LAYER_RECONCILED
360
664
  0
DICTIONARY
  5
665
330
32C
100
AcDbDictionary
280
     1
281
     1
  3
ADSK_XREC_LAYER_RECONCILED
360
666
  0
DICTIONARY
  5
667
330
32D
100
AcDbDictionary
280
     1
281
     1
  3
ADSK_XREC_LAYER_RECONCILED
360
668
  0
DICTIONARY
  5
669
330
32E
100
AcDbDictionary
280
     1
281
     1
  3
ADSK_XREC_LAYER_RECONCILED
360
66A
  0
DICTIONARY
  5
66B
330
32F
100
AcDbDictionary
280
     1
281
     1
  3
ADSK_XREC_LAYER_RECONCILED
360
66C
  0
DICTIONARY
  5
66D
330
330
100
AcDbDictionary
280
     1
281
     1
  3
ADSK_XREC_LAYER_RECONCILED
360
66E
  0
DICTIONARY
  5
66F
330
331
100
AcDbDictionary
280
     1
281
     1
  3
ADSK_XREC_LAYER_RECONCILED
360
670
  0
DICTIONARY
  5
671
330
332
100
AcDbDictionary
280
     1
281
     1
  3
ADSK_XREC_LAYER_RECONCILED
360
672
  0
DICTIONARY
  5
673
330
333
100
AcDbDictionary
280
     1
281
     1
  3
ADSK_XREC_LAYER_RECONCILED
360
674
  0
DICTIONARY
  5
675
330
334
100
AcDbDictionary
280
     1
281
     1
  3
ADSK_XREC_LAYER_RECONCILED
360
676
  0
DICTIONARY
  5
677
330
335
100
AcDbDictionary
280
     1
281
     1
  3
ADSK_XREC_LAYER_RECONCILED
360
678
  0
DICTIONARY
  5
679
330
336
100
AcDbDictionary
280
     1
281
     1
  3
ADSK_XREC_LAYER_RECONCILED
360
67A
  0
DICTIONARY
  5
67B
330
337
100
AcDbDictionary
280
     1
281
     1
  3
ADSK_XREC_LAYER_RECONCILED
360
67C
  0
DICTIONARY
  5
67D
330
338
100
AcDbDictionary
280
     1
281
     1
  3
ADSK_XREC_LAYER_RECONCILED
360
67E
  0
DICTIONARY
  5
67F
330
339
100
AcDbDictionary
280
     1
281
     1
  3
ADSK_XREC_LAYER_RECONCILED
360
680
  0
DICTIONARY
  5
681
330
33A
100
AcDbDictionary
280
     1
281
     1
  3
ADSK_XREC_LAYER_RECONCILED
360
682
  0
DICTIONARY
  5
683
330
33B
100
AcDbDictionary
280
     1
281
     1
  3
ADSK_XREC_LAYER_RECONCILED
360
684
  0
DICTIONARY
  5
685
330
33C
100
AcDbDictionary
280
     1
281
     1
  3
ADSK_XREC_LAYER_RECONCILED
360
686
  0
DICTIONARY
  5
687
330
33D
100
AcDbDictionary
280
     1
281
     1
  3
ADSK_XREC_LAYER_RECONCILED
360
688
  0
DICTIONARY
  5
689
330
33E
100
AcDbDictionary
280
     1
281
     1
  3
ADSK_XREC_LAYER_RECONCILED
360
68A
  0
DICTIONARY
  5
68B
330
33F
100
AcDbDictionary
280
     1
281
     1
  3
ADSK_XREC_LAYER_RECONCILED
360
68C
  0
DICTIONARY
  5
68D
330
340
100
AcDbDictionary
280
     1
281
     1
  3
ADSK_XREC_LAYER_RECONCILED
360
68E
  0
DICTIONARY
  5
68F
330
341
100
AcDbDictionary
280
     1
281
     1
  3
ADSK_XREC_LAYER_RECONCILED
360
690
  0
DICTIONARY
  5
691
330
342
100
AcDbDictionary
280
     1
281
     1
  3
ADSK_XREC_LAYER_RECONCILED
360
692
  0
DICTIONARY
  5
693
330
343
100
AcDbDictionary
280
     1
281
     1
  3
ADSK_XREC_LAYER_RECONCILED
360
694
  0
DICTIONARY
  5
695
330
344
100
AcDbDictionary
280
     1
281
     1
  3
ADSK_XREC_LAYER_RECONCILED
360
696
  0
DICTIONARY
  5
697
330
345
100
AcDbDictionary
280
     1
281
     1
  3
ADSK_XREC_LAYER_RECONCILED
360
698
  0
DICTIONARY
  5
699
330
346
100
AcDbDictionary
280
     1
281
     1
  3
ADSK_XREC_LAYER_RECONCILED
360
69A
  0
DICTIONARY
  5
69B
330
347
100
AcDbDictionary
280
     1
281
     1
  3
ADSK_XREC_LAYER_RECONCILED
360
69C
  0
DICTIONARY
  5
69D
330
348
100
AcDbDictionary
280
     1
281
     1
  3
ADSK_XREC_LAYER_RECONCILED
360
69E
  0
DICTIONARY
  5
69F
330
349
100
AcDbDictionary
280
     1
281
     1
  3
ADSK_XREC_LAYER_RECONCILED
360
6A0
  0
DICTIONARY
  5
6A1
330
34A
100
AcDbDictionary
280
     1
281
     1
  3
ADSK_XREC_LAYER_RECONCILED
360
6A2
  0
DICTIONARY
  5
6A3
330
34B
100
AcDbDictionary
280
     1
281
     1
  3
ADSK_XREC_LAYER_RECONCILED
360
6A4
  0
DICTIONARY
  5
6A5
330
34C
100
AcDbDictionary
280
     1
281
     1
  3
ADSK_XREC_LAYER_RECONCILED
360
6A6
  0
DICTIONARY
  5
6A7
330
34D
100
AcDbDictionary
280
     1
281
     1
  3
ADSK_XREC_LAYER_RECONCILED
360
6A8
  0
DICTIONARY
  5
6A9
330
34E
100
AcDbDictionary
280
     1
281
     1
  3
ADSK_XREC_LAYER_RECONCILED
360
6AA
  0
DICTIONARY
  5
6AB
330
34F
100
AcDbDictionary
280
     1
281
     1
  3
ADSK_XREC_LAYER_RECONCILED
360
6AC
  0
DICTIONARY
  5
6AD
330
350
100
AcDbDictionary
280
     1
281
     1
  3
ADSK_XREC_LAYER_RECONCILED
360
6AE
  0
DICTIONARY
  5
6AF
330
351
100
AcDbDictionary
280
     1
281
     1
  3
ADSK_XREC_LAYER_RECONCILED
360
6B0
  0
DICTIONARY
  5
6B1
330
352
100
AcDbDictionary
280
     1
281
     1
  3
ADSK_XREC_LAYER_RECONCILED
360
6B2
  0
DICTIONARY
  5
6B3
330
353
100
AcDbDictionary
280
     1
281
     1
  3
ADSK_XREC_LAYER_RECONCILED
360
6B4
  0
DICTIONARY
  5
6B5
330
354
100
AcDbDictionary
280
     1
281
     1
  3
ADSK_XREC_LAYER_RECONCILED
360
6B6
  0
DICTIONARY
  5
6B7
330
355
100
AcDbDictionary
280
     1
281
     1
  3
ADSK_XREC_LAYER_RECONCILED
360
6B8
  0
DICTIONARY
  5
6B9
330
356
100
AcDbDictionary
280
     1
281
     1
  3
ADSK_XREC_LAYER_RECONCILED
360
6BA
  0
DICTIONARY
  5
6BB
330
357
100
AcDbDictionary
280
     1
281
     1
  3
ADSK_XREC_LAYER_RECONCILED
360
6BC
  0
DICTIONARY
  5
6BD
330
358
100
AcDbDictionary
280
     1
281
     1
  3
ADSK_XREC_LAYER_RECONCILED
360
6BE
  0
DICTIONARY
  5
6BF
330
359
100
AcDbDictionary
280
     1
281
     1
  3
ADSK_XREC_LAYER_RECONCILED
360
6C0
  0
DICTIONARY
  5
6C1
330
35A
100
AcDbDictionary
280
     1
281
     1
  3
ADSK_XREC_LAYER_RECONCILED
360
6C2
  0
DICTIONARY
  5
6C3
330
35B
100
AcDbDictionary
280
     1
281
     1
  3
ADSK_XREC_LAYER_RECONCILED
360
6C4
  0
DICTIONARY
  5
6C5
330
35C
100
AcDbDictionary
280
     1
281
     1
  3
ADSK_XREC_LAYER_RECONCILED
360
6C6
  0
DICTIONARY
  5
6C7
330
35D
100
AcDbDictionary
280
     1
281
     1
  3
ADSK_XREC_LAYER_RECONCILED
360
6C8
  0
DICTIONARY
  5
6C9
330
35E
100
AcDbDictionary
280
     1
281
     1
  3
ADSK_XREC_LAYER_RECONCILED
360
6CA
  0
DICTIONARY
  5
6CB
330
35F
100
AcDbDictionary
280
     1
281
     1
  3
ADSK_XREC_LAYER_RECONCILED
360
6CC
  0
DICTIONARY
  5
6CD
330
360
100
AcDbDictionary
280
     1
281
     1
  3
ADSK_XREC_LAYER_RECONCILED
360
6CE
  0
DICTIONARY
  5
6CF
330
361
100
AcDbDictionary
280
     1
281
     1
  3
ADSK_XREC_LAYER_RECONCILED
360
6D0
  0
DICTIONARY
  5
6D1
330
362
100
AcDbDictionary
280
     1
281
     1
  3
ADSK_XREC_LAYER_RECONCILED
360
6D2
  0
DICTIONARY
  5
6D3
330
363
100
AcDbDictionary
280
     1
281
     1
  3
ADSK_XREC_LAYER_RECONCILED
360
6D4
  0
DICTIONARY
  5
6D5
330
364
100
AcDbDictionary
280
     1
281
     1
  3
ADSK_XREC_LAYER_RECONCILED
360
6D6
  0
DICTIONARY
  5
6D7
330
365
100
AcDbDictionary
280
     1
281
     1
  3
ADSK_XREC_LAYER_RECONCILED
360
6D8
  0
DICTIONARY
  5
6D9
330
366
100
AcDbDictionary
280
     1
281
     1
  3
ADSK_XREC_LAYER_RECONCILED
360
6DA
  0
DICTIONARY
  5
6DB
330
367
100
AcDbDictionary
280
     1
281
     1
  3
ADSK_XREC_LAYER_RECONCILED
360
6DC
  0
DICTIONARY
  5
6DD
330
368
100
AcDbDictionary
280
     1
281
     1
  3
ADSK_XREC_LAYER_RECONCILED
360
6DE
  0
DICTIONARY
  5
6DF
330
369
100
AcDbDictionary
280
     1
281
     1
  3
ADSK_XREC_LAYER_RECONCILED
360
6E0
  0
DICTIONARY
  5
6E1
330
36A
100
AcDbDictionary
280
     1
281
     1
  3
ADSK_XREC_LAYER_RECONCILED
360
6E2
  0
DICTIONARY
  5
6E3
330
36B
100
AcDbDictionary
280
     1
281
     1
  3
ADSK_XREC_LAYER_RECONCILED
360
6E4
  0
DICTIONARY
  5
6E5
330
36C
100
AcDbDictionary
280
     1
281
     1
  3
ADSK_XREC_LAYER_RECONCILED
360
6E6
  0
DICTIONARY
  5
6E7
330
36D
100
AcDbDictionary
280
     1
281
     1
  3
ADSK_XREC_LAYER_RECONCILED
360
6E8
  0
DICTIONARY
  5
6E9
330
36E
100
AcDbDictionary
280
     1
281
     1
  3
ADSK_XREC_LAYER_RECONCILED
360
6EA
  0
DICTIONARY
  5
6EB
330
36F
100
AcDbDictionary
280
     1
281
     1
  3
ADSK_XREC_LAYER_RECONCILED
360
6EC
  0
DICTIONARY
  5
6ED
330
370
100
AcDbDictionary
280
     1
281
     1
  3
ADSK_XREC_LAYER_RECONCILED
360
6EE
  0
DICTIONARY
  5
6EF
330
371
100
AcDbDictionary
280
     1
281
     1
  3
ADSK_XREC_LAYER_RECONCILED
360
6F0
  0
DICTIONARY
  5
6F1
330
372
100
AcDbDictionary
280
     1
281
     1
  3
ADSK_XREC_LAYER_RECONCILED
360
6F2
  0
DICTIONARY
  5
6F3
330
373
100
AcDbDictionary
280
     1
281
     1
  3
ADSK_XREC_LAYER_RECONCILED
360
6F4
  0
DICTIONARY
  5
6F5
330
374
100
AcDbDictionary
280
     1
281
     1
  3
ADSK_XREC_LAYER_RECONCILED
360
6F6
  0
DICTIONARY
  5
6F7
330
375
100
AcDbDictionary
280
     1
281
     1
  3
ADSK_XREC_LAYER_RECONCILED
360
6F8
  0
DICTIONARY
  5
6F9
330
376
100
AcDbDictionary
280
     1
281
     1
  3
ADSK_XREC_LAYER_RECONCILED
360
6FA
  0
DICTIONARY
  5
6FB
330
377
100
AcDbDictionary
280
     1
281
     1
  3
ADSK_XREC_LAYER_RECONCILED
360
6FC
  0
DICTIONARY
  5
6FD
330
378
100
AcDbDictionary
280
     1
281
     1
  3
ADSK_XREC_LAYER_RECONCILED
360
6FE
  0
DICTIONARY
  5
5E7
102
{ACAD_REACTORS
330
2E1
102
}
330
2E1
100
AcDbDictionary
281
     1
  0
DICTIONARY
  5
2E2
102
{ACAD_REACTORS
330
2E1
102
}
330
2E1
100
AcDbDictionary
281
     1
  0
DICTIONARY
  5
2EE
102
{ACAD_REACTORS
330
2E1
102
}
330
2E1
100
AcDbDictionary
281
     1
  3
Model
350
2F6
  3
ﾚｲｱｳﾄ1
350
2F2
  0
DICTIONARY
  5
5B5
102
{ACAD_REACTORS
330
2E1
102
}
330
2E1
100
AcDbDictionary
281
     1
  3
ByBlock
350
5BE
  3
ByLayer
350
5B6
  3
Global
350
5C6
  0
DICTIONARY
  5
5FC
102
{ACAD_REACTORS
330
2E1
102
}
330
2E1
100
AcDbDictionary
281
     1
  3
Standard
350
5FD
  0
DICTIONARY
  5
2EB
102
{ACAD_REACTORS
330
2E1
102
}
330
2E1
100
AcDbDictionary
281
     1
  3
Standard
350
2EC
  0
DICTIONARY
  5
2ED
102
{ACAD_REACTORS
330
2E1
102
}
330
2E1
100
AcDbDictionary
281
     1
  0
ACDBDICTIONARYWDFLT
  5
2E3
102
{ACAD_REACTORS
330
2E1
102
}
330
2E1
100
AcDbDictionary
281
     1
  3
Normal
350
2E4
100
AcDbDictionaryWithDefault
340
2E4
  0
DICTIONARY
  5
5EA
102
{ACAD_REACTORS
330
2E1
102
}
330
2E1
100
AcDbDictionary
281
     1
  3
A0
350
5EB
  3
A1
350
5EC
  3
A2
350
5ED
  3
A3
350
5EE
  3
A4
350
5EF
  3
A5
350
5F0
  3
A6
350
5F1
  3
A7
350
5F2
  3
A8
350
5F3
  3
A9
350
5F4
  3
B0
350
5F5
  3
B1
350
5F6
  3
B2
350
5F7
  3
B3
350
5F8
  3
B4
350
5F9
  3
B5
350
5FA
  3
B6
350
5FB
  0
DICTIONARY
  5
5E8
102
{ACAD_REACTORS
330
2E1
102
}
330
2E1
100
AcDbDictionary
281
     1
  3
Standard
350
5E9
  0
DICTIONARY
  5
5CE
102
{ACAD_REACTORS
330
2E1
102
}
330
2E1
100
AcDbDictionary
281
     1
  3
2dWireframe
350
5D4
  3
Basic
350
5D3
  3
Brighten
350
5DA
  3
ColorChange
350
5DE
  3
Conceptual
350
5D7
  3
Dim
350
5D9
  3
EdgeColorOff
350
5E6
  3
Facepattern
350
5DD
  3
Flat
350
5CF
  3
FlatWithEdges
350
5D0
  3
Gouraud
350
5D1
  3
GouraudWithEdges
350
5D2
  3
Hidden
350
5D6
  3
JitterOff
350
5E4
  3
Linepattern
350
5DC
  3
OverhangOff
350
5E5
  3
Realistic
350
5D8
  3
Shaded
350
5E3
  3
Shaded with edges
350
5E2
  3
Shades of Gray
350
5DF
  3
Sketchy
350
5E0
  3
Thicken
350
5DB
  3
Wireframe
350
5D5
  3
X-Ray
350
5E1
  0
XRECORD
  5
7A7
102
{ACAD_REACTORS
330
2E1
102
}
330
2E1
100
AcDbXrecord
280
     1
 90
        1
330
5E9
  0
DICTIONARY
  5
6FF
102
{ACAD_REACTORS
330
2E1
102
}
330
2E1
100
AcDbDictionary
281
     1
  3
CANNOSCALE
350
703
  3
CMLEADERSTYLE
350
701
  3
CTABLESTYLE
350
700
  3
DIMASSOC
350
711
  3
INDEXCTL
350
710
  3
LAYEREVAL
350
705
  3
LAYERNOTIFY
350
706
  3
LIGHTINGUNITS
350
704
  3
LOFTANG1
350
7A3
  3
LOFTANG2
350
7A4
  3
MSLTSCALE
350
702
  3
SORTENTS
350
70F
  3
XCLIPFRAME
350
7A5
  0
XRECORD
  5
7A8
102
{ACAD_REACTORS
330
2E1
102
}
330
2E1
100
AcDbXrecord
280
     1
  1
DWGPROPS COOKIE
  2

  3

  4

  6

  7

  8
user1
  9

300
=
301
=
302
=
303
=
304
=
305
=
306
=
307
=
308
=
309
=
 40
0.0250525462962963
 41
2452152.858991436
 42
2457836.384407801
  1

 90
        0
  0
XRECORD
  5
600
102
{ACAD_REACTORS
330
5FF
102
}
330
5FF
100
AcDbXrecord
280
     1
290
     1
  0
XRECORD
  5
602
102
{ACAD_REACTORS
330
601
102
}
330
601
100
AcDbXrecord
280
     1
290
     1
  0
XRECORD
  5
604
102
{ACAD_REACTORS
330
603
102
}
330
603
100
AcDbXrecord
280
     1
290
     1
  0
XRECORD
  5
606
102
{ACAD_REACTORS
330
605
102
}
330
605
100
AcDbXrecord
280
     1
290
     1
  0
XRECORD
  5
608
102
{ACAD_REACTORS
330
607
102
}
330
607
100
AcDbXrecord
280
     1
290
     1
  0
XRECORD
  5
60A
102
{ACAD_REACTORS
330
609
102
}
330
609
100
AcDbXrecord
280
     1
290
     1
  0
XRECORD
  5
60C
102
{ACAD_REACTORS
330
60B
102
}
330
60B
100
AcDbXrecord
280
     1
290
     1
  0
XRECORD
  5
60E
102
{ACAD_REACTORS
330
60D
102
}
330
60D
100
AcDbXrecord
280
     1
290
     1
  0
XRECORD
  5
610
102
{ACAD_REACTORS
330
60F
102
}
330
60F
100
AcDbXrecord
280
     1
290
     1
  0
XRECORD
  5
612
102
{ACAD_REACTORS
330
611
102
}
330
611
100
AcDbXrecord
280
     1
290
     1
  0
XRECORD
  5
614
102
{ACAD_REACTORS
330
613
102
}
330
613
100
AcDbXrecord
280
     1
290
     1
  0
XRECORD
  5
616
102
{ACAD_REACTORS
330
615
102
}
330
615
100
AcDbXrecord
280
     1
290
     1
  0
XRECORD
  5
618
102
{ACAD_REACTORS
330
617
102
}
330
617
100
AcDbXrecord
280
     1
290
     1
  0
XRECORD
  5
61A
102
{ACAD_REACTORS
330
619
102
}
330
619
100
AcDbXrecord
280
     1
290
     1
  0
XRECORD
  5
61C
102
{ACAD_REACTORS
330
61B
102
}
330
61B
100
AcDbXrecord
280
     1
290
     1
  0
XRECORD
  5
61E
102
{ACAD_REACTORS
330
61D
102
}
330
61D
100
AcDbXrecord
280
     1
290
     1
  0
XRECORD
  5
620
102
{ACAD_REACTORS
330
61F
102
}
330
61F
100
AcDbXrecord
280
     1
290
     1
  0
XRECORD
  5
622
102
{ACAD_REACTORS
330
621
102
}
330
621
100
AcDbXrecord
280
     1
290
     1
  0
XRECORD
  5
624
102
{ACAD_REACTORS
330
623
102
}
330
623
100
AcDbXrecord
280
     1
290
     1
  0
XRECORD
  5
626
102
{ACAD_REACTORS
330
625
102
}
330
625
100
AcDbXrecord
280
     1
290
     1
  0
XRECORD
  5
628
102
{ACAD_REACTORS
330
627
102
}
330
627
100
AcDbXrecord
280
     1
290
     1
  0
XRECORD
  5
62A
102
{ACAD_REACTORS
330
629
102
}
330
629
100
AcDbXrecord
280
     1
290
     1
  0
XRECORD
  5
62C
102
{ACAD_REACTORS
330
62B
102
}
330
62B
100
AcDbXrecord
280
     1
290
     1
  0
XRECORD
  5
62E
102
{ACAD_REACTORS
330
62D
102
}
330
62D
100
AcDbXrecord
280
     1
290
     1
  0
XRECORD
  5
630
102
{ACAD_REACTORS
330
62F
102
}
330
62F
100
AcDbXrecord
280
     1
290
     1
  0
XRECORD
  5
632
102
{ACAD_REACTORS
330
631
102
}
330
631
100
AcDbXrecord
280
     1
290
     1
  0
XRECORD
  5
634
102
{ACAD_REACTORS
330
633
102
}
330
633
100
AcDbXrecord
280
     1
290
     1
  0
XRECORD
  5
636
102
{ACAD_REACTORS
330
635
102
}
330
635
100
AcDbXrecord
280
     1
290
     1
  0
XRECORD
  5
638
102
{ACAD_REACTORS
330
637
102
}
330
637
100
AcDbXrecord
280
     1
290
     1
  0
XRECORD
  5
63A
102
{ACAD_REACTORS
330
639
102
}
330
639
100
AcDbXrecord
280
     1
290
     1
  0
XRECORD
  5
63C
102
{ACAD_REACTORS
330
63B
102
}
330
63B
100
AcDbXrecord
280
     1
290
     1
  0
XRECORD
  5
63E
102
{ACAD_REACTORS
330
63D
102
}
330
63D
100
AcDbXrecord
280
     1
290
     1
  0
XRECORD
  5
640
102
{ACAD_REACTORS
330
63F
102
}
330
63F
100
AcDbXrecord
280
     1
290
     1
  0
XRECORD
  5
642
102
{ACAD_REACTORS
330
641
102
}
330
641
100
AcDbXrecord
280
     1
290
     1
  0
XRECORD
  5
644
102
{ACAD_REACTORS
330
643
102
}
330
643
100
AcDbXrecord
280
     1
290
     1
  0
XRECORD
  5
646
102
{ACAD_REACTORS
330
645
102
}
330
645
100
AcDbXrecord
280
     1
290
     1
  0
XRECORD
  5
648
102
{ACAD_REACTORS
330
647
102
}
330
647
100
AcDbXrecord
280
     1
290
     1
  0
XRECORD
  5
64A
102
{ACAD_REACTORS
330
649
102
}
330
649
100
AcDbXrecord
280
     1
290
     1
  0
XRECORD
  5
64C
102
{ACAD_REACTORS
330
64B
102
}
330
64B
100
AcDbXrecord
280
     1
290
     1
  0
XRECORD
  5
64E
102
{ACAD_REACTORS
330
64D
102
}
330
64D
100
AcDbXrecord
280
     1
290
     1
  0
XRECORD
  5
650
102
{ACAD_REACTORS
330
64F
102
}
330
64F
100
AcDbXrecord
280
     1
290
     1
  0
XRECORD
  5
652
102
{ACAD_REACTORS
330
651
102
}
330
651
100
AcDbXrecord
280
     1
290
     1
  0
XRECORD
  5
654
102
{ACAD_REACTORS
330
653
102
}
330
653
100
AcDbXrecord
280
     1
290
     1
  0
XRECORD
  5
656
102
{ACAD_REACTORS
330
655
102
}
330
655
100
AcDbXrecord
280
     1
290
     1
  0
XRECORD
  5
658
102
{ACAD_REACTORS
330
657
102
}
330
657
100
AcDbXrecord
280
     1
290
     1
  0
XRECORD
  5
65A
102
{ACAD_REACTORS
330
659
102
}
330
659
100
AcDbXrecord
280
     1
290
     1
  0
XRECORD
  5
65C
102
{ACAD_REACTORS
330
65B
102
}
330
65B
100
AcDbXrecord
280
     1
290
     1
  0
XRECORD
  5
65E
102
{ACAD_REACTORS
330
65D
102
}
330
65D
100
AcDbXrecord
280
     1
290
     1
  0
XRECORD
  5
660
102
{ACAD_REACTORS
330
65F
102
}
330
65F
100
AcDbXrecord
280
     1
290
     1
  0
XRECORD
  5
662
102
{ACAD_REACTORS
330
661
102
}
330
661
100
AcDbXrecord
280
     1
290
     1
  0
XRECORD
  5
664
102
{ACAD_REACTORS
330
663
102
}
330
663
100
AcDbXrecord
280
     1
290
     1
  0
XRECORD
  5
666
102
{ACAD_REACTORS
330
665
102
}
330
665
100
AcDbXrecord
280
     1
290
     1
  0
XRECORD
  5
668
102
{ACAD_REACTORS
330
667
102
}
330
667
100
AcDbXrecord
280
     1
290
     1
  0
XRECORD
  5
66A
102
{ACAD_REACTORS
330
669
102
}
330
669
100
AcDbXrecord
280
     1
290
     1
  0
XRECORD
  5
66C
102
{ACAD_REACTORS
330
66B
102
}
330
66B
100
AcDbXrecord
280
     1
290
     1
  0
XRECORD
  5
66E
102
{ACAD_REACTORS
330
66D
102
}
330
66D
100
AcDbXrecord
280
     1
290
     1
  0
XRECORD
  5
670
102
{ACAD_REACTORS
330
66F
102
}
330
66F
100
AcDbXrecord
280
     1
290
     1
  0
XRECORD
  5
672
102
{ACAD_REACTORS
330
671
102
}
330
671
100
AcDbXrecord
280
     1
290
     1
  0
XRECORD
  5
674
102
{ACAD_REACTORS
330
673
102
}
330
673
100
AcDbXrecord
280
     1
290
     1
  0
XRECORD
  5
676
102
{ACAD_REACTORS
330
675
102
}
330
675
100
AcDbXrecord
280
     1
290
     1
  0
XRECORD
  5
678
102
{ACAD_REACTORS
330
677
102
}
330
677
100
AcDbXrecord
280
     1
290
     1
  0
XRECORD
  5
67A
102
{ACAD_REACTORS
330
679
102
}
330
679
100
AcDbXrecord
280
     1
290
     1
  0
XRECORD
  5
67C
102
{ACAD_REACTORS
330
67B
102
}
330
67B
100
AcDbXrecord
280
     1
290
     1
  0
XRECORD
  5
67E
102
{ACAD_REACTORS
330
67D
102
}
330
67D
100
AcDbXrecord
280
     1
290
     1
  0
XRECORD
  5
680
102
{ACAD_REACTORS
330
67F
102
}
330
67F
100
AcDbXrecord
280
     1
290
     1
  0
XRECORD
  5
682
102
{ACAD_REACTORS
330
681
102
}
330
681
100
AcDbXrecord
280
     1
290
     1
  0
XRECORD
  5
684
102
{ACAD_REACTORS
330
683
102
}
330
683
100
AcDbXrecord
280
     1
290
     1
  0
XRECORD
  5
686
102
{ACAD_REACTORS
330
685
102
}
330
685
100
AcDbXrecord
280
     1
290
     1
  0
XRECORD
  5
688
102
{ACAD_REACTORS
330
687
102
}
330
687
100
AcDbXrecord
280
     1
290
     1
  0
XRECORD
  5
68A
102
{ACAD_REACTORS
330
689
102
}
330
689
100
AcDbXrecord
280
     1
290
     1
  0
XRECORD
  5
68C
102
{ACAD_REACTORS
330
68B
102
}
330
68B
100
AcDbXrecord
280
     1
290
     1
  0
XRECORD
  5
68E
102
{ACAD_REACTORS
330
68D
102
}
330
68D
100
AcDbXrecord
280
     1
290
     1
  0
XRECORD
  5
690
102
{ACAD_REACTORS
330
68F
102
}
330
68F
100
AcDbXrecord
280
     1
290
     1
  0
XRECORD
  5
692
102
{ACAD_REACTORS
330
691
102
}
330
691
100
AcDbXrecord
280
     1
290
     1
  0
XRECORD
  5
694
102
{ACAD_REACTORS
330
693
102
}
330
693
100
AcDbXrecord
280
     1
290
     1
  0
XRECORD
  5
696
102
{ACAD_REACTORS
330
695
102
}
330
695
100
AcDbXrecord
280
     1
290
     1
  0
XRECORD
  5
698
102
{ACAD_REACTORS
330
697
102
}
330
697
100
AcDbXrecord
280
     1
290
     1
  0
XRECORD
  5
69A
102
{ACAD_REACTORS
330
699
102
}
330
699
100
AcDbXrecord
280
     1
290
     1
  0
XRECORD
  5
69C
102
{ACAD_REACTORS
330
69B
102
}
330
69B
100
AcDbXrecord
280
     1
290
     1
  0
XRECORD
  5
69E
102
{ACAD_REACTORS
330
69D
102
}
330
69D
100
AcDbXrecord
280
     1
290
     1
  0
XRECORD
  5
6A0
102
{ACAD_REACTORS
330
69F
102
}
330
69F
100
AcDbXrecord
280
     1
290
     1
  0
XRECORD
  5
6A2
102
{ACAD_REACTORS
330
6A1
102
}
330
6A1
100
AcDbXrecord
280
     1
290
     1
  0
XRECORD
  5
6A4
102
{ACAD_REACTORS
330
6A3
102
}
330
6A3
100
AcDbXrecord
280
     1
290
     1
  0
XRECORD
  5
6A6
102
{ACAD_REACTORS
330
6A5
102
}
330
6A5
100
AcDbXrecord
280
     1
290
     1
  0
XRECORD
  5
6A8
102
{ACAD_REACTORS
330
6A7
102
}
330
6A7
100
AcDbXrecord
280
     1
290
     1
  0
XRECORD
  5
6AA
102
{ACAD_REACTORS
330
6A9
102
}
330
6A9
100
AcDbXrecord
280
     1
290
     1
  0
XRECORD
  5
6AC
102
{ACAD_REACTORS
330
6AB
102
}
330
6AB
100
AcDbXrecord
280
     1
290
     1
  0
XRECORD
  5
6AE
102
{ACAD_REACTORS
330
6AD
102
}
330
6AD
100
AcDbXrecord
280
     1
290
     1
  0
XRECORD
  5
6B0
102
{ACAD_REACTORS
330
6AF
102
}
330
6AF
100
AcDbXrecord
280
     1
290
     1
  0
XRECORD
  5
6B2
102
{ACAD_REACTORS
330
6B1
102
}
330
6B1
100
AcDbXrecord
280
     1
290
     1
  0
XRECORD
  5
6B4
102
{ACAD_REACTORS
330
6B3
102
}
330
6B3
100
AcDbXrecord
280
     1
290
     1
  0
XRECORD
  5
6B6
102
{ACAD_REACTORS
330
6B5
102
}
330
6B5
100
AcDbXrecord
280
     1
290
     1
  0
XRECORD
  5
6B8
102
{ACAD_REACTORS
330
6B7
102
}
330
6B7
100
AcDbXrecord
280
     1
290
     1
  0
XRECORD
  5
6BA
102
{ACAD_REACTORS
330
6B9
102
}
330
6B9
100
AcDbXrecord
280
     1
290
     1
  0
XRECORD
  5
6BC
102
{ACAD_REACTORS
330
6BB
102
}
330
6BB
100
AcDbXrecord
280
     1
290
     1
  0
XRECORD
  5
6BE
102
{ACAD_REACTORS
330
6BD
102
}
330
6BD
100
AcDbXrecord
280
     1
290
     1
  0
XRECORD
  5
6C0
102
{ACAD_REACTORS
330
6BF
102
}
330
6BF
100
AcDbXrecord
280
     1
290
     1
  0
XRECORD
  5
6C2
102
{ACAD_REACTORS
330
6C1
102
}
330
6C1
100
AcDbXrecord
280
     1
290
     1
  0
XRECORD
  5
6C4
102
{ACAD_REACTORS
330
6C3
102
}
330
6C3
100
AcDbXrecord
280
     1
290
     1
  0
XRECORD
  5
6C6
102
{ACAD_REACTORS
330
6C5
102
}
330
6C5
100
AcDbXrecord
280
     1
290
     1
  0
XRECORD
  5
6C8
102
{ACAD_REACTORS
330
6C7
102
}
330
6C7
100
AcDbXrecord
280
     1
290
     1
  0
XRECORD
  5
6CA
102
{ACAD_REACTORS
330
6C9
102
}
330
6C9
100
AcDbXrecord
280
     1
290
     1
  0
XRECORD
  5
6CC
102
{ACAD_REACTORS
330
6CB
102
}
330
6CB
100
AcDbXrecord
280
     1
290
     1
  0
XRECORD
  5
6CE
102
{ACAD_REACTORS
330
6CD
102
}
330
6CD
100
AcDbXrecord
280
     1
290
     1
  0
XRECORD
  5
6D0
102
{ACAD_REACTORS
330
6CF
102
}
330
6CF
100
AcDbXrecord
280
     1
290
     1
  0
XRECORD
  5
6D2
102
{ACAD_REACTORS
330
6D1
102
}
330
6D1
100
AcDbXrecord
280
     1
290
     1
  0
XRECORD
  5
6D4
102
{ACAD_REACTORS
330
6D3
102
}
330
6D3
100
AcDbXrecord
280
     1
290
     1
  0
XRECORD
  5
6D6
102
{ACAD_REACTORS
330
6D5
102
}
330
6D5
100
AcDbXrecord
280
     1
290
     1
  0
XRECORD
  5
6D8
102
{ACAD_REACTORS
330
6D7
102
}
330
6D7
100
AcDbXrecord
280
     1
290
     1
  0
XRECORD
  5
6DA
102
{ACAD_REACTORS
330
6D9
102
}
330
6D9
100
AcDbXrecord
280
     1
290
     1
  0
XRECORD
  5
6DC
102
{ACAD_REACTORS
330
6DB
102
}
330
6DB
100
AcDbXrecord
280
     1
290
     1
  0
XRECORD
  5
6DE
102
{ACAD_REACTORS
330
6DD
102
}
330
6DD
100
AcDbXrecord
280
     1
290
     1
  0
XRECORD
  5
6E0
102
{ACAD_REACTORS
330
6DF
102
}
330
6DF
100
AcDbXrecord
280
     1
290
     1
  0
XRECORD
  5
6E2
102
{ACAD_REACTORS
330
6E1
102
}
330
6E1
100
AcDbXrecord
280
     1
290
     1
  0
XRECORD
  5
6E4
102
{ACAD_REACTORS
330
6E3
102
}
330
6E3
100
AcDbXrecord
280
     1
290
     1
  0
XRECORD
  5
6E6
102
{ACAD_REACTORS
330
6E5
102
}
330
6E5
100
AcDbXrecord
280
     1
290
     1
  0
XRECORD
  5
6E8
102
{ACAD_REACTORS
330
6E7
102
}
330
6E7
100
AcDbXrecord
280
     1
290
     1
  0
XRECORD
  5
6EA
102
{ACAD_REACTORS
330
6E9
102
}
330
6E9
100
AcDbXrecord
280
     1
290
     1
  0
XRECORD
  5
6EC
102
{ACAD_REACTORS
330
6EB
102
}
330
6EB
100
AcDbXrecord
280
     1
290
     1
  0
XRECORD
  5
6EE
102
{ACAD_REACTORS
330
6ED
102
}
330
6ED
100
AcDbXrecord
280
     1
290
     1
  0
XRECORD
  5
6F0
102
{ACAD_REACTORS
330
6EF
102
}
330
6EF
100
AcDbXrecord
280
     1
290
     1
  0
XRECORD
  5
6F2
102
{ACAD_REACTORS
330
6F1
102
}
330
6F1
100
AcDbXrecord
280
     1
290
     1
  0
XRECORD
  5
6F4
102
{ACAD_REACTORS
330
6F3
102
}
330
6F3
100
AcDbXrecord
280
     1
290
     1
  0
XRECORD
  5
6F6
102
{ACAD_REACTORS
330
6F5
102
}
330
6F5
100
AcDbXrecord
280
     1
290
     1
  0
XRECORD
  5
6F8
102
{ACAD_REACTORS
330
6F7
102
}
330
6F7
100
AcDbXrecord
280
     1
290
     1
  0
XRECORD
  5
6FA
102
{ACAD_REACTORS
330
6F9
102
}
330
6F9
100
AcDbXrecord
280
     1
290
     1
  0
XRECORD
  5
6FC
102
{ACAD_REACTORS
330
6FB
102
}
330
6FB
100
AcDbXrecord
280
     1
290
     1
  0
XRECORD
  5
6FE
102
{ACAD_REACTORS
330
6FD
102
}
330
6FD
100
AcDbXrecord
280
     1
290
     1
  0
LAYOUT
  5
2F6
102
{ACAD_XDICTIONARY
360
7AB
102
}
102
{ACAD_REACTORS
330
2EE
102
}
330
2EE
100
AcDbPlotSettings
  1

  2
Canon LBP-880
  4

  6

 40
0.0
 41
0.0
 42
0.0
 43
0.0
 44
0.0
 45
0.0
 46
0.0
 47
0.0
 48
0.0
 49
0.0
140
0.0
141
0.0
142
1.0
143
1.0
 70
  1712
 72
     0
 73
     0
 74
     0
  7

 75
     0
147
1.0
148
0.0
149
0.0
100
AcDbLayout
  1
Model
 70
     1
 71
     0
 10
0.0
 20
0.0
 11
12.0
 21
9.0
 12
0.0
 22
0.0
 32
0.0
 14
0.0
 24
0.0
 34
0.0
 15
0.0
 25
0.0
 35
0.0
146
0.0
 13
0.0
 23
0.0
 33
0.0
 16
1.0
 26
0.0
 36
0.0
 17
0.0
 27
1.0
 37
0.0
 76
     0
330
2F3
331
5B0
  0
LAYOUT
  5
2F2
102
{ACAD_XDICTIONARY
360
7A9
102
}
102
{ACAD_REACTORS
330
2EE
102
}
330
2EE
100
AcDbPlotSettings
  1

  2
Canon LBP-880
  4

  6

 40
0.0
 41
0.0
 42
0.0
 43
0.0
 44
0.0
 45
0.0
 46
0.0
 47
0.0
 48
0.0
 49
0.0
140
0.0
141
0.0
142
1.0
143
1.0
 70
   688
 72
     0
 73
     0
 74
     5
  7

 75
    16
147
1.0
148
0.0
149
0.0
100
AcDbLayout
  1
ﾚｲｱｳﾄ1
 70
     1
 71
     1
 10
0.0
 20
0.0
 11
12.0
 21
9.0
 12
0.0
 22
0.0
 32
0.0
 14
1.000000000000000E+20
 24
1.000000000000000E+20
 34
1.000000000000000E+20
 15
-1.000000000000000E+20
 25
-1.000000000000000E+20
 35
-1.000000000000000E+20
146
0.0
 13
0.0
 23
0.0
 33
0.0
 16
1.0
 26
0.0
 36
0.0
 17
0.0
 27
1.0
 37
0.0
 76
     0
330
2EF
  0
MATERIAL
  5
5BE
102
{ACAD_XDICTIONARY
360
5BF
102
}
102
{ACAD_REACTORS
330
5B5
102
}
330
5B5
100
AcDbMaterial
  1
ByBlock
 72
     0
 43
0.0208333333333333
 43
0.0
 43
0.0
 43
0.0
 43
0.0
 43
0.0208333333333333
 43
0.0
 43
0.0
 43
0.0
 43
0.0
 43
1.0
 43
0.0
 43
0.0
 43
0.0
 43
0.0
 43
1.0
 77
     0
 47
0.0208333333333333
 47
0.0
 47
0.0
 47
0.0
 47
0.0
 47
0.0208333333333333
 47
0.0
 47
0.0
 47
0.0
 47
0.0
 47
1.0
 47
0.0
 47
0.0
 47
0.0
 47
0.0
 47
1.0
171
     0
 49
0.0208333333333333
 49
0.0
 49
0.0
 49
0.0
 49
0.0
 49
0.0208333333333333
 49
0.0
 49
0.0
 49
0.0
 49
0.0
 49
1.0
 49
0.0
 49
0.0
 49
0.0
 49
0.0
 49
1.0
175
     0
142
0.0208333333333333
142
0.0
142
0.0
142
0.0
142
0.0
142
0.0208333333333333
142
0.0
142
0.0
142
0.0
142
0.0
142
1.0
142
0.0
142
0.0
142
0.0
142
0.0
142
1.0
179
     0
144
0.0208333333333333
144
0.0
144
0.0
144
0.0
144
0.0
144
0.0208333333333333
144
0.0
144
0.0
144
0.0
144
0.0
144
1.0
144
0.0
144
0.0
144
0.0
144
0.0
144
1.0
147
0.0208333333333333
147
0.0
147
0.0
147
0.0
147
0.0
147
0.0208333333333333
147
0.0
147
0.0
147
0.0
147
0.0
147
1.0
147
0.0
147
0.0
147
0.0
147
0.0
147
1.0
  0
MATERIAL
  5
5B6
102
{ACAD_XDICTIONARY
360
5B7
102
}
102
{ACAD_REACTORS
330
5B5
102
}
330
5B5
100
AcDbMaterial
  1
ByLayer
 72
     0
 43
0.0208333333333333
 43
0.0
 43
0.0
 43
0.0
 43
0.0
 43
0.0208333333333333
 43
0.0
 43
0.0
 43
0.0
 43
0.0
 43
1.0
 43
0.0
 43
0.0
 43
0.0
 43
0.0
 43
1.0
 77
     0
 47
0.0208333333333333
 47
0.0
 47
0.0
 47
0.0
 47
0.0
 47
0.0208333333333333
 47
0.0
 47
0.0
 47
0.0
 47
0.0
 47
1.0
 47
0.0
 47
0.0
 47
0.0
 47
0.0
 47
1.0
171
     0
 49
0.0208333333333333
 49
0.0
 49
0.0
 49
0.0
 49
0.0
 49
0.0208333333333333
 49
0.0
 49
0.0
 49
0.0
 49
0.0
 49
1.0
 49
0.0
 49
0.0
 49
0.0
 49
0.0
 49
1.0
175
     0
142
0.0208333333333333
142
0.0
142
0.0
142
0.0
142
0.0
142
0.0208333333333333
142
0.0
142
0.0
142
0.0
142
0.0
142
1.0
142
0.0
142
0.0
142
0.0
142
0.0
142
1.0
179
     0
144
0.0208333333333333
144
0.0
144
0.0
144
0.0
144
0.0
144
0.0208333333333333
144
0.0
144
0.0
144
0.0
144
0.0
144
1.0
144
0.0
144
0.0
144
0.0
144
0.0
144
1.0
147
0.0208333333333333
147
0.0
147
0.0
147
0.0
147
0.0
147
0.0208333333333333
147
0.0
147
0.0
147
0.0
147
0.0
147
1.0
147
0.0
147
0.0
147
0.0
147
0.0
147
1.0
  0
MATERIAL
  5
5C6
102
{ACAD_XDICTIONARY
360
5C7
102
}
102
{ACAD_REACTORS
330
5B5
102
}
330
5B5
100
AcDbMaterial
  1
Global
 72
     0
 43
0.0208333333333333
 43
0.0
 43
0.0
 43
0.0
 43
0.0
 43
0.0208333333333333
 43
0.0
 43
0.0
 43
0.0
 43
0.0
 43
1.0
 43
0.0
 43
0.0
 43
0.0
 43
0.0
 43
1.0
 77
     0
 47
0.0208333333333333
 47
0.0
 47
0.0
 47
0.0
 47
0.0
 47
0.0208333333333333
 47
0.0
 47
0.0
 47
0.0
 47
0.0
 47
1.0
 47
0.0
 47
0.0
 47
0.0
 47
0.0
 47
1.0
171
     0
 49
0.0208333333333333
 49
0.0
 49
0.0
 49
0.0
 49
0.0
 49
0.0208333333333333
 49
0.0
 49
0.0
 49
0.0
 49
0.0
 49
1.0
 49
0.0
 49
0.0
 49
0.0
 49
0.0
 49
1.0
175
     0
142
0.0208333333333333
142
0.0
142
0.0
142
0.0
142
0.0
142
0.0208333333333333
142
0.0
142
0.0
142
0.0
142
0.0
142
1.0
142
0.0
142
0.0
142
0.0
142
0.0
142
1.0
179
     0
144
0.0208333333333333
144
0.0
144
0.0
144
0.0
144
0.0
144
0.0208333333333333
144
0.0
144
0.0
144
0.0
144
0.0
144
1.0
144
0.0
144
0.0
144
0.0
144
0.0
144
1.0
147
0.0208333333333333
147
0.0
147
0.0
147
0.0
147
0.0
147
0.0208333333333333
147
0.0
147
0.0
147
0.0
147
0.0
147
1.0
147
0.0
147
0.0
147
0.0
147
0.0
147
1.0
  0
MLEADERSTYLE
  5
5FD
102
{ACAD_REACTORS
330
5FC
102
}
330
5FC
100
AcDbMLeaderStyle
170
     2
171
     1
172
     0
 90
        2
 40
0.0
 41
0.0
173
     1
 91
-1056964608
340
2E8
 92
       -2
290
     1
 42
0.09
291
     1
 43
0.36
  3
Standard
 44
0.18
300

342
2E6
174
     1
178
     6
175
     1
176
     0
 93
-1056964608
 45
0.18
292
     0
297
     0
 46
0.18
 94
-1056964608
 47
1.0
 49
1.0
140
1.0
293
     1
141
0.0
294
     1
177
     0
142
1.0
295
     0
296
     0
143
0.125
1001
ACAD_MLEADERVER
1070
     2
  0
MLINESTYLE
  5
2EC
102
{ACAD_REACTORS
330
2EB
102
}
330
2EB
100
AcDbMlineStyle
  2
STANDARD
 70
     0
  3

 62
   256
 51
90.0
 52
90.0
 71
     2
 49
0.5
 62
   256
  6
BYLAYER
 49
-0.5
 62
   256
  6
BYLAYER
  0
ACDBPLACEHOLDER
  5
2E4
102
{ACAD_REACTORS
330
2E3
102
}
330
2E3
  0
SCALE
  5
5EB
102
{ACAD_REACTORS
330
5EA
102
}
330
5EA
100
AcDbScale
 70
     0
300
1:1
140
1.0
141
1.0
290
     1
  0
SCALE
  5
5EC
102
{ACAD_REACTORS
330
5EA
102
}
330
5EA
100
AcDbScale
 70
     0
300
1/128" = 1'-0"
140
0.0078125
141
12.0
290
     0
  0
SCALE
  5
5ED
102
{ACAD_REACTORS
330
5EA
102
}
330
5EA
100
AcDbScale
 70
     0
300
1/64" = 1'-0"
140
0.015625
141
12.0
290
     0
  0
SCALE
  5
5EE
102
{ACAD_REACTORS
330
5EA
102
}
330
5EA
100
AcDbScale
 70
     0
300
1/32" = 1'-0"
140
0.03125
141
12.0
290
     0
  0
SCALE
  5
5EF
102
{ACAD_REACTORS
330
5EA
102
}
330
5EA
100
AcDbScale
 70
     0
300
1/16" = 1'-0"
140
0.0625
141
12.0
290
     0
  0
SCALE
  5
5F0
102
{ACAD_REACTORS
330
5EA
102
}
330
5EA
100
AcDbScale
 70
     0
300
3/32" = 1'-0"
140
0.09375
141
12.0
290
     0
  0
SCALE
  5
5F1
102
{ACAD_REACTORS
330
5EA
102
}
330
5EA
100
AcDbScale
 70
     0
300
1/8" = 1'-0"
140
0.125
141
12.0
290
     0
  0
SCALE
  5
5F2
102
{ACAD_REACTORS
330
5EA
102
}
330
5EA
100
AcDbScale
 70
     0
300
3/16" = 1'-0"
140
0.1875
141
12.0
290
     0
  0
SCALE
  5
5F3
102
{ACAD_REACTORS
330
5EA
102
}
330
5EA
100
AcDbScale
 70
     0
300
1/4" = 1'-0"
140
0.25
141
12.0
290
     0
  0
SCALE
  5
5F4
102
{ACAD_REACTORS
330
5EA
102
}
330
5EA
100
AcDbScale
 70
     0
300
3/8" = 1'-0"
140
0.375
141
12.0
290
     0
  0
SCALE
  5
5F5
102
{ACAD_REACTORS
330
5EA
102
}
330
5EA
100
AcDbScale
 70
     0
300
1/2" = 1'-0"
140
0.5
141
12.0
290
     0
  0
SCALE
  5
5F6
102
{ACAD_REACTORS
330
5EA
102
}
330
5EA
100
AcDbScale
 70
     0
300
3/4" = 1'-0"
140
0.75
141
12.0
290
     0
  0
SCALE
  5
5F7
102
{ACAD_REACTORS
330
5EA
102
}
330
5EA
100
AcDbScale
 70
     0
300
1" = 1'-0"
140
1.0
141
12.0
290
     0
  0
SCALE
  5
5F8
102
{ACAD_REACTORS
330
5EA
102
}
330
5EA
100
AcDbScale
 70
     0
300
1-1/2" = 1'-0"
140
1.5
141
12.0
290
     0
  0
SCALE
  5
5F9
102
{ACAD_REACTORS
330
5EA
102
}
330
5EA
100
AcDbScale
 70
     0
300
3" = 1'-0"
140
3.0
141
12.0
290
     0
  0
SCALE
  5
5FA
102
{ACAD_REACTORS
330
5EA
102
}
330
5EA
100
AcDbScale
 70
     0
300
6" = 1'-0"
140
6.0
141
12.0
290
     0
  0
SCALE
  5
5FB
102
{ACAD_REACTORS
330
5EA
102
}
330
5EA
100
AcDbScale
 70
     0
300
1'-0" = 1'-0"
140
12.0
141
12.0
290
     0
  0
TABLESTYLE
  5
5E9
102
{ACAD_XDICTIONARY
360
707
102
}
102
{ACAD_REACTORS
330
5E8
102
}
330
5E8
100
AcDbTableStyle
  3
Standard
 70
     0
 71
     0
 40
0.06
 41
0.06
280
     0
281
     0
  7
STANDARD
140
0.18
170
     2
 62
     0
 63
     7
283
     0
274
    -2
284
     1
 64
     0
275
    -2
285
     1
 65
     0
276
    -2
286
     1
 66
     0
277
    -2
287
     1
 67
     0
278
    -2
288
     1
 68
     0
279
    -2
289
     1
 69
     0
  7
STANDARD
140
0.25
170
     5
 62
     0
 63
     7
283
     0
274
    -2
284
     1
 64
     0
275
    -2
285
     1
 65
     0
276
    -2
286
     1
 66
     0
277
    -2
287
     1
 67
     0
278
    -2
288
     1
 68
     0
279
    -2
289
     1
 69
     0
  7
STANDARD
140
0.18
170
     5
 62
     0
 63
     7
283
     0
274
    -2
284
     1
 64
     0
275
    -2
285
     1
 65
     0
276
    -2
286
     1
 66
     0
277
    -2
287
     1
 67
     0
278
    -2
288
     1
 68
     0
279
    -2
289
     1
 69
     0
  0
VISUALSTYLE
  5
5D4
102
{ACAD_XDICTIONARY
360
7B7
102
}
102
{ACAD_REACTORS
330
5CE
102
}
330
5CE
100
AcDbVisualStyle
  2

 70
     4
 71
     0
 72
     2
 73
     0
 90
        0
 40
-0.6
 41
-30.0
 62
     5
 63
     7
 74
     1
 91
        4
 64
     7
 65
   257
 75
     1
175
     1
 42
1.0
 92
        0
 66
   257
 43
1.0
 76
     1
 77
     6
 78
     2
 67
     7
 79
     5
170
     0
171
     0
290
     0
174
     0
 93
        1
 44
0.0
173
     0
291
     0
 45
0.0
1001
ACAD
1000
AcDbSavedByObjectVersion
1070
     0
  0
VISUALSTYLE
  5
5D3
102
{ACAD_XDICTIONARY
360
7B5
102
}
102
{ACAD_REACTORS
330
5CE
102
}
330
5CE
100
AcDbVisualStyle
  2

 70
     7
 71
     1
 72
     0
 73
     1
 90
        0
 40
-0.6
 41
-30.0
 62
     5
 63
     7
 74
     0
 91
        4
 64
     7
 65
   257
 75
     1
175
     1
 42
1.0
 92
        8
 66
     7
 43
1.0
 76
     1
 77
     6
 78
     2
 67
     7
 79
     5
170
     0
171
     0
290
     0
174
     0
 93
        1
 44
0.0
173
     0
291
     1
 45
0.0
1001
ACAD
1000
AcDbSavedByObjectVersion
1070
     0
  0
VISUALSTYLE
  5
5DA
102
{ACAD_XDICTIONARY
360
7C3
102
}
102
{ACAD_REACTORS
330
5CE
102
}
330
5CE
100
AcDbVisualStyle
  2

 70
    12
 71
     2
 72
     2
 73
     0
 90
        0
 40
-0.6
 41
-30.0
 62
     5
 63
     7
 74
     1
 91
        4
 64
     7
 65
   257
 75
     1
175
     1
 42
1.0
 92
        8
 66
     7
 43
1.0
 76
     1
 77
     6
 78
     2
 67
     7
 79
     5
170
     0
171
     0
290
     0
174
     0
 93
        1
 44
50.0
173
     0
291
     1
 45
0.0
1001
ACAD
1000
AcDbSavedByObjectVersion
1070
     0
  0
VISUALSTYLE
  5
5DE
102
{ACAD_XDICTIONARY
360
7CB
102
}
102
{ACAD_REACTORS
330
5CE
102
}
330
5CE
100
AcDbVisualStyle
  2

 70
    16
 71
     2
 72
     2
 73
     3
 90
        0
 40
-0.6
 41
-30.0
 62
     5
 63
     8
 74
     1
 91
        4
 64
     7
 65
   257
 75
     1
175
     1
 42
1.0
 92
        8
 66
     8
 43
1.0
 76
     1
 77
     6
 78
     2
 67
     7
 79
     5
170
     0
171
     0
290
     0
174
     0
 93
        1
 44
0.0
173
     0
291
     1
 45
0.0
1001
ACAD
1000
AcDbSavedByObjectVersion
1070
     0
  0
VISUALSTYLE
  5
5D7
102
{ACAD_XDICTIONARY
360
7BD
102
}
102
{ACAD_REACTORS
330
5CE
102
}
330
5CE
100
AcDbVisualStyle
  2

 70
     9
 71
     3
 72
     2
 73
     0
 90
        0
 40
-0.6
 41
-30.0
 62
     5
 63
     7
 74
     2
 91
        2
 64
     7
 65
   257
 75
     1
175
     1
 42
179.0
 92
        8
 66
     7
 43
1.0
 76
     1
 77
     6
 78
     2
 67
     7
 79
     3
170
     0
171
     0
290
     0
174
     0
 93
        1
 44
0.0
173
     0
291
     0
 45
0.0
1001
ACAD
1000
AcDbSavedByObjectVersion
1070
     0
  0
VISUALSTYLE
  5
5D9
102
{ACAD_XDICTIONARY
360
7C1
102
}
102
{ACAD_REACTORS
330
5CE
102
}
330
5CE
100
AcDbVisualStyle
  2

 70
    11
 71
     2
 72
     2
 73
     0
 90
        0
 40
-0.6
 41
-30.0
 62
     5
 63
     7
 74
     1
 91
        4
 64
     7
 65
   257
 75
     1
175
     1
 42
1.0
 92
        8
 66
     7
 43
1.0
 76
     1
 77
     6
 78
     2
 67
     7
 79
     5
170
     0
171
     0
290
     0
174
     0
 93
        1
 44
-50.0
173
     0
291
     1
 45
0.0
1001
ACAD
1000
AcDbSavedByObjectVersion
1070
     0
  0
VISUALSTYLE
  5
5E6
102
{ACAD_XDICTIONARY
360
7DB
102
}
102
{ACAD_REACTORS
330
5CE
102
}
330
5CE
100
AcDbVisualStyle
  2

 70
    22
 71
     2
 72
     2
 73
     0
 90
        0
 40
-0.6
 41
-30.0
 62
     5
 63
     7
 74
     1
 91
        4
 64
     7
 65
   257
 75
     1
175
     1
 42
1.0
 92
        8
 66
     7
 43
1.0
 76
     1
 77
     6
 78
     2
 67
     7
 79
     5
170
     0
171
     0
290
     0
174
     0
 93
        1
 44
0.0
173
     0
291
     1
 45
0.0
1001
ACAD
1000
AcDbSavedByObjectVersion
1070
     0
  0
VISUALSTYLE
  5
5DD
102
{ACAD_XDICTIONARY
360
7C9
102
}
102
{ACAD_REACTORS
330
5CE
102
}
330
5CE
100
AcDbVisualStyle
  2

 70
    15
 71
     2
 72
     2
 73
     0
 90
        0
 40
-0.6
 41
-30.0
 62
     5
 63
     7
 74
     1
 91
        4
 64
     7
 65
   257
 75
     1
175
     1
 42
1.0
 92
        8
 66
     7
 43
1.0
 76
     1
 77
     6
 78
     2
 67
     7
 79
     5
170
     0
171
     0
290
     0
174
     0
 93
        1
 44
0.0
173
     0
291
     1
 45
0.0
1001
ACAD
1000
AcDbSavedByObjectVersion
1070
     0
  0
VISUALSTYLE
  5
5CF
102
{ACAD_XDICTIONARY
360
7AD
102
}
102
{ACAD_REACTORS
330
5CE
102
}
330
5CE
100
AcDbVisualStyle
  2

 70
     0
 71
     2
 72
     1
 73
     1
 90
        2
 40
-0.6
 41
30.0
 62
     5
 63
     7
 74
     0
 91
        0
 64
     7
 65
   257
 75
     1
175
     1
 42
1.0
 92
        8
 66
     7
 43
1.0
 76
     1
 77
     6
 78
     2
 67
     7
 79
     5
170
     0
171
     0
290
     0
174
     0
 93
       13
 44
0.0
173
     0
291
     1
 45
0.0
1001
ACAD
1000
AcDbSavedByObjectVersion
1070
     0
  0
VISUALSTYLE
  5
5D0
102
{ACAD_XDICTIONARY
360
7AF
102
}
102
{ACAD_REACTORS
330
5CE
102
}
330
5CE
100
AcDbVisualStyle
  2

 70
     1
 71
     2
 72
     1
 73
     1
 90
        2
 40
-0.6
 41
30.0
 62
     5
 63
     7
 74
     1
 91
        0
 64
     7
 65
   257
 75
     1
175
     1
 42
1.0
 92
        0
 66
   257
 43
1.0
 76
     1
 77
     6
 78
     2
 67
     7
 79
     5
170
     0
171
     0
290
     0
174
     0
 93
       13
 44
0.0
173
     0
291
     1
 45
0.0
1001
ACAD
1000
AcDbSavedByObjectVersion
1070
     0
  0
VISUALSTYLE
  5
5D1
102
{ACAD_XDICTIONARY
360
7B1
102
}
102
{ACAD_REACTORS
330
5CE
102
}
330
5CE
100
AcDbVisualStyle
  2

 70
     2
 71
     2
 72
     2
 73
     1
 90
        2
 40
-0.6
 41
30.0
 62
     5
 63
     7
 74
     0
 91
        0
 64
     7
 65
   257
 75
     1
175
     1
 42
1.0
 92
        0
 66
     7
 43
1.0
 76
     1
 77
     6
 78
     2
 67
     7
 79
     5
170
     0
171
     0
290
     0
174
     0
 93
       13
 44
0.0
173
     0
291
     1
 45
0.0
1001
ACAD
1000
AcDbSavedByObjectVersion
1070
     0
  0
VISUALSTYLE
  5
5D2
102
{ACAD_XDICTIONARY
360
7B3
102
}
102
{ACAD_REACTORS
330
5CE
102
}
330
5CE
100
AcDbVisualStyle
  2

 70
     3
 71
     2
 72
     2
 73
     1
 90
        2
 40
-0.6
 41
30.0
 62
     5
 63
     7
 74
     1
 91
        0
 64
     7
 65
   257
 75
     1
175
     1
 42
1.0
 92
        0
 66
   257
 43
1.0
 76
     1
 77
     6
 78
     2
 67
     7
 79
     5
170
     0
171
     0
290
     0
174
     0
 93
       13
 44
0.0
173
     0
291
     1
 45
0.0
1001
ACAD
1000
AcDbSavedByObjectVersion
1070
     0
  0
VISUALSTYLE
  5
5D6
102
{ACAD_XDICTIONARY
360
7BB
102
}
102
{ACAD_REACTORS
330
5CE
102
}
330
5CE
100
AcDbVisualStyle
  2

 70
     6
 71
     1
 72
     2
 73
     2
 90
        0
 40
-0.6
 41
-30.0
 62
     5
 63
     7
 74
     2
 91
        2
 64
     7
 65
   257
 75
     2
175
     1
 42
40.0
 92
        0
 66
   257
 43
1.0
 76
     1
 77
     6
 78
     2
 67
     7
 79
     3
170
     0
171
     0
290
     0
174
     0
 93
        1
 44
0.0
173
     0
291
     0
 45
0.0
1001
ACAD
1000
AcDbSavedByObjectVersion
1070
     0
  0
VISUALSTYLE
  5
5E4
102
{ACAD_XDICTIONARY
360
7D7
102
}
102
{ACAD_REACTORS
330
5CE
102
}
330
5CE
100
AcDbVisualStyle
  2

 70
    20
 71
     2
 72
     2
 73
     0
 90
        0
 40
-0.6
 41
-30.0
 62
     5
 63
     7
 74
     1
 91
        4
 64
     7
 65
   257
 75
     1
175
     1
 42
1.0
 92
       10
 66
     7
 43
1.0
 76
     1
 77
     6
 78
     2
 67
     7
 79
     5
170
     0
171
     0
290
     0
174
     0
 93
        1
 44
0.0
173
     0
291
     1
 45
0.0
1001
ACAD
1000
AcDbSavedByObjectVersion
1070
     0
  0
VISUALSTYLE
  5
5DC
102
{ACAD_XDICTIONARY
360
7C7
102
}
102
{ACAD_REACTORS
330
5CE
102
}
330
5CE
100
AcDbVisualStyle
  2

 70
    14
 71
     2
 72
     2
 73
     0
 90
        0
 40
-0.6
 41
-30.0
 62
     5
 63
     7
 74
     1
 91
        4
 64
     7
 65
   257
 75
     7
175
     7
 42
1.0
 92
        8
 66
     7
 43
1.0
 76
     1
 77
     6
 78
     2
 67
     7
 79
     5
170
     0
171
     0
290
     0
174
     0
 93
        1
 44
0.0
173
     0
291
     1
 45
0.0
1001
ACAD
1000
AcDbSavedByObjectVersion
1070
     0
  0
VISUALSTYLE
  5
5E5
102
{ACAD_XDICTIONARY
360
7D9
102
}
102
{ACAD_REACTORS
330
5CE
102
}
330
5CE
100
AcDbVisualStyle
  2

 70
    21
 71
     2
 72
     2
 73
     0
 90
        0
 40
-0.6
 41
-30.0
 62
     5
 63
     7
 74
     1
 91
        4
 64
     7
 65
   257
 75
     1
175
     1
 42
1.0
 92
        9
 66
     7
 43
1.0
 76
     1
 77
     6
 78
     2
 67
     7
 79
     5
170
     0
171
     0
290
     0
174
     0
 93
        1
 44
0.0
173
     0
291
     1
 45
0.0
1001
ACAD
1000
AcDbSavedByObjectVersion
1070
     0
  0
VISUALSTYLE
  5
5D8
102
{ACAD_XDICTIONARY
360
7BF
102
}
102
{ACAD_REACTORS
330
5CE
102
}
330
5CE
100
AcDbVisualStyle
  2

 70
     8
 71
     2
 72
     3
 73
     0
 90
        2
 40
-0.6
 41
30.0
 62
     5
 63
     7
 74
     0
 91
        0
 64
     7
 65
   257
 75
     1
175
     1
 42
1.0
 92
        8
 66
   257
 43
1.0
 76
     1
 77
     6
 78
     2
 67
     7
 79
     3
170
     0
171
     0
290
     0
174
     0
 93
       13
 44
0.0
173
     0
291
     0
 45
0.0
1001
ACAD
1000
AcDbSavedByObjectVersion
1070
     0
  0
VISUALSTYLE
  5
5E3
102
{ACAD_XDICTIONARY
360
7D5
102
}
102
{ACAD_REACTORS
330
5CE
102
}
330
5CE
100
AcDbVisualStyle
  2

 70
    27
 71
     2
 72
     2
 73
     1
 90
        2
 40
-0.6
 41
30.0
 62
     5
 63
     7
 74
     0
 91
        4
 64
     7
 65
   257
 75
     1
175
     1
 42
1.0
 92
        8
 66
   257
 43
1.0
 76
     1
 77
     6
 78
     2
 67
     8
 79
     3
170
     0
171
     0
290
     0
174
     0
 93
        5
 44
0.0
173
     0
291
     0
 45
0.0
1001
ACAD
1000
AcDbSavedByObjectVersion
1070
     0
  0
VISUALSTYLE
  5
5E2
102
{ACAD_XDICTIONARY
360
7D3
102
}
102
{ACAD_REACTORS
330
5CE
102
}
330
5CE
100
AcDbVisualStyle
  2

 70
    26
 71
     2
 72
     2
 73
     1
 90
        2
 40
-0.6
 41
30.0
 62
     5
 63
     7
 74
     1
 91
       10
 64
     7
 65
   257
 75
     2
175
     1
 42
1.0
 92
        8
 66
   257
 43
1.0
 76
     1
 77
     6
 78
     2
 67
     7
 79
     3
170
     0
171
     0
290
     0
174
     0
 93
        5
 44
0.0
173
     0
291
     0
 45
0.0
1001
ACAD
1000
AcDbSavedByObjectVersion
1070
     0
  0
VISUALSTYLE
  5
5DF
102
{ACAD_XDICTIONARY
360
7CD
102
}
102
{ACAD_REACTORS
330
5CE
102
}
330
5CE
100
AcDbVisualStyle
  2

 70
    23
 71
     2
 72
     2
 73
     3
 90
        0
 40
-0.6
 41
-30.0
 62
     5
 63
     7
 74
     2
 91
        2
 64
     7
 65
     7
 75
     1
175
     1
 42
40.0
 92
        8
 66
     7
 43
1.0
 76
     1
 77
     6
 78
     2
 67
     7
 79
     3
170
     0
171
     0
290
     0
174
     0
 93
        1
 44
0.0
173
     0
291
     0
 45
0.0
1001
ACAD
1000
AcDbSavedByObjectVersion
1070
     0
  0
VISUALSTYLE
  5
5E0
102
{ACAD_XDICTIONARY
360
7CF
102
}
102
{ACAD_REACTORS
330
5CE
102
}
330
5CE
100
AcDbVisualStyle
  2

 70
    24
 71
     1
 72
     2
 73
     2
 90
        0
 40
-0.6
 41
-30.0
 62
     5
 63
     7
 74
     2
 91
        2
 64
     7
 65
     7
 75
     1
175
     1
 42
40.0
 92
       11
 66
     7
 43
1.0
 76
     1
 77
     6
 78
     2
 67
     7
 79
     6
170
     0
171
     0
290
     0
174
     0
 93
        1
 44
0.0
173
     0
291
     0
 45
0.0
1001
ACAD
1000
AcDbSavedByObjectVersion
1070
     0
  0
VISUALSTYLE
  5
5DB
102
{ACAD_XDICTIONARY
360
7C5
102
}
102
{ACAD_REACTORS
330
5CE
102
}
330
5CE
100
AcDbVisualStyle
  2

 70
    13
 71
     2
 72
     2
 73
     0
 90
        0
 40
-0.6
 41
-30.0
 62
     5
 63
     7
 74
     1
 91
        4
 64
     7
 65
   257
 75
     1
175
     1
 42
1.0
 92
       12
 66
     7
 43
1.0
 76
     1
 77
     6
 78
     2
 67
     7
 79
     5
170
     0
171
     0
290
     0
174
     0
 93
        1
 44
0.0
173
     0
291
     1
 45
0.0
1001
ACAD
1000
AcDbSavedByObjectVersion
1070
     0
  0
VISUALSTYLE
  5
5D5
102
{ACAD_XDICTIONARY
360
7B9
102
}
102
{ACAD_REACTORS
330
5CE
102
}
330
5CE
100
AcDbVisualStyle
  2

 70
     5
 71
     0
 72
     2
 73
     0
 90
        0
 40
-0.6
 41
-30.0
 62
     5
 63
     7
 74
     1
 91
        4
 64
     7
 65
   257
 75
     1
175
     1
 42
1.0
 92
        0
 66
   257
 43
1.0
 76
     1
 77
     6
 78
     2
 67
     7
 79
     3
170
     0
171
     0
290
     0
174
     0
 93
        1
 44
0.0
173
     0
291
     0
 45
0.0
1001
ACAD
1000
AcDbSavedByObjectVersion
1070
     0
  0
VISUALSTYLE
  5
5E1
102
{ACAD_XDICTIONARY
360
7D1
102
}
102
{ACAD_REACTORS
330
5CE
102
}
330
5CE
100
AcDbVisualStyle
  2

 70
    25
 71
     2
 72
     2
 73
     1
 90
        1
 40
0.5
 41
-30.0
 62
     5
 63
     7
 74
     1
 91
        0
 64
     7
 65
   257
 75
     1
175
     1
 42
1.0
 92
        8
 66
     7
 43
1.0
 76
     1
 77
     6
 78
     2
 67
     7
 79
     3
170
     0
171
     0
290
     0
174
     0
 93
       13
 44
0.0
173
     0
291
     0
 45
0.0
1001
ACAD
1000
AcDbSavedByObjectVersion
1070
     0
  0
DICTIONARYVAR
  5
703
102
{ACAD_REACTORS
330
6FF
102
}
330
6FF
100
DictionaryVariables
280
     0
  1
1:1
  0
DICTIONARYVAR
  5
701
102
{ACAD_REACTORS
330
6FF
102
}
330
6FF
100
DictionaryVariables
280
     0
  1
STANDARD
  0
DICTIONARYVAR
  5
700
102
{ACAD_REACTORS
330
6FF
102
}
330
6FF
100
DictionaryVariables
280
     0
  1
STANDARD
  0
DICTIONARYVAR
  5
711
102
{ACAD_REACTORS
330
6FF
102
}
330
6FF
100
DictionaryVariables
280
     0
  1
1
  0
DICTIONARYVAR
  5
710
102
{ACAD_REACTORS
330
6FF
102
}
330
6FF
100
DictionaryVariables
280
     0
  1
0
  0
DICTIONARYVAR
  5
705
102
{ACAD_REACTORS
330
6FF
102
}
330
6FF
100
DictionaryVariables
280
     0
  1
1
  0
DICTIONARYVAR
  5
706
102
{ACAD_REACTORS
330
6FF
102
}
330
6FF
100
DictionaryVariables
280
     0
  1
15
  0
DICTIONARYVAR
  5
704
102
{ACAD_REACTORS
330
6FF
102
}
330
6FF
100
DictionaryVariables
280
     0
  1
0
  0
DICTIONARYVAR
  5
7A3
102
{ACAD_REACTORS
330
6FF
102
}
330
6FF
100
DictionaryVariables
280
     0
  1
1.570796
  0
DICTIONARYVAR
  5
7A4
102
{ACAD_REACTORS
330
6FF
102
}
330
6FF
100
DictionaryVariables
280
     0
  1
1.570796
  0
DICTIONARYVAR
  5
702
102
{ACAD_REACTORS
330
6FF
102
}
330
6FF
100
DictionaryVariables
280
     0
  1
0
  0
DICTIONARYVAR
  5
70F
102
{ACAD_REACTORS
330
6FF
102
}
330
6FF
100
DictionaryVariables
280
     0
  1
127
  0
DICTIONARYVAR
  5
7A5
102
{ACAD_REACTORS
330
6FF
102
}
330
6FF
100
DictionaryVariables
280
     0
  1
2
  0
DICTIONARY
  5
7AB
330
2F6
100
AcDbDictionary
280
     1
281
     1
  3
ACAD_XREC_ROUNDTRIP
360
7AC
  0
DICTIONARY
  5
7A9
330
2F2
100
AcDbDictionary
280
     1
281
     1
  3
ACAD_XREC_ROUNDTRIP
360
7AA
  0
DICTIONARY
  5
5BF
330
5BE
100
AcDbDictionary
280
     1
281
     1
  3
ACAD_XREC_ROUNDTRIP
360
71E
  3
BUMPTILE
360
5C1
  3
DIFFUSETILE
360
5C0
  3
OPACITYTILE
360
5C4
  3
REFLECTIONTILE
360
5C3
  3
REFRACTIONTILE
360
5C5
  3
SPECULARTILE
360
5C2
  0
DICTIONARY
  5
5B7
330
5B6
100
AcDbDictionary
280
     1
281
     1
  3
ACAD_XREC_ROUNDTRIP
360
71D
  3
BUMPTILE
360
5B9
  3
DIFFUSETILE
360
5B8
  3
OPACITYTILE
360
5BC
  3
REFLECTIONTILE
360
5BB
  3
REFRACTIONTILE
360
5BD
  3
SPECULARTILE
360
5BA
  0
DICTIONARY
  5
5C7
330
5C6
100
AcDbDictionary
280
     1
281
     1
  3
ACAD_XREC_ROUNDTRIP
360
71F
  3
BUMPTILE
360
5C9
  3
DIFFUSETILE
360
5C8
  3
OPACITYTILE
360
5CC
  3
REFLECTIONTILE
360
5CB
  3
REFRACTIONTILE
360
5CD
  3
SPECULARTILE
360
5CA
  0
DICTIONARY
  5
707
330
5E9
100
AcDbDictionary
280
     1
281
     1
  3
ACAD_ROUNDTRIP_2008_TABLESTYLE_CELLSTYLEMAP
360
7A6
  3
ACAD_XREC_ROUNDTRIP
360
7DD
  0
DICTIONARY
  5
7B7
330
5D4
100
AcDbDictionary
280
     1
281
     1
  3
ACAD_XREC_ROUNDTRIP
360
7B8
  0
DICTIONARY
  5
7B5
330
5D3
100
AcDbDictionary
280
     1
281
     1
  3
ACAD_XREC_ROUNDTRIP
360
7B6
  0
DICTIONARY
  5
7C3
330
5DA
100
AcDbDictionary
280
     1
281
     1
  3
ACAD_XREC_ROUNDTRIP
360
7C4
  0
DICTIONARY
  5
7CB
330
5DE
100
AcDbDictionary
280
     1
281
     1
  3
ACAD_XREC_ROUNDTRIP
360
7CC
  0
DICTIONARY
  5
7BD
330
5D7
100
AcDbDictionary
280
     1
281
     1
  3
ACAD_XREC_ROUNDTRIP
360
7BE
  0
DICTIONARY
  5
7C1
330
5D9
100
AcDbDictionary
280
     1
281
     1
  3
ACAD_XREC_ROUNDTRIP
360
7C2
  0
DICTIONARY
  5
7DB
330
5E6
100
AcDbDictionary
280
     1
281
     1
  3
ACAD_XREC_ROUNDTRIP
360
7DC
  0
DICTIONARY
  5
7C9
330
5DD
100
AcDbDictionary
280
     1
281
     1
  3
ACAD_XREC_ROUNDTRIP
360
7CA
  0
DICTIONARY
  5
7AD
330
5CF
100
AcDbDictionary
280
     1
281
     1
  3
ACAD_XREC_ROUNDTRIP
360
7AE
  0
DICTIONARY
  5
7AF
330
5D0
100
AcDbDictionary
280
     1
281
     1
  3
ACAD_XREC_ROUNDTRIP
360
7B0
  0
DICTIONARY
  5
7B1
330
5D1
100
AcDbDictionary
280
     1
281
     1
  3
ACAD_XREC_ROUNDTRIP
360
7B2
  0
DICTIONARY
  5
7B3
330
5D2
100
AcDbDictionary
280
     1
281
     1
  3
ACAD_XREC_ROUNDTRIP
360
7B4
  0
DICTIONARY
  5
7BB
330
5D6
100
AcDbDictionary
280
     1
281
     1
  3
ACAD_XREC_ROUNDTRIP
360
7BC
  0
DICTIONARY
  5
7D7
330
5E4
100
AcDbDictionary
280
     1
281
     1
  3
ACAD_XREC_ROUNDTRIP
360
7D8
  0
DICTIONARY
  5
7C7
330
5DC
100
AcDbDictionary
280
     1
281
     1
  3
ACAD_XREC_ROUNDTRIP
360
7C8
  0
DICTIONARY
  5
7D9
330
5E5
100
AcDbDictionary
280
     1
281
     1
  3
ACAD_XREC_ROUNDTRIP
360
7DA
  0
DICTIONARY
  5
7BF
330
5D8
100
AcDbDictionary
280
     1
281
     1
  3
ACAD_XREC_ROUNDTRIP
360
7C0
  0
DICTIONARY
  5
7D5
330
5E3
100
AcDbDictionary
280
     1
281
     1
  3
ACAD_XREC_ROUNDTRIP
360
7D6
  0
DICTIONARY
  5
7D3
330
5E2
100
AcDbDictionary
280
     1
281
     1
  3
ACAD_XREC_ROUNDTRIP
360
7D4
  0
DICTIONARY
  5
7CD
330
5DF
100
AcDbDictionary
280
     1
281
     1
  3
ACAD_XREC_ROUNDTRIP
360
7CE
  0
DICTIONARY
  5
7CF
330
5E0
100
AcDbDictionary
280
     1
281
     1
  3
ACAD_XREC_ROUNDTRIP
360
7D0
  0
DICTIONARY
  5
7C5
330
5DB
100
AcDbDictionary
280
     1
281
     1
  3
ACAD_XREC_ROUNDTRIP
360
7C6
  0
DICTIONARY
  5
7B9
330
5D5
100
AcDbDictionary
280
     1
281
     1
  3
ACAD_XREC_ROUNDTRIP
360
7BA
  0
DICTIONARY
  5
7D1
330
5E1
100
AcDbDictionary
280
     1
281
     1
  3
ACAD_XREC_ROUNDTRIP
360
7D2
  0
XRECORD
  5
7AC
102
{ACAD_REACTORS
330
7AB
102
}
330
7AB
100
AcDbXrecord
280
     1
102
SHADEPLOT
 70
     0
102
SHADEPLOTRESLEVEL
 70
     2
102
SHADEPLOTCUSTOMDPI
 70
   300
  0
XRECORD
  5
7AA
102
{ACAD_REACTORS
330
7A9
102
}
330
7A9
100
AcDbXrecord
280
     1
102
SHADEPLOT
 70
     0
102
SHADEPLOTRESLEVEL
 70
     2
102
SHADEPLOTCUSTOMDPI
 70
   300
  0
XRECORD
  5
71E
102
{ACAD_REACTORS
330
5BF
102
}
330
5BF
100
AcDbXrecord
280
     1
102
MATERIAL
148
0.0
149
0.0
149
0.0
 93
        0
 94
      127
282
     0
 72
     0
 77
     0
171
     0
175
     0
179
     0
273
     0
  0
XRECORD
  5
5C1
102
{ACAD_REACTORS
330
5BF
102
}
330
5BF
100
AcDbXrecord
280
     1
270
     1
271
     1
  0
XRECORD
  5
5C0
102
{ACAD_REACTORS
330
5BF
102
}
330
5BF
100
AcDbXrecord
280
     1
270
     1
271
     1
  0
XRECORD
  5
5C4
102
{ACAD_REACTORS
330
5BF
102
}
330
5BF
100
AcDbXrecord
280
     1
270
     1
271
     1
  0
XRECORD
  5
5C3
102
{ACAD_REACTORS
330
5BF
102
}
330
5BF
100
AcDbXrecord
280
     1
270
     1
271
     1
  0
XRECORD
  5
5C5
102
{ACAD_REACTORS
330
5BF
102
}
330
5BF
100
AcDbXrecord
280
     1
270
     1
271
     1
  0
XRECORD
  5
5C2
102
{ACAD_REACTORS
330
5BF
102
}
330
5BF
100
AcDbXrecord
280
     1
270
     1
271
     1
  0
XRECORD
  5
71D
102
{ACAD_REACTORS
330
5B7
102
}
330
5B7
100
AcDbXrecord
280
     1
102
MATERIAL
148
0.0
149
0.0
149
0.0
 93
        0
 94
      127
282
     0
 72
     0
 77
     0
171
     0
175
     0
179
     0
273
     0
  0
XRECORD
  5
5B9
102
{ACAD_REACTORS
330
5B7
102
}
330
5B7
100
AcDbXrecord
280
     1
270
     1
271
     1
  0
XRECORD
  5
5B8
102
{ACAD_REACTORS
330
5B7
102
}
330
5B7
100
AcDbXrecord
280
     1
270
     1
271
     1
  0
XRECORD
  5
5BC
102
{ACAD_REACTORS
330
5B7
102
}
330
5B7
100
AcDbXrecord
280
     1
270
     1
271
     1
  0
XRECORD
  5
5BB
102
{ACAD_REACTORS
330
5B7
102
}
330
5B7
100
AcDbXrecord
280
     1
270
     1
271
     1
  0
XRECORD
  5
5BD
102
{ACAD_REACTORS
330
5B7
102
}
330
5B7
100
AcDbXrecord
280
     1
270
     1
271
     1
  0
XRECORD
  5
5BA
102
{ACAD_REACTORS
330
5B7
102
}
330
5B7
100
AcDbXrecord
280
     1
270
     1
271
     1
  0
XRECORD
  5
71F
102
{ACAD_REACTORS
330
5C7
102
}
330
5C7
100
AcDbXrecord
280
     1
102
MATERIAL
148
0.0
149
0.0
149
0.0
 93
        0
 94
      127
282
     0
 72
     0
 77
     0
171
     0
175
     0
179
     0
273
     0
  0
XRECORD
  5
5C9
102
{ACAD_REACTORS
330
5C7
102
}
330
5C7
100
AcDbXrecord
280
     1
270
     1
271
     1
  0
XRECORD
  5
5C8
102
{ACAD_REACTORS
330
5C7
102
}
330
5C7
100
AcDbXrecord
280
     1
270
     1
271
     1
  0
XRECORD
  5
5CC
102
{ACAD_REACTORS
330
5C7
102
}
330
5C7
100
AcDbXrecord
280
     1
270
     1
271
     1
  0
XRECORD
  5
5CB
102
{ACAD_REACTORS
330
5C7
102
}
330
5C7
100
AcDbXrecord
280
     1
270
     1
271
     1
  0
XRECORD
  5
5CD
102
{ACAD_REACTORS
330
5C7
102
}
330
5C7
100
AcDbXrecord
280
     1
270
     1
271
     1
  0
XRECORD
  5
5CA
102
{ACAD_REACTORS
330
5C7
102
}
330
5C7
100
AcDbXrecord
280
     1
270
     1
271
     1
  0
CELLSTYLEMAP
  5
7A6
102
{ACAD_REACTORS
330
707
102
}
330
707
100
AcDbCellStyleMap
 90
        3
300
CELLSTYLE
  1
TABLEFORMAT_BEGIN
 90
        5
170
     1
 91
        0
 92
    32768
 62
   257
 93
        1
300
CONTENTFORMAT
  1
CONTENTFORMAT_BEGIN
 90
        0
 91
        0
 92
      512
 93
        0
300

 40
0.0
140
1.0
 94
        5
 62
     0
340
2E6
144
0.25
309
CONTENTFORMAT_END
171
     1
301
MARGIN
  1
CELLMARGIN_BEGIN
 40
0.06
 40
0.06
 40
0.06
 40
0.06
 40
0.18
 40
0.18
309
CELLMARGIN_END
 94
        6
 95
        1
302
GRIDFORMAT
  1
GRIDFORMAT_BEGIN
 90
        0
 91
        1
 62
     0
 92
       -2
340
0
 93
        0
 40
0.045
309
GRIDFORMAT_END
 95
        2
302
GRIDFORMAT
  1
GRIDFORMAT_BEGIN
 90
        0
 91
        1
 62
     0
 92
       -2
340
0
 93
        0
 40
0.045
309
GRIDFORMAT_END
 95
        4
302
GRIDFORMAT
  1
GRIDFORMAT_BEGIN
 90
        0
 91
        1
 62
     0
 92
       -2
340
0
 93
        0
 40
0.045
309
GRIDFORMAT_END
 95
        8
302
GRIDFORMAT
  1
GRIDFORMAT_BEGIN
 90
        0
 91
        1
 62
     0
 92
       -2
340
0
 93
        0
 40
0.045
309
GRIDFORMAT_END
 95
       16
302
GRIDFORMAT
  1
GRIDFORMAT_BEGIN
 90
        0
 91
        1
 62
     0
 92
       -2
340
0
 93
        0
 40
0.045
309
GRIDFORMAT_END
 95
       32
302
GRIDFORMAT
  1
GRIDFORMAT_BEGIN
 90
        0
 91
        1
 62
     0
 92
       -2
340
0
 93
        0
 40
0.045
309
GRIDFORMAT_END
309
TABLEFORMAT_END
  1
CELLSTYLE_BEGIN
 90
        1
 91
        1
300
_TITLE
309
CELLSTYLE_END
300
CELLSTYLE
  1
TABLEFORMAT_BEGIN
 90
        5
170
     1
 91
        0
 92
        0
 62
   257
 93
        1
300
CONTENTFORMAT
  1
CONTENTFORMAT_BEGIN
 90
        0
 91
        0
 92
      512
 93
        0
300

 40
0.0
140
1.0
 94
        5
 62
     0
340
2E6
144
0.18
309
CONTENTFORMAT_END
171
     1
301
MARGIN
  1
CELLMARGIN_BEGIN
 40
0.06
 40
0.06
 40
0.06
 40
0.06
 40
0.18
 40
0.18
309
CELLMARGIN_END
 94
        6
 95
        1
302
GRIDFORMAT
  1
GRIDFORMAT_BEGIN
 90
        0
 91
        1
 62
     0
 92
       -2
340
0
 93
        0
 40
0.045
309
GRIDFORMAT_END
 95
        2
302
GRIDFORMAT
  1
GRIDFORMAT_BEGIN
 90
        0
 91
        1
 62
     0
 92
       -2
340
0
 93
        0
 40
0.045
309
GRIDFORMAT_END
 95
        4
302
GRIDFORMAT
  1
GRIDFORMAT_BEGIN
 90
        0
 91
        1
 62
     0
 92
       -2
340
0
 93
        0
 40
0.045
309
GRIDFORMAT_END
 95
        8
302
GRIDFORMAT
  1
GRIDFORMAT_BEGIN
 90
        0
 91
        1
 62
     0
 92
       -2
340
0
 93
        0
 40
0.045
309
GRIDFORMAT_END
 95
       16
302
GRIDFORMAT
  1
GRIDFORMAT_BEGIN
 90
        0
 91
        1
 62
     0
 92
       -2
340
0
 93
        0
 40
0.045
309
GRIDFORMAT_END
 95
       32
302
GRIDFORMAT
  1
GRIDFORMAT_BEGIN
 90
        0
 91
        1
 62
     0
 92
       -2
340
0
 93
        0
 40
0.045
309
GRIDFORMAT_END
309
TABLEFORMAT_END
  1
CELLSTYLE_BEGIN
 90
        2
 91
        1
300
_HEADER
309
CELLSTYLE_END
300
CELLSTYLE
  1
TABLEFORMAT_BEGIN
 90
        5
170
     1
 91
        0
 92
        0
 62
   257
 93
        1
300
CONTENTFORMAT
  1
CONTENTFORMAT_BEGIN
 90
        0
 91
        0
 92
      512
 93
        0
300

 40
0.0
140
1.0
 94
        2
 62
     0
340
2E6
144
0.18
309
CONTENTFORMAT_END
171
     1
301
MARGIN
  1
CELLMARGIN_BEGIN
 40
0.06
 40
0.06
 40
0.06
 40
0.06
 40
0.18
 40
0.18
309
CELLMARGIN_END
 94
        6
 95
        1
302
GRIDFORMAT
  1
GRIDFORMAT_BEGIN
 90
        0
 91
        1
 62
     0
 92
       -2
340
0
 93
        0
 40
0.045
309
GRIDFORMAT_END
 95
        2
302
GRIDFORMAT
  1
GRIDFORMAT_BEGIN
 90
        0
 91
        1
 62
     0
 92
       -2
340
0
 93
        0
 40
0.045
309
GRIDFORMAT_END
 95
        4
302
GRIDFORMAT
  1
GRIDFORMAT_BEGIN
 90
        0
 91
        1
 62
     0
 92
       -2
340
0
 93
        0
 40
0.045
309
GRIDFORMAT_END
 95
        8
302
GRIDFORMAT
  1
GRIDFORMAT_BEGIN
 90
        0
 91
        1
 62
     0
 92
       -2
340
0
 93
        0
 40
0.045
309
GRIDFORMAT_END
 95
       16
302
GRIDFORMAT
  1
GRIDFORMAT_BEGIN
 90
        0
 91
        1
 62
     0
 92
       -2
340
0
 93
        0
 40
0.045
309
GRIDFORMAT_END
 95
       32
302
GRIDFORMAT
  1
GRIDFORMAT_BEGIN
 90
        0
 91
        1
 62
     0
 92
       -2
340
0
 93
        0
 40
0.045
309
GRIDFORMAT_END
309
TABLEFORMAT_END
  1
CELLSTYLE_BEGIN
 90
        3
 91
        2
300
_DATA
309
CELLSTYLE_END
  0
XRECORD
  5
7DD
102
{ACAD_REACTORS
330
707
102
}
330
707
100
AcDbXrecord
280
     1
102
ACAD_ROUNDTRIP_PRE2007_TABLESTYLE
 90
      512
 91
        0
  1

 92
      512
 93
        0
  2

 94
      512
 95
        0
  3

  0
XRECORD
  5
7B8
102
{ACAD_REACTORS
330
7B7
102
}
330
7B7
100
AcDbXrecord
280
     1
102
RTVSPropertyOp0
 70
     1
102
RTVSPropertyOp1
 70
     1
102
RTVSPropertyOp2
 70
     1
102
RTVSPropertyOp3
 70
     1
102
RTVSPropertyOp4
 70
     1
102
RTVSPropertyOp5
 70
     1
102
RTVSPropertyOp6
 70
     1
102
RTVSPropertyOp7
 70
     1
102
RTVSPropertyOp8
 70
     1
102
RTVSPropertyOp9
 70
     1
102
RTVSPropertyOp10
 70
     1
102
RTVSPropertyOp11
 70
     1
102
RTVSPropertyOp12
 70
     1
102
RTVSPropertyOp13
 70
     1
102
RTVSPropertyOp14
 70
     1
102
RTVSPropertyOp15
 70
     1
102
RTVSPropertyOp16
 70
     1
102
RTVSPropertyOp17
 70
     1
102
RTVSPropertyOp18
 70
     1
102
RTVSPropertyOp19
 70
     1
102
RTVSPropertyOp20
 70
     1
102
RTVSPropertyOp21
 70
     1
102
RTVSPropertyOp22
 70
     1
102
RTVSPropertyOp23
 70
     1
102
RTVSPropertyOp24
 70
     1
102
RTVSPropertyOp25
 70
     1
102
RTVSPropertyOp26
 70
     1
102
RTVSPropertyOp27
 70
     1
102
RTVSPropertyOp28
 70
     1
102
RTVSPropertyOp29
 70
     1
102
RTVSPropertyOp30
 70
     1
102
RTVSPropertyOp31
 70
     1
102
RTVSPropertyOp32
 70
     1
  0
XRECORD
  5
7B6
102
{ACAD_REACTORS
330
7B5
102
}
330
7B5
100
AcDbXrecord
280
     1
102
RTVSPropertyOp0
 70
     1
102
RTVSPropertyOp1
 70
     1
102
RTVSPropertyOp2
 70
     1
102
RTVSPropertyOp3
 70
     1
102
RTVSPropertyOp4
 70
     1
102
RTVSPropertyOp5
 70
     1
102
RTVSPropertyOp6
 70
     1
102
RTVSPropertyOp7
 70
     1
102
RTVSPropertyOp8
 70
     1
102
RTVSPropertyOp9
 70
     1
102
RTVSPropertyOp10
 70
     1
102
RTVSPropertyOp11
 70
     1
102
RTVSPropertyOp12
 70
     1
102
RTVSPropertyOp13
 70
     1
102
RTVSPropertyOp14
 70
     1
102
RTVSPropertyOp15
 70
     1
102
RTVSPropertyOp16
 70
     1
102
RTVSPropertyOp17
 70
     1
102
RTVSPropertyOp18
 70
     1
102
RTVSPropertyOp19
 70
     1
102
RTVSPropertyOp20
 70
     1
102
RTVSPropertyOp21
 70
     1
102
RTVSPropertyOp22
 70
     1
102
RTVSPropertyOp23
 70
     1
102
RTVSPropertyOp24
 70
     1
102
RTVSPropertyOp25
 70
     1
102
RTVSPropertyOp26
 70
     1
102
RTVSPropertyOp27
 70
     1
102
RTVSPropertyOp28
 70
     1
102
RTVSPropertyOp29
 70
     1
102
RTVSPropertyOp30
 70
     1
102
RTVSPropertyOp31
 70
     1
102
RTVSPropertyOp32
 70
     1
  0
XRECORD
  5
7C4
102
{ACAD_REACTORS
330
7C3
102
}
330
7C3
100
AcDbXrecord
280
     1
102
RTVSPropertyOp0
 70
     1
102
RTVSPropertyOp1
 70
     1
102
RTVSPropertyOp2
 70
     1
102
RTVSPropertyOp3
 70
     1
102
RTVSPropertyOp4
 70
     1
102
RTVSPropertyOp5
 70
     1
102
RTVSPropertyOp6
 70
     1
102
RTVSPropertyOp7
 70
     1
102
RTVSPropertyOp8
 70
     1
102
RTVSPropertyOp9
 70
     1
102
RTVSPropertyOp10
 70
     1
102
RTVSPropertyOp11
 70
     1
102
RTVSPropertyOp12
 70
     1
102
RTVSPropertyOp13
 70
     1
102
RTVSPropertyOp14
 70
     1
102
RTVSPropertyOp15
 70
     1
102
RTVSPropertyOp16
 70
     1
102
RTVSPropertyOp17
 70
     1
102
RTVSPropertyOp18
 70
     1
102
RTVSPropertyOp19
 70
     1
102
RTVSPropertyOp20
 70
     1
102
RTVSPropertyOp21
 70
     1
102
RTVSPropertyOp22
 70
     1
102
RTVSPropertyOp23
 70
     1
102
RTVSPropertyOp24
 70
     1
102
RTVSPropertyOp25
 70
     1
102
RTVSPropertyOp26
 70
     1
102
RTVSPropertyOp27
 70
     1
102
RTVSPropertyOp28
 70
     1
102
RTVSPropertyOp29
 70
     1
102
RTVSPropertyOp30
 70
     1
102
RTVSPropertyOp31
 70
     1
102
RTVSPropertyOp32
 70
     1
  0
XRECORD
  5
7CC
102
{ACAD_REACTORS
330
7CB
102
}
330
7CB
100
AcDbXrecord
280
     1
102
RTVSPropertyOp0
 70
     1
102
RTVSPropertyOp1
 70
     1
102
RTVSPropertyOp2
 70
     1
102
RTVSPropertyOp3
 70
     1
102
RTVSPropertyOp4
 70
     1
102
RTVSPropertyOp5
 70
     1
102
RTVSPropertyOp6
 70
     1
102
RTVSPropertyOp7
 70
     1
102
RTVSPropertyOp8
 70
     1
102
RTVSPropertyOp9
 70
     1
102
RTVSPropertyOp10
 70
     1
102
RTVSPropertyOp11
 70
     1
102
RTVSPropertyOp12
 70
     1
102
RTVSPropertyOp13
 70
     1
102
RTVSPropertyOp14
 70
     1
102
RTVSPropertyOp15
 70
     1
102
RTVSPropertyOp16
 70
     1
102
RTVSPropertyOp17
 70
     1
102
RTVSPropertyOp18
 70
     1
102
RTVSPropertyOp19
 70
     1
102
RTVSPropertyOp20
 70
     1
102
RTVSPropertyOp21
 70
     1
102
RTVSPropertyOp22
 70
     1
102
RTVSPropertyOp23
 70
     1
102
RTVSPropertyOp24
 70
     1
102
RTVSPropertyOp25
 70
     1
102
RTVSPropertyOp26
 70
     1
102
RTVSPropertyOp27
 70
     1
102
RTVSPropertyOp28
 70
     1
102
RTVSPropertyOp29
 70
     1
102
RTVSPropertyOp30
 70
     1
102
RTVSPropertyOp31
 70
     1
102
RTVSPropertyOp32
 70
     1
  0
XRECORD
  5
7BE
102
{ACAD_REACTORS
330
7BD
102
}
330
7BD
100
AcDbXrecord
280
     1
102
RTVSPropertyOp0
 70
     1
102
RTVSPropertyOp1
 70
     1
102
RTVSPropertyOp2
 70
     1
102
RTVSPropertyOp3
 70
     1
102
RTVSPropertyOp4
 70
     1
102
RTVSPropertyOp5
 70
     1
102
RTVSPropertyOp6
 70
     1
102
RTVSPropertyOp7
 70
     1
102
RTVSPropertyOp8
 70
     1
102
RTVSPropertyOp9
 70
     1
102
RTVSPropertyOp10
 70
     1
102
RTVSPropertyOp11
 70
     1
102
RTVSPropertyOp12
 70
     1
102
RTVSPropertyOp13
 70
     1
102
RTVSPropertyOp14
 70
     1
102
RTVSPropertyOp15
 70
     1
102
RTVSPropertyOp16
 70
     1
102
RTVSPropertyOp17
 70
     1
102
RTVSPropertyOp18
 70
     1
102
RTVSPropertyOp19
 70
     1
102
RTVSPropertyOp20
 70
     1
102
RTVSPropertyOp21
 70
     1
102
RTVSPropertyOp22
 70
     1
102
RTVSPropertyOp23
 70
     1
102
RTVSPropertyOp24
 70
     1
102
RTVSPropertyOp25
 70
     1
102
RTVSPropertyOp26
 70
     1
102
RTVSPropertyOp27
 70
     1
102
RTVSPropertyOp28
 70
     1
102
RTVSPropertyOp29
 70
     1
102
RTVSPropertyOp30
 70
     1
102
RTVSPropertyOp31
 70
     1
102
RTVSPropertyOp32
 70
     1
  0
XRECORD
  5
7C2
102
{ACAD_REACTORS
330
7C1
102
}
330
7C1
100
AcDbXrecord
280
     1
102
RTVSPropertyOp0
 70
     1
102
RTVSPropertyOp1
 70
     1
102
RTVSPropertyOp2
 70
     1
102
RTVSPropertyOp3
 70
     1
102
RTVSPropertyOp4
 70
     1
102
RTVSPropertyOp5
 70
     1
102
RTVSPropertyOp6
 70
     1
102
RTVSPropertyOp7
 70
     1
102
RTVSPropertyOp8
 70
     1
102
RTVSPropertyOp9
 70
     1
102
RTVSPropertyOp10
 70
     1
102
RTVSPropertyOp11
 70
     1
102
RTVSPropertyOp12
 70
     1
102
RTVSPropertyOp13
 70
     1
102
RTVSPropertyOp14
 70
     1
102
RTVSPropertyOp15
 70
     1
102
RTVSPropertyOp16
 70
     1
102
RTVSPropertyOp17
 70
     1
102
RTVSPropertyOp18
 70
     1
102
RTVSPropertyOp19
 70
     1
102
RTVSPropertyOp20
 70
     1
102
RTVSPropertyOp21
 70
     1
102
RTVSPropertyOp22
 70
     1
102
RTVSPropertyOp23
 70
     1
102
RTVSPropertyOp24
 70
     1
102
RTVSPropertyOp25
 70
     1
102
RTVSPropertyOp26
 70
     1
102
RTVSPropertyOp27
 70
     1
102
RTVSPropertyOp28
 70
     1
102
RTVSPropertyOp29
 70
     1
102
RTVSPropertyOp30
 70
     1
102
RTVSPropertyOp31
 70
     1
102
RTVSPropertyOp32
 70
     1
  0
XRECORD
  5
7DC
102
{ACAD_REACTORS
330
7DB
102
}
330
7DB
100
AcDbXrecord
280
     1
102
RTVSPropertyOp0
 70
     0
102
RTVSPropertyOp1
 70
     0
102
RTVSPropertyOp2
 70
     0
102
RTVSPropertyOp3
 70
     0
102
RTVSPropertyOp4
 70
     0
102
RTVSPropertyOp5
 70
     0
102
RTVSPropertyOp6
 70
     0
102
RTVSPropertyOp7
 70
     0
102
RTVSPropertyOp8
 70
     0
102
RTVSPropertyOp9
 70
     0
102
RTVSPropertyOp10
 70
     0
102
RTVSPropertyOp11
 70
     0
102
RTVSPropertyOp12
 70
     0
102
RTVSPropertyOp13
 70
     0
102
RTVSPropertyOp14
 70
     2
102
RTVSPropertyOp15
 70
     0
102
RTVSPropertyOp16
 70
     0
102
RTVSPropertyOp17
 70
     0
102
RTVSPropertyOp18
 70
     0
102
RTVSPropertyOp19
 70
     0
102
RTVSPropertyOp20
 70
     0
102
RTVSPropertyOp21
 70
     0
102
RTVSPropertyOp22
 70
     0
102
RTVSPropertyOp23
 70
     0
102
RTVSPropertyOp24
 70
     0
102
RTVSPropertyOp25
 70
     0
102
RTVSPropertyOp26
 70
     0
102
RTVSPropertyOp27
 70
     0
102
RTVSPropertyOp28
 70
     1
102
RTVSPropertyOp29
 70
     1
102
RTVSPropertyOp30
 70
     1
102
RTVSPropertyOp31
 70
     1
102
RTVSPropertyOp32
 70
     1
  0
XRECORD
  5
7CA
102
{ACAD_REACTORS
330
7C9
102
}
330
7C9
100
AcDbXrecord
280
     1
102
RTVSPropertyOp0
 70
     1
102
RTVSPropertyOp1
 70
     1
102
RTVSPropertyOp2
 70
     1
102
RTVSPropertyOp3
 70
     1
102
RTVSPropertyOp4
 70
     1
102
RTVSPropertyOp5
 70
     1
102
RTVSPropertyOp6
 70
     1
102
RTVSPropertyOp7
 70
     1
102
RTVSPropertyOp8
 70
     1
102
RTVSPropertyOp9
 70
     1
102
RTVSPropertyOp10
 70
     1
102
RTVSPropertyOp11
 70
     1
102
RTVSPropertyOp12
 70
     1
102
RTVSPropertyOp13
 70
     1
102
RTVSPropertyOp14
 70
     1
102
RTVSPropertyOp15
 70
     1
102
RTVSPropertyOp16
 70
     1
102
RTVSPropertyOp17
 70
     1
102
RTVSPropertyOp18
 70
     1
102
RTVSPropertyOp19
 70
     1
102
RTVSPropertyOp20
 70
     1
102
RTVSPropertyOp21
 70
     1
102
RTVSPropertyOp22
 70
     1
102
RTVSPropertyOp23
 70
     1
102
RTVSPropertyOp24
 70
     1
102
RTVSPropertyOp25
 70
     1
102
RTVSPropertyOp26
 70
     1
102
RTVSPropertyOp27
 70
     1
102
RTVSPropertyOp28
 70
     1
102
RTVSPropertyOp29
 70
     1
102
RTVSPropertyOp30
 70
     1
102
RTVSPropertyOp31
 70
     1
102
RTVSPropertyOp32
 70
     1
  0
XRECORD
  5
7AE
102
{ACAD_REACTORS
330
7AD
102
}
330
7AD
100
AcDbXrecord
280
     1
102
RTVSPropertyOp0
 70
     1
102
RTVSPropertyOp1
 70
     1
102
RTVSPropertyOp2
 70
     1
102
RTVSPropertyOp3
 70
     1
102
RTVSPropertyOp4
 70
     1
102
RTVSPropertyOp5
 70
     1
102
RTVSPropertyOp6
 70
     1
102
RTVSPropertyOp7
 70
     1
102
RTVSPropertyOp8
 70
     1
102
RTVSPropertyOp9
 70
     1
102
RTVSPropertyOp10
 70
     1
102
RTVSPropertyOp11
 70
     1
102
RTVSPropertyOp12
 70
     1
102
RTVSPropertyOp13
 70
     1
102
RTVSPropertyOp14
 70
     1
102
RTVSPropertyOp15
 70
     1
102
RTVSPropertyOp16
 70
     1
102
RTVSPropertyOp17
 70
     1
102
RTVSPropertyOp18
 70
     1
102
RTVSPropertyOp19
 70
     1
102
RTVSPropertyOp20
 70
     1
102
RTVSPropertyOp21
 70
     1
102
RTVSPropertyOp22
 70
     1
102
RTVSPropertyOp23
 70
     1
102
RTVSPropertyOp24
 70
     1
102
RTVSPropertyOp25
 70
     1
102
RTVSPropertyOp26
 70
     1
102
RTVSPropertyOp27
 70
     1
102
RTVSPropertyOp28
 70
     1
102
RTVSPropertyOp29
 70
     1
102
RTVSPropertyOp30
 70
     1
102
RTVSPropertyOp31
 70
     1
102
RTVSPropertyOp32
 70
     1
  0
XRECORD
  5
7B0
102
{ACAD_REACTORS
330
7AF
102
}
330
7AF
100
AcDbXrecord
280
     1
102
RTVSPropertyOp0
 70
     1
102
RTVSPropertyOp1
 70
     1
102
RTVSPropertyOp2
 70
     1
102
RTVSPropertyOp3
 70
     1
102
RTVSPropertyOp4
 70
     1
102
RTVSPropertyOp5
 70
     1
102
RTVSPropertyOp6
 70
     1
102
RTVSPropertyOp7
 70
     1
102
RTVSPropertyOp8
 70
     1
102
RTVSPropertyOp9
 70
     1
102
RTVSPropertyOp10
 70
     1
102
RTVSPropertyOp11
 70
     1
102
RTVSPropertyOp12
 70
     1
102
RTVSPropertyOp13
 70
     1
102
RTVSPropertyOp14
 70
     1
102
RTVSPropertyOp15
 70
     1
102
RTVSPropertyOp16
 70
     1
102
RTVSPropertyOp17
 70
     1
102
RTVSPropertyOp18
 70
     1
102
RTVSPropertyOp19
 70
     1
102
RTVSPropertyOp20
 70
     1
102
RTVSPropertyOp21
 70
     1
102
RTVSPropertyOp22
 70
     1
102
RTVSPropertyOp23
 70
     1
102
RTVSPropertyOp24
 70
     1
102
RTVSPropertyOp25
 70
     1
102
RTVSPropertyOp26
 70
     1
102
RTVSPropertyOp27
 70
     1
102
RTVSPropertyOp28
 70
     1
102
RTVSPropertyOp29
 70
     1
102
RTVSPropertyOp30
 70
     1
102
RTVSPropertyOp31
 70
     1
102
RTVSPropertyOp32
 70
     1
  0
XRECORD
  5
7B2
102
{ACAD_REACTORS
330
7B1
102
}
330
7B1
100
AcDbXrecord
280
     1
102
RTVSPropertyOp0
 70
     1
102
RTVSPropertyOp1
 70
     1
102
RTVSPropertyOp2
 70
     1
102
RTVSPropertyOp3
 70
     1
102
RTVSPropertyOp4
 70
     1
102
RTVSPropertyOp5
 70
     1
102
RTVSPropertyOp6
 70
     1
102
RTVSPropertyOp7
 70
     1
102
RTVSPropertyOp8
 70
     1
102
RTVSPropertyOp9
 70
     1
102
RTVSPropertyOp10
 70
     1
102
RTVSPropertyOp11
 70
     1
102
RTVSPropertyOp12
 70
     1
102
RTVSPropertyOp13
 70
     1
102
RTVSPropertyOp14
 70
     1
102
RTVSPropertyOp15
 70
     1
102
RTVSPropertyOp16
 70
     1
102
RTVSPropertyOp17
 70
     1
102
RTVSPropertyOp18
 70
     1
102
RTVSPropertyOp19
 70
     1
102
RTVSPropertyOp20
 70
     1
102
RTVSPropertyOp21
 70
     1
102
RTVSPropertyOp22
 70
     1
102
RTVSPropertyOp23
 70
     1
102
RTVSPropertyOp24
 70
     1
102
RTVSPropertyOp25
 70
     1
102
RTVSPropertyOp26
 70
     1
102
RTVSPropertyOp27
 70
     1
102
RTVSPropertyOp28
 70
     1
102
RTVSPropertyOp29
 70
     1
102
RTVSPropertyOp30
 70
     1
102
RTVSPropertyOp31
 70
     1
102
RTVSPropertyOp32
 70
     1
  0
XRECORD
  5
7B4
102
{ACAD_REACTORS
330
7B3
102
}
330
7B3
100
AcDbXrecord
280
     1
102
RTVSPropertyOp0
 70
     1
102
RTVSPropertyOp1
 70
     1
102
RTVSPropertyOp2
 70
     1
102
RTVSPropertyOp3
 70
     1
102
RTVSPropertyOp4
 70
     1
102
RTVSPropertyOp5
 70
     1
102
RTVSPropertyOp6
 70
     1
102
RTVSPropertyOp7
 70
     1
102
RTVSPropertyOp8
 70
     1
102
RTVSPropertyOp9
 70
     1
102
RTVSPropertyOp10
 70
     1
102
RTVSPropertyOp11
 70
     1
102
RTVSPropertyOp12
 70
     1
102
RTVSPropertyOp13
 70
     1
102
RTVSPropertyOp14
 70
     1
102
RTVSPropertyOp15
 70
     1
102
RTVSPropertyOp16
 70
     1
102
RTVSPropertyOp17
 70
     1
102
RTVSPropertyOp18
 70
     1
102
RTVSPropertyOp19
 70
     1
102
RTVSPropertyOp20
 70
     1
102
RTVSPropertyOp21
 70
     1
102
RTVSPropertyOp22
 70
     1
102
RTVSPropertyOp23
 70
     1
102
RTVSPropertyOp24
 70
     1
102
RTVSPropertyOp25
 70
     1
102
RTVSPropertyOp26
 70
     1
102
RTVSPropertyOp27
 70
     1
102
RTVSPropertyOp28
 70
     1
102
RTVSPropertyOp29
 70
     1
102
RTVSPropertyOp30
 70
     1
102
RTVSPropertyOp31
 70
     1
102
RTVSPropertyOp32
 70
     1
  0
XRECORD
  5
7BC
102
{ACAD_REACTORS
330
7BB
102
}
330
7BB
100
AcDbXrecord
280
     1
102
RTVSPropertyOp0
 70
     1
102
RTVSPropertyOp1
 70
     1
102
RTVSPropertyOp2
 70
     1
102
RTVSPropertyOp3
 70
     1
102
RTVSPropertyOp4
 70
     1
102
RTVSPropertyOp5
 70
     1
102
RTVSPropertyOp6
 70
     1
102
RTVSPropertyOp7
 70
     1
102
RTVSPropertyOp8
 70
     1
102
RTVSPropertyOp9
 70
     1
102
RTVSPropertyOp10
 70
     1
102
RTVSPropertyOp11
 70
     1
102
RTVSPropertyOp12
 70
     1
102
RTVSPropertyOp13
 70
     1
102
RTVSPropertyOp14
 70
     1
102
RTVSPropertyOp15
 70
     1
102
RTVSPropertyOp16
 70
     1
102
RTVSPropertyOp17
 70
     1
102
RTVSPropertyOp18
 70
     1
102
RTVSPropertyOp19
 70
     1
102
RTVSPropertyOp20
 70
     1
102
RTVSPropertyOp21
 70
     1
102
RTVSPropertyOp22
 70
     1
102
RTVSPropertyOp23
 70
     1
102
RTVSPropertyOp24
 70
     1
102
RTVSPropertyOp25
 70
     1
102
RTVSPropertyOp26
 70
     1
102
RTVSPropertyOp27
 70
     1
102
RTVSPropertyOp28
 70
     1
102
RTVSPropertyOp29
 70
     1
102
RTVSPropertyOp30
 70
     1
102
RTVSPropertyOp31
 70
     1
102
RTVSPropertyOp32
 70
     1
  0
XRECORD
  5
7D8
102
{ACAD_REACTORS
330
7D7
102
}
330
7D7
100
AcDbXrecord
280
     1
102
RTVSPropertyOp0
 70
     0
102
RTVSPropertyOp1
 70
     0
102
RTVSPropertyOp2
 70
     0
102
RTVSPropertyOp3
 70
     0
102
RTVSPropertyOp4
 70
     0
102
RTVSPropertyOp5
 70
     0
102
RTVSPropertyOp6
 70
     0
102
RTVSPropertyOp7
 70
     0
102
RTVSPropertyOp8
 70
     0
102
RTVSPropertyOp9
 70
     0
102
RTVSPropertyOp10
 70
     0
102
RTVSPropertyOp11
 70
     0
102
RTVSPropertyOp12
 70
     0
102
RTVSPropertyOp13
 70
     0
102
RTVSPropertyOp14
 70
     2
102
RTVSPropertyOp15
 70
     0
102
RTVSPropertyOp16
 70
     0
102
RTVSPropertyOp17
 70
     0
102
RTVSPropertyOp18
 70
     0
102
RTVSPropertyOp19
 70
     0
102
RTVSPropertyOp20
 70
     0
102
RTVSPropertyOp21
 70
     0
102
RTVSPropertyOp22
 70
     0
102
RTVSPropertyOp23
 70
     0
102
RTVSPropertyOp24
 70
     0
102
RTVSPropertyOp25
 70
     0
102
RTVSPropertyOp26
 70
     0
102
RTVSPropertyOp27
 70
     0
102
RTVSPropertyOp28
 70
     1
102
RTVSPropertyOp29
 70
     1
102
RTVSPropertyOp30
 70
     1
102
RTVSPropertyOp31
 70
     1
102
RTVSPropertyOp32
 70
     1
  0
XRECORD
  5
7C8
102
{ACAD_REACTORS
330
7C7
102
}
330
7C7
100
AcDbXrecord
280
     1
102
RTVSPropertyOp0
 70
     1
102
RTVSPropertyOp1
 70
     1
102
RTVSPropertyOp2
 70
     1
102
RTVSPropertyOp3
 70
     1
102
RTVSPropertyOp4
 70
     1
102
RTVSPropertyOp5
 70
     1
102
RTVSPropertyOp6
 70
     1
102
RTVSPropertyOp7
 70
     1
102
RTVSPropertyOp8
 70
     1
102
RTVSPropertyOp9
 70
     1
102
RTVSPropertyOp10
 70
     1
102
RTVSPropertyOp11
 70
     1
102
RTVSPropertyOp12
 70
     1
102
RTVSPropertyOp13
 70
     1
102
RTVSPropertyOp14
 70
     1
102
RTVSPropertyOp15
 70
     1
102
RTVSPropertyOp16
 70
     1
102
RTVSPropertyOp17
 70
     1
102
RTVSPropertyOp18
 70
     1
102
RTVSPropertyOp19
 70
     1
102
RTVSPropertyOp20
 70
     1
102
RTVSPropertyOp21
 70
     1
102
RTVSPropertyOp22
 70
     1
102
RTVSPropertyOp23
 70
     1
102
RTVSPropertyOp24
 70
     1
102
RTVSPropertyOp25
 70
     1
102
RTVSPropertyOp26
 70
     1
102
RTVSPropertyOp27
 70
     1
102
RTVSPropertyOp28
 70
     1
102
RTVSPropertyOp29
 70
     1
102
RTVSPropertyOp30
 70
     1
102
RTVSPropertyOp31
 70
     1
102
RTVSPropertyOp32
 70
     1
  0
XRECORD
  5
7DA
102
{ACAD_REACTORS
330
7D9
102
}
330
7D9
100
AcDbXrecord
280
     1
102
RTVSPropertyOp0
 70
     0
102
RTVSPropertyOp1
 70
     0
102
RTVSPropertyOp2
 70
     0
102
RTVSPropertyOp3
 70
     0
102
RTVSPropertyOp4
 70
     0
102
RTVSPropertyOp5
 70
     0
102
RTVSPropertyOp6
 70
     0
102
RTVSPropertyOp7
 70
     0
102
RTVSPropertyOp8
 70
     0
102
RTVSPropertyOp9
 70
     0
102
RTVSPropertyOp10
 70
     0
102
RTVSPropertyOp11
 70
     0
102
RTVSPropertyOp12
 70
     0
102
RTVSPropertyOp13
 70
     0
102
RTVSPropertyOp14
 70
     2
102
RTVSPropertyOp15
 70
     0
102
RTVSPropertyOp16
 70
     0
102
RTVSPropertyOp17
 70
     0
102
RTVSPropertyOp18
 70
     0
102
RTVSPropertyOp19
 70
     0
102
RTVSPropertyOp20
 70
     0
102
RTVSPropertyOp21
 70
     0
102
RTVSPropertyOp22
 70
     0
102
RTVSPropertyOp23
 70
     0
102
RTVSPropertyOp24
 70
     0
102
RTVSPropertyOp25
 70
     0
102
RTVSPropertyOp26
 70
     0
102
RTVSPropertyOp27
 70
     0
102
RTVSPropertyOp28
 70
     1
102
RTVSPropertyOp29
 70
     1
102
RTVSPropertyOp30
 70
     1
102
RTVSPropertyOp31
 70
     1
102
RTVSPropertyOp32
 70
     1
  0
XRECORD
  5
7C0
102
{ACAD_REACTORS
330
7BF
102
}
330
7BF
100
AcDbXrecord
280
     1
102
RTVSPropertyOp0
 70
     1
102
RTVSPropertyOp1
 70
     1
102
RTVSPropertyOp2
 70
     1
102
RTVSPropertyOp3
 70
     1
102
RTVSPropertyOp4
 70
     1
102
RTVSPropertyOp5
 70
     1
102
RTVSPropertyOp6
 70
     1
102
RTVSPropertyOp7
 70
     1
102
RTVSPropertyOp8
 70
     1
102
RTVSPropertyOp9
 70
     1
102
RTVSPropertyOp10
 70
     1
102
RTVSPropertyOp11
 70
     1
102
RTVSPropertyOp12
 70
     1
102
RTVSPropertyOp13
 70
     1
102
RTVSPropertyOp14
 70
     1
102
RTVSPropertyOp15
 70
     1
102
RTVSPropertyOp16
 70
     1
102
RTVSPropertyOp17
 70
     1
102
RTVSPropertyOp18
 70
     1
102
RTVSPropertyOp19
 70
     1
102
RTVSPropertyOp20
 70
     1
102
RTVSPropertyOp21
 70
     1
102
RTVSPropertyOp22
 70
     1
102
RTVSPropertyOp23
 70
     1
102
RTVSPropertyOp24
 70
     1
102
RTVSPropertyOp25
 70
     1
102
RTVSPropertyOp26
 70
     1
102
RTVSPropertyOp27
 70
     1
102
RTVSPropertyOp28
 70
     1
102
RTVSPropertyOp29
 70
     1
102
RTVSPropertyOp30
 70
     1
102
RTVSPropertyOp31
 70
     1
102
RTVSPropertyOp32
 70
     1
  0
XRECORD
  5
7D6
102
{ACAD_REACTORS
330
7D5
102
}
330
7D5
100
AcDbXrecord
280
     1
102
RTVSPropertyOp0
 70
     1
102
RTVSPropertyOp1
 70
     1
102
RTVSPropertyOp2
 70
     1
102
RTVSPropertyOp3
 70
     1
102
RTVSPropertyOp4
 70
     1
102
RTVSPropertyOp5
 70
     1
102
RTVSPropertyOp6
 70
     1
102
RTVSPropertyOp7
 70
     1
102
RTVSPropertyOp8
 70
     1
102
RTVSPropertyOp9
 70
     1
102
RTVSPropertyOp10
 70
     1
102
RTVSPropertyOp11
 70
     1
102
RTVSPropertyOp12
 70
     1
102
RTVSPropertyOp13
 70
     1
102
RTVSPropertyOp14
 70
     1
102
RTVSPropertyOp15
 70
     1
102
RTVSPropertyOp16
 70
     1
102
RTVSPropertyOp17
 70
     1
102
RTVSPropertyOp18
 70
     1
102
RTVSPropertyOp19
 70
     1
102
RTVSPropertyOp20
 70
     1
102
RTVSPropertyOp21
 70
     1
102
RTVSPropertyOp22
 70
     1
102
RTVSPropertyOp23
 70
     1
102
RTVSPropertyOp24
 70
     1
102
RTVSPropertyOp25
 70
     1
102
RTVSPropertyOp26
 70
     1
102
RTVSPropertyOp27
 70
     1
102
RTVSPropertyOp28
 70
     1
102
RTVSPropertyOp29
 70
     1
102
RTVSPropertyOp30
 70
     1
102
RTVSPropertyOp31
 70
     1
102
RTVSPropertyOp32
 70
     1
  0
XRECORD
  5
7D4
102
{ACAD_REACTORS
330
7D3
102
}
330
7D3
100
AcDbXrecord
280
     1
102
RTVSPropertyOp0
 70
     1
102
RTVSPropertyOp1
 70
     1
102
RTVSPropertyOp2
 70
     1
102
RTVSPropertyOp3
 70
     1
102
RTVSPropertyOp4
 70
     1
102
RTVSPropertyOp5
 70
     1
102
RTVSPropertyOp6
 70
     1
102
RTVSPropertyOp7
 70
     1
102
RTVSPropertyOp8
 70
     1
102
RTVSPropertyOp9
 70
     1
102
RTVSPropertyOp10
 70
     1
102
RTVSPropertyOp11
 70
     1
102
RTVSPropertyOp12
 70
     1
102
RTVSPropertyOp13
 70
     1
102
RTVSPropertyOp14
 70
     1
102
RTVSPropertyOp15
 70
     1
102
RTVSPropertyOp16
 70
     1
102
RTVSPropertyOp17
 70
     1
102
RTVSPropertyOp18
 70
     1
102
RTVSPropertyOp19
 70
     1
102
RTVSPropertyOp20
 70
     1
102
RTVSPropertyOp21
 70
     1
102
RTVSPropertyOp22
 70
     1
102
RTVSPropertyOp23
 70
     1
102
RTVSPropertyOp24
 70
     1
102
RTVSPropertyOp25
 70
     1
102
RTVSPropertyOp26
 70
     1
102
RTVSPropertyOp27
 70
     1
102
RTVSPropertyOp28
 70
     1
102
RTVSPropertyOp29
 70
     1
102
RTVSPropertyOp30
 70
     1
102
RTVSPropertyOp31
 70
     1
102
RTVSPropertyOp32
 70
     1
  0
XRECORD
  5
7CE
102
{ACAD_REACTORS
330
7CD
102
}
330
7CD
100
AcDbXrecord
280
     1
102
RTVSPropertyOp0
 70
     1
102
RTVSPropertyOp1
 70
     1
102
RTVSPropertyOp2
 70
     1
102
RTVSPropertyOp3
 70
     1
102
RTVSPropertyOp4
 70
     1
102
RTVSPropertyOp5
 70
     1
102
RTVSPropertyOp6
 70
     1
102
RTVSPropertyOp7
 70
     1
102
RTVSPropertyOp8
 70
     1
102
RTVSPropertyOp9
 70
     1
102
RTVSPropertyOp10
 70
     1
102
RTVSPropertyOp11
 70
     1
102
RTVSPropertyOp12
 70
     1
102
RTVSPropertyOp13
 70
     1
102
RTVSPropertyOp14
 70
     1
102
RTVSPropertyOp15
 70
     1
102
RTVSPropertyOp16
 70
     1
102
RTVSPropertyOp17
 70
     1
102
RTVSPropertyOp18
 70
     1
102
RTVSPropertyOp19
 70
     1
102
RTVSPropertyOp20
 70
     1
102
RTVSPropertyOp21
 70
     1
102
RTVSPropertyOp22
 70
     1
102
RTVSPropertyOp23
 70
     1
102
RTVSPropertyOp24
 70
     1
102
RTVSPropertyOp25
 70
     1
102
RTVSPropertyOp26
 70
     1
102
RTVSPropertyOp27
 70
     1
102
RTVSPropertyOp28
 70
     1
102
RTVSPropertyOp29
 70
     1
102
RTVSPropertyOp30
 70
     1
102
RTVSPropertyOp31
 70
     1
102
RTVSPropertyOp32
 70
     1
  0
XRECORD
  5
7D0
102
{ACAD_REACTORS
330
7CF
102
}
330
7CF
100
AcDbXrecord
280
     1
102
RTVSPropertyOp0
 70
     1
102
RTVSPropertyOp1
 70
     1
102
RTVSPropertyOp2
 70
     1
102
RTVSPropertyOp3
 70
     1
102
RTVSPropertyOp4
 70
     1
102
RTVSPropertyOp5
 70
     1
102
RTVSPropertyOp6
 70
     1
102
RTVSPropertyOp7
 70
     1
102
RTVSPropertyOp8
 70
     1
102
RTVSPropertyOp9
 70
     1
102
RTVSPropertyOp10
 70
     1
102
RTVSPropertyOp11
 70
     1
102
RTVSPropertyOp12
 70
     1
102
RTVSPropertyOp13
 70
     1
102
RTVSPropertyOp14
 70
     1
102
RTVSPropertyOp15
 70
     1
102
RTVSPropertyOp16
 70
     1
102
RTVSPropertyOp17
 70
     1
102
RTVSPropertyOp18
 70
     1
102
RTVSPropertyOp19
 70
     1
102
RTVSPropertyOp20
 70
     1
102
RTVSPropertyOp21
 70
     1
102
RTVSPropertyOp22
 70
     1
102
RTVSPropertyOp23
 70
     1
102
RTVSPropertyOp24
 70
     1
102
RTVSPropertyOp25
 70
     1
102
RTVSPropertyOp26
 70
     1
102
RTVSPropertyOp27
 70
     1
102
RTVSPropertyOp28
 70
     1
102
RTVSPropertyOp29
 70
     1
102
RTVSPropertyOp30
 70
     1
102
RTVSPropertyOp31
 70
     1
102
RTVSPropertyOp32
 70
     1
  0
XRECORD
  5
7C6
102
{ACAD_REACTORS
330
7C5
102
}
330
7C5
100
AcDbXrecord
280
     1
102
RTVSPropertyOp0
 70
     1
102
RTVSPropertyOp1
 70
     1
102
RTVSPropertyOp2
 70
     1
102
RTVSPropertyOp3
 70
     1
102
RTVSPropertyOp4
 70
     1
102
RTVSPropertyOp5
 70
     1
102
RTVSPropertyOp6
 70
     1
102
RTVSPropertyOp7
 70
     1
102
RTVSPropertyOp8
 70
     1
102
RTVSPropertyOp9
 70
     1
102
RTVSPropertyOp10
 70
     1
102
RTVSPropertyOp11
 70
     1
102
RTVSPropertyOp12
 70
     1
102
RTVSPropertyOp13
 70
     1
102
RTVSPropertyOp14
 70
     1
102
RTVSPropertyOp15
 70
     1
102
RTVSPropertyOp16
 70
     1
102
RTVSPropertyOp17
 70
     1
102
RTVSPropertyOp18
 70
     1
102
RTVSPropertyOp19
 70
     1
102
RTVSPropertyOp20
 70
     1
102
RTVSPropertyOp21
 70
     1
102
RTVSPropertyOp22
 70
     1
102
RTVSPropertyOp23
 70
     1
102
RTVSPropertyOp24
 70
     1
102
RTVSPropertyOp25
 70
     1
102
RTVSPropertyOp26
 70
     1
102
RTVSPropertyOp27
 70
     1
102
RTVSPropertyOp28
 70
     1
102
RTVSPropertyOp29
 70
     1
102
RTVSPropertyOp30
 70
     1
102
RTVSPropertyOp31
 70
     1
102
RTVSPropertyOp32
 70
     1
  0
XRECORD
  5
7BA
102
{ACAD_REACTORS
330
7B9
102
}
330
7B9
100
AcDbXrecord
280
     1
102
RTVSPropertyOp0
 70
     1
102
RTVSPropertyOp1
 70
     1
102
RTVSPropertyOp2
 70
     1
102
RTVSPropertyOp3
 70
     1
102
RTVSPropertyOp4
 70
     1
102
RTVSPropertyOp5
 70
     1
102
RTVSPropertyOp6
 70
     1
102
RTVSPropertyOp7
 70
     1
102
RTVSPropertyOp8
 70
     1
102
RTVSPropertyOp9
 70
     1
102
RTVSPropertyOp10
 70
     1
102
RTVSPropertyOp11
 70
     1
102
RTVSPropertyOp12
 70
     1
102
RTVSPropertyOp13
 70
     1
102
RTVSPropertyOp14
 70
     1
102
RTVSPropertyOp15
 70
     1
102
RTVSPropertyOp16
 70
     1
102
RTVSPropertyOp17
 70
     1
102
RTVSPropertyOp18
 70
     1
102
RTVSPropertyOp19
 70
     1
102
RTVSPropertyOp20
 70
     1
102
RTVSPropertyOp21
 70
     1
102
RTVSPropertyOp22
 70
     1
102
RTVSPropertyOp23
 70
     1
102
RTVSPropertyOp24
 70
     1
102
RTVSPropertyOp25
 70
     1
102
RTVSPropertyOp26
 70
     1
102
RTVSPropertyOp27
 70
     1
102
RTVSPropertyOp28
 70
     1
102
RTVSPropertyOp29
 70
     1
102
RTVSPropertyOp30
 70
     1
102
RTVSPropertyOp31
 70
     1
102
RTVSPropertyOp32
 70
     1
  0
XRECORD
  5
7D2
102
{ACAD_REACTORS
330
7D1
102
}
330
7D1
100
AcDbXrecord
280
     1
102
RTVSPropertyOp0
 70
     1
102
RTVSPropertyOp1
 70
     1
102
RTVSPropertyOp2
 70
     1
102
RTVSPropertyOp3
 70
     1
102
RTVSPropertyOp4
 70
     1
102
RTVSPropertyOp5
 70
     1
102
RTVSPropertyOp6
 70
     1
102
RTVSPropertyOp7
 70
     1
102
RTVSPropertyOp8
 70
     1
102
RTVSPropertyOp9
 70
     1
102
RTVSPropertyOp10
 70
     1
102
RTVSPropertyOp11
 70
     1
102
RTVSPropertyOp12
 70
     1
102
RTVSPropertyOp13
 70
     1
102
RTVSPropertyOp14
 70
     1
102
RTVSPropertyOp15
 70
     1
102
RTVSPropertyOp16
 70
     1
102
RTVSPropertyOp17
 70
     1
102
RTVSPropertyOp18
 70
     1
102
RTVSPropertyOp19
 70
     1
102
RTVSPropertyOp20
 70
     1
102
RTVSPropertyOp21
 70
     1
102
RTVSPropertyOp22
 70
     1
102
RTVSPropertyOp23
 70
     1
102
RTVSPropertyOp24
 70
     1
102
RTVSPropertyOp25
 70
     1
102
RTVSPropertyOp26
 70
     1
102
RTVSPropertyOp27
 70
     1
102
RTVSPropertyOp28
 70
     1
102
RTVSPropertyOp29
 70
     1
102
RTVSPropertyOp30
 70
     1
102
RTVSPropertyOp31
 70
     1
102
RTVSPropertyOp32
 70
     1
  0
ENDSEC
  0
EOF
