  0
SECTION
  2
HEADER
  9
$EXTMIN
 10
0.0
 20
0.0
 30
0.0
  9
$EXTMAX
 10
226.293103448
 20
160.021551724
 30
0.0
  9
$LIMMIN
 10
0.0
 20
0.0
  9
$LIMMAX
 10
226.293103448
 20
160.021551724
  9
$LTSCALE
 40
1.0
  9
$PDMODE
 70
     0
  0
ENDSEC
  0
SECTION
  2
TABLES
  0
TABLE
  2
LTYPE
 70
     2
  0
LTYPE
  2
CONTINUOUS
 70
    64
  3
Solid line
 72
    65
 73
     0
 40
0.0
  0
LTYPE
  2
LTYPE1
 70
    64
  3
HIDDEN
 72
    65
 73
     2
 40
2.0
 49
1.2
 49
-0.8
  0
ENDTAB
  0
TABLE
  2
LAYER
 70
   128
  0
LAYER
  2
0
 70
     0
 62
     7
  6
CONTINUOUS
  0
LAYER
  2
1
 70
     0
 62
     7
  6
CONTINUOUS
  0
LAYER
  2
2
 70
     0
 62
     7
  6
CONTINUOUS
  0
LAYER
  2
3
 70
     0
 62
     7
  6
CONTINUOUS
  0
LAYER
  2
4
 70
     0
 62
     7
  6
CONTINUOUS
  0
LAYER
  2
5
 70
     0
 62
     7
  6
CONTINUOUS
  0
LAYER
  2
6
 70
     0
 62
     7
  6
CONTINUOUS
  0
LAYER
  2
7
 70
     0
 62
     7
  6
CONTINUOUS
  0
LAYER
  2
8
 70
     0
 62
     7
  6
CONTINUOUS
  0
LAYER
  2
9
 70
     0
 62
     7
  6
CONTINUOUS
  0
LAYER
  2
10
 70
     0
 62
     7
  6
CONTINUOUS
  0
LAYER
  2
11
 70
     0
 62
     7
  6
CONTINUOUS
  0
LAYER
  2
12
 70
     0
 62
     7
  6
CONTINUOUS
  0
LAYER
  2
13
 70
     0
 62
     7
  6
CONTINUOUS
  0
LAYER
  2
14
 70
     0
 62
     7
  6
CONTINUOUS
  0
LAYER
  2
15
 70
     0
 62
     7
  6
CONTINUOUS
  0
LAYER
  2
16
 70
     0
 62
     7
  6
CONTINUOUS
  0
LAYER
  2
17
 70
     0
 62
     7
  6
CONTINUOUS
  0
LAYER
  2
18
 70
     0
 62
     7
  6
CONTINUOUS
  0
LAYER
  2
19
 70
     0
 62
     7
  6
CONTINUOUS
  0
LAYER
  2
20
 70
     0
 62
     7
  6
CONTINUOUS
  0
LAYER
  2
21
 70
     0
 62
     7
  6
CONTINUOUS
  0
LAYER
  2
22
 70
     0
 62
     7
  6
CONTINUOUS
  0
LAYER
  2
23
 70
     0
 62
     7
  6
CONTINUOUS
  0
LAYER
  2
24
 70
     0
 62
     7
  6
CONTINUOUS
  0
LAYER
  2
25
 70
     0
 62
     7
  6
CONTINUOUS
  0
LAYER
  2
26
 70
     0
 62
     7
  6
CONTINUOUS
  0
LAYER
  2
27
 70
     0
 62
     7
  6
CONTINUOUS
  0
LAYER
  2
28
 70
     0
 62
     7
  6
CONTINUOUS
  0
LAYER
  2
29
 70
     0
 62
     7
  6
CONTINUOUS
  0
LAYER
  2
30
 70
     0
 62
     7
  6
CONTINUOUS
  0
LAYER
  2
31
 70
     0
 62
     7
  6
CONTINUOUS
  0
LAYER
  2
32
 70
     0
 62
     7
  6
CONTINUOUS
  0
LAYER
  2
33
 70
     0
 62
     7
  6
CONTINUOUS
  0
LAYER
  2
34
 70
     0
 62
     7
  6
CONTINUOUS
  0
LAYER
  2
35
 70
     0
 62
     7
  6
CONTINUOUS
  0
LAYER
  2
36
 70
     0
 62
     7
  6
CONTINUOUS
  0
LAYER
  2
37
 70
     0
 62
     7
  6
CONTINUOUS
  0
LAYER
  2
38
 70
     0
 62
     7
  6
CONTINUOUS
  0
LAYER
  2
39
 70
     0
 62
     7
  6
CONTINUOUS
  0
LAYER
  2
40
 70
     0
 62
     7
  6
CONTINUOUS
  0
LAYER
  2
41
 70
     0
 62
     7
  6
CONTINUOUS
  0
LAYER
  2
42
 70
     0
 62
     7
  6
CONTINUOUS
  0
LAYER
  2
43
 70
     0
 62
     7
  6
CONTINUOUS
  0
LAYER
  2
44
 70
     0
 62
     7
  6
CONTINUOUS
  0
LAYER
  2
45
 70
     0
 62
     7
  6
CONTINUOUS
  0
LAYER
  2
46
 70
     0
 62
     7
  6
CONTINUOUS
  0
LAYER
  2
47
 70
     0
 62
     7
  6
CONTINUOUS
  0
LAYER
  2
48
 70
     0
 62
     7
  6
CONTINUOUS
  0
LAYER
  2
49
 70
     0
 62
     7
  6
CONTINUOUS
  0
LAYER
  2
50
 70
     0
 62
     7
  6
CONTINUOUS
  0
LAYER
  2
51
 70
     0
 62
     7
  6
CONTINUOUS
  0
LAYER
  2
52
 70
     0
 62
     7
  6
CONTINUOUS
  0
LAYER
  2
53
 70
     0
 62
     7
  6
CONTINUOUS
  0
LAYER
  2
54
 70
     0
 62
     7
  6
CONTINUOUS
  0
LAYER
  2
55
 70
     0
 62
     7
  6
CONTINUOUS
  0
LAYER
  2
56
 70
     0
 62
     7
  6
CONTINUOUS
  0
LAYER
  2
57
 70
     0
 62
     7
  6
CONTINUOUS
  0
LAYER
  2
58
 70
     0
 62
     7
  6
CONTINUOUS
  0
LAYER
  2
59
 70
     0
 62
     7
  6
CONTINUOUS
  0
LAYER
  2
60
 70
     0
 62
     7
  6
CONTINUOUS
  0
LAYER
  2
61
 70
     0
 62
     7
  6
CONTINUOUS
  0
LAYER
  2
62
 70
     0
 62
     7
  6
CONTINUOUS
  0
LAYER
  2
63
 70
     0
 62
     7
  6
CONTINUOUS
  0
LAYER
  2
64
 70
     0
 62
     7
  6
CONTINUOUS
  0
LAYER
  2
65
 70
     0
 62
     7
  6
CONTINUOUS
  0
LAYER
  2
66
 70
     0
 62
     7
  6
CONTINUOUS
  0
LAYER
  2
67
 70
     0
 62
     7
  6
CONTINUOUS
  0
LAYER
  2
68
 70
     0
 62
     7
  6
CONTINUOUS
  0
LAYER
  2
69
 70
     0
 62
     7
  6
CONTINUOUS
  0
LAYER
  2
70
 70
     0
 62
     7
  6
CONTINUOUS
  0
LAYER
  2
71
 70
     0
 62
     7
  6
CONTINUOUS
  0
LAYER
  2
72
 70
     0
 62
     7
  6
CONTINUOUS
  0
LAYER
  2
73
 70
     0
 62
     7
  6
CONTINUOUS
  0
LAYER
  2
74
 70
     0
 62
     7
  6
CONTINUOUS
  0
LAYER
  2
75
 70
     0
 62
     7
  6
CONTINUOUS
  0
LAYER
  2
76
 70
     0
 62
     7
  6
CONTINUOUS
  0
LAYER
  2
77
 70
     0
 62
     7
  6
CONTINUOUS
  0
LAYER
  2
78
 70
     0
 62
     7
  6
CONTINUOUS
  0
LAYER
  2
79
 70
     0
 62
     7
  6
CONTINUOUS
  0
LAYER
  2
80
 70
     0
 62
     7
  6
CONTINUOUS
  0
LAYER
  2
81
 70
     0
 62
     7
  6
CONTINUOUS
  0
LAYER
  2
82
 70
     0
 62
     7
  6
CONTINUOUS
  0
LAYER
  2
83
 70
     0
 62
     7
  6
CONTINUOUS
  0
LAYER
  2
84
 70
     0
 62
     7
  6
CONTINUOUS
  0
LAYER
  2
85
 70
     0
 62
     7
  6
CONTINUOUS
  0
LAYER
  2
86
 70
     0
 62
     7
  6
CONTINUOUS
  0
LAYER
  2
87
 70
     0
 62
     7
  6
CONTINUOUS
  0
LAYER
  2
88
 70
     0
 62
     7
  6
CONTINUOUS
  0
LAYER
  2
89
 70
     0
 62
     7
  6
CONTINUOUS
  0
LAYER
  2
90
 70
     0
 62
     7
  6
CONTINUOUS
  0
LAYER
  2
91
 70
     0
 62
     7
  6
CONTINUOUS
  0
LAYER
  2
92
 70
     0
 62
     7
  6
CONTINUOUS
  0
LAYER
  2
93
 70
     0
 62
     7
  6
CONTINUOUS
  0
LAYER
  2
94
 70
     0
 62
     7
  6
CONTINUOUS
  0
LAYER
  2
95
 70
     0
 62
     7
  6
CONTINUOUS
  0
LAYER
  2
96
 70
     0
 62
     7
  6
CONTINUOUS
  0
LAYER
  2
97
 70
     0
 62
     7
  6
CONTINUOUS
  0
LAYER
  2
98
 70
     0
 62
     7
  6
CONTINUOUS
  0
LAYER
  2
99
 70
     0
 62
     7
  6
CONTINUOUS
  0
LAYER
  2
100
 70
     0
 62
     7
  6
CONTINUOUS
  0
LAYER
  2
101
 70
     0
 62
     7
  6
CONTINUOUS
  0
LAYER
  2
102
 70
     0
 62
     7
  6
CONTINUOUS
  0
LAYER
  2
103
 70
     0
 62
     7
  6
CONTINUOUS
  0
LAYER
  2
104
 70
     0
 62
     7
  6
CONTINUOUS
  0
LAYER
  2
105
 70
     0
 62
     7
  6
CONTINUOUS
  0
LAYER
  2
106
 70
     0
 62
     7
  6
CONTINUOUS
  0
LAYER
  2
107
 70
     0
 62
     7
  6
CONTINUOUS
  0
LAYER
  2
108
 70
     0
 62
     7
  6
CONTINUOUS
  0
LAYER
  2
109
 70
     0
 62
     7
  6
CONTINUOUS
  0
LAYER
  2
110
 70
     0
 62
     7
  6
CONTINUOUS
  0
LAYER
  2
111
 70
     0
 62
     7
  6
CONTINUOUS
  0
LAYER
  2
112
 70
     0
 62
     7
  6
CONTINUOUS
  0
LAYER
  2
113
 70
     0
 62
     7
  6
CONTINUOUS
  0
LAYER
  2
114
 70
     0
 62
     7
  6
CONTINUOUS
  0
LAYER
  2
115
 70
     0
 62
     7
  6
CONTINUOUS
  0
LAYER
  2
116
 70
     0
 62
     7
  6
CONTINUOUS
  0
LAYER
  2
117
 70
     0
 62
     7
  6
CONTINUOUS
  0
LAYER
  2
118
 70
     0
 62
     7
  6
CONTINUOUS
  0
LAYER
  2
119
 70
     0
 62
     7
  6
CONTINUOUS
  0
LAYER
  2
120
 70
     0
 62
     7
  6
CONTINUOUS
  0
LAYER
  2
121
 70
     0
 62
     7
  6
CONTINUOUS
  0
LAYER
  2
122
 70
     0
 62
     7
  6
CONTINUOUS
  0
LAYER
  2
123
 70
     0
 62
     7
  6
CONTINUOUS
  0
LAYER
  2
124
 70
     0
 62
     7
  6
CONTINUOUS
  0
LAYER
  2
125
 70
     0
 62
     7
  6
CONTINUOUS
  0
LAYER
  2
126
 70
     0
 62
     7
  6
CONTINUOUS
  0
LAYER
  2
127
 70
     0
 62
     7
  6
CONTINUOUS
  0
ENDTAB
  0
TABLE
  2
STYLE
 70
     5
  0
STYLE
  2
STANDARD
 70
     0
 40
0.0
 41
1.0
 50
0.0
 71
     0
 42
0.2
  3
txt
  4

  0
STYLE
  2
KANJI0
 70
     0
 40
3.0
 41
0.8
 50
0.0
 71
     0
 42
3.0
  3

  4
bigfont
  0
STYLE
  2
KANJI1
 70
     0
 40
2.0
 41
0.85
 50
0.0
 71
     0
 42
2.0
  3

  4
bigfont
  0
STYLE
  2
KANJI2
 70
     0
 40
1.5
 41
0.866666667
 50
0.0
 71
     0
 42
1.5
  3

  4
bigfont
  0
STYLE
  2
KANJI3
 70
     0
 40
2.0
 41
0.75
 50
0.0
 71
     0
 42
2.0
  3

  4
bigfont
  0
ENDTAB
  0
TABLE
  2
VIEW
 70
     0
  0
ENDTAB
  0
ENDSEC
  0
SECTION
  2
BLOCKS
  0
ENDSEC
  0
SECTION
  2
ENTITIES
  0
LINE
  8
0
  6
CONTINUOUS
 62
     3
 10
7.451
 20
1.0
 11
9.382851653
 21
0.48236191
  0
LINE
  8
0
  6
CONTINUOUS
 62
     3
 10
7.451
 20
1.0
 11
9.382851653
 21
1.51763809
  0
LINE
  8
0
  6
CONTINUOUS
 62
     1
 10
103.451
 20
57.0
 11
7.451
 21
57.0
  0
LINE
  8
0
  6
CONTINUOUS
 62
     1
 10
7.451
 20
57.0
 11
7.451
 21
9.0
  0
LINE
  8
0
  6
CONTINUOUS
 62
     1
 10
7.451
 20
9.0
 11
103.451
 21
9.0
  0
LINE
  8
0
  6
CONTINUOUS
 62
     1
 10
103.451
 20
9.0
 11
103.451
 21
57.0
  0
LINE
  8
0
  6
CONTINUOUS
 62
     1
 10
103.451
 20
56.5
 11
7.451
 21
56.5
  0
LINE
  8
0
  6
CONTINUOUS
 62
     1
 10
7.451
 20
9.5
 11
103.451
 21
9.5
  0
LINE
  8
0
  6
CONTINUOUS
 62
     1
 10
55.451
 20
48.5
 11
10.451
 21
48.5
  0
LINE
  8
0
  6
CONTINUOUS
 62
     1
 10
55.451
 20
48.5
 11
100.451
 21
48.5
  0
LINE
  8
0
  6
CONTINUOUS
 62
     1
 10
100.451
 20
17.5
 11
10.451
 21
17.5
  0
LINE
  8
0
  6
CONTINUOUS
 62
     1
 10
10.451
 20
47.0
 11
100.451
 21
47.0
  0
LINE
  8
0
  6
CONTINUOUS
 62
     1
 10
100.451
 20
19.0
 11
10.451
 21
19.0
  0
POINT
  8
0
  6
CONTINUOUS
 62
     1
 10
10.451
 20
19.0
  0
LINE
  8
0
  6
CONTINUOUS
 62
     1
 10
100.451
 20
46.5
 11
10.451
 21
46.5
  0
LINE
  8
0
  6
CONTINUOUS
 62
     1
 10
100.451
 20
17.5
 11
100.451
 21
48.5
  0
LINE
  8
0
  6
CONTINUOUS
 62
     1
 10
10.451
 20
48.5
 11
10.451
 21
17.5
  0
LINE
  8
0
  6
CONTINUOUS
 62
     1
 10
100.451
 20
19.5
 11
10.451
 21
19.5
  0
LINE
  8
0
  6
CONTINUOUS
 62
     1
 10
6.526
 20
27.0
 11
6.526
 21
39.0
  0
LINE
  8
0
  6
CONTINUOUS
 62
     1
 10
104.416
 20
27.0
 11
104.416
 21
39.0
  0
LINE
  8
0
  6
CONTINUOUS
 62
     1
 10
104.416
 20
27.0
 11
103.451
 21
27.0
  0
LINE
  8
0
  6
CONTINUOUS
 62
     1
 10
104.416
 20
39.0
 11
103.451
 21
39.0
  0
LINE
  8
0
  6
CONTINUOUS
 62
     1
 10
6.526
 20
27.0
 11
7.451
 21
27.0
  0
LINE
  8
0
  6
CONTINUOUS
 62
     1
 10
6.526
 20
39.0
 11
7.451
 21
39.0
  0
LINE
  8
0
  6
CONTINUOUS
 62
     1
 10
55.134983216
 20
33.597681093
 11
53.053771371
 21
33.597681093
  0
LINE
  8
0
  6
CONTINUOUS
 62
     1
 10
52.9632839
 20
32.240369021
 11
57.487657475
 21
32.240369021
  0
LINE
  8
0
  6
CONTINUOUS
 62
     1
 10
57.487657475
 20
33.778656036
 11
58.663994604
 21
32.873781321
  0
LINE
  8
0
  6
CONTINUOUS
 62
     1
 10
57.397170003
 20
33.507193622
 11
58.573507133
 21
32.602318907
  0
LINE
  8
0
  6
CONTINUOUS
 62
     1
 10
58.573507133
 20
32.602318907
 11
57.306682532
 21
32.240369021
  0
LINE
  8
0
  6
CONTINUOUS
 62
     1
 10
57.306682532
 20
31.968906606
 11
58.663994604
 21
32.330856492
  0
LINE
  8
0
  6
CONTINUOUS
 62
     1
 10
52.9632839
 20
33.597681093
 11
51.78694677
 21
33.054756264
  0
LINE
  8
0
  6
CONTINUOUS
 62
     1
 10
51.78694677
 20
33.054756264
 11
52.872796428
 21
32.240369021
  0
LINE
  8
0
  6
CONTINUOUS
 62
     1
 10
52.691821485
 20
32.059394078
 11
51.515484356
 21
32.873781321
  0
LINE
  8
0
  6
CONTINUOUS
 62
     1
 10
51.605971827
 20
33.235731207
 11
52.9632839
 21
33.959630979
  0
LINE
  8
0
  6
CONTINUOUS
 62
     1
 10
57.306682532
 20
33.597681093
 11
55.225470687
 21
33.597681093
  0
POINT
  8
0
  6
CONTINUOUS
 62
     1
 10
58.302044718
 20
39.298391798
  0
LINE
  8
0
  6
CONTINUOUS
 62
     1
 10
58.030582304
 20
37.941079725
 11
58.935457019
 21
39.026929383
  0
LINE
  8
0
  6
CONTINUOUS
 62
     1
 10
59.297406905
 20
38.936441912
 11
58.211557247
 21
37.579129839
  0
LINE
  8
0
  6
CONTINUOUS
 62
     1
 10
53.777671143
 20
38.031567197
 11
52.9632839
 21
39.026929383
  0
LINE
  8
0
  6
CONTINUOUS
 62
     1
 10
53.5966962
 20
37.669617311
 11
52.691821485
 21
38.84595444
  0
LINE
  8
0
  6
CONTINUOUS
 62
     1
 10
53.017010836
 20
34.117984054
 11
53.571246599
 21
37.646995443
  0
LINE
  8
0
  6
CONTINUOUS
 62
     1
 10
52.601334014
 20
38.820100877
 11
52.420359071
 21
38.664979497
  0
LINE
  8
0
  6
CONTINUOUS
 62
     1
 10
53.053771371
 20
39.207904326
 11
52.9632839
 21
39.130343636
  0
LINE
  8
0
  6
CONTINUOUS
 62
     1
 10
51.546589424
 20
33.213109339
 11
52.327043866
 21
38.551870158
  0
LINE
  8
0
  6
CONTINUOUS
 62
     1
 10
53.868158615
 20
37.941079725
 11
58.121069775
 21
37.941079725
  0
LINE
  8
0
  6
CONTINUOUS
 62
     1
 10
58.072998306
 20
37.4660205
 11
57.496140675
 21
33.756034168
  0
LINE
  8
0
  6
CONTINUOUS
 62
     1
 10
59.387894376
 20
38.949368693
 11
59.568869319
 21
38.84595444
  0
LINE
  8
0
  6
CONTINUOUS
 62
     1
 10
58.935457019
 20
39.207904326
 11
59.02594449
 21
39.1561972
  0
LINE
  8
0
  6
CONTINUOUS
 62
     1
 10
53.144258843
 20
39.298391798
 11
58.844969547
 21
39.298391798
  0
LINE
  8
0
  6
CONTINUOUS
 62
     1
 10
59.599974387
 20
38.823332572
 11
58.740343408
 21
32.851159453
  0
POINT
  8
0
  6
CONTINUOUS
 62
     1
 10
51.967921713
 20
26.630145788
  0
LINE
  8
0
  6
CONTINUOUS
 62
     1
 10
56.673270231
 20
28.168432803
 11
57.668632418
 21
27.173070617
  0
LINE
  8
0
  6
CONTINUOUS
 62
     1
 10
56.492295288
 20
27.98745786
 11
57.487657475
 21
26.992095674
  0
LINE
  8
0
  6
CONTINUOUS
 62
     1
 10
52.148896656
 20
28.168432803
 11
50.882072055
 21
27.263558088
  0
LINE
  8
0
  6
CONTINUOUS
 62
     1
 10
51.063046998
 20
27.082583145
 11
52.148896656
 21
27.896970389
  0
LINE
  8
0
  6
CONTINUOUS
 62
     1
 10
50.712408046
 20
27.444533031
 11
51.515484356
 21
32.964268793
  0
LINE
  8
0
  6
CONTINUOUS
 62
     1
 10
51.002722017
 20
26.992095674
 11
51.244021941
 21
26.630145788
  0
LINE
  8
0
  6
CONTINUOUS
 62
     1
 10
50.701097112
 20
27.444533031
 11
50.882072055
 21
27.173070617
  0
LINE
  8
0
  6
CONTINUOUS
 62
     1
 10
56.492295288
 20
27.98745786
 11
52.148896656
 21
27.98745786
  0
LINE
  8
0
  6
CONTINUOUS
 62
     1
 10
57.668632418
 20
27.122799799
 11
57.849607361
 21
27.263558088
  0
LINE
  8
0
  6
CONTINUOUS
 62
     1
 10
57.035220117
 20
26.630145788
 11
57.487657475
 21
26.98204151
  0
LINE
  8
0
  6
CONTINUOUS
 62
     1
 10
57.035220117
 20
26.630145788
 11
51.15353447
 21
26.630145788
  0
LINE
  8
0
  6
CONTINUOUS
 62
     1
 10
58.672477804
 20
32.308234624
 11
57.925956165
 21
27.24093622
  0
LINE
  8
0
  6
CONTINUOUS
 62
     1
 10
57.170951324
 20
31.833175399
 11
56.718513967
 21
28.213676539
  0
LINE
  8
0
  6
CONTINUOUS
 62
     1
 10
52.194140392
 20
28.213676539
 11
52.646577749
 21
31.833175399
  0
LINE
  8
0
  6
CONTINUOUS
 62
     1
 10
66.088605081
 20
33.597681093
 11
64.007393236
 21
33.597681093
  0
LINE
  8
0
  6
CONTINUOUS
 62
     1
 10
63.916905765
 20
32.240369021
 11
68.44127934
 21
32.240369021
  0
LINE
  8
0
  6
CONTINUOUS
 62
     1
 10
68.44127934
 20
33.778656036
 11
69.617616469
 21
32.873781321
  0
LINE
  8
0
  6
CONTINUOUS
 62
     1
 10
68.350791868
 20
33.507193622
 11
69.527128998
 21
32.602318907
  0
LINE
  8
0
  6
CONTINUOUS
 62
     1
 10
69.527128998
 20
32.602318907
 11
68.260304397
 21
32.240369021
  0
LINE
  8
0
  6
CONTINUOUS
 62
     1
 10
68.260304397
 20
31.968906606
 11
69.617616469
 21
32.330856492
  0
LINE
  8
0
  6
CONTINUOUS
 62
     1
 10
63.916905765
 20
33.597681093
 11
62.740568635
 21
33.054756264
  0
LINE
  8
0
  6
CONTINUOUS
 62
     1
 10
62.740568635
 20
33.054756264
 11
63.826418293
 21
32.240369021
  0
LINE
  8
0
  6
CONTINUOUS
 62
     1
 10
63.64544335
 20
32.059394078
 11
62.469106221
 21
32.873781321
  0
LINE
  8
0
  6
CONTINUOUS
 62
     1
 10
62.559593692
 20
33.235731207
 11
63.916905765
 21
33.959630979
  0
LINE
  8
0
  6
CONTINUOUS
 62
     1
 10
68.260304397
 20
33.597681093
 11
66.179092552
 21
33.597681093
  0
POINT
  8
0
  6
CONTINUOUS
 62
     1
 10
69.255666583
 20
39.298391798
  0
LINE
  8
0
  6
CONTINUOUS
 62
     1
 10
70.25102877
 20
38.936441912
 11
69.165179112
 21
37.579129839
  0
LINE
  8
0
  6
CONTINUOUS
 62
     1
 10
64.550318065
 20
37.669617311
 11
63.64544335
 21
38.84595444
  0
LINE
  8
0
  6
CONTINUOUS
 62
     1
 10
63.970632701
 20
34.117984054
 11
64.524868464
 21
37.646995443
  0
LINE
  8
0
  6
CONTINUOUS
 62
     1
 10
63.554955879
 20
38.820100877
 11
63.373980936
 21
38.664979497
  0
LINE
  8
0
  6
CONTINUOUS
 62
     1
 10
64.007393236
 20
39.207904326
 11
63.916905765
 21
39.130343636
  0
LINE
  8
0
  6
CONTINUOUS
 62
     1
 10
62.500211289
 20
33.213109339
 11
63.280665731
 21
38.551870158
  0
LINE
  8
0
  6
CONTINUOUS
 62
     1
 10
69.026620171
 20
37.4660205
 11
68.44976254
 21
33.756034168
  0
LINE
  8
0
  6
CONTINUOUS
 62
     1
 10
70.341516241
 20
38.949368693
 11
70.522491184
 21
38.84595444
  0
LINE
  8
0
  6
CONTINUOUS
 62
     1
 10
64.097880708
 20
39.298391798
 11
69.798591412
 21
39.298391798
  0
LINE
  8
0
  6
CONTINUOUS
 62
     1
 10
70.553596252
 20
38.823332572
 11
69.693965273
 21
32.851159453
  0
POINT
  8
0
  6
CONTINUOUS
 62
     1
 10
62.921543578
 20
26.630145788
  0
LINE
  8
0
  6
CONTINUOUS
 62
     1
 10
67.626892096
 20
28.168432803
 11
68.622254283
 21
27.173070617
  0
LINE
  8
0
  6
CONTINUOUS
 62
     1
 10
67.445917153
 20
27.98745786
 11
68.44127934
 21
26.992095674
  0
LINE
  8
0
  6
CONTINUOUS
 62
     1
 10
63.102518521
 20
28.168432803
 11
61.83569392
 21
27.263558088
  0
LINE
  8
0
  6
CONTINUOUS
 62
     1
 10
62.016668863
 20
27.082583145
 11
63.102518521
 21
27.896970389
  0
LINE
  8
0
  6
CONTINUOUS
 62
     1
 10
61.666029911
 20
27.444533031
 11
62.469106221
 21
32.964268793
  0
LINE
  8
0
  6
CONTINUOUS
 62
     1
 10
61.956343882
 20
26.992095674
 11
62.197643806
 21
26.630145788
  0
LINE
  8
0
  6
CONTINUOUS
 62
     1
 10
61.654718977
 20
27.444533031
 11
61.83569392
 21
27.173070617
  0
LINE
  8
0
  6
CONTINUOUS
 62
     1
 10
67.445917153
 20
27.98745786
 11
63.102518521
 21
27.98745786
  0
LINE
  8
0
  6
CONTINUOUS
 62
     1
 10
68.622254283
 20
27.122799799
 11
68.803229226
 21
27.263558088
  0
LINE
  8
0
  6
CONTINUOUS
 62
     1
 10
67.988841982
 20
26.630145788
 11
68.44127934
 21
26.98204151
  0
LINE
  8
0
  6
CONTINUOUS
 62
     1
 10
67.988841982
 20
26.630145788
 11
62.107156335
 21
26.630145788
  0
LINE
  8
0
  6
CONTINUOUS
 62
     1
 10
69.626099669
 20
32.308234624
 11
68.87957803
 21
27.24093622
  0
LINE
  8
0
  6
CONTINUOUS
 62
     1
 10
68.124573189
 20
31.833175399
 11
67.672135832
 21
28.213676539
  0
LINE
  8
0
  6
CONTINUOUS
 62
     1
 10
63.600199614
 20
32.059394078
 11
63.147762257
 21
28.439895218
  0
LINE
  8
0
  6
CONTINUOUS
 62
     1
 10
64.82178048
 20
37.941079725
 11
68.984204169
 21
37.941079725
  0
LINE
  8
0
  6
CONTINUOUS
 62
     1
 10
64.805328212
 20
37.941079725
 11
63.916905765
 21
39.026929383
  0
LINE
  8
0
  6
CONTINUOUS
 62
     1
 10
68.984204169
 20
37.941079725
 11
69.96448511
 21
39.117416855
  0
LINE
  8
0
  6
CONTINUOUS
 62
     1
 10
69.798591412
 20
39.259611453
 11
69.979566355
 21
39.1561972
  0
LINE
  8
0
  6
CONTINUOUS
 62
     1
 10
44.181361351
 20
33.597681093
 11
42.100149506
 21
33.597681093
  0
LINE
  8
0
  6
CONTINUOUS
 62
     1
 10
42.009662035
 20
32.240369021
 11
46.53403561
 21
32.240369021
  0
LINE
  8
0
  6
CONTINUOUS
 62
     1
 10
46.53403561
 20
33.778656036
 11
47.710372739
 21
32.873781321
  0
LINE
  8
0
  6
CONTINUOUS
 62
     1
 10
46.443548138
 20
33.507193622
 11
47.619885268
 21
32.602318907
  0
LINE
  8
0
  6
CONTINUOUS
 62
     1
 10
47.619885268
 20
32.602318907
 11
46.353060667
 21
32.240369021
  0
LINE
  8
0
  6
CONTINUOUS
 62
     1
 10
46.353060667
 20
31.968906606
 11
47.710372739
 21
32.330856492
  0
LINE
  8
0
  6
CONTINUOUS
 62
     1
 10
42.009662035
 20
33.597681093
 11
40.833324905
 21
33.054756264
  0
LINE
  8
0
  6
CONTINUOUS
 62
     1
 10
40.833324905
 20
33.054756264
 11
41.919174563
 21
32.240369021
  0
LINE
  8
0
  6
CONTINUOUS
 62
     1
 10
41.73819962
 20
32.059394078
 11
40.561862491
 21
32.873781321
  0
LINE
  8
0
  6
CONTINUOUS
 62
     1
 10
40.652349962
 20
33.235731207
 11
42.009662035
 21
33.959630979
  0
LINE
  8
0
  6
CONTINUOUS
 62
     1
 10
46.353060667
 20
33.597681093
 11
44.271848822
 21
33.597681093
  0
POINT
  8
0
  6
CONTINUOUS
 62
     1
 10
47.348422853
 20
39.298391798
  0
LINE
  8
0
  6
CONTINUOUS
 62
     1
 10
47.076960439
 20
37.941079725
 11
47.981835154
 21
39.026929383
  0
LINE
  8
0
  6
CONTINUOUS
 62
     1
 10
48.34378504
 20
38.936441912
 11
47.257935382
 21
37.579129839
  0
LINE
  8
0
  6
CONTINUOUS
 62
     1
 10
42.824049278
 20
38.031567197
 11
42.009662035
 21
39.026929383
  0
LINE
  8
0
  6
CONTINUOUS
 62
     1
 10
42.643074335
 20
37.669617311
 11
41.73819962
 21
38.84595444
  0
LINE
  8
0
  6
CONTINUOUS
 62
     1
 10
42.063388971
 20
34.117984054
 11
42.617624734
 21
37.646995443
  0
LINE
  8
0
  6
CONTINUOUS
 62
     1
 10
41.647712149
 20
38.820100877
 11
41.466737206
 21
38.664979497
  0
LINE
  8
0
  6
CONTINUOUS
 62
     1
 10
42.100149506
 20
39.207904326
 11
42.009662035
 21
39.130343636
  0
LINE
  8
0
  6
CONTINUOUS
 62
     1
 10
40.592967559
 20
33.213109339
 11
41.373422001
 21
38.551870158
  0
LINE
  8
0
  6
CONTINUOUS
 62
     1
 10
42.91453675
 20
37.941079725
 11
47.16744791
 21
37.941079725
  0
LINE
  8
0
  6
CONTINUOUS
 62
     1
 10
47.119376441
 20
37.4660205
 11
46.54251881
 21
33.756034168
  0
LINE
  8
0
  6
CONTINUOUS
 62
     1
 10
48.434272511
 20
38.949368693
 11
48.615247454
 21
38.84595444
  0
LINE
  8
0
  6
CONTINUOUS
 62
     1
 10
47.981835154
 20
39.207904326
 11
48.072322625
 21
39.1561972
  0
LINE
  8
0
  6
CONTINUOUS
 62
     1
 10
42.190636978
 20
39.298391798
 11
47.891347682
 21
39.298391798
  0
LINE
  8
0
  6
CONTINUOUS
 62
     1
 10
48.646352522
 20
38.823332572
 11
47.786721543
 21
32.851159453
  0
POINT
  8
0
  6
CONTINUOUS
 62
     1
 10
41.014299848
 20
26.630145788
  0
LINE
  8
0
  6
CONTINUOUS
 62
     1
 10
45.719648366
 20
28.168432803
 11
46.715010553
 21
27.173070617
  0
LINE
  8
0
  6
CONTINUOUS
 62
     1
 10
45.538673423
 20
27.98745786
 11
46.53403561
 21
26.992095674
  0
LINE
  8
0
  6
CONTINUOUS
 62
     1
 10
41.195274791
 20
28.168432803
 11
39.92845019
 21
27.263558088
  0
LINE
  8
0
  6
CONTINUOUS
 62
     1
 10
40.109425133
 20
27.082583145
 11
41.195274791
 21
27.896970389
  0
LINE
  8
0
  6
CONTINUOUS
 62
     1
 10
39.758786181
 20
27.444533031
 11
40.561862491
 21
32.964268793
  0
LINE
  8
0
  6
CONTINUOUS
 62
     1
 10
40.049100152
 20
26.992095674
 11
40.290400076
 21
26.630145788
  0
LINE
  8
0
  6
CONTINUOUS
 62
     1
 10
39.747475247
 20
27.444533031
 11
39.92845019
 21
27.173070617
  0
LINE
  8
0
  6
CONTINUOUS
 62
     1
 10
45.538673423
 20
27.98745786
 11
41.195274791
 21
27.98745786
  0
LINE
  8
0
  6
CONTINUOUS
 62
     1
 10
46.715010553
 20
27.122799799
 11
46.895985496
 21
27.263558088
  0
LINE
  8
0
  6
CONTINUOUS
 62
     1
 10
46.081598252
 20
26.630145788
 11
46.53403561
 21
26.98204151
  0
LINE
  8
0
  6
CONTINUOUS
 62
     1
 10
46.081598252
 20
26.630145788
 11
40.199912605
 21
26.630145788
  0
LINE
  8
0
  6
CONTINUOUS
 62
     1
 10
47.718855939
 20
32.308234624
 11
46.9723343
 21
27.24093622
  0
LINE
  8
0
  6
CONTINUOUS
 62
     1
 10
41.240518527
 20
28.213676539
 11
41.692955884
 21
31.833175399
  0
LINE
  8
0
  6
CONTINUOUS
 62
     1
 10
45.764892102
 20
28.213676539
 11
46.217329459
 21
31.833175399
  0
LINE
  8
0
  6
CONTINUOUS
 62
     1
 10
7.451
 20
76.0
 11
103.451
 21
76.0
  0
LINE
  8
0
  6
CONTINUOUS
 62
     1
 10
103.451
 20
76.0
 11
103.451
 21
77.5
  0
LINE
  8
0
  6
CONTINUOUS
 62
     1
 10
103.451
 20
77.5
 11
7.451
 21
77.5
  0
LINE
  8
0
  6
CONTINUOUS
 62
     1
 10
7.451
 20
77.5
 11
7.451
 21
76.0
  0
LINE
  8
0
  6
CONTINUOUS
 62
     1
 10
7.451
 20
71.0
 11
103.451
 21
71.0
  0
LINE
  8
0
  6
CONTINUOUS
 62
     1
 10
103.451
 20
71.0
 11
103.451
 21
76.0
  0
LINE
  8
0
  6
CONTINUOUS
 62
     1
 10
103.451
 20
76.0
 11
7.451
 21
76.0
  0
LINE
  8
0
  6
CONTINUOUS
 62
     1
 10
7.451
 20
76.0
 11
7.451
 21
71.0
  0
LINE
  8
0
  6
CONTINUOUS
 62
     1
 10
103.451
 20
76.0
 11
7.451
 21
76.0
  0
LINE
  8
0
  6
CONTINUOUS
 62
     1
 10
7.451
 20
77.5
 11
103.451
 21
77.5
  0
LINE
  8
0
  6
CONTINUOUS
 62
     1
 10
7.451
 20
76.0
 11
103.451
 21
76.0
  0
LINE
  8
0
  6
CONTINUOUS
 62
     1
 10
101.376
 20
77.5
 11
101.376
 21
86.2125
  0
LINE
  8
0
  6
CONTINUOUS
 62
     1
 10
9.651
 20
89.5
 11
9.526
 21
77.5
  0
LINE
  8
0
  6
CONTINUOUS
 62
     1
 10
101.251
 20
89.5
 11
101.376
 21
77.5
  0
LINE
  8
0
  6
CONTINUOUS
 62
     1
 10
101.251
 20
89.5
 11
9.651
 21
89.5
  0
ARC
  8
0
  6
CONTINUOUS
 62
     1
 10
-4.908534641
 20
92.508316927
 40
15.0
 50
319.667586953
 51
346.080732555
  0
LINE
  8
0
  6
CONTINUOUS
 62
     1
 10
8.726
 20
78.0
 11
8.326
 21
78.0
  0
LINE
  8
0
  6
CONTINUOUS
 62
     1
 10
8.326
 20
78.0
 11
8.326
 21
78.3
  0
LINE
  8
0
  6
CONTINUOUS
 62
     1
 10
8.326
 20
78.3
 11
8.126
 21
78.3
  0
LINE
  8
0
  6
CONTINUOUS
 62
     1
 10
8.126
 20
78.3
 11
8.126
 21
78.8
  0
LINE
  8
0
  6
CONTINUOUS
 62
     1
 10
8.126
 20
78.8
 11
7.926
 21
78.8
  0
LINE
  8
0
  6
CONTINUOUS
 62
     1
 10
7.926
 20
78.8
 11
7.926
 21
79.3
  0
LINE
  8
0
  6
CONTINUOUS
 62
     1
 10
7.926
 20
79.3
 11
7.726
 21
79.3
  0
LINE
  8
0
  6
CONTINUOUS
 62
     1
 10
7.726
 20
79.3
 11
7.726
 21
79.8
  0
LINE
  8
0
  6
CONTINUOUS
 62
     1
 10
7.726
 20
79.8
 11
7.526
 21
79.8
  0
LINE
  8
0
  6
CONTINUOUS
 62
     1
 10
7.526
 20
79.8
 11
7.526
 21
80.3
  0
LINE
  8
0
  6
CONTINUOUS
 62
     1
 10
7.526
 20
80.3
 11
7.326
 21
80.3
  0
LINE
  8
0
  6
CONTINUOUS
 62
     1
 10
7.326
 20
80.3
 11
7.326
 21
80.8
  0
LINE
  8
0
  6
CONTINUOUS
 62
     1
 10
7.326
 20
80.8
 11
7.126
 21
80.8
  0
LINE
  8
0
  6
CONTINUOUS
 62
     1
 10
7.126
 20
80.8
 11
7.126
 21
81.3
  0
LINE
  8
0
  6
CONTINUOUS
 62
     1
 10
7.126
 20
81.3
 11
6.926
 21
81.3
  0
LINE
  8
0
  6
CONTINUOUS
 62
     1
 10
6.926
 20
81.3
 11
6.926
 21
81.8
  0
LINE
  8
0
  6
CONTINUOUS
 62
     1
 10
6.926
 20
81.8
 11
6.726
 21
81.8
  0
LINE
  8
0
  6
CONTINUOUS
 62
     1
 10
6.726
 20
81.8
 11
6.726
 21
82.3
  0
LINE
  8
0
  6
CONTINUOUS
 62
     1
 10
6.726
 20
82.3
 11
6.526
 21
82.3
  0
LINE
  8
0
  6
CONTINUOUS
 62
     1
 10
6.526
 20
82.3
 11
6.526
 21
82.8
  0
LINE
  8
0
  6
CONTINUOUS
 62
     1
 10
9.560375
 20
80.8
 11
8.726
 21
78.0
  0
LINE
  8
0
  6
CONTINUOUS
 62
     1
 10
8.360375
 20
82.8
 11
9.560375
 21
80.8
  0
ARC
  8
0
  6
CONTINUOUS
 62
     1
 10
-4.121034357
 20
91.119520446
 40
15.0
 50
326.314442736
 51
336.214113149
  0
ARC
  8
0
  6
CONTINUOUS
 62
     1
 10
115.810534641
 20
92.508316927
 40
15.0
 50
193.919267445
 51
220.332413047
  0
LINE
  8
0
  6
CONTINUOUS
 62
     1
 10
102.176
 20
78.0
 11
102.576
 21
78.0
  0
LINE
  8
0
  6
CONTINUOUS
 62
     1
 10
102.576
 20
78.0
 11
102.576
 21
78.3
  0
LINE
  8
0
  6
CONTINUOUS
 62
     1
 10
102.576
 20
78.3
 11
102.776
 21
78.3
  0
LINE
  8
0
  6
CONTINUOUS
 62
     1
 10
102.776
 20
78.3
 11
102.776
 21
78.8
  0
LINE
  8
0
  6
CONTINUOUS
 62
     1
 10
102.776
 20
78.8
 11
102.976
 21
78.8
  0
LINE
  8
0
  6
CONTINUOUS
 62
     1
 10
102.976
 20
78.8
 11
102.976
 21
79.3
  0
LINE
  8
0
  6
CONTINUOUS
 62
     1
 10
102.976
 20
79.3
 11
103.176
 21
79.3
  0
LINE
  8
0
  6
CONTINUOUS
 62
     1
 10
103.176
 20
79.3
 11
103.176
 21
79.8
  0
LINE
  8
0
  6
CONTINUOUS
 62
     1
 10
103.176
 20
79.8
 11
103.376
 21
79.8
  0
LINE
  8
0
  6
CONTINUOUS
 62
     1
 10
103.376
 20
79.8
 11
103.376
 21
80.3
  0
LINE
  8
0
  6
CONTINUOUS
 62
     1
 10
103.376
 20
80.3
 11
103.576
 21
80.3
  0
LINE
  8
0
  6
CONTINUOUS
 62
     1
 10
103.576
 20
80.3
 11
103.576
 21
80.8
  0
LINE
  8
0
  6
CONTINUOUS
 62
     1
 10
103.576
 20
80.8
 11
103.776
 21
80.8
  0
LINE
  8
0
  6
CONTINUOUS
 62
     1
 10
103.776
 20
80.8
 11
103.776
 21
81.3
  0
LINE
  8
0
  6
CONTINUOUS
 62
     1
 10
103.776
 20
81.3
 11
103.976
 21
81.3
  0
LINE
  8
0
  6
CONTINUOUS
 62
     1
 10
103.976
 20
81.3
 11
103.976
 21
81.8
  0
LINE
  8
0
  6
CONTINUOUS
 62
     1
 10
103.976
 20
81.8
 11
104.176
 21
81.8
  0
LINE
  8
0
  6
CONTINUOUS
 62
     1
 10
104.176
 20
81.8
 11
104.176
 21
82.3
  0
LINE
  8
0
  6
CONTINUOUS
 62
     1
 10
104.176
 20
82.3
 11
104.376
 21
82.3
  0
LINE
  8
0
  6
CONTINUOUS
 62
     1
 10
104.376
 20
82.3
 11
104.376
 21
82.8
  0
LINE
  8
0
  6
CONTINUOUS
 62
     1
 10
101.341625
 20
80.8
 11
102.176
 21
78.0
  0
LINE
  8
0
  6
CONTINUOUS
 62
     1
 10
102.541625
 20
82.8
 11
101.341625
 21
80.8
  0
ARC
  8
0
  6
CONTINUOUS
 62
     1
 10
115.023034357
 20
91.119520446
 40
15.0
 50
203.785886851
 51
213.685557264
  0
LINE
  8
0
  6
CONTINUOUS
 62
     1
 10
75.951
 20
95.5
 11
75.951
 21
89.5
  0
LINE
  8
0
  6
CONTINUOUS
 62
     1
 10
34.951
 20
95.5
 11
34.951
 21
89.5
  0
LINE
  8
0
  6
CONTINUOUS
 62
     1
 10
74.951
 20
96.5
 11
35.951
 21
96.5
  0
LINE
  8
0
  6
CONTINUOUS
 62
     1
 10
34.951
 20
95.5
 11
35.951
 21
96.5
  0
LINE
  8
0
  6
CONTINUOUS
 62
     1
 10
75.951
 20
95.5
 11
74.951
 21
96.5
  0
LINE
  8
0
  6
CONTINUOUS
 62
     1
 10
103.451
 20
160.0
 11
7.451
 21
160.0
  0
LINE
  8
0
  6
CONTINUOUS
 62
     1
 10
7.451
 20
112.0
 11
103.451
 21
112.0
  0
LINE
  8
0
  6
CONTINUOUS
 62
     1
 10
104.416
 20
130.0
 11
104.416
 21
142.0
  0
ARC
  8
0
  6
CONTINUOUS
 62
     1
 10
100.651
 20
157.75
 40
0.6
 50
0.0
 51
90.0
  0
ARC
  8
0
  6
CONTINUOUS
 62
     1
 10
100.651
 20
114.25
 40
0.6
 50
270.0
 51
0.0
  0
LINE
  8
0
  6
CONTINUOUS
 62
     1
 10
10.251
 20
113.65
 11
100.651
 21
113.65
  0
ARC
  8
0
  6
CONTINUOUS
 62
     1
 10
10.251
 20
114.25
 40
0.6
 50
180.000000001
 51
270.0
  0
LINE
  8
0
  6
CONTINUOUS
 62
     1
 10
10.251
 20
158.35
 11
100.651
 21
158.35
  0
ARC
  8
0
  6
CONTINUOUS
 62
     1
 10
10.251
 20
157.75
 40
0.6
 50
90.0
 51
180.000000001
  0
LINE
  8
0
  6
CONTINUOUS
 62
     1
 10
98.751
 20
143.0
 11
98.751
 21
129.0
  0
LINE
  8
0
  6
CONTINUOUS
 62
     1
 10
101.251
 20
143.0
 11
98.751
 21
143.0
  0
LINE
  8
0
  6
CONTINUOUS
 62
     1
 10
101.251
 20
129.0
 11
98.751
 21
129.0
  0
LINE
  8
0
  6
CONTINUOUS
 62
     1
 10
104.416
 20
142.0
 11
98.751
 21
142.0
  0
LINE
  8
0
  6
CONTINUOUS
 62
     1
 10
104.416
 20
130.0
 11
98.751
 21
130.0
  0
LINE
  8
0
  6
CONTINUOUS
 62
     1
 10
101.251
 20
157.75
 11
101.251
 21
143.0
  0
LINE
  8
0
  6
CONTINUOUS
 62
     1
 10
101.251
 20
129.0
 11
101.251
 21
114.25
  0
LINE
  8
0
  6
CONTINUOUS
 62
     1
 10
101.251
 20
142.0
 11
101.251
 21
130.0
  0
LINE
  8
0
  6
CONTINUOUS
 62
     1
 10
103.451
 20
142.0
 11
103.451
 21
160.0
  0
LINE
  8
0
  6
CONTINUOUS
 62
     1
 10
103.451
 20
112.0
 11
103.451
 21
130.0
  0
LINE
  8
0
  6
CONTINUOUS
 62
     1
 10
100.251
 20
140.0
 11
100.251
 21
132.0
  0
LINE
  8
0
  6
CONTINUOUS
 62
     1
 10
100.251
 20
132.0
 11
98.751
 21
132.0
  0
LINE
  8
0
  6
CONTINUOUS
 62
     1
 10
98.751
 20
140.0
 11
100.251
 21
140.0
  0
LINE
  8
0
  6
CONTINUOUS
 62
     1
 10
26.451
 20
155.5
 11
19.451
 21
155.5
  0
LINE
  8
0
  6
CONTINUOUS
 62
     1
 10
19.451
 20
155.5
 11
19.451
 21
158.35
  0
LINE
  8
0
  6
CONTINUOUS
 62
     1
 10
26.451
 20
155.5
 11
26.451
 21
158.35
  0
LINE
  8
0
  6
CONTINUOUS
 62
     1
 10
91.451
 20
155.5
 11
84.451
 21
155.5
  0
LINE
  8
0
  6
CONTINUOUS
 62
     1
 10
84.451
 20
155.5
 11
84.451
 21
158.35
  0
LINE
  8
0
  6
CONTINUOUS
 62
     1
 10
91.451
 20
155.5
 11
91.451
 21
158.35
  0
LINE
  8
0
  6
CONTINUOUS
 62
     1
 10
91.451
 20
157.0
 11
84.451
 21
157.0
  0
LINE
  8
0
  6
CONTINUOUS
 62
     1
 10
26.451
 20
157.0
 11
19.451
 21
157.0
  0
LINE
  8
0
  6
CONTINUOUS
 62
     1
 10
90.451
 20
158.35
 11
90.451
 21
157.0
  0
LINE
  8
0
  6
CONTINUOUS
 62
     1
 10
85.451
 20
158.35
 11
85.451
 21
157.0
  0
LINE
  8
0
  6
CONTINUOUS
 62
     1
 10
25.451
 20
158.35
 11
25.451
 21
157.0
  0
LINE
  8
0
  6
CONTINUOUS
 62
     1
 10
20.451
 20
158.35
 11
20.451
 21
157.0
  0
LINE
  8
0
  6
CONTINUOUS
 62
     1
 10
36.451
 20
117.3
 11
30.451
 21
117.3
  0
LINE
  8
0
  6
CONTINUOUS
 62
     1
 10
30.451
 20
117.3
 11
30.451
 21
115.0
  0
LINE
  8
0
  6
CONTINUOUS
 62
     1
 10
30.451
 20
115.0
 11
36.451
 21
115.0
  0
LINE
  8
0
  6
CONTINUOUS
 62
     1
 10
36.451
 20
115.0
 11
36.451
 21
117.3
  0
LINE
  8
0
  6
CONTINUOUS
 62
     1
 10
80.451
 20
117.3
 11
74.451
 21
117.3
  0
LINE
  8
0
  6
CONTINUOUS
 62
     1
 10
74.451
 20
117.3
 11
74.451
 21
115.0
  0
LINE
  8
0
  6
CONTINUOUS
 62
     1
 10
74.451
 20
115.0
 11
80.451
 21
115.0
  0
LINE
  8
0
  6
CONTINUOUS
 62
     1
 10
80.451
 20
115.0
 11
80.451
 21
117.3
  0
LINE
  8
0
  6
CONTINUOUS
 62
     1
 10
79.951
 20
144.6
 11
79.951
 21
153.7
  0
LINE
  8
0
  6
CONTINUOUS
 62
     1
 10
30.951
 20
144.6
 11
30.951
 21
153.7
  0
LINE
  8
0
  6
CONTINUOUS
 62
     1
 10
79.951
 20
144.6
 11
30.951
 21
144.6
  0
LINE
  8
0
  6
CONTINUOUS
 62
     1
 10
30.951
 20
153.7
 11
79.951
 21
153.7
  0
LINE
  8
0
  6
CONTINUOUS
 62
     1
 10
92.951
 20
122.0
 11
92.951
 21
140.0
  0
LINE
  8
0
  6
CONTINUOUS
 62
     1
 10
17.951
 20
122.0
 11
17.951
 21
140.0
  0
LINE
  8
0
  6
CONTINUOUS
 62
     1
 10
92.951
 20
140.0
 11
17.951
 21
140.0
  0
LINE
  8
0
  6
CONTINUOUS
 62
     1
 10
17.951
 20
122.0
 11
92.951
 21
122.0
  0
LINE
  8
0
  6
CONTINUOUS
 62
     1
 10
6.486
 20
130.0
 11
6.486
 21
142.0
  0
LINE
  8
0
  6
CONTINUOUS
 62
     1
 10
12.151
 20
143.0
 11
12.151
 21
129.0
  0
LINE
  8
0
  6
CONTINUOUS
 62
     1
 10
9.651
 20
143.0
 11
12.151
 21
143.0
  0
LINE
  8
0
  6
CONTINUOUS
 62
     1
 10
9.651
 20
129.0
 11
12.151
 21
129.0
  0
LINE
  8
0
  6
CONTINUOUS
 62
     1
 10
6.486
 20
142.0
 11
12.151
 21
142.0
  0
LINE
  8
0
  6
CONTINUOUS
 62
     1
 10
6.486
 20
130.0
 11
12.151
 21
130.0
  0
LINE
  8
0
  6
CONTINUOUS
 62
     1
 10
9.651
 20
157.75
 11
9.651
 21
143.0
  0
LINE
  8
0
  6
CONTINUOUS
 62
     1
 10
9.651
 20
129.0
 11
9.651
 21
114.25
  0
LINE
  8
0
  6
CONTINUOUS
 62
     1
 10
9.651
 20
142.0
 11
9.651
 21
130.0
  0
LINE
  8
0
  6
CONTINUOUS
 62
     1
 10
7.451
 20
142.0
 11
7.451
 21
160.0
  0
LINE
  8
0
  6
CONTINUOUS
 62
     1
 10
7.451
 20
112.0
 11
7.451
 21
130.0
  0
LINE
  8
0
  6
CONTINUOUS
 62
     1
 10
10.651
 20
140.0
 11
10.651
 21
132.0
  0
LINE
  8
0
  6
CONTINUOUS
 62
     1
 10
10.651
 20
132.0
 11
12.151
 21
132.0
  0
LINE
  8
0
  6
CONTINUOUS
 62
     1
 10
12.151
 20
140.0
 11
10.651
 21
140.0
  0
LINE
  8
0
  6
CONTINUOUS
 62
     1
 10
75.951
 20
147.1
 11
75.951
 21
148.7
  0
LINE
  8
0
  6
CONTINUOUS
 62
     1
 10
75.951
 20
148.7
 11
34.951
 21
148.7
  0
LINE
  8
0
  6
CONTINUOUS
 62
     1
 10
34.951
 20
148.7
 11
34.951
 21
147.1
  0
LINE
  8
0
  6
CONTINUOUS
 62
     1
 10
34.951
 20
147.1
 11
75.951
 21
147.1
  0
LINE
  8
0
  6
CONTINUOUS
 62
     1
 10
169.651
 20
10.65
 11
157.451
 21
10.575
  0
LINE
  8
0
  6
CONTINUOUS
 62
     1
 10
169.651
 20
55.35
 11
157.451
 21
55.425
  0
LINE
  8
0
  6
CONTINUOUS
 62
     1
 10
169.651
 20
10.65
 11
169.651
 21
55.35
  0
LINE
  8
0
  6
CONTINUOUS
 62
     1
 10
157.951
 20
39.0
 11
157.951
 21
27.0
  0
LINE
  8
0
  6
CONTINUOUS
 62
     1
 10
162.751
 20
39.0
 11
162.751
 21
27.0
  0
LINE
  8
0
  6
CONTINUOUS
 62
     1
 10
162.251
 20
39.0
 11
162.251
 21
27.0
  0
LINE
  8
0
  6
CONTINUOUS
 62
     1
 10
161.751
 20
39.0
 11
161.751
 21
27.0
  0
LINE
  8
0
  6
CONTINUOUS
 62
     1
 10
161.251
 20
39.0
 11
161.251
 21
27.0
  0
LINE
  8
0
  6
CONTINUOUS
 62
     1
 10
160.751
 20
39.0
 11
160.751
 21
27.0
  0
LINE
  8
0
  6
CONTINUOUS
 62
     1
 10
160.251
 20
39.0
 11
160.251
 21
27.0
  0
LINE
  8
0
  6
CONTINUOUS
 62
     1
 10
159.751
 20
39.0
 11
159.751
 21
27.0
  0
LINE
  8
0
  6
CONTINUOUS
 62
     1
 10
159.251
 20
39.0
 11
159.251
 21
27.0
  0
LINE
  8
0
  6
CONTINUOUS
 62
     1
 10
158.751
 20
39.0
 11
158.751
 21
27.0
  0
LINE
  8
0
  6
CONTINUOUS
 62
     1
 10
158.251
 20
39.0
 11
158.251
 21
27.0
  0
LINE
  8
0
  6
CONTINUOUS
 62
     1
 10
169.151
 20
39.0
 11
169.151
 21
27.0
  0
LINE
  8
0
  6
CONTINUOUS
 62
     1
 10
169.151
 20
39.0
 11
157.951
 21
39.0
  0
LINE
  8
0
  6
CONTINUOUS
 62
     1
 10
169.151
 20
27.0
 11
157.951
 21
27.0
  0
LINE
  8
0
  6
CONTINUOUS
 62
     1
 10
169.651
 20
26.0
 11
157.451
 21
26.0
  0
LINE
  8
0
  6
CONTINUOUS
 62
     1
 10
169.651
 20
40.0
 11
157.451
 21
40.0
  0
LINE
  8
0
  6
CONTINUOUS
 62
     1
 10
168.151
 20
39.0
 11
168.151
 21
40.0
  0
LINE
  8
0
  6
CONTINUOUS
 62
     1
 10
168.151
 20
26.0
 11
168.151
 21
27.0
  0
LINE
  8
0
  6
CONTINUOUS
 62
     1
 10
155.951
 20
57.0
 11
157.451
 21
57.0
  0
POINT
  8
0
  6
CONTINUOUS
 62
     1
 10
157.451
 20
57.0
  0
LINE
  8
0
  6
CONTINUOUS
 62
     1
 10
157.451
 20
57.0
 11
157.451
 21
55.4
  0
POINT
  8
0
  6
CONTINUOUS
 62
     1
 10
157.451
 20
55.4
  0
LINE
  8
0
  6
CONTINUOUS
 62
     1
 10
151.501
 20
55.25
 11
151.151
 21
55.25
  0
LINE
  8
0
  6
CONTINUOUS
 62
     1
 10
151.551
 20
57.0
 11
155.951
 21
57.0
  0
LINE
  8
0
  6
CONTINUOUS
 62
     1
 10
151.151
 20
56.6
 11
151.151
 21
55.25
  0
LINE
  8
0
  6
CONTINUOUS
 62
     1
 10
151.551
 20
57.0
 11
151.151
 21
56.6
  0
LINE
  8
0
  6
CONTINUOUS
 62
     1
 10
155.951
 20
9.0
 11
157.451
 21
9.0
  0
POINT
  8
0
  6
CONTINUOUS
 62
     1
 10
157.451
 20
9.0
  0
LINE
  8
0
  6
CONTINUOUS
 62
     1
 10
157.451
 20
9.0
 11
157.451
 21
10.6
  0
POINT
  8
0
  6
CONTINUOUS
 62
     1
 10
157.451
 20
10.6
  0
LINE
  8
0
  6
CONTINUOUS
 62
     1
 10
151.501
 20
10.75
 11
151.151
 21
10.75
  0
LINE
  8
0
  6
CONTINUOUS
 62
     1
 10
151.151
 20
9.4
 11
151.151
 21
10.75
  0
LINE
  8
0
  6
CONTINUOUS
 62
     1
 10
151.551
 20
9.0
 11
155.951
 21
9.0
  0
LINE
  8
0
  6
CONTINUOUS
 62
     1
 10
151.151
 20
9.4
 11
151.551
 21
9.0
  0
LINE
  8
0
  6
CONTINUOUS
 62
     1
 10
151.501
 20
55.25
 11
151.501
 21
10.75
  0
LINE
  8
0
  6
CONTINUOUS
 62
     1
 10
156.151
 20
54.25
 11
155.651
 21
54.25
  0
LINE
  8
0
  6
CONTINUOUS
 62
     1
 10
156.151
 20
54.25
 11
156.151
 21
57.0
  0
LINE
  8
0
  6
CONTINUOUS
 62
     1
 10
156.151
 20
11.75
 11
155.651
 21
11.75
  0
LINE
  8
0
  6
CONTINUOUS
 62
     1
 10
156.151
 20
11.75
 11
156.151
 21
9.0
  0
LINE
  8
0
  6
CONTINUOUS
 62
     1
 10
157.451
 20
55.4
 11
157.451
 21
9.0
  0
LINE
  8
0
  6
CONTINUOUS
 62
     1
 10
155.651
 20
11.75
 11
155.651
 21
54.25
  0
LINE
  8
0
  6
CONTINUOUS
 62
     1
 10
176.851
 20
21.9
 11
169.651
 21
21.9
  0
LINE
  8
0
  6
CONTINUOUS
 62
     1
 10
177.151
 20
21.6
 11
176.851
 21
21.9
  0
LINE
  8
0
  6
CONTINUOUS
 62
     1
 10
169.651
 20
20.3
 11
176.851
 21
20.3
  0
LINE
  8
0
  6
CONTINUOUS
 62
     1
 10
177.151
 20
20.6
 11
177.151
 21
21.6
  0
ARC
  8
0
  6
CONTINUOUS
 62
     1
 10
176.851
 20
20.6
 40
0.3
 50
270.0
 51
0.0
  0
LINE
  8
0
  6
CONTINUOUS
 62
     1
 10
192.451
 20
119.5
 11
146.451
 21
119.5
  0
LINE
  8
0
  6
CONTINUOUS
 62
     1
 10
146.451
 20
119.5
 11
146.451
 21
142.0
  0
LINE
  8
0
  6
CONTINUOUS
 62
     1
 10
192.451
 20
119.5
 11
192.451
 21
142.0
  0
LINE
  8
0
  6
CONTINUOUS
 62
     1
 10
192.451
 20
142.0
 11
146.451
 21
142.0
  0
TEXT
  8
0
  6
CONTINUOUS
 62
     1
 10
157.460298287
 20
153.9
 30
0.4
 40
3.0
  1
ＰＡＮＥＬ　ＣＵＴ
 50
0.0
 41
0.8
 51
0.0
  7
KANJI0
  0
LINE
  8
0
  6
LTYPE1
 62
     1
 10
169.651
 20
23.8
 11
180.851
 21
23.8
  0
LINE
  8
0
  6
LTYPE1
 62
     1
 10
180.851
 20
23.8
 11
180.851
 21
16.8
  0
LINE
  8
0
  6
LTYPE1
 62
     1
 10
180.851
 20
16.8
 11
169.651
 21
16.8
  0
LINE
  8
0
  6
LTYPE1
 62
     1
 10
185.651
 20
19.1
 11
185.651
 21
19.5
  0
LINE
  8
0
  6
LTYPE1
 62
     1
 10
180.851
 20
19.1
 11
185.651
 21
19.1
  0
LINE
  8
0
  6
LTYPE1
 62
     1
 10
185.651
 20
19.5
 11
180.851
 21
19.5
  0
LINE
  8
0
  6
CONTINUOUS
 62
     3
 10
194.651
 20
10.65
 11
195.16863809
 21
12.581851653
  0
LINE
  8
0
  6
CONTINUOUS
 62
     3
 10
194.651
 20
10.65
 11
194.13336191
 21
12.581851653
  0
LINE
  8
0
  6
CONTINUOUS
 62
     3
 10
170.651
 20
10.65
 11
195.651
 21
10.65
  0
LINE
  8
0
  6
CONTINUOUS
 62
     3
 10
151.151
 20
1.0
 11
153.082851653
 21
0.48236191
  0
LINE
  8
0
  6
CONTINUOUS
 62
     3
 10
151.151
 20
1.0
 11
153.082851653
 21
1.51763809
  0
LINE
  8
0
  6
CONTINUOUS
 62
     3
 10
151.151
 20
1.0
 11
177.151
 21
1.0
  0
LINE
  8
0
  6
CONTINUOUS
 62
     3
 10
177.151
 20
1.0
 11
175.219148348
 21
1.51763809
  0
LINE
  8
0
  6
CONTINUOUS
 62
     3
 10
177.151
 20
1.0
 11
175.219148348
 21
0.48236191
  0
TEXT
  8
0
  6
CONTINUOUS
 62
     3
 10
162.451
 20
2.0
 30
0.0
 40
2.0
  1
２６
 50
0.0
 41
0.85
 51
0.0
  7
KANJI1
  0
LINE
  8
0
  6
CONTINUOUS
 62
     3
 10
151.151
 20
5.0
 11
153.082851653
 21
4.48236191
  0
LINE
  8
0
  6
CONTINUOUS
 62
     3
 10
151.151
 20
5.0
 11
153.082851653
 21
5.51763809
  0
LINE
  8
0
  6
CONTINUOUS
 62
     3
 10
151.151
 20
5.0
 11
157.451
 21
5.0
  0
LINE
  8
0
  6
CONTINUOUS
 62
     3
 10
157.451
 20
5.0
 11
155.519148348
 21
5.51763809
  0
LINE
  8
0
  6
CONTINUOUS
 62
     3
 10
157.451
 20
5.0
 11
155.519148348
 21
4.48236191
  0
LINE
  8
0
  6
CONTINUOUS
 62
     3
 10
157.451
 20
5.0
 11
159.382851653
 21
4.48236191
  0
LINE
  8
0
  6
CONTINUOUS
 62
     3
 10
157.451
 20
5.0
 11
159.382851653
 21
5.51763809
  0
LINE
  8
0
  6
CONTINUOUS
 62
     3
 10
157.451
 20
5.0
 11
169.651
 21
5.0
  0
LINE
  8
0
  6
CONTINUOUS
 62
     3
 10
169.651
 20
5.0
 11
167.719148348
 21
5.51763809
  0
LINE
  8
0
  6
CONTINUOUS
 62
     3
 10
169.651
 20
5.0
 11
167.719148348
 21
4.48236191
  0
LINE
  8
0
  6
CONTINUOUS
 62
     3
 10
169.651
 20
5.0
 11
171.582851653
 21
4.48236191
  0
LINE
  8
0
  6
CONTINUOUS
 62
     3
 10
169.651
 20
5.0
 11
171.582851653
 21
5.51763809
  0
LINE
  8
0
  6
CONTINUOUS
 62
     3
 10
169.651
 20
5.0
 11
177.151
 21
5.0
  0
LINE
  8
0
  6
CONTINUOUS
 62
     3
 10
177.151
 20
5.0
 11
175.219148348
 21
5.51763809
  0
LINE
  8
0
  6
CONTINUOUS
 62
     3
 10
177.151
 20
5.0
 11
175.219148348
 21
4.48236191
  0
TEXT
  8
0
  6
CONTINUOUS
 62
     3
 10
165.951
 20
2.75
 30
0.0
 40
1.5
  1
±１
 50
0.0
 41
0.866666667
 51
0.0
  7
KANJI2
  0
LINE
  8
0
  6
CONTINUOUS
 62
     3
 10
151.151
 20
8.4
 11
151.151
 21
0.0
  0
LINE
  8
0
  6
CONTINUOUS
 62
     3
 10
177.151
 20
19.60000259
 11
177.151
 21
0.0
  0
LINE
  8
0
  6
CONTINUOUS
 62
     3
 10
151.151
 20
8.0
 11
151.151
 21
4.0
  0
LINE
  8
0
  6
CONTINUOUS
 62
     3
 10
157.451
 20
8.0
 11
157.451
 21
4.0
  0
TEXT
  8
0
  6
CONTINUOUS
 62
     3
 10
152.404736037
 20
6.0
 30
0.0
 40
2.0
  1
６．３
 50
0.0
 41
0.85
 51
0.0
  7
KANJI1
  0
LINE
  8
0
  6
CONTINUOUS
 62
     3
 10
157.451
 20
8.0
 11
157.451
 21
4.0
  0
LINE
  8
0
  6
CONTINUOUS
 62
     3
 10
169.651
 20
9.65
 11
169.651
 21
4.0
  0
TEXT
  8
0
  6
CONTINUOUS
 62
     3
 10
160.151
 20
6.0
 30
0.0
 40
2.0
  1
１２．２
 50
0.0
 41
0.85
 51
0.0
  7
KANJI1
  0
LINE
  8
0
  6
CONTINUOUS
 62
     3
 10
169.651
 20
9.65
 11
169.651
 21
4.0
  0
LINE
  8
0
  6
CONTINUOUS
 62
     3
 10
177.151
 20
19.60000259
 11
177.151
 21
4.0
  0
TEXT
  8
0
  6
CONTINUOUS
 62
     3
 10
169.651
 20
6.0
 30
0.0
 40
2.0
  1
（７．５）
 50
0.0
 41
0.75
 51
0.0
  7
KANJI3
  0
LINE
  8
0
  6
CONTINUOUS
 62
     3
 10
157.951
 20
11.441025404
 11
162.951
 21
20.101279441
  0
LINE
  8
0
  6
CONTINUOUS
 62
     3
 10
162.451
 20
19.235254038
 11
162.96863809
 21
21.16710569
  0
LINE
  8
0
  6
CONTINUOUS
 62
     3
 10
162.451
 20
19.235254038
 11
161.93336191
 21
21.16710569
  0
TEXT
  8
0
  6
CONTINUOUS
 62
     3
 10
161.451
 20
42.410254038
 30
0.0
 40
2.0
  1
４４．９
 50
90.0
 41
0.85
 51
0.0
  7
KANJI1
  0
LINE
  8
0
  6
CONTINUOUS
 62
     3
 10
151.151
 20
57.6
 11
151.151
 21
63.0
  0
LINE
  8
0
  6
CONTINUOUS
 62
     3
 10
151.151
 20
62.0
 11
153.082851653
 21
61.48236191
  0
LINE
  8
0
  6
CONTINUOUS
 62
     3
 10
151.151
 20
62.0
 11
153.082851653
 21
62.51763809
  0
LINE
  8
0
  6
CONTINUOUS
 62
     3
 10
162.451
 20
64.085254038
 11
161.93336191
 21
62.153402385
  0
LINE
  8
0
  6
CONTINUOUS
 62
     3
 10
162.451
 20
64.085254038
 11
162.96863809
 21
62.153402385
  0
LINE
  8
0
  6
CONTINUOUS
 62
     3
 10
157.951
 20
56.291025404
 11
162.951
 21
64.951279441
  0
LINE
  8
0
  6
CONTINUOUS
 62
     3
 10
162.451
 20
19.235254038
 11
162.451
 21
64.085254038
  0
TEXT
  8
0
  6
CONTINUOUS
 62
     3
 10
171.716
 20
64.2
 30
0.0
 40
1.5
  1
±１
 50
0.0
 41
0.866666667
 51
0.0
  7
KANJI2
  0
TEXT
  8
0
  6
CONTINUOUS
 62
     3
 10
164.491
 20
63.0
 30
0.0
 40
2.0
  1
３４．５
 50
0.0
 41
0.85
 51
0.0
  7
KANJI1
  0
LINE
  8
0
  6
CONTINUOUS
 62
     3
 10
185.651
 20
62.0
 11
183.719148348
 21
62.51763809
  0
LINE
  8
0
  6
CONTINUOUS
 62
     3
 10
185.651
 20
62.0
 11
183.719148348
 21
61.48236191
  0
LINE
  8
0
  6
CONTINUOUS
 62
     3
 10
185.651
 20
20.5
 11
185.651
 21
63.0
  0
LINE
  8
0
  6
CONTINUOUS
 62
     3
 10
170.651
 20
55.35
 11
195.651
 21
55.35
  0
LINE
  8
0
  6
CONTINUOUS
 62
     3
 10
194.651
 20
55.35
 11
194.13336191
 21
53.418148347
  0
LINE
  8
0
  6
CONTINUOUS
 62
     3
 10
194.651
 20
55.35
 11
195.16863809
 21
53.418148347
  0
LINE
  8
0
  6
CONTINUOUS
 62
     3
 10
151.151
 20
62.0
 11
185.651
 21
62.0
  0
TEXT
  8
0
  6
CONTINUOUS
 62
     3
 10
193.651
 20
34.6
 30
0.0
 40
2.0
  1
４４．８
 50
90.0
 41
0.85
 51
0.0
  7
KANJI1
  0
LINE
  8
0
  6
CONTINUOUS
 62
     3
 10
194.651
 20
55.35
 11
194.651
 21
10.65
  0
LINE
  8
0
  6
CONTINUOUS
 62
     3
 10
121.451
 20
57.0
 11
120.93336191
 21
55.068148347
  0
LINE
  8
0
  6
CONTINUOUS
 62
     3
 10
121.451
 20
57.0
 11
121.96863809
 21
55.068148347
  0
LINE
  8
0
  6
CONTINUOUS
 62
     3
 10
121.451
 20
57.0
 11
121.451
 21
9.0
  0
LINE
  8
0
  6
CONTINUOUS
 62
     3
 10
121.451
 20
9.0
 11
121.96863809
 21
10.931851653
  0
LINE
  8
0
  6
CONTINUOUS
 62
     3
 10
121.451
 20
9.0
 11
120.93336191
 21
10.931851653
  0
LINE
  8
0
  6
CONTINUOUS
 62
     3
 10
104.451
 20
9.0
 11
122.451
 21
9.0
  0
LINE
  8
0
  6
CONTINUOUS
 62
     3
 10
104.451
 20
57.0
 11
122.451
 21
57.0
  0
TEXT
  8
0
  6
CONTINUOUS
 62
     3
 10
120.451
 20
34.3
 30
0.0
 40
2.0
  1
４８
 50
90.0
 41
0.85
 51
0.0
  7
KANJI1
  0
LINE
  8
0
  6
CONTINUOUS
 62
     3
 10
7.451
 20
1.0
 11
103.451
 21
1.0
  0
LINE
  8
0
  6
CONTINUOUS
 62
     3
 10
103.451
 20
1.0
 11
101.519148347
 21
1.51763809
  0
LINE
  8
0
  6
CONTINUOUS
 62
     3
 10
103.451
 20
1.0
 11
101.519148347
 21
0.48236191
  0
LINE
  8
0
  6
CONTINUOUS
 62
     3
 10
103.451
 20
8.0
 11
103.451
 21
0.0
  0
LINE
  8
0
  6
CONTINUOUS
 62
     3
 10
7.451
 20
8.0
 11
7.451
 21
0.0
  0
TEXT
  8
0
  6
CONTINUOUS
 62
     3
 10
56.751
 20
2.0
 30
0.0
 40
2.0
  1
９６
 50
0.0
 41
0.85
 51
0.0
  7
KANJI1
  0
LINE
  8
0
  6
CONTINUOUS
 62
     3
 10
0.865745962
 20
82.5
 11
2.797597615
 21
81.98236191
  0
LINE
  8
0
  6
CONTINUOUS
 62
     3
 10
0.865745962
 20
82.5
 11
2.797597615
 21
83.01763809
  0
LINE
  8
0
  6
CONTINUOUS
 62
     3
 10
9.526
 20
77.5
 11
-0.000279442
 21
83.0
  0
LINE
  8
0
  6
CONTINUOUS
 62
     3
 10
92.715745962
 20
82.5
 11
90.78389431
 21
83.01763809
  0
LINE
  8
0
  6
CONTINUOUS
 62
     3
 10
92.715745962
 20
82.5
 11
90.78389431
 21
81.98236191
  0
LINE
  8
0
  6
CONTINUOUS
 62
     3
 10
101.376
 20
77.5
 11
91.849720558
 21
83.0
  0
LINE
  8
0
  6
CONTINUOUS
 62
     3
 10
92.715745962
 20
82.5
 11
0.865745962
 21
82.5
  0
LINE
  8
0
  6
CONTINUOUS
 62
     3
 10
9.651
 20
101.5
 11
11.582851653
 21
100.98236191
  0
LINE
  8
0
  6
CONTINUOUS
 62
     3
 10
9.651
 20
101.5
 11
11.582851653
 21
102.01763809
  0
LINE
  8
0
  6
CONTINUOUS
 62
     3
 10
9.651
 20
90.5
 11
9.651
 21
102.5
  0
LINE
  8
0
  6
CONTINUOUS
 62
     3
 10
101.251
 20
101.5
 11
99.319148347
 21
102.01763809
  0
LINE
  8
0
  6
CONTINUOUS
 62
     3
 10
101.251
 20
101.5
 11
99.319148347
 21
100.98236191
  0
LINE
  8
0
  6
CONTINUOUS
 62
     3
 10
101.251
 20
90.5
 11
101.251
 21
102.5
  0
LINE
  8
0
  6
CONTINUOUS
 62
     3
 10
9.651
 20
101.5
 11
101.251
 21
101.5
  0
LINE
  8
0
  6
CONTINUOUS
 62
     3
 10
146.451
 20
143.0
 11
146.451
 21
148.0
  0
LINE
  8
0
  6
CONTINUOUS
 62
     3
 10
146.451
 20
147.0
 11
148.382851653
 21
146.48236191
  0
LINE
  8
0
  6
CONTINUOUS
 62
     3
 10
146.451
 20
147.0
 11
148.382851653
 21
147.51763809
  0
LINE
  8
0
  6
CONTINUOUS
 62
     3
 10
146.451
 20
147.0
 11
192.451
 21
147.0
  0
LINE
  8
0
  6
CONTINUOUS
 62
     3
 10
192.451
 20
147.0
 11
190.519148348
 21
147.51763809
  0
LINE
  8
0
  6
CONTINUOUS
 62
     3
 10
192.451
 20
147.0
 11
190.519148348
 21
146.48236191
  0
LINE
  8
0
  6
CONTINUOUS
 62
     3
 10
192.451
 20
143.0
 11
192.451
 21
148.0
  0
TEXT
  8
0
  6
CONTINUOUS
 62
     3
 10
171.751
 20
148.0
 30
0.0
 40
2.0
  1
９２
 50
0.0
 41
0.85
 51
0.0
  7
KANJI1
  0
TEXT
  8
0
  6
CONTINUOUS
 62
     3
 10
175.501
 20
149.75
 30
0.0
 40
1.5
  1
＋０．４
 50
0.0
 41
0.866666667
 51
0.0
  7
KANJI2
  0
TEXT
  8
0
  6
CONTINUOUS
 62
     3
 10
175.501
 20
148.25
 30
0.0
 40
1.5
  1
－０
 50
0.0
 41
0.866666667
 51
0.0
  7
KANJI2
  0
LINE
  8
0
  6
CONTINUOUS
 62
     3
 10
193.451
 20
142.0
 11
203.451
 21
142.0
  0
LINE
  8
0
  6
CONTINUOUS
 62
     3
 10
202.451
 20
142.0
 11
201.93336191
 21
140.068148347
  0
LINE
  8
0
  6
CONTINUOUS
 62
     3
 10
202.451
 20
142.0
 11
202.96863809
 21
140.068148347
  0
LINE
  8
0
  6
CONTINUOUS
 62
     3
 10
202.451
 20
142.0
 11
202.451
 21
119.5
  0
LINE
  8
0
  6
CONTINUOUS
 62
     3
 10
202.451
 20
119.5
 11
202.96863809
 21
121.431851653
  0
LINE
  8
0
  6
CONTINUOUS
 62
     3
 10
202.451
 20
119.5
 11
201.93336191
 21
121.431851653
  0
LINE
  8
0
  6
CONTINUOUS
 62
     3
 10
193.451
 20
119.5
 11
203.451
 21
119.5
  0
TEXT
  8
0
  6
CONTINUOUS
 62
     3
 10
201.451
 20
131.05
 30
0.0
 40
2.0
  1
４５
 50
90.0
 41
0.85
 51
0.0
  7
KANJI1
  0
TEXT
  8
0
  6
CONTINUOUS
 62
     3
 10
201.201
 20
134.8
 30
0.0
 40
1.5
  1
－０
 50
90.0
 41
0.866666667
 51
0.0
  7
KANJI2
  0
TEXT
  8
0
  6
CONTINUOUS
 62
     3
 10
199.701
 20
134.8
 30
0.0
 40
1.5
  1
＋０．３
 50
90.0
 41
0.866666667
 51
0.0
  7
KANJI2
  0
LINE
  8
0
  6
CONTINUOUS
 62
     1
 10
157.451
 20
55.4
 11
157.451
 21
9.0
  0
LINE
  8
0
  6
CONTINUOUS
 62
     1
 10
30.903892152
 20
32.240369021
 11
35.428265727
 21
32.240369021
  0
LINE
  8
0
  6
CONTINUOUS
 62
     1
 10
33.075591468
 20
33.597681093
 11
30.994379623
 21
33.597681093
  0
LINE
  8
0
  6
CONTINUOUS
 62
     1
 10
29.727555022
 20
33.054756264
 11
30.81340468
 21
32.240369021
  0
LINE
  8
0
  6
CONTINUOUS
 62
     1
 10
30.903892152
 20
33.597681093
 11
29.727555022
 21
33.054756264
  0
LINE
  8
0
  6
CONTINUOUS
 62
     1
 10
37.540582639
 20
38.823332572
 11
36.68095166
 21
32.851159453
  0
LINE
  8
0
  6
CONTINUOUS
 62
     1
 10
36.013606558
 20
37.4660205
 11
35.436748927
 21
33.756034168
  0
LINE
  8
0
  6
CONTINUOUS
 62
     1
 10
35.111559576
 20
31.833175399
 11
34.659122219
 21
28.213676539
  0
LINE
  8
0
  6
CONTINUOUS
 62
     1
 10
36.613086056
 20
32.308234624
 11
35.866564417
 21
27.24093622
  0
LINE
  8
0
  6
CONTINUOUS
 62
     1
 10
34.613878483
 20
28.168432803
 11
35.60924067
 21
27.173070617
  0
LINE
  8
0
  6
CONTINUOUS
 62
     1
 10
35.60924067
 20
27.122799799
 11
35.790215613
 21
27.263558088
  0
LINE
  8
0
  6
CONTINUOUS
 62
     1
 10
36.514115385
 20
32.602318907
 11
35.247290784
 21
32.240369021
  0
LINE
  8
0
  6
CONTINUOUS
 62
     1
 10
35.247290784
 20
31.968906606
 11
36.604602856
 21
32.330856492
  0
LINE
  8
0
  6
CONTINUOUS
 62
     1
 10
35.247290784
 20
33.597681093
 11
33.166078939
 21
33.597681093
  0
LINE
  8
0
  6
CONTINUOUS
 62
     1
 10
35.337778255
 20
33.507193622
 11
36.514115385
 21
32.602318907
  0
LINE
  8
0
  6
CONTINUOUS
 62
     1
 10
35.428265727
 20
33.778656036
 11
36.604602856
 21
32.873781321
  0
LINE
  8
0
  6
CONTINUOUS
 62
     1
 10
37.328502628
 20
38.949368693
 11
37.509477571
 21
38.84595444
  0
LINE
  8
0
  6
CONTINUOUS
 62
     1
 10
37.238015157
 20
38.936441912
 11
36.152165499
 21
37.579129839
  0
LINE
  8
0
  6
CONTINUOUS
 62
     1
 10
75.825233776
 20
37.960933993
 11
79.987657465
 21
37.960933993
  0
LINE
  8
0
  6
CONTINUOUS
 62
     1
 10
78.992295278
 20
26.650000056
 11
73.110609631
 21
26.650000056
  0
LINE
  8
0
  6
CONTINUOUS
 62
     1
 10
78.449370449
 20
28.007312128
 11
74.105971817
 21
28.007312128
  0
LINE
  8
0
  6
CONTINUOUS
 62
     1
 10
75.101334004
 20
39.318246066
 11
80.802044708
 21
39.318246066
  0
LINE
  8
0
  6
CONTINUOUS
 62
     1
 10
74.920359061
 20
32.260223289
 11
79.444732636
 21
32.260223289
  0
LINE
  8
0
  6
CONTINUOUS
 62
     1
 10
77.092058377
 20
33.617535361
 11
75.010846532
 21
33.617535361
  0
LINE
  8
0
  6
CONTINUOUS
 62
     1
 10
73.503664585
 20
33.232963607
 11
74.284119027
 21
38.571724426
  0
LINE
  8
0
  6
CONTINUOUS
 62
     1
 10
74.974085997
 20
34.137838322
 11
75.52832176
 21
37.666849711
  0
LINE
  8
0
  6
CONTINUOUS
 62
     1
 10
74.60365291
 20
32.079248346
 11
74.151215553
 21
28.459749486
  0
LINE
  8
0
  6
CONTINUOUS
 62
     1
 10
72.669483207
 20
27.464387299
 11
73.472559517
 21
32.984123061
  0
LINE
  8
0
  6
CONTINUOUS
 62
     1
 10
73.020122159
 20
27.102437413
 11
74.105971817
 21
27.916824657
  0
LINE
  8
0
  6
CONTINUOUS
 62
     1
 10
74.105971817
 20
28.188287071
 11
72.839147216
 21
27.283412356
  0
LINE
  8
0
  6
CONTINUOUS
 62
     1
 10
72.658172273
 20
27.464387299
 11
72.839147216
 21
27.192924885
  0
LINE
  8
0
  6
CONTINUOUS
 62
     1
 10
72.959797178
 20
27.011949942
 11
73.201097102
 21
26.650000056
  0
POINT
  8
0
  6
CONTINUOUS
 62
     1
 10
73.924996874
 20
26.650000056
  0
LINE
  8
0
  6
CONTINUOUS
 62
     1
 10
74.648896646
 20
32.079248346
 11
73.472559517
 21
32.893635589
  0
LINE
  8
0
  6
CONTINUOUS
 62
     1
 10
73.744021931
 20
33.074610532
 11
74.829871589
 21
32.260223289
  0
LINE
  8
0
  6
CONTINUOUS
 62
     1
 10
73.563046988
 20
33.255585475
 11
74.920359061
 21
33.979485247
  0
LINE
  8
0
  6
CONTINUOUS
 62
     1
 10
74.920359061
 20
33.617535361
 11
73.744021931
 21
33.074610532
  0
LINE
  8
0
  6
CONTINUOUS
 62
     1
 10
75.808781508
 20
37.960933993
 11
74.920359061
 21
39.046783651
  0
LINE
  8
0
  6
CONTINUOUS
 62
     1
 10
75.010846532
 20
39.227758594
 11
74.920359061
 21
39.150197904
  0
LINE
  8
0
  6
CONTINUOUS
 62
     1
 10
74.558409175
 20
38.839955145
 11
74.377434232
 21
38.684833765
  0
LINE
  8
0
  6
CONTINUOUS
 62
     1
 10
75.553771361
 20
37.689471579
 11
74.648896646
 21
38.865808708
  0
LINE
  8
0
  6
CONTINUOUS
 62
     1
 10
81.557049548
 20
38.84318684
 11
80.697418569
 21
32.871013721
  0
LINE
  8
0
  6
CONTINUOUS
 62
     1
 10
80.030073467
 20
37.485874768
 11
79.453215836
 21
33.775888436
  0
LINE
  8
0
  6
CONTINUOUS
 62
     1
 10
79.128026485
 20
31.853029667
 11
78.675589128
 21
28.233530807
  0
LINE
  8
0
  6
CONTINUOUS
 62
     1
 10
80.629552965
 20
32.328088892
 11
79.883031326
 21
27.260790488
  0
LINE
  8
0
  6
CONTINUOUS
 62
     1
 10
78.449370449
 20
28.007312128
 11
79.444732636
 21
27.011949942
  0
LINE
  8
0
  6
CONTINUOUS
 62
     1
 10
78.630345392
 20
28.188287071
 11
79.625707579
 21
27.192924885
  0
LINE
  8
0
  6
CONTINUOUS
 62
     1
 10
78.992295278
 20
26.650000056
 11
79.444732636
 21
27.001895778
  0
LINE
  8
0
  6
CONTINUOUS
 62
     1
 10
79.625707579
 20
27.142654067
 11
79.806682522
 21
27.283412356
  0
LINE
  8
0
  6
CONTINUOUS
 62
     1
 10
80.530582294
 20
32.622173175
 11
79.263757693
 21
32.260223289
  0
LINE
  8
0
  6
CONTINUOUS
 62
     1
 10
79.263757693
 20
31.988760874
 11
80.621069765
 21
32.35071076
  0
LINE
  8
0
  6
CONTINUOUS
 62
     1
 10
79.263757693
 20
33.617535361
 11
77.182545848
 21
33.617535361
  0
LINE
  8
0
  6
CONTINUOUS
 62
     1
 10
79.354245164
 20
33.52704789
 11
80.530582294
 21
32.622173175
  0
LINE
  8
0
  6
CONTINUOUS
 62
     1
 10
79.444732636
 20
33.798510304
 11
80.621069765
 21
32.893635589
  0
LINE
  8
0
  6
CONTINUOUS
 62
     1
 10
81.344969537
 20
38.969222961
 11
81.52594448
 21
38.865808708
  0
LINE
  8
0
  6
CONTINUOUS
 62
     1
 10
80.802044708
 20
39.279465721
 11
80.983019651
 21
39.176051468
  0
LINE
  8
0
  6
CONTINUOUS
 62
     1
 10
79.987657465
 20
37.960933993
 11
80.967938406
 21
39.137271123
  0
LINE
  8
0
  6
CONTINUOUS
 62
     1
 10
81.254482066
 20
38.95629618
 11
80.168632408
 21
37.598984107
  0
POINT
  8
0
  6
CONTINUOUS
 62
     1
 10
80.259119879
 20
39.318246066
  0
TEXT
  8
0
  6
CONTINUOUS
 62
     3
 10
57.051
 20
102.5
 30
0.0
 40
2.0
  1
９１．６
 50
0.0
 41
0.85
 51
0.0
  7
KANJI1
  0
TEXT
  8
0
  6
CONTINUOUS
 62
     3
 10
42.540745962
 20
83.5
 30
0.0
 40
2.0
  1
９１．８５
 50
0.0
 41
0.85
 51
0.0
  7
KANJI1
  0
ENDSEC
  0
EOF
