  0
SECTION
  2
HEADER
  9
$EXTMIN
 10
0.0
 20
0.0
 30
0.0
  9
$EXTMAX
 10
245.470485096
 20
173.582700175
 30
0.0
  9
$LIMMIN
 10
0.0
 20
0.0
  9
$LIMMAX
 10
245.470485096
 20
173.582700175
  9
$LTSCALE
 40
1.0
  9
$PDMODE
 70
     0
  0
ENDSEC
  0
SECTION
  2
TABLES
  0
TABLE
  2
LTYPE
 70
     1
  0
LTYPE
  2
CONTINUOUS
 70
    64
  3
Solid line
 72
    65
 73
     0
 40
0.0
  0
ENDTAB
  0
TABLE
  2
LAYER
 70
   128
  0
LAYER
  2
0
 70
     0
 62
     7
  6
CONTINUOUS
  0
LAYER
  2
1
 70
     0
 62
     7
  6
CONTINUOUS
  0
LAYER
  2
2
 70
     0
 62
     7
  6
CONTINUOUS
  0
LAYER
  2
3
 70
     0
 62
     7
  6
CONTINUOUS
  0
LAYER
  2
4
 70
     0
 62
     7
  6
CONTINUOUS
  0
LAYER
  2
5
 70
     0
 62
     7
  6
CONTINUOUS
  0
LAYER
  2
6
 70
     0
 62
     7
  6
CONTINUOUS
  0
LAYER
  2
7
 70
     0
 62
     7
  6
CONTINUOUS
  0
LAYER
  2
8
 70
     0
 62
     7
  6
CONTINUOUS
  0
LAYER
  2
9
 70
     0
 62
     7
  6
CONTINUOUS
  0
LAYER
  2
10
 70
     0
 62
     7
  6
CONTINUOUS
  0
LAYER
  2
11
 70
     0
 62
     7
  6
CONTINUOUS
  0
LAYER
  2
12
 70
     0
 62
     7
  6
CONTINUOUS
  0
LAYER
  2
13
 70
     0
 62
     7
  6
CONTINUOUS
  0
LAYER
  2
14
 70
     0
 62
     7
  6
CONTINUOUS
  0
LAYER
  2
15
 70
     0
 62
     7
  6
CONTINUOUS
  0
LAYER
  2
16
 70
     0
 62
     7
  6
CONTINUOUS
  0
LAYER
  2
17
 70
     0
 62
     7
  6
CONTINUOUS
  0
LAYER
  2
18
 70
     0
 62
     7
  6
CONTINUOUS
  0
LAYER
  2
19
 70
     0
 62
     7
  6
CONTINUOUS
  0
LAYER
  2
20
 70
     0
 62
     7
  6
CONTINUOUS
  0
LAYER
  2
21
 70
     0
 62
     7
  6
CONTINUOUS
  0
LAYER
  2
22
 70
     0
 62
     7
  6
CONTINUOUS
  0
LAYER
  2
23
 70
     0
 62
     7
  6
CONTINUOUS
  0
LAYER
  2
24
 70
     0
 62
     7
  6
CONTINUOUS
  0
LAYER
  2
25
 70
     0
 62
     7
  6
CONTINUOUS
  0
LAYER
  2
26
 70
     0
 62
     7
  6
CONTINUOUS
  0
LAYER
  2
27
 70
     0
 62
     7
  6
CONTINUOUS
  0
LAYER
  2
28
 70
     0
 62
     7
  6
CONTINUOUS
  0
LAYER
  2
29
 70
     0
 62
     7
  6
CONTINUOUS
  0
LAYER
  2
30
 70
     0
 62
     7
  6
CONTINUOUS
  0
LAYER
  2
31
 70
     0
 62
     7
  6
CONTINUOUS
  0
LAYER
  2
32
 70
     0
 62
     7
  6
CONTINUOUS
  0
LAYER
  2
33
 70
     0
 62
     7
  6
CONTINUOUS
  0
LAYER
  2
34
 70
     0
 62
     7
  6
CONTINUOUS
  0
LAYER
  2
35
 70
     0
 62
     7
  6
CONTINUOUS
  0
LAYER
  2
36
 70
     0
 62
     7
  6
CONTINUOUS
  0
LAYER
  2
37
 70
     0
 62
     7
  6
CONTINUOUS
  0
LAYER
  2
38
 70
     0
 62
     7
  6
CONTINUOUS
  0
LAYER
  2
39
 70
     0
 62
     7
  6
CONTINUOUS
  0
LAYER
  2
40
 70
     0
 62
     7
  6
CONTINUOUS
  0
LAYER
  2
41
 70
     0
 62
     7
  6
CONTINUOUS
  0
LAYER
  2
42
 70
     0
 62
     7
  6
CONTINUOUS
  0
LAYER
  2
43
 70
     0
 62
     7
  6
CONTINUOUS
  0
LAYER
  2
44
 70
     0
 62
     7
  6
CONTINUOUS
  0
LAYER
  2
45
 70
     0
 62
     7
  6
CONTINUOUS
  0
LAYER
  2
46
 70
     0
 62
     7
  6
CONTINUOUS
  0
LAYER
  2
47
 70
     0
 62
     7
  6
CONTINUOUS
  0
LAYER
  2
48
 70
     0
 62
     7
  6
CONTINUOUS
  0
LAYER
  2
49
 70
     0
 62
     7
  6
CONTINUOUS
  0
LAYER
  2
50
 70
     0
 62
     7
  6
CONTINUOUS
  0
LAYER
  2
51
 70
     0
 62
     7
  6
CONTINUOUS
  0
LAYER
  2
52
 70
     0
 62
     7
  6
CONTINUOUS
  0
LAYER
  2
53
 70
     0
 62
     7
  6
CONTINUOUS
  0
LAYER
  2
54
 70
     0
 62
     7
  6
CONTINUOUS
  0
LAYER
  2
55
 70
     0
 62
     7
  6
CONTINUOUS
  0
LAYER
  2
56
 70
     0
 62
     7
  6
CONTINUOUS
  0
LAYER
  2
57
 70
     0
 62
     7
  6
CONTINUOUS
  0
LAYER
  2
58
 70
     0
 62
     7
  6
CONTINUOUS
  0
LAYER
  2
59
 70
     0
 62
     7
  6
CONTINUOUS
  0
LAYER
  2
60
 70
     0
 62
     7
  6
CONTINUOUS
  0
LAYER
  2
61
 70
     0
 62
     7
  6
CONTINUOUS
  0
LAYER
  2
62
 70
     0
 62
     7
  6
CONTINUOUS
  0
LAYER
  2
63
 70
     0
 62
     7
  6
CONTINUOUS
  0
LAYER
  2
64
 70
     0
 62
     7
  6
CONTINUOUS
  0
LAYER
  2
65
 70
     0
 62
     7
  6
CONTINUOUS
  0
LAYER
  2
66
 70
     0
 62
     7
  6
CONTINUOUS
  0
LAYER
  2
67
 70
     0
 62
     7
  6
CONTINUOUS
  0
LAYER
  2
68
 70
     0
 62
     7
  6
CONTINUOUS
  0
LAYER
  2
69
 70
     0
 62
     7
  6
CONTINUOUS
  0
LAYER
  2
70
 70
     0
 62
     7
  6
CONTINUOUS
  0
LAYER
  2
71
 70
     0
 62
     7
  6
CONTINUOUS
  0
LAYER
  2
72
 70
     0
 62
     7
  6
CONTINUOUS
  0
LAYER
  2
73
 70
     0
 62
     7
  6
CONTINUOUS
  0
LAYER
  2
74
 70
     0
 62
     7
  6
CONTINUOUS
  0
LAYER
  2
75
 70
     0
 62
     7
  6
CONTINUOUS
  0
LAYER
  2
76
 70
     0
 62
     7
  6
CONTINUOUS
  0
LAYER
  2
77
 70
     0
 62
     7
  6
CONTINUOUS
  0
LAYER
  2
78
 70
     0
 62
     7
  6
CONTINUOUS
  0
LAYER
  2
79
 70
     0
 62
     7
  6
CONTINUOUS
  0
LAYER
  2
80
 70
     0
 62
     7
  6
CONTINUOUS
  0
LAYER
  2
81
 70
     0
 62
     7
  6
CONTINUOUS
  0
LAYER
  2
82
 70
     0
 62
     7
  6
CONTINUOUS
  0
LAYER
  2
83
 70
     0
 62
     7
  6
CONTINUOUS
  0
LAYER
  2
84
 70
     0
 62
     7
  6
CONTINUOUS
  0
LAYER
  2
85
 70
     0
 62
     7
  6
CONTINUOUS
  0
LAYER
  2
86
 70
     0
 62
     7
  6
CONTINUOUS
  0
LAYER
  2
87
 70
     0
 62
     7
  6
CONTINUOUS
  0
LAYER
  2
88
 70
     0
 62
     7
  6
CONTINUOUS
  0
LAYER
  2
89
 70
     0
 62
     7
  6
CONTINUOUS
  0
LAYER
  2
90
 70
     0
 62
     7
  6
CONTINUOUS
  0
LAYER
  2
91
 70
     0
 62
     7
  6
CONTINUOUS
  0
LAYER
  2
92
 70
     0
 62
     7
  6
CONTINUOUS
  0
LAYER
  2
93
 70
     0
 62
     7
  6
CONTINUOUS
  0
LAYER
  2
94
 70
     0
 62
     7
  6
CONTINUOUS
  0
LAYER
  2
95
 70
     0
 62
     7
  6
CONTINUOUS
  0
LAYER
  2
96
 70
     0
 62
     7
  6
CONTINUOUS
  0
LAYER
  2
97
 70
     0
 62
     7
  6
CONTINUOUS
  0
LAYER
  2
98
 70
     0
 62
     7
  6
CONTINUOUS
  0
LAYER
  2
99
 70
     0
 62
     7
  6
CONTINUOUS
  0
LAYER
  2
100
 70
     0
 62
     7
  6
CONTINUOUS
  0
LAYER
  2
101
 70
     0
 62
     7
  6
CONTINUOUS
  0
LAYER
  2
102
 70
     0
 62
     7
  6
CONTINUOUS
  0
LAYER
  2
103
 70
     0
 62
     7
  6
CONTINUOUS
  0
LAYER
  2
104
 70
     0
 62
     7
  6
CONTINUOUS
  0
LAYER
  2
105
 70
     0
 62
     7
  6
CONTINUOUS
  0
LAYER
  2
106
 70
     0
 62
     7
  6
CONTINUOUS
  0
LAYER
  2
107
 70
     0
 62
     7
  6
CONTINUOUS
  0
LAYER
  2
108
 70
     0
 62
     7
  6
CONTINUOUS
  0
LAYER
  2
109
 70
     0
 62
     7
  6
CONTINUOUS
  0
LAYER
  2
110
 70
     0
 62
     7
  6
CONTINUOUS
  0
LAYER
  2
111
 70
     0
 62
     7
  6
CONTINUOUS
  0
LAYER
  2
112
 70
     0
 62
     7
  6
CONTINUOUS
  0
LAYER
  2
113
 70
     0
 62
     7
  6
CONTINUOUS
  0
LAYER
  2
114
 70
     0
 62
     7
  6
CONTINUOUS
  0
LAYER
  2
115
 70
     0
 62
     7
  6
CONTINUOUS
  0
LAYER
  2
116
 70
     0
 62
     7
  6
CONTINUOUS
  0
LAYER
  2
117
 70
     0
 62
     7
  6
CONTINUOUS
  0
LAYER
  2
118
 70
     0
 62
     7
  6
CONTINUOUS
  0
LAYER
  2
119
 70
     0
 62
     7
  6
CONTINUOUS
  0
LAYER
  2
120
 70
     0
 62
     7
  6
CONTINUOUS
  0
LAYER
  2
121
 70
     0
 62
     7
  6
CONTINUOUS
  0
LAYER
  2
122
 70
     0
 62
     7
  6
CONTINUOUS
  0
LAYER
  2
123
 70
     0
 62
     7
  6
CONTINUOUS
  0
LAYER
  2
124
 70
     0
 62
     7
  6
CONTINUOUS
  0
LAYER
  2
125
 70
     0
 62
     7
  6
CONTINUOUS
  0
LAYER
  2
126
 70
     0
 62
     7
  6
CONTINUOUS
  0
LAYER
  2
127
 70
     0
 62
     7
  6
CONTINUOUS
  0
ENDTAB
  0
TABLE
  2
STYLE
 70
     2
  0
STYLE
  2
STANDARD
 70
     0
 40
0.0
 41
1.0
 50
0.0
 71
     0
 42
0.2
  3
txt
  4

  0
STYLE
  2
KANJI0
 70
     0
 40
2.0
 41
0.8
 50
0.0
 71
     0
 42
2.0
  3

  4
bigfont
  0
ENDTAB
  0
TABLE
  2
VIEW
 70
     0
  0
ENDTAB
  0
ENDSEC
  0
SECTION
  2
BLOCKS
  0
ENDSEC
  0
SECTION
  2
ENTITIES
  0
LINE
  8
0
  6
CONTINUOUS
 62
     3
 10
4.000333
 20
83.316667
 11
100.000333
 21
83.316667
  0
LINE
  8
0
  6
CONTINUOUS
 62
     3
 10
100.000333
 20
83.316667
 11
100.000333
 21
88.616667
  0
LINE
  8
0
  6
CONTINUOUS
 62
     3
 10
100.000333
 20
88.616667
 11
4.000333
 21
88.616667
  0
LINE
  8
0
  6
CONTINUOUS
 62
     3
 10
4.000333
 20
88.616667
 11
4.000333
 21
83.316667
  0
LINE
  8
0
  6
CONTINUOUS
 62
     3
 10
4.000333
 20
88.616667
 11
100.000333
 21
88.616667
  0
LINE
  8
0
  6
CONTINUOUS
 62
     3
 10
100.000333
 20
88.616667
 11
100.000333
 21
89.616667
  0
LINE
  8
0
  6
CONTINUOUS
 62
     3
 10
100.000333
 20
89.616667
 11
4.000333
 21
89.616667
  0
LINE
  8
0
  6
CONTINUOUS
 62
     3
 10
4.000333
 20
89.616667
 11
4.000333
 21
88.616667
  0
LINE
  8
0
  6
CONTINUOUS
 62
     3
 10
98.000333
 20
89.616667
 11
97.900442
 21
101.816667
  0
LINE
  8
0
  6
CONTINUOUS
 62
     3
 10
97.900442
 20
101.816667
 11
6.100333
 21
101.816667
  0
LINE
  8
0
  6
CONTINUOUS
 62
     3
 10
6.000333
 20
89.616667
 11
6.100333
 21
101.816667
  0
ARC
  8
0
  6
CONTINUOUS
 62
     3
 10
-9.589285812
 20
101.772602401
 40
15.68968069
 50
350.049047906
 51
0.160915886
  0
ARC
  8
0
  6
CONTINUOUS
 62
     3
 10
-4.579057256
 20
100.801207657
 40
10.587354843
 50
337.358733955
 51
350.541456549
  0
ARC
  8
0
  6
CONTINUOUS
 62
     3
 10
0.821645327
 20
98.437456869
 40
4.694037163
 50
315.796527156
 51
338.610308188
  0
ARC
  8
0
  6
CONTINUOUS
 62
     3
 10
2.91338608
 20
96.362825566
 40
1.748321911
 50
272.850589077
 51
316.742299759
  0
LINE
  8
0
  6
CONTINUOUS
 62
     3
 10
3.000333
 20
94.616667
 11
6.000333
 21
89.616667
  0
LINE
  8
0
  6
CONTINUOUS
 62
     3
 10
6.000333
 20
92.616667
 11
5.000333
 21
94.066667
  0
ARC
  8
0
  6
CONTINUOUS
 62
     3
 10
-0.005223574
 20
96.447876348
 40
6.0079281
 50
351.977296969
 51
1.60991685
  0
ARC
  8
0
  6
CONTINUOUS
 62
     3
 10
2.350563674
 20
96.078236014
 40
3.623799591
 50
339.016505011
 51
352.566045118
  0
ARC
  8
0
  6
CONTINUOUS
 62
     3
 10
4.435808669
 20
95.234390358
 40
1.375276294
 50
314.672884936
 51
340.731569594
  0
ARC
  8
0
  6
CONTINUOUS
 62
     3
 10
5.054900276
 20
94.608773727
 40
0.495122832
 50
263.672603343
 51
314.625312932
  0
LINE
  8
0
  6
CONTINUOUS
 62
     3
 10
98.000333
 20
89.616667
 11
97.900333
 21
101.816667
  0
ARC
  8
0
  6
CONTINUOUS
 62
     3
 10
113.589952312
 20
101.772608052
 40
15.689681174
 50
179.839104757
 51
189.950972737
  0
ARC
  8
0
  6
CONTINUOUS
 62
     3
 10
108.579723756
 20
100.80120333
 40
10.587353639
 50
189.458520797
 51
202.641243391
  0
ARC
  8
0
  6
CONTINUOUS
 62
     3
 10
103.179021173
 20
98.437459348
 40
4.694038533
 50
201.389717751
 51
224.203498783
  0
ARC
  8
0
  6
CONTINUOUS
 62
     3
 10
101.08728042
 20
96.362824325
 40
1.748320696
 50
223.257681852
 51
267.149392535
  0
LINE
  8
0
  6
CONTINUOUS
 62
     3
 10
101.000333
 20
94.616667
 11
98.000333
 21
89.616667
  0
LINE
  8
0
  6
CONTINUOUS
 62
     3
 10
98.000333
 20
92.616667
 11
99.000333
 21
94.066667
  0
ARC
  8
0
  6
CONTINUOUS
 62
     3
 10
104.005889574
 20
96.447876348
 40
6.0079281
 50
178.39008315
 51
188.022703031
  0
ARC
  8
0
  6
CONTINUOUS
 62
     3
 10
101.650102326
 20
96.078236014
 40
3.623799591
 50
187.433954882
 51
200.983494989
  0
ARC
  8
0
  6
CONTINUOUS
 62
     3
 10
99.564857331
 20
95.234390358
 40
1.375276294
 50
199.268430406
 51
225.327115064
  0
ARC
  8
0
  6
CONTINUOUS
 62
     3
 10
98.945765724
 20
94.608773727
 40
0.495122832
 50
225.374687068
 51
276.327396657
  0
LINE
  8
0
  6
CONTINUOUS
 62
     3
 10
100.000333
 20
173.616667
 11
4.000333
 21
173.616667
  0
LINE
  8
0
  6
CONTINUOUS
 62
     1
 10
92.000333
 20
100.616667
 11
98.000333
 21
89.616667
  0
LINE
  8
0
  6
CONTINUOUS
 62
     1
 10
0.000333
 20
100.616667
 11
6.000333
 21
89.616667
  0
LINE
  8
0
  6
CONTINUOUS
 62
     3
 10
37.500333
 20
101.816667
 11
44.500333
 21
101.816667
  0
LINE
  8
0
  6
CONTINUOUS
 62
     3
 10
59.500333
 20
101.816667
 11
66.500333
 21
101.816667
  0
LINE
  8
0
  6
CONTINUOUS
 62
     1
 10
6.067
 20
102.8
 11
6.067
 21
113.95
  0
LINE
  8
0
  6
CONTINUOUS
 62
     1
 10
6.067
 20
112.95
 11
7.998851653
 21
112.43236191
  0
LINE
  8
0
  6
CONTINUOUS
 62
     1
 10
6.067
 20
112.95
 11
7.998851653
 21
113.46763809
  0
LINE
  8
0
  6
CONTINUOUS
 62
     1
 10
6.067
 20
112.95
 11
97.917
 21
112.95
  0
LINE
  8
0
  6
CONTINUOUS
 62
     1
 10
97.917
 20
112.95
 11
95.985148347
 21
113.46763809
  0
LINE
  8
0
  6
CONTINUOUS
 62
     1
 10
97.917
 20
112.95
 11
95.985148347
 21
112.43236191
  0
LINE
  8
0
  6
CONTINUOUS
 62
     1
 10
97.917
 20
102.8
 11
97.917
 21
113.95
  0
LINE
  8
0
  6
CONTINUOUS
 62
     1
 10
1.817
 20
97.3
 11
3.748851653
 21
96.78236191
  0
LINE
  8
0
  6
CONTINUOUS
 62
     1
 10
1.817
 20
97.3
 11
3.748851653
 21
97.81763809
  0
LINE
  8
0
  6
CONTINUOUS
 62
     1
 10
1.817
 20
97.3
 11
93.817
 21
97.3
  0
LINE
  8
0
  6
CONTINUOUS
 62
     1
 10
93.817
 20
97.3
 11
91.885148347
 21
97.81763809
  0
LINE
  8
0
  6
CONTINUOUS
 62
     1
 10
93.817
 20
97.3
 11
91.885148347
 21
96.78236191
  0
LINE
  8
0
  6
CONTINUOUS
 62
     3
 10
62.000333
 20
101.816667
 11
62.000333
 21
102.816667
  0
LINE
  8
0
  6
CONTINUOUS
 62
     3
 10
62.000333
 20
102.816667
 11
55.000333
 21
102.816667
  0
LINE
  8
0
  6
CONTINUOUS
 62
     3
 10
55.000333
 20
102.816667
 11
55.000333
 21
101.816667
  0
LINE
  8
0
  6
CONTINUOUS
 62
     3
 10
56.500333
 20
102.816667
 11
60.500333
 21
102.816667
  0
ARC
  8
0
  6
CONTINUOUS
 62
     3
 10
60.500333374
 20
103.316666626
 40
0.499999626
 50
269.999957196
 51
0.0000428
  0
LINE
  8
0
  6
CONTINUOUS
 62
     3
 10
61.000333
 20
103.316667
 11
61.000333
 21
103.616667
  0
ARC
  8
0
  6
CONTINUOUS
 62
     3
 10
60.500333374
 20
103.616667374
 40
0.499999626
 50
359.9999572
 51
90.000042804
  0
LINE
  8
0
  6
CONTINUOUS
 62
     3
 10
60.500333
 20
104.116667
 11
56.500333
 21
104.116667
  0
ARC
  8
0
  6
CONTINUOUS
 62
     3
 10
56.500332626
 20
103.616667374
 40
0.499999626
 50
89.999957197
 51
180.000042808
  0
LINE
  8
0
  6
CONTINUOUS
 62
     3
 10
56.000333
 20
103.616667
 11
56.000333
 21
103.316667
  0
ARC
  8
0
  6
CONTINUOUS
 62
     3
 10
56.500332626
 20
103.316666626
 40
0.499999626
 50
179.9999572
 51
270.000042805
  0
LINE
  8
0
  6
CONTINUOUS
 62
     3
 10
46.000333
 20
101.816667
 11
46.000333
 21
102.816667
  0
LINE
  8
0
  6
CONTINUOUS
 62
     3
 10
46.000333
 20
102.816667
 11
39.000333
 21
102.816667
  0
LINE
  8
0
  6
CONTINUOUS
 62
     3
 10
39.000333
 20
102.816667
 11
39.000333
 21
101.816667
  0
LINE
  8
0
  6
CONTINUOUS
 62
     3
 10
40.500333
 20
102.816667
 11
44.500333
 21
102.816667
  0
ARC
  8
0
  6
CONTINUOUS
 62
     3
 10
44.500333374
 20
103.316666626
 40
0.499999626
 50
269.999957195
 51
0.0000428
  0
LINE
  8
0
  6
CONTINUOUS
 62
     3
 10
45.000333
 20
103.316667
 11
45.000333
 21
103.616667
  0
ARC
  8
0
  6
CONTINUOUS
 62
     3
 10
44.500333374
 20
103.616667374
 40
0.499999626
 50
359.999957192
 51
90.000042804
  0
LINE
  8
0
  6
CONTINUOUS
 62
     3
 10
44.500333
 20
104.116667
 11
40.500333
 21
104.116667
  0
ARC
  8
0
  6
CONTINUOUS
 62
     3
 10
40.500332626
 20
103.616667374
 40
0.499999626
 50
89.999957195
 51
180.0000428
  0
LINE
  8
0
  6
CONTINUOUS
 62
     3
 10
40.000333
 20
103.616667
 11
40.000333
 21
103.316667
  0
ARC
  8
0
  6
CONTINUOUS
 62
     3
 10
40.500332626
 20
103.316666626
 40
0.499999626
 50
179.9999572
 51
270.000042804
  0
TEXT
  8
0
  6
CONTINUOUS
 62
     1
 10
48.792
 20
113.95
 30
0.0
 40
2.0
  1
９１．６
 50
0.0
 41
0.8
 51
0.0
  7
KANJI0
  0
TEXT
  8
0
  6
CONTINUOUS
 62
     1
 10
44.617
 20
98.3
 30
0.0
 40
2.0
  1
９１．８５
 50
0.0
 41
0.8
 51
0.0
  7
KANJI0
  0
LINE
  8
0
  6
CONTINUOUS
 62
     3
 10
4.000333
 20
15.616667
 11
100.000333
 21
15.616667
  0
LINE
  8
0
  6
CONTINUOUS
 62
     3
 10
100.000333
 20
15.616667
 11
100.000333
 21
63.616667
  0
LINE
  8
0
  6
CONTINUOUS
 62
     3
 10
100.000333
 20
63.616667
 11
4.000333
 21
63.616667
  0
LINE
  8
0
  6
CONTINUOUS
 62
     3
 10
4.000333
 20
63.616667
 11
4.000333
 21
15.616667
  0
LINE
  8
0
  6
CONTINUOUS
 62
     3
 10
4.000333
 20
63.116667
 11
100.000333
 21
63.116667
  0
LINE
  8
0
  6
CONTINUOUS
 62
     3
 10
100.000333
 20
63.116667
 11
100.000333
 21
63.616667
  0
LINE
  8
0
  6
CONTINUOUS
 62
     3
 10
100.000333
 20
63.616667
 11
4.000333
 21
63.616667
  0
LINE
  8
0
  6
CONTINUOUS
 62
     3
 10
4.000333
 20
63.616667
 11
4.000333
 21
63.116667
  0
LINE
  8
0
  6
CONTINUOUS
 62
     3
 10
4.000333
 20
62.116667
 11
100.000333
 21
62.116667
  0
LINE
  8
0
  6
CONTINUOUS
 62
     3
 10
100.000333
 20
62.116667
 11
100.000333
 21
63.116667
  0
LINE
  8
0
  6
CONTINUOUS
 62
     3
 10
100.000333
 20
63.116667
 11
4.000333
 21
63.116667
  0
LINE
  8
0
  6
CONTINUOUS
 62
     3
 10
4.000333
 20
63.116667
 11
4.000333
 21
62.116667
  0
LINE
  8
0
  6
CONTINUOUS
 62
     3
 10
4.000333
 20
15.616667
 11
100.000333
 21
15.616667
  0
LINE
  8
0
  6
CONTINUOUS
 62
     3
 10
100.000333
 20
15.616667
 11
100.000333
 21
16.116667
  0
LINE
  8
0
  6
CONTINUOUS
 62
     3
 10
100.000333
 20
16.116667
 11
4.000333
 21
16.116667
  0
LINE
  8
0
  6
CONTINUOUS
 62
     3
 10
4.000333
 20
16.116667
 11
4.000333
 21
15.616667
  0
LINE
  8
0
  6
CONTINUOUS
 62
     3
 10
4.000333
 20
16.116667
 11
100.000333
 21
16.116667
  0
LINE
  8
0
  6
CONTINUOUS
 62
     3
 10
100.000333
 20
16.116667
 11
100.000333
 21
17.116667
  0
LINE
  8
0
  6
CONTINUOUS
 62
     3
 10
100.000333
 20
17.116667
 11
4.000333
 21
17.116667
  0
LINE
  8
0
  6
CONTINUOUS
 62
     3
 10
4.000333
 20
17.116667
 11
4.000333
 21
16.116667
  0
LINE
  8
0
  6
CONTINUOUS
 62
     3
 10
7.000333
 20
25.616667
 11
97.000333
 21
25.616667
  0
LINE
  8
0
  6
CONTINUOUS
 62
     3
 10
97.000333
 20
25.616667
 11
97.000333
 21
53.616667
  0
LINE
  8
0
  6
CONTINUOUS
 62
     3
 10
97.000333
 20
53.616667
 11
7.000333
 21
53.616667
  0
LINE
  8
0
  6
CONTINUOUS
 62
     3
 10
7.000333
 20
53.616667
 11
7.000333
 21
25.616667
  0
LINE
  8
0
  6
CONTINUOUS
 62
     3
 10
7.000333
 20
53.616667
 11
97.000333
 21
53.616667
  0
LINE
  8
0
  6
CONTINUOUS
 62
     3
 10
97.000333
 20
53.616667
 11
97.000333
 21
55.116667
  0
LINE
  8
0
  6
CONTINUOUS
 62
     3
 10
97.000333
 20
55.116667
 11
7.000333
 21
55.116667
  0
LINE
  8
0
  6
CONTINUOUS
 62
     3
 10
7.000333
 20
55.116667
 11
7.000333
 21
53.616667
  0
LINE
  8
0
  6
CONTINUOUS
 62
     3
 10
7.000333
 20
24.116667
 11
97.000333
 21
24.116667
  0
LINE
  8
0
  6
CONTINUOUS
 62
     3
 10
97.000333
 20
24.116667
 11
97.000333
 21
25.616667
  0
LINE
  8
0
  6
CONTINUOUS
 62
     3
 10
97.000333
 20
25.616667
 11
7.000333
 21
25.616667
  0
LINE
  8
0
  6
CONTINUOUS
 62
     3
 10
7.000333
 20
25.616667
 11
7.000333
 21
24.116667
  0
LINE
  8
0
  6
CONTINUOUS
 62
     3
 10
3.000333
 20
34.616667
 11
4.000333
 21
34.616667
  0
LINE
  8
0
  6
CONTINUOUS
 62
     3
 10
4.000333
 20
34.616667
 11
4.000333
 21
45.616667
  0
LINE
  8
0
  6
CONTINUOUS
 62
     3
 10
4.000333
 20
45.616667
 11
3.000333
 21
45.616667
  0
LINE
  8
0
  6
CONTINUOUS
 62
     3
 10
3.000333
 20
45.616667
 11
3.000333
 21
34.616667
  0
LINE
  8
0
  6
CONTINUOUS
 62
     3
 10
100.000333
 20
34.616667
 11
101.000333
 21
34.616667
  0
LINE
  8
0
  6
CONTINUOUS
 62
     3
 10
101.000333
 20
34.616667
 11
101.000333
 21
45.616667
  0
LINE
  8
0
  6
CONTINUOUS
 62
     3
 10
101.000333
 20
45.616667
 11
100.000333
 21
45.616667
  0
LINE
  8
0
  6
CONTINUOUS
 62
     3
 10
100.000333
 20
45.616667
 11
100.000333
 21
34.616667
  0
LINE
  8
0
  6
CONTINUOUS
 62
     1
 10
3.967
 20
14.6
 11
3.967
 21
5.0
  0
LINE
  8
0
  6
CONTINUOUS
 62
     1
 10
3.967
 20
6.0
 11
5.898851653
 21
5.48236191
  0
LINE
  8
0
  6
CONTINUOUS
 62
     1
 10
3.967
 20
6.0
 11
5.898851653
 21
6.51763809
  0
LINE
  8
0
  6
CONTINUOUS
 62
     1
 10
3.967
 20
6.0
 11
100.017
 21
6.0
  0
LINE
  8
0
  6
CONTINUOUS
 62
     1
 10
100.017
 20
6.0
 11
98.085148347
 21
6.51763809
  0
LINE
  8
0
  6
CONTINUOUS
 62
     1
 10
100.017
 20
6.0
 11
98.085148347
 21
5.48236191
  0
LINE
  8
0
  6
CONTINUOUS
 62
     1
 10
100.017
 20
14.6
 11
100.017
 21
5.0
  0
TEXT
  8
0
  6
CONTINUOUS
 62
     1
 10
50.392
 20
7.0
 30
0.0
 40
2.0
  1
９６
 50
0.0
 41
0.8
 51
0.0
  7
KANJI0
  0
LINE
  8
0
  6
CONTINUOUS
 62
     1
 10
101.117
 20
15.65
 11
116.667
 21
15.65
  0
LINE
  8
0
  6
CONTINUOUS
 62
     1
 10
115.667
 20
15.65
 11
116.18463809
 21
17.581851653
  0
LINE
  8
0
  6
CONTINUOUS
 62
     1
 10
115.667
 20
15.65
 11
115.14936191
 21
17.581851653
  0
LINE
  8
0
  6
CONTINUOUS
 62
     1
 10
115.667
 20
15.65
 11
115.667
 21
63.65
  0
LINE
  8
0
  6
CONTINUOUS
 62
     1
 10
115.667
 20
63.65
 11
115.14936191
 21
61.718148347
  0
LINE
  8
0
  6
CONTINUOUS
 62
     1
 10
115.667
 20
63.65
 11
116.18463809
 21
61.718148347
  0
LINE
  8
0
  6
CONTINUOUS
 62
     1
 10
101.117
 20
63.65
 11
116.667
 21
63.65
  0
TEXT
  8
0
  6
CONTINUOUS
 62
     1
 10
114.667
 20
38.05
 30
0.0
 40
2.0
  1
４８
 50
90.0
 41
0.8
 51
0.0
  7
KANJI0
  0
LINE
  8
0
  6
CONTINUOUS
 62
     3
 10
38.500333
 20
34.116667
 11
50.500333
 21
34.116667
  0
LINE
  8
0
  6
CONTINUOUS
 62
     3
 10
50.500333
 20
34.116667
 11
50.500333
 21
51.116667
  0
LINE
  8
0
  6
CONTINUOUS
 62
     3
 10
50.500333
 20
51.116667
 11
38.500333
 21
51.116667
  0
LINE
  8
0
  6
CONTINUOUS
 62
     3
 10
38.500333
 20
51.116667
 11
38.500333
 21
34.116667
  0
LINE
  8
0
  6
CONTINUOUS
 62
     3
 10
46.476417
 20
42.011404
 11
46.937955
 21
42.485088
  0
LINE
  8
0
  6
CONTINUOUS
 62
     3
 10
46.937955
 20
42.485088
 11
46.476417
 21
42.958772
  0
LINE
  8
0
  6
CONTINUOUS
 62
     3
 10
46.476417
 20
42.958772
 11
41.861032
 21
42.958772
  0
LINE
  8
0
  6
CONTINUOUS
 62
     3
 10
41.861032
 20
42.958772
 11
41.399494
 21
42.485088
  0
LINE
  8
0
  6
CONTINUOUS
 62
     3
 10
41.399494
 20
42.485088
 11
41.861032
 21
42.011404
  0
LINE
  8
0
  6
CONTINUOUS
 62
     3
 10
41.861032
 20
42.011404
 11
46.476417
 21
42.011404
  0
LINE
  8
0
  6
CONTINUOUS
 62
     3
 10
47.814879
 20
48.169298
 11
47.35334
 21
47.695614
  0
LINE
  8
0
  6
CONTINUOUS
 62
     3
 10
47.35334
 20
47.695614
 11
46.891802
 21
42.958772
  0
LINE
  8
0
  6
CONTINUOUS
 62
     3
 10
46.891802
 20
42.958772
 11
47.35334
 21
42.485088
  0
LINE
  8
0
  6
CONTINUOUS
 62
     3
 10
47.35334
 20
42.485088
 11
47.814879
 21
42.958772
  0
LINE
  8
0
  6
CONTINUOUS
 62
     3
 10
47.814879
 20
42.958772
 11
48.276417
 21
47.695614
  0
LINE
  8
0
  6
CONTINUOUS
 62
     3
 10
48.276417
 20
47.695614
 11
47.814879
 21
48.169298
  0
LINE
  8
0
  6
CONTINUOUS
 62
     3
 10
47.122571
 20
48.169298
 11
47.584109
 21
48.642982
  0
LINE
  8
0
  6
CONTINUOUS
 62
     3
 10
47.584109
 20
48.642982
 11
47.122571
 21
49.116667
  0
LINE
  8
0
  6
CONTINUOUS
 62
     3
 10
47.122571
 20
49.116667
 11
42.507186
 21
49.116667
  0
LINE
  8
0
  6
CONTINUOUS
 62
     3
 10
42.507186
 20
49.116667
 11
42.045648
 21
48.642982
  0
LINE
  8
0
  6
CONTINUOUS
 62
     3
 10
42.045648
 20
48.642982
 11
42.507186
 21
48.169298
  0
LINE
  8
0
  6
CONTINUOUS
 62
     3
 10
42.507186
 20
48.169298
 11
47.122571
 21
48.169298
  0
LINE
  8
0
  6
CONTINUOUS
 62
     3
 10
40.891802
 20
47.695614
 11
40.430263
 21
42.958772
  0
LINE
  8
0
  6
CONTINUOUS
 62
     3
 10
40.430263
 20
42.958772
 11
40.891802
 21
42.485088
  0
LINE
  8
0
  6
CONTINUOUS
 62
     3
 10
40.891802
 20
42.485088
 11
41.35334
 21
42.958772
  0
LINE
  8
0
  6
CONTINUOUS
 62
     3
 10
41.35334
 20
42.958772
 11
41.814879
 21
47.695614
  0
LINE
  8
0
  6
CONTINUOUS
 62
     3
 10
41.814879
 20
47.695614
 11
41.35334
 21
48.169298
  0
LINE
  8
0
  6
CONTINUOUS
 62
     3
 10
41.35334
 20
48.169298
 11
40.891802
 21
47.695614
  0
LINE
  8
0
  6
CONTINUOUS
 62
     3
 10
40.661032
 20
42.011404
 11
40.199494
 21
41.537719
  0
LINE
  8
0
  6
CONTINUOUS
 62
     3
 10
40.199494
 20
41.537719
 11
39.737955
 21
36.800877
  0
LINE
  8
0
  6
CONTINUOUS
 62
     3
 10
39.737955
 20
36.800877
 11
40.199494
 21
36.327193
  0
LINE
  8
0
  6
CONTINUOUS
 62
     3
 10
40.199494
 20
36.327193
 11
40.661032
 21
36.800877
  0
LINE
  8
0
  6
CONTINUOUS
 62
     3
 10
40.661032
 20
36.800877
 11
41.122571
 21
41.537719
  0
LINE
  8
0
  6
CONTINUOUS
 62
     3
 10
41.122571
 20
41.537719
 11
40.661032
 21
42.011404
  0
LINE
  8
0
  6
CONTINUOUS
 62
     3
 10
45.737955
 20
35.853509
 11
46.199494
 21
36.327193
  0
LINE
  8
0
  6
CONTINUOUS
 62
     3
 10
46.199494
 20
36.327193
 11
45.737955
 21
36.800877
  0
LINE
  8
0
  6
CONTINUOUS
 62
     3
 10
45.737955
 20
36.800877
 11
41.122571
 21
36.800877
  0
LINE
  8
0
  6
CONTINUOUS
 62
     3
 10
41.122571
 20
36.800877
 11
40.661032
 21
36.327193
  0
LINE
  8
0
  6
CONTINUOUS
 62
     3
 10
40.661032
 20
36.327193
 11
41.122571
 21
35.853509
  0
LINE
  8
0
  6
CONTINUOUS
 62
     3
 10
41.122571
 20
35.853509
 11
45.737955
 21
35.853509
  0
LINE
  8
0
  6
CONTINUOUS
 62
     3
 10
47.122571
 20
42.011404
 11
46.661032
 21
41.537719
  0
LINE
  8
0
  6
CONTINUOUS
 62
     3
 10
46.661032
 20
41.537719
 11
46.199494
 21
36.800877
  0
LINE
  8
0
  6
CONTINUOUS
 62
     3
 10
46.199494
 20
36.800877
 11
46.661032
 21
36.327193
  0
LINE
  8
0
  6
CONTINUOUS
 62
     3
 10
46.661032
 20
36.327193
 11
47.122571
 21
36.800877
  0
LINE
  8
0
  6
CONTINUOUS
 62
     3
 10
47.122571
 20
36.800877
 11
47.584109
 21
41.537719
  0
LINE
  8
0
  6
CONTINUOUS
 62
     3
 10
47.584109
 20
41.537719
 11
47.122571
 21
42.011404
  0
ARC
  8
0
  6
CONTINUOUS
 62
     3
 10
49.025849701
 20
36.485406269
 40
0.63554478
 50
158.266704767
 51
180.02869263
  0
ARC
  8
0
  6
CONTINUOUS
 62
     3
 10
49.009395041
 20
36.492471681
 40
0.61764371
 50
136.12959791
 51
158.310327092
  0
ARC
  8
0
  6
CONTINUOUS
 62
     3
 10
48.99141119
 20
36.509815247
 40
0.592659383
 50
113.333733406
 51
136.133445334
  0
ARC
  8
0
  6
CONTINUOUS
 62
     3
 10
48.9841109
 20
36.525634959
 40
0.575242135
 50
90.032859026
 51
113.290181646
  0
ARC
  8
0
  6
CONTINUOUS
 62
     3
 10
48.9834506
 20
36.525637389
 40
0.575239706
 50
66.709768414
 51
89.967091033
  0
ARC
  8
0
  6
CONTINUOUS
 62
     3
 10
48.97614981
 20
36.509815247
 40
0.592659383
 50
43.866554666
 51
66.666266594
  0
ARC
  8
0
  6
CONTINUOUS
 62
     3
 10
48.958166459
 20
36.49246913
 40
0.617645117
 50
21.689875637
 51
43.870604818
  0
ARC
  8
0
  6
CONTINUOUS
 62
     3
 10
48.941711799
 20
36.48540887
 40
0.635544282
 50
359.971072852
 51
21.733060714
  0
ARC
  8
0
  6
CONTINUOUS
 62
     3
 10
48.941709198
 20
36.48476663
 40
0.635546883
 50
338.266984244
 51
0.028972106
  0
ARC
  8
0
  6
CONTINUOUS
 62
     3
 10
48.95816901
 20
36.47770637
 40
0.617642932
 50
316.129264631
 51
338.309993812
  0
ARC
  8
0
  6
CONTINUOUS
 62
     3
 10
48.97614733
 20
36.460360253
 40
0.592660825
 50
293.333934384
 51
316.133646313
  0
ARC
  8
0
  6
CONTINUOUS
 62
     3
 10
48.9834506
 20
36.444537611
 40
0.575239706
 50
270.032908967
 51
293.290231586
  0
ARC
  8
0
  6
CONTINUOUS
 62
     3
 10
48.9841109
 20
36.444540041
 40
0.575242135
 50
246.709818354
 51
269.967140974
  0
ARC
  8
0
  6
CONTINUOUS
 62
     3
 10
48.99141367
 20
36.460360253
 40
0.592660825
 50
223.866353687
 51
246.666065616
  0
ARC
  8
0
  6
CONTINUOUS
 62
     3
 10
49.00939249
 20
36.477703819
 40
0.617641524
 50
201.689803459
 51
223.87053264
  0
ARC
  8
0
  6
CONTINUOUS
 62
     3
 10
49.025852302
 20
36.484769231
 40
0.635547382
 50
179.971262412
 51
201.733250274
  0
LINE
  8
0
  6
CONTINUOUS
 62
     3
 10
51.000333
 20
34.116667
 11
63.000333
 21
34.116667
  0
LINE
  8
0
  6
CONTINUOUS
 62
     3
 10
63.000333
 20
34.116667
 11
63.000333
 21
51.116667
  0
LINE
  8
0
  6
CONTINUOUS
 62
     3
 10
63.000333
 20
51.116667
 11
51.000333
 21
51.116667
  0
LINE
  8
0
  6
CONTINUOUS
 62
     3
 10
51.000333
 20
51.116667
 11
51.000333
 21
34.116667
  0
LINE
  8
0
  6
CONTINUOUS
 62
     3
 10
58.976417
 20
42.011404
 11
59.437955
 21
42.485088
  0
LINE
  8
0
  6
CONTINUOUS
 62
     3
 10
59.437955
 20
42.485088
 11
58.976417
 21
42.958772
  0
LINE
  8
0
  6
CONTINUOUS
 62
     3
 10
58.976417
 20
42.958772
 11
54.361032
 21
42.958772
  0
LINE
  8
0
  6
CONTINUOUS
 62
     3
 10
54.361032
 20
42.958772
 11
53.899494
 21
42.485088
  0
LINE
  8
0
  6
CONTINUOUS
 62
     3
 10
53.899494
 20
42.485088
 11
54.361032
 21
42.011404
  0
LINE
  8
0
  6
CONTINUOUS
 62
     3
 10
54.361032
 20
42.011404
 11
58.976417
 21
42.011404
  0
LINE
  8
0
  6
CONTINUOUS
 62
     3
 10
60.314879
 20
48.169298
 11
59.85334
 21
47.695614
  0
LINE
  8
0
  6
CONTINUOUS
 62
     3
 10
59.85334
 20
47.695614
 11
59.391802
 21
42.958772
  0
LINE
  8
0
  6
CONTINUOUS
 62
     3
 10
59.391802
 20
42.958772
 11
59.85334
 21
42.485088
  0
LINE
  8
0
  6
CONTINUOUS
 62
     3
 10
59.85334
 20
42.485088
 11
60.314879
 21
42.958772
  0
LINE
  8
0
  6
CONTINUOUS
 62
     3
 10
60.314879
 20
42.958772
 11
60.776417
 21
47.695614
  0
LINE
  8
0
  6
CONTINUOUS
 62
     3
 10
60.776417
 20
47.695614
 11
60.314879
 21
48.169298
  0
LINE
  8
0
  6
CONTINUOUS
 62
     3
 10
59.622571
 20
48.169298
 11
60.084109
 21
48.642982
  0
LINE
  8
0
  6
CONTINUOUS
 62
     3
 10
60.084109
 20
48.642982
 11
59.622571
 21
49.116667
  0
LINE
  8
0
  6
CONTINUOUS
 62
     3
 10
59.622571
 20
49.116667
 11
55.007186
 21
49.116667
  0
LINE
  8
0
  6
CONTINUOUS
 62
     3
 10
55.007186
 20
49.116667
 11
54.545648
 21
48.642982
  0
LINE
  8
0
  6
CONTINUOUS
 62
     3
 10
54.545648
 20
48.642982
 11
55.007186
 21
48.169298
  0
LINE
  8
0
  6
CONTINUOUS
 62
     3
 10
55.007186
 20
48.169298
 11
59.622571
 21
48.169298
  0
LINE
  8
0
  6
CONTINUOUS
 62
     3
 10
53.391802
 20
47.695614
 11
52.930263
 21
42.958772
  0
LINE
  8
0
  6
CONTINUOUS
 62
     3
 10
52.930263
 20
42.958772
 11
53.391802
 21
42.485088
  0
LINE
  8
0
  6
CONTINUOUS
 62
     3
 10
53.391802
 20
42.485088
 11
53.85334
 21
42.958772
  0
LINE
  8
0
  6
CONTINUOUS
 62
     3
 10
53.85334
 20
42.958772
 11
54.314879
 21
47.695614
  0
LINE
  8
0
  6
CONTINUOUS
 62
     3
 10
54.314879
 20
47.695614
 11
53.85334
 21
48.169298
  0
LINE
  8
0
  6
CONTINUOUS
 62
     3
 10
53.85334
 20
48.169298
 11
53.391802
 21
47.695614
  0
LINE
  8
0
  6
CONTINUOUS
 62
     3
 10
53.161032
 20
42.011404
 11
52.699494
 21
41.537719
  0
LINE
  8
0
  6
CONTINUOUS
 62
     3
 10
52.699494
 20
41.537719
 11
52.237955
 21
36.800877
  0
LINE
  8
0
  6
CONTINUOUS
 62
     3
 10
52.237955
 20
36.800877
 11
52.699494
 21
36.327193
  0
LINE
  8
0
  6
CONTINUOUS
 62
     3
 10
52.699494
 20
36.327193
 11
53.161032
 21
36.800877
  0
LINE
  8
0
  6
CONTINUOUS
 62
     3
 10
53.161032
 20
36.800877
 11
53.622571
 21
41.537719
  0
LINE
  8
0
  6
CONTINUOUS
 62
     3
 10
53.622571
 20
41.537719
 11
53.161032
 21
42.011404
  0
LINE
  8
0
  6
CONTINUOUS
 62
     3
 10
58.237955
 20
35.853509
 11
58.699494
 21
36.327193
  0
LINE
  8
0
  6
CONTINUOUS
 62
     3
 10
58.699494
 20
36.327193
 11
58.237955
 21
36.800877
  0
LINE
  8
0
  6
CONTINUOUS
 62
     3
 10
58.237955
 20
36.800877
 11
53.622571
 21
36.800877
  0
LINE
  8
0
  6
CONTINUOUS
 62
     3
 10
53.622571
 20
36.800877
 11
53.161032
 21
36.327193
  0
LINE
  8
0
  6
CONTINUOUS
 62
     3
 10
53.161032
 20
36.327193
 11
53.622571
 21
35.853509
  0
LINE
  8
0
  6
CONTINUOUS
 62
     3
 10
53.622571
 20
35.853509
 11
58.237955
 21
35.853509
  0
LINE
  8
0
  6
CONTINUOUS
 62
     3
 10
59.622571
 20
42.011404
 11
59.161032
 21
41.537719
  0
LINE
  8
0
  6
CONTINUOUS
 62
     3
 10
59.161032
 20
41.537719
 11
58.699494
 21
36.800877
  0
LINE
  8
0
  6
CONTINUOUS
 62
     3
 10
58.699494
 20
36.800877
 11
59.161032
 21
36.327193
  0
LINE
  8
0
  6
CONTINUOUS
 62
     3
 10
59.161032
 20
36.327193
 11
59.622571
 21
36.800877
  0
LINE
  8
0
  6
CONTINUOUS
 62
     3
 10
59.622571
 20
36.800877
 11
60.084109
 21
41.537719
  0
LINE
  8
0
  6
CONTINUOUS
 62
     3
 10
60.084109
 20
41.537719
 11
59.622571
 21
42.011404
  0
ARC
  8
0
  6
CONTINUOUS
 62
     3
 10
61.525849701
 20
36.485406269
 40
0.63554478
 50
158.266704767
 51
180.02869263
  0
ARC
  8
0
  6
CONTINUOUS
 62
     3
 10
61.509395041
 20
36.492471681
 40
0.61764371
 50
136.12959791
 51
158.310327092
  0
ARC
  8
0
  6
CONTINUOUS
 62
     3
 10
61.49141119
 20
36.509815247
 40
0.592659383
 50
113.333733406
 51
136.133445334
  0
ARC
  8
0
  6
CONTINUOUS
 62
     3
 10
61.4841109
 20
36.525634959
 40
0.575242135
 50
90.032859026
 51
113.290181646
  0
ARC
  8
0
  6
CONTINUOUS
 62
     3
 10
61.4834506
 20
36.525637389
 40
0.575239706
 50
66.709768414
 51
89.967091033
  0
ARC
  8
0
  6
CONTINUOUS
 62
     3
 10
61.47614981
 20
36.509815247
 40
0.592659383
 50
43.866554666
 51
66.666266594
  0
ARC
  8
0
  6
CONTINUOUS
 62
     3
 10
61.458166459
 20
36.49246913
 40
0.617645117
 50
21.689875637
 51
43.870604818
  0
ARC
  8
0
  6
CONTINUOUS
 62
     3
 10
61.441711799
 20
36.48540887
 40
0.635544282
 50
359.971072852
 51
21.733060714
  0
ARC
  8
0
  6
CONTINUOUS
 62
     3
 10
61.441709198
 20
36.48476663
 40
0.635546883
 50
338.266984244
 51
0.028972106
  0
ARC
  8
0
  6
CONTINUOUS
 62
     3
 10
61.45816901
 20
36.47770637
 40
0.617642932
 50
316.129264631
 51
338.309993812
  0
ARC
  8
0
  6
CONTINUOUS
 62
     3
 10
61.47614733
 20
36.460360253
 40
0.592660825
 50
293.333934384
 51
316.133646313
  0
ARC
  8
0
  6
CONTINUOUS
 62
     3
 10
61.4834506
 20
36.444537611
 40
0.575239706
 50
270.032908967
 51
293.290231586
  0
ARC
  8
0
  6
CONTINUOUS
 62
     3
 10
61.4841109
 20
36.444540041
 40
0.575242135
 50
246.709818354
 51
269.967140974
  0
ARC
  8
0
  6
CONTINUOUS
 62
     3
 10
61.49141367
 20
36.460360253
 40
0.592660825
 50
223.866353687
 51
246.666065616
  0
ARC
  8
0
  6
CONTINUOUS
 62
     3
 10
61.50939249
 20
36.477703819
 40
0.617641524
 50
201.689803459
 51
223.87053264
  0
ARC
  8
0
  6
CONTINUOUS
 62
     3
 10
61.525852302
 20
36.484769231
 40
0.635547382
 50
179.971262412
 51
201.733250274
  0
LINE
  8
0
  6
CONTINUOUS
 62
     3
 10
63.500333
 20
34.116667
 11
75.500333
 21
34.116667
  0
LINE
  8
0
  6
CONTINUOUS
 62
     3
 10
75.500333
 20
34.116667
 11
75.500333
 21
51.116667
  0
LINE
  8
0
  6
CONTINUOUS
 62
     3
 10
75.500333
 20
51.116667
 11
63.500333
 21
51.116667
  0
LINE
  8
0
  6
CONTINUOUS
 62
     3
 10
63.500333
 20
51.116667
 11
63.500333
 21
34.116667
  0
LINE
  8
0
  6
CONTINUOUS
 62
     3
 10
71.476417
 20
42.011404
 11
71.937955
 21
42.485088
  0
LINE
  8
0
  6
CONTINUOUS
 62
     3
 10
71.937955
 20
42.485088
 11
71.476417
 21
42.958772
  0
LINE
  8
0
  6
CONTINUOUS
 62
     3
 10
71.476417
 20
42.958772
 11
66.861032
 21
42.958772
  0
LINE
  8
0
  6
CONTINUOUS
 62
     3
 10
66.861032
 20
42.958772
 11
66.399494
 21
42.485088
  0
LINE
  8
0
  6
CONTINUOUS
 62
     3
 10
66.399494
 20
42.485088
 11
66.861032
 21
42.011404
  0
LINE
  8
0
  6
CONTINUOUS
 62
     3
 10
66.861032
 20
42.011404
 11
71.476417
 21
42.011404
  0
LINE
  8
0
  6
CONTINUOUS
 62
     3
 10
72.814879
 20
48.169298
 11
72.35334
 21
47.695614
  0
LINE
  8
0
  6
CONTINUOUS
 62
     3
 10
72.35334
 20
47.695614
 11
71.891802
 21
42.958772
  0
LINE
  8
0
  6
CONTINUOUS
 62
     3
 10
71.891802
 20
42.958772
 11
72.35334
 21
42.485088
  0
LINE
  8
0
  6
CONTINUOUS
 62
     3
 10
72.35334
 20
42.485088
 11
72.814879
 21
42.958772
  0
LINE
  8
0
  6
CONTINUOUS
 62
     3
 10
72.814879
 20
42.958772
 11
73.276417
 21
47.695614
  0
LINE
  8
0
  6
CONTINUOUS
 62
     3
 10
73.276417
 20
47.695614
 11
72.814879
 21
48.169298
  0
LINE
  8
0
  6
CONTINUOUS
 62
     3
 10
72.122571
 20
48.169298
 11
72.584109
 21
48.642982
  0
LINE
  8
0
  6
CONTINUOUS
 62
     3
 10
72.584109
 20
48.642982
 11
72.122571
 21
49.116667
  0
LINE
  8
0
  6
CONTINUOUS
 62
     3
 10
72.122571
 20
49.116667
 11
67.507186
 21
49.116667
  0
LINE
  8
0
  6
CONTINUOUS
 62
     3
 10
67.507186
 20
49.116667
 11
67.045648
 21
48.642982
  0
LINE
  8
0
  6
CONTINUOUS
 62
     3
 10
67.045648
 20
48.642982
 11
67.507186
 21
48.169298
  0
LINE
  8
0
  6
CONTINUOUS
 62
     3
 10
67.507186
 20
48.169298
 11
72.122571
 21
48.169298
  0
LINE
  8
0
  6
CONTINUOUS
 62
     3
 10
65.891802
 20
47.695614
 11
65.430263
 21
42.958772
  0
LINE
  8
0
  6
CONTINUOUS
 62
     3
 10
65.430263
 20
42.958772
 11
65.891802
 21
42.485088
  0
LINE
  8
0
  6
CONTINUOUS
 62
     3
 10
65.891802
 20
42.485088
 11
66.35334
 21
42.958772
  0
LINE
  8
0
  6
CONTINUOUS
 62
     3
 10
66.35334
 20
42.958772
 11
66.814879
 21
47.695614
  0
LINE
  8
0
  6
CONTINUOUS
 62
     3
 10
66.814879
 20
47.695614
 11
66.35334
 21
48.169298
  0
LINE
  8
0
  6
CONTINUOUS
 62
     3
 10
66.35334
 20
48.169298
 11
65.891802
 21
47.695614
  0
LINE
  8
0
  6
CONTINUOUS
 62
     3
 10
65.661032
 20
42.011404
 11
65.199494
 21
41.537719
  0
LINE
  8
0
  6
CONTINUOUS
 62
     3
 10
65.199494
 20
41.537719
 11
64.737955
 21
36.800877
  0
LINE
  8
0
  6
CONTINUOUS
 62
     3
 10
64.737955
 20
36.800877
 11
65.199494
 21
36.327193
  0
LINE
  8
0
  6
CONTINUOUS
 62
     3
 10
65.199494
 20
36.327193
 11
65.661032
 21
36.800877
  0
LINE
  8
0
  6
CONTINUOUS
 62
     3
 10
65.661032
 20
36.800877
 11
66.122571
 21
41.537719
  0
LINE
  8
0
  6
CONTINUOUS
 62
     3
 10
66.122571
 20
41.537719
 11
65.661032
 21
42.011404
  0
LINE
  8
0
  6
CONTINUOUS
 62
     3
 10
70.737955
 20
35.853509
 11
71.199494
 21
36.327193
  0
LINE
  8
0
  6
CONTINUOUS
 62
     3
 10
71.199494
 20
36.327193
 11
70.737955
 21
36.800877
  0
LINE
  8
0
  6
CONTINUOUS
 62
     3
 10
70.737955
 20
36.800877
 11
66.122571
 21
36.800877
  0
LINE
  8
0
  6
CONTINUOUS
 62
     3
 10
66.122571
 20
36.800877
 11
65.661032
 21
36.327193
  0
LINE
  8
0
  6
CONTINUOUS
 62
     3
 10
65.661032
 20
36.327193
 11
66.122571
 21
35.853509
  0
LINE
  8
0
  6
CONTINUOUS
 62
     3
 10
66.122571
 20
35.853509
 11
70.737955
 21
35.853509
  0
LINE
  8
0
  6
CONTINUOUS
 62
     3
 10
72.122571
 20
42.011404
 11
71.661032
 21
41.537719
  0
LINE
  8
0
  6
CONTINUOUS
 62
     3
 10
71.661032
 20
41.537719
 11
71.199494
 21
36.800877
  0
LINE
  8
0
  6
CONTINUOUS
 62
     3
 10
71.199494
 20
36.800877
 11
71.661032
 21
36.327193
  0
LINE
  8
0
  6
CONTINUOUS
 62
     3
 10
71.661032
 20
36.327193
 11
72.122571
 21
36.800877
  0
LINE
  8
0
  6
CONTINUOUS
 62
     3
 10
72.122571
 20
36.800877
 11
72.584109
 21
41.537719
  0
LINE
  8
0
  6
CONTINUOUS
 62
     3
 10
72.584109
 20
41.537719
 11
72.122571
 21
42.011404
  0
ARC
  8
0
  6
CONTINUOUS
 62
     3
 10
74.025849701
 20
36.485406269
 40
0.63554478
 50
158.266704767
 51
180.02869263
  0
ARC
  8
0
  6
CONTINUOUS
 62
     3
 10
74.009395041
 20
36.492471681
 40
0.61764371
 50
136.12959791
 51
158.310327092
  0
ARC
  8
0
  6
CONTINUOUS
 62
     3
 10
73.99141119
 20
36.509815247
 40
0.592659383
 50
113.333733406
 51
136.133445334
  0
ARC
  8
0
  6
CONTINUOUS
 62
     3
 10
73.9841109
 20
36.525634959
 40
0.575242135
 50
90.032859026
 51
113.290181646
  0
ARC
  8
0
  6
CONTINUOUS
 62
     3
 10
73.9834506
 20
36.525637389
 40
0.575239706
 50
66.709768414
 51
89.967091033
  0
ARC
  8
0
  6
CONTINUOUS
 62
     3
 10
73.97614981
 20
36.509815247
 40
0.592659383
 50
43.866554666
 51
66.666266594
  0
ARC
  8
0
  6
CONTINUOUS
 62
     3
 10
73.958166459
 20
36.49246913
 40
0.617645117
 50
21.689875637
 51
43.870604818
  0
ARC
  8
0
  6
CONTINUOUS
 62
     3
 10
73.941711799
 20
36.48540887
 40
0.635544282
 50
359.971072852
 51
21.733060714
  0
ARC
  8
0
  6
CONTINUOUS
 62
     3
 10
73.941709198
 20
36.48476663
 40
0.635546883
 50
338.266984244
 51
0.028972106
  0
ARC
  8
0
  6
CONTINUOUS
 62
     3
 10
73.95816901
 20
36.47770637
 40
0.617642932
 50
316.129264631
 51
338.309993812
  0
ARC
  8
0
  6
CONTINUOUS
 62
     3
 10
73.97614733
 20
36.460360253
 40
0.592660825
 50
293.333934384
 51
316.133646313
  0
ARC
  8
0
  6
CONTINUOUS
 62
     3
 10
73.9834506
 20
36.444537611
 40
0.575239706
 50
270.032908967
 51
293.290231586
  0
ARC
  8
0
  6
CONTINUOUS
 62
     3
 10
73.9841109
 20
36.444540041
 40
0.575242135
 50
246.709818354
 51
269.967140974
  0
ARC
  8
0
  6
CONTINUOUS
 62
     3
 10
73.99141367
 20
36.460360253
 40
0.592660825
 50
223.866353687
 51
246.666065616
  0
ARC
  8
0
  6
CONTINUOUS
 62
     3
 10
74.00939249
 20
36.477703819
 40
0.617641524
 50
201.689803459
 51
223.87053264
  0
ARC
  8
0
  6
CONTINUOUS
 62
     3
 10
74.025852302
 20
36.484769231
 40
0.635547382
 50
179.971262412
 51
201.733250274
  0
LINE
  8
0
  6
CONTINUOUS
 62
     3
 10
132.800333
 20
61.416667
 11
132.300333
 21
61.416667
  0
LINE
  8
0
  6
CONTINUOUS
 62
     3
 10
132.300333
 20
61.416667
 11
132.300333
 21
18.416667
  0
LINE
  8
0
  6
CONTINUOUS
 62
     3
 10
132.300333
 20
18.416667
 11
132.800333
 21
18.416667
  0
LINE
  8
0
  6
CONTINUOUS
 62
     3
 10
132.800333
 20
15.916667
 11
133.800333
 21
15.916667
  0
LINE
  8
0
  6
CONTINUOUS
 62
     3
 10
133.800333
 20
15.916667
 11
133.800333
 21
63.916667
  0
LINE
  8
0
  6
CONTINUOUS
 62
     3
 10
133.800333
 20
63.916667
 11
132.800333
 21
63.916667
  0
LINE
  8
0
  6
CONTINUOUS
 62
     3
 10
132.800333
 20
63.916667
 11
132.800333
 21
15.916667
  0
LINE
  8
0
  6
CONTINUOUS
 62
     3
 10
127.600333
 20
15.916667
 11
132.800333
 21
15.916667
  0
LINE
  8
0
  6
CONTINUOUS
 62
     3
 10
132.800333
 20
15.916667
 11
127.600333
 21
15.916667
  0
LINE
  8
0
  6
CONTINUOUS
 62
     3
 10
127.600333
 20
15.916667
 11
127.600333
 21
17.416667
  0
LINE
  8
0
  6
CONTINUOUS
 62
     3
 10
127.600333
 20
17.416667
 11
127.600333
 21
15.916667
  0
LINE
  8
0
  6
CONTINUOUS
 62
     3
 10
127.600333
 20
17.416667
 11
127.800333
 21
17.416667
  0
LINE
  8
0
  6
CONTINUOUS
 62
     3
 10
127.800333
 20
17.416667
 11
127.600333
 21
17.416667
  0
LINE
  8
0
  6
CONTINUOUS
 62
     3
 10
127.800333
 20
17.416667
 11
127.800333
 21
62.416667
  0
LINE
  8
0
  6
CONTINUOUS
 62
     3
 10
127.800333
 20
62.416667
 11
127.500333
 21
62.416667
  0
LINE
  8
0
  6
CONTINUOUS
 62
     3
 10
127.500333
 20
62.416667
 11
127.500333
 21
63.916667
  0
LINE
  8
0
  6
CONTINUOUS
 62
     3
 10
127.500333
 20
63.916667
 11
132.800333
 21
63.916667
  0
LINE
  8
0
  6
CONTINUOUS
 62
     3
 10
133.800333
 20
62.616667
 11
146.000333
 21
62.416667
  0
LINE
  8
0
  6
CONTINUOUS
 62
     3
 10
133.800333
 20
17.216667
 11
146.000333
 21
17.416667
  0
LINE
  8
0
  6
CONTINUOUS
 62
     3
 10
146.000333
 20
17.416667
 11
146.000333
 21
62.416667
  0
LINE
  8
0
  6
CONTINUOUS
 62
     3
 10
146.000333
 20
46.916667
 11
133.800333
 21
46.916667
  0
LINE
  8
0
  6
CONTINUOUS
 62
     3
 10
146.000333
 20
33.916667
 11
133.800333
 21
33.916667
  0
LINE
  8
0
  6
CONTINUOUS
 62
     3
 10
139.300333
 20
34.916667
 11
146.000333
 21
34.916667
  0
LINE
  8
0
  6
CONTINUOUS
 62
     3
 10
146.000333
 20
34.916667
 11
146.000333
 21
45.916667
  0
LINE
  8
0
  6
CONTINUOUS
 62
     3
 10
146.000333
 20
45.916667
 11
139.300333
 21
45.916667
  0
LINE
  8
0
  6
CONTINUOUS
 62
     3
 10
139.300333
 20
45.916667
 11
139.300333
 21
34.916667
  0
LINE
  8
0
  6
CONTINUOUS
 62
     3
 10
134.300333
 20
34.916667
 11
139.300333
 21
34.916667
  0
LINE
  8
0
  6
CONTINUOUS
 62
     3
 10
139.300333
 20
34.916667
 11
139.300333
 21
45.916667
  0
LINE
  8
0
  6
CONTINUOUS
 62
     3
 10
139.300333
 20
45.916667
 11
134.300333
 21
45.916667
  0
LINE
  8
0
  6
CONTINUOUS
 62
     3
 10
134.300333
 20
45.916667
 11
134.300333
 21
34.916667
  0
LINE
  8
0
  6
CONTINUOUS
 62
     3
 10
134.800333
 20
45.916667
 11
134.800333
 21
34.916667
  0
LINE
  8
0
  6
CONTINUOUS
 62
     3
 10
135.300333
 20
45.916667
 11
135.300333
 21
34.916667
  0
LINE
  8
0
  6
CONTINUOUS
 62
     3
 10
135.800333
 20
45.916667
 11
135.800333
 21
34.916667
  0
LINE
  8
0
  6
CONTINUOUS
 62
     3
 10
136.300333
 20
45.916667
 11
136.300333
 21
34.916667
  0
LINE
  8
0
  6
CONTINUOUS
 62
     3
 10
136.800333
 20
45.916667
 11
136.800333
 21
34.916667
  0
LINE
  8
0
  6
CONTINUOUS
 62
     3
 10
137.300333
 20
45.916667
 11
137.300333
 21
34.916667
  0
LINE
  8
0
  6
CONTINUOUS
 62
     3
 10
137.800333
 20
45.916667
 11
137.800333
 21
34.916667
  0
LINE
  8
0
  6
CONTINUOUS
 62
     3
 10
138.300333
 20
45.916667
 11
138.300333
 21
34.916667
  0
LINE
  8
0
  6
CONTINUOUS
 62
     3
 10
138.800333
 20
45.916667
 11
138.800333
 21
34.916667
  0
LINE
  8
0
  6
CONTINUOUS
 62
     3
 10
146.000333
 20
22.916667
 11
146.800333
 21
22.916667
  0
LINE
  8
0
  6
CONTINUOUS
 62
     3
 10
146.800333
 20
22.916667
 11
146.800333
 21
28.916667
  0
LINE
  8
0
  6
CONTINUOUS
 62
     3
 10
146.800333
 20
28.916667
 11
146.000333
 21
28.916667
  0
LINE
  8
0
  6
CONTINUOUS
 62
     3
 10
146.000333
 20
28.916667
 11
146.000333
 21
22.916667
  0
LINE
  8
0
  6
CONTINUOUS
 62
     3
 10
148.100333
 20
23.916667
 11
148.100333
 21
27.916667
  0
ARC
  8
0
  6
CONTINUOUS
 62
     3
 10
147.600333374
 20
27.916667374
 40
0.499999626
 50
359.9999572
 51
90.000042805
  0
LINE
  8
0
  6
CONTINUOUS
 62
     3
 10
147.600333
 20
28.416667
 11
147.300333
 21
28.416667
  0
ARC
  8
0
  6
CONTINUOUS
 62
     3
 10
147.300332626
 20
27.916667374
 40
0.499999626
 50
89.999957196
 51
180.0000428
  0
LINE
  8
0
  6
CONTINUOUS
 62
     3
 10
146.800333
 20
27.916667
 11
146.800333
 21
23.916667
  0
ARC
  8
0
  6
CONTINUOUS
 62
     3
 10
147.300332626
 20
23.916666626
 40
0.499999626
 50
179.9999572
 51
270.000042805
  0
LINE
  8
0
  6
CONTINUOUS
 62
     3
 10
147.300333
 20
23.416667
 11
147.600333
 21
23.416667
  0
ARC
  8
0
  6
CONTINUOUS
 62
     3
 10
147.600333374
 20
23.916666626
 40
0.499999626
 50
269.999957196
 51
0.000042808
  0
LINE
  8
0
  6
CONTINUOUS
 62
     1
 10
133.800333
 20
62.516667
 11
162.800333
 21
73.916667
  0
LINE
  8
0
  6
CONTINUOUS
 62
     3
 10
133.800333
 20
17.216667
 11
162.800333
 21
28.616667
  0
LINE
  8
0
  6
CONTINUOUS
 62
     1
 10
127.617
 20
14.9
 11
127.617
 21
5.15
  0
LINE
  8
0
  6
CONTINUOUS
 62
     1
 10
127.617
 20
6.15
 11
125.685148347
 21
6.66763809
  0
LINE
  8
0
  6
CONTINUOUS
 62
     1
 10
127.617
 20
6.15
 11
125.685148347
 21
5.63236191
  0
LINE
  8
0
  6
CONTINUOUS
 62
     1
 10
119.817
 20
6.15
 11
127.617
 21
6.15
  0
LINE
  8
0
  6
CONTINUOUS
 62
     1
 10
127.617
 20
6.15
 11
133.817
 21
6.15
  0
LINE
  8
0
  6
CONTINUOUS
 62
     1
 10
133.817
 20
6.15
 11
136.817
 21
6.15
  0
LINE
  8
0
  6
CONTINUOUS
 62
     1
 10
133.817
 20
6.15
 11
135.748851653
 21
5.63236191
  0
LINE
  8
0
  6
CONTINUOUS
 62
     1
 10
133.817
 20
6.15
 11
135.748851653
 21
6.66763809
  0
LINE
  8
0
  6
CONTINUOUS
 62
     1
 10
133.817
 20
14.9
 11
133.817
 21
5.15
  0
TEXT
  8
0
  6
CONTINUOUS
 62
     1
 10
119.817
 20
7.15
 30
0.0
 40
2.0
  1
６．３
 50
0.0
 41
0.8
 51
0.0
  7
KANJI0
  0
LINE
  8
0
  6
CONTINUOUS
 62
     1
 10
133.817
 20
6.15
 11
135.748851653
 21
5.63236191
  0
LINE
  8
0
  6
CONTINUOUS
 62
     1
 10
133.817
 20
6.15
 11
135.748851653
 21
6.66763809
  0
LINE
  8
0
  6
CONTINUOUS
 62
     1
 10
133.817
 20
6.15
 11
145.967
 21
6.15
  0
LINE
  8
0
  6
CONTINUOUS
 62
     1
 10
145.967
 20
6.15
 11
144.035148347
 21
6.66763809
  0
LINE
  8
0
  6
CONTINUOUS
 62
     1
 10
145.967
 20
6.15
 11
144.035148347
 21
5.63236191
  0
LINE
  8
0
  6
CONTINUOUS
 62
     1
 10
145.967
 20
16.4
 11
145.967
 21
5.15
  0
TEXT
  8
0
  6
CONTINUOUS
 62
     1
 10
136.692
 20
7.15
 30
0.0
 40
2.0
  1
１２．２
 50
0.0
 41
0.8
 51
0.0
  7
KANJI0
  0
LINE
  8
0
  6
CONTINUOUS
 62
     1
 10
160.067
 20
72.85
 11
159.54936191
 21
70.918148347
  0
LINE
  8
0
  6
CONTINUOUS
 62
     1
 10
160.067
 20
72.85
 11
160.58463809
 21
70.918148347
  0
LINE
  8
0
  6
CONTINUOUS
 62
     1
 10
160.067
 20
72.85
 11
160.067
 21
27.55
  0
LINE
  8
0
  6
CONTINUOUS
 62
     1
 10
160.067
 20
27.55
 11
160.58463809
 21
29.481851653
  0
LINE
  8
0
  6
CONTINUOUS
 62
     1
 10
160.067
 20
27.55
 11
159.54936191
 21
29.481851653
  0
TEXT
  8
0
  6
CONTINUOUS
 62
     1
 10
159.067
 20
47.0
 30
0.0
 40
2.0
  1
４４．９
 50
90.0
 41
0.8
 51
0.0
  7
KANJI0
  0
LINE
  8
0
  6
CONTINUOUS
 62
     1
 10
147.017
 20
17.4
 11
155.817
 21
17.4
  0
LINE
  8
0
  6
CONTINUOUS
 62
     1
 10
154.817
 20
17.4
 11
155.33463809
 21
19.331851653
  0
LINE
  8
0
  6
CONTINUOUS
 62
     1
 10
154.817
 20
17.4
 11
154.29936191
 21
19.331851653
  0
LINE
  8
0
  6
CONTINUOUS
 62
     1
 10
154.817
 20
17.4
 11
154.817
 21
62.4
  0
LINE
  8
0
  6
CONTINUOUS
 62
     1
 10
154.817
 20
62.4
 11
154.29936191
 21
60.468148347
  0
LINE
  8
0
  6
CONTINUOUS
 62
     1
 10
154.817
 20
62.4
 11
155.33463809
 21
60.468148347
  0
LINE
  8
0
  6
CONTINUOUS
 62
     1
 10
147.017
 20
62.4
 11
155.817
 21
62.4
  0
TEXT
  8
0
  6
CONTINUOUS
 62
     1
 10
153.817
 20
36.7
 30
0.0
 40
2.0
  1
４４．８
 50
90.0
 41
0.8
 51
0.0
  7
KANJI0
  0
LINE
  8
0
  6
CONTINUOUS
 62
     3
 10
4.000333
 20
122.616667
 11
100.000333
 21
122.616667
  0
LINE
  8
0
  6
CONTINUOUS
 62
     3
 10
100.000333
 20
122.616667
 11
100.000333
 21
170.616667
  0
LINE
  8
0
  6
CONTINUOUS
 62
     3
 10
4.000333
 20
170.616667
 11
4.000333
 21
122.616667
  0
LINE
  8
0
  6
CONTINUOUS
 62
     3
 10
6.500333
 20
124.616667
 11
97.500333
 21
124.616667
  0
LINE
  8
0
  6
CONTINUOUS
 62
     3
 10
97.500333
 20
124.616667
 11
97.500333
 21
168.616667
  0
LINE
  8
0
  6
CONTINUOUS
 62
     3
 10
97.500333
 20
168.616667
 11
6.500333
 21
168.616667
  0
LINE
  8
0
  6
CONTINUOUS
 62
     3
 10
6.500333
 20
168.616667
 11
6.500333
 21
124.616667
  0
LINE
  8
0
  6
CONTINUOUS
 62
     3
 10
16.500333
 20
166.116667
 11
23.500333
 21
166.116667
  0
LINE
  8
0
  6
CONTINUOUS
 62
     3
 10
23.500333
 20
166.116667
 11
23.500333
 21
168.616667
  0
LINE
  8
0
  6
CONTINUOUS
 62
     3
 10
23.500333
 20
168.616667
 11
16.500333
 21
168.616667
  0
LINE
  8
0
  6
CONTINUOUS
 62
     3
 10
16.500333
 20
168.616667
 11
16.500333
 21
166.116667
  0
LINE
  8
0
  6
CONTINUOUS
 62
     3
 10
80.500333
 20
166.116667
 11
87.500333
 21
166.116667
  0
LINE
  8
0
  6
CONTINUOUS
 62
     3
 10
87.500333
 20
166.116667
 11
87.500333
 21
168.616667
  0
LINE
  8
0
  6
CONTINUOUS
 62
     3
 10
87.500333
 20
168.616667
 11
80.500333
 21
168.616667
  0
LINE
  8
0
  6
CONTINUOUS
 62
     3
 10
80.500333
 20
168.616667
 11
80.500333
 21
166.116667
  0
LINE
  8
0
  6
CONTINUOUS
 62
     3
 10
71.000333
 20
125.616667
 11
77.000333
 21
125.616667
  0
LINE
  8
0
  6
CONTINUOUS
 62
     3
 10
77.000333
 20
125.616667
 11
77.000333
 21
127.616667
  0
LINE
  8
0
  6
CONTINUOUS
 62
     3
 10
77.000333
 20
127.616667
 11
71.000333
 21
127.616667
  0
LINE
  8
0
  6
CONTINUOUS
 62
     3
 10
71.000333
 20
127.616667
 11
71.000333
 21
125.616667
  0
LINE
  8
0
  6
CONTINUOUS
 62
     3
 10
27.000333
 20
125.616667
 11
33.000333
 21
125.616667
  0
LINE
  8
0
  6
CONTINUOUS
 62
     3
 10
33.000333
 20
125.616667
 11
33.000333
 21
127.616667
  0
LINE
  8
0
  6
CONTINUOUS
 62
     3
 10
33.000333
 20
127.616667
 11
27.000333
 21
127.616667
  0
LINE
  8
0
  6
CONTINUOUS
 62
     3
 10
27.000333
 20
127.616667
 11
27.000333
 21
125.616667
  0
LINE
  8
0
  6
CONTINUOUS
 62
     3
 10
14.500333
 20
132.116667
 11
89.500333
 21
132.116667
  0
LINE
  8
0
  6
CONTINUOUS
 62
     3
 10
89.500333
 20
132.116667
 11
89.500333
 21
150.116667
  0
LINE
  8
0
  6
CONTINUOUS
 62
     3
 10
89.500333
 20
150.116667
 11
14.500333
 21
150.116667
  0
LINE
  8
0
  6
CONTINUOUS
 62
     3
 10
14.500333
 20
150.116667
 11
14.500333
 21
132.116667
  0
LINE
  8
0
  6
CONTINUOUS
 62
     3
 10
27.500333
 20
154.616667
 11
76.500333
 21
154.616667
  0
LINE
  8
0
  6
CONTINUOUS
 62
     3
 10
76.500333
 20
154.616667
 11
76.500333
 21
163.616667
  0
LINE
  8
0
  6
CONTINUOUS
 62
     3
 10
76.500333
 20
163.616667
 11
27.500333
 21
163.616667
  0
LINE
  8
0
  6
CONTINUOUS
 62
     3
 10
27.500333
 20
163.616667
 11
27.500333
 21
154.616667
  0
LINE
  8
0
  6
CONTINUOUS
 62
     3
 10
6.500333
 20
140.116667
 11
8.500333
 21
140.116667
  0
LINE
  8
0
  6
CONTINUOUS
 62
     3
 10
8.500333
 20
140.116667
 11
8.500333
 21
153.116667
  0
LINE
  8
0
  6
CONTINUOUS
 62
     3
 10
8.500333
 20
153.116667
 11
6.500333
 21
153.116667
  0
LINE
  8
0
  6
CONTINUOUS
 62
     3
 10
6.500333
 20
153.116667
 11
6.500333
 21
140.116667
  0
LINE
  8
0
  6
CONTINUOUS
 62
     3
 10
95.500333
 20
140.116667
 11
97.500333
 21
140.116667
  0
LINE
  8
0
  6
CONTINUOUS
 62
     3
 10
97.500333
 20
140.116667
 11
97.500333
 21
153.116667
  0
LINE
  8
0
  6
CONTINUOUS
 62
     3
 10
97.500333
 20
153.116667
 11
95.500333
 21
153.116667
  0
LINE
  8
0
  6
CONTINUOUS
 62
     3
 10
95.500333
 20
153.116667
 11
95.500333
 21
140.116667
  0
LINE
  8
0
  6
CONTINUOUS
 62
     3
 10
95.500333
 20
141.116667
 11
97.500333
 21
141.116667
  0
LINE
  8
0
  6
CONTINUOUS
 62
     3
 10
97.500333
 20
141.116667
 11
97.500333
 21
152.116667
  0
LINE
  8
0
  6
CONTINUOUS
 62
     3
 10
97.500333
 20
152.116667
 11
95.500333
 21
152.116667
  0
LINE
  8
0
  6
CONTINUOUS
 62
     3
 10
95.500333
 20
152.116667
 11
95.500333
 21
141.116667
  0
LINE
  8
0
  6
CONTINUOUS
 62
     3
 10
97.500333
 20
141.116667
 11
101.000333
 21
141.116667
  0
LINE
  8
0
  6
CONTINUOUS
 62
     3
 10
101.000333
 20
141.116667
 11
101.000333
 21
152.116667
  0
LINE
  8
0
  6
CONTINUOUS
 62
     3
 10
101.000333
 20
152.116667
 11
97.500333
 21
152.116667
  0
LINE
  8
0
  6
CONTINUOUS
 62
     3
 10
97.500333
 20
152.116667
 11
97.500333
 21
141.116667
  0
LINE
  8
0
  6
CONTINUOUS
 62
     3
 10
6.500333
 20
141.116667
 11
8.500333
 21
141.116667
  0
LINE
  8
0
  6
CONTINUOUS
 62
     3
 10
8.500333
 20
141.116667
 11
8.500333
 21
152.116667
  0
LINE
  8
0
  6
CONTINUOUS
 62
     3
 10
8.500333
 20
152.116667
 11
6.500333
 21
152.116667
  0
LINE
  8
0
  6
CONTINUOUS
 62
     3
 10
6.500333
 20
152.116667
 11
6.500333
 21
141.116667
  0
LINE
  8
0
  6
CONTINUOUS
 62
     3
 10
3.000333
 20
141.116667
 11
6.500333
 21
141.116667
  0
LINE
  8
0
  6
CONTINUOUS
 62
     3
 10
6.500333
 20
141.116667
 11
6.500333
 21
152.116667
  0
LINE
  8
0
  6
CONTINUOUS
 62
     3
 10
6.500333
 20
152.116667
 11
3.000333
 21
152.116667
  0
LINE
  8
0
  6
CONTINUOUS
 62
     3
 10
3.000333
 20
152.116667
 11
3.000333
 21
141.116667
  0
LINE
  8
0
  6
CONTINUOUS
 62
     3
 10
55.000333
 20
156.616667
 11
62.000333
 21
156.616667
  0
LINE
  8
0
  6
CONTINUOUS
 62
     3
 10
62.000333
 20
156.616667
 11
62.000333
 21
162.616667
  0
LINE
  8
0
  6
CONTINUOUS
 62
     3
 10
62.000333
 20
162.616667
 11
55.000333
 21
162.616667
  0
LINE
  8
0
  6
CONTINUOUS
 62
     3
 10
55.000333
 20
162.616667
 11
55.000333
 21
156.616667
  0
ARC
  8
0
  6
CONTINUOUS
 62
     3
 10
58.500333
 20
159.616667
 40
3.0
 50
0.0
 51
180.0
  0
ARC
  8
0
  6
CONTINUOUS
 62
     3
 10
58.500333
 20
159.616667
 40
3.0
 50
180.0
 51
0.0
  0
LINE
  8
0
  6
CONTINUOUS
 62
     3
 10
57.000333
 20
159.616667
 11
60.000333
 21
159.616667
  0
LINE
  8
0
  6
CONTINUOUS
 62
     3
 10
58.500333
 20
161.116667
 11
58.500333
 21
158.116667
  0
LINE
  8
0
  6
CONTINUOUS
 62
     3
 10
39.000333
 20
156.616667
 11
46.000333
 21
156.616667
  0
LINE
  8
0
  6
CONTINUOUS
 62
     3
 10
46.000333
 20
156.616667
 11
46.000333
 21
162.616667
  0
LINE
  8
0
  6
CONTINUOUS
 62
     3
 10
46.000333
 20
162.616667
 11
39.000333
 21
162.616667
  0
LINE
  8
0
  6
CONTINUOUS
 62
     3
 10
39.000333
 20
162.616667
 11
39.000333
 21
156.616667
  0
ARC
  8
0
  6
CONTINUOUS
 62
     3
 10
42.500333
 20
159.616667
 40
3.0
 50
0.0
 51
180.0
  0
ARC
  8
0
  6
CONTINUOUS
 62
     3
 10
42.500333
 20
159.616667
 40
3.0
 50
180.0
 51
0.0
  0
LINE
  8
0
  6
CONTINUOUS
 62
     3
 10
41.000333
 20
159.616667
 11
44.000333
 21
159.616667
  0
LINE
  8
0
  6
CONTINUOUS
 62
     3
 10
42.500333
 20
161.116667
 11
42.500333
 21
158.116667
  0
LINE
  8
0
  6
CONTINUOUS
 62
     3
 10
4.000333
 20
170.616667
 11
100.000333
 21
170.616667
  0
ENDSEC
  0
EOF
