  0
SECTION
  2
HEADER
  9
$ACADVER
  1
AC1009
  9
$INSBASE
 10
0.0
 20
0.0
 30
0.0
  9
$EXTMIN
 10
-5.9416163741459845E+073
 20
-1.2692639056332951E+099
 30
0.0
  9
$EXTMAX
 10
1.2692639056332951E+099
 20
5.9416163741459845E+073
 30
0.3
  9
$LIMMIN
 10
0.0
 20
0.0
  9
$LIMMAX
 10
12.0
 20
9.0
  9
$ORTHOMODE
 70
     0
  9
$REGENMODE
 70
     1
  9
$FILLMODE
 70
     1
  9
$QTEXTMODE
 70
     0
  9
$MIRRTEXT
 70
     1
  9
$DRAGMODE
 70
     2
  9
$LTSCALE
 40
1.0
  9
$OSMODE
 70
    37
  9
$ATTMODE
 70
     1
  9
$TEXTSIZE
 40
0.2
  9
$TRACEWID
 40
0.05
  9
$TEXTSTYLE
  7
STANDARD
  9
$CLAYER
  8
0
  9
$CELTYPE
  6
CONTINUOUS
  9
$CECOLOR
 62
   256
  9
$DIMSCALE
 40
1.0
  9
$DIMASZ
 40
0.18
  9
$DIMEXO
 40
0.0625
  9
$DIMDLI
 40
0.38
  9
$DIMRND
 40
0.0
  9
$DIMDLE
 40
0.0
  9
$DIMEXE
 40
0.18
  9
$DIMTP
 40
0.0
  9
$DIMTM
 40
0.0
  9
$DIMTXT
 40
0.18
  9
$DIMCEN
 40
0.09
  9
$DIMTSZ
 40
0.0
  9
$DIMTOL
 70
     0
  9
$DIMLIM
 70
     0
  9
$DIMTIH
 70
     1
  9
$DIMTOH
 70
     1
  9
$DIMSE1
 70
     0
  9
$DIMSE2
 70
     0
  9
$DIMTAD
 70
     0
  9
$DIMZIN
 70
     0
  9
$DIMBLK
  1

  9
$DIMASO
 70
     1
  9
$DIMSHO
 70
     1
  9
$DIMPOST
  1

  9
$DIMAPOST
  1

  9
$DIMALT
 70
     0
  9
$DIMALTD
 70
     2
  9
$DIMALTF
 40
25.399999999999999
  9
$DIMLFAC
 40
1.0
  9
$DIMTOFL
 70
     0
  9
$DIMTVP
 40
0.0
  9
$DIMTIX
 70
     0
  9
$DIMSOXD
 70
     0
  9
$DIMSAH
 70
     0
  9
$DIMBLK1
  1

  9
$DIMBLK2
  1

  9
$DIMSTYLE
  2
STANDARD
  9
$DIMCLRD
 70
     0
  9
$DIMCLRE
 70
     0
  9
$DIMCLRT
 70
     0
  9
$DIMTFAC
 40
1.0
  9
$DIMGAP
 40
0.09
  9
$LUNITS
 70
     2
  9
$LUPREC
 70
     4
  9
$SKETCHINC
 40
0.1
  9
$FILLETRAD
 40
0.0
  9
$AUNITS
 70
     0
  9
$AUPREC
 70
     0
  9
$MENU
  1
.
  9
$ELEVATION
 40
0.0
  9
$PELEVATION
 40
0.0
  9
$THICKNESS
 40
0.0
  9
$LIMCHECK
 70
     0
  9
$BLIPMODE
 70
     0
  9
$CHAMFERA
 40
0.0
  9
$CHAMFERB
 40
0.0
  9
$SKPOLY
 70
     0
  9
$TDCREATE
 40
2451950.4688805551
  9
$TDUPDATE
 40
2452153.7162752771
  9
$TDINDWG
 40
0.0310824537
  9
$TDUSRTIMER
 40
0.0310824537
  9
$USRTIMER
 70
     1
  9
$ANGBASE
 50
0.0
  9
$ANGDIR
 70
     0
  9
$PDMODE
 70
     0
  9
$PDSIZE
 40
0.0
  9
$PLINEWID
 40
0.0
  9
$COORDS
 70
     1
  9
$SPLFRAME
 70
     0
  9
$SPLINETYPE
 70
     6
  9
$SPLINESEGS
 70
     8
  9
$ATTDIA
 70
     0
  9
$ATTREQ
 70
     1
  9
$HANDLING
 70
 10241
  9
$HANDSEED
  5
B90
  9
$SURFTAB1
 70
     6
  9
$SURFTAB2
 70
     6
  9
$SURFTYPE
 70
     6
  9
$SURFU
 70
     6
  9
$SURFV
 70
     6
  9
$UCSNAME
  2

  9
$UCSORG
 10
0.0
 20
0.0
 30
0.0
  9
$UCSXDIR
 10
1.0
 20
0.0
 30
0.0
  9
$UCSYDIR
 10
0.0
 20
1.0
 30
0.0
  9
$PUCSNAME
  2

  9
$PUCSORG
 10
0.0
 20
0.0
 30
0.0
  9
$PUCSXDIR
 10
1.0
 20
0.0
 30
0.0
  9
$PUCSYDIR
 10
0.0
 20
1.0
 30
0.0
  9
$USERI1
 70
     0
  9
$USERI2
 70
     0
  9
$USERI3
 70
     0
  9
$USERI4
 70
     0
  9
$USERI5
 70
     0
  9
$USERR1
 40
0.0
  9
$USERR2
 40
0.0
  9
$USERR3
 40
0.0
  9
$USERR4
 40
0.0
  9
$USERR5
 40
0.0
  9
$WORLDVIEW
 70
     1
  9
$SHADEDGE
 70
     3
  9
$SHADEDIF
 70
    70
  9
$TILEMODE
 70
     1
  9
$MAXACTVP
 70
    64
  9
$PLIMCHECK
 70
     0
  9
$PEXTMIN
 10
1.0000000000000000E+020
 20
1.0000000000000000E+020
 30
1.0000000000000000E+020
  9
$PEXTMAX
 10
-1.0000000000000000E+020
 20
-1.0000000000000000E+020
 30
-1.0000000000000000E+020
  9
$PLIMMIN
 10
0.0
 20
0.0
  9
$PLIMMAX
 10
12.0
 20
9.0
  9
$UNITMODE
 70
     0
  9
$VISRETAIN
 70
     1
  9
$PLINEGEN
 70
     0
  9
$PSLTSCALE
 70
     1
  0
ENDSEC
  0
SECTION
  2
TABLES
  0
TABLE
  2
VPORT
 70
     2
  0
VPORT
  2
*ACTIVE
 70
     0
 10
0.0
 20
0.0
 11
1.0
 21
1.0
 12
135.04890060459721
 22
125.4132710225618
 13
0.0
 23
0.0
 14
1.0
 24
1.0
 15
0.0
 25
0.0
 16
0.0
 26
0.0
 36
1.0
 17
0.0
 27
0.0
 37
0.0
 40
187.2882259611971
 41
1.6666666666666661
 42
50.0
 43
0.0
 44
0.0
 50
0.0
 51
0.0
 71
     0
 72
   100
 73
     1
 74
     1
 75
     0
 76
     0
 77
     0
 78
     0
  0
ENDTAB
  0
TABLE
  2
LTYPE
 70
     4
  0
LTYPE
  2
CONTINUOUS
 70
     0
  3
Solid line
 72
    65
 73
     0
 40
0.0
  0
LTYPE
  2
LTYPE1
 70
     0
  3
HIDDEN
 72
    65
 73
     2
 40
3.0
 49
1.8
 49
-1.1999999999999991
  0
LTYPE
  2
LTYPE2
 70
     0
  3
CENTER
 72
    65
 73
     4
 40
15.0
 49
10.5
 49
-1.5
 49
1.5
 49
-1.5
  0
LTYPE
  2
LTYPE3
 70
     0
  3
CENTER
 72
    65
 73
     4
 40
10.0
 49
7.0
 49
-1.0
 49
1.0
 49
-1.0
  0
ENDTAB
  0
TABLE
  2
LAYER
 70
   128
  0
LAYER
  2
0
 70
     0
 62
     7
  6
CONTINUOUS
  0
LAYER
  2
1
 70
     0
 62
     7
  6
CONTINUOUS
  0
LAYER
  2
2
 70
     0
 62
     7
  6
CONTINUOUS
  0
LAYER
  2
3
 70
     0
 62
     7
  6
CONTINUOUS
  0
LAYER
  2
4
 70
     0
 62
     7
  6
CONTINUOUS
  0
LAYER
  2
5
 70
     0
 62
     7
  6
CONTINUOUS
  0
LAYER
  2
6
 70
     0
 62
     7
  6
CONTINUOUS
  0
LAYER
  2
7
 70
     0
 62
     7
  6
CONTINUOUS
  0
LAYER
  2
8
 70
     0
 62
     7
  6
CONTINUOUS
  0
LAYER
  2
9
 70
     0
 62
     7
  6
CONTINUOUS
  0
LAYER
  2
10
 70
     0
 62
     7
  6
CONTINUOUS
  0
LAYER
  2
11
 70
     0
 62
     7
  6
CONTINUOUS
  0
LAYER
  2
12
 70
     0
 62
     7
  6
CONTINUOUS
  0
LAYER
  2
13
 70
     0
 62
     7
  6
CONTINUOUS
  0
LAYER
  2
14
 70
     0
 62
     7
  6
CONTINUOUS
  0
LAYER
  2
15
 70
     0
 62
     7
  6
CONTINUOUS
  0
LAYER
  2
16
 70
     0
 62
     7
  6
CONTINUOUS
  0
LAYER
  2
17
 70
     0
 62
     7
  6
CONTINUOUS
  0
LAYER
  2
18
 70
     0
 62
     7
  6
CONTINUOUS
  0
LAYER
  2
19
 70
     0
 62
     7
  6
CONTINUOUS
  0
LAYER
  2
20
 70
     0
 62
     7
  6
CONTINUOUS
  0
LAYER
  2
21
 70
     0
 62
     7
  6
CONTINUOUS
  0
LAYER
  2
22
 70
     0
 62
     7
  6
CONTINUOUS
  0
LAYER
  2
23
 70
     0
 62
     7
  6
CONTINUOUS
  0
LAYER
  2
24
 70
     0
 62
     7
  6
CONTINUOUS
  0
LAYER
  2
25
 70
     0
 62
     7
  6
CONTINUOUS
  0
LAYER
  2
26
 70
     0
 62
     7
  6
CONTINUOUS
  0
LAYER
  2
27
 70
     0
 62
     7
  6
CONTINUOUS
  0
LAYER
  2
28
 70
     0
 62
     7
  6
CONTINUOUS
  0
LAYER
  2
29
 70
     0
 62
     7
  6
CONTINUOUS
  0
LAYER
  2
30
 70
     0
 62
     7
  6
CONTINUOUS
  0
LAYER
  2
31
 70
     0
 62
     7
  6
CONTINUOUS
  0
LAYER
  2
32
 70
     0
 62
     7
  6
CONTINUOUS
  0
LAYER
  2
33
 70
     0
 62
     7
  6
CONTINUOUS
  0
LAYER
  2
34
 70
     0
 62
     7
  6
CONTINUOUS
  0
LAYER
  2
35
 70
     0
 62
     7
  6
CONTINUOUS
  0
LAYER
  2
36
 70
     0
 62
     7
  6
CONTINUOUS
  0
LAYER
  2
37
 70
     0
 62
     7
  6
CONTINUOUS
  0
LAYER
  2
38
 70
     0
 62
     7
  6
CONTINUOUS
  0
LAYER
  2
39
 70
     0
 62
     7
  6
CONTINUOUS
  0
LAYER
  2
40
 70
     0
 62
     7
  6
CONTINUOUS
  0
LAYER
  2
41
 70
     0
 62
     7
  6
CONTINUOUS
  0
LAYER
  2
42
 70
     0
 62
     7
  6
CONTINUOUS
  0
LAYER
  2
43
 70
     0
 62
     7
  6
CONTINUOUS
  0
LAYER
  2
44
 70
     0
 62
     7
  6
CONTINUOUS
  0
LAYER
  2
45
 70
     0
 62
     7
  6
CONTINUOUS
  0
LAYER
  2
46
 70
     0
 62
     7
  6
CONTINUOUS
  0
LAYER
  2
47
 70
     0
 62
     7
  6
CONTINUOUS
  0
LAYER
  2
48
 70
     0
 62
     7
  6
CONTINUOUS
  0
LAYER
  2
49
 70
     0
 62
     7
  6
CONTINUOUS
  0
LAYER
  2
50
 70
     0
 62
     7
  6
CONTINUOUS
  0
LAYER
  2
51
 70
     0
 62
     7
  6
CONTINUOUS
  0
LAYER
  2
52
 70
     0
 62
     7
  6
CONTINUOUS
  0
LAYER
  2
53
 70
     0
 62
     7
  6
CONTINUOUS
  0
LAYER
  2
54
 70
     0
 62
     7
  6
CONTINUOUS
  0
LAYER
  2
55
 70
     0
 62
     7
  6
CONTINUOUS
  0
LAYER
  2
56
 70
     0
 62
     7
  6
CONTINUOUS
  0
LAYER
  2
57
 70
     0
 62
     7
  6
CONTINUOUS
  0
LAYER
  2
58
 70
     0
 62
     7
  6
CONTINUOUS
  0
LAYER
  2
59
 70
     0
 62
     7
  6
CONTINUOUS
  0
LAYER
  2
60
 70
     0
 62
     7
  6
CONTINUOUS
  0
LAYER
  2
61
 70
     0
 62
     7
  6
CONTINUOUS
  0
LAYER
  2
62
 70
     0
 62
     7
  6
CONTINUOUS
  0
LAYER
  2
63
 70
     0
 62
     7
  6
CONTINUOUS
  0
LAYER
  2
64
 70
     0
 62
     7
  6
CONTINUOUS
  0
LAYER
  2
65
 70
     0
 62
     7
  6
CONTINUOUS
  0
LAYER
  2
66
 70
     0
 62
     7
  6
CONTINUOUS
  0
LAYER
  2
67
 70
     0
 62
     7
  6
CONTINUOUS
  0
LAYER
  2
68
 70
     0
 62
     7
  6
CONTINUOUS
  0
LAYER
  2
69
 70
     0
 62
     7
  6
CONTINUOUS
  0
LAYER
  2
70
 70
     0
 62
     7
  6
CONTINUOUS
  0
LAYER
  2
71
 70
     0
 62
     7
  6
CONTINUOUS
  0
LAYER
  2
72
 70
     0
 62
     7
  6
CONTINUOUS
  0
LAYER
  2
73
 70
     0
 62
     7
  6
CONTINUOUS
  0
LAYER
  2
74
 70
     0
 62
     7
  6
CONTINUOUS
  0
LAYER
  2
75
 70
     0
 62
     7
  6
CONTINUOUS
  0
LAYER
  2
76
 70
     0
 62
     7
  6
CONTINUOUS
  0
LAYER
  2
77
 70
     0
 62
     7
  6
CONTINUOUS
  0
LAYER
  2
78
 70
     0
 62
     7
  6
CONTINUOUS
  0
LAYER
  2
79
 70
     0
 62
     7
  6
CONTINUOUS
  0
LAYER
  2
80
 70
     0
 62
     7
  6
CONTINUOUS
  0
LAYER
  2
81
 70
     0
 62
     7
  6
CONTINUOUS
  0
LAYER
  2
82
 70
     0
 62
     7
  6
CONTINUOUS
  0
LAYER
  2
83
 70
     0
 62
     7
  6
CONTINUOUS
  0
LAYER
  2
84
 70
     0
 62
     7
  6
CONTINUOUS
  0
LAYER
  2
85
 70
     0
 62
     7
  6
CONTINUOUS
  0
LAYER
  2
86
 70
     0
 62
     7
  6
CONTINUOUS
  0
LAYER
  2
87
 70
     0
 62
     7
  6
CONTINUOUS
  0
LAYER
  2
88
 70
     0
 62
     7
  6
CONTINUOUS
  0
LAYER
  2
89
 70
     0
 62
     7
  6
CONTINUOUS
  0
LAYER
  2
90
 70
     0
 62
     7
  6
CONTINUOUS
  0
LAYER
  2
91
 70
     0
 62
     7
  6
CONTINUOUS
  0
LAYER
  2
92
 70
     0
 62
     7
  6
CONTINUOUS
  0
LAYER
  2
93
 70
     0
 62
     7
  6
CONTINUOUS
  0
LAYER
  2
94
 70
     0
 62
     7
  6
CONTINUOUS
  0
LAYER
  2
95
 70
     0
 62
     7
  6
CONTINUOUS
  0
LAYER
  2
96
 70
     0
 62
     7
  6
CONTINUOUS
  0
LAYER
  2
97
 70
     0
 62
     7
  6
CONTINUOUS
  0
LAYER
  2
98
 70
     0
 62
     7
  6
CONTINUOUS
  0
LAYER
  2
99
 70
     0
 62
     7
  6
CONTINUOUS
  0
LAYER
  2
100
 70
     0
 62
     7
  6
CONTINUOUS
  0
LAYER
  2
101
 70
     0
 62
     7
  6
CONTINUOUS
  0
LAYER
  2
102
 70
     0
 62
     7
  6
CONTINUOUS
  0
LAYER
  2
103
 70
     0
 62
     7
  6
CONTINUOUS
  0
LAYER
  2
104
 70
     0
 62
     7
  6
CONTINUOUS
  0
LAYER
  2
105
 70
     0
 62
     7
  6
CONTINUOUS
  0
LAYER
  2
106
 70
     0
 62
     7
  6
CONTINUOUS
  0
LAYER
  2
107
 70
     0
 62
     7
  6
CONTINUOUS
  0
LAYER
  2
108
 70
     0
 62
     7
  6
CONTINUOUS
  0
LAYER
  2
109
 70
     0
 62
     7
  6
CONTINUOUS
  0
LAYER
  2
110
 70
     0
 62
     7
  6
CONTINUOUS
  0
LAYER
  2
111
 70
     0
 62
     7
  6
CONTINUOUS
  0
LAYER
  2
112
 70
     0
 62
     7
  6
CONTINUOUS
  0
LAYER
  2
113
 70
     0
 62
     7
  6
CONTINUOUS
  0
LAYER
  2
114
 70
     0
 62
     7
  6
CONTINUOUS
  0
LAYER
  2
115
 70
     0
 62
     7
  6
CONTINUOUS
  0
LAYER
  2
116
 70
     0
 62
     7
  6
CONTINUOUS
  0
LAYER
  2
117
 70
     0
 62
     7
  6
CONTINUOUS
  0
LAYER
  2
118
 70
     0
 62
     7
  6
CONTINUOUS
  0
LAYER
  2
119
 70
     0
 62
     7
  6
CONTINUOUS
  0
LAYER
  2
120
 70
     0
 62
     7
  6
CONTINUOUS
  0
LAYER
  2
121
 70
     0
 62
     7
  6
CONTINUOUS
  0
LAYER
  2
122
 70
     0
 62
     7
  6
CONTINUOUS
  0
LAYER
  2
123
 70
     0
 62
     7
  6
CONTINUOUS
  0
LAYER
  2
124
 70
     0
 62
     7
  6
CONTINUOUS
  0
LAYER
  2
125
 70
     0
 62
     7
  6
CONTINUOUS
  0
LAYER
  2
126
 70
     0
 62
     7
  6
CONTINUOUS
  0
LAYER
  2
127
 70
     0
 62
     7
  6
CONTINUOUS
  0
ENDTAB
  0
TABLE
  2
STYLE
 70
    14
  0
STYLE
  2
STANDARD
 70
     0
 40
0.0
 41
1.0
 50
0.0
 71
     0
 42
0.2
  3
txt
  4

  0
STYLE
  2
KANJI0
 70
     0
 40
3.0
 41
0.833333333
 50
0.0
 71
     0
 42
3.0
  3
txt.shx
  4
bigfont
  0
STYLE
  2
KANJI1
 70
     0
 40
1.0
 41
0.7
 50
0.0
 71
     0
 42
1.0
  3
txt.shx
  4
bigfont
  0
STYLE
  2
KANJI2
 70
     0
 40
0.5
 41
0.7
 50
0.0
 71
     0
 42
0.5
  3
txt.shx
  4
bigfont
  0
STYLE
  2
KANJI3
 70
     0
 40
1.5
 41
0.75
 50
0.0
 71
     0
 42
1.5
  3
txt.shx
  4
bigfont
  0
STYLE
  2
KANJI4
 70
     0
 40
3.0
 41
0.833333333
 50
0.0
 71
     0
 42
3.0
  3
txt.shx
  4
bigfont
  0
STYLE
  2
KANJI5
 70
     0
 40
2.0
 41
0.925
 50
0.0
 71
     0
 42
2.0
  3
txt.shx
  4
bigfont
  0
STYLE
  2
KANJI6
 70
     0
 40
2.375999999999999
 41
0.925
 50
0.0
 71
     0
 42
2.375999999999999
  3
txt.shx
  4
bigfont
  0
STYLE
  2
KANJI7
 70
     0
 40
2.0
 41
1.0
 50
0.0
 71
     0
 42
2.0
  3
txt.shx
  4
bigfont
  0
STYLE
  2
KANJI8
 70
     0
 40
3.0
 41
0.8
 50
0.0
 71
     0
 42
3.0
  3
txt.shx
  4
bigfont
  0
STYLE
  2
KANJI9
 70
     0
 40
2.5
 41
0.8
 50
0.0
 71
     0
 42
2.5
  3
txt.shx
  4
bigfont
  0
STYLE
  2
KANJI10
 70
     0
 40
1.1999999999999991
 41
0.925
 50
0.0
 71
     0
 42
1.1999999999999991
  3
txt.shx
  4
bigfont
  0
STYLE
  2
KANJI11
 70
     0
 40
1.5
 41
1.0
 50
0.0
 71
     0
 42
1.5
  3
txt.shx
  4
bigfont
  0
STYLE
  2
KANJI12
 70
     0
 40
4.0
 41
1.0
 50
0.0
 71
     0
 42
4.0
  3
txt.shx
  4
bigfont
  0
ENDTAB
  0
TABLE
  2
VIEW
 70
     0
  0
ENDTAB
  0
TABLE
  2
UCS
 70
     0
  0
ENDTAB
  0
TABLE
  2
APPID
 70
     1
  0
APPID
  2
ACAD
 70
     0
  0
ENDTAB
  0
TABLE
  2
DIMSTYLE
 70
     1
  0
DIMSTYLE
  2
STANDARD
 70
     0
  3

  4

  5

  6

  7

 40
1.0
 41
0.18
 42
0.0625
 43
0.38
 44
0.18
 45
0.0
 46
0.0
 47
0.0
 48
0.0
140
0.18
141
0.09
142
0.0
143
25.399999999999999
144
1.0
145
0.0
146
1.0
147
0.09
 71
     0
 72
     0
 73
     1
 74
     1
 75
     0
 76
     0
 77
     0
 78
     0
170
     0
171
     2
172
     0
173
     0
174
     0
175
     0
176
     0
177
     0
178
     0
  0
ENDTAB
  0
ENDSEC
  0
SECTION
  2
BLOCKS
  0
BLOCK
  8
0
  2
$MODEL_SPACE
 70
     0
 10
0.0
 20
0.0
 30
0.0
  3
$MODEL_SPACE
  1

  0
ENDBLK
  5
20
  8
0
  0
BLOCK
 67
     1
  8
0
  2
$PAPER_SPACE
 70
     0
 10
0.0
 20
0.0
 30
0.0
  3
$PAPER_SPACE
  1

  0
ENDBLK
  5
1C
 67
     1
  8
0
  0
ENDSEC
  0
SECTION
  2
ENTITIES
  0
LINE
  5
B4
  8
0
  6
CONTINUOUS
 62
     1
 10
64.0
 20
128.49999999999989
 30
0.0
 11
64.0
 21
127.0
 31
0.0
  0
LINE
  5
B5
  8
0
  6
CONTINUOUS
 62
     1
 10
64.0
 20
127.0
 30
0.0
 11
64.0
 21
122.0
 31
0.0
  0
LINE
  5
B6
  8
0
  6
CONTINUOUS
 62
     4
 10
158.0
 20
136.21250000000001
 30
0.0
 11
156.06814834699989
 21
136.73013809
 31
0.0
  0
LINE
  5
B7
  8
0
  6
CONTINUOUS
 62
     4
 10
158.0
 20
136.21250000000001
 30
0.0
 11
156.06814834699989
 21
135.6948619099999
 31
0.0
  0
LINE
  5
B8
  8
0
  6
CONTINUOUS
 62
     4
 10
66.0
 20
136.21250000000001
 30
0.0
 11
67.931851652999995
 21
135.6948619099999
 31
0.0
  0
LINE
  5
B9
  8
0
  6
CONTINUOUS
 62
     4
 10
66.0
 20
136.21250000000001
 30
0.0
 11
67.931851652999995
 21
136.73013809
 31
0.0
  0
POINT
  5
BB
  8
0
  6
CONTINUOUS
 62
     3
 10
112.0
 20
75.849999999999994
 30
0.0
  0
LINE
  5
BC
  8
0
  6
CONTINUOUS
 62
     4
 10
64.0
 20
107.0
 30
0.0
 11
48.0
 21
107.0
 31
0.0
  0
LINE
  5
BD
  8
0
  6
CONTINUOUS
 62
     4
 10
49.0
 20
107.0
 30
0.0
 11
48.482361910000002
 21
105.068148347
 31
0.0
  0
LINE
  5
BE
  8
0
  6
CONTINUOUS
 62
     4
 10
49.0
 20
107.0
 30
0.0
 11
49.517638089999998
 21
105.068148347
 31
0.0
  0
LINE
  5
BF
  8
0
  6
CONTINUOUS
 62
     4
 10
49.0
 20
107.0
 30
0.0
 11
49.0
 21
59.0
 31
0.0
  0
LINE
  5
C0
  8
0
  6
CONTINUOUS
 62
     4
 10
49.0
 20
59.0
 30
0.0
 11
49.517638089999998
 21
60.931851653000002
 31
0.0
  0
LINE
  5
C1
  8
0
  6
CONTINUOUS
 62
     4
 10
49.0
 20
59.0
 30
0.0
 11
48.482361910000002
 21
60.931851653000002
 31
0.0
  0
LINE
  5
C2
  8
0
  6
CONTINUOUS
 62
     4
 10
64.0
 20
59.0
 30
0.0
 11
48.0
 21
59.0
 31
0.0
  0
TEXT
  5
C3
  8
0
  6
CONTINUOUS
 62
     4
 10
48.0
 20
80.400000000000006
 30
0.3
 40
3.0
  1
48
 50
90.0
 41
0.833333333
  7
KANJI0
  0
LINE
  5
C4
  8
0
  6
CONTINUOUS
 62
     4
 10
64.0
 20
59.5
 30
0.3
 11
64.0
 21
45.499999999999993
 31
0.3
  0
LINE
  5
C5
  8
0
  6
CONTINUOUS
 62
     4
 10
64.0
 20
46.5
 30
0.0
 11
65.931851652999995
 21
45.982361910000002
 31
0.0
  0
LINE
  5
C6
  8
0
  6
CONTINUOUS
 62
     4
 10
64.0
 20
46.5
 30
0.0
 11
65.931851652999995
 21
47.017638089999998
 31
0.0
  0
LINE
  5
C7
  8
0
  6
CONTINUOUS
 62
     4
 10
160.0
 20
46.5
 30
0.0
 11
158.068148347
 21
47.017638089999998
 31
0.0
  0
LINE
  5
C8
  8
0
  6
CONTINUOUS
 62
     4
 10
160.0
 20
46.5
 30
0.0
 11
158.068148347
 21
45.982361910000002
 31
0.0
  0
LINE
  5
C9
  8
0
  6
CONTINUOUS
 62
     4
 10
160.0
 20
59.0
 30
0.0
 11
160.0
 21
45.499999999999993
 31
0.0
  0
TEXT
  5
CA
  8
0
  6
CONTINUOUS
 62
     4
 10
114.40000000000001
 20
47.5
 30
0.3
 40
3.0
  1
96
 41
0.833333333
  7
KANJI0
  0
LINE
  5
CB
  8
0
  6
CONTINUOUS
 62
     4
 10
64.0
 20
46.5
 30
0.3
 11
160.0
 21
46.5
 31
0.3
  0
LINE
  5
380
  8
0
  6
CONTINUOUS
 62
     4
 10
66.0
 20
136.21250000000001
 30
0.1875
 11
158.0
 21
136.21250000000001
 31
0.1875
  0
TEXT
  5
381
  8
0
  6
CONTINUOUS
 62
     4
 10
113.3
 20
137.21250000000001
 30
0.3
 40
3.0
  1
91.8
 41
0.833333333
  7
KANJI4
  0
LINE
  5
382
  8
2
  6
CONTINUOUS
 62
     4
 10
66.299999999999983
 20
178.0
 30
0.3
 11
50.799999999999997
 21
178.0
 31
0.3
  0
LINE
  5
383
  8
2
  6
CONTINUOUS
 62
     4
 10
51.79999999999999
 20
178.0
 30
0.0
 11
51.411771432000002
 21
176.5511112609999
 31
0.0
  0
LINE
  5
384
  8
2
  6
CONTINUOUS
 62
     4
 10
51.79999999999999
 20
178.0
 30
0.0
 11
52.188228568
 21
176.5511112609999
 31
0.0
  0
LINE
  5
385
  8
2
  6
CONTINUOUS
 62
     4
 10
51.79999999999999
 20
178.0
 30
0.0
 11
51.79999999999999
 21
122.0
 31
0.0
  0
LINE
  5
386
  8
2
  6
CONTINUOUS
 62
     4
 10
51.79999999999999
 20
122.0
 30
0.0
 11
52.188228568
 21
123.4488887389999
 31
0.0
  0
LINE
  5
387
  8
2
  6
CONTINUOUS
 62
     4
 10
51.79999999999999
 20
122.0
 30
0.0
 11
51.411771432000002
 21
123.4488887389999
 31
0.0
  0
LINE
  5
388
  8
2
  6
CONTINUOUS
 62
     4
 10
63.5
 20
122.0
 30
0.0
 11
50.799999999999997
 21
122.0
 31
0.0
  0
TEXT
  5
389
  8
2
  6
CONTINUOUS
 62
     4
 10
50.799999999999997
 20
148.15000000000001
 30
0.0
 40
2.0
  1
56
 50
90.0
 41
0.925
  7
KANJI5
  0
LINE
  5
38A
  8
2
  6
CONTINUOUS
 62
     4
 10
65.299999999999997
 20
175.0
 30
0.0
 11
58.79999999999999
 21
175.0
 31
0.0
  0
LINE
  5
38B
  8
2
  6
CONTINUOUS
 62
     4
 10
59.799999999999997
 20
175.0
 30
0.0
 11
59.411771432000002
 21
173.55111126099999
 31
0.0
  0
LINE
  5
38C
  8
2
  6
CONTINUOUS
 62
     4
 10
59.799999999999997
 20
175.0
 30
0.0
 11
60.188228567999992
 21
173.55111126099999
 31
0.0
  0
LINE
  5
38D
  8
2
  6
CONTINUOUS
 62
     4
 10
59.799999999999997
 20
172.75
 30
0.0
 11
59.799999999999997
 21
175.0
 31
0.0
  0
LINE
  5
38E
  8
2
  6
CONTINUOUS
 62
     4
 10
59.799999999999997
 20
175.0
 30
0.0
 11
59.799999999999997
 21
178.0
 31
0.0
  0
LINE
  5
38F
  8
2
  6
CONTINUOUS
 62
     4
 10
59.799999999999997
 20
178.0
 30
0.0
 11
59.799999999999997
 21
180.25
 31
0.0
  0
LINE
  5
390
  8
2
  6
CONTINUOUS
 62
     4
 10
59.799999999999997
 20
178.0
 30
0.0
 11
60.188228567999992
 21
179.44888873900001
 31
0.0
  0
LINE
  5
391
  8
2
  6
CONTINUOUS
 62
     4
 10
59.799999999999997
 20
178.0
 30
0.0
 11
59.411771432000002
 21
179.44888873900001
 31
0.0
  0
LINE
  5
392
  8
2
  6
CONTINUOUS
 62
     4
 10
66.299999999999983
 20
178.0
 30
0.0
 11
58.79999999999999
 21
178.0
 31
0.0
  0
TEXT
  5
393
  8
2
  6
CONTINUOUS
 62
     4
 10
58.79999999999999
 20
175.5749999999999
 30
0.0
 40
2.0
  1
3
 50
90.0
 41
0.925
  7
KANJI5
  0
LINE
  5
394
  8
2
  6
CONTINUOUS
 62
     4
 10
63.5
 20
128.49999999999989
 30
0.0
 11
57.0
 21
128.49999999999989
 31
0.0
  0
LINE
  5
395
  8
2
  6
CONTINUOUS
 62
     4
 10
58.0
 20
128.49999999999989
 30
0.0
 11
57.611771431999998
 21
127.051111261
 31
0.0
  0
LINE
  5
396
  8
2
  6
CONTINUOUS
 62
     4
 10
58.0
 20
128.49999999999989
 30
0.0
 11
58.388228568000002
 21
127.051111261
 31
0.0
  0
LINE
  5
397
  8
2
  6
CONTINUOUS
 62
     4
 10
58.0
 20
128.49999999999989
 30
0.0
 11
58.0
 21
122.0
 31
0.0
  0
LINE
  5
398
  8
2
  6
CONTINUOUS
 62
     4
 10
58.0
 20
122.0
 30
0.0
 11
58.388228568000002
 21
123.4488887389999
 31
0.0
  0
LINE
  5
399
  8
2
  6
CONTINUOUS
 62
     4
 10
58.0
 20
122.0
 30
0.0
 11
57.611771431999998
 21
123.4488887389999
 31
0.0
  0
LINE
  5
39A
  8
2
  6
CONTINUOUS
 62
     4
 10
63.5
 20
122.0
 30
0.0
 11
57.0
 21
122.0
 31
0.0
  0
TEXT
  5
39B
  8
2
  6
CONTINUOUS
 62
     4
 10
56.956000000000003
 20
122.8758814714588
 30
0.0
 40
2.375999999999999
  1
6.5
 50
90.0
 41
0.925
  7
KANJI6
  0
LINE
  5
39C
  8
0
  6
CONTINUOUS
 62
     1
 10
66.0
 20
148.5
 30
0.0
 11
64.200000000000003
 21
143.6999999999999
 31
0.0
  0
LINE
  5
39D
  8
0
  6
CONTINUOUS
 62
     1
 10
64.200000000000003
 20
143.6999999999999
 30
0.0
 11
62.399999999999999
 21
140.6999999999999
 31
0.0
  0
LINE
  5
39E
  8
0
  6
CONTINUOUS
 62
     1
 10
62.399999999999999
 20
140.6999999999999
 30
0.0
 11
60.799999999999997
 21
138.69999999999999
 31
0.0
  0
LINE
  5
39F
  8
0
  6
CONTINUOUS
 62
     1
 10
60.799999999999997
 20
138.69999999999999
 30
0.0
 11
66.0
 21
128.49999999999989
 31
0.0
  0
POINT
  5
3A0
  8
0
  6
CONTINUOUS
 62
     1
 10
1.2692639056332951E+099
 20
-5.4795364989713911E+072
 30
0.0
  0
POINT
  5
3A1
  8
0
  6
CONTINUOUS
 62
     1
 10
1.2692639056332951E+099
 20
-5.4795364989713911E+072
 30
0.0
  0
LINE
  5
3A2
  8
0
  6
CONTINUOUS
 62
     1
 10
-5.9416163741459845E+073
 20
42.0
 30
0.0
 11
-5.9416163741459845E+073
 21
42.647047612999998
 31
0.0
  0
LINE
  5
3A3
  8
0
  6
CONTINUOUS
 62
     1
 10
-5.9416163741459845E+073
 20
42.0
 30
0.0
 11
-5.9416163741459845E+073
 21
41.352952386999988
 31
0.0
  0
POINT
  5
3A4
  8
1
  6
CONTINUOUS
 62
     1
 10
1.2692639056332951E+099
 20
252.0
 30
0.0
  0
POINT
  5
3A5
  8
1
  6
CONTINUOUS
 62
     1
 10
1.2692639056332951E+099
 20
252.0
 30
0.0
  0
POINT
  5
3A6
  8
1
  6
CONTINUOUS
 62
     1
 10
-5.9416163741459845E+073
 20
252.0
 30
0.0
  0
POINT
  5
3A7
  8
1
  6
CONTINUOUS
 62
     1
 10
-5.9416163741459845E+073
 20
252.0
 30
0.0
  0
POINT
  5
3A8
  8
1
  6
CONTINUOUS
 62
     1
 10
6.2829853028270678E+099
 20
-1.2692639056332951E+099
 30
0.0
  0
POINT
  5
3A9
  8
1
  6
CONTINUOUS
 62
     1
 10
6.2829853028270678E+099
 20
-1.2692639056332951E+099
 30
0.0
  0
POINT
  5
3AA
  8
1
  6
CONTINUOUS
 62
     1
 10
-2.9411604779834719E+062
 20
5.9416163741459845E+073
 30
0.0
  0
POINT
  5
3AB
  8
1
  6
CONTINUOUS
 62
     1
 10
-2.9411604779834719E+062
 20
5.9416163741459845E+073
 30
0.0
  0
POINT
  5
3AC
  8
1
  6
CONTINUOUS
 62
     1
 10
6.2829853028270678E+099
 20
-1.2692639056332951E+099
 30
0.0
  0
POINT
  5
3AD
  8
1
  6
CONTINUOUS
 62
     1
 10
6.2829853028270678E+099
 20
-1.2692639056332951E+099
 30
0.0
  0
POINT
  5
3AE
  8
1
  6
CONTINUOUS
 62
     1
 10
-2.9411604779834719E+062
 20
5.9416163741459845E+073
 30
0.0
  0
POINT
  5
3AF
  8
1
  6
CONTINUOUS
 62
     1
 10
-2.9411604779834719E+062
 20
5.9416163741459845E+073
 30
0.0
  0
POINT
  5
3B0
  8
1
  6
CONTINUOUS
 62
     1
 10
1.2692639056332951E+099
 20
252.0
 30
0.0
  0
POINT
  5
3B1
  8
1
  6
CONTINUOUS
 62
     1
 10
1.2692639056332951E+099
 20
252.0
 30
0.0
  0
POINT
  5
3B2
  8
1
  6
CONTINUOUS
 62
     1
 10
-5.9416163741459845E+073
 20
252.0
 30
0.0
  0
POINT
  5
3B3
  8
1
  6
CONTINUOUS
 62
     1
 10
-5.9416163741459845E+073
 20
252.0
 30
0.0
  0
POINT
  5
3B4
  8
1
  6
CONTINUOUS
 62
     1
 10
1.2692639056332951E+099
 20
252.0
 30
0.0
  0
POINT
  5
3B5
  8
1
  6
CONTINUOUS
 62
     1
 10
1.2692639056332951E+099
 20
252.0
 30
0.0
  0
POINT
  5
3B6
  8
1
  6
CONTINUOUS
 62
     1
 10
-5.9416163741459845E+073
 20
252.0
 30
0.0
  0
POINT
  5
3B7
  8
1
  6
CONTINUOUS
 62
     1
 10
-5.9416163741459845E+073
 20
252.0
 30
0.0
  0
POINT
  5
3B8
  8
0
  6
CONTINUOUS
 62
     1
 10
1.2692639056332951E+099
 20
-5.4795364989713911E+072
 30
0.0
  0
POINT
  5
3B9
  8
0
  6
CONTINUOUS
 62
     1
 10
1.2692639056332951E+099
 20
-5.4795364989713911E+072
 30
0.0
  0
LINE
  5
3BA
  8
0
  6
CONTINUOUS
 62
     1
 10
-5.9416163741459845E+073
 20
42.0
 30
0.0
 11
-5.9416163741459845E+073
 21
42.647047612999998
 31
0.0
  0
LINE
  5
3BB
  8
0
  6
CONTINUOUS
 62
     1
 10
-5.9416163741459845E+073
 20
42.0
 30
0.0
 11
-5.9416163741459845E+073
 21
41.352952386999988
 31
0.0
  0
POINT
  5
3BC
  8
0
  6
CONTINUOUS
 62
     1
 10
1.2692639056332951E+099
 20
-5.4795364989713911E+072
 30
0.0
  0
POINT
  5
3BD
  8
0
  6
CONTINUOUS
 62
     1
 10
1.2692639056332951E+099
 20
-5.4795364989713911E+072
 30
0.0
  0
LINE
  5
3BE
  8
0
  6
CONTINUOUS
 62
     1
 10
-5.9416163741459845E+073
 20
42.0
 30
0.0
 11
-5.9416163741459845E+073
 21
42.647047612999998
 31
0.0
  0
LINE
  5
3BF
  8
0
  6
CONTINUOUS
 62
     1
 10
-5.9416163741459845E+073
 20
42.0
 30
0.0
 11
-5.9416163741459845E+073
 21
41.352952386999988
 31
0.0
  0
POINT
  5
3C0
  8
0
  6
CONTINUOUS
 62
     1
 10
1.2692639056332951E+099
 20
-5.4795364989713911E+072
 30
0.0
  0
POINT
  5
3C1
  8
0
  6
CONTINUOUS
 62
     1
 10
1.2692639056332951E+099
 20
-5.4795364989713911E+072
 30
0.0
  0
LINE
  5
3C2
  8
0
  6
CONTINUOUS
 62
     1
 10
-5.9416163741459845E+073
 20
42.0
 30
0.0
 11
-5.9416163741459845E+073
 21
42.647047612999998
 31
0.0
  0
LINE
  5
3C3
  8
0
  6
CONTINUOUS
 62
     1
 10
-5.9416163741459845E+073
 20
42.0
 30
0.0
 11
-5.9416163741459845E+073
 21
41.352952386999988
 31
0.0
  0
POINT
  5
3C4
  8
1
  6
CONTINUOUS
 62
     1
 10
1.2692639056332951E+099
 20
252.0
 30
0.0
  0
POINT
  5
3C5
  8
1
  6
CONTINUOUS
 62
     1
 10
1.2692639056332951E+099
 20
252.0
 30
0.0
  0
POINT
  5
3C6
  8
1
  6
CONTINUOUS
 62
     1
 10
-5.9416163741459845E+073
 20
252.0
 30
0.0
  0
POINT
  5
3C7
  8
1
  6
CONTINUOUS
 62
     1
 10
-5.9416163741459845E+073
 20
252.0
 30
0.0
  0
POINT
  5
3C8
  8
1
  6
CONTINUOUS
 62
     1
 10
6.2829853028270678E+099
 20
-1.2692639056332951E+099
 30
0.0
  0
POINT
  5
3C9
  8
1
  6
CONTINUOUS
 62
     1
 10
6.2829853028270678E+099
 20
-1.2692639056332951E+099
 30
0.0
  0
POINT
  5
3CA
  8
1
  6
CONTINUOUS
 62
     1
 10
-2.9411604779834719E+062
 20
5.9416163741459845E+073
 30
0.0
  0
POINT
  5
3CB
  8
1
  6
CONTINUOUS
 62
     1
 10
-2.9411604779834719E+062
 20
5.9416163741459845E+073
 30
0.0
  0
POINT
  5
3CC
  8
1
  6
CONTINUOUS
 62
     1
 10
6.2829853028270678E+099
 20
-1.2692639056332951E+099
 30
0.0
  0
POINT
  5
3CD
  8
1
  6
CONTINUOUS
 62
     1
 10
6.2829853028270678E+099
 20
-1.2692639056332951E+099
 30
0.0
  0
POINT
  5
3CE
  8
1
  6
CONTINUOUS
 62
     1
 10
-2.9411604779834719E+062
 20
5.9416163741459845E+073
 30
0.0
  0
POINT
  5
3CF
  8
1
  6
CONTINUOUS
 62
     1
 10
-2.9411604779834719E+062
 20
5.9416163741459845E+073
 30
0.0
  0
POINT
  5
3D0
  8
1
  6
CONTINUOUS
 62
     1
 10
1.2692639056332951E+099
 20
252.0
 30
0.0
  0
POINT
  5
3D1
  8
1
  6
CONTINUOUS
 62
     1
 10
1.2692639056332951E+099
 20
252.0
 30
0.0
  0
POINT
  5
3D2
  8
1
  6
CONTINUOUS
 62
     1
 10
-5.9416163741459845E+073
 20
252.0
 30
0.0
  0
POINT
  5
3D3
  8
1
  6
CONTINUOUS
 62
     1
 10
-5.9416163741459845E+073
 20
252.0
 30
0.0
  0
POINT
  5
3D4
  8
1
  6
CONTINUOUS
 62
     1
 10
1.2692639056332951E+099
 20
252.0
 30
0.0
  0
POINT
  5
3D5
  8
1
  6
CONTINUOUS
 62
     1
 10
1.2692639056332951E+099
 20
252.0
 30
0.0
  0
POINT
  5
3D6
  8
1
  6
CONTINUOUS
 62
     1
 10
-5.9416163741459845E+073
 20
252.0
 30
0.0
  0
POINT
  5
3D7
  8
1
  6
CONTINUOUS
 62
     1
 10
-5.9416163741459845E+073
 20
252.0
 30
0.0
  0
POINT
  5
3D8
  8
0
  6
CONTINUOUS
 62
     1
 10
1.2692639056332951E+099
 20
-5.4795364989713911E+072
 30
0.0
  0
POINT
  5
3D9
  8
0
  6
CONTINUOUS
 62
     1
 10
1.2692639056332951E+099
 20
-5.4795364989713911E+072
 30
0.0
  0
LINE
  5
3DA
  8
0
  6
CONTINUOUS
 62
     1
 10
-5.9416163741459845E+073
 20
42.0
 30
0.0
 11
-5.9416163741459845E+073
 21
42.647047612999998
 31
0.0
  0
LINE
  5
3DB
  8
0
  6
CONTINUOUS
 62
     1
 10
-5.9416163741459845E+073
 20
42.0
 30
0.0
 11
-5.9416163741459845E+073
 21
41.352952386999988
 31
0.0
  0
POINT
  5
3DC
  8
0
  6
CONTINUOUS
 62
     1
 10
1.2692639056332951E+099
 20
-5.4795364989713911E+072
 30
0.0
  0
POINT
  5
3DD
  8
0
  6
CONTINUOUS
 62
     1
 10
1.2692639056332951E+099
 20
-5.4795364989713911E+072
 30
0.0
  0
LINE
  5
3DE
  8
0
  6
CONTINUOUS
 62
     1
 10
-5.9416163741459845E+073
 20
42.0
 30
0.0
 11
-5.9416163741459845E+073
 21
42.647047612999998
 31
0.0
  0
LINE
  5
3DF
  8
0
  6
CONTINUOUS
 62
     1
 10
-5.9416163741459845E+073
 20
42.0
 30
0.0
 11
-5.9416163741459845E+073
 21
41.352952386999988
 31
0.0
  0
LINE
  5
3EA
  8
0
  6
CONTINUOUS
 62
     1
 10
160.0
 20
59.0
 30
0.0
 11
160.0
 21
107.0
 31
0.0
  0
LINE
  5
3EB
  8
0
  6
CONTINUOUS
 62
     1
 10
157.0
 20
67.5
 30
0.0
 11
157.0
 21
98.500000000000014
 31
0.0
  0
LINE
  5
3EC
  8
0
  6
CONTINUOUS
 62
     1
 10
64.0
 20
107.0
 30
0.0
 11
64.0
 21
59.0
 31
0.0
  0
LINE
  5
3ED
  8
0
  6
CONTINUOUS
 62
     1
 10
112.0
 20
98.500000000000014
 30
0.0
 11
67.0
 21
98.500000000000014
 31
0.0
  0
LINE
  5
3EE
  8
0
  6
CONTINUOUS
 62
     1
 10
157.0
 20
67.5
 30
0.0
 11
67.0
 21
67.5
 31
0.0
  0
LINE
  5
3EF
  8
0
  6
CONTINUOUS
 62
     1
 10
157.0
 20
69.0
 30
0.0
 11
67.0
 21
69.0
 31
0.0
  0
POINT
  5
3F0
  8
0
  6
CONTINUOUS
 62
     1
 10
67.0
 20
69.0
 30
0.0
  0
LINE
  5
3F1
  8
0
  6
CONTINUOUS
 62
     1
 10
67.0
 20
98.500000000000014
 30
0.0
 11
67.0
 21
67.5
 31
0.0
  0
LINE
  5
3F2
  8
0
  6
CONTINUOUS
 62
     1
 10
157.0
 20
69.5
 30
0.0
 11
67.0
 21
69.5
 31
0.0
  0
LINE
  5
3F3
  8
0
  6
CONTINUOUS
 62
     1
 10
64.0
 20
59.0
 30
0.0
 11
160.0
 21
59.0
 31
0.0
  0
LINE
  5
3F4
  8
0
  6
CONTINUOUS
 62
     1
 10
64.0
 20
59.5
 30
0.0
 11
160.0
 21
59.5
 31
0.0
  0
LINE
  5
3F5
  8
0
  6
CONTINUOUS
 62
     1
 10
102.4999999999999
 20
83.549999999999997
 30
0.0
 11
100.2
 21
83.549999999999997
 31
0.0
  0
LINE
  5
3F6
  8
0
  6
CONTINUOUS
 62
     1
 10
100.09999999999989
 20
82.049999999999997
 30
0.0
 11
105.09999999999989
 21
82.049999999999997
 31
0.0
  0
LINE
  5
3F7
  8
0
  6
CONTINUOUS
 62
     1
 10
105.09999999999989
 20
83.75
 30
0.0
 11
106.40000000000001
 21
82.75
 31
0.0
  0
LINE
  5
3F8
  8
0
  6
CONTINUOUS
 62
     1
 10
105.0
 20
83.450000000000003
 30
0.0
 11
106.2999999999999
 21
82.450000000000003
 31
0.0
  0
LINE
  5
3F9
  8
0
  6
CONTINUOUS
 62
     1
 10
106.2999999999999
 20
82.450000000000003
 30
0.0
 11
104.90000000000001
 21
82.049999999999997
 31
0.0
  0
LINE
  5
3FA
  8
0
  6
CONTINUOUS
 62
     1
 10
104.90000000000001
 20
81.75
 30
0.0
 11
106.40000000000001
 21
82.150000000000006
 31
0.0
  0
LINE
  5
3FB
  8
0
  6
CONTINUOUS
 62
     1
 10
100.09999999999989
 20
83.549999999999997
 30
0.0
 11
98.799999999999997
 21
82.949999999999989
 31
0.0
  0
LINE
  5
3FC
  8
0
  6
CONTINUOUS
 62
     1
 10
98.799999999999997
 20
82.949999999999989
 30
0.0
 11
100.0
 21
82.049999999999997
 31
0.0
  0
LINE
  5
3FD
  8
0
  6
CONTINUOUS
 62
     1
 10
99.799999999999997
 20
81.849999999999994
 30
0.0
 11
98.500000000000014
 21
82.75
 31
0.0
  0
LINE
  5
3FE
  8
0
  6
CONTINUOUS
 62
     1
 10
98.599999999999994
 20
83.150000000000006
 30
0.0
 11
100.09999999999989
 21
83.950000000000017
 31
0.0
  0
LINE
  5
3FF
  8
0
  6
CONTINUOUS
 62
     1
 10
104.90000000000001
 20
83.549999999999997
 30
0.0
 11
102.59999999999999
 21
83.549999999999997
 31
0.0
  0
POINT
  5
400
  8
0
  6
CONTINUOUS
 62
     1
 10
106.0
 20
89.849999999999994
 30
0.0
  0
LINE
  5
401
  8
0
  6
CONTINUOUS
 62
     1
 10
105.6999999999999
 20
88.349999999999994
 30
0.0
 11
106.6999999999999
 21
89.549999999999997
 31
0.0
  0
LINE
  5
402
  8
0
  6
CONTINUOUS
 62
     1
 10
107.09999999999989
 20
89.450000000000003
 30
0.0
 11
105.90000000000001
 21
87.949999999999989
 31
0.0
  0
LINE
  5
403
  8
0
  6
CONTINUOUS
 62
     1
 10
101.0
 20
88.450000000000003
 30
0.0
 11
100.09999999999989
 21
89.549999999999997
 31
0.0
  0
LINE
  5
404
  8
0
  6
CONTINUOUS
 62
     1
 10
100.8
 20
88.049999999999983
 30
0.0
 11
99.799999999999997
 21
89.349999999999994
 31
0.0
  0
LINE
  5
405
  8
0
  6
CONTINUOUS
 62
     1
 10
100.159375
 20
84.124999999999986
 30
0.0
 11
100.77187499999989
 21
88.025000000000006
 31
0.0
  0
LINE
  5
406
  8
0
  6
CONTINUOUS
 62
     1
 10
99.700000000000003
 20
89.321428570999998
 30
0.0
 11
99.500000000000014
 21
89.150000000000006
 31
0.0
  0
LINE
  5
407
  8
0
  6
CONTINUOUS
 62
     1
 10
100.2
 20
89.749999999999986
 30
0.0
 11
100.09999999999989
 21
89.664285713999988
 31
0.0
  0
LINE
  5
408
  8
0
  6
CONTINUOUS
 62
     1
 10
98.534374999999997
 20
83.125
 30
0.0
 11
99.396874999999994
 21
89.025000000000006
 31
0.0
  0
LINE
  5
409
  8
0
  6
CONTINUOUS
 62
     1
 10
101.09999999999989
 20
88.349999999999994
 30
0.0
 11
105.8
 21
88.349999999999994
 31
0.0
  0
LINE
  5
40A
  8
0
  6
CONTINUOUS
 62
     1
 10
105.7468749999999
 20
87.825000000000003
 30
0.0
 11
105.1093749999999
 21
83.724999999999994
 31
0.0
  0
LINE
  5
40B
  8
0
  6
CONTINUOUS
 62
     1
 10
107.2
 20
89.464285713999999
 30
0.0
 11
107.40000000000001
 21
89.349999999999994
 31
0.0
  0
LINE
  5
40C
  8
0
  6
CONTINUOUS
 62
     1
 10
106.6999999999999
 20
89.749999999999986
 30
0.0
 11
106.8
 21
89.692857142999983
 31
0.0
  0
LINE
  5
40D
  8
0
  6
CONTINUOUS
 62
     1
 10
100.2999999999999
 20
89.849999999999994
 30
0.0
 11
106.59999999999999
 21
89.849999999999994
 31
0.0
  0
LINE
  5
40E
  8
0
  6
CONTINUOUS
 62
     1
 10
107.434375
 20
89.325000000000003
 30
0.0
 11
106.484375
 21
82.724999999999994
 31
0.0
  0
LINE
  5
40F
  8
0
  6
CONTINUOUS
 62
     1
 10
89.500000000000014
 20
83.549999999999997
 30
0.0
 11
87.200000000000003
 21
83.549999999999997
 31
0.0
  0
LINE
  5
410
  8
0
  6
CONTINUOUS
 62
     1
 10
87.099999999999994
 20
82.049999999999997
 30
0.0
 11
92.099999999999994
 21
82.049999999999997
 31
0.0
  0
LINE
  5
411
  8
0
  6
CONTINUOUS
 62
     1
 10
92.099999999999994
 20
83.75
 30
0.0
 11
93.400000000000006
 21
82.75
 31
0.0
  0
LINE
  5
412
  8
0
  6
CONTINUOUS
 62
     1
 10
92.0
 20
83.450000000000003
 30
0.0
 11
93.299999999999997
 21
82.450000000000003
 31
0.0
  0
LINE
  5
413
  8
0
  6
CONTINUOUS
 62
     1
 10
93.299999999999997
 20
82.450000000000003
 30
0.0
 11
91.900000000000006
 21
82.049999999999997
 31
0.0
  0
LINE
  5
414
  8
0
  6
CONTINUOUS
 62
     1
 10
91.900000000000006
 20
81.75
 30
0.0
 11
93.400000000000006
 21
82.150000000000006
 31
0.0
  0
LINE
  5
415
  8
0
  6
CONTINUOUS
 62
     1
 10
91.900000000000006
 20
83.549999999999997
 30
0.0
 11
89.599999999999994
 21
83.549999999999997
 31
0.0
  0
LINE
  5
416
  8
0
  6
CONTINUOUS
 62
     1
 10
94.099999999999994
 20
89.450000000000003
 30
0.0
 11
92.900000000000006
 21
87.949999999999989
 31
0.0
  0
LINE
  5
417
  8
0
  6
CONTINUOUS
 62
     1
 10
92.746875000000003
 20
87.825000000000003
 30
0.0
 11
92.109375
 21
83.724999999999994
 31
0.0
  0
LINE
  5
418
  8
0
  6
CONTINUOUS
 62
     1
 10
94.199999999999989
 20
89.464285713999999
 30
0.0
 11
94.400000000000006
 21
89.349999999999994
 31
0.0
  0
LINE
  5
419
  8
0
  6
CONTINUOUS
 62
     1
 10
94.434374999999989
 20
89.325000000000003
 30
0.0
 11
93.484375000000014
 21
82.724999999999994
 31
0.0
  0
POINT
  5
41A
  8
0
  6
CONTINUOUS
 62
     1
 10
99.0
 20
75.849999999999994
 30
0.0
  0
LINE
  5
41B
  8
0
  6
CONTINUOUS
 62
     1
 10
104.2
 20
77.549999999999983
 30
0.0
 11
105.2999999999999
 21
76.450000000000003
 31
0.0
  0
LINE
  5
41C
  8
0
  6
CONTINUOUS
 62
     1
 10
104.0
 20
77.349999999999994
 30
0.0
 11
105.09999999999989
 21
76.25
 31
0.0
  0
LINE
  5
41D
  8
0
  6
CONTINUOUS
 62
     1
 10
99.200000000000017
 20
77.549999999999983
 30
0.0
 11
97.800000000000011
 21
76.549999999999997
 31
0.0
  0
LINE
  5
41E
  8
0
  6
CONTINUOUS
 62
     1
 10
98.0
 20
76.349999999999994
 30
0.0
 11
99.200000000000017
 21
77.25
 31
0.0
  0
LINE
  5
41F
  8
0
  6
CONTINUOUS
 62
     1
 10
97.612499999999997
 20
76.75
 30
0.0
 11
98.500000000000014
 21
82.849999999999994
 31
0.0
  0
LINE
  5
420
  8
0
  6
CONTINUOUS
 62
     1
 10
97.933333332999993
 20
76.25
 30
0.0
 11
98.200000000000003
 21
75.849999999999994
 31
0.0
  0
LINE
  5
421
  8
0
  6
CONTINUOUS
 62
     1
 10
97.599999999999994
 20
76.75
 30
0.0
 11
97.800000000000011
 21
76.450000000000003
 31
0.0
  0
LINE
  5
422
  8
0
  6
CONTINUOUS
 62
     1
 10
104.0
 20
77.349999999999994
 30
0.0
 11
99.200000000000017
 21
77.349999999999994
 31
0.0
  0
LINE
  5
423
  8
0
  6
CONTINUOUS
 62
     1
 10
105.2999999999999
 20
76.394444444000001
 30
0.0
 11
105.4999999999999
 21
76.549999999999997
 31
0.0
  0
LINE
  5
424
  8
0
  6
CONTINUOUS
 62
     1
 10
104.59999999999999
 20
75.849999999999994
 30
0.0
 11
105.09999999999989
 21
76.238888888999995
 31
0.0
  0
LINE
  5
425
  8
0
  6
CONTINUOUS
 62
     1
 10
104.59999999999999
 20
75.849999999999994
 30
0.0
 11
98.099999999999994
 21
75.849999999999994
 31
0.0
  0
LINE
  5
426
  8
0
  6
CONTINUOUS
 62
     1
 10
106.409375
 20
82.125
 30
0.0
 11
105.58437499999989
 21
76.525000000000006
 31
0.0
  0
LINE
  5
427
  8
0
  6
CONTINUOUS
 62
     1
 10
91.200000000000003
 20
77.549999999999983
 30
0.0
 11
92.299999999999997
 21
76.450000000000003
 31
0.0
  0
LINE
  5
428
  8
0
  6
CONTINUOUS
 62
     1
 10
92.299999999999997
 20
76.394444444000001
 30
0.0
 11
92.5
 21
76.549999999999997
 31
0.0
  0
LINE
  5
429
  8
0
  6
CONTINUOUS
 62
     1
 10
93.409374999999997
 20
82.125
 30
0.0
 11
92.584374999999994
 21
76.525000000000006
 31
0.0
  0
LINE
  5
42A
  8
0
  6
CONTINUOUS
 62
     1
 10
91.75
 20
81.599999999999994
 30
0.0
 11
91.25
 21
77.599999999999994
 31
0.0
  0
LINE
  5
42B
  8
0
  6
CONTINUOUS
 62
     1
 10
99.25
 20
77.599999999999994
 30
0.0
 11
99.750000000000014
 21
81.599999999999994
 31
0.0
  0
LINE
  5
42C
  8
0
  6
CONTINUOUS
 62
     1
 10
104.2499999999999
 20
77.599999999999994
 30
0.0
 11
104.75
 21
81.599999999999994
 31
0.0
  0
LINE
  5
42D
  8
0
  6
CONTINUOUS
 62
     1
 10
87.099999999999994
 20
83.549999999999997
 30
0.0
 11
85.799999999999997
 21
82.949999999999989
 31
0.0
  0
LINE
  5
42E
  8
0
  6
CONTINUOUS
 62
     1
 10
85.799999999999997
 20
82.949999999999989
 30
0.0
 11
87.0
 21
82.049999999999997
 31
0.0
  0
LINE
  5
42F
  8
0
  6
CONTINUOUS
 62
     1
 10
128.49999999999989
 20
83.549999999999997
 30
0.0
 11
126.2
 21
83.549999999999997
 31
0.0
  0
LINE
  5
430
  8
0
  6
CONTINUOUS
 62
     1
 10
126.09999999999989
 20
82.049999999999997
 30
0.0
 11
131.09999999999991
 21
82.049999999999997
 31
0.0
  0
LINE
  5
431
  8
0
  6
CONTINUOUS
 62
     1
 10
131.09999999999991
 20
83.75
 30
0.0
 11
132.40000000000001
 21
82.75
 31
0.0
  0
LINE
  5
432
  8
0
  6
CONTINUOUS
 62
     1
 10
131.0
 20
83.450000000000003
 30
0.0
 11
132.30000000000001
 21
82.450000000000003
 31
0.0
  0
LINE
  5
433
  8
0
  6
CONTINUOUS
 62
     1
 10
132.30000000000001
 20
82.450000000000003
 30
0.0
 11
130.90000000000001
 21
82.049999999999997
 31
0.0
  0
LINE
  5
434
  8
0
  6
CONTINUOUS
 62
     1
 10
130.90000000000001
 20
81.75
 30
0.0
 11
132.40000000000001
 21
82.150000000000006
 31
0.0
  0
LINE
  5
435
  8
0
  6
CONTINUOUS
 62
     1
 10
126.09999999999989
 20
83.549999999999997
 30
0.0
 11
124.7999999999999
 21
82.949999999999989
 31
0.0
  0
LINE
  5
436
  8
0
  6
CONTINUOUS
 62
     1
 10
124.7999999999999
 20
82.949999999999989
 30
0.0
 11
126.0
 21
82.049999999999997
 31
0.0
  0
LINE
  5
437
  8
0
  6
CONTINUOUS
 62
     1
 10
125.8
 20
81.849999999999994
 30
0.0
 11
124.5
 21
82.75
 31
0.0
  0
LINE
  5
438
  8
0
  6
CONTINUOUS
 62
     1
 10
124.59999999999989
 20
83.150000000000006
 30
0.0
 11
126.09999999999989
 21
83.950000000000017
 31
0.0
  0
LINE
  5
439
  8
0
  6
CONTINUOUS
 62
     1
 10
130.90000000000001
 20
83.549999999999997
 30
0.0
 11
128.59999999999999
 21
83.549999999999997
 31
0.0
  0
POINT
  5
43A
  8
0
  6
CONTINUOUS
 62
     1
 10
132.0
 20
89.849999999999994
 30
0.0
  0
LINE
  5
43B
  8
0
  6
CONTINUOUS
 62
     1
 10
133.09999999999991
 20
89.450000000000003
 30
0.0
 11
131.90000000000001
 21
87.949999999999989
 31
0.0
  0
LINE
  5
43C
  8
0
  6
CONTINUOUS
 62
     1
 10
126.8
 20
88.049999999999983
 30
0.0
 11
125.8
 21
89.349999999999994
 31
0.0
  0
LINE
  5
43D
  8
0
  6
CONTINUOUS
 62
     1
 10
126.159375
 20
84.124999999999986
 30
0.0
 11
126.77187499999999
 21
88.025000000000006
 31
0.0
  0
LINE
  5
43E
  8
0
  6
CONTINUOUS
 62
     1
 10
125.7
 20
89.321428570999998
 30
0.0
 11
125.5
 21
89.150000000000006
 31
0.0
  0
LINE
  5
43F
  8
0
  6
CONTINUOUS
 62
     1
 10
126.2
 20
89.749999999999986
 30
0.0
 11
126.09999999999989
 21
89.664285713999988
 31
0.0
  0
LINE
  5
440
  8
0
  6
CONTINUOUS
 62
     1
 10
124.5343749999999
 20
83.125
 30
0.0
 11
125.39687499999999
 21
89.025000000000006
 31
0.0
  0
LINE
  5
441
  8
0
  6
CONTINUOUS
 62
     1
 10
131.7468749999999
 20
87.825000000000003
 30
0.0
 11
131.10937499999989
 21
83.724999999999994
 31
0.0
  0
LINE
  5
442
  8
0
  6
CONTINUOUS
 62
     1
 10
133.1999999999999
 20
89.464285713999999
 30
0.0
 11
133.40000000000001
 21
89.349999999999994
 31
0.0
  0
LINE
  5
443
  8
0
  6
CONTINUOUS
 62
     1
 10
126.2999999999999
 20
89.849999999999994
 30
0.0
 11
132.59999999999999
 21
89.849999999999994
 31
0.0
  0
LINE
  5
444
  8
0
  6
CONTINUOUS
 62
     1
 10
133.4343749999999
 20
89.325000000000003
 30
0.0
 11
132.484375
 21
82.724999999999994
 31
0.0
  0
LINE
  5
445
  8
0
  6
CONTINUOUS
 62
     1
 10
118.09999999999999
 20
83.75
 30
0.0
 11
119.40000000000001
 21
82.75
 31
0.0
  0
LINE
  5
446
  8
0
  6
CONTINUOUS
 62
     1
 10
118.0
 20
83.450000000000003
 30
0.0
 11
119.3
 21
82.450000000000003
 31
0.0
  0
LINE
  5
447
  8
0
  6
CONTINUOUS
 62
     1
 10
119.3
 20
82.450000000000003
 30
0.0
 11
117.90000000000001
 21
82.049999999999997
 31
0.0
  0
LINE
  5
448
  8
0
  6
CONTINUOUS
 62
     1
 10
117.90000000000001
 20
81.75
 30
0.0
 11
119.40000000000001
 21
82.150000000000006
 31
0.0
  0
LINE
  5
449
  8
0
  6
CONTINUOUS
 62
     1
 10
117.90000000000001
 20
83.549999999999997
 30
0.0
 11
115.59999999999989
 21
83.549999999999997
 31
0.0
  0
POINT
  5
44A
  8
0
  6
CONTINUOUS
 62
     1
 10
119.0
 20
89.849999999999994
 30
0.0
  0
LINE
  5
44B
  8
0
  6
CONTINUOUS
 62
     1
 10
118.7
 20
88.349999999999994
 30
0.0
 11
119.7
 21
89.549999999999997
 31
0.0
  0
LINE
  5
44C
  8
0
  6
CONTINUOUS
 62
     1
 10
120.09999999999999
 20
89.450000000000003
 30
0.0
 11
118.90000000000001
 21
87.949999999999989
 31
0.0
  0
LINE
  5
44D
  8
0
  6
CONTINUOUS
 62
     1
 10
114.09999999999999
 20
88.349999999999994
 30
0.0
 11
118.7999999999999
 21
88.349999999999994
 31
0.0
  0
LINE
  5
44E
  8
0
  6
CONTINUOUS
 62
     1
 10
118.746875
 20
87.825000000000003
 30
0.0
 11
118.109375
 21
83.724999999999994
 31
0.0
  0
LINE
  5
44F
  8
0
  6
CONTINUOUS
 62
     1
 10
120.1999999999999
 20
89.464285713999999
 30
0.0
 11
120.40000000000001
 21
89.349999999999994
 31
0.0
  0
LINE
  5
450
  8
0
  6
CONTINUOUS
 62
     1
 10
119.7
 20
89.749999999999986
 30
0.0
 11
119.7999999999999
 21
89.692857142999983
 31
0.0
  0
LINE
  5
451
  8
0
  6
CONTINUOUS
 62
     1
 10
120.434375
 20
89.325000000000003
 30
0.0
 11
119.4843749999999
 21
82.724999999999994
 31
0.0
  0
POINT
  5
452
  8
0
  6
CONTINUOUS
 62
     1
 10
125.0
 20
75.849999999999994
 30
0.0
  0
LINE
  5
453
  8
0
  6
CONTINUOUS
 62
     1
 10
130.1999999999999
 20
77.549999999999983
 30
0.0
 11
131.30000000000001
 21
76.450000000000003
 31
0.0
  0
LINE
  5
454
  8
0
  6
CONTINUOUS
 62
     1
 10
130.0
 20
77.349999999999994
 30
0.0
 11
131.09999999999991
 21
76.25
 31
0.0
  0
LINE
  5
455
  8
0
  6
CONTINUOUS
 62
     1
 10
125.2
 20
77.549999999999983
 30
0.0
 11
123.7999999999999
 21
76.549999999999997
 31
0.0
  0
LINE
  5
456
  8
0
  6
CONTINUOUS
 62
     1
 10
124.0
 20
76.349999999999994
 30
0.0
 11
125.2
 21
77.25
 31
0.0
  0
LINE
  5
457
  8
0
  6
CONTINUOUS
 62
     1
 10
123.6124999999999
 20
76.75
 30
0.0
 11
124.5
 21
82.849999999999994
 31
0.0
  0
LINE
  5
458
  8
0
  6
CONTINUOUS
 62
     1
 10
123.93333333299999
 20
76.25
 30
0.0
 11
124.1999999999999
 21
75.849999999999994
 31
0.0
  0
LINE
  5
459
  8
0
  6
CONTINUOUS
 62
     1
 10
123.59999999999989
 20
76.75
 30
0.0
 11
123.7999999999999
 21
76.450000000000003
 31
0.0
  0
LINE
  5
45A
  8
0
  6
CONTINUOUS
 62
     1
 10
130.0
 20
77.349999999999994
 30
0.0
 11
125.2
 21
77.349999999999994
 31
0.0
  0
LINE
  5
45B
  8
0
  6
CONTINUOUS
 62
     1
 10
131.30000000000001
 20
76.394444444000001
 30
0.0
 11
131.49999999999989
 21
76.549999999999997
 31
0.0
  0
LINE
  5
45C
  8
0
  6
CONTINUOUS
 62
     1
 10
130.59999999999999
 20
75.849999999999994
 30
0.0
 11
131.09999999999991
 21
76.238888888999995
 31
0.0
  0
LINE
  5
45D
  8
0
  6
CONTINUOUS
 62
     1
 10
130.59999999999999
 20
75.849999999999994
 30
0.0
 11
124.09999999999989
 21
75.849999999999994
 31
0.0
  0
LINE
  5
45E
  8
0
  6
CONTINUOUS
 62
     1
 10
132.40937500000001
 20
82.125
 30
0.0
 11
131.58437499999991
 21
76.525000000000006
 31
0.0
  0
LINE
  5
45F
  8
0
  6
CONTINUOUS
 62
     1
 10
117.2
 20
77.549999999999983
 30
0.0
 11
118.3
 21
76.450000000000003
 31
0.0
  0
LINE
  5
460
  8
0
  6
CONTINUOUS
 62
     1
 10
117.0
 20
77.349999999999994
 30
0.0
 11
118.09999999999999
 21
76.25
 31
0.0
  0
LINE
  5
461
  8
0
  6
CONTINUOUS
 62
     1
 10
117.0
 20
77.349999999999994
 30
0.0
 11
112.2
 21
77.349999999999994
 31
0.0
  0
LINE
  5
462
  8
0
  6
CONTINUOUS
 62
     1
 10
118.3
 20
76.394444444000001
 30
0.0
 11
118.5
 21
76.549999999999997
 31
0.0
  0
LINE
  5
463
  8
0
  6
CONTINUOUS
 62
     1
 10
117.59999999999989
 20
75.849999999999994
 30
0.0
 11
118.09999999999999
 21
76.238888888999995
 31
0.0
  0
LINE
  5
464
  8
0
  6
CONTINUOUS
 62
     1
 10
119.4093749999999
 20
82.125
 30
0.0
 11
118.58437499999989
 21
76.525000000000006
 31
0.0
  0
LINE
  5
465
  8
0
  6
CONTINUOUS
 62
     1
 10
117.7499999999999
 20
81.599999999999994
 30
0.0
 11
117.25
 21
77.599999999999994
 31
0.0
  0
LINE
  5
466
  8
0
  6
CONTINUOUS
 62
     1
 10
130.75
 20
81.599999999999994
 30
0.0
 11
130.24999999999989
 21
77.599999999999994
 31
0.0
  0
LINE
  5
467
  8
0
  6
CONTINUOUS
 62
     1
 10
125.75
 20
81.849999999999994
 30
0.0
 11
125.2499999999999
 21
77.849999999999994
 31
0.0
  0
LINE
  5
468
  8
0
  6
CONTINUOUS
 62
     1
 10
127.09999999999989
 20
88.349999999999994
 30
0.0
 11
131.6999999999999
 21
88.349999999999994
 31
0.0
  0
LINE
  5
469
  8
0
  6
CONTINUOUS
 62
     1
 10
127.08181818200001
 20
88.349999999999994
 30
0.0
 11
126.09999999999989
 21
89.549999999999997
 31
0.0
  0
LINE
  5
46A
  8
0
  6
CONTINUOUS
 62
     1
 10
131.6999999999999
 20
88.349999999999994
 30
0.0
 11
132.783333333
 21
89.650000000000006
 31
0.0
  0
LINE
  5
46B
  8
0
  6
CONTINUOUS
 62
     1
 10
132.59999999999999
 20
89.807142857000017
 30
0.0
 11
132.80000000000001
 21
89.692857142999983
 31
0.0
  0
LINE
  5
46C
  8
0
  6
CONTINUOUS
 62
     1
 10
112.2
 20
77.549999999999983
 30
0.0
 11
110.8
 21
76.549999999999997
 31
0.0
  0
LINE
  5
46D
  8
0
  6
CONTINUOUS
 62
     1
 10
111.0
 20
76.349999999999994
 30
0.0
 11
112.2
 21
77.25
 31
0.0
  0
LINE
  5
46E
  8
0
  6
CONTINUOUS
 62
     1
 10
110.6125
 20
76.75
 30
0.0
 11
111.4999999999999
 21
82.849999999999994
 31
0.0
  0
LINE
  5
46F
  8
0
  6
CONTINUOUS
 62
     1
 10
110.93333333299989
 20
76.25
 30
0.0
 11
111.2
 21
75.849999999999994
 31
0.0
  0
LINE
  5
470
  8
0
  6
CONTINUOUS
 62
     1
 10
110.59999999999989
 20
76.75
 30
0.0
 11
110.8
 21
76.450000000000003
 31
0.0
  0
LINE
  5
471
  8
0
  6
CONTINUOUS
 62
     1
 10
117.59999999999989
 20
75.849999999999994
 30
0.0
 11
111.09999999999989
 21
75.849999999999994
 31
0.0
  0
LINE
  5
472
  8
0
  6
CONTINUOUS
 62
     1
 10
112.25
 20
77.599999999999994
 30
0.0
 11
112.7499999999999
 21
81.599999999999994
 31
0.0
  0
LINE
  5
473
  8
0
  6
CONTINUOUS
 62
     1
 10
113.09999999999999
 20
83.549999999999997
 30
0.0
 11
111.8
 21
82.949999999999989
 31
0.0
  0
LINE
  5
474
  8
0
  6
CONTINUOUS
 62
     1
 10
111.8
 20
82.949999999999989
 30
0.0
 11
113.0
 21
82.049999999999997
 31
0.0
  0
LINE
  5
475
  8
0
  6
CONTINUOUS
 62
     1
 10
112.7999999999999
 20
81.849999999999994
 30
0.0
 11
111.4999999999999
 21
82.75
 31
0.0
  0
LINE
  5
476
  8
0
  6
CONTINUOUS
 62
     1
 10
111.59999999999989
 20
83.150000000000006
 30
0.0
 11
113.09999999999999
 21
83.950000000000017
 31
0.0
  0
LINE
  5
477
  8
0
  6
CONTINUOUS
 62
     1
 10
115.5
 20
83.549999999999997
 30
0.0
 11
113.2
 21
83.549999999999997
 31
0.0
  0
LINE
  5
478
  8
0
  6
CONTINUOUS
 62
     1
 10
113.09999999999999
 20
82.049999999999997
 30
0.0
 11
118.09999999999999
 21
82.049999999999997
 31
0.0
  0
LINE
  5
479
  8
0
  6
CONTINUOUS
 62
     1
 10
113.1593749999999
 20
84.124999999999986
 30
0.0
 11
113.77187499999989
 21
88.025000000000006
 31
0.0
  0
LINE
  5
47A
  8
0
  6
CONTINUOUS
 62
     1
 10
111.534375
 20
83.125
 30
0.0
 11
112.39687499999989
 21
89.025000000000006
 31
0.0
  0
LINE
  5
47B
  8
0
  6
CONTINUOUS
 62
     1
 10
112.7
 20
89.321428570999998
 30
0.0
 11
112.5
 21
89.150000000000006
 31
0.0
  0
LINE
  5
47C
  8
0
  6
CONTINUOUS
 62
     1
 10
113.2
 20
89.749999999999986
 30
0.0
 11
113.09999999999999
 21
89.664285713999988
 31
0.0
  0
LINE
  5
47D
  8
0
  6
CONTINUOUS
 62
     1
 10
114.0
 20
88.450000000000003
 30
0.0
 11
113.09999999999999
 21
89.549999999999997
 31
0.0
  0
LINE
  5
47E
  8
0
  6
CONTINUOUS
 62
     1
 10
113.7999999999999
 20
88.049999999999983
 30
0.0
 11
112.7999999999999
 21
89.349999999999994
 31
0.0
  0
LINE
  5
47F
  8
0
  6
CONTINUOUS
 62
     1
 10
113.3
 20
89.849999999999994
 30
0.0
 11
119.59999999999989
 21
89.849999999999994
 31
0.0
  0
LINE
  5
480
  8
0
  6
CONTINUOUS
 62
     1
 10
112.0
 20
98.500000000000014
 30
0.0
 11
157.0
 21
98.500000000000014
 31
0.0
  0
LINE
  5
481
  8
0
  6
CONTINUOUS
 62
     1
 10
67.0
 20
97.0
 30
0.0
 11
157.0
 21
97.0
 31
0.0
  0
LINE
  5
482
  8
0
  6
CONTINUOUS
 62
     1
 10
157.0
 20
96.5
 30
0.0
 11
67.0
 21
96.5
 31
0.0
  0
LINE
  5
483
  8
0
  6
CONTINUOUS
 62
     1
 10
160.0
 20
107.0
 30
0.0
 11
64.0
 21
107.0
 31
0.0
  0
LINE
  5
484
  8
0
  6
CONTINUOUS
 62
     1
 10
160.0
 20
106.4999999999999
 30
0.0
 11
64.0
 21
106.4999999999999
 31
0.0
  0
LINE
  5
485
  8
0
  6
CONTINUOUS
 62
     1
 10
64.0
 20
122.0
 30
0.0
 11
160.0
 21
122.0
 31
0.0
  0
LINE
  5
488
  8
0
  6
CONTINUOUS
 62
     1
 10
160.0
 20
127.0
 30
0.0
 11
160.0
 21
128.49999999999989
 31
0.0
  0
LINE
  5
489
  8
0
  6
CONTINUOUS
 62
     1
 10
160.0
 20
122.0
 30
0.0
 11
160.0
 21
127.0
 31
0.0
  0
LINE
  5
48B
  8
0
  6
CONTINUOUS
 62
     1
 10
64.0
 20
127.0
 30
0.0
 11
160.0
 21
127.0
 31
0.0
  0
LINE
  5
48C
  8
0
  6
CONTINUOUS
 62
     1
 10
160.0
 20
128.49999999999989
 30
0.0
 11
64.0
 21
128.49999999999989
 31
0.0
  0
LINE
  5
48D
  8
0
  6
CONTINUOUS
 62
     1
 10
160.0
 20
127.0
 30
0.0
 11
64.0
 21
127.0
 31
0.0
  0
LINE
  5
48E
  8
0
  6
CONTINUOUS
 62
     1
 10
160.0
 20
127.0
 30
0.0
 11
64.0
 21
127.0
 31
0.0
  0
LINE
  5
48F
  8
0
  6
CONTINUOUS
 62
     1
 10
64.0
 20
128.49999999999989
 30
0.0
 11
160.0
 21
128.49999999999989
 31
0.0
  0
LINE
  5
490
  8
0
  6
CONTINUOUS
 62
     1
 10
64.0
 20
127.0
 30
0.0
 11
160.0
 21
127.0
 31
0.0
  0
LINE
  5
491
  8
0
  6
CONTINUOUS
 62
     1
 10
158.0
 20
148.5
 30
0.0
 11
159.80000000000001
 21
143.6999999999999
 31
0.0
  0
LINE
  5
492
  8
0
  6
CONTINUOUS
 62
     1
 10
159.80000000000001
 20
143.6999999999999
 30
0.0
 11
161.59999999999991
 21
140.6999999999999
 31
0.0
  0
LINE
  5
493
  8
0
  6
CONTINUOUS
 62
     1
 10
158.0
 20
128.49999999999989
 30
0.0
 11
157.6999999999999
 21
175.0
 31
0.0
  0
LINE
  5
494
  8
0
  6
CONTINUOUS
 62
     1
 10
161.59999999999991
 20
140.6999999999999
 30
0.0
 11
163.1999999999999
 21
138.69999999999999
 31
0.0
  0
LINE
  5
495
  8
0
  6
CONTINUOUS
 62
     1
 10
163.1999999999999
 20
138.69999999999999
 30
0.0
 11
158.0
 21
128.49999999999989
 31
0.0
  0
LINE
  5
497
  8
0
  6
CONTINUOUS
 62
     1
 10
81.299999999999997
 20
178.0
 30
0.0
 11
81.299999999999997
 21
175.0
 31
0.0
  0
LINE
  5
498
  8
0
  6
CONTINUOUS
 62
     1
 10
75.299999999999997
 20
175.0
 30
0.0
 11
75.299999999999997
 21
178.0
 31
0.0
  0
LINE
  5
499
  8
0
  6
CONTINUOUS
 62
     1
 10
75.299999999999997
 20
178.0
 30
0.0
 11
81.299999999999997
 21
178.0
 31
0.0
  0
LINE
  5
49A
  8
0
  6
CONTINUOUS
 62
     1
 10
157.1999999999999
 20
178.0
 30
0.0
 11
151.19999999999999
 21
178.0
 31
0.0
  0
LINE
  5
49B
  8
0
  6
CONTINUOUS
 62
     1
 10
148.6999999999999
 20
178.0
 30
0.0
 11
142.6999999999999
 21
178.0
 31
0.0
  0
LINE
  5
49C
  8
0
  6
CONTINUOUS
 62
     1
 10
151.19999999999999
 20
178.0
 30
0.0
 11
151.19999999999999
 21
175.0
 31
0.0
  0
LINE
  5
49D
  8
0
  6
CONTINUOUS
 62
     1
 10
148.6999999999999
 20
178.0
 30
0.0
 11
148.6999999999999
 21
175.0
 31
0.0
  0
LINE
  5
49E
  8
0
  6
CONTINUOUS
 62
     1
 10
142.6999999999999
 20
178.0
 30
0.0
 11
142.6999999999999
 21
175.0
 31
0.0
  0
LINE
  5
49F
  8
0
  6
CONTINUOUS
 62
     1
 10
157.1999999999999
 20
175.0
 30
0.0
 11
157.19718361497499
 21
177.93799374296211
 31
0.0
  0
LINE
  5
4A0
  8
0
  6
CONTINUOUS
 62
     1
 10
66.799999999999983
 20
178.0
 30
0.0
 11
72.799999999999997
 21
178.0
 31
0.0
  0
LINE
  5
4A1
  8
0
  6
CONTINUOUS
 62
     1
 10
72.799999999999997
 20
178.0
 30
0.0
 11
72.799999999999997
 21
175.0
 31
0.0
  0
LINE
  5
4A2
  8
0
  6
CONTINUOUS
 62
     1
 10
66.0
 20
128.49999999999989
 30
0.0
 11
66.299999999999983
 21
175.0
 31
0.0
  0
LINE
  5
4A3
  8
0
  6
CONTINUOUS
 62
     1
 10
66.799999999999983
 20
175.0
 30
0.0
 11
66.799999999999983
 21
178.0
 31
0.0
  0
LINE
  5
4A4
  8
0
  6
CONTINUOUS
 62
     1
 10
66.299999999999983
 20
175.0
 30
0.0
 11
157.6999999999999
 21
175.0
 31
0.0
  0
LINE
  5
516
  8
0
  6
CONTINUOUS
 62
     1
 10
105.4999999999999
 20
175.0
 30
0.0
 11
105.4999999999999
 21
186.0
 31
0.0
  0
LINE
  5
517
  8
0
  6
CONTINUOUS
 62
     1
 10
147.5
 20
186.0
 30
0.0
 11
147.5
 21
178.0
 31
0.0
  0
LINE
  5
518
  8
0
  6
CONTINUOUS
 62
     1
 10
105.4999999999999
 20
189.0
 30
0.0
 11
147.5
 21
189.0
 31
0.0
  0
LINE
  5
519
  8
0
  6
CONTINUOUS
 62
     1
 10
147.5
 20
189.0
 30
0.0
 11
147.5
 21
186.0
 31
0.0
  0
LINE
  5
51A
  8
0
  6
CONTINUOUS
 62
     1
 10
105.4999999999999
 20
189.0
 30
0.0
 11
105.4999999999999
 21
186.0
 31
0.0
  0
LINE
  5
51B
  8
2
  6
CONTINUOUS
 62
     4
 10
62.5
 20
122.0
 30
0.0
 11
41.0
 21
122.0
 31
0.0
  0
LINE
  5
51C
  8
2
  6
CONTINUOUS
 62
     4
 10
42.0
 20
122.0
 30
0.0
 11
42.388228568000002
 21
123.4488887389999
 31
0.0
  0
LINE
  5
51D
  8
2
  6
CONTINUOUS
 62
     4
 10
42.0
 20
122.0
 30
0.0
 11
41.611771431999991
 21
123.4488887389999
 31
0.0
  0
LINE
  5
51E
  8
2
  6
CONTINUOUS
 62
     4
 10
42.0
 20
122.0
 30
0.0
 11
42.0
 21
189.0
 31
0.0
  0
LINE
  5
51F
  8
2
  6
CONTINUOUS
 62
     4
 10
42.0
 20
189.0
 30
0.0
 11
41.611771431999991
 21
187.5511112609999
 31
0.0
  0
LINE
  5
520
  8
2
  6
CONTINUOUS
 62
     4
 10
42.0
 20
189.0
 30
0.0
 11
42.388228568000002
 21
187.5511112609999
 31
0.0
  0
LINE
  5
521
  8
2
  6
CONTINUOUS
 62
     4
 10
104.0
 20
189.0
 30
0.0
 11
41.0
 21
189.0
 31
0.0
  0
TEXT
  5
522
  8
2
  6
CONTINUOUS
 62
     4
 10
41.0
 20
152.53999999999991
 30
0.0
 40
2.0
  1
67
 50
90.0
 41
0.925
  7
KANJI5
  0
LINE
  5
AB1
  8
0
  6
CONTINUOUS
 62
     4
 10
207.19999999999999
 20
121.1999999999999
 30
0.0
 11
207.19999999999999
 21
107.4999999999999
 31
0.0
  0
LINE
  5
AB2
  8
0
  6
CONTINUOUS
 62
     4
 10
207.19999999999999
 20
108.4999999999999
 30
0.0
 11
208.93866648700001
 21
108.0341257189999
 31
0.0
  0
LINE
  5
AB3
  8
0
  6
CONTINUOUS
 62
     4
 10
207.19999999999999
 20
108.4999999999999
 30
0.0
 11
208.93866648700001
 21
108.9658742809999
 31
0.0
  0
LINE
  5
AB4
  8
0
  6
CONTINUOUS
 62
     4
 10
207.19999999999999
 20
108.4999999999999
 30
0.0
 11
252.0
 21
108.4999999999999
 31
0.0
  0
LINE
  5
AB5
  8
0
  6
CONTINUOUS
 62
     4
 10
252.0
 20
108.4999999999999
 30
0.0
 11
250.2613335129999
 21
108.9658742809999
 31
0.0
  0
LINE
  5
AB6
  8
0
  6
CONTINUOUS
 62
     4
 10
252.0
 20
108.4999999999999
 30
0.0
 11
250.2613335129999
 21
108.0341257189999
 31
0.0
  0
LINE
  5
AB7
  8
0
  6
CONTINUOUS
 62
     4
 10
252.0
 20
121.1999999999999
 30
0.0
 11
252.0
 21
107.4999999999999
 31
0.0
  0
TEXT
  5
AB8
  8
0
  6
CONTINUOUS
 62
     4
 10
225.59999999999991
 20
109.4999999999999
 30
0.0
 40
2.0
  1
44.8
  7
KANJI7
  0
LINE
  5
AB9
  8
0
  6
CONTINUOUS
 62
     1
 10
229.59999999999991
 20
122.3
 30
0.0
 11
207.34999999999999
 21
122.3
 31
0.0
  0
LINE
  5
ABA
  8
0
  6
CONTINUOUS
 62
     1
 10
207.34999999999999
 20
122.3
 30
0.0
 11
207.34999999999999
 21
122.0
 31
0.0
  0
LINE
  5
ABB
  8
0
  6
CONTINUOUS
 62
     1
 10
207.34999999999999
 20
122.0
 30
0.0
 11
205.09999999999999
 21
122.0
 31
0.0
  0
LINE
  5
ABC
  8
0
  6
CONTINUOUS
 62
     1
 10
205.09999999999999
 20
122.0
 30
0.0
 11
204.59999999999991
 21
122.5
 31
0.0
  0
LINE
  5
ABD
  8
0
  6
CONTINUOUS
 62
     1
 10
204.59999999999991
 20
122.5
 30
0.0
 11
204.59999999999991
 21
127.0
 31
0.0
  0
LINE
  5
ABE
  8
0
  6
CONTINUOUS
 62
     1
 10
204.59999999999991
 20
127.0
 30
0.0
 11
204.59999999999991
 21
128.49999999999989
 31
0.0
  0
POINT
  5
ABF
  8
0
  6
CONTINUOUS
 62
     1
 10
204.59999999999991
 20
128.49999999999989
 30
0.0
  0
LINE
  5
AC0
  8
0
  6
CONTINUOUS
 62
     1
 10
204.59999999999991
 20
128.49999999999989
 30
0.0
 11
206.1999999999999
 21
128.49999999999989
 31
0.0
  0
POINT
  5
AC1
  8
0
  6
CONTINUOUS
 62
     1
 10
206.1999999999999
 20
128.49999999999989
 30
0.0
  0
LINE
  5
AC2
  8
0
  6
CONTINUOUS
 62
     1
 10
207.19999999999999
 20
131.1999999999999
 30
0.0
 11
207.19999999999999
 21
128.49999999999989
 31
0.0
  0
LINE
  5
AC3
  8
0
  6
CONTINUOUS
 62
     1
 10
254.59999999999991
 20
122.5
 30
0.0
 11
254.59999999999991
 21
127.0
 31
0.0
  0
LINE
  5
AC4
  8
0
  6
CONTINUOUS
 62
     1
 10
254.59999999999991
 20
127.0
 30
0.0
 11
254.59999999999991
 21
128.49999999999989
 31
0.0
  0
POINT
  5
AC5
  8
0
  6
CONTINUOUS
 62
     1
 10
254.59999999999991
 20
128.49999999999989
 30
0.0
  0
LINE
  5
AC6
  8
0
  6
CONTINUOUS
 62
     1
 10
254.59999999999991
 20
128.49999999999989
 30
0.0
 11
253.0
 21
128.49999999999989
 31
0.0
  0
POINT
  5
AC7
  8
0
  6
CONTINUOUS
 62
     1
 10
253.0
 20
128.49999999999989
 30
0.0
  0
LINE
  5
AC8
  8
0
  6
CONTINUOUS
 62
     1
 10
252.0
 20
128.49999999999989
 30
0.0
 11
252.0
 21
131.1999999999999
 31
0.0
  0
LINE
  5
AC9
  8
0
  6
CONTINUOUS
 62
     1
 10
251.84999999999991
 20
122.3
 30
0.0
 11
251.84999999999991
 21
122.0
 31
0.0
  0
LINE
  5
ACA
  8
0
  6
CONTINUOUS
 62
     1
 10
229.59999999999991
 20
122.3
 30
0.0
 11
251.84999999999991
 21
122.3
 31
0.0
  0
LINE
  5
ACB
  8
0
  6
CONTINUOUS
 62
     1
 10
251.84999999999991
 20
122.0
 30
0.0
 11
254.09999999999991
 21
122.0
 31
0.0
  0
LINE
  5
ACC
  8
0
  6
CONTINUOUS
 62
     1
 10
254.09999999999991
 20
122.0
 30
0.0
 11
254.59999999999991
 21
122.5
 31
0.0
  0
LINE
  5
ACD
  8
0
  6
CONTINUOUS
 62
     1
 10
252.0
 20
175.0
 30
0.0
 11
252.0
 21
131.1999999999999
 31
0.0
  0
LINE
  5
ACE
  8
0
  6
CONTINUOUS
 62
     1
 10
224.59999999999991
 20
128.59999999999999
 30
0.0
 11
234.59999999999999
 21
128.59999999999999
 31
0.0
  0
LINE
  5
ACF
  8
0
  6
CONTINUOUS
 62
     1
 10
239.59999999999991
 20
128.49999999999989
 30
0.0
 11
239.59999999999991
 21
146.5
 31
0.0
  0
LINE
  5
AD0
  8
0
  6
CONTINUOUS
 62
     1
 10
238.59999999999999
 20
128.49999999999989
 30
0.0
 11
238.59999999999999
 21
146.5
 31
0.0
  0
LINE
  5
AD1
  8
0
  6
CONTINUOUS
 62
     1
 10
219.59999999999999
 20
128.49999999999989
 30
0.0
 11
219.59999999999999
 21
146.5
 31
0.0
  0
LINE
  5
AD2
  8
0
  6
CONTINUOUS
 62
     1
 10
220.59999999999991
 20
146.5
 30
0.0
 11
220.59999999999991
 21
128.49999999999989
 31
0.0
  0
LINE
  5
AD3
  8
0
  6
CONTINUOUS
 62
     1
 10
220.59999999999991
 20
134.49999999999989
 30
0.0
 11
238.59999999999999
 21
134.49999999999989
 31
0.0
  0
LINE
  5
AD4
  8
0
  6
CONTINUOUS
 62
     1
 10
238.59999999999999
 20
134.0
 30
0.0
 11
220.59999999999991
 21
134.0
 31
0.0
  0
LINE
  5
AD5
  8
0
  6
CONTINUOUS
 62
     1
 10
220.59999999999991
 20
133.49999999999989
 30
0.0
 11
238.59999999999999
 21
133.49999999999989
 31
0.0
  0
LINE
  5
AD6
  8
0
  6
CONTINUOUS
 62
     1
 10
238.59999999999999
 20
133.0
 30
0.0
 11
220.59999999999991
 21
133.0
 31
0.0
  0
LINE
  5
AD7
  8
0
  6
CONTINUOUS
 62
     1
 10
220.59999999999991
 20
132.49999999999989
 30
0.0
 11
238.59999999999999
 21
132.49999999999989
 31
0.0
  0
LINE
  5
AD8
  8
0
  6
CONTINUOUS
 62
     1
 10
238.59999999999999
 20
132.0
 30
0.0
 11
220.59999999999991
 21
132.0
 31
0.0
  0
LINE
  5
AD9
  8
0
  6
CONTINUOUS
 62
     1
 10
220.59999999999991
 20
131.49999999999989
 30
0.0
 11
238.59999999999999
 21
131.49999999999989
 31
0.0
  0
LINE
  5
ADA
  8
0
  6
CONTINUOUS
 62
     1
 10
238.59999999999999
 20
131.0
 30
0.0
 11
220.59999999999991
 21
131.0
 31
0.0
  0
LINE
  5
ADB
  8
0
  6
CONTINUOUS
 62
     1
 10
220.59999999999991
 20
130.49999999999989
 30
0.0
 11
238.59999999999999
 21
130.49999999999989
 31
0.0
  0
LINE
  5
ADC
  8
0
  6
CONTINUOUS
 62
     1
 10
238.59999999999999
 20
130.0
 30
0.0
 11
220.59999999999991
 21
130.0
 31
0.0
  0
LINE
  5
ADD
  8
0
  6
CONTINUOUS
 62
     1
 10
220.59999999999991
 20
129.49999999999989
 30
0.0
 11
238.59999999999999
 21
129.49999999999989
 31
0.0
  0
LINE
  5
ADE
  8
0
  6
CONTINUOUS
 62
     1
 10
238.59999999999999
 20
129.0
 30
0.0
 11
220.59999999999991
 21
129.0
 31
0.0
  0
LINE
  5
ADF
  8
0
  6
CONTINUOUS
 62
     1
 10
206.1999999999999
 20
128.49999999999989
 30
0.0
 11
253.0
 21
128.49999999999989
 31
0.0
  0
LINE
  5
AE0
  8
0
  6
CONTINUOUS
 62
     1
 10
254.59999999999991
 20
127.0
 30
0.0
 11
204.59999999999991
 21
127.0
 31
0.0
  0
LINE
  5
AE1
  8
0
  6
CONTINUOUS
 62
     1
 10
206.1999999999999
 20
128.49999999999989
 30
0.0
 11
253.0
 21
128.49999999999989
 31
0.0
  0
LINE
  5
AE2
  8
0
  6
CONTINUOUS
 62
     1
 10
211.24999999999989
 20
178.0
 30
0.0
 11
211.24999999999989
 21
175.0
 31
0.0
  0
LINE
  5
AE3
  8
0
  6
CONTINUOUS
 62
     1
 10
207.19999999999999
 20
131.1999999999999
 30
0.0
 11
207.19999999999999
 21
175.0
 31
0.0
  0
ARC
  5
AE4
  8
0
  6
CONTINUOUS
 62
     1
 10
224.34999999999999
 20
163.0
 30
0.0
 40
1.0
 50
180.0
 51
284.477512187
  0
ARC
  5
AE5
  8
0
  6
CONTINUOUS
 62
     1
 10
219.09999999999991
 20
163.0
 30
0.0
 40
1.0
 50
180.0
 51
0.0
  0
ARC
  5
AE6
  8
0
  6
CONTINUOUS
 62
     1
 10
224.34999999999999
 20
163.0
 30
0.0
 40
1.0
 50
180.0
 51
0.0
  0
LINE
  5
AE7
  8
0
  6
CONTINUOUS
 62
     1
 10
218.09999999999999
 20
163.0
 30
0.0
 11
218.09999999999999
 21
175.0
 31
0.0
  0
LINE
  5
AE8
  8
0
  6
CONTINUOUS
 62
     1
 10
220.09999999999999
 20
163.0
 30
0.0
 11
220.09999999999999
 21
175.0
 31
0.0
  0
LINE
  5
AE9
  8
0
  6
CONTINUOUS
 62
     1
 10
223.34999999999991
 20
163.0
 30
0.0
 11
223.34999999999991
 21
175.0
 31
0.0
  0
LINE
  5
AEA
  8
0
  6
CONTINUOUS
 62
     1
 10
225.34999999999991
 20
163.0
 30
0.0
 11
225.34999999999991
 21
175.0
 31
0.0
  0
ARC
  5
AEB
  8
0
  6
CONTINUOUS
 62
     1
 10
234.84999999999999
 20
163.0
 30
0.0
 40
1.0
 50
180.0
 51
0.0
  0
LINE
  5
AEC
  8
0
  6
CONTINUOUS
 62
     1
 10
233.84999999999991
 20
163.0
 30
0.0
 11
233.84999999999991
 21
175.0
 31
0.0
  0
LINE
  5
AED
  8
0
  6
CONTINUOUS
 62
     1
 10
235.84999999999991
 20
163.0
 30
0.0
 11
235.84999999999991
 21
175.0
 31
0.0
  0
ARC
  5
AEE
  8
0
  6
CONTINUOUS
 62
     1
 10
229.59999999999991
 20
160.0
 30
0.0
 40
1.0
 50
180.0
 51
0.0
  0
LINE
  5
AEF
  8
0
  6
CONTINUOUS
 62
     1
 10
228.59999999999999
 20
160.0
 30
0.0
 11
228.59999999999999
 21
175.0
 31
0.0
  0
LINE
  5
AF0
  8
0
  6
CONTINUOUS
 62
     1
 10
230.59999999999999
 20
160.0
 30
0.0
 11
230.59999999999999
 21
175.0
 31
0.0
  0
LINE
  5
AF1
  8
0
  6
CONTINUOUS
 62
     1
 10
217.24999999999989
 20
175.0
 30
0.0
 11
217.24999999999989
 21
178.0
 31
0.0
  0
LINE
  5
AF2
  8
0
  6
CONTINUOUS
 62
     1
 10
217.24999999999989
 20
178.0
 30
0.0
 11
211.24999999999989
 21
178.0
 31
0.0
  0
ARC
  5
AF3
  8
0
  6
CONTINUOUS
 62
     1
 10
240.09999999999991
 20
163.0
 30
0.0
 40
1.0
 50
180.0
 51
0.0
  0
LINE
  5
AF4
  8
0
  6
CONTINUOUS
 62
     1
 10
239.09999999999999
 20
163.0
 30
0.0
 11
239.09999999999999
 21
175.0
 31
0.0
  0
LINE
  5
AF5
  8
0
  6
CONTINUOUS
 62
     1
 10
241.09999999999999
 20
163.0
 30
0.0
 11
241.09999999999999
 21
175.0
 31
0.0
  0
LINE
  5
AF6
  8
0
  6
CONTINUOUS
 62
     1
 10
241.9499999999999
 20
178.0
 30
0.0
 11
241.9499999999999
 21
175.0
 31
0.0
  0
LINE
  5
AF7
  8
0
  6
CONTINUOUS
 62
     1
 10
247.9499999999999
 20
178.0
 30
0.0
 11
241.9499999999999
 21
178.0
 31
0.0
  0
LINE
  5
AF8
  8
0
  6
CONTINUOUS
 62
     1
 10
247.9499999999999
 20
175.0
 30
0.0
 11
247.9499999999999
 21
178.0
 31
0.0
  0
LINE
  5
AF9
  8
0
  6
CONTINUOUS
 62
     1
 10
207.19999999999999
 20
175.0
 30
0.0
 11
252.0
 21
175.0
 31
0.0
  0
LINE
  5
AFA
  8
0
  6
CONTINUOUS
 62
     1
 10
243.4499999999999
 20
178.0
 30
0.0
 11
243.4499999999999
 21
190.0
 31
0.0
  0
LINE
  5
AFB
  8
0
  6
CONTINUOUS
 62
     1
 10
246.44999999999999
 20
190.0
 30
0.0
 11
246.44999999999999
 21
178.0
 31
0.0
  0
LINE
  5
AFC
  8
0
  6
CONTINUOUS
 62
     1
 10
249.9499999999999
 20
192.0
 30
0.0
 11
230.7753960809786
 21
191.94100736969261
 31
0.0
  0
LINE
  5
AFD
  8
0
  6
CONTINUOUS
 62
     1
 10
230.9499999999999
 20
192.0
 30
0.0
 11
230.9499999999999
 21
191.0
 31
0.0
  0
LINE
  5
AFE
  8
0
  6
CONTINUOUS
 62
     1
 10
230.9499999999999
 20
191.0
 30
0.0
 11
244.94999999999999
 21
191.0
 31
0.0
  0
LINE
  5
AFF
  8
0
  6
CONTINUOUS
 62
     1
 10
244.94999999999999
 20
191.0
 30
0.0
 11
249.9499999999999
 21
191.0
 31
0.0
  0
LINE
  5
B00
  8
0
  6
CONTINUOUS
 62
     1
 10
249.9499999999999
 20
191.0
 30
0.0
 11
249.9499999999999
 21
192.0
 31
0.0
  0
LINE
  5
B01
  8
0
  6
CONTINUOUS
 62
     1
 10
243.4499999999999
 20
190.0
 30
0.0
 11
243.4499999999999
 21
191.0
 31
0.0
  0
LINE
  5
B02
  8
0
  6
CONTINUOUS
 62
     1
 10
246.44999999999999
 20
190.0
 30
0.0
 11
246.44999999999999
 21
191.0
 31
0.0
  0
ARC
  5
B03
  8
0
  6
CONTINUOUS
 62
     1
 10
245.75
 20
192.5
 30
0.0
 40
0.5
 50
0.0
 51
90.0
  0
ARC
  5
B04
  8
0
  6
CONTINUOUS
 62
     1
 10
244.15000000000001
 20
192.5
 30
0.0
 40
0.5
 50
90.0
 51
180.0
  0
LINE
  5
B05
  8
0
  6
CONTINUOUS
 62
     1
 10
244.15000000000001
 20
193.0
 30
0.0
 11
245.75
 21
193.0
 31
0.0
  0
LINE
  5
B06
  8
0
  6
CONTINUOUS
 62
     1
 10
246.24999999999989
 20
192.5
 30
0.0
 11
246.24999999999989
 21
192.0
 31
0.0
  0
LINE
  5
B07
  8
0
  6
CONTINUOUS
 62
     1
 10
243.65000000000001
 20
192.5
 30
0.0
 11
243.65000000000001
 21
192.0
 31
0.0
  0
LINE
  5
B08
  8
0
  6
CONTINUOUS
 62
     1
 10
236.9499999999999
 20
184.30000000000001
 30
0.0
 11
237.9499999999999
 21
189.30000000000001
 31
0.0
  0
LINE
  5
B09
  8
0
  6
CONTINUOUS
 62
     1
 10
236.9499999999999
 20
184.30000000000001
 30
0.0
 11
236.9499999999999
 21
175.0
 31
0.0
  0
LINE
  5
B0A
  8
0
  6
CONTINUOUS
 62
     1
 10
247.4499999999999
 20
178.0
 30
0.0
 11
247.4499999999999
 21
184.30000000000001
 31
0.0
  0
LINE
  5
B0B
  8
0
  6
CONTINUOUS
 62
     1
 10
247.4499999999999
 20
184.30000000000001
 30
0.0
 11
246.44999999999999
 21
185.96666666699991
 31
0.0
  0
LINE
  5
B0C
  8
0
  6
CONTINUOUS
 62
     1
 10
237.9499999999999
 20
189.30000000000001
 30
0.0
 11
243.4499999999999
 21
189.30000000000001
 31
0.0
  0
LINE
  5
B0D
  8
2
  6
CONTINUOUS
 62
     4
 10
248.24999999999989
 20
193.0
 30
0.0
 11
266.74999999999989
 21
193.0
 31
0.0
  0
LINE
  5
B0E
  8
2
  6
CONTINUOUS
 62
     4
 10
265.75
 20
193.0
 30
0.0
 11
265.36177143200001
 21
191.5511112609999
 31
0.0
  0
LINE
  5
B0F
  8
2
  6
CONTINUOUS
 62
     4
 10
265.75
 20
193.0
 30
0.0
 11
266.13822856799987
 21
191.5511112609999
 31
0.0
  0
LINE
  5
B10
  8
2
  6
CONTINUOUS
 62
     4
 10
265.75
 20
193.0
 30
0.0
 11
265.75
 21
122.3
 31
0.0
  0
LINE
  5
B11
  8
2
  6
CONTINUOUS
 62
     4
 10
265.75
 20
122.3
 30
0.0
 11
266.13822856799987
 21
123.74888873899999
 31
0.0
  0
LINE
  5
B12
  8
2
  6
CONTINUOUS
 62
     4
 10
265.75
 20
122.3
 30
0.0
 11
265.36177143200001
 21
123.74888873899999
 31
0.0
  0
LINE
  5
B13
  8
2
  6
CONTINUOUS
 62
     4
 10
256.85000000000002
 20
122.3
 30
0.0
 11
266.74999999999989
 21
122.3
 31
0.0
  0
TEXT
  5
B14
  8
2
  6
CONTINUOUS
 62
     4
 10
264.74999999999989
 20
153.9499999999999
 30
0.0
 40
2.0
  1
71.0
 50
90.0
 41
0.925
  7
KANJI5
  0
LINE
  5
B50
  8
0
  6
CONTINUOUS
 62
     1
 10
157.10620122705211
 20
191.8666613688691
 30
0.0
 11
67.106201227052111
 21
191.8666613688691
 31
0.0
  0
LINE
  5
B51
  8
0
  6
CONTINUOUS
 62
     1
 10
67.106410453910939
 20
190.87144977867129
 30
0.0
 11
157.1050983588793
 21
190.87065784900909
 31
0.0
  0
LINE
  5
B52
  8
0
  6
CONTINUOUS
 62
     1
 10
67.106410453910939
 20
190.87144977867129
 30
0.0
 11
67.106201227052111
 21
191.8666613688691
 31
0.0
  0
LINE
  5
B53
  8
0
  6
CONTINUOUS
 62
     1
 10
157.1050983588793
 20
190.86760326311921
 30
0.0
 11
157.10620122705211
 21
191.8666613688691
 31
0.0
  0
LINE
  5
B62
  8
0
  6
CONTINUOUS
 62
     1
 10
153.4230014332046
 20
192.96809654741079
 30
0.0
 11
155.0230014332046
 21
192.96809654741079
 31
0.0
  0
ARC
  5
B63
  8
0
  6
CONTINUOUS
 62
     1
 10
153.4230014332046
 20
192.46809654741079
 30
0.0
 40
0.5
 50
90.0
 51
180.0
  0
ARC
  5
B64
  8
0
  6
CONTINUOUS
 62
     1
 10
155.0230014332046
 20
192.46809654741079
 30
0.0
 40
0.5
 50
0.0
 51
90.0
  0
LINE
  5
B65
  8
0
  6
CONTINUOUS
 62
     1
 10
155.5230014332046
 20
192.46809654741079
 30
0.0
 11
155.5327426110743
 21
191.892586526781
 31
0.0
  0
LINE
  5
B66
  8
0
  6
CONTINUOUS
 62
     1
 10
152.9230014332046
 20
192.46809654741079
 30
0.0
 11
152.928613425669
 21
191.83907470738629
 31
0.0
  0
LINE
  5
B67
  8
0
  6
CONTINUOUS
 62
     1
 10
152.72300143320459
 20
177.96809654741079
 30
0.0
 11
152.72300143320459
 21
189.96809654741079
 31
0.0
  0
LINE
  5
B68
  8
0
  6
CONTINUOUS
 62
     1
 10
155.72300143320459
 20
189.96809654741079
 30
0.0
 11
155.72300143320459
 21
177.96809654741079
 31
0.0
  0
LINE
  5
B69
  8
0
  6
CONTINUOUS
 62
     1
 10
155.72300143320459
 20
189.96809654741079
 30
0.0
 11
155.71105315242309
 21
190.85900516952091
 31
0.0
  0
LINE
  5
B6A
  8
0
  6
CONTINUOUS
 62
     1
 10
152.72300143320459
 20
189.96809654741079
 30
0.0
 11
152.71451520523979
 21
190.84124331826749
 31
0.0
  0
LINE
  5
B78
  8
0
  6
CONTINUOUS
 62
     1
 10
69.059303347172687
 20
192.97861789879971
 30
0.0
 11
70.659303347172681
 21
192.97861789879971
 31
0.0
  0
ARC
  5
B79
  8
0
  6
CONTINUOUS
 62
     1
 10
69.059303347172687
 20
192.47861789879971
 30
0.0
 40
0.5
 50
90.0
 51
180.0
  0
ARC
  5
B7A
  8
0
  6
CONTINUOUS
 62
     1
 10
70.659303347172681
 20
192.47861789879971
 30
0.0
 40
0.5
 50
0.0
 51
90.0
  0
LINE
  5
B7B
  8
0
  6
CONTINUOUS
 62
     1
 10
71.159303347172681
 20
192.47861789879971
 30
0.0
 11
71.161928846180672
 21
191.87720046454339
 31
0.0
  0
LINE
  5
B7C
  8
0
  6
CONTINUOUS
 62
     1
 10
68.559303347172687
 20
192.47861789879971
 30
0.0
 11
68.559473938134033
 21
191.87720046454339
 31
0.0
  0
LINE
  5
B7D
  8
0
  6
CONTINUOUS
 62
     1
 10
68.35930334717267
 20
177.97861789879971
 30
0.0
 11
68.35930334717267
 21
189.9786178987996
 31
0.0
  0
LINE
  5
B7E
  8
0
  6
CONTINUOUS
 62
     1
 10
71.35930334717267
 20
189.9786178987996
 30
0.0
 11
71.35930334717267
 21
177.97861789879971
 31
0.0
  0
LINE
  5
B7F
  8
0
  6
CONTINUOUS
 62
     1
 10
71.35930334717267
 20
189.9786178987996
 30
0.0
 11
71.359493577416288
 21
190.84599489631361
 31
0.0
  0
LINE
  5
B80
  8
0
  6
CONTINUOUS
 62
     1
 10
68.35930334717267
 20
189.9786178987996
 30
0.0
 11
68.361699922214029
 21
190.85696877892769
 31
0.0
  0
ENDSEC
  0
EOF
