  0
SECTION
  2
HEADER
  9
$ACADVER
  1
AC1015
  9
$ACADMAINTVER
 70
     6
  9
$DWGCODEPAGE
  3
ANSI_932
  9
$INSBASE
 10
0.0
 20
0.0
 30
0.0
  9
$EXTMIN
 10
35.29333333333331
 20
40.85333333333333
 30
0.0
  9
$EXTMAX
 10
292.1714999999998
 20
276.1416666666667
 30
0.10374
  9
$LIMMIN
 10
0.0
 20
0.0
  9
$LIMMAX
 10
420.0
 20
297.0
  9
$ORTHOMODE
 70
     0
  9
$REGENMODE
 70
     1
  9
$FILLMODE
 70
     1
  9
$QTEXTMODE
 70
     0
  9
$MIRRTEXT
 70
     1
  9
$LTSCALE
 40
1.0
  9
$ATTMODE
 70
     1
  9
$TEXTSIZE
 40
0.2
  9
$TRACEWID
 40
0.05
  9
$TEXTSTYLE
  7
STANDARD
  9
$CLAYER
  8
0
  9
$CELTYPE
  6
CONTINUOUS
  9
$CECOLOR
 62
     3
  9
$CELTSCALE
 40
1.0
  9
$DISPSILH
 70
     0
  9
$DIMSCALE
 40
1.0
  9
$DIMASZ
 40
0.18
  9
$DIMEXO
 40
0.0625
  9
$DIMDLI
 40
0.38
  9
$DIMRND
 40
0.0
  9
$DIMDLE
 40
0.0
  9
$DIMEXE
 40
0.18
  9
$DIMTP
 40
0.0
  9
$DIMTM
 40
0.0
  9
$DIMTXT
 40
0.18
  9
$DIMCEN
 40
0.09
  9
$DIMTSZ
 40
0.0
  9
$DIMTOL
 70
     0
  9
$DIMLIM
 70
     0
  9
$DIMTIH
 70
     1
  9
$DIMTOH
 70
     1
  9
$DIMSE1
 70
     0
  9
$DIMSE2
 70
     0
  9
$DIMTAD
 70
     0
  9
$DIMZIN
 70
     0
  9
$DIMBLK
  1

  9
$DIMASO
 70
     1
  9
$DIMSHO
 70
     1
  9
$DIMPOST
  1

  9
$DIMAPOST
  1

  9
$DIMALT
 70
     0
  9
$DIMALTD
 70
     2
  9
$DIMALTF
 40
25.4
  9
$DIMLFAC
 40
1.0
  9
$DIMTOFL
 70
     0
  9
$DIMTVP
 40
0.0
  9
$DIMTIX
 70
     0
  9
$DIMSOXD
 70
     0
  9
$DIMSAH
 70
     0
  9
$DIMBLK1
  1

  9
$DIMBLK2
  1

  9
$DIMSTYLE
  2
Standard
  9
$DIMCLRD
 70
     0
  9
$DIMCLRE
 70
     0
  9
$DIMCLRT
 70
     0
  9
$DIMTFAC
 40
1.0
  9
$DIMGAP
 40
0.09
  9
$DIMJUST
 70
     0
  9
$DIMSD1
 70
     0
  9
$DIMSD2
 70
     0
  9
$DIMTOLJ
 70
     1
  9
$DIMTZIN
 70
     0
  9
$DIMALTZ
 70
     0
  9
$DIMALTTZ
 70
     0
  9
$DIMUPT
 70
     0
  9
$DIMDEC
 70
     4
  9
$DIMTDEC
 70
     4
  9
$DIMALTU
 70
     2
  9
$DIMALTTD
 70
     2
  9
$DIMTXSTY
  7
STANDARD
  9
$DIMAUNIT
 70
     0
  9
$DIMADEC
 70
     0
  9
$DIMALTRND
 40
0.0
  9
$DIMAZIN
 70
     0
  9
$DIMDSEP
 70
    46
  9
$DIMATFIT
 70
     3
  9
$DIMFRAC
 70
     0
  9
$DIMLDRBLK
  1

  9
$DIMLUNIT
 70
     2
  9
$DIMLWD
 70
    -2
  9
$DIMLWE
 70
    -2
  9
$DIMTMOVE
 70
     0
  9
$LUNITS
 70
     2
  9
$LUPREC
 70
     4
  9
$SKETCHINC
 40
0.1
  9
$FILLETRAD
 40
0.0
  9
$AUNITS
 70
     0
  9
$AUPREC
 70
     0
  9
$MENU
  1
.
  9
$ELEVATION
 40
0.0
  9
$PELEVATION
 40
0.0
  9
$THICKNESS
 40
0.0
  9
$LIMCHECK
 70
     0
  9
$CHAMFERA
 40
0.0
  9
$CHAMFERB
 40
0.0
  9
$CHAMFERC
 40
0.0
  9
$CHAMFERD
 40
0.0
  9
$SKPOLY
 70
     0
  9
$TDCREATE
 40
2452699.673596874
  9
$TDUCREATE
 40
2452699.298596875
  9
$TDUPDATE
 40
2452751.613773264
  9
$TDUUPDATE
 40
2452751.238773264
  9
$TDINDWG
 40
0.0828187500
  9
$TDUSRTIMER
 40
0.0828162037
  9
$USRTIMER
 70
     1
  9
$ANGBASE
 50
0.0
  9
$ANGDIR
 70
     0
  9
$PDMODE
 70
     0
  9
$PDSIZE
 40
0.0
  9
$PLINEWID
 40
0.0
  9
$SPLFRAME
 70
     0
  9
$SPLINETYPE
 70
     6
  9
$SPLINESEGS
 70
     8
  9
$HANDSEED
  5
812
  9
$SURFTAB1
 70
     6
  9
$SURFTAB2
 70
     6
  9
$SURFTYPE
 70
     6
  9
$SURFU
 70
     6
  9
$SURFV
 70
     6
  9
$UCSBASE
  2

  9
$UCSNAME
  2

  9
$UCSORG
 10
0.0
 20
0.0
 30
0.0
  9
$UCSXDIR
 10
1.0
 20
0.0
 30
0.0
  9
$UCSYDIR
 10
0.0
 20
1.0
 30
0.0
  9
$UCSORTHOREF
  2

  9
$UCSORTHOVIEW
 70
     0
  9
$UCSORGTOP
 10
0.0
 20
0.0
 30
0.0
  9
$UCSORGBOTTOM
 10
0.0
 20
0.0
 30
0.0
  9
$UCSORGLEFT
 10
0.0
 20
0.0
 30
0.0
  9
$UCSORGRIGHT
 10
0.0
 20
0.0
 30
0.0
  9
$UCSORGFRONT
 10
0.0
 20
0.0
 30
0.0
  9
$UCSORGBACK
 10
0.0
 20
0.0
 30
0.0
  9
$PUCSBASE
  2

  9
$PUCSNAME
  2

  9
$PUCSORG
 10
0.0
 20
0.0
 30
0.0
  9
$PUCSXDIR
 10
1.0
 20
0.0
 30
0.0
  9
$PUCSYDIR
 10
0.0
 20
1.0
 30
0.0
  9
$PUCSORTHOREF
  2

  9
$PUCSORTHOVIEW
 70
     0
  9
$PUCSORGTOP
 10
0.0
 20
0.0
 30
0.0
  9
$PUCSORGBOTTOM
 10
0.0
 20
0.0
 30
0.0
  9
$PUCSORGLEFT
 10
0.0
 20
0.0
 30
0.0
  9
$PUCSORGRIGHT
 10
0.0
 20
0.0
 30
0.0
  9
$PUCSORGFRONT
 10
0.0
 20
0.0
 30
0.0
  9
$PUCSORGBACK
 10
0.0
 20
0.0
 30
0.0
  9
$USERI1
 70
     0
  9
$USERI2
 70
     0
  9
$USERI3
 70
     0
  9
$USERI4
 70
     0
  9
$USERI5
 70
     0
  9
$USERR1
 40
0.0
  9
$USERR2
 40
0.0
  9
$USERR3
 40
0.0
  9
$USERR4
 40
0.0
  9
$USERR5
 40
0.0
  9
$WORLDVIEW
 70
     1
  9
$SHADEDGE
 70
     3
  9
$SHADEDIF
 70
    70
  9
$TILEMODE
 70
     1
  9
$MAXACTVP
 70
    64
  9
$PINSBASE
 10
0.0
 20
0.0
 30
0.0
  9
$PLIMCHECK
 70
     0
  9
$PEXTMIN
 10
1.000000000000000E+20
 20
1.000000000000000E+20
 30
1.000000000000000E+20
  9
$PEXTMAX
 10
-1.000000000000000E+20
 20
-1.000000000000000E+20
 30
-1.000000000000000E+20
  9
$PLIMMIN
 10
0.0
 20
0.0
  9
$PLIMMAX
 10
12.0
 20
9.0
  9
$UNITMODE
 70
     0
  9
$VISRETAIN
 70
     1
  9
$PLINEGEN
 70
     0
  9
$PSLTSCALE
 70
     1
  9
$TREEDEPTH
 70
  3020
  9
$CMLSTYLE
  2
Standard
  9
$CMLJUST
 70
     0
  9
$CMLSCALE
 40
1.0
  9
$PROXYGRAPHICS
 70
     1
  9
$MEASUREMENT
 70
     0
  9
$CELWEIGHT
370
    -1
  9
$ENDCAPS
280
     0
  9
$JOINSTYLE
280
     0
  9
$LWDISPLAY
290
     0
  9
$INSUNITS
 70
     0
  9
$HYPERLINKBASE
  1

  9
$STYLESHEET
  1

  9
$XEDIT
290
     1
  9
$CEPSNTYPE
380
     0
  9
$PSTYLEMODE
290
     1
  9
$FINGERPRINTGUID
  2
{ACE11128-4B35-11D7-9C19-0040267F10D4}
  9
$VERSIONGUID
  2
{C527DE9D-7402-11D7-9C19-0040267F10D4}
  9
$EXTNAMES
290
     1
  9
$PSVPSCALE
 40
0.0
  9
$OLESTARTUP
290
     0
  0
ENDSEC
  0
SECTION
  2
CLASSES
  0
CLASS
  1
ACDBDICTIONARYWDFLT
  2
AcDbDictionaryWithDefault
  3
AutoCAD 2000
 90
        0
280
     0
281
     0
  0
CLASS
  1
ACDBPLACEHOLDER
  2
AcDbPlaceHolder
  3
AutoCAD 2000
 90
        0
280
     0
281
     0
  0
CLASS
  1
LAYOUT
  2
AcDbLayout
  3
AutoCAD 2000
 90
        0
280
     0
281
     0
  0
ENDSEC
  0
SECTION
  2
TABLES
  0
TABLE
  2
VPORT
  5
8
330
0
100
AcDbSymbolTable
 70
     3
  0
VPORT
  5
811
330
8
100
AcDbSymbolTableRecord
100
AcDbViewportTableRecord
  2
*Active
 70
     0
 10
0.0
 20
0.0
 11
1.0
 21
1.0
 12
189.2569048849625
 22
157.6247966044242
 13
0.0
 23
0.0
 14
1.0
 24
1.0
 15
0.0
 25
0.0
 16
0.0
 26
0.0
 36
1.0
 17
0.0
 27
0.0
 37
0.0
 40
307.249730949925
 41
2.175977653631284
 42
50.0
 43
0.0
 44
0.0
 50
0.0
 51
0.0
 71
     0
 72
   100
 73
     1
 74
     1
 75
     0
 76
     0
 77
     0
 78
     0
281
     0
 65
     1
110
0.0
120
0.0
130
0.0
111
1.0
121
0.0
131
0.0
112
0.0
122
1.0
132
0.0
 79
     0
146
0.0
  0
ENDTAB
  0
TABLE
  2
LTYPE
  5
5
330
0
100
AcDbSymbolTable
 70
     4
  0
LTYPE
  5
13
330
5
100
AcDbSymbolTableRecord
100
AcDbLinetypeTableRecord
  2
ByBlock
 70
     0
  3

 72
    65
 73
     0
 40
0.0
  0
LTYPE
  5
14
330
5
100
AcDbSymbolTableRecord
100
AcDbLinetypeTableRecord
  2
ByLayer
 70
     0
  3

 72
    65
 73
     0
 40
0.0
  0
LTYPE
  5
15
330
5
100
AcDbSymbolTableRecord
100
AcDbLinetypeTableRecord
  2
CONTINUOUS
 70
     0
  3
Solid line
 72
    65
 73
     0
 40
0.0
  0
LTYPE
  5
22
330
5
100
AcDbSymbolTableRecord
100
AcDbLinetypeTableRecord
  2
LTYPE1
 70
     0
  3
HIDDEN
 72
    65
 73
     2
 40
1.5
 49
0.9
 74
     0
 49
-0.6
 74
     0
  0
LTYPE
  5
23
330
5
100
AcDbSymbolTableRecord
100
AcDbLinetypeTableRecord
  2
LTYPE2
 70
     0
  3
CENTER
 72
    65
 73
     4
 40
15.0
 49
10.5
 74
     0
 49
-1.5
 74
     0
 49
1.5
 74
     0
 49
-1.5
 74
     0
  0
LTYPE
  5
24
330
5
100
AcDbSymbolTableRecord
100
AcDbLinetypeTableRecord
  2
LTYPE3
 70
     0
  3
CENTER
 72
    65
 73
     4
 40
10.0
 49
7.0
 74
     0
 49
-1.0
 74
     0
 49
1.0
 74
     0
 49
-1.0
 74
     0
  0
ENDTAB
  0
TABLE
  2
LAYER
  5
2
330
0
100
AcDbSymbolTable
 70
   128
  0
LAYER
  5
10
330
2
100
AcDbSymbolTableRecord
100
AcDbLayerTableRecord
  2
0
 70
     0
 62
     7
  6
CONTINUOUS
370
    -3
390
F
  0
LAYER
  5
25
330
2
100
AcDbSymbolTableRecord
100
AcDbLayerTableRecord
  2
1
 70
     0
 62
     7
  6
CONTINUOUS
370
    -3
390
F
  0
LAYER
  5
26
330
2
100
AcDbSymbolTableRecord
100
AcDbLayerTableRecord
  2
2
 70
     0
 62
     7
  6
CONTINUOUS
370
    -3
390
F
  0
LAYER
  5
27
330
2
100
AcDbSymbolTableRecord
100
AcDbLayerTableRecord
  2
3
 70
     0
 62
     7
  6
CONTINUOUS
370
    -3
390
F
  0
LAYER
  5
28
330
2
100
AcDbSymbolTableRecord
100
AcDbLayerTableRecord
  2
4
 70
     0
 62
     7
  6
CONTINUOUS
370
    -3
390
F
  0
LAYER
  5
29
330
2
100
AcDbSymbolTableRecord
100
AcDbLayerTableRecord
  2
5
 70
     0
 62
     7
  6
CONTINUOUS
370
    -3
390
F
  0
LAYER
  5
2A
330
2
100
AcDbSymbolTableRecord
100
AcDbLayerTableRecord
  2
6
 70
     0
 62
     7
  6
CONTINUOUS
370
    -3
390
F
  0
LAYER
  5
2B
330
2
100
AcDbSymbolTableRecord
100
AcDbLayerTableRecord
  2
7
 70
     0
 62
     7
  6
CONTINUOUS
370
    -3
390
F
  0
LAYER
  5
2C
330
2
100
AcDbSymbolTableRecord
100
AcDbLayerTableRecord
  2
8
 70
     0
 62
     7
  6
CONTINUOUS
370
    -3
390
F
  0
LAYER
  5
2D
330
2
100
AcDbSymbolTableRecord
100
AcDbLayerTableRecord
  2
9
 70
     0
 62
     7
  6
CONTINUOUS
370
    -3
390
F
  0
LAYER
  5
2E
330
2
100
AcDbSymbolTableRecord
100
AcDbLayerTableRecord
  2
10
 70
     0
 62
     7
  6
CONTINUOUS
370
    -3
390
F
  0
LAYER
  5
2F
330
2
100
AcDbSymbolTableRecord
100
AcDbLayerTableRecord
  2
11
 70
     0
 62
     7
  6
CONTINUOUS
370
    -3
390
F
  0
LAYER
  5
30
330
2
100
AcDbSymbolTableRecord
100
AcDbLayerTableRecord
  2
12
 70
     0
 62
     7
  6
CONTINUOUS
370
    -3
390
F
  0
LAYER
  5
31
330
2
100
AcDbSymbolTableRecord
100
AcDbLayerTableRecord
  2
13
 70
     0
 62
     7
  6
CONTINUOUS
370
    -3
390
F
  0
LAYER
  5
32
330
2
100
AcDbSymbolTableRecord
100
AcDbLayerTableRecord
  2
14
 70
     0
 62
     7
  6
CONTINUOUS
370
    -3
390
F
  0
LAYER
  5
33
330
2
100
AcDbSymbolTableRecord
100
AcDbLayerTableRecord
  2
15
 70
     0
 62
     7
  6
CONTINUOUS
370
    -3
390
F
  0
LAYER
  5
34
330
2
100
AcDbSymbolTableRecord
100
AcDbLayerTableRecord
  2
16
 70
     0
 62
     7
  6
CONTINUOUS
370
    -3
390
F
  0
LAYER
  5
35
330
2
100
AcDbSymbolTableRecord
100
AcDbLayerTableRecord
  2
17
 70
     0
 62
     7
  6
CONTINUOUS
370
    -3
390
F
  0
LAYER
  5
36
330
2
100
AcDbSymbolTableRecord
100
AcDbLayerTableRecord
  2
18
 70
     0
 62
     7
  6
CONTINUOUS
370
    -3
390
F
  0
LAYER
  5
37
330
2
100
AcDbSymbolTableRecord
100
AcDbLayerTableRecord
  2
19
 70
     0
 62
     7
  6
CONTINUOUS
370
    -3
390
F
  0
LAYER
  5
38
330
2
100
AcDbSymbolTableRecord
100
AcDbLayerTableRecord
  2
20
 70
     0
 62
     7
  6
CONTINUOUS
370
    -3
390
F
  0
LAYER
  5
39
330
2
100
AcDbSymbolTableRecord
100
AcDbLayerTableRecord
  2
21
 70
     0
 62
     7
  6
CONTINUOUS
370
    -3
390
F
  0
LAYER
  5
3A
330
2
100
AcDbSymbolTableRecord
100
AcDbLayerTableRecord
  2
22
 70
     0
 62
     7
  6
CONTINUOUS
370
    -3
390
F
  0
LAYER
  5
3B
330
2
100
AcDbSymbolTableRecord
100
AcDbLayerTableRecord
  2
23
 70
     0
 62
     7
  6
CONTINUOUS
370
    -3
390
F
  0
LAYER
  5
3C
330
2
100
AcDbSymbolTableRecord
100
AcDbLayerTableRecord
  2
24
 70
     0
 62
     7
  6
CONTINUOUS
370
    -3
390
F
  0
LAYER
  5
3D
330
2
100
AcDbSymbolTableRecord
100
AcDbLayerTableRecord
  2
25
 70
     0
 62
     7
  6
CONTINUOUS
370
    -3
390
F
  0
LAYER
  5
3E
330
2
100
AcDbSymbolTableRecord
100
AcDbLayerTableRecord
  2
26
 70
     0
 62
     7
  6
CONTINUOUS
370
    -3
390
F
  0
LAYER
  5
3F
330
2
100
AcDbSymbolTableRecord
100
AcDbLayerTableRecord
  2
27
 70
     0
 62
     7
  6
CONTINUOUS
370
    -3
390
F
  0
LAYER
  5
40
330
2
100
AcDbSymbolTableRecord
100
AcDbLayerTableRecord
  2
28
 70
     0
 62
     7
  6
CONTINUOUS
370
    -3
390
F
  0
LAYER
  5
41
330
2
100
AcDbSymbolTableRecord
100
AcDbLayerTableRecord
  2
29
 70
     0
 62
     7
  6
CONTINUOUS
370
    -3
390
F
  0
LAYER
  5
42
330
2
100
AcDbSymbolTableRecord
100
AcDbLayerTableRecord
  2
30
 70
     0
 62
     7
  6
CONTINUOUS
370
    -3
390
F
  0
LAYER
  5
43
330
2
100
AcDbSymbolTableRecord
100
AcDbLayerTableRecord
  2
31
 70
     0
 62
     7
  6
CONTINUOUS
370
    -3
390
F
  0
LAYER
  5
44
330
2
100
AcDbSymbolTableRecord
100
AcDbLayerTableRecord
  2
32
 70
     0
 62
     7
  6
CONTINUOUS
370
    -3
390
F
  0
LAYER
  5
45
330
2
100
AcDbSymbolTableRecord
100
AcDbLayerTableRecord
  2
33
 70
     0
 62
     7
  6
CONTINUOUS
370
    -3
390
F
  0
LAYER
  5
46
330
2
100
AcDbSymbolTableRecord
100
AcDbLayerTableRecord
  2
34
 70
     0
 62
     7
  6
CONTINUOUS
370
    -3
390
F
  0
LAYER
  5
47
330
2
100
AcDbSymbolTableRecord
100
AcDbLayerTableRecord
  2
35
 70
     0
 62
     7
  6
CONTINUOUS
370
    -3
390
F
  0
LAYER
  5
48
330
2
100
AcDbSymbolTableRecord
100
AcDbLayerTableRecord
  2
36
 70
     0
 62
     7
  6
CONTINUOUS
370
    -3
390
F
  0
LAYER
  5
49
330
2
100
AcDbSymbolTableRecord
100
AcDbLayerTableRecord
  2
37
 70
     0
 62
     7
  6
CONTINUOUS
370
    -3
390
F
  0
LAYER
  5
4A
330
2
100
AcDbSymbolTableRecord
100
AcDbLayerTableRecord
  2
38
 70
     0
 62
     7
  6
CONTINUOUS
370
    -3
390
F
  0
LAYER
  5
4B
330
2
100
AcDbSymbolTableRecord
100
AcDbLayerTableRecord
  2
39
 70
     0
 62
     7
  6
CONTINUOUS
370
    -3
390
F
  0
LAYER
  5
4C
330
2
100
AcDbSymbolTableRecord
100
AcDbLayerTableRecord
  2
40
 70
     0
 62
     7
  6
CONTINUOUS
370
    -3
390
F
  0
LAYER
  5
4D
330
2
100
AcDbSymbolTableRecord
100
AcDbLayerTableRecord
  2
41
 70
     0
 62
     7
  6
CONTINUOUS
370
    -3
390
F
  0
LAYER
  5
4E
330
2
100
AcDbSymbolTableRecord
100
AcDbLayerTableRecord
  2
42
 70
     0
 62
     7
  6
CONTINUOUS
370
    -3
390
F
  0
LAYER
  5
4F
330
2
100
AcDbSymbolTableRecord
100
AcDbLayerTableRecord
  2
43
 70
     0
 62
     7
  6
CONTINUOUS
370
    -3
390
F
  0
LAYER
  5
50
330
2
100
AcDbSymbolTableRecord
100
AcDbLayerTableRecord
  2
44
 70
     0
 62
     7
  6
CONTINUOUS
370
    -3
390
F
  0
LAYER
  5
51
330
2
100
AcDbSymbolTableRecord
100
AcDbLayerTableRecord
  2
45
 70
     0
 62
     7
  6
CONTINUOUS
370
    -3
390
F
  0
LAYER
  5
52
330
2
100
AcDbSymbolTableRecord
100
AcDbLayerTableRecord
  2
46
 70
     0
 62
     7
  6
CONTINUOUS
370
    -3
390
F
  0
LAYER
  5
53
330
2
100
AcDbSymbolTableRecord
100
AcDbLayerTableRecord
  2
47
 70
     0
 62
     7
  6
CONTINUOUS
370
    -3
390
F
  0
LAYER
  5
54
330
2
100
AcDbSymbolTableRecord
100
AcDbLayerTableRecord
  2
48
 70
     0
 62
     7
  6
CONTINUOUS
370
    -3
390
F
  0
LAYER
  5
55
330
2
100
AcDbSymbolTableRecord
100
AcDbLayerTableRecord
  2
49
 70
     0
 62
     7
  6
CONTINUOUS
370
    -3
390
F
  0
LAYER
  5
56
330
2
100
AcDbSymbolTableRecord
100
AcDbLayerTableRecord
  2
50
 70
     0
 62
     7
  6
CONTINUOUS
370
    -3
390
F
  0
LAYER
  5
57
330
2
100
AcDbSymbolTableRecord
100
AcDbLayerTableRecord
  2
51
 70
     0
 62
     7
  6
CONTINUOUS
370
    -3
390
F
  0
LAYER
  5
58
330
2
100
AcDbSymbolTableRecord
100
AcDbLayerTableRecord
  2
52
 70
     0
 62
     7
  6
CONTINUOUS
370
    -3
390
F
  0
LAYER
  5
59
330
2
100
AcDbSymbolTableRecord
100
AcDbLayerTableRecord
  2
53
 70
     0
 62
     7
  6
CONTINUOUS
370
    -3
390
F
  0
LAYER
  5
5A
330
2
100
AcDbSymbolTableRecord
100
AcDbLayerTableRecord
  2
54
 70
     0
 62
     7
  6
CONTINUOUS
370
    -3
390
F
  0
LAYER
  5
5B
330
2
100
AcDbSymbolTableRecord
100
AcDbLayerTableRecord
  2
55
 70
     0
 62
     7
  6
CONTINUOUS
370
    -3
390
F
  0
LAYER
  5
5C
330
2
100
AcDbSymbolTableRecord
100
AcDbLayerTableRecord
  2
56
 70
     0
 62
     7
  6
CONTINUOUS
370
    -3
390
F
  0
LAYER
  5
5D
330
2
100
AcDbSymbolTableRecord
100
AcDbLayerTableRecord
  2
57
 70
     0
 62
     7
  6
CONTINUOUS
370
    -3
390
F
  0
LAYER
  5
5E
330
2
100
AcDbSymbolTableRecord
100
AcDbLayerTableRecord
  2
58
 70
     0
 62
     7
  6
CONTINUOUS
370
    -3
390
F
  0
LAYER
  5
5F
330
2
100
AcDbSymbolTableRecord
100
AcDbLayerTableRecord
  2
59
 70
     0
 62
     7
  6
CONTINUOUS
370
    -3
390
F
  0
LAYER
  5
60
330
2
100
AcDbSymbolTableRecord
100
AcDbLayerTableRecord
  2
60
 70
     0
 62
     7
  6
CONTINUOUS
370
    -3
390
F
  0
LAYER
  5
61
330
2
100
AcDbSymbolTableRecord
100
AcDbLayerTableRecord
  2
61
 70
     0
 62
     7
  6
CONTINUOUS
370
    -3
390
F
  0
LAYER
  5
62
330
2
100
AcDbSymbolTableRecord
100
AcDbLayerTableRecord
  2
62
 70
     0
 62
     7
  6
CONTINUOUS
370
    -3
390
F
  0
LAYER
  5
63
330
2
100
AcDbSymbolTableRecord
100
AcDbLayerTableRecord
  2
63
 70
     0
 62
     7
  6
CONTINUOUS
370
    -3
390
F
  0
LAYER
  5
64
330
2
100
AcDbSymbolTableRecord
100
AcDbLayerTableRecord
  2
64
 70
     0
 62
     7
  6
CONTINUOUS
370
    -3
390
F
  0
LAYER
  5
65
330
2
100
AcDbSymbolTableRecord
100
AcDbLayerTableRecord
  2
65
 70
     0
 62
     7
  6
CONTINUOUS
370
    -3
390
F
  0
LAYER
  5
66
330
2
100
AcDbSymbolTableRecord
100
AcDbLayerTableRecord
  2
66
 70
     0
 62
     7
  6
CONTINUOUS
370
    -3
390
F
  0
LAYER
  5
67
330
2
100
AcDbSymbolTableRecord
100
AcDbLayerTableRecord
  2
67
 70
     0
 62
     7
  6
CONTINUOUS
370
    -3
390
F
  0
LAYER
  5
68
330
2
100
AcDbSymbolTableRecord
100
AcDbLayerTableRecord
  2
68
 70
     0
 62
     7
  6
CONTINUOUS
370
    -3
390
F
  0
LAYER
  5
69
330
2
100
AcDbSymbolTableRecord
100
AcDbLayerTableRecord
  2
69
 70
     0
 62
     7
  6
CONTINUOUS
370
    -3
390
F
  0
LAYER
  5
6A
330
2
100
AcDbSymbolTableRecord
100
AcDbLayerTableRecord
  2
70
 70
     0
 62
     7
  6
CONTINUOUS
370
    -3
390
F
  0
LAYER
  5
6B
330
2
100
AcDbSymbolTableRecord
100
AcDbLayerTableRecord
  2
71
 70
     0
 62
     7
  6
CONTINUOUS
370
    -3
390
F
  0
LAYER
  5
6C
330
2
100
AcDbSymbolTableRecord
100
AcDbLayerTableRecord
  2
72
 70
     0
 62
     7
  6
CONTINUOUS
370
    -3
390
F
  0
LAYER
  5
6D
330
2
100
AcDbSymbolTableRecord
100
AcDbLayerTableRecord
  2
73
 70
     0
 62
     7
  6
CONTINUOUS
370
    -3
390
F
  0
LAYER
  5
6E
330
2
100
AcDbSymbolTableRecord
100
AcDbLayerTableRecord
  2
74
 70
     0
 62
     7
  6
CONTINUOUS
370
    -3
390
F
  0
LAYER
  5
6F
330
2
100
AcDbSymbolTableRecord
100
AcDbLayerTableRecord
  2
75
 70
     0
 62
     7
  6
CONTINUOUS
370
    -3
390
F
  0
LAYER
  5
70
330
2
100
AcDbSymbolTableRecord
100
AcDbLayerTableRecord
  2
76
 70
     0
 62
     7
  6
CONTINUOUS
370
    -3
390
F
  0
LAYER
  5
71
330
2
100
AcDbSymbolTableRecord
100
AcDbLayerTableRecord
  2
77
 70
     0
 62
     7
  6
CONTINUOUS
370
    -3
390
F
  0
LAYER
  5
72
330
2
100
AcDbSymbolTableRecord
100
AcDbLayerTableRecord
  2
78
 70
     0
 62
     7
  6
CONTINUOUS
370
    -3
390
F
  0
LAYER
  5
73
330
2
100
AcDbSymbolTableRecord
100
AcDbLayerTableRecord
  2
79
 70
     0
 62
     7
  6
CONTINUOUS
370
    -3
390
F
  0
LAYER
  5
74
330
2
100
AcDbSymbolTableRecord
100
AcDbLayerTableRecord
  2
80
 70
     0
 62
     7
  6
CONTINUOUS
370
    -3
390
F
  0
LAYER
  5
75
330
2
100
AcDbSymbolTableRecord
100
AcDbLayerTableRecord
  2
81
 70
     0
 62
     7
  6
CONTINUOUS
370
    -3
390
F
  0
LAYER
  5
76
330
2
100
AcDbSymbolTableRecord
100
AcDbLayerTableRecord
  2
82
 70
     0
 62
     7
  6
CONTINUOUS
370
    -3
390
F
  0
LAYER
  5
77
330
2
100
AcDbSymbolTableRecord
100
AcDbLayerTableRecord
  2
83
 70
     0
 62
     7
  6
CONTINUOUS
370
    -3
390
F
  0
LAYER
  5
78
330
2
100
AcDbSymbolTableRecord
100
AcDbLayerTableRecord
  2
84
 70
     0
 62
     7
  6
CONTINUOUS
370
    -3
390
F
  0
LAYER
  5
79
330
2
100
AcDbSymbolTableRecord
100
AcDbLayerTableRecord
  2
85
 70
     0
 62
     7
  6
CONTINUOUS
370
    -3
390
F
  0
LAYER
  5
7A
330
2
100
AcDbSymbolTableRecord
100
AcDbLayerTableRecord
  2
86
 70
     0
 62
     7
  6
CONTINUOUS
370
    -3
390
F
  0
LAYER
  5
7B
330
2
100
AcDbSymbolTableRecord
100
AcDbLayerTableRecord
  2
87
 70
     0
 62
     7
  6
CONTINUOUS
370
    -3
390
F
  0
LAYER
  5
7C
330
2
100
AcDbSymbolTableRecord
100
AcDbLayerTableRecord
  2
88
 70
     0
 62
     7
  6
CONTINUOUS
370
    -3
390
F
  0
LAYER
  5
7D
330
2
100
AcDbSymbolTableRecord
100
AcDbLayerTableRecord
  2
89
 70
     0
 62
     7
  6
CONTINUOUS
370
    -3
390
F
  0
LAYER
  5
7E
330
2
100
AcDbSymbolTableRecord
100
AcDbLayerTableRecord
  2
90
 70
     0
 62
     7
  6
CONTINUOUS
370
    -3
390
F
  0
LAYER
  5
7F
330
2
100
AcDbSymbolTableRecord
100
AcDbLayerTableRecord
  2
91
 70
     0
 62
     7
  6
CONTINUOUS
370
    -3
390
F
  0
LAYER
  5
80
330
2
100
AcDbSymbolTableRecord
100
AcDbLayerTableRecord
  2
92
 70
     0
 62
     7
  6
CONTINUOUS
370
    -3
390
F
  0
LAYER
  5
81
330
2
100
AcDbSymbolTableRecord
100
AcDbLayerTableRecord
  2
93
 70
     0
 62
     7
  6
CONTINUOUS
370
    -3
390
F
  0
LAYER
  5
82
330
2
100
AcDbSymbolTableRecord
100
AcDbLayerTableRecord
  2
94
 70
     0
 62
     7
  6
CONTINUOUS
370
    -3
390
F
  0
LAYER
  5
83
330
2
100
AcDbSymbolTableRecord
100
AcDbLayerTableRecord
  2
95
 70
     0
 62
     7
  6
CONTINUOUS
370
    -3
390
F
  0
LAYER
  5
84
330
2
100
AcDbSymbolTableRecord
100
AcDbLayerTableRecord
  2
96
 70
     0
 62
     7
  6
CONTINUOUS
370
    -3
390
F
  0
LAYER
  5
85
330
2
100
AcDbSymbolTableRecord
100
AcDbLayerTableRecord
  2
97
 70
     0
 62
     7
  6
CONTINUOUS
370
    -3
390
F
  0
LAYER
  5
86
330
2
100
AcDbSymbolTableRecord
100
AcDbLayerTableRecord
  2
98
 70
     0
 62
     7
  6
CONTINUOUS
370
    -3
390
F
  0
LAYER
  5
87
330
2
100
AcDbSymbolTableRecord
100
AcDbLayerTableRecord
  2
99
 70
     0
 62
     7
  6
CONTINUOUS
370
    -3
390
F
  0
LAYER
  5
88
330
2
100
AcDbSymbolTableRecord
100
AcDbLayerTableRecord
  2
100
 70
     0
 62
     7
  6
CONTINUOUS
370
    -3
390
F
  0
LAYER
  5
89
330
2
100
AcDbSymbolTableRecord
100
AcDbLayerTableRecord
  2
101
 70
     0
 62
     7
  6
CONTINUOUS
370
    -3
390
F
  0
LAYER
  5
8A
330
2
100
AcDbSymbolTableRecord
100
AcDbLayerTableRecord
  2
102
 70
     0
 62
     7
  6
CONTINUOUS
370
    -3
390
F
  0
LAYER
  5
8B
330
2
100
AcDbSymbolTableRecord
100
AcDbLayerTableRecord
  2
103
 70
     0
 62
     7
  6
CONTINUOUS
370
    -3
390
F
  0
LAYER
  5
8C
330
2
100
AcDbSymbolTableRecord
100
AcDbLayerTableRecord
  2
104
 70
     0
 62
     7
  6
CONTINUOUS
370
    -3
390
F
  0
LAYER
  5
8D
330
2
100
AcDbSymbolTableRecord
100
AcDbLayerTableRecord
  2
105
 70
     0
 62
     7
  6
CONTINUOUS
370
    -3
390
F
  0
LAYER
  5
8E
330
2
100
AcDbSymbolTableRecord
100
AcDbLayerTableRecord
  2
106
 70
     0
 62
     7
  6
CONTINUOUS
370
    -3
390
F
  0
LAYER
  5
8F
330
2
100
AcDbSymbolTableRecord
100
AcDbLayerTableRecord
  2
107
 70
     0
 62
     7
  6
CONTINUOUS
370
    -3
390
F
  0
LAYER
  5
90
330
2
100
AcDbSymbolTableRecord
100
AcDbLayerTableRecord
  2
108
 70
     0
 62
     7
  6
CONTINUOUS
370
    -3
390
F
  0
LAYER
  5
91
330
2
100
AcDbSymbolTableRecord
100
AcDbLayerTableRecord
  2
109
 70
     0
 62
     7
  6
CONTINUOUS
370
    -3
390
F
  0
LAYER
  5
92
330
2
100
AcDbSymbolTableRecord
100
AcDbLayerTableRecord
  2
110
 70
     0
 62
     7
  6
CONTINUOUS
370
    -3
390
F
  0
LAYER
  5
93
330
2
100
AcDbSymbolTableRecord
100
AcDbLayerTableRecord
  2
111
 70
     0
 62
     7
  6
CONTINUOUS
370
    -3
390
F
  0
LAYER
  5
94
330
2
100
AcDbSymbolTableRecord
100
AcDbLayerTableRecord
  2
112
 70
     0
 62
     7
  6
CONTINUOUS
370
    -3
390
F
  0
LAYER
  5
95
330
2
100
AcDbSymbolTableRecord
100
AcDbLayerTableRecord
  2
113
 70
     0
 62
     7
  6
CONTINUOUS
370
    -3
390
F
  0
LAYER
  5
96
330
2
100
AcDbSymbolTableRecord
100
AcDbLayerTableRecord
  2
114
 70
     0
 62
     7
  6
CONTINUOUS
370
    -3
390
F
  0
LAYER
  5
97
330
2
100
AcDbSymbolTableRecord
100
AcDbLayerTableRecord
  2
115
 70
     0
 62
     7
  6
CONTINUOUS
370
    -3
390
F
  0
LAYER
  5
98
330
2
100
AcDbSymbolTableRecord
100
AcDbLayerTableRecord
  2
116
 70
     0
 62
     7
  6
CONTINUOUS
370
    -3
390
F
  0
LAYER
  5
99
330
2
100
AcDbSymbolTableRecord
100
AcDbLayerTableRecord
  2
117
 70
     0
 62
     7
  6
CONTINUOUS
370
    -3
390
F
  0
LAYER
  5
9A
330
2
100
AcDbSymbolTableRecord
100
AcDbLayerTableRecord
  2
118
 70
     0
 62
     7
  6
CONTINUOUS
370
    -3
390
F
  0
LAYER
  5
9B
330
2
100
AcDbSymbolTableRecord
100
AcDbLayerTableRecord
  2
119
 70
     0
 62
     7
  6
CONTINUOUS
370
    -3
390
F
  0
LAYER
  5
9C
330
2
100
AcDbSymbolTableRecord
100
AcDbLayerTableRecord
  2
120
 70
     0
 62
     7
  6
CONTINUOUS
370
    -3
390
F
  0
LAYER
  5
9D
330
2
100
AcDbSymbolTableRecord
100
AcDbLayerTableRecord
  2
121
 70
     0
 62
     7
  6
CONTINUOUS
370
    -3
390
F
  0
LAYER
  5
9E
330
2
100
AcDbSymbolTableRecord
100
AcDbLayerTableRecord
  2
122
 70
     0
 62
     7
  6
CONTINUOUS
370
    -3
390
F
  0
LAYER
  5
9F
330
2
100
AcDbSymbolTableRecord
100
AcDbLayerTableRecord
  2
123
 70
     0
 62
     7
  6
CONTINUOUS
370
    -3
390
F
  0
LAYER
  5
A0
330
2
100
AcDbSymbolTableRecord
100
AcDbLayerTableRecord
  2
124
 70
     0
 62
     7
  6
CONTINUOUS
370
    -3
390
F
  0
LAYER
  5
A1
330
2
100
AcDbSymbolTableRecord
100
AcDbLayerTableRecord
  2
125
 70
     0
 62
     7
  6
CONTINUOUS
370
    -3
390
F
  0
LAYER
  5
A2
330
2
100
AcDbSymbolTableRecord
100
AcDbLayerTableRecord
  2
126
 70
     0
 62
     7
  6
CONTINUOUS
370
    -3
390
F
  0
LAYER
  5
A3
330
2
100
AcDbSymbolTableRecord
100
AcDbLayerTableRecord
  2
127
 70
     0
 62
     7
  6
CONTINUOUS
370
    -3
390
F
  0
ENDTAB
  0
TABLE
  2
STYLE
  5
3
330
0
100
AcDbSymbolTable
 70
    15
  0
STYLE
  5
11
330
3
100
AcDbSymbolTableRecord
100
AcDbTextStyleTableRecord
  2
STANDARD
 70
     0
 40
0.0
 41
1.0
 50
0.0
 71
     0
 42
0.2
  3
txt
  4

  0
STYLE
  5
A4
330
3
100
AcDbSymbolTableRecord
100
AcDbTextStyleTableRecord
  2
KANJI0
 70
     0
 40
2.0
 41
0.9
 50
0.0
 71
     0
 42
2.0
  3

  4
bigfont
  0
STYLE
  5
A5
330
3
100
AcDbSymbolTableRecord
100
AcDbTextStyleTableRecord
  2
KANJI1
 70
     0
 40
3.9
 41
0.88
 50
0.0
 71
     0
 42
3.9
  3

  4
bigfont
  0
STYLE
  5
A6
330
3
100
AcDbSymbolTableRecord
100
AcDbTextStyleTableRecord
  2
KANJI2
 70
     0
 40
3.9
 41
0.9
 50
0.0
 71
     0
 42
3.9
  3

  4
bigfont
  0
STYLE
  5
A7
330
3
100
AcDbSymbolTableRecord
100
AcDbTextStyleTableRecord
  2
KANJI3
 70
     0
 40
3.12
 41
0.75
 50
0.0
 71
     0
 42
3.12
  3

  4
bigfont
  0
STYLE
  5
A8
330
3
100
AcDbSymbolTableRecord
100
AcDbTextStyleTableRecord
  2
KANJI4
 70
     0
 40
2.0
 41
0.85
 50
0.0
 71
     0
 42
2.0
  3

  4
bigfont
  0
STYLE
  5
A9
330
3
100
AcDbSymbolTableRecord
100
AcDbTextStyleTableRecord
  2
KANJI5
 70
     0
 40
2.5
 41
0.9
 50
0.0
 71
     0
 42
2.5
  3

  4
bigfont
  0
STYLE
  5
AA
330
3
100
AcDbSymbolTableRecord
100
AcDbTextStyleTableRecord
  2
KANJI6
 70
     0
 40
2.0
 41
1.0
 50
0.0
 71
     0
 42
2.0
  3

  4
bigfont
  0
STYLE
  5
AB
330
3
100
AcDbSymbolTableRecord
100
AcDbTextStyleTableRecord
  2
KANJI7
 70
     0
 40
1.6146
 41
0.739130435
 50
0.0
 71
     0
 42
1.6146
  3

  4
bigfont
  0
STYLE
  5
AC
330
3
100
AcDbSymbolTableRecord
100
AcDbTextStyleTableRecord
  2
KANJI8
 70
     0
 40
2.0
 41
1.0
 50
0.0
 71
     0
 42
2.0
  3

  4
bigfont
  0
STYLE
  5
AD
330
3
100
AcDbSymbolTableRecord
100
AcDbTextStyleTableRecord
  2
KANJI9
 70
     0
 40
2.0
 41
0.85
 50
0.0
 71
     0
 42
2.0
  3

  4
bigfont
  0
STYLE
  5
AE
330
3
100
AcDbSymbolTableRecord
100
AcDbTextStyleTableRecord
  2
KANJI10
 70
     0
 40
1.794
 41
0.739130435
 50
0.0
 71
     0
 42
1.794
  3

  4
bigfont
  0
STYLE
  5
AF
330
3
100
AcDbSymbolTableRecord
100
AcDbTextStyleTableRecord
  2
KANJI11
 70
     0
 40
1.6146
 41
0.739130435
 50
0.0
 71
     0
 42
1.6146
  3

  4
bigfont
  0
STYLE
  5
B0
330
3
100
AcDbSymbolTableRecord
100
AcDbTextStyleTableRecord
  2
KANJI12
 70
     0
 40
2.5
 41
0.9416
 50
0.0
 71
     0
 42
2.5
  3

  4
bigfont
  0
STYLE
  5
B1
330
3
100
AcDbSymbolTableRecord
100
AcDbTextStyleTableRecord
  2
KANJI13
 70
     0
 40
2.799999999999998
 41
0.8928571429999998
 50
0.0
 71
     0
 42
2.799999999999998
  3

  4
bigfont
  0
ENDTAB
  0
TABLE
  2
VIEW
  5
6
330
0
100
AcDbSymbolTable
 70
     0
  0
ENDTAB
  0
TABLE
  2
UCS
  5
7
330
0
100
AcDbSymbolTable
 70
     0
  0
ENDTAB
  0
TABLE
  2
APPID
  5
9
330
0
100
AcDbSymbolTable
 70
     1
  0
APPID
  5
12
330
9
100
AcDbSymbolTableRecord
100
AcDbRegAppTableRecord
  2
ACAD
 70
     0
  0
ENDTAB
  0
TABLE
  2
DIMSTYLE
  5
A
330
0
100
AcDbSymbolTable
 70
     1
100
AcDbDimStyleTable
 71
     0
  0
DIMSTYLE
105
759
330
A
100
AcDbSymbolTableRecord
100
AcDbDimStyleTableRecord
  2
Standard
 70
     0
340
11
  0
ENDTAB
  0
TABLE
  2
BLOCK_RECORD
  5
1
330
0
100
AcDbSymbolTable
 70
     3
  0
BLOCK_RECORD
  5
1E
330
1
100
AcDbSymbolTableRecord
100
AcDbBlockTableRecord
  2
*Model_Space
340
21
  0
BLOCK_RECORD
  5
1A
330
1
100
AcDbSymbolTableRecord
100
AcDbBlockTableRecord
  2
*Paper_Space
340
1D
  0
BLOCK_RECORD
  5
78F
330
1
100
AcDbSymbolTableRecord
100
AcDbBlockTableRecord
  2
A$C3FE20732
340
0
  0
BLOCK_RECORD
  5
7BE
330
1
100
AcDbSymbolTableRecord
100
AcDbBlockTableRecord
  2
A$C65E716D9
340
0
  0
ENDTAB
  0
ENDSEC
  0
SECTION
  2
BLOCKS
  0
BLOCK
  5
1F
330
1E
100
AcDbEntity
  8
0
100
AcDbBlockBegin
  2
*Model_Space
 70
     0
 10
0.0
 20
0.0
 30
0.0
  3
*Model_Space
  1

  0
ENDBLK
  5
20
330
1E
100
AcDbEntity
  8
0
100
AcDbBlockEnd
  0
BLOCK
  5
1B
330
1A
100
AcDbEntity
 67
     1
  8
0
100
AcDbBlockBegin
  2
*Paper_Space
 70
     0
 10
0.0
 20
0.0
 30
0.0
  3
*Paper_Space
  1

  0
ENDBLK
  5
1C
330
1A
100
AcDbEntity
 67
     1
  8
0
100
AcDbBlockEnd
  0
BLOCK
  5
794
330
78F
100
AcDbEntity
  8
0
100
AcDbBlockBegin
  2
A$C3FE20732
 70
     0
 10
0.0
 20
0.0
 30
0.0
  3
A$C3FE20732
  1

  0
LINE
  5
790
330
78F
100
AcDbEntity
  8
0
  6
Continuous
 62
     3
100
AcDbLine
 10
-1.249999999999914
 20
32.5
 30
0.0
 11
-1.249999999999914
 21
4.5
 31
0.0
  0
LINE
  5
791
330
78F
100
AcDbEntity
  8
0
  6
Continuous
 62
     3
100
AcDbLine
 10
-6.25
 20
4.5
 30
0.0
 11
-6.25
 21
32.5
 31
0.0
  0
LINE
  5
792
330
78F
100
AcDbEntity
  8
0
  6
Continuous
 62
     3
100
AcDbLine
 10
-1.249999999999914
 20
4.5
 30
0.0
 11
-6.25
 21
4.5
 31
0.0
  0
LINE
  5
793
330
78F
100
AcDbEntity
  8
0
  6
Continuous
 62
     3
100
AcDbLine
 10
-6.25
 20
32.5
 30
0.0
 11
-1.249999999999914
 21
32.5
 31
0.0
  0
ENDBLK
  5
795
330
78F
100
AcDbEntity
  8
0
100
AcDbBlockEnd
  0
BLOCK
  5
7CE
330
7BE
100
AcDbEntity
  8
0
100
AcDbBlockBegin
  2
A$C65E716D9
 70
     0
 10
0.0
 20
0.0
 30
0.0
  3
A$C65E716D9
  1

  0
LINE
  5
7BF
330
7BE
100
AcDbEntity
  8
0
  6
Continuous
 62
     3
100
AcDbLine
 10
66.66425166449366
 20
-8.901314119647793
 30
0.0
 11
68.16425166449366
 21
-8.901314119647793
 31
0.0
  0
LINE
  5
7C0
330
7BE
100
AcDbEntity
  8
0
  6
Continuous
 62
     3
100
AcDbLine
 10
68.16425166449366
 20
-7.901314119647792
 30
0.0
 11
66.66425166449366
 21
-7.901314119647792
 31
0.0
  0
CIRCLE
  5
7C1
330
7BE
100
AcDbEntity
  8
0
  6
Continuous
 62
     3
100
AcDbCircle
 10
66.16425166449366
 20
-8.401314119647793
 30
0.0
 40
3.2
  0
CIRCLE
  5
7C2
330
7BE
100
AcDbEntity
  8
0
  6
Continuous
 62
     3
100
AcDbCircle
 10
66.16425166449366
 20
-8.401314119647793
 30
0.0
 40
3.0
  0
ARC
  5
7C3
330
7BE
100
AcDbEntity
  8
0
  6
Continuous
 62
     3
100
AcDbCircle
 10
66.16425166449366
 20
-8.401314119647793
 30
0.0
 40
6.0
100
AcDbArc
 50
29.92595633399909
 51
330.0740436660008
  0
LINE
  5
7C4
330
7BE
100
AcDbEntity
  8
0
  6
Continuous
 62
     3
100
AcDbLine
 10
65.66425166449366
 20
-6.401314119647792
 30
0.0
 11
65.66425166449366
 21
-7.901314119647792
 31
0.0
  0
LINE
  5
7C5
330
7BE
100
AcDbEntity
  8
0
  6
Continuous
 62
     3
100
AcDbLine
 10
66.66425166449366
 20
-7.901314119647792
 30
0.0
 11
66.66425166449366
 21
-6.401314119647792
 31
0.0
  0
LINE
  5
7C6
330
7BE
100
AcDbEntity
  8
0
  6
Continuous
 62
     3
100
AcDbLine
 10
65.66425166449366
 20
-8.901314119647793
 30
0.0
 11
65.66425166449366
 21
-10.40131411964779
 31
0.0
  0
LINE
  5
7C7
330
7BE
100
AcDbEntity
  8
0
  6
Continuous
 62
     3
100
AcDbLine
 10
65.66425166449366
 20
-10.40131411964779
 30
0.0
 11
66.66425166449366
 21
-10.40131411964779
 31
0.0
  0
LINE
  5
7C8
330
7BE
100
AcDbEntity
  8
0
  6
Continuous
 62
     3
100
AcDbLine
 10
66.66425166449366
 20
-10.40131411964779
 30
0.0
 11
66.66425166449366
 21
-8.901314119647793
 31
0.0
  0
LINE
  5
7C9
330
7BE
100
AcDbEntity
  8
0
  6
Continuous
 62
     3
100
AcDbLine
 10
64.16425166449366
 20
-7.901314119647792
 30
0.0
 11
64.16425166449366
 21
-8.901314119647793
 31
0.0
  0
LINE
  5
7CA
330
7BE
100
AcDbEntity
  8
0
  6
Continuous
 62
     3
100
AcDbLine
 10
65.66425166449366
 20
-7.901314119647792
 30
0.0
 11
64.16425166449366
 21
-7.901314119647792
 31
0.0
  0
LINE
  5
7CB
330
7BE
100
AcDbEntity
  8
0
  6
Continuous
 62
     3
100
AcDbLine
 10
64.16425166449366
 20
-8.901314119647793
 30
0.0
 11
65.66425166449366
 21
-8.901314119647793
 31
0.0
  0
LINE
  5
7CC
330
7BE
100
AcDbEntity
  8
0
  6
Continuous
 62
     3
100
AcDbLine
 10
66.66425166449366
 20
-6.401314119647792
 30
0.0
 11
65.66425166449366
 21
-6.401314119647792
 31
0.0
  0
LINE
  5
7CD
330
7BE
100
AcDbEntity
  8
0
  6
Continuous
 62
     3
100
AcDbLine
 10
68.16425166449366
 20
-8.901314119647793
 30
0.0
 11
68.16425166449366
 21
-7.901314119647792
 31
0.0
  0
ENDBLK
  5
7CF
330
7BE
100
AcDbEntity
  8
0
100
AcDbBlockEnd
  0
ENDSEC
  0
SECTION
  2
ENTITIES
  0
LWPOLYLINE
  5
B5
330
1E
100
AcDbEntity
  8
2
 62
     3
100
AcDbPolyline
 90
        3
 70
     0
 43
0.0
 10
260.9715
 20
218.3513
 10
237.5715
 20
218.3513
 10
237.5715
 20
230.0513
  0
LINE
  5
BA
330
1E
100
AcDbEntity
  8
2
  6
Continuous
 62
     3
100
AcDbLine
 10
237.5715
 20
247.9912999999999
 30
0.0
 11
260.9715
 21
247.9912999999999
 31
0.0
  0
LINE
  5
BB
330
1E
100
AcDbEntity
  8
2
  6
Continuous
 62
     3
100
AcDbLine
 10
260.9715
 20
247.9912999999999
 30
0.0
 11
260.9715
 21
236.2913
 31
0.0
  0
LINE
  5
BC
330
1E
100
AcDbEntity
  8
2
  6
Continuous
 62
     3
100
AcDbLine
 10
268.7715
 20
247.9912999999999
 30
0.0
 11
292.1714999999998
 21
247.9912999999999
 31
0.0
  0
LINE
  5
BD
330
1E
100
AcDbEntity
  8
2
  6
Continuous
 62
     3
100
AcDbLine
 10
268.7715
 20
236.2913
 30
0.0
 11
268.7715
 21
247.9912999999999
 31
0.0
  0
LINE
  5
BE
330
1E
100
AcDbEntity
  8
2
  6
Continuous
 62
     3
100
AcDbLine
 10
237.5715
 20
236.2913
 30
0.0
 11
237.5715
 21
247.9912999999999
 31
0.0
  0
LINE
  5
BF
330
1E
100
AcDbEntity
  8
2
  6
Continuous
 62
     3
100
AcDbLine
 10
260.9715
 20
236.2913
 30
0.0
 11
237.5715
 21
236.2913
 31
0.0
  0
LINE
  5
C0
330
1E
100
AcDbEntity
  8
2
  6
Continuous
 62
     3
100
AcDbLine
 10
260.9715
 20
230.0513
 30
0.0
 11
260.9715
 21
218.3513
 31
0.0
  0
LINE
  5
C1
330
1E
100
AcDbEntity
  8
2
  6
Continuous
 62
     3
100
AcDbLine
 10
237.5715
 20
230.0513
 30
0.0
 11
260.9715
 21
230.0513
 31
0.0
  0
LINE
  5
C2
330
1E
100
AcDbEntity
  8
2
  6
Continuous
 62
     3
100
AcDbLine
 10
268.7715
 20
230.0513
 30
0.0
 11
292.1714999999998
 21
230.0513
 31
0.0
  0
LINE
  5
C3
330
1E
100
AcDbEntity
  8
2
  6
Continuous
 62
     3
100
AcDbLine
 10
268.7715
 20
218.3513
 30
0.0
 11
268.7715
 21
230.0513
 31
0.0
  0
LINE
  5
C4
330
1E
100
AcDbEntity
  8
2
  6
Continuous
 62
     3
100
AcDbLine
 10
292.1714999999998
 20
230.0513
 30
0.0
 11
292.1714999999998
 21
218.3513
 31
0.0
  0
LINE
  5
C5
330
1E
100
AcDbEntity
  8
2
  6
Continuous
 62
     3
100
AcDbLine
 10
292.1714999999998
 20
218.3513
 30
0.0
 11
268.7715
 21
218.3513
 31
0.0
  0
LINE
  5
C6
330
1E
100
AcDbEntity
  8
2
  6
Continuous
 62
     3
100
AcDbLine
 10
292.1714999999998
 20
247.9912999999999
 30
0.0
 11
292.1714999999998
 21
236.2913
 31
0.0
  0
LINE
  5
C7
330
1E
100
AcDbEntity
  8
2
  6
Continuous
 62
     3
100
AcDbLine
 10
292.1714999999998
 20
236.2913
 30
0.0
 11
268.7715
 21
236.2913
 31
0.0
  0
LINE
  5
C8
330
1E
100
AcDbEntity
  8
0
  6
Continuous
 62
     3
100
AcDbLine
 10
52.675
 20
119.9
 30
0.0
 11
52.675
 21
121.4
 31
0.0
  0
LINE
  5
C9
330
1E
100
AcDbEntity
  8
0
  6
Continuous
 62
     3
100
AcDbLine
 10
54.675
 20
240.3999999999999
 30
0.0
 11
54.675
 21
121.4
 31
0.0
  0
LINE
  5
CA
330
1E
100
AcDbEntity
  8
0
  6
Continuous
 62
     3
100
AcDbLine
 10
52.675
 20
121.4
 30
0.0
 11
54.675
 21
121.4
 31
0.0
  0
LINE
  5
CB
330
1E
100
AcDbEntity
  8
0
  6
Continuous
 62
     3
100
AcDbLine
 10
146.675
 20
240.3999999999999
 30
0.0
 11
146.675
 21
121.4
 31
0.0
  0
LINE
  5
CC
330
1E
100
AcDbEntity
  8
0
  6
Continuous
 62
     3
100
AcDbLine
 10
137.925
 20
241.4
 30
0.0
 11
137.925
 21
240.3999999999999
 31
0.0
  0
LINE
  5
CD
330
1E
100
AcDbEntity
  8
0
  6
Continuous
 62
     3
100
AcDbLine
 10
52.675
 20
119.9
 30
0.0
 11
52.675
 21
119.4
 31
0.0
  0
LINE
  5
CE
330
1E
100
AcDbEntity
  8
0
  6
Continuous
 62
     3
100
AcDbLine
 10
148.675
 20
119.4
 30
0.0
 11
148.675
 21
121.4
 31
0.0
  0
LINE
  5
CF
330
1E
100
AcDbEntity
  8
0
  6
Continuous
 62
     3
100
AcDbLine
 10
148.675
 20
119.9
 30
0.0
 11
100.675
 21
119.9
 31
0.0
  0
POINT
  5
D0
330
1E
100
AcDbEntity
  8
0
  6
Continuous
 62
     3
100
AcDbPoint
 10
62.675
 20
119.9
 30
0.0
  0
POINT
  5
D1
330
1E
100
AcDbEntity
  8
0
  6
Continuous
 62
     3
100
AcDbPoint
 10
138.675
 20
119.9
 30
0.0
  0
LINE
  5
D2
330
1E
100
AcDbEntity
  8
0
  6
Continuous
 62
     3
100
AcDbLine
 10
63.17499999999999
 20
240.3999999999999
 30
0.0
 11
63.17499999999999
 21
241.4
 31
0.0
  0
LINE
  5
D3
330
1E
100
AcDbEntity
  8
0
  6
Continuous
 62
     3
100
AcDbLine
 10
54.675
 20
240.3999999999999
 30
0.0
 11
63.17499999999999
 21
240.3999999999999
 31
0.0
  0
POINT
  5
D4
330
1E
100
AcDbEntity
  8
0
  6
Continuous
 62
     3
100
AcDbPoint
 10
148.675
 20
119.9
 30
0.0
  0
LINE
  5
D5
330
1E
100
AcDbEntity
  8
0
  6
Continuous
 62
     3
100
AcDbLine
 10
146.525
 20
240.3999999999999
 30
0.0
 11
137.925
 21
240.3999999999999
 31
0.0
  0
ARC
  5
D6
330
1E
100
AcDbEntity
  8
0
  6
Continuous
 62
     3
100
AcDbCircle
 10
70.425
 20
128.4
 30
0.0
 40
0.5
100
AcDbArc
 50
180.0000000009999
 51
270.0
  0
LINE
  5
D7
330
1E
100
AcDbEntity
  8
0
  6
Continuous
 62
     3
100
AcDbLine
 10
130.925
 20
127.9
 30
0.0
 11
70.425
 21
127.9
 31
0.0
  0
ARC
  5
D8
330
1E
100
AcDbEntity
  8
0
  6
Continuous
 62
     3
100
AcDbCircle
 10
130.925
 20
128.4
 30
0.0
 40
0.5
100
AcDbArc
 50
270.0
 51
0.0
  0
LINE
  5
D9
330
1E
100
AcDbEntity
  8
0
  6
Continuous
 62
     3
100
AcDbLine
 10
69.92499999999999
 20
128.3499999999999
 30
0.0
 11
69.92499999999999
 21
144.4
 31
0.0
  0
ARC
  5
DA
330
1E
100
AcDbEntity
  8
0
  6
Continuous
 62
     3
100
AcDbCircle
 10
70.425
 20
144.4
 30
0.0
 40
0.5
100
AcDbArc
 50
90.0
 51
180.0000000009999
  0
LINE
  5
DB
330
1E
100
AcDbEntity
  8
0
  6
Continuous
 62
     3
100
AcDbLine
 10
70.425
 20
144.9
 30
0.0
 11
130.925
 21
144.9
 31
0.0
  0
ARC
  5
DC
330
1E
100
AcDbEntity
  8
0
  6
Continuous
 62
     3
100
AcDbCircle
 10
130.925
 20
144.4
 30
0.0
 40
0.5
100
AcDbArc
 50
0.0
 51
90.0
  0
ARC
  5
DD
330
1E
100
AcDbEntity
  8
0
  6
Continuous
 62
     3
100
AcDbCircle
 10
135.675
 20
146.4
 30
0.0
 40
0.5
100
AcDbArc
 50
270.0
 51
0.0
  0
LINE
  5
DE
330
1E
100
AcDbEntity
  8
0
  6
Continuous
 62
     3
100
AcDbLine
 10
135.675
 20
145.9
 30
0.0
 11
131.425
 21
145.9
 31
0.0
  0
ARC
  5
DF
330
1E
100
AcDbEntity
  8
0
  6
Continuous
 62
     3
100
AcDbCircle
 10
135.675
 20
193.65
 30
0.0
 40
0.5
100
AcDbArc
 50
270.0
 51
0.0
  0
LINE
  5
E0
330
1E
100
AcDbEntity
  8
0
  6
Continuous
 62
     3
100
AcDbLine
 10
136.175
 20
146.4
 30
0.0
 11
136.175
 21
191.65
 31
0.0
  0
ARC
  5
E1
330
1E
100
AcDbEntity
  8
0
  6
Continuous
 62
     3
100
AcDbCircle
 10
135.675
 20
191.65
 30
0.0
 40
0.5
100
AcDbArc
 50
0.0
 51
90.0
  0
ARC
  5
E2
330
1E
100
AcDbEntity
  8
0
  6
Continuous
 62
     3
100
AcDbCircle
 10
135.675
 20
238.9
 30
0.0
 40
0.5
100
AcDbArc
 50
0.0
 51
90.0
  0
LINE
  5
E3
330
1E
100
AcDbEntity
  8
0
  6
Continuous
 62
     3
100
AcDbLine
 10
135.675
 20
239.4
 30
0.0
 11
65.67499999999999
 21
239.4
 31
0.0
  0
ARC
  5
E4
330
1E
100
AcDbEntity
  8
0
  6
Continuous
 62
     3
100
AcDbCircle
 10
65.67499999999999
 20
238.9
 30
0.0
 40
0.5
100
AcDbArc
 50
90.0
 51
180.0000000009999
  0
LINE
  5
E5
330
1E
100
AcDbEntity
  8
0
  6
Continuous
 62
     3
100
AcDbLine
 10
136.175
 20
193.65
 30
0.0
 11
136.175
 21
238.3999999999999
 31
0.0
  0
LINE
  5
E6
330
1E
100
AcDbEntity
  8
0
  6
Continuous
 62
     3
100
AcDbLine
 10
131.425
 20
144.4
 30
0.0
 11
131.425
 21
128.4
 31
0.0
  0
LINE
  5
E7
330
1E
100
AcDbEntity
  8
0
  6
Continuous
 62
     3
100
AcDbLine
 10
65.175
 20
238.9
 30
0.0
 11
65.175
 21
193.65
 31
0.0
  0
LINE
  5
E8
330
1E
100
AcDbEntity
  8
0
  6
Continuous
 62
     3
100
AcDbLine
 10
135.675
 20
193.1499999999999
 30
0.0
 11
65.67499999999999
 21
193.1499999999999
 31
0.0
  0
ARC
  5
E9
330
1E
100
AcDbEntity
  8
0
  6
Continuous
 62
     3
100
AcDbCircle
 10
65.67499999999999
 20
193.65
 30
0.0
 40
0.5
100
AcDbArc
 50
180.0000000009999
 51
270.0
  0
LINE
  5
EA
330
1E
100
AcDbEntity
  8
0
  6
Continuous
 62
     3
100
AcDbLine
 10
65.67499999999999
 20
192.15
 30
0.0
 11
135.675
 21
192.15
 31
0.0
  0
ARC
  5
EB
330
1E
100
AcDbEntity
  8
0
  6
Continuous
 62
     3
100
AcDbCircle
 10
65.67499999999999
 20
191.65
 30
0.0
 40
0.5
100
AcDbArc
 50
90.0
 51
180.0000000009999
  0
LINE
  5
EC
330
1E
100
AcDbEntity
  8
0
  6
Continuous
 62
     3
100
AcDbLine
 10
131.9749999999999
 20
145.9
 30
0.0
 11
65.67499999999999
 21
145.9
 31
0.0
  0
LINE
  5
ED
330
1E
100
AcDbEntity
  8
0
  6
Continuous
 62
     3
100
AcDbLine
 10
65.175
 20
191.65
 30
0.0
 11
65.175
 21
146.4
 31
0.0
  0
ARC
  5
EE
330
1E
100
AcDbEntity
  8
0
  6
Continuous
 62
     3
100
AcDbCircle
 10
65.67499999999999
 20
146.4
 30
0.0
 40
0.5
100
AcDbArc
 50
180.0000000009999
 51
270.0
  0
LINE
  5
EF
330
1E
100
AcDbEntity
  8
0
  6
Continuous
 62
     3
100
AcDbLine
 10
148.675
 20
121.4
 30
0.0
 11
54.675
 21
121.4
 31
0.0
  0
LINE
  5
F0
330
1E
100
AcDbEntity
  8
0
  6
Continuous
 62
     3
100
AcDbLine
 10
100.675
 20
119.9
 30
0.0
 11
52.675
 21
119.9
 31
0.0
  0
LINE
  5
F1
330
1E
100
AcDbEntity
  8
0
  6
Continuous
 62
     3
100
AcDbLine
 10
52.675
 20
119.9
 30
0.0
 11
52.925
 21
114.9
 31
0.0
  0
LINE
  5
F2
330
1E
100
AcDbEntity
  8
0
  6
Continuous
 62
     3
100
AcDbLine
 10
52.925
 20
114.9
 30
0.0
 11
148.425
 21
114.9
 31
0.0
  0
LINE
  5
F3
330
1E
100
AcDbEntity
  8
0
  6
Continuous
 62
     3
100
AcDbLine
 10
148.425
 20
114.9
 30
0.0
 11
148.675
 21
119.65
 31
0.0
  0
LINE
  5
F4
330
1E
100
AcDbEntity
  8
0
  6
Continuous
 62
     3
100
AcDbLine
 10
146.8
 20
121.525
 30
0.0
 11
148.3999999999998
 21
121.525
 31
0.0
  0
LINE
  5
F5
330
1E
100
AcDbEntity
  8
0
  6
Continuous
 62
     3
100
AcDbLine
 10
146.8
 20
241.5249999999999
 30
0.0
 11
146.8
 21
159.525
 31
0.0
  0
LINE
  5
F6
330
1E
100
AcDbEntity
  8
0
  6
Continuous
 62
     3
100
AcDbLine
 10
146.8
 20
144.925
 30
0.0
 11
148.3999999999998
 21
144.925
 31
0.0
  0
ARC
  5
F7
330
1E
100
AcDbEntity
  8
0
  6
Continuous
 62
     3
100
AcDbCircle
 10
146.8
 20
241.5249999999999
 30
0.0
 40
1.6
100
AcDbArc
 50
0.0
 51
90.0
  0
LINE
  5
F8
330
1E
100
AcDbEntity
  8
0
  6
Continuous
 62
     3
100
AcDbLine
 10
146.8
 20
159.525
 30
0.0
 11
146.8
 21
121.525
 31
0.0
  0
LINE
  5
F9
330
1E
100
AcDbEntity
  8
0
  6
Continuous
 62
     3
100
AcDbLine
 10
148.3999999999998
 20
121.525
 30
0.0
 11
148.3999999999998
 21
241.5249999999999
 31
0.0
  0
ARC
  5
FA
330
1E
100
AcDbEntity
  8
0
  6
Continuous
 62
     3
100
AcDbCircle
 10
54.55
 20
241.5249999999999
 30
0.0
 40
1.6
100
AcDbArc
 50
90.0
 51
180.0
  0
LINE
  5
FB
330
1E
100
AcDbEntity
  8
0
  6
Continuous
 62
     3
100
AcDbLine
 10
52.95
 20
121.525
 30
0.0
 11
52.95
 21
241.5249999999999
 31
0.0
  0
LINE
  5
FC
330
1E
100
AcDbEntity
  8
0
  6
Continuous
 62
     3
100
AcDbLine
 10
54.55
 20
241.5249999999999
 30
0.0
 11
54.55
 21
121.4
 31
0.0
  0
POINT
  5
FD
330
1E
100
AcDbEntity
  8
0
  6
Continuous
 62
     3
100
AcDbPoint
 10
57.675
 20
240.775
 30
0.0
  0
LINE
  5
FE
330
1E
100
AcDbEntity
  8
0
  6
Continuous
 62
     3
100
AcDbLine
 10
63.17499999999999
 20
241.4
 30
0.0
 11
137.925
 21
241.4
 31
0.0
  0
POINT
  5
FF
330
1E
100
AcDbEntity
  8
0
  6
Continuous
 62
     3
100
AcDbPoint
 10
58.67499999999999
 20
238.275
 30
0.0
  0
LINE
  5
100
330
1E
100
AcDbEntity
  8
0
  6
Continuous
 62
     3
100
AcDbLine
 10
54.92499999999999
 20
241.5249999999999
 30
0.0
 11
54.92499999999999
 21
259.0249999999999
 31
0.0
  0
LINE
  5
101
330
1E
100
AcDbEntity
  8
0
  6
Continuous
 62
     3
100
AcDbLine
 10
54.92499999999999
 20
259.0249999999999
 30
0.0
 11
100.675
 21
259.0249999999999
 31
0.0
  0
LINE
  5
102
330
1E
100
AcDbEntity
  8
0
  6
Continuous
 62
     3
100
AcDbLine
 10
146.425
 20
259.0249999999999
 30
0.0
 11
146.425
 21
241.475
 31
0.0
  0
LINE
  5
103
330
1E
100
AcDbEntity
  8
0
  6
Continuous
 62
     3
100
AcDbLine
 10
100.675
 20
259.0249999999999
 30
0.0
 11
146.425
 21
259.0249999999999
 31
0.0
  0
ARC
  5
104
330
1E
100
AcDbEntity
  8
0
  6
LTYPE1
 62
     3
100
AcDbCircle
 10
80.675
 20
171.4
 30
0.0
 40
1.0
100
AcDbArc
 50
180.0
 51
270.0
  0
LINE
  5
105
330
1E
100
AcDbEntity
  8
0
  6
Continuous
 62
     3
100
AcDbLine
 10
214.375
 20
119.4
 30
0.0
 11
214.875
 21
119.4
 31
0.0
  0
LINE
  5
106
330
1E
100
AcDbEntity
  8
0
  6
Continuous
 62
     3
100
AcDbLine
 10
217.8749999999999
 20
119.9
 30
0.0
 11
217.8749999999999
 21
121.4
 31
0.0
  0
LINE
  5
107
330
1E
100
AcDbEntity
  8
0
  6
Continuous
 62
     3
100
AcDbLine
 10
217.8749999999999
 20
121.4
 30
0.0
 11
216.3749999999999
 21
121.4
 31
0.0
  0
LINE
  5
108
330
1E
100
AcDbEntity
  8
0
  6
Continuous
 62
     3
100
AcDbLine
 10
216.3749999999999
 20
121.4
 30
0.0
 11
216.3749999999999
 21
241.4
 31
0.0
  0
LINE
  5
109
330
1E
100
AcDbEntity
  8
0
  6
Continuous
 62
     3
100
AcDbLine
 10
216.3749999999999
 20
241.4
 30
0.0
 11
213.8749999999999
 21
241.4
 31
0.0
  0
LINE
  5
10A
330
1E
100
AcDbEntity
  8
0
  6
Continuous
 62
     3
100
AcDbLine
 10
209.8749999999999
 20
121.4
 30
0.0
 11
209.8749999999999
 21
124.3999999999999
 31
0.0
  0
LINE
  5
10B
330
1E
100
AcDbEntity
  8
0
  6
Continuous
 62
     3
100
AcDbLine
 10
209.8749999999999
 20
124.3999999999999
 30
0.0
 11
205.8749999999998
 21
124.3999999999999
 31
0.0
  0
LINE
  5
10C
330
1E
100
AcDbEntity
  8
0
  6
Continuous
 62
     3
100
AcDbLine
 10
205.8749999999998
 20
124.3999999999999
 30
0.0
 11
205.8749999999998
 21
121.4
 31
0.0
  0
LINE
  5
10D
330
1E
100
AcDbEntity
  8
0
  6
Continuous
 62
     3
100
AcDbLine
 10
173.375
 20
119.4
 30
0.0
 11
172.8749999999999
 21
119.4
 31
0.0
  0
LINE
  5
10E
330
1E
100
AcDbEntity
  8
0
  6
Continuous
 62
     4
100
AcDbLine
 10
169.8749999999999
 20
119.9
 30
0.0
 11
169.8749999999999
 21
121.4
 31
0.0
  0
LINE
  5
10F
330
1E
100
AcDbEntity
  8
0
  6
Continuous
 62
     3
100
AcDbLine
 10
171.375
 20
121.4
 30
0.0
 11
171.375
 21
241.4
 31
0.0
  0
LINE
  5
110
330
1E
100
AcDbEntity
  8
0
  6
Continuous
 62
     3
100
AcDbLine
 10
177.875
 20
121.4
 30
0.0
 11
177.875
 21
124.3999999999999
 31
0.0
  0
LINE
  5
111
330
1E
100
AcDbEntity
  8
0
  6
Continuous
 62
     3
100
AcDbLine
 10
177.875
 20
124.3999999999999
 30
0.0
 11
181.875
 21
124.3999999999999
 31
0.0
  0
LINE
  5
112
330
1E
100
AcDbEntity
  8
0
  6
Continuous
 62
     3
100
AcDbLine
 10
181.875
 20
124.3999999999999
 30
0.0
 11
181.875
 21
121.4
 31
0.0
  0
LINE
  5
113
330
1E
100
AcDbEntity
  8
0
  6
Continuous
 62
     3
100
AcDbLine
 10
188.375
 20
241.4
 30
0.0
 11
188.375
 21
240.3999999999999
 31
0.0
  0
LINE
  5
114
330
1E
100
AcDbEntity
  8
0
  6
Continuous
 62
     3
100
AcDbLine
 10
206.375
 20
138.9
 30
0.0
 11
206.375
 21
131.9
 31
0.0
  0
LINE
  5
115
330
1E
100
AcDbEntity
  8
0
  6
Continuous
 62
     3
100
AcDbLine
 10
214.875
 20
119.9
 30
0.0
 11
217.8749999999999
 21
119.9
 31
0.0
  0
LINE
  5
116
330
1E
100
AcDbEntity
  8
0
  6
Continuous
 62
     3
100
AcDbLine
 10
193.8749999999999
 20
119.4
 30
0.0
 11
214.875
 21
119.4
 31
0.0
  0
LINE
  5
117
330
1E
100
AcDbEntity
  8
0
  6
Continuous
 62
     3
100
AcDbLine
 10
172.8749999999999
 20
119.9
 30
0.0
 11
169.8749999999999
 21
119.9
 31
0.0
  0
LINE
  5
118
330
1E
100
AcDbEntity
  8
0
  6
Continuous
 62
     3
100
AcDbLine
 10
193.8749999999999
 20
119.4
 30
0.0
 11
172.8749999999999
 21
119.4
 31
0.0
  0
LINE
  5
119
330
1E
100
AcDbEntity
  8
0
  6
Continuous
 62
     3
100
AcDbLine
 10
169.8749999999999
 20
121.4
 30
0.0
 11
177.875
 21
121.4
 31
0.0
  0
LINE
  5
11A
330
1E
100
AcDbEntity
  8
0
  6
Continuous
 62
     3
100
AcDbLine
 10
205.6249999999999
 20
121.4
 30
0.0
 11
177.875
 21
121.4
 31
0.0
  0
LINE
  5
11B
330
1E
100
AcDbEntity
  8
0
  6
Continuous
 62
     3
100
AcDbLine
 10
205.8749999999998
 20
121.4
 30
0.0
 11
216.875
 21
121.4
 31
0.0
  0
LINE
  5
11C
330
1E
100
AcDbEntity
  8
0
  6
Continuous
 62
     3
100
AcDbLine
 10
200.125
 20
171.4
 30
0.0
 11
205.125
 21
171.4
 31
0.0
  0
LINE
  5
11D
330
1E
100
AcDbEntity
  8
0
  6
Continuous
 62
     3
100
AcDbLine
 10
205.125
 20
171.4
 30
0.0
 11
205.125
 21
143.4
 31
0.0
  0
LINE
  5
11E
330
1E
100
AcDbEntity
  8
0
  6
Continuous
 62
     3
100
AcDbLine
 10
205.125
 20
143.4
 30
0.0
 11
200.125
 21
143.4
 31
0.0
  0
LINE
  5
11F
330
1E
100
AcDbEntity
  8
0
  6
Continuous
 62
     3
100
AcDbLine
 10
200.125
 20
143.4
 30
0.0
 11
200.125
 21
171.4
 31
0.0
  0
LINE
  5
120
330
1E
100
AcDbEntity
  8
0
  6
Continuous
 62
     3
100
AcDbLine
 10
174.375
 20
152.9
 30
0.0
 11
176.1249999999999
 21
152.9
 31
0.0
  0
LINE
  5
121
330
1E
100
AcDbEntity
  8
0
  6
Continuous
 62
     3
100
AcDbLine
 10
177.3749999999999
 20
152.9
 30
0.0
 11
179.1249999999999
 21
152.9
 31
0.0
  0
LINE
  5
122
330
1E
100
AcDbEntity
  8
0
  6
Continuous
 62
     3
100
AcDbLine
 10
213.375
 20
152.9
 30
0.0
 11
211.6249999999999
 21
152.9
 31
0.0
  0
LINE
  5
123
330
1E
100
AcDbEntity
  8
0
  6
Continuous
 62
     3
100
AcDbLine
 10
210.375
 20
152.9
 30
0.0
 11
208.625
 21
152.9
 31
0.0
  0
LINE
  5
124
330
1E
100
AcDbEntity
  8
0
  6
Continuous
 62
     3
100
AcDbLine
 10
175.375
 20
238.3999999999999
 30
0.0
 11
173.375
 21
238.3999999999999
 31
0.0
  0
LINE
  5
125
330
1E
100
AcDbEntity
  8
0
  6
Continuous
 62
     3
100
AcDbLine
 10
181.3749999999999
 20
230.9
 30
0.0
 11
183.125
 21
230.9
 31
0.0
  0
LINE
  5
126
330
1E
100
AcDbEntity
  8
0
  6
Continuous
 62
     3
100
AcDbLine
 10
181.3749999999999
 20
213.3999999999999
 30
0.0
 11
181.3749999999999
 21
230.9
 31
0.0
  0
LINE
  5
127
330
1E
100
AcDbEntity
  8
0
  6
Continuous
 62
     3
100
AcDbLine
 10
183.125
 20
230.9
 30
0.0
 11
183.125
 21
213.1499999999999
 31
0.0
  0
LINE
  5
128
330
1E
100
AcDbEntity
  8
0
  6
Continuous
 62
     3
100
AcDbLine
 10
181.3749999999999
 20
195.65
 30
0.0
 11
181.3749999999999
 21
213.3999999999999
 31
0.0
  0
LINE
  5
129
330
1E
100
AcDbEntity
  8
0
  6
Continuous
 62
     3
100
AcDbLine
 10
183.125
 20
213.3999999999999
 30
0.0
 11
183.125
 21
195.8999999999999
 31
0.0
  0
LINE
  5
12A
330
1E
100
AcDbEntity
  8
0
  6
Continuous
 62
     3
100
AcDbLine
 10
183.125
 20
215.9
 30
0.0
 11
181.3749999999999
 21
215.9
 31
0.0
  0
LINE
  5
12B
330
1E
100
AcDbEntity
  8
0
  6
Continuous
 62
     3
100
AcDbLine
 10
181.3749999999999
 20
210.8999999999999
 30
0.0
 11
183.125
 21
210.8999999999999
 31
0.0
  0
LINE
  5
12C
330
1E
100
AcDbEntity
  8
0
  6
Continuous
 62
     3
100
AcDbLine
 10
183.125
 20
195.8999999999999
 30
0.0
 11
181.3749999999999
 21
195.8999999999999
 31
0.0
  0
LINE
  5
12D
330
1E
100
AcDbEntity
  8
0
  6
Continuous
 62
     3
100
AcDbLine
 10
183.125
 20
190.8999999999999
 30
0.0
 11
181.3749999999999
 21
190.8999999999999
 31
0.0
  0
LINE
  5
12E
330
1E
100
AcDbEntity
  8
0
  6
Continuous
 62
     3
100
AcDbLine
 10
181.3749999999999
 20
175.9
 30
0.0
 11
183.125
 21
175.9
 31
0.0
  0
LINE
  5
12F
330
1E
100
AcDbEntity
  8
0
  6
Continuous
 62
     3
100
AcDbLine
 10
181.3749999999999
 20
195.8999999999999
 30
0.0
 11
181.3749999999999
 21
175.9
 31
0.0
  0
LINE
  5
130
330
1E
100
AcDbEntity
  8
0
  6
Continuous
 62
     3
100
AcDbLine
 10
183.125
 20
175.9
 30
0.0
 11
183.125
 21
195.8999999999999
 31
0.0
  0
LINE
  5
131
330
1E
100
AcDbEntity
  8
0
  6
Continuous
 62
     3
100
AcDbLine
 10
184.375
 20
230.9
 30
0.0
 11
186.125
 21
230.9
 31
0.0
  0
LINE
  5
132
330
1E
100
AcDbEntity
  8
0
  6
Continuous
 62
     3
100
AcDbLine
 10
184.375
 20
213.3999999999999
 30
0.0
 11
184.375
 21
230.9
 31
0.0
  0
LINE
  5
133
330
1E
100
AcDbEntity
  8
0
  6
Continuous
 62
     3
100
AcDbLine
 10
186.125
 20
230.9
 30
0.0
 11
186.125
 21
213.1499999999999
 31
0.0
  0
LINE
  5
134
330
1E
100
AcDbEntity
  8
0
  6
Continuous
 62
     3
100
AcDbLine
 10
184.375
 20
195.65
 30
0.0
 11
184.375
 21
213.3999999999999
 31
0.0
  0
LINE
  5
135
330
1E
100
AcDbEntity
  8
0
  6
Continuous
 62
     3
100
AcDbLine
 10
186.125
 20
213.3999999999999
 30
0.0
 11
186.125
 21
195.8999999999999
 31
0.0
  0
LINE
  5
136
330
1E
100
AcDbEntity
  8
0
  6
Continuous
 62
     3
100
AcDbLine
 10
186.125
 20
215.9
 30
0.0
 11
184.375
 21
215.9
 31
0.0
  0
LINE
  5
137
330
1E
100
AcDbEntity
  8
0
  6
Continuous
 62
     3
100
AcDbLine
 10
184.375
 20
210.8999999999999
 30
0.0
 11
186.125
 21
210.8999999999999
 31
0.0
  0
LINE
  5
138
330
1E
100
AcDbEntity
  8
0
  6
Continuous
 62
     3
100
AcDbLine
 10
186.125
 20
195.8999999999999
 30
0.0
 11
184.375
 21
195.8999999999999
 31
0.0
  0
LINE
  5
139
330
1E
100
AcDbEntity
  8
0
  6
Continuous
 62
     3
100
AcDbLine
 10
186.125
 20
190.8999999999999
 30
0.0
 11
184.375
 21
190.8999999999999
 31
0.0
  0
LINE
  5
13A
330
1E
100
AcDbEntity
  8
0
  6
Continuous
 62
     3
100
AcDbLine
 10
184.375
 20
175.9
 30
0.0
 11
186.125
 21
175.9
 31
0.0
  0
LINE
  5
13B
330
1E
100
AcDbEntity
  8
0
  6
Continuous
 62
     3
100
AcDbLine
 10
184.375
 20
195.8999999999999
 30
0.0
 11
184.375
 21
175.9
 31
0.0
  0
LINE
  5
13C
330
1E
100
AcDbEntity
  8
0
  6
Continuous
 62
     3
100
AcDbLine
 10
186.125
 20
175.9
 30
0.0
 11
186.125
 21
195.8999999999999
 31
0.0
  0
LINE
  5
13D
330
1E
100
AcDbEntity
  8
0
  6
Continuous
 62
     3
100
AcDbLine
 10
187.375
 20
213.3999999999999
 30
0.0
 11
187.375
 21
230.9
 31
0.0
  0
LINE
  5
13E
330
1E
100
AcDbEntity
  8
0
  6
Continuous
 62
     3
100
AcDbLine
 10
187.375
 20
195.65
 30
0.0
 11
187.375
 21
213.3999999999999
 31
0.0
  0
LINE
  5
13F
330
1E
100
AcDbEntity
  8
0
  6
Continuous
 62
     3
100
AcDbLine
 10
187.375
 20
195.8999999999999
 30
0.0
 11
187.375
 21
175.9
 31
0.0
  0
LINE
  5
140
330
1E
100
AcDbEntity
  8
0
  6
Continuous
 62
     3
100
AcDbLine
 10
173.375
 20
215.9
 30
0.0
 11
175.375
 21
215.9
 31
0.0
  0
LINE
  5
141
330
1E
100
AcDbEntity
  8
0
  6
Continuous
 62
     3
100
AcDbLine
 10
175.375
 20
214.15
 30
0.0
 11
173.375
 21
214.15
 31
0.0
  0
LINE
  5
142
330
1E
100
AcDbEntity
  8
0
  6
Continuous
 62
     3
100
AcDbLine
 10
173.375
 20
238.3999999999999
 30
0.0
 11
173.375
 21
215.9
 31
0.0
  0
LINE
  5
143
330
1E
100
AcDbEntity
  8
0
  6
Continuous
 62
     3
100
AcDbLine
 10
175.375
 20
215.9
 30
0.0
 11
175.375
 21
238.3999999999999
 31
0.0
  0
LINE
  5
144
330
1E
100
AcDbEntity
  8
0
  6
Continuous
 62
     3
100
AcDbLine
 10
173.375
 20
214.15
 30
0.0
 11
173.375
 21
211.3999999999999
 31
0.0
  0
LINE
  5
145
330
1E
100
AcDbEntity
  8
0
  6
Continuous
 62
     3
100
AcDbLine
 10
175.375
 20
211.3999999999999
 30
0.0
 11
175.375
 21
214.15
 31
0.0
  0
LINE
  5
146
330
1E
100
AcDbEntity
  8
0
  6
Continuous
 62
     3
100
AcDbLine
 10
175.375
 20
192.65
 30
0.0
 11
173.375
 21
192.65
 31
0.0
  0
LINE
  5
147
330
1E
100
AcDbEntity
  8
0
  6
Continuous
 62
     3
100
AcDbLine
 10
173.375
 20
190.8999999999999
 30
0.0
 11
175.375
 21
190.8999999999999
 31
0.0
  0
LINE
  5
148
330
1E
100
AcDbEntity
  8
0
  6
Continuous
 62
     3
100
AcDbLine
 10
173.375
 20
192.65
 30
0.0
 11
173.375
 21
211.3999999999999
 31
0.0
  0
LINE
  5
149
330
1E
100
AcDbEntity
  8
0
  6
Continuous
 62
     3
100
AcDbLine
 10
175.375
 20
211.3999999999999
 30
0.0
 11
175.375
 21
192.65
 31
0.0
  0
LINE
  5
14A
330
1E
100
AcDbEntity
  8
0
  6
Continuous
 62
     3
100
AcDbLine
 10
175.375
 20
186.65
 30
0.0
 11
175.375
 21
167.4
 31
0.0
  0
LINE
  5
14B
330
1E
100
AcDbEntity
  8
0
  6
Continuous
 62
     3
100
AcDbLine
 10
175.375
 20
167.4
 30
0.0
 11
173.375
 21
167.4
 31
0.0
  0
LINE
  5
14C
330
1E
100
AcDbEntity
  8
0
  6
Continuous
 62
     3
100
AcDbLine
 10
173.375
 20
167.4
 30
0.0
 11
173.375
 21
186.65
 31
0.0
  0
LINE
  5
14D
330
1E
100
AcDbEntity
  8
0
  6
Continuous
 62
     3
100
AcDbLine
 10
173.375
 20
186.65
 30
0.0
 11
173.375
 21
190.8999999999999
 31
0.0
  0
LINE
  5
14E
330
1E
100
AcDbEntity
  8
0
  6
Continuous
 62
     3
100
AcDbLine
 10
175.375
 20
190.8999999999999
 30
0.0
 11
175.375
 21
186.15
 31
0.0
  0
LINE
  5
14F
330
1E
100
AcDbEntity
  8
0
  6
Continuous
 62
     3
100
AcDbLine
 10
212.375
 20
238.3999999999999
 30
0.0
 11
214.375
 21
238.3999999999999
 31
0.0
  0
LINE
  5
150
330
1E
100
AcDbEntity
  8
0
  6
Continuous
 62
     3
100
AcDbLine
 10
206.375
 20
230.9
 30
0.0
 11
204.625
 21
230.9
 31
0.0
  0
LINE
  5
151
330
1E
100
AcDbEntity
  8
0
  6
Continuous
 62
     3
100
AcDbLine
 10
206.375
 20
213.3999999999999
 30
0.0
 11
206.375
 21
230.9
 31
0.0
  0
LINE
  5
152
330
1E
100
AcDbEntity
  8
0
  6
Continuous
 62
     3
100
AcDbLine
 10
204.625
 20
230.9
 30
0.0
 11
204.625
 21
213.1499999999999
 31
0.0
  0
LINE
  5
153
330
1E
100
AcDbEntity
  8
0
  6
Continuous
 62
     3
100
AcDbLine
 10
206.375
 20
195.65
 30
0.0
 11
206.375
 21
213.3999999999999
 31
0.0
  0
LINE
  5
154
330
1E
100
AcDbEntity
  8
0
  6
Continuous
 62
     3
100
AcDbLine
 10
204.625
 20
213.3999999999999
 30
0.0
 11
204.625
 21
195.8999999999999
 31
0.0
  0
LINE
  5
155
330
1E
100
AcDbEntity
  8
0
  6
Continuous
 62
     3
100
AcDbLine
 10
204.625
 20
215.9
 30
0.0
 11
206.375
 21
215.9
 31
0.0
  0
LINE
  5
156
330
1E
100
AcDbEntity
  8
0
  6
Continuous
 62
     3
100
AcDbLine
 10
206.375
 20
210.8999999999999
 30
0.0
 11
204.625
 21
210.8999999999999
 31
0.0
  0
LINE
  5
157
330
1E
100
AcDbEntity
  8
0
  6
Continuous
 62
     3
100
AcDbLine
 10
204.625
 20
195.8999999999999
 30
0.0
 11
206.375
 21
195.8999999999999
 31
0.0
  0
LINE
  5
158
330
1E
100
AcDbEntity
  8
0
  6
Continuous
 62
     3
100
AcDbLine
 10
204.625
 20
190.8999999999999
 30
0.0
 11
206.375
 21
190.8999999999999
 31
0.0
  0
LINE
  5
159
330
1E
100
AcDbEntity
  8
0
  6
Continuous
 62
     3
100
AcDbLine
 10
206.375
 20
175.9
 30
0.0
 11
204.625
 21
175.9
 31
0.0
  0
LINE
  5
15A
330
1E
100
AcDbEntity
  8
0
  6
Continuous
 62
     3
100
AcDbLine
 10
206.375
 20
195.8999999999999
 30
0.0
 11
206.375
 21
175.9
 31
0.0
  0
LINE
  5
15B
330
1E
100
AcDbEntity
  8
0
  6
Continuous
 62
     3
100
AcDbLine
 10
204.625
 20
175.9
 30
0.0
 11
204.625
 21
195.8999999999999
 31
0.0
  0
LINE
  5
15C
330
1E
100
AcDbEntity
  8
0
  6
Continuous
 62
     3
100
AcDbLine
 10
203.3749999999999
 20
230.9
 30
0.0
 11
201.6249999999998
 21
230.9
 31
0.0
  0
LINE
  5
15D
330
1E
100
AcDbEntity
  8
0
  6
Continuous
 62
     3
100
AcDbLine
 10
203.3749999999999
 20
213.3999999999999
 30
0.0
 11
203.3749999999999
 21
230.9
 31
0.0
  0
LINE
  5
15E
330
1E
100
AcDbEntity
  8
0
  6
Continuous
 62
     3
100
AcDbLine
 10
201.6249999999998
 20
230.9
 30
0.0
 11
201.6249999999998
 21
213.1499999999999
 31
0.0
  0
LINE
  5
15F
330
1E
100
AcDbEntity
  8
0
  6
Continuous
 62
     3
100
AcDbLine
 10
203.3749999999999
 20
195.65
 30
0.0
 11
203.3749999999999
 21
213.3999999999999
 31
0.0
  0
LINE
  5
160
330
1E
100
AcDbEntity
  8
0
  6
Continuous
 62
     3
100
AcDbLine
 10
201.6249999999998
 20
213.3999999999999
 30
0.0
 11
201.6249999999998
 21
195.8999999999999
 31
0.0
  0
LINE
  5
161
330
1E
100
AcDbEntity
  8
0
  6
Continuous
 62
     3
100
AcDbLine
 10
201.6249999999998
 20
215.9
 30
0.0
 11
203.3749999999999
 21
215.9
 31
0.0
  0
LINE
  5
162
330
1E
100
AcDbEntity
  8
0
  6
Continuous
 62
     3
100
AcDbLine
 10
203.3749999999999
 20
210.8999999999999
 30
0.0
 11
201.6249999999998
 21
210.8999999999999
 31
0.0
  0
LINE
  5
163
330
1E
100
AcDbEntity
  8
0
  6
Continuous
 62
     3
100
AcDbLine
 10
201.6249999999998
 20
195.8999999999999
 30
0.0
 11
203.3749999999999
 21
195.8999999999999
 31
0.0
  0
LINE
  5
164
330
1E
100
AcDbEntity
  8
0
  6
Continuous
 62
     3
100
AcDbLine
 10
201.6249999999998
 20
190.8999999999999
 30
0.0
 11
203.3749999999999
 21
190.8999999999999
 31
0.0
  0
LINE
  5
165
330
1E
100
AcDbEntity
  8
0
  6
Continuous
 62
     3
100
AcDbLine
 10
203.3749999999999
 20
175.9
 30
0.0
 11
201.6249999999998
 21
175.9
 31
0.0
  0
LINE
  5
166
330
1E
100
AcDbEntity
  8
0
  6
Continuous
 62
     3
100
AcDbLine
 10
203.3749999999999
 20
195.8999999999999
 30
0.0
 11
203.3749999999999
 21
175.9
 31
0.0
  0
LINE
  5
167
330
1E
100
AcDbEntity
  8
0
  6
Continuous
 62
     3
100
AcDbLine
 10
201.6249999999998
 20
175.9
 30
0.0
 11
201.6249999999998
 21
195.8999999999999
 31
0.0
  0
LINE
  5
168
330
1E
100
AcDbEntity
  8
0
  6
Continuous
 62
     3
100
AcDbLine
 10
200.375
 20
213.3999999999999
 30
0.0
 11
200.375
 21
230.9
 31
0.0
  0
LINE
  5
169
330
1E
100
AcDbEntity
  8
0
  6
Continuous
 62
     3
100
AcDbLine
 10
200.375
 20
195.65
 30
0.0
 11
200.375
 21
213.3999999999999
 31
0.0
  0
LINE
  5
16A
330
1E
100
AcDbEntity
  8
0
  6
Continuous
 62
     3
100
AcDbLine
 10
200.375
 20
195.8999999999999
 30
0.0
 11
200.375
 21
175.9
 31
0.0
  0
LINE
  5
16B
330
1E
100
AcDbEntity
  8
0
  6
Continuous
 62
     3
100
AcDbLine
 10
214.375
 20
215.9
 30
0.0
 11
212.375
 21
215.9
 31
0.0
  0
LINE
  5
16C
330
1E
100
AcDbEntity
  8
0
  6
Continuous
 62
     3
100
AcDbLine
 10
212.375
 20
214.15
 30
0.0
 11
214.375
 21
214.15
 31
0.0
  0
LINE
  5
16D
330
1E
100
AcDbEntity
  8
0
  6
Continuous
 62
     3
100
AcDbLine
 10
214.375
 20
238.3999999999999
 30
0.0
 11
214.375
 21
215.9
 31
0.0
  0
LINE
  5
16E
330
1E
100
AcDbEntity
  8
0
  6
Continuous
 62
     3
100
AcDbLine
 10
212.375
 20
215.9
 30
0.0
 11
212.375
 21
238.3999999999999
 31
0.0
  0
LINE
  5
16F
330
1E
100
AcDbEntity
  8
0
  6
Continuous
 62
     3
100
AcDbLine
 10
214.375
 20
214.15
 30
0.0
 11
214.375
 21
211.3999999999999
 31
0.0
  0
LINE
  5
170
330
1E
100
AcDbEntity
  8
0
  6
Continuous
 62
     3
100
AcDbLine
 10
212.375
 20
211.3999999999999
 30
0.0
 11
212.375
 21
214.15
 31
0.0
  0
LINE
  5
171
330
1E
100
AcDbEntity
  8
0
  6
Continuous
 62
     3
100
AcDbLine
 10
212.375
 20
192.65
 30
0.0
 11
214.375
 21
192.65
 31
0.0
  0
LINE
  5
172
330
1E
100
AcDbEntity
  8
0
  6
Continuous
 62
     3
100
AcDbLine
 10
214.375
 20
190.8999999999999
 30
0.0
 11
212.375
 21
190.8999999999999
 31
0.0
  0
LINE
  5
173
330
1E
100
AcDbEntity
  8
0
  6
Continuous
 62
     3
100
AcDbLine
 10
214.375
 20
192.65
 30
0.0
 11
214.375
 21
211.3999999999999
 31
0.0
  0
LINE
  5
174
330
1E
100
AcDbEntity
  8
0
  6
Continuous
 62
     3
100
AcDbLine
 10
212.375
 20
211.3999999999999
 30
0.0
 11
212.375
 21
192.65
 31
0.0
  0
LINE
  5
175
330
1E
100
AcDbEntity
  8
0
  6
Continuous
 62
     3
100
AcDbLine
 10
212.375
 20
186.65
 30
0.0
 11
212.375
 21
167.4
 31
0.0
  0
LINE
  5
176
330
1E
100
AcDbEntity
  8
0
  6
Continuous
 62
     3
100
AcDbLine
 10
212.375
 20
167.4
 30
0.0
 11
214.375
 21
167.4
 31
0.0
  0
LINE
  5
177
330
1E
100
AcDbEntity
  8
0
  6
Continuous
 62
     3
100
AcDbLine
 10
214.375
 20
167.4
 30
0.0
 11
214.375
 21
186.65
 31
0.0
  0
LINE
  5
178
330
1E
100
AcDbEntity
  8
0
  6
Continuous
 62
     3
100
AcDbLine
 10
214.375
 20
186.65
 30
0.0
 11
214.375
 21
190.8999999999999
 31
0.0
  0
LINE
  5
179
330
1E
100
AcDbEntity
  8
0
  6
Continuous
 62
     3
100
AcDbLine
 10
212.375
 20
190.8999999999999
 30
0.0
 11
212.375
 21
186.15
 31
0.0
  0
LINE
  5
17A
330
1E
100
AcDbEntity
  8
0
  6
Continuous
 62
     3
100
AcDbLine
 10
181.3749999999999
 20
152.9
 30
0.0
 11
183.125
 21
152.9
 31
0.0
  0
LINE
  5
17B
330
1E
100
AcDbEntity
  8
0
  6
Continuous
 62
     3
100
AcDbLine
 10
184.375
 20
152.9
 30
0.0
 11
186.125
 21
152.9
 31
0.0
  0
LINE
  5
17C
330
1E
100
AcDbEntity
  8
0
  6
Continuous
 62
     3
100
AcDbLine
 10
176.1249999999999
 20
127.9
 30
0.0
 11
174.375
 21
127.9
 31
0.0
  0
LINE
  5
17D
330
1E
100
AcDbEntity
  8
0
  6
Continuous
 62
     3
100
AcDbLine
 10
179.1249999999999
 20
127.9
 30
0.0
 11
177.3749999999999
 21
127.9
 31
0.0
  0
LINE
  5
17E
330
1E
100
AcDbEntity
  8
0
  6
Continuous
 62
     3
100
AcDbLine
 10
183.125
 20
127.9
 30
0.0
 11
181.3749999999999
 21
127.9
 31
0.0
  0
LINE
  5
17F
330
1E
100
AcDbEntity
  8
0
  6
Continuous
 62
     3
100
AcDbLine
 10
186.125
 20
127.9
 30
0.0
 11
184.375
 21
127.9
 31
0.0
  0
LINE
  5
180
330
1E
100
AcDbEntity
  8
0
  6
Continuous
 62
     3
100
AcDbLine
 10
179.1249999999999
 20
142.9
 30
0.0
 11
177.3749999999999
 21
142.9
 31
0.0
  0
LINE
  5
181
330
1E
100
AcDbEntity
  8
0
  6
Continuous
 62
     3
100
AcDbLine
 10
174.375
 20
142.9
 30
0.0
 11
176.1249999999999
 21
142.9
 31
0.0
  0
LINE
  5
182
330
1E
100
AcDbEntity
  8
0
  6
Continuous
 62
     3
100
AcDbLine
 10
186.125
 20
142.9
 30
0.0
 11
184.375
 21
142.9
 31
0.0
  0
LINE
  5
183
330
1E
100
AcDbEntity
  8
0
  6
Continuous
 62
     3
100
AcDbLine
 10
181.3749999999999
 20
142.9
 30
0.0
 11
183.125
 21
142.9
 31
0.0
  0
LINE
  5
184
330
1E
100
AcDbEntity
  8
0
  6
Continuous
 62
     3
100
AcDbLine
 10
177.3749999999999
 20
137.9
 30
0.0
 11
179.1249999999999
 21
137.9
 31
0.0
  0
LINE
  5
185
330
1E
100
AcDbEntity
  8
0
  6
Continuous
 62
     3
100
AcDbLine
 10
176.1249999999999
 20
137.9
 30
0.0
 11
174.375
 21
137.9
 31
0.0
  0
LINE
  5
186
330
1E
100
AcDbEntity
  8
0
  6
Continuous
 62
     3
100
AcDbLine
 10
184.375
 20
137.9
 30
0.0
 11
186.125
 21
137.9
 31
0.0
  0
LINE
  5
187
330
1E
100
AcDbEntity
  8
0
  6
Continuous
 62
     3
100
AcDbLine
 10
183.125
 20
137.9
 30
0.0
 11
181.3749999999999
 21
137.9
 31
0.0
  0
LINE
  5
188
330
1E
100
AcDbEntity
  8
0
  6
Continuous
 62
     3
100
AcDbLine
 10
208.625
 20
142.9
 30
0.0
 11
210.375
 21
142.9
 31
0.0
  0
LINE
  5
189
330
1E
100
AcDbEntity
  8
0
  6
Continuous
 62
     3
100
AcDbLine
 10
213.375
 20
142.9
 30
0.0
 11
211.6249999999999
 21
142.9
 31
0.0
  0
LINE
  5
18A
330
1E
100
AcDbEntity
  8
0
  6
Continuous
 62
     3
100
AcDbLine
 10
210.375
 20
137.9
 30
0.0
 11
208.625
 21
137.9
 31
0.0
  0
LINE
  5
18B
330
1E
100
AcDbEntity
  8
0
  6
Continuous
 62
     3
100
AcDbLine
 10
211.6249999999999
 20
137.9
 30
0.0
 11
213.375
 21
137.9
 31
0.0
  0
LINE
  5
18C
330
1E
100
AcDbEntity
  8
0
  6
Continuous
 62
     3
100
AcDbLine
 10
211.6249999999999
 20
127.9
 30
0.0
 11
213.375
 21
127.9
 31
0.0
  0
LINE
  5
18D
330
1E
100
AcDbEntity
  8
0
  6
Continuous
 62
     3
100
AcDbLine
 10
208.625
 20
127.9
 30
0.0
 11
210.375
 21
127.9
 31
0.0
  0
LINE
  5
18E
330
1E
100
AcDbEntity
  8
0
  6
Continuous
 62
     3
100
AcDbLine
 10
208.625
 20
152.9
 30
0.0
 11
208.625
 21
127.9
 31
0.0
  0
LINE
  5
18F
330
1E
100
AcDbEntity
  8
0
  6
Continuous
 62
     3
100
AcDbLine
 10
210.375
 20
127.9
 30
0.0
 11
210.375
 21
152.9
 31
0.0
  0
LINE
  5
190
330
1E
100
AcDbEntity
  8
0
  6
Continuous
 62
     3
100
AcDbLine
 10
211.6249999999999
 20
152.9
 30
0.0
 11
211.6249999999999
 21
127.9
 31
0.0
  0
LINE
  5
191
330
1E
100
AcDbEntity
  8
0
  6
Continuous
 62
     3
100
AcDbLine
 10
213.375
 20
127.9
 30
0.0
 11
213.375
 21
152.9
 31
0.0
  0
LINE
  5
192
330
1E
100
AcDbEntity
  8
0
  6
Continuous
 62
     3
100
AcDbLine
 10
187.375
 20
127.9
 30
0.0
 11
187.375
 21
152.9
 31
0.0
  0
LINE
  5
193
330
1E
100
AcDbEntity
  8
0
  6
Continuous
 62
     3
100
AcDbLine
 10
186.125
 20
152.9
 30
0.0
 11
186.125
 21
127.9
 31
0.0
  0
LINE
  5
194
330
1E
100
AcDbEntity
  8
0
  6
Continuous
 62
     3
100
AcDbLine
 10
184.375
 20
127.9
 30
0.0
 11
184.375
 21
152.9
 31
0.0
  0
LINE
  5
195
330
1E
100
AcDbEntity
  8
0
  6
Continuous
 62
     3
100
AcDbLine
 10
183.125
 20
152.9
 30
0.0
 11
183.125
 21
127.9
 31
0.0
  0
LINE
  5
196
330
1E
100
AcDbEntity
  8
0
  6
Continuous
 62
     3
100
AcDbLine
 10
181.3749999999999
 20
127.9
 30
0.0
 11
181.3749999999999
 21
152.9
 31
0.0
  0
LINE
  5
197
330
1E
100
AcDbEntity
  8
0
  6
Continuous
 62
     3
100
AcDbLine
 10
179.1249999999999
 20
152.9
 30
0.0
 11
179.1249999999999
 21
127.9
 31
0.0
  0
LINE
  5
198
330
1E
100
AcDbEntity
  8
0
  6
Continuous
 62
     3
100
AcDbLine
 10
177.3749999999999
 20
127.9
 30
0.0
 11
177.3749999999999
 21
152.9
 31
0.0
  0
LINE
  5
199
330
1E
100
AcDbEntity
  8
0
  6
Continuous
 62
     3
100
AcDbLine
 10
176.1249999999999
 20
152.9
 30
0.0
 11
176.1249999999999
 21
127.9
 31
0.0
  0
LINE
  5
19A
330
1E
100
AcDbEntity
  8
0
  6
Continuous
 62
     3
100
AcDbLine
 10
174.375
 20
127.9
 30
0.0
 11
174.375
 21
152.9
 31
0.0
  0
LINE
  5
19B
330
1E
100
AcDbEntity
  8
0
  6
Continuous
 62
     4
100
AcDbLine
 10
169.8749999999999
 20
119.9
 30
0.0
 11
170.1249999999999
 21
114.4
 31
0.0
  0
LINE
  5
19C
330
1E
100
AcDbEntity
  8
0
  6
Continuous
 62
     3
100
AcDbLine
 10
170.1249999999999
 20
114.4
 30
0.0
 11
217.625
 21
114.4
 31
0.0
  0
LINE
  5
19D
330
1E
100
AcDbEntity
  8
0
  6
Continuous
 62
     3
100
AcDbLine
 10
217.625
 20
114.4
 30
0.0
 11
217.8749999999999
 21
119.9
 31
0.0
  0
LINE
  5
19E
330
1E
100
AcDbEntity
  8
0
  6
Continuous
 62
     3
100
AcDbLine
 10
214.875
 20
119.9
 30
0.0
 11
214.875
 21
119.4
 31
0.0
  0
LINE
  5
19F
330
1E
100
AcDbEntity
  8
0
  6
Continuous
 62
     3
100
AcDbLine
 10
172.8749999999999
 20
119.4
 30
0.0
 11
172.8749999999999
 21
119.9
 31
0.0
  0
LINE
  5
1A0
330
1E
100
AcDbEntity
  8
0
  6
Continuous
 62
     3
100
AcDbLine
 10
200.125
 20
121.4
 30
0.0
 11
189.125
 21
121.4
 31
0.0
  0
LINE
  5
1A1
330
1E
100
AcDbEntity
  8
0
  6
Continuous
 62
     3
100
AcDbLine
 10
188.375
 20
243.0
 30
0.0
 11
193.8749999999999
 21
243.0
 31
0.0
  0
LINE
  5
1A2
330
1E
100
AcDbEntity
  8
0
  6
Continuous
 62
     3
100
AcDbLine
 10
188.375
 20
241.4
 30
0.0
 11
188.375
 21
243.0
 31
0.0
  0
LINE
  5
1A3
330
1E
100
AcDbEntity
  8
0
  6
Continuous
 62
     3
100
AcDbLine
 10
187.375
 20
230.9
 30
0.0
 11
188.375
 21
230.9
 31
0.0
  0
LINE
  5
1A4
330
1E
100
AcDbEntity
  8
0
  6
Continuous
 62
     3
100
AcDbLine
 10
188.375
 20
215.9
 30
0.0
 11
187.375
 21
215.9
 31
0.0
  0
LINE
  5
1A5
330
1E
100
AcDbEntity
  8
0
  6
Continuous
 62
     3
100
AcDbLine
 10
200.375
 20
230.9
 30
0.0
 11
199.375
 21
230.9
 31
0.0
  0
LINE
  5
1A6
330
1E
100
AcDbEntity
  8
0
  6
Continuous
 62
     3
100
AcDbLine
 10
199.375
 20
215.9
 30
0.0
 11
200.375
 21
215.9
 31
0.0
  0
LINE
  5
1A7
330
1E
100
AcDbEntity
  8
0
  6
Continuous
 62
     3
100
AcDbLine
 10
200.375
 20
210.8999999999999
 30
0.0
 11
199.375
 21
210.8999999999999
 31
0.0
  0
LINE
  5
1A8
330
1E
100
AcDbEntity
  8
0
  6
Continuous
 62
     3
100
AcDbLine
 10
187.375
 20
210.8999999999999
 30
0.0
 11
188.375
 21
210.8999999999999
 31
0.0
  0
LINE
  5
1A9
330
1E
100
AcDbEntity
  8
0
  6
Continuous
 62
     3
100
AcDbLine
 10
199.375
 20
195.8999999999999
 30
0.0
 11
200.375
 21
195.8999999999999
 31
0.0
  0
LINE
  5
1AA
330
1E
100
AcDbEntity
  8
0
  6
Continuous
 62
     3
100
AcDbLine
 10
199.375
 20
190.8999999999999
 30
0.0
 11
200.375
 21
190.8999999999999
 31
0.0
  0
LINE
  5
1AB
330
1E
100
AcDbEntity
  8
0
  6
Continuous
 62
     3
100
AcDbLine
 10
188.375
 20
195.8999999999999
 30
0.0
 11
187.375
 21
195.8999999999999
 31
0.0
  0
LINE
  5
1AC
330
1E
100
AcDbEntity
  8
0
  6
Continuous
 62
     3
100
AcDbLine
 10
188.375
 20
190.8999999999999
 30
0.0
 11
187.375
 21
190.8999999999999
 31
0.0
  0
LINE
  5
1AD
330
1E
100
AcDbEntity
  8
0
  6
Continuous
 62
     3
100
AcDbLine
 10
187.375
 20
175.9
 30
0.0
 11
188.375
 21
175.9
 31
0.0
  0
LINE
  5
1AE
330
1E
100
AcDbEntity
  8
0
  6
Continuous
 62
     3
100
AcDbLine
 10
200.375
 20
175.9
 30
0.0
 11
199.375
 21
175.9
 31
0.0
  0
LINE
  5
1AF
330
1E
100
AcDbEntity
  8
0
  6
Continuous
 62
     3
100
AcDbLine
 10
187.375
 20
152.9
 30
0.0
 11
188.375
 21
152.9
 31
0.0
  0
LINE
  5
1B0
330
1E
100
AcDbEntity
  8
0
  6
Continuous
 62
     3
100
AcDbLine
 10
188.375
 20
142.9
 30
0.0
 11
187.375
 21
142.9
 31
0.0
  0
LINE
  5
1B1
330
1E
100
AcDbEntity
  8
0
  6
Continuous
 62
     3
100
AcDbLine
 10
187.375
 20
137.9
 30
0.0
 11
188.375
 21
137.9
 31
0.0
  0
LINE
  5
1B2
330
1E
100
AcDbEntity
  8
0
  6
Continuous
 62
     3
100
AcDbLine
 10
188.375
 20
127.9
 30
0.0
 11
187.375
 21
127.9
 31
0.0
  0
LINE
  5
1B3
330
1E
100
AcDbEntity
  8
0
  6
Continuous
 62
     3
100
AcDbLine
 10
193.8749999999999
 20
159.4
 30
0.0
 11
191.875
 21
159.4
 31
0.0
  0
LINE
  5
1B4
330
1E
100
AcDbEntity
  8
0
  6
Continuous
 62
     3
100
AcDbLine
 10
195.875
 20
159.4
 30
0.0
 11
193.8749999999999
 21
159.4
 31
0.0
  0
LINE
  5
1B5
330
1E
100
AcDbEntity
  8
0
  6
Continuous
 62
     3
100
AcDbLine
 10
193.8749999999999
 20
157.9
 30
0.0
 11
195.875
 21
157.9
 31
0.0
  0
LINE
  5
1B6
330
1E
100
AcDbEntity
  8
0
  6
Continuous
 62
     3
100
AcDbLine
 10
193.8749999999999
 20
157.9
 30
0.0
 11
191.875
 21
157.9
 31
0.0
  0
LINE
  5
1B7
330
1E
100
AcDbEntity
  8
0
  6
Continuous
 62
     3
100
AcDbLine
 10
188.375
 20
170.4
 30
0.0
 11
188.375
 21
241.4
 31
0.0
  0
LINE
  5
1B8
330
1E
100
AcDbEntity
  8
0
  6
Continuous
 62
     3
100
AcDbLine
 10
199.375
 20
138.9
 30
0.0
 11
206.375
 21
138.9
 31
0.0
  0
LINE
  5
1B9
330
1E
100
AcDbEntity
  8
0
  6
Continuous
 62
     3
100
AcDbLine
 10
206.375
 20
131.9
 30
0.0
 11
199.375
 21
131.9
 31
0.0
  0
LINE
  5
1BA
330
1E
100
AcDbEntity
  8
0
  6
Continuous
 62
     3
100
AcDbLine
 10
188.4
 20
241.5249999999999
 30
0.0
 11
171.875
 21
241.5249999999999
 31
0.0
  0
LINE
  5
1BB
330
1E
100
AcDbEntity
  8
0
  6
Continuous
 62
     3
100
AcDbLine
 10
193.8749999999999
 20
243.0
 30
0.0
 11
199.375
 21
243.0
 31
0.0
  0
LINE
  5
1BC
330
1E
100
AcDbEntity
  8
0
  6
Continuous
 62
     3
100
AcDbLine
 10
195.875
 20
148.75
 30
0.0
 11
195.875
 21
159.4
 31
0.0
  0
LINE
  5
1BD
330
1E
100
AcDbEntity
  8
0
  6
Continuous
 62
     3
100
AcDbLine
 10
191.875
 20
159.4
 30
0.0
 11
191.875
 21
148.75
 31
0.0
  0
LINE
  5
1BE
330
1E
100
AcDbEntity
  8
0
  6
Continuous
 62
     3
100
AcDbLine
 10
191.875
 20
148.75
 30
0.0
 11
195.625
 21
148.75
 31
0.0
  0
LINE
  5
1BF
330
1E
100
AcDbEntity
  8
0
  6
Continuous
 62
     3
100
AcDbLine
 10
188.375
 20
121.75
 30
0.0
 11
188.375
 21
170.5
 31
0.0
  0
LINE
  5
1C0
330
1E
100
AcDbEntity
  8
0
  6
Continuous
 62
     3
100
AcDbLine
 10
199.375
 20
243.0
 30
0.0
 11
199.375
 21
121.75
 31
0.0
  0
LINE
  5
1C1
330
1E
100
AcDbEntity
  8
0
  6
Continuous
 62
     3
100
AcDbLine
 10
188.375
 20
121.75
 30
0.0
 11
199.375
 21
121.75
 31
0.0
  0
LINE
  5
1C2
330
1E
100
AcDbEntity
  8
0
  6
Continuous
 62
     3
100
AcDbLine
 10
171.375
 20
240.3999999999999
 30
0.0
 11
188.375
 21
240.3999999999999
 31
0.0
  0
LINE
  5
1C3
330
1E
100
AcDbEntity
  8
0
  6
Continuous
 62
     3
100
AcDbLine
 10
171.375
 20
241.4
 30
0.0
 11
171.875
 21
241.4
 31
0.0
  0
LINE
  5
1C4
330
1E
100
AcDbEntity
  8
0
  6
Continuous
 62
     3
100
AcDbLine
 10
187.375
 20
241.5249999999999
 30
0.0
 11
187.375
 21
240.3999999999999
 31
0.0
  0
LINE
  5
1C5
330
1E
100
AcDbEntity
  8
0
  6
Continuous
 62
     3
100
AcDbLine
 10
200.375
 20
241.5249999999999
 30
0.0
 11
200.375
 21
240.3999999999999
 31
0.0
  0
LINE
  5
1C6
330
1E
100
AcDbEntity
  8
0
  6
Continuous
 62
     3
100
AcDbLine
 10
216.25
 20
240.3999999999999
 30
0.0
 11
199.375
 21
240.3999999999999
 31
0.0
  0
LINE
  5
1C7
330
1E
100
AcDbEntity
  8
0
  6
Continuous
 62
     3
100
AcDbLine
 10
213.75
 20
241.5249999999999
 30
0.0
 11
199.3999999999999
 21
241.5249999999999
 31
0.0
  0
LINE
  5
1C8
330
1E
100
AcDbEntity
  8
0
  6
Continuous
 62
     3
100
AcDbLine
 10
215.8749999999999
 20
258.5249999999999
 30
0.0
 11
215.8749999999999
 21
241.5249999999999
 31
0.0
  0
ARC
  5
1C9
330
1E
100
AcDbEntity
  8
0
  6
Continuous
 62
     3
100
AcDbCircle
 10
215.375
 20
258.5249999999999
 30
0.0
 40
0.5
100
AcDbArc
 50
0.0
 51
89.99999999899998
  0
LINE
  5
1CA
330
1E
100
AcDbEntity
  8
0
  6
Continuous
 62
     3
100
AcDbLine
 10
203.3749999999999
 20
241.5249999999999
 30
0.0
 11
203.3749999999999
 21
258.5249999999999
 31
0.0
  0
ARC
  5
1CB
330
1E
100
AcDbEntity
  8
0
  6
Continuous
 62
     3
100
AcDbCircle
 10
203.8749999999999
 20
258.5249999999999
 30
0.0
 40
0.5
100
AcDbArc
 50
89.99999999899998
 51
180.0
  0
LINE
  5
1CC
330
1E
100
AcDbEntity
  8
0
  6
Continuous
 62
     3
100
AcDbLine
 10
206.375
 20
248.525
 30
0.0
 11
212.875
 21
248.525
 31
0.0
  0
LINE
  5
1CD
330
1E
100
AcDbEntity
  8
0
  6
Continuous
 62
     3
100
AcDbLine
 10
206.625
 20
248.525
 30
0.0
 11
206.625
 21
249.025
 31
0.0
  0
LINE
  5
1CE
330
1E
100
AcDbEntity
  8
0
  6
Continuous
 62
     3
100
AcDbLine
 10
206.625
 20
249.025
 30
0.0
 11
212.625
 21
249.025
 31
0.0
  0
LINE
  5
1CF
330
1E
100
AcDbEntity
  8
0
  6
Continuous
 62
     3
100
AcDbLine
 10
212.625
 20
249.025
 30
0.0
 11
212.625
 21
248.525
 31
0.0
  0
LINE
  5
1D0
330
1E
100
AcDbEntity
  8
0
  6
Continuous
 62
     3
100
AcDbLine
 10
209.375
 20
249.025
 30
0.0
 11
208.875
 21
248.525
 31
0.0
  0
LINE
  5
1D1
330
1E
100
AcDbEntity
  8
0
  6
Continuous
 62
     3
100
AcDbLine
 10
209.375
 20
248.525
 30
0.0
 11
209.8749999999999
 21
249.025
 31
0.0
  0
LINE
  5
1D2
330
1E
100
AcDbEntity
  8
0
  6
Continuous
 62
     3
100
AcDbLine
 10
206.875
 20
250.225
 30
0.0
 11
206.875
 21
249.025
 31
0.0
  0
ARC
  5
1D3
330
1E
100
AcDbEntity
  8
0
  6
Continuous
 62
     3
100
AcDbCircle
 10
207.675
 20
250.225
 30
0.0
 40
0.8
100
AcDbArc
 50
90.0
 51
180.0000000009999
  0
LINE
  5
1D4
330
1E
100
AcDbEntity
  8
0
  6
Continuous
 62
     3
100
AcDbLine
 10
212.375
 20
249.025
 30
0.0
 11
212.375
 21
250.225
 31
0.0
  0
LINE
  5
1D5
330
1E
100
AcDbEntity
  8
0
  6
Continuous
 62
     3
100
AcDbLine
 10
211.5749999999999
 20
251.025
 30
0.0
 11
207.675
 21
251.025
 31
0.0
  0
ARC
  5
1D6
330
1E
100
AcDbEntity
  8
0
  6
Continuous
 62
     3
100
AcDbCircle
 10
211.5749999999999
 20
250.225
 30
0.0
 40
0.8
100
AcDbArc
 50
0.0
 51
90.0
  0
LINE
  5
1D7
330
1E
100
AcDbEntity
  8
0
  6
Continuous
 62
     3
100
AcDbLine
 10
212.875
 20
259.0249999999999
 30
0.0
 11
215.375
 21
259.0249999999999
 31
0.0
  0
LINE
  5
1D8
330
1E
100
AcDbEntity
  8
0
  6
Continuous
 62
     3
100
AcDbLine
 10
212.875
 20
248.525
 30
0.0
 11
212.875
 21
257.525
 31
0.0
  0
ARC
  5
1D9
330
1E
100
AcDbEntity
  8
0
  6
Continuous
 62
     3
100
AcDbCircle
 10
211.375
 20
257.525
 30
0.0
 40
1.5
100
AcDbArc
 50
0.0
 51
90.0
  0
LINE
  5
1DA
330
1E
100
AcDbEntity
  8
0
  6
Continuous
 62
     3
100
AcDbLine
 10
207.8749999999998
 20
259.0249999999999
 30
0.0
 11
211.375
 21
259.0249999999999
 31
0.0
  0
LINE
  5
1DB
330
1E
100
AcDbEntity
  8
0
  6
Continuous
 62
     3
100
AcDbLine
 10
206.375
 20
257.525
 30
0.0
 11
206.375
 21
248.525
 31
0.0
  0
ARC
  5
1DC
330
1E
100
AcDbEntity
  8
0
  6
Continuous
 62
     3
100
AcDbCircle
 10
207.8749999999998
 20
257.525
 30
0.0
 40
1.5
100
AcDbArc
 50
90.0
 51
180.0000000009999
  0
LINE
  5
1DD
330
1E
100
AcDbEntity
  8
0
  6
Continuous
 62
     3
100
AcDbLine
 10
203.8749999999999
 20
259.0249999999999
 30
0.0
 11
213.125
 21
259.0249999999999
 31
0.0
  0
LINE
  5
1DE
330
1E
100
AcDbEntity
  8
0
  6
Continuous
 62
     3
100
AcDbLine
 10
206.375
 20
253.025
 30
0.0
 11
203.3749999999999
 21
253.025
 31
0.0
  0
LINE
  5
1DF
330
1E
100
AcDbEntity
  8
0
  6
Continuous
 62
     3
100
AcDbLine
 10
212.875
 20
253.025
 30
0.0
 11
215.8749999999999
 21
253.025
 31
0.0
  0
LINE
  5
1E0
330
1E
100
AcDbEntity
  8
0
  6
Continuous
 62
     3
100
AcDbLine
 10
197.8249999999999
 20
241.5249999999999
 30
0.0
 11
193.825
 21
241.5249999999999
 31
0.0
  0
LINE
  5
1E1
330
1E
100
AcDbEntity
  8
0
  6
Continuous
 62
     3
100
AcDbLine
 10
199.0249999999999
 20
241.5249999999999
 30
0.0
 11
193.2249999999999
 21
241.5249999999999
 31
0.0
  0
LINE
  5
1E2
330
1E
100
AcDbEntity
  8
0
  6
Continuous
 62
     3
100
AcDbLine
 10
199.425
 20
241.5249999999999
 30
0.0
 11
199.0249999999999
 21
241.5249999999999
 31
0.0
  0
POINT
  5
1E3
330
1E
100
AcDbEntity
  8
0
  6
Continuous
 62
     3
100
AcDbPoint
 10
199.425
 20
241.5249999999999
 30
0.0
  0
LINE
  5
1E4
330
1E
100
AcDbEntity
  8
0
  6
Continuous
 62
     3
100
AcDbLine
 10
200.125
 20
242.525
 30
0.0
 11
200.125
 21
241.5249999999999
 31
0.0
  0
LINE
  5
1E5
330
1E
100
AcDbEntity
  8
0
  6
Continuous
 62
     3
100
AcDbLine
 10
200.125
 20
241.5249999999999
 30
0.0
 11
199.425
 21
241.5249999999999
 31
0.0
  0
LINE
  5
1E6
330
1E
100
AcDbEntity
  8
0
  6
Continuous
 62
     3
100
AcDbLine
 10
188.0749999999999
 20
241.5249999999999
 30
0.0
 11
193.775
 21
241.5249999999999
 31
0.0
  0
LINE
  5
1E7
330
1E
100
AcDbEntity
  8
0
  6
Continuous
 62
     3
100
AcDbLine
 10
187.6249999999999
 20
241.5249999999999
 30
0.0
 11
189.2249999999999
 21
241.5249999999999
 31
0.0
  0
LINE
  5
1E8
330
1E
100
AcDbEntity
  8
0
  6
Continuous
 62
     3
100
AcDbLine
 10
187.6249999999999
 20
242.525
 30
0.0
 11
187.6249999999999
 21
241.5249999999999
 31
0.0
  0
LINE
  5
1E9
330
1E
100
AcDbEntity
  8
0
  6
Continuous
 62
     3
100
AcDbLine
 10
188.375
 20
242.525
 30
0.0
 11
187.6249999999999
 21
242.525
 31
0.0
  0
LINE
  5
1EA
330
1E
100
AcDbEntity
  8
0
  6
Continuous
 62
     3
100
AcDbLine
 10
200.07
 20
242.525
 30
0.0
 11
199.375
 21
242.525
 31
0.0
  0
LINE
  5
1EB
330
1E
100
AcDbEntity
  8
0
  6
Continuous
 62
     3
100
AcDbLine
 10
53.775
 20
98.40000000000001
 30
0.0
 11
53.775
 21
52.4
 31
0.0
  0
POINT
  5
1EC
330
1E
100
AcDbEntity
  8
0
  6
Continuous
 62
     3
100
AcDbPoint
 10
53.775
 20
52.4
 30
0.0
  0
LINE
  5
1ED
330
1E
100
AcDbEntity
  8
0
  6
Continuous
 62
     3
100
AcDbLine
 10
53.775
 20
52.4
 30
0.0
 11
147.775
 21
52.4
 31
0.0
  0
POINT
  5
1EE
330
1E
100
AcDbEntity
  8
0
  6
Continuous
 62
     3
100
AcDbPoint
 10
147.775
 20
52.4
 30
0.0
  0
LINE
  5
1EF
330
1E
100
AcDbEntity
  8
0
  6
Continuous
 62
     3
100
AcDbLine
 10
147.775
 20
52.4
 30
0.0
 11
147.775
 21
98.40000000000001
 31
0.0
  0
POINT
  5
1F0
330
1E
100
AcDbEntity
  8
0
  6
Continuous
 62
     3
100
AcDbPoint
 10
147.775
 20
98.40000000000001
 30
0.0
  0
LINE
  5
1F1
330
1E
100
AcDbEntity
  8
0
  6
Continuous
 62
     3
100
AcDbLine
 10
127.275
 20
98.40000000000001
 30
0.0
 11
121.2749999999999
 21
98.40000000000001
 31
0.0
  0
LINE
  5
1F2
330
1E
100
AcDbEntity
  8
0
  6
Continuous
 62
     3
100
AcDbLine
 10
147.775
 20
98.40000000000001
 30
0.0
 11
129.525
 21
98.40000000000001
 31
0.0
  0
LINE
  5
1F3
330
1E
100
AcDbEntity
  8
0
  6
Continuous
 62
     3
100
AcDbLine
 10
148.275
 20
51.4
 30
0.0
 11
100.775
 21
51.4
 31
0.0
  0
ARC
  5
1F4
330
1E
100
AcDbEntity
  8
0
  6
Continuous
 62
     3
100
AcDbCircle
 10
148.275
 20
51.9
 30
0.0
 40
0.5
100
AcDbArc
 50
270.0
 51
0.0
  0
LINE
  5
1F5
330
1E
100
AcDbEntity
  8
0
  6
Continuous
 62
     3
100
AcDbLine
 10
148.775
 20
98.9
 30
0.0
 11
148.775
 21
51.9
 31
0.0
  0
LINE
  5
1F6
330
1E
100
AcDbEntity
  8
0
  6
Continuous
 62
     3
100
AcDbLine
 10
128.275
 20
99.40000000000001
 30
0.0
 11
148.275
 21
99.40000000000001
 31
0.0
  0
ARC
  5
1F7
330
1E
100
AcDbEntity
  8
0
  6
Continuous
 62
     3
100
AcDbCircle
 10
148.275
 20
98.9
 30
0.0
 40
0.5
100
AcDbArc
 50
0.0
 51
90.0
  0
LINE
  5
1F8
330
1E
100
AcDbEntity
  8
0
  6
Continuous
 62
     3
100
AcDbLine
 10
100.775
 20
99.40000000000001
 30
0.0
 11
53.275
 21
99.40000000000001
 31
0.0
  0
ARC
  5
1F9
330
1E
100
AcDbEntity
  8
0
  6
Continuous
 62
     3
100
AcDbCircle
 10
53.275
 20
98.9
 30
0.0
 40
0.5
100
AcDbArc
 50
90.0
 51
180.0000000009999
  0
LINE
  5
1FA
330
1E
100
AcDbEntity
  8
0
  6
Continuous
 62
     3
100
AcDbLine
 10
53.275
 20
51.4
 30
0.0
 11
100.775
 21
51.4
 31
0.0
  0
LINE
  5
1FB
330
1E
100
AcDbEntity
  8
0
  6
Continuous
 62
     3
100
AcDbLine
 10
52.77499999999999
 20
98.9
 30
0.0
 11
52.77499999999999
 21
51.9
 31
0.0
  0
ARC
  5
1FC
330
1E
100
AcDbEntity
  8
0
  6
Continuous
 62
     3
100
AcDbCircle
 10
53.275
 20
51.9
 30
0.0
 40
0.5
100
AcDbArc
 50
180.0000000009999
 51
270.0
  0
LINE
  5
1FD
330
1E
100
AcDbEntity
  8
0
  6
Continuous
 62
     3
100
AcDbLine
 10
124.275
 20
63.39999999999999
 30
0.0
 11
128.275
 21
63.39999999999999
 31
0.0
  0
LINE
  5
1FE
330
1E
100
AcDbEntity
  8
0
  6
Continuous
 62
     3
100
AcDbLine
 10
128.275
 20
63.39999999999999
 30
0.0
 11
128.275
 21
65.4
 31
0.0
  0
LINE
  5
1FF
330
1E
100
AcDbEntity
  8
0
  6
Continuous
 62
     3
100
AcDbLine
 10
128.275
 20
65.4
 30
0.0
 11
124.275
 21
65.4
 31
0.0
  0
LINE
  5
200
330
1E
100
AcDbEntity
  8
0
  6
Continuous
 62
     3
100
AcDbLine
 10
124.275
 20
65.4
 30
0.0
 11
124.275
 21
63.39999999999999
 31
0.0
  0
LINE
  5
201
330
1E
100
AcDbEntity
  8
0
  6
Continuous
 62
     3
100
AcDbLine
 10
130.775
 20
63.39999999999999
 30
0.0
 11
134.775
 21
63.39999999999999
 31
0.0
  0
LINE
  5
202
330
1E
100
AcDbEntity
  8
0
  6
Continuous
 62
     3
100
AcDbLine
 10
134.775
 20
63.39999999999999
 30
0.0
 11
134.775
 21
65.4
 31
0.0
  0
LINE
  5
203
330
1E
100
AcDbEntity
  8
0
  6
Continuous
 62
     3
100
AcDbLine
 10
134.775
 20
65.4
 30
0.0
 11
130.775
 21
65.4
 31
0.0
  0
LINE
  5
204
330
1E
100
AcDbEntity
  8
0
  6
Continuous
 62
     3
100
AcDbLine
 10
130.775
 20
65.4
 30
0.0
 11
130.775
 21
63.39999999999999
 31
0.0
  0
LINE
  5
205
330
1E
100
AcDbEntity
  8
0
  6
Continuous
 62
     3
100
AcDbLine
 10
124.275
 20
57.9
 30
0.0
 11
128.275
 21
57.9
 31
0.0
  0
LINE
  5
206
330
1E
100
AcDbEntity
  8
0
  6
Continuous
 62
     3
100
AcDbLine
 10
128.275
 20
57.9
 30
0.0
 11
128.275
 21
59.9
 31
0.0
  0
LINE
  5
207
330
1E
100
AcDbEntity
  8
0
  6
Continuous
 62
     3
100
AcDbLine
 10
128.275
 20
59.9
 30
0.0
 11
124.275
 21
59.9
 31
0.0
  0
LINE
  5
208
330
1E
100
AcDbEntity
  8
0
  6
Continuous
 62
     3
100
AcDbLine
 10
124.275
 20
59.9
 30
0.0
 11
124.275
 21
57.9
 31
0.0
  0
LINE
  5
209
330
1E
100
AcDbEntity
  8
0
  6
LTYPE1
 62
     3
100
AcDbLine
 10
98.77500000000001
 20
57.4
 30
0.0
 11
98.77500000000001
 21
63.39999999999999
 31
0.0
  0
LINE
  5
20A
330
1E
100
AcDbEntity
  8
0
  6
LTYPE1
 62
     3
100
AcDbLine
 10
98.525
 20
57.4
 30
0.0
 11
98.525
 21
63.39999999999999
 31
0.0
  0
LINE
  5
20B
330
1E
100
AcDbEntity
  8
0
  6
LTYPE1
 62
     3
100
AcDbLine
 10
90.775
 20
63.39999999999999
 30
0.0
 11
90.775
 21
57.4
 31
0.0
  0
LINE
  5
20C
330
1E
100
AcDbEntity
  8
0
  6
LTYPE1
 62
     3
100
AcDbLine
 10
91.025
 20
63.39999999999999
 30
0.0
 11
91.025
 21
57.4
 31
0.0
  0
ARC
  5
20D
330
1E
100
AcDbEntity
  8
0
  6
LTYPE1
 62
     3
100
AcDbCircle
 10
97.77500000000001
 20
63.39999999999999
 30
0.0
 40
1.0
100
AcDbArc
 50
0.0
 51
90.0
  0
ARC
  5
20E
330
1E
100
AcDbEntity
  8
0
  6
LTYPE1
 62
     3
100
AcDbCircle
 10
97.77500000000001
 20
63.39999999999999
 30
0.0
 40
0.75
100
AcDbArc
 50
0.0
 51
90.0
  0
ARC
  5
20F
330
1E
100
AcDbEntity
  8
0
  6
LTYPE1
 62
     3
100
AcDbCircle
 10
91.775
 20
63.39999999999999
 30
0.0
 40
1.0
100
AcDbArc
 50
90.0
 51
180.0
  0
ARC
  5
210
330
1E
100
AcDbEntity
  8
0
  6
LTYPE1
 62
     3
100
AcDbCircle
 10
91.775
 20
63.39999999999999
 30
0.0
 40
0.75
100
AcDbArc
 50
90.0
 51
180.0
  0
LINE
  5
211
330
1E
100
AcDbEntity
  8
0
  6
LTYPE1
 62
     3
100
AcDbLine
 10
97.77500000000001
 20
64.40000000000001
 30
0.0
 11
91.775
 21
64.40000000000001
 31
0.0
  0
LINE
  5
212
330
1E
100
AcDbEntity
  8
0
  6
LTYPE1
 62
     3
100
AcDbLine
 10
97.77500000000001
 20
64.15
 30
0.0
 11
91.775
 21
64.15
 31
0.0
  0
ARC
  5
213
330
1E
100
AcDbEntity
  8
0
  6
LTYPE1
 62
     3
100
AcDbCircle
 10
97.77500000000001
 20
57.4
 30
0.0
 40
1.0
100
AcDbArc
 50
270.0
 51
0.0
  0
ARC
  5
214
330
1E
100
AcDbEntity
  8
0
  6
LTYPE1
 62
     3
100
AcDbCircle
 10
97.77500000000001
 20
57.4
 30
0.0
 40
0.75
100
AcDbArc
 50
270.0
 51
0.0
  0
ARC
  5
215
330
1E
100
AcDbEntity
  8
0
  6
LTYPE1
 62
     3
100
AcDbCircle
 10
91.775
 20
57.4
 30
0.0
 40
1.0
100
AcDbArc
 50
180.0
 51
270.0
  0
ARC
  5
216
330
1E
100
AcDbEntity
  8
0
  6
LTYPE1
 62
     3
100
AcDbCircle
 10
91.775
 20
57.4
 30
0.0
 40
0.75
100
AcDbArc
 50
180.0
 51
270.0
  0
LINE
  5
217
330
1E
100
AcDbEntity
  8
0
  6
LTYPE1
 62
     3
100
AcDbLine
 10
91.775
 20
56.4
 30
0.0
 11
97.77500000000001
 21
56.4
 31
0.0
  0
LINE
  5
218
330
1E
100
AcDbEntity
  8
0
  6
LTYPE1
 62
     3
100
AcDbLine
 10
91.775
 20
56.65
 30
0.0
 11
97.77500000000001
 21
56.65
 31
0.0
  0
LINE
  5
219
330
1E
100
AcDbEntity
  8
0
  6
LTYPE1
 62
     3
100
AcDbLine
 10
88.77500000000003
 20
57.4
 30
0.0
 11
88.77500000000003
 21
63.39999999999999
 31
0.0
  0
ARC
  5
21A
330
1E
100
AcDbEntity
  8
0
  6
LTYPE1
 62
     3
100
AcDbCircle
 10
87.77500000000001
 20
63.39999999999999
 30
0.0
 40
1.0
100
AcDbArc
 50
0.0
 51
90.0
  0
LINE
  5
21B
330
1E
100
AcDbEntity
  8
0
  6
LTYPE1
 62
     3
100
AcDbLine
 10
88.525
 20
57.4
 30
0.0
 11
88.525
 21
63.39999999999999
 31
0.0
  0
ARC
  5
21C
330
1E
100
AcDbEntity
  8
0
  6
LTYPE1
 62
     3
100
AcDbCircle
 10
87.77500000000001
 20
63.39999999999999
 30
0.0
 40
0.75
100
AcDbArc
 50
0.0
 51
90.0
  0
ARC
  5
21D
330
1E
100
AcDbEntity
  8
0
  6
LTYPE1
 62
     3
100
AcDbCircle
 10
87.77500000000001
 20
57.4
 30
0.0
 40
1.0
100
AcDbArc
 50
270.0
 51
0.0
  0
ARC
  5
21E
330
1E
100
AcDbEntity
  8
0
  6
LTYPE1
 62
     3
100
AcDbCircle
 10
87.77500000000001
 20
57.4
 30
0.0
 40
0.75
100
AcDbArc
 50
270.0
 51
0.0
  0
ARC
  5
21F
330
1E
100
AcDbEntity
  8
0
  6
LTYPE1
 62
     3
100
AcDbCircle
 10
81.775
 20
63.39999999999999
 30
0.0
 40
1.0
100
AcDbArc
 50
90.0
 51
180.0
  0
ARC
  5
220
330
1E
100
AcDbEntity
  8
0
  6
LTYPE1
 62
     3
100
AcDbCircle
 10
81.775
 20
63.39999999999999
 30
0.0
 40
0.75
100
AcDbArc
 50
90.0
 51
180.0
  0
LINE
  5
221
330
1E
100
AcDbEntity
  8
0
  6
LTYPE1
 62
     3
100
AcDbLine
 10
87.77500000000001
 20
64.40000000000001
 30
0.0
 11
81.775
 21
64.40000000000001
 31
0.0
  0
LINE
  5
222
330
1E
100
AcDbEntity
  8
0
  6
LTYPE1
 62
     3
100
AcDbLine
 10
87.77500000000001
 20
64.15
 30
0.0
 11
81.775
 21
64.15
 31
0.0
  0
ARC
  5
223
330
1E
100
AcDbEntity
  8
0
  6
LTYPE1
 62
     3
100
AcDbCircle
 10
81.775
 20
57.4
 30
0.0
 40
1.0
100
AcDbArc
 50
180.0
 51
270.0
  0
ARC
  5
224
330
1E
100
AcDbEntity
  8
0
  6
LTYPE1
 62
     3
100
AcDbCircle
 10
81.775
 20
57.4
 30
0.0
 40
0.75
100
AcDbArc
 50
180.0
 51
270.0
  0
LINE
  5
225
330
1E
100
AcDbEntity
  8
0
  6
LTYPE1
 62
     3
100
AcDbLine
 10
81.775
 20
56.4
 30
0.0
 11
87.77500000000001
 21
56.4
 31
0.0
  0
LINE
  5
226
330
1E
100
AcDbEntity
  8
0
  6
LTYPE1
 62
     3
100
AcDbLine
 10
81.775
 20
56.65
 30
0.0
 11
87.77500000000001
 21
56.65
 31
0.0
  0
ARC
  5
227
330
1E
100
AcDbEntity
  8
0
  6
LTYPE1
 62
     3
100
AcDbCircle
 10
77.775
 20
63.39999999999999
 30
0.0
 40
1.0
100
AcDbArc
 50
0.0
 51
90.0
  0
LINE
  5
228
330
1E
100
AcDbEntity
  8
0
  6
LTYPE1
 62
     3
100
AcDbLine
 10
78.525
 20
57.4
 30
0.0
 11
78.525
 21
63.39999999999999
 31
0.0
  0
ARC
  5
229
330
1E
100
AcDbEntity
  8
0
  6
LTYPE1
 62
     3
100
AcDbCircle
 10
77.775
 20
63.39999999999999
 30
0.0
 40
0.75
100
AcDbArc
 50
0.0
 51
90.0
  0
ARC
  5
22A
330
1E
100
AcDbEntity
  8
0
  6
LTYPE1
 62
     3
100
AcDbCircle
 10
71.77500000000001
 20
63.39999999999999
 30
0.0
 40
0.75
100
AcDbArc
 50
90.0
 51
180.0
  0
LINE
  5
22B
330
1E
100
AcDbEntity
  8
0
  6
LTYPE1
 62
     3
100
AcDbLine
 10
77.775
 20
64.40000000000001
 30
0.0
 11
71.77500000000001
 21
64.40000000000001
 31
0.0
  0
ARC
  5
22C
330
1E
100
AcDbEntity
  8
0
  6
LTYPE1
 62
     3
100
AcDbCircle
 10
77.775
 20
57.4
 30
0.0
 40
1.0
100
AcDbArc
 50
270.0
 51
0.0
  0
ARC
  5
22D
330
1E
100
AcDbEntity
  8
0
  6
LTYPE1
 62
     3
100
AcDbCircle
 10
77.775
 20
57.4
 30
0.0
 40
0.75
100
AcDbArc
 50
270.0
 51
0.0
  0
LINE
  5
22E
330
1E
100
AcDbEntity
  8
0
  6
LTYPE1
 62
     3
100
AcDbLine
 10
71.025
 20
63.39999999999999
 30
0.0
 11
71.025
 21
57.4
 31
0.0
  0
ARC
  5
22F
330
1E
100
AcDbEntity
  8
0
  6
LTYPE1
 62
     3
100
AcDbCircle
 10
71.77500000000001
 20
57.4
 30
0.0
 40
1.0
100
AcDbArc
 50
180.0
 51
270.0
  0
ARC
  5
230
330
1E
100
AcDbEntity
  8
0
  6
LTYPE1
 62
     3
100
AcDbCircle
 10
71.77500000000001
 20
57.4
 30
0.0
 40
0.75
100
AcDbArc
 50
180.0
 51
270.0
  0
LINE
  5
231
330
1E
100
AcDbEntity
  8
0
  6
LTYPE1
 62
     3
100
AcDbLine
 10
71.77500000000001
 20
56.4
 30
0.0
 11
77.775
 21
56.4
 31
0.0
  0
LINE
  5
232
330
1E
100
AcDbEntity
  8
0
  6
LTYPE1
 62
     3
100
AcDbLine
 10
71.77500000000001
 20
56.65
 30
0.0
 11
77.775
 21
56.65
 31
0.0
  0
ARC
  5
233
330
1E
100
AcDbEntity
  8
0
  6
LTYPE1
 62
     3
100
AcDbCircle
 10
67.775
 20
57.4
 30
0.0
 40
1.0
100
AcDbArc
 50
270.0
 51
0.0
  0
ARC
  5
234
330
1E
100
AcDbEntity
  8
0
  6
LTYPE1
 62
     3
100
AcDbCircle
 10
67.775
 20
57.4
 30
0.0
 40
0.75
100
AcDbArc
 50
270.0
 51
0.0
  0
ARC
  5
235
330
1E
100
AcDbEntity
  8
0
  6
LTYPE1
 62
     3
100
AcDbCircle
 10
61.775
 20
57.4
 30
0.0
 40
1.0
100
AcDbArc
 50
180.0
 51
270.0
  0
ARC
  5
236
330
1E
100
AcDbEntity
  8
0
  6
LTYPE1
 62
     3
100
AcDbCircle
 10
61.775
 20
57.4
 30
0.0
 40
0.75
100
AcDbArc
 50
180.0
 51
270.0
  0
LINE
  5
237
330
1E
100
AcDbEntity
  8
0
  6
LTYPE1
 62
     3
100
AcDbLine
 10
61.775
 20
56.4
 30
0.0
 11
67.775
 21
56.4
 31
0.0
  0
LINE
  5
238
330
1E
100
AcDbEntity
  8
0
  6
LTYPE1
 62
     3
100
AcDbLine
 10
61.775
 20
56.65
 30
0.0
 11
67.775
 21
56.65
 31
0.0
  0
ARC
  5
239
330
1E
100
AcDbEntity
  8
0
  6
LTYPE1
 62
     3
100
AcDbCircle
 10
71.77500000000001
 20
63.39999999999999
 30
0.0
 40
1.0
100
AcDbArc
 50
90.0
 51
180.0
  0
LINE
  5
23A
330
1E
100
AcDbEntity
  8
0
  6
LTYPE1
 62
     3
100
AcDbLine
 10
70.775
 20
63.39999999999999
 30
0.0
 11
70.775
 21
57.4
 31
0.0
  0
LINE
  5
23B
330
1E
100
AcDbEntity
  8
0
  6
LTYPE1
 62
     3
100
AcDbLine
 10
60.775
 20
63.39999999999999
 30
0.0
 11
60.775
 21
57.4
 31
0.0
  0
ARC
  5
23C
330
1E
100
AcDbEntity
  8
0
  6
LTYPE1
 62
     3
100
AcDbCircle
 10
67.775
 20
63.39999999999999
 30
0.0
 40
1.0
100
AcDbArc
 50
0.0
 51
90.0
  0
ARC
  5
23D
330
1E
100
AcDbEntity
  8
0
  6
LTYPE1
 62
     3
100
AcDbCircle
 10
67.775
 20
63.39999999999999
 30
0.0
 40
0.75
100
AcDbArc
 50
0.0
 51
90.0
  0
ARC
  5
23E
330
1E
100
AcDbEntity
  8
0
  6
LTYPE1
 62
     3
100
AcDbCircle
 10
61.775
 20
63.39999999999999
 30
0.0
 40
1.0
100
AcDbArc
 50
90.0
 51
180.0
  0
ARC
  5
23F
330
1E
100
AcDbEntity
  8
0
  6
LTYPE1
 62
     3
100
AcDbCircle
 10
61.775
 20
63.39999999999999
 30
0.0
 40
0.75
100
AcDbArc
 50
90.0
 51
180.0
  0
LINE
  5
240
330
1E
100
AcDbEntity
  8
0
  6
LTYPE1
 62
     3
100
AcDbLine
 10
67.775
 20
64.40000000000001
 30
0.0
 11
61.775
 21
64.40000000000001
 31
0.0
  0
LINE
  5
241
330
1E
100
AcDbEntity
  8
0
  6
LTYPE1
 62
     3
100
AcDbLine
 10
67.775
 20
64.15
 30
0.0
 11
61.775
 21
64.15
 31
0.0
  0
LINE
  5
242
330
1E
100
AcDbEntity
  8
0
  6
LTYPE1
 62
     3
100
AcDbLine
 10
68.77500000000001
 20
57.4
 30
0.0
 11
68.77500000000001
 21
63.39999999999999
 31
0.0
  0
LINE
  5
243
330
1E
100
AcDbEntity
  8
0
  6
LTYPE1
 62
     3
100
AcDbLine
 10
68.525
 20
57.4
 30
0.0
 11
68.525
 21
63.39999999999999
 31
0.0
  0
LINE
  5
244
330
1E
100
AcDbEntity
  8
0
  6
LTYPE1
 62
     3
100
AcDbLine
 10
61.025
 20
63.39999999999999
 30
0.0
 11
61.025
 21
57.4
 31
0.0
  0
LINE
  5
245
330
1E
100
AcDbEntity
  8
0
  6
Continuous
 62
     3
100
AcDbLine
 10
77.775
 20
64.15
 30
0.0
 11
71.77500000000001
 21
64.15
 31
0.0
  0
LINE
  5
246
330
1E
100
AcDbEntity
  8
0
  6
Continuous
 62
     3
100
AcDbLine
 10
99.775
 20
90.15
 30
0.0
 11
103.775
 21
90.15
 31
0.0
  0
POINT
  5
247
330
1E
100
AcDbEntity
  8
0
  6
Continuous
 62
     3
100
AcDbPoint
 10
103.775
 20
90.15
 30
0.0
  0
LINE
  5
248
330
1E
100
AcDbEntity
  8
0
  6
Continuous
 62
     3
100
AcDbLine
 10
103.775
 20
90.15
 30
0.0
 11
103.775
 21
88.15000000000003
 31
0.0
  0
LINE
  5
249
330
1E
100
AcDbEntity
  8
0
  6
Continuous
 62
     3
100
AcDbLine
 10
99.775
 20
88.15000000000003
 30
0.0
 11
99.775
 21
90.15
 31
0.0
  0
LINE
  5
24A
330
1E
100
AcDbEntity
  8
0
  6
Continuous
 62
     3
100
AcDbLine
 10
103.775
 20
88.15000000000003
 30
0.0
 11
99.775
 21
88.15000000000003
 31
0.0
  0
LINE
  5
24B
330
1E
100
AcDbEntity
  8
0
  6
Continuous
 62
     3
100
AcDbLine
 10
84.775
 20
90.15
 30
0.0
 11
88.77500000000003
 21
90.15
 31
0.0
  0
LINE
  5
24C
330
1E
100
AcDbEntity
  8
0
  6
Continuous
 62
     3
100
AcDbLine
 10
88.77500000000003
 20
90.15
 30
0.0
 11
88.77500000000003
 21
88.15000000000003
 31
0.0
  0
LINE
  5
24D
330
1E
100
AcDbEntity
  8
0
  6
Continuous
 62
     3
100
AcDbLine
 10
84.775
 20
88.15000000000003
 30
0.0
 11
84.775
 21
90.15
 31
0.0
  0
LINE
  5
24E
330
1E
100
AcDbEntity
  8
0
  6
Continuous
 62
     3
100
AcDbLine
 10
88.77500000000003
 20
88.15000000000003
 30
0.0
 11
84.775
 21
88.15000000000003
 31
0.0
  0
LINE
  5
24F
330
1E
100
AcDbEntity
  8
0
  6
Continuous
 62
     3
100
AcDbLine
 10
69.775
 20
90.15
 30
0.0
 11
73.77500000000002
 21
90.15
 31
0.0
  0
LINE
  5
250
330
1E
100
AcDbEntity
  8
0
  6
Continuous
 62
     3
100
AcDbLine
 10
73.77500000000002
 20
88.15000000000003
 30
0.0
 11
69.775
 21
88.15000000000003
 31
0.0
  0
LINE
  5
251
330
1E
100
AcDbEntity
  8
0
  6
Continuous
 62
     3
100
AcDbLine
 10
69.775
 20
88.15000000000003
 30
0.0
 11
69.775
 21
90.15
 31
0.0
  0
LINE
  5
252
330
1E
100
AcDbEntity
  8
0
  6
Continuous
 62
     3
100
AcDbLine
 10
128.275
 20
65.4
 30
0.0
 11
124.275
 21
65.4
 31
0.0
  0
LINE
  5
253
330
1E
100
AcDbEntity
  8
0
  6
Continuous
 62
     3
100
AcDbLine
 10
128.275
 20
63.39999999999999
 30
0.0
 11
128.275
 21
65.4
 31
0.0
  0
LINE
  5
254
330
1E
100
AcDbEntity
  8
0
  6
Continuous
 62
     3
100
AcDbLine
 10
124.275
 20
65.4
 30
0.0
 11
124.275
 21
63.39999999999999
 31
0.0
  0
LINE
  5
255
330
1E
100
AcDbEntity
  8
0
  6
Continuous
 62
     3
100
AcDbLine
 10
124.275
 20
63.39999999999999
 30
0.0
 11
128.275
 21
63.39999999999999
 31
0.0
  0
LINE
  5
256
330
1E
100
AcDbEntity
  8
0
  6
Continuous
 62
     3
100
AcDbLine
 10
130.775
 20
63.39999999999999
 30
0.0
 11
134.775
 21
63.39999999999999
 31
0.0
  0
LINE
  5
257
330
1E
100
AcDbEntity
  8
0
  6
Continuous
 62
     3
100
AcDbLine
 10
134.775
 20
63.39999999999999
 30
0.0
 11
134.775
 21
65.4
 31
0.0
  0
LINE
  5
258
330
1E
100
AcDbEntity
  8
0
  6
Continuous
 62
     3
100
AcDbLine
 10
134.775
 20
65.4
 30
0.0
 11
130.775
 21
65.4
 31
0.0
  0
LINE
  5
259
330
1E
100
AcDbEntity
  8
0
  6
Continuous
 62
     3
100
AcDbLine
 10
130.775
 20
65.4
 30
0.0
 11
130.775
 21
63.39999999999999
 31
0.0
  0
LINE
  5
25A
330
1E
100
AcDbEntity
  8
0
  6
Continuous
 62
     3
100
AcDbLine
 10
128.275
 20
57.9
 30
0.0
 11
128.275
 21
59.9
 31
0.0
  0
LINE
  5
25B
330
1E
100
AcDbEntity
  8
0
  6
Continuous
 62
     3
100
AcDbLine
 10
128.275
 20
59.9
 30
0.0
 11
124.275
 21
59.9
 31
0.0
  0
LINE
  5
25C
330
1E
100
AcDbEntity
  8
0
  6
Continuous
 62
     3
100
AcDbLine
 10
124.275
 20
59.9
 30
0.0
 11
124.275
 21
57.9
 31
0.0
  0
LINE
  5
25D
330
1E
100
AcDbEntity
  8
0
  6
Continuous
 62
     3
100
AcDbLine
 10
124.275
 20
57.9
 30
0.0
 11
128.275
 21
57.9
 31
0.0
  0
LINE
  5
25E
330
1E
100
AcDbEntity
  8
0
  6
Continuous
 62
     3
100
AcDbLine
 10
124.275
 20
57.9
 30
0.0
 11
128.275
 21
57.9
 31
0.0
  0
LINE
  5
25F
330
1E
100
AcDbEntity
  8
0
  6
Continuous
 62
     3
100
AcDbLine
 10
114.0249999999999
 20
86.05
 30
0.0
 11
112.025
 21
86.05
 31
0.0
  0
LINE
  5
260
330
1E
100
AcDbEntity
  8
0
  6
Continuous
 62
     3
100
AcDbLine
 10
112.025
 20
85.29999999999999
 30
0.0
 11
113.775
 21
85.29999999999999
 31
0.0
  0
LINE
  5
261
330
1E
100
AcDbEntity
  8
0
  6
Continuous
 62
     3
100
AcDbLine
 10
113.775
 20
85.29999999999999
 30
0.0
 11
114.0249999999999
 21
85.29999999999999
 31
0.0
  0
LINE
  5
262
330
1E
100
AcDbEntity
  8
0
  6
Continuous
 62
     3
100
AcDbLine
 10
112.025
 20
86.05
 30
0.0
 11
112.025
 21
85.29999999999999
 31
0.0
  0
LINE
  5
263
330
1E
100
AcDbEntity
  8
0
  6
Continuous
 62
     3
100
AcDbLine
 10
114.0249999999999
 20
85.29999999999999
 30
0.0
 11
114.0249999999999
 21
86.05
 31
0.0
  0
LINE
  5
264
330
1E
100
AcDbEntity
  8
0
  6
Continuous
 62
     3
100
AcDbLine
 10
111.725
 20
86.025
 30
0.0
 11
111.725
 21
86.15
 31
0.0
  0
LINE
  5
265
330
1E
100
AcDbEntity
  8
0
  6
Continuous
 62
     3
100
AcDbLine
 10
114.325
 20
80.65000000000003
 30
0.0
 11
114.325
 21
85.65000000000003
 31
0.0
  0
POINT
  5
266
330
1E
100
AcDbEntity
  8
0
  6
Continuous
 62
     3
100
AcDbPoint
 10
114.325
 20
79.15
 30
0.0
  0
LINE
  5
267
330
1E
100
AcDbEntity
  8
0
  6
Continuous
 62
     3
100
AcDbLine
 10
142.6999999999999
 20
80.65000000000003
 30
0.0
 11
114.325
 21
80.65000000000003
 31
0.0
  0
LINE
  5
268
330
1E
100
AcDbEntity
  8
0
  6
Continuous
 62
     3
100
AcDbLine
 10
114.0249999999999
 20
74.55
 30
0.0
 11
112.025
 21
74.55
 31
0.0
  0
LINE
  5
269
330
1E
100
AcDbEntity
  8
0
  6
Continuous
 62
     3
100
AcDbLine
 10
112.025
 20
73.79999999999999
 30
0.0
 11
113.775
 21
73.79999999999999
 31
0.0
  0
LINE
  5
26A
330
1E
100
AcDbEntity
  8
0
  6
Continuous
 62
     3
100
AcDbLine
 10
113.775
 20
73.79999999999999
 30
0.0
 11
114.0249999999999
 21
73.79999999999999
 31
0.0
  0
LINE
  5
26B
330
1E
100
AcDbEntity
  8
0
  6
Continuous
 62
     3
100
AcDbLine
 10
112.025
 20
74.55
 30
0.0
 11
112.025
 21
73.79999999999999
 31
0.0
  0
LINE
  5
26C
330
1E
100
AcDbEntity
  8
0
  6
Continuous
 62
     3
100
AcDbLine
 10
114.0249999999999
 20
73.79999999999999
 30
0.0
 11
114.0249999999999
 21
74.55
 31
0.0
  0
LINE
  5
26D
330
1E
100
AcDbEntity
  8
0
  6
Continuous
 62
     3
100
AcDbLine
 10
111.725
 20
69.15
 30
0.0
 11
111.725
 21
86.025
 31
0.0
  0
LINE
  5
26E
330
1E
100
AcDbEntity
  8
0
  6
Continuous
 62
     3
100
AcDbLine
 10
114.325
 20
74.15
 30
0.0
 11
114.325
 21
79.15
 31
0.0
  0
LINE
  5
26F
330
1E
100
AcDbEntity
  8
0
  6
Continuous
 62
     3
100
AcDbLine
 10
114.325
 20
67.65
 30
0.0
 11
114.325
 21
57.65
 31
0.0
  0
LINE
  5
270
330
1E
100
AcDbEntity
  8
0
  6
Continuous
 62
     3
100
AcDbLine
 10
121.325
 20
57.65
 30
0.0
 11
121.325
 21
67.65
 31
0.0
  0
LINE
  5
271
330
1E
100
AcDbEntity
  8
0
  6
Continuous
 62
     3
100
AcDbLine
 10
121.325
 20
67.65
 30
0.0
 11
117.825
 21
67.65
 31
0.0
  0
LINE
  5
272
330
1E
100
AcDbEntity
  8
0
  6
Continuous
 62
     3
100
AcDbLine
 10
117.825
 20
67.65
 30
0.0
 11
114.325
 21
67.65
 31
0.0
  0
LINE
  5
273
330
1E
100
AcDbEntity
  8
0
  6
Continuous
 62
     3
100
AcDbLine
 10
114.325
 20
57.65
 30
0.0
 11
121.325
 21
57.65
 31
0.0
  0
LINE
  5
274
330
1E
100
AcDbEntity
  8
0
  6
Continuous
 62
     3
100
AcDbLine
 10
114.325
 20
69.15
 30
0.0
 11
114.325
 21
74.15
 31
0.0
  0
LINE
  5
275
330
1E
100
AcDbEntity
  8
0
  6
Continuous
 62
     3
100
AcDbLine
 10
142.6999999999999
 20
69.15
 30
0.0
 11
114.325
 21
69.15
 31
0.0
  0
POINT
  5
276
330
1E
100
AcDbEntity
  8
0
  6
Continuous
 62
     3
100
AcDbPoint
 10
114.325
 20
90.65000000000001
 30
0.0
  0
LINE
  5
277
330
1E
100
AcDbEntity
  8
0
  6
Continuous
 62
     3
100
AcDbLine
 10
114.325
 20
90.65000000000001
 30
0.0
 11
142.6999999999999
 21
90.65000000000001
 31
0.0
  0
LINE
  5
278
330
1E
100
AcDbEntity
  8
0
  6
Continuous
 62
     3
100
AcDbLine
 10
114.325
 20
85.65000000000003
 30
0.0
 11
114.325
 21
90.65000000000001
 31
0.0
  0
LINE
  5
279
330
1E
100
AcDbEntity
  8
0
  6
Continuous
 62
     3
100
AcDbLine
 10
142.6999999999999
 20
69.15
 30
0.0
 11
142.6999999999999
 21
79.15
 31
0.0
  0
LINE
  5
27A
330
1E
100
AcDbEntity
  8
0
  6
Continuous
 62
     3
100
AcDbLine
 10
114.325
 20
79.15
 30
0.0
 11
142.6999999999999
 21
79.15
 31
0.0
  0
LINE
  5
27B
330
1E
100
AcDbEntity
  8
0
  6
Continuous
 62
     3
100
AcDbLine
 10
123.9749999999999
 20
67.40000000000001
 30
0.0
 11
122.525
 21
67.40000000000001
 31
0.0
  0
LINE
  5
27C
330
1E
100
AcDbEntity
  8
0
  6
Continuous
 62
     3
100
AcDbLine
 10
138.7249999999999
 20
67.40000000000001
 30
0.0
 11
142.775
 21
67.40000000000001
 31
0.0
  0
LINE
  5
27D
330
1E
100
AcDbEntity
  8
0
  6
Continuous
 62
     3
100
AcDbLine
 10
119.7249999999999
 20
92.9
 30
0.0
 11
114.325
 21
92.9
 31
0.0
  0
LINE
  5
27E
330
1E
100
AcDbEntity
  8
0
  6
Continuous
 62
     3
100
AcDbLine
 10
135.975
 20
92.9
 30
0.0
 11
142.6999999999999
 21
92.9
 31
0.0
  0
ARC
  5
27F
330
1E
100
AcDbEntity
  8
0
  6
LTYPE1
 62
     3
100
AcDbCircle
 10
107.7749999999999
 20
63.39999999999999
 30
0.0
 40
1.0
100
AcDbArc
 50
0.0
 51
90.0
  0
LINE
  5
280
330
1E
100
AcDbEntity
  8
0
  6
LTYPE1
 62
     3
100
AcDbLine
 10
108.525
 20
57.4
 30
0.0
 11
108.525
 21
63.39999999999999
 31
0.0
  0
ARC
  5
281
330
1E
100
AcDbEntity
  8
0
  6
LTYPE1
 62
     3
100
AcDbCircle
 10
107.7749999999999
 20
63.39999999999999
 30
0.0
 40
0.75
100
AcDbArc
 50
0.0
 51
90.0
  0
ARC
  5
282
330
1E
100
AcDbEntity
  8
0
  6
LTYPE1
 62
     3
100
AcDbCircle
 10
101.775
 20
63.39999999999999
 30
0.0
 40
0.75
100
AcDbArc
 50
90.0
 51
180.0
  0
LINE
  5
283
330
1E
100
AcDbEntity
  8
0
  6
LTYPE1
 62
     3
100
AcDbLine
 10
107.7749999999999
 20
64.40000000000001
 30
0.0
 11
101.775
 21
64.40000000000001
 31
0.0
  0
ARC
  5
284
330
1E
100
AcDbEntity
  8
0
  6
LTYPE1
 62
     3
100
AcDbCircle
 10
107.7749999999999
 20
57.4
 30
0.0
 40
1.0
100
AcDbArc
 50
270.0
 51
0.0
  0
ARC
  5
285
330
1E
100
AcDbEntity
  8
0
  6
LTYPE1
 62
     3
100
AcDbCircle
 10
107.7749999999999
 20
57.4
 30
0.0
 40
0.75
100
AcDbArc
 50
270.0
 51
0.0
  0
LINE
  5
286
330
1E
100
AcDbEntity
  8
0
  6
LTYPE1
 62
     3
100
AcDbLine
 10
101.025
 20
63.39999999999999
 30
0.0
 11
101.025
 21
57.4
 31
0.0
  0
ARC
  5
287
330
1E
100
AcDbEntity
  8
0
  6
LTYPE1
 62
     3
100
AcDbCircle
 10
101.775
 20
57.4
 30
0.0
 40
1.0
100
AcDbArc
 50
180.0
 51
270.0
  0
ARC
  5
288
330
1E
100
AcDbEntity
  8
0
  6
LTYPE1
 62
     3
100
AcDbCircle
 10
101.775
 20
57.4
 30
0.0
 40
0.75
100
AcDbArc
 50
180.0
 51
270.0
  0
LINE
  5
289
330
1E
100
AcDbEntity
  8
0
  6
LTYPE1
 62
     3
100
AcDbLine
 10
101.775
 20
56.4
 30
0.0
 11
107.7749999999999
 21
56.4
 31
0.0
  0
LINE
  5
28A
330
1E
100
AcDbEntity
  8
0
  6
LTYPE1
 62
     3
100
AcDbLine
 10
101.775
 20
56.65
 30
0.0
 11
107.7749999999999
 21
56.65
 31
0.0
  0
ARC
  5
28B
330
1E
100
AcDbEntity
  8
0
  6
LTYPE1
 62
     3
100
AcDbCircle
 10
101.775
 20
63.39999999999999
 30
0.0
 40
1.0
100
AcDbArc
 50
90.0
 51
180.0
  0
LINE
  5
28C
330
1E
100
AcDbEntity
  8
0
  6
LTYPE1
 62
     3
100
AcDbLine
 10
100.775
 20
63.39999999999999
 30
0.0
 11
100.775
 21
57.4
 31
0.0
  0
LINE
  5
28D
330
1E
100
AcDbEntity
  8
0
  6
LTYPE1
 62
     3
100
AcDbLine
 10
108.7749999999999
 20
57.4
 30
0.0
 11
108.7749999999999
 21
58.39999999999999
 31
0.0
  0
LINE
  5
28E
330
1E
100
AcDbEntity
  8
0
  6
Continuous
 62
     3
100
AcDbLine
 10
107.7749999999999
 20
64.15
 30
0.0
 11
101.775
 21
64.15
 31
0.0
  0
LINE
  5
28F
330
1E
100
AcDbEntity
  8
0
  6
LTYPE1
 62
     3
100
AcDbLine
 10
108.7749999999999
 20
58.39999999999999
 30
0.0
 11
108.7749999999999
 21
63.39999999999999
 31
0.0
  0
LINE
  5
290
330
1E
100
AcDbEntity
  8
0
  6
Continuous
 62
     3
100
AcDbLine
 10
72.52500000000002
 20
86.15
 30
0.0
 11
69.27500000000001
 21
86.15
 31
0.0
  0
LINE
  5
291
330
1E
100
AcDbEntity
  8
0
  6
Continuous
 62
     3
100
AcDbLine
 10
111.725
 20
86.15
 30
0.0
 11
61.775
 21
86.15
 31
0.0
  0
LINE
  5
292
330
1E
100
AcDbEntity
  8
0
  6
Continuous
 62
     3
100
AcDbLine
 10
61.775
 20
69.15
 30
0.0
 11
73.02500000000001
 21
69.15
 31
0.0
  0
LINE
  5
293
330
1E
100
AcDbEntity
  8
0
  6
Continuous
 62
     3
100
AcDbLine
 10
61.775
 20
86.15
 30
0.0
 11
61.775
 21
69.15
 31
0.0
  0
LINE
  5
294
330
1E
100
AcDbEntity
  8
0
  6
Continuous
 62
     3
100
AcDbLine
 10
73.77500000000002
 20
90.15
 30
0.0
 11
73.77500000000002
 21
88.15000000000003
 31
0.0
  0
LINE
  5
295
330
1E
100
AcDbEntity
  8
0
  6
Continuous
 62
     3
100
AcDbLine
 10
60.025
 20
78.15000000000002
 30
0.0
 11
60.4
 21
77.775
 31
0.0
  0
LINE
  5
296
330
1E
100
AcDbEntity
  8
0
  6
Continuous
 62
     3
100
AcDbLine
 10
60.4
 20
77.775
 30
0.0
 11
60.0
 21
77.075
 31
0.0
  0
LINE
  5
297
330
1E
100
AcDbEntity
  8
0
  6
Continuous
 62
     3
100
AcDbLine
 10
57.85
 20
77.05
 30
0.0
 11
60.025
 21
77.05
 31
0.0
  0
LINE
  5
298
330
1E
100
AcDbEntity
  8
0
  6
Continuous
 62
     3
100
AcDbLine
 10
60.0
 20
78.17499999999999
 30
0.0
 11
57.9
 21
78.17499999999999
 31
0.0
  0
LINE
  5
299
330
1E
100
AcDbEntity
  8
0
  6
Continuous
 62
     3
100
AcDbLine
 10
57.875
 20
77.075
 30
0.0
 11
57.45
 21
77.40000000000001
 31
0.0
  0
LINE
  5
29A
330
1E
100
AcDbEntity
  8
0
  6
Continuous
 62
     3
100
AcDbLine
 10
57.45
 20
77.40000000000001
 30
0.0
 11
57.85
 21
78.125
 31
0.0
  0
POINT
  5
29B
330
1E
100
AcDbEntity
  8
0
  6
Continuous
 62
     3
100
AcDbPoint
 10
82.963181818
 20
77.09999999999998
 30
0.0
  0
LINE
  5
29C
330
1E
100
AcDbEntity
  8
0
  6
Continuous
 62
     3
100
AcDbLine
 10
82.250454545
 20
72.2
 30
0.0
 11
82.93409090899999
 21
76.90000000000002
 31
0.0
  0
LINE
  5
29D
330
1E
100
AcDbEntity
  8
0
  6
Continuous
 62
     3
100
AcDbLine
 10
82.275
 20
72.15
 30
0.0
 11
83.075
 21
70.95
 31
0.0
  0
LINE
  5
29E
330
1E
100
AcDbEntity
  8
0
  6
Continuous
 62
     3
100
AcDbLine
 10
82.77500000000001
 20
70.65000000000002
 30
0.0
 11
82.925
 21
70.76999999999998
 31
0.0
  0
LINE
  5
29F
330
1E
100
AcDbEntity
  8
0
  6
Continuous
 62
     3
100
AcDbLine
 10
83.075
 20
70.89
 30
0.0
 11
83.275
 21
71.05
 31
0.0
  0
LINE
  5
2A0
330
1E
100
AcDbEntity
  8
0
  6
Continuous
 62
     3
100
AcDbLine
 10
82.77500000000001
 20
70.65000000000002
 30
0.0
 11
75.775
 21
70.65000000000002
 31
0.0
  0
LINE
  5
2A1
330
1E
100
AcDbEntity
  8
0
  6
Continuous
 62
     3
100
AcDbLine
 10
84.02500000000001
 20
77.5
 30
0.0
 11
84.22499999999997
 21
77.40000000000001
 31
0.0
  0
LINE
  5
2A2
330
1E
100
AcDbEntity
  8
0
  6
Continuous
 62
     3
100
AcDbLine
 10
84.075
 20
77.8
 30
0.0
 11
84.375
 21
78.0
 31
0.0
  0
LINE
  5
2A3
330
1E
100
AcDbEntity
  8
0
  6
Continuous
 62
     3
100
AcDbLine
 10
76.625
 20
77.75
 30
0.0
 11
76.375
 21
78.0
 31
0.0
  0
LINE
  5
2A4
330
1E
100
AcDbEntity
  8
0
  6
Continuous
 62
     3
100
AcDbLine
 10
77.575
 20
78.2
 30
0.0
 11
76.625
 21
77.812962963
 31
0.0
  0
LINE
  5
2A5
330
1E
100
AcDbEntity
  8
0
  6
Continuous
 62
     3
100
AcDbLine
 10
82.72499999999999
 20
78.15000000000002
 30
0.0
 11
83.67499999999997
 21
77.65
 31
0.0
  0
LINE
  5
2A6
330
1E
100
AcDbEntity
  8
0
  6
Continuous
 62
     3
100
AcDbLine
 10
83.67499999999997
 20
77.65
 30
0.0
 11
82.475
 21
77.0
 31
0.0
  0
LINE
  5
2A7
330
1E
100
AcDbEntity
  8
0
  6
Continuous
 62
     3
100
AcDbLine
 10
78.075
 20
78.2
 30
0.0
 11
76.875
 21
77.59999999999998
 31
0.0
  0
LINE
  5
2A8
330
1E
100
AcDbEntity
  8
0
  6
Continuous
 62
     3
100
AcDbLine
 10
77.675
 20
77.05
 30
0.0
 11
76.92499999999999
 21
77.5
 31
0.0
  0
LINE
  5
2A9
330
1E
100
AcDbEntity
  8
0
  6
Continuous
 62
     3
100
AcDbLine
 10
84.249545455
 20
77.34999999999998
 30
0.0
 11
83.340454545
 21
71.09999999999998
 31
0.0
  0
LINE
  5
2AA
330
1E
100
AcDbEntity
  8
0
  6
Continuous
 62
     3
100
AcDbLine
 10
84.075
 20
77.731818182
 30
0.0
 11
83.125
 21
78.25
 31
0.0
  0
LINE
  5
2AB
330
1E
100
AcDbEntity
  8
0
  6
Continuous
 62
     3
100
AcDbLine
 10
82.925
 20
76.95
 30
0.0
 11
84.02500000000001
 21
77.52199999999998
 31
0.0
  0
LINE
  5
2AC
330
1E
100
AcDbEntity
  8
0
  6
Continuous
 62
     3
100
AcDbLine
 10
82.07500000000001
 20
71.90000000000002
 30
0.0
 11
77.125
 21
71.90000000000002
 31
0.0
  0
LINE
  5
2AD
330
1E
100
AcDbEntity
  8
0
  6
Continuous
 62
     3
100
AcDbLine
 10
82.07500000000001
 20
71.95
 30
0.0
 11
82.87499999999999
 21
70.7
 31
0.0
  0
LINE
  5
2AE
330
1E
100
AcDbEntity
  8
0
  6
Continuous
 62
     3
100
AcDbLine
 10
77.125
 20
71.90000000000002
 30
0.0
 11
75.775
 21
70.7
 31
0.0
  0
LINE
  5
2AF
330
1E
100
AcDbEntity
  8
0
  6
Continuous
 62
     3
100
AcDbLine
 10
75.775
 20
70.65000000000002
 30
0.0
 11
75.775
 21
70.65000000000002
 31
0.0
  0
LINE
  5
2B0
330
1E
100
AcDbEntity
  8
0
  6
Continuous
 62
     3
100
AcDbLine
 10
77.72499999999998
 20
77.0
 30
0.0
 11
82.475
 21
77.0
 31
0.0
  0
LINE
  5
2B1
330
1E
100
AcDbEntity
  8
0
  6
Continuous
 62
     3
100
AcDbLine
 10
82.675
 20
78.25
 30
0.0
 11
78.125
 21
78.25
 31
0.0
  0
LINE
  5
2B2
330
1E
100
AcDbEntity
  8
0
  6
Continuous
 62
     3
100
AcDbLine
 10
78.575
 20
83.40000000000001
 30
0.0
 11
77.72499999999998
 21
84.40000000000003
 31
0.0
  0
LINE
  5
2B3
330
1E
100
AcDbEntity
  8
0
  6
Continuous
 62
     3
100
AcDbLine
 10
78.325
 20
83.34999999999999
 30
0.0
 11
77.52500000000002
 21
84.25
 31
0.0
  0
LINE
  5
2B4
330
1E
100
AcDbEntity
  8
0
  6
Continuous
 62
     3
100
AcDbLine
 10
83.625
 20
83.45
 30
0.0
 11
84.82499999999998
 21
84.45
 31
0.0
  0
LINE
  5
2B5
330
1E
100
AcDbEntity
  8
0
  6
Continuous
 62
     3
100
AcDbLine
 10
84.975
 20
84.25
 30
0.0
 11
83.825
 21
83.25000000000001
 31
0.0
  0
LINE
  5
2B6
330
1E
100
AcDbEntity
  8
0
  6
Continuous
 62
     3
100
AcDbLine
 10
85.18772727300001
 20
84.04999999999999
 30
0.0
 11
84.336818182
 21
77.95
 31
0.0
  0
LINE
  5
2B7
330
1E
100
AcDbEntity
  8
0
  6
Continuous
 62
     3
100
AcDbLine
 10
85.09318181800001
 20
84.19999999999998
 30
0.0
 11
85.175
 21
84.1
 31
0.0
  0
LINE
  5
2B8
330
1E
100
AcDbEntity
  8
0
  6
Continuous
 62
     3
100
AcDbLine
 10
84.725
 20
84.65000000000001
 30
0.0
 11
84.92954545499998
 21
84.40000000000003
 31
0.0
  0
LINE
  5
2B9
330
1E
100
AcDbEntity
  8
0
  6
Continuous
 62
     3
100
AcDbLine
 10
83.11590909100003
 20
78.15000000000002
 30
0.0
 11
83.821363636
 21
83.25000000000001
 31
0.0
  0
LINE
  5
2BA
330
1E
100
AcDbEntity
  8
0
  6
Continuous
 62
     3
100
AcDbLine
 10
78.343181818
 20
83.40000000000001
 30
0.0
 11
77.60863636399999
 21
78.09999999999998
 31
0.0
  0
LINE
  5
2BB
330
1E
100
AcDbEntity
  8
0
  6
Continuous
 62
     3
100
AcDbLine
 10
83.57499999999998
 20
83.40000000000001
 30
0.0
 11
78.475
 21
83.40000000000001
 31
0.0
  0
LINE
  5
2BC
330
1E
100
AcDbEntity
  8
0
  6
Continuous
 62
     3
100
AcDbLine
 10
76.36071428600001
 20
78.0
 30
0.0
 11
77.20357142899999
 21
84.15
 31
0.0
  0
LINE
  5
2BD
330
1E
100
AcDbEntity
  8
0
  6
Continuous
 62
     3
100
AcDbLine
 10
77.825
 20
84.65000000000001
 30
0.0
 11
84.775
 21
84.65000000000001
 31
0.0
  0
LINE
  5
2BE
330
1E
100
AcDbEntity
  8
0
  6
Continuous
 62
     3
100
AcDbLine
 10
77.825
 20
84.59999999999999
 30
0.0
 11
77.775
 21
84.565384615
 31
0.0
  0
LINE
  5
2BF
330
1E
100
AcDbEntity
  8
0
  6
Continuous
 62
     3
100
AcDbLine
 10
77.47499999999998
 20
84.357692308
 30
0.0
 11
77.175
 21
84.15
 31
0.0
  0
LINE
  5
2C0
330
1E
100
AcDbEntity
  8
0
  6
Continuous
 62
     3
100
AcDbLine
 10
77.72499999999998
 20
84.40000000000003
 30
0.0
 11
77.675
 21
84.45
 31
0.0
  0
LINE
  5
2C1
330
1E
100
AcDbEntity
  8
0
  6
Continuous
 62
     3
100
AcDbLine
 10
77.675
 20
84.45
 30
0.0
 11
77.775
 21
84.55
 31
0.0
  0
LINE
  5
2C2
330
1E
100
AcDbEntity
  8
0
  6
Continuous
 62
     3
100
AcDbLine
 10
77.52500000000002
 20
84.25
 30
0.0
 11
77.47499999999998
 21
84.35
 31
0.0
  0
POINT
  5
2C3
330
1E
100
AcDbEntity
  8
0
  6
Continuous
 62
     3
100
AcDbPoint
 10
70.463181818
 20
77.09999999999998
 30
0.0
  0
LINE
  5
2C4
330
1E
100
AcDbEntity
  8
0
  6
Continuous
 62
     3
100
AcDbLine
 10
69.750454545
 20
72.2
 30
0.0
 11
70.43409090899999
 21
76.90000000000002
 31
0.0
  0
LINE
  5
2C5
330
1E
100
AcDbEntity
  8
0
  6
Continuous
 62
     3
100
AcDbLine
 10
69.775
 20
72.15
 30
0.0
 11
70.575
 21
70.95
 31
0.0
  0
LINE
  5
2C6
330
1E
100
AcDbEntity
  8
0
  6
Continuous
 62
     3
100
AcDbLine
 10
70.275
 20
70.65000000000002
 30
0.0
 11
70.425
 21
70.76999999999998
 31
0.0
  0
LINE
  5
2C7
330
1E
100
AcDbEntity
  8
0
  6
Continuous
 62
     3
100
AcDbLine
 10
70.575
 20
70.89
 30
0.0
 11
70.775
 21
71.05
 31
0.0
  0
LINE
  5
2C8
330
1E
100
AcDbEntity
  8
0
  6
Continuous
 62
     3
100
AcDbLine
 10
71.525
 20
77.5
 30
0.0
 11
71.72499999999998
 21
77.40000000000001
 31
0.0
  0
LINE
  5
2C9
330
1E
100
AcDbEntity
  8
0
  6
Continuous
 62
     3
100
AcDbLine
 10
71.575
 20
77.8
 30
0.0
 11
71.875
 21
78.0
 31
0.0
  0
LINE
  5
2CA
330
1E
100
AcDbEntity
  8
0
  6
Continuous
 62
     3
100
AcDbLine
 10
64.125
 20
77.75
 30
0.0
 11
63.875
 21
78.0
 31
0.0
  0
LINE
  5
2CB
330
1E
100
AcDbEntity
  8
0
  6
Continuous
 62
     3
100
AcDbLine
 10
65.075
 20
78.2
 30
0.0
 11
64.125
 21
77.812962963
 31
0.0
  0
LINE
  5
2CC
330
1E
100
AcDbEntity
  8
0
  6
Continuous
 62
     3
100
AcDbLine
 10
70.22499999999999
 20
78.15000000000002
 30
0.0
 11
71.17499999999998
 21
77.65
 31
0.0
  0
LINE
  5
2CD
330
1E
100
AcDbEntity
  8
0
  6
Continuous
 62
     3
100
AcDbLine
 10
71.17499999999998
 20
77.65
 30
0.0
 11
69.97499999999999
 21
77.0
 31
0.0
  0
LINE
  5
2CE
330
1E
100
AcDbEntity
  8
0
  6
Continuous
 62
     3
100
AcDbLine
 10
65.575
 20
78.2
 30
0.0
 11
64.375
 21
77.59999999999998
 31
0.0
  0
LINE
  5
2CF
330
1E
100
AcDbEntity
  8
0
  6
Continuous
 62
     3
100
AcDbLine
 10
65.175
 20
77.05
 30
0.0
 11
64.42499999999999
 21
77.5
 31
0.0
  0
LINE
  5
2D0
330
1E
100
AcDbEntity
  8
0
  6
Continuous
 62
     3
100
AcDbLine
 10
71.749545455
 20
77.34999999999998
 30
0.0
 11
70.840454545
 21
71.09999999999998
 31
0.0
  0
LINE
  5
2D1
330
1E
100
AcDbEntity
  8
0
  6
Continuous
 62
     3
100
AcDbLine
 10
71.575
 20
77.731818182
 30
0.0
 11
70.625
 21
78.25
 31
0.0
  0
LINE
  5
2D2
330
1E
100
AcDbEntity
  8
0
  6
Continuous
 62
     3
100
AcDbLine
 10
70.425
 20
76.95
 30
0.0
 11
71.525
 21
77.52199999999998
 31
0.0
  0
LINE
  5
2D3
330
1E
100
AcDbEntity
  8
0
  6
Continuous
 62
     3
100
AcDbLine
 10
69.575
 20
71.90000000000002
 30
0.0
 11
64.625
 21
71.90000000000002
 31
0.0
  0
LINE
  5
2D4
330
1E
100
AcDbEntity
  8
0
  6
Continuous
 62
     3
100
AcDbLine
 10
69.575
 20
71.95
 30
0.0
 11
70.375
 21
70.7
 31
0.0
  0
LINE
  5
2D5
330
1E
100
AcDbEntity
  8
0
  6
Continuous
 62
     3
100
AcDbLine
 10
65.22499999999999
 20
77.0
 30
0.0
 11
69.97499999999999
 21
77.0
 31
0.0
  0
LINE
  5
2D6
330
1E
100
AcDbEntity
  8
0
  6
Continuous
 62
     3
100
AcDbLine
 10
70.175
 20
78.25
 30
0.0
 11
65.625
 21
78.25
 31
0.0
  0
LINE
  5
2D7
330
1E
100
AcDbEntity
  8
0
  6
Continuous
 62
     3
100
AcDbLine
 10
71.125
 20
83.45
 30
0.0
 11
72.325
 21
84.45
 31
0.0
  0
LINE
  5
2D8
330
1E
100
AcDbEntity
  8
0
  6
Continuous
 62
     3
100
AcDbLine
 10
72.47499999999998
 20
84.25
 30
0.0
 11
71.325
 21
83.25000000000001
 31
0.0
  0
LINE
  5
2D9
330
1E
100
AcDbEntity
  8
0
  6
Continuous
 62
     3
100
AcDbLine
 10
72.687727273
 20
84.04999999999999
 30
0.0
 11
71.836818182
 21
77.95
 31
0.0
  0
LINE
  5
2DA
330
1E
100
AcDbEntity
  8
0
  6
Continuous
 62
     3
100
AcDbLine
 10
72.59318181800001
 20
84.19999999999998
 30
0.0
 11
72.675
 21
84.1
 31
0.0
  0
LINE
  5
2DB
330
1E
100
AcDbEntity
  8
0
  6
Continuous
 62
     3
100
AcDbLine
 10
72.225
 20
84.65000000000001
 30
0.0
 11
72.42954545499998
 21
84.40000000000003
 31
0.0
  0
LINE
  5
2DC
330
1E
100
AcDbEntity
  8
0
  6
Continuous
 62
     3
100
AcDbLine
 10
70.61590909100002
 20
78.15000000000002
 30
0.0
 11
71.321363636
 21
83.25000000000001
 31
0.0
  0
LINE
  5
2DD
330
1E
100
AcDbEntity
  8
0
  6
Continuous
 62
     3
100
AcDbLine
 10
63.86071428600001
 20
78.0
 30
0.0
 11
64.70357142899999
 21
84.15
 31
0.0
  0
LINE
  5
2DE
330
1E
100
AcDbEntity
  8
0
  6
Continuous
 62
     3
100
AcDbLine
 10
71.075
 20
83.40000000000001
 30
0.0
 11
66.025
 21
83.40000000000001
 31
0.0
  0
LINE
  5
2DF
330
1E
100
AcDbEntity
  8
0
  6
Continuous
 62
     3
100
AcDbLine
 10
66.025
 20
83.40000000000001
 30
0.0
 11
65.02500000000001
 21
84.40000000000003
 31
0.0
  0
LINE
  5
2E0
330
1E
100
AcDbEntity
  8
0
  6
Continuous
 62
     3
100
AcDbLine
 10
65.775
 20
83.15000000000003
 30
0.0
 11
64.775
 21
84.15
 31
0.0
  0
LINE
  5
2E1
330
1E
100
AcDbEntity
  8
0
  6
Continuous
 62
     3
100
AcDbLine
 10
65.80853344800001
 20
83.15000000000003
 30
0.0
 11
65.10863636399999
 21
78.09999999999998
 31
0.0
  0
LINE
  5
2E2
330
1E
100
AcDbEntity
  8
0
  6
Continuous
 62
     3
100
AcDbLine
 10
65.275
 20
84.65000000000001
 30
0.0
 11
72.275
 21
84.65000000000001
 31
0.0
  0
LINE
  5
2E3
330
1E
100
AcDbEntity
  8
0
  6
Continuous
 62
     3
100
AcDbLine
 10
65.02500000000001
 20
84.40000000000003
 30
0.0
 11
65.275
 21
84.65000000000001
 31
0.0
  0
LINE
  5
2E4
330
1E
100
AcDbEntity
  8
0
  6
Continuous
 62
     3
100
AcDbLine
 10
64.65
 20
84.02500000000001
 30
0.0
 11
64.775
 21
84.15
 31
0.0
  0
LINE
  5
2E5
330
1E
100
AcDbEntity
  8
0
  6
Continuous
 62
     3
100
AcDbLine
 10
70.275
 20
70.65000000000002
 30
0.0
 11
63.275
 21
70.65000000000002
 31
0.0
  0
LINE
  5
2E6
330
1E
100
AcDbEntity
  8
0
  6
Continuous
 62
     3
100
AcDbLine
 10
64.625
 20
71.90000000000002
 30
0.0
 11
63.275
 21
70.7
 31
0.0
  0
POINT
  5
2E7
330
1E
100
AcDbEntity
  8
0
  6
Continuous
 62
     3
100
AcDbPoint
 10
107.9631818179999
 20
77.09999999999998
 30
0.0
  0
LINE
  5
2E8
330
1E
100
AcDbEntity
  8
0
  6
Continuous
 62
     3
100
AcDbLine
 10
107.2504545449999
 20
72.2
 30
0.0
 11
107.9340909089999
 21
76.90000000000002
 31
0.0
  0
LINE
  5
2E9
330
1E
100
AcDbEntity
  8
0
  6
Continuous
 62
     3
100
AcDbLine
 10
107.275
 20
72.15
 30
0.0
 11
108.075
 21
70.95
 31
0.0
  0
LINE
  5
2EA
330
1E
100
AcDbEntity
  8
0
  6
Continuous
 62
     3
100
AcDbLine
 10
107.7749999999999
 20
70.65000000000002
 30
0.0
 11
107.925
 21
70.76999999999998
 31
0.0
  0
LINE
  5
2EB
330
1E
100
AcDbEntity
  8
0
  6
Continuous
 62
     3
100
AcDbLine
 10
108.075
 20
70.89
 30
0.0
 11
108.275
 21
71.05
 31
0.0
  0
LINE
  5
2EC
330
1E
100
AcDbEntity
  8
0
  6
Continuous
 62
     3
100
AcDbLine
 10
107.7749999999999
 20
70.65000000000002
 30
0.0
 11
100.775
 21
70.65000000000002
 31
0.0
  0
LINE
  5
2ED
330
1E
100
AcDbEntity
  8
0
  6
Continuous
 62
     3
100
AcDbLine
 10
109.025
 20
77.5
 30
0.0
 11
109.2249999999999
 21
77.40000000000001
 31
0.0
  0
LINE
  5
2EE
330
1E
100
AcDbEntity
  8
0
  6
Continuous
 62
     3
100
AcDbLine
 10
109.075
 20
77.8
 30
0.0
 11
109.375
 21
78.0
 31
0.0
  0
LINE
  5
2EF
330
1E
100
AcDbEntity
  8
0
  6
Continuous
 62
     3
100
AcDbLine
 10
101.625
 20
77.75
 30
0.0
 11
101.3749999999999
 21
78.0
 31
0.0
  0
LINE
  5
2F0
330
1E
100
AcDbEntity
  8
0
  6
Continuous
 62
     3
100
AcDbLine
 10
102.5749999999999
 20
78.2
 30
0.0
 11
101.625
 21
77.812962963
 31
0.0
  0
LINE
  5
2F1
330
1E
100
AcDbEntity
  8
0
  6
Continuous
 62
     3
100
AcDbLine
 10
107.725
 20
78.15000000000002
 30
0.0
 11
108.675
 21
77.65
 31
0.0
  0
LINE
  5
2F2
330
1E
100
AcDbEntity
  8
0
  6
Continuous
 62
     3
100
AcDbLine
 10
108.675
 20
77.65
 30
0.0
 11
107.4749999999999
 21
77.0
 31
0.0
  0
LINE
  5
2F3
330
1E
100
AcDbEntity
  8
0
  6
Continuous
 62
     3
100
AcDbLine
 10
103.075
 20
78.2
 30
0.0
 11
101.875
 21
77.59999999999998
 31
0.0
  0
LINE
  5
2F4
330
1E
100
AcDbEntity
  8
0
  6
Continuous
 62
     3
100
AcDbLine
 10
102.675
 20
77.05
 30
0.0
 11
101.9249999999999
 21
77.5
 31
0.0
  0
LINE
  5
2F5
330
1E
100
AcDbEntity
  8
0
  6
Continuous
 62
     3
100
AcDbLine
 10
109.249545455
 20
77.34999999999998
 30
0.0
 11
108.340454545
 21
71.09999999999998
 31
0.0
  0
LINE
  5
2F6
330
1E
100
AcDbEntity
  8
0
  6
Continuous
 62
     3
100
AcDbLine
 10
109.075
 20
77.731818182
 30
0.0
 11
108.125
 21
78.25
 31
0.0
  0
LINE
  5
2F7
330
1E
100
AcDbEntity
  8
0
  6
Continuous
 62
     3
100
AcDbLine
 10
107.925
 20
76.95
 30
0.0
 11
109.025
 21
77.52199999999998
 31
0.0
  0
LINE
  5
2F8
330
1E
100
AcDbEntity
  8
0
  6
Continuous
 62
     3
100
AcDbLine
 10
107.075
 20
71.90000000000002
 30
0.0
 11
102.1249999999999
 21
71.90000000000002
 31
0.0
  0
LINE
  5
2F9
330
1E
100
AcDbEntity
  8
0
  6
Continuous
 62
     3
100
AcDbLine
 10
107.075
 20
71.95
 30
0.0
 11
107.875
 21
70.7
 31
0.0
  0
LINE
  5
2FA
330
1E
100
AcDbEntity
  8
0
  6
Continuous
 62
     3
100
AcDbLine
 10
102.1249999999999
 20
71.90000000000002
 30
0.0
 11
100.775
 21
70.7
 31
0.0
  0
LINE
  5
2FB
330
1E
100
AcDbEntity
  8
0
  6
Continuous
 62
     3
100
AcDbLine
 10
100.775
 20
70.65000000000002
 30
0.0
 11
100.775
 21
70.65000000000002
 31
0.0
  0
LINE
  5
2FC
330
1E
100
AcDbEntity
  8
0
  6
Continuous
 62
     3
100
AcDbLine
 10
102.7249999999999
 20
77.0
 30
0.0
 11
107.4749999999999
 21
77.0
 31
0.0
  0
LINE
  5
2FD
330
1E
100
AcDbEntity
  8
0
  6
Continuous
 62
     3
100
AcDbLine
 10
107.675
 20
78.25
 30
0.0
 11
103.125
 21
78.25
 31
0.0
  0
POINT
  5
2FE
330
1E
100
AcDbEntity
  8
0
  6
Continuous
 62
     3
100
AcDbPoint
 10
95.463181818
 20
77.09999999999998
 30
0.0
  0
LINE
  5
2FF
330
1E
100
AcDbEntity
  8
0
  6
Continuous
 62
     3
100
AcDbLine
 10
94.750454545
 20
72.2
 30
0.0
 11
95.43409090899999
 21
76.90000000000002
 31
0.0
  0
LINE
  5
300
330
1E
100
AcDbEntity
  8
0
  6
Continuous
 62
     3
100
AcDbLine
 10
94.775
 20
72.15
 30
0.0
 11
95.575
 21
70.95
 31
0.0
  0
LINE
  5
301
330
1E
100
AcDbEntity
  8
0
  6
Continuous
 62
     3
100
AcDbLine
 10
95.27500000000001
 20
70.65000000000002
 30
0.0
 11
95.425
 21
70.76999999999998
 31
0.0
  0
LINE
  5
302
330
1E
100
AcDbEntity
  8
0
  6
Continuous
 62
     3
100
AcDbLine
 10
95.575
 20
70.89
 30
0.0
 11
95.775
 21
71.05
 31
0.0
  0
LINE
  5
303
330
1E
100
AcDbEntity
  8
0
  6
Continuous
 62
     3
100
AcDbLine
 10
95.27500000000001
 20
70.65000000000002
 30
0.0
 11
88.275
 21
70.65000000000002
 31
0.0
  0
LINE
  5
304
330
1E
100
AcDbEntity
  8
0
  6
Continuous
 62
     3
100
AcDbLine
 10
96.52500000000001
 20
77.5
 30
0.0
 11
96.72499999999999
 21
77.40000000000001
 31
0.0
  0
LINE
  5
305
330
1E
100
AcDbEntity
  8
0
  6
Continuous
 62
     3
100
AcDbLine
 10
96.575
 20
77.8
 30
0.0
 11
96.875
 21
78.0
 31
0.0
  0
LINE
  5
306
330
1E
100
AcDbEntity
  8
0
  6
Continuous
 62
     3
100
AcDbLine
 10
89.12499999999999
 20
77.75
 30
0.0
 11
88.87500000000001
 21
78.0
 31
0.0
  0
LINE
  5
307
330
1E
100
AcDbEntity
  8
0
  6
Continuous
 62
     3
100
AcDbLine
 10
90.075
 20
78.2
 30
0.0
 11
89.12499999999999
 21
77.812962963
 31
0.0
  0
LINE
  5
308
330
1E
100
AcDbEntity
  8
0
  6
Continuous
 62
     3
100
AcDbLine
 10
95.22499999999999
 20
78.15000000000002
 30
0.0
 11
96.17499999999999
 21
77.65
 31
0.0
  0
LINE
  5
309
330
1E
100
AcDbEntity
  8
0
  6
Continuous
 62
     3
100
AcDbLine
 10
96.17499999999999
 20
77.65
 30
0.0
 11
94.975
 21
77.0
 31
0.0
  0
LINE
  5
30A
330
1E
100
AcDbEntity
  8
0
  6
Continuous
 62
     3
100
AcDbLine
 10
90.575
 20
78.2
 30
0.0
 11
89.375
 21
77.59999999999998
 31
0.0
  0
LINE
  5
30B
330
1E
100
AcDbEntity
  8
0
  6
Continuous
 62
     3
100
AcDbLine
 10
90.175
 20
77.05
 30
0.0
 11
89.425
 21
77.5
 31
0.0
  0
LINE
  5
30C
330
1E
100
AcDbEntity
  8
0
  6
Continuous
 62
     3
100
AcDbLine
 10
96.749545455
 20
77.34999999999998
 30
0.0
 11
95.840454545
 21
71.09999999999998
 31
0.0
  0
LINE
  5
30D
330
1E
100
AcDbEntity
  8
0
  6
Continuous
 62
     3
100
AcDbLine
 10
96.575
 20
77.731818182
 30
0.0
 11
95.625
 21
78.25
 31
0.0
  0
LINE
  5
30E
330
1E
100
AcDbEntity
  8
0
  6
Continuous
 62
     3
100
AcDbLine
 10
95.425
 20
76.95
 30
0.0
 11
96.52500000000001
 21
77.52199999999998
 31
0.0
  0
LINE
  5
30F
330
1E
100
AcDbEntity
  8
0
  6
Continuous
 62
     3
100
AcDbLine
 10
94.57500000000001
 20
71.90000000000002
 30
0.0
 11
89.625
 21
71.90000000000002
 31
0.0
  0
LINE
  5
310
330
1E
100
AcDbEntity
  8
0
  6
Continuous
 62
     3
100
AcDbLine
 10
94.57500000000001
 20
71.95
 30
0.0
 11
95.37499999999999
 21
70.7
 31
0.0
  0
LINE
  5
311
330
1E
100
AcDbEntity
  8
0
  6
Continuous
 62
     3
100
AcDbLine
 10
89.625
 20
71.90000000000002
 30
0.0
 11
88.275
 21
70.7
 31
0.0
  0
LINE
  5
312
330
1E
100
AcDbEntity
  8
0
  6
Continuous
 62
     3
100
AcDbLine
 10
88.275
 20
70.65000000000002
 30
0.0
 11
88.275
 21
70.65000000000002
 31
0.0
  0
LINE
  5
313
330
1E
100
AcDbEntity
  8
0
  6
Continuous
 62
     3
100
AcDbLine
 10
90.22499999999999
 20
77.0
 30
0.0
 11
94.975
 21
77.0
 31
0.0
  0
LINE
  5
314
330
1E
100
AcDbEntity
  8
0
  6
Continuous
 62
     3
100
AcDbLine
 10
95.175
 20
78.25
 30
0.0
 11
90.625
 21
78.25
 31
0.0
  0
LINE
  5
315
330
1E
100
AcDbEntity
  8
0
  6
Continuous
 62
     3
100
AcDbLine
 10
103.5749999999999
 20
83.40000000000001
 30
0.0
 11
102.7249999999999
 21
84.40000000000003
 31
0.0
  0
LINE
  5
316
330
1E
100
AcDbEntity
  8
0
  6
Continuous
 62
     3
100
AcDbLine
 10
103.325
 20
83.34999999999999
 30
0.0
 11
102.5249999999999
 21
84.25
 31
0.0
  0
LINE
  5
317
330
1E
100
AcDbEntity
  8
0
  6
Continuous
 62
     3
100
AcDbLine
 10
108.6249999999999
 20
83.45
 30
0.0
 11
109.8249999999999
 21
84.45
 31
0.0
  0
LINE
  5
318
330
1E
100
AcDbEntity
  8
0
  6
Continuous
 62
     3
100
AcDbLine
 10
109.975
 20
84.25
 30
0.0
 11
108.825
 21
83.25000000000001
 31
0.0
  0
LINE
  5
319
330
1E
100
AcDbEntity
  8
0
  6
Continuous
 62
     3
100
AcDbLine
 10
110.1877272729999
 20
84.04999999999999
 30
0.0
 11
109.336818182
 21
77.95
 31
0.0
  0
LINE
  5
31A
330
1E
100
AcDbEntity
  8
0
  6
Continuous
 62
     3
100
AcDbLine
 10
110.0931818179998
 20
84.19999999999998
 30
0.0
 11
110.175
 21
84.1
 31
0.0
  0
LINE
  5
31B
330
1E
100
AcDbEntity
  8
0
  6
Continuous
 62
     3
100
AcDbLine
 10
109.725
 20
84.65000000000001
 30
0.0
 11
109.9295454549999
 21
84.40000000000003
 31
0.0
  0
LINE
  5
31C
330
1E
100
AcDbEntity
  8
0
  6
Continuous
 62
     3
100
AcDbLine
 10
108.115909091
 20
78.15000000000002
 30
0.0
 11
108.821363636
 21
83.25000000000001
 31
0.0
  0
LINE
  5
31D
330
1E
100
AcDbEntity
  8
0
  6
Continuous
 62
     3
100
AcDbLine
 10
103.3431818179998
 20
83.40000000000001
 30
0.0
 11
102.6086363639999
 21
78.09999999999998
 31
0.0
  0
LINE
  5
31E
330
1E
100
AcDbEntity
  8
0
  6
Continuous
 62
     3
100
AcDbLine
 10
108.5749999999999
 20
83.40000000000001
 30
0.0
 11
103.475
 21
83.40000000000001
 31
0.0
  0
LINE
  5
31F
330
1E
100
AcDbEntity
  8
0
  6
Continuous
 62
     3
100
AcDbLine
 10
101.3607142859999
 20
78.0
 30
0.0
 11
102.2035714289999
 21
84.15
 31
0.0
  0
LINE
  5
320
330
1E
100
AcDbEntity
  8
0
  6
Continuous
 62
     3
100
AcDbLine
 10
102.825
 20
84.65000000000001
 30
0.0
 11
109.775
 21
84.65000000000001
 31
0.0
  0
LINE
  5
321
330
1E
100
AcDbEntity
  8
0
  6
Continuous
 62
     3
100
AcDbLine
 10
102.825
 20
84.59999999999999
 30
0.0
 11
102.775
 21
84.565384615
 31
0.0
  0
LINE
  5
322
330
1E
100
AcDbEntity
  8
0
  6
Continuous
 62
     3
100
AcDbLine
 10
102.475
 20
84.357692308
 30
0.0
 11
102.1749999999999
 21
84.15
 31
0.0
  0
LINE
  5
323
330
1E
100
AcDbEntity
  8
0
  6
Continuous
 62
     3
100
AcDbLine
 10
102.7249999999999
 20
84.40000000000003
 30
0.0
 11
102.675
 21
84.45
 31
0.0
  0
LINE
  5
324
330
1E
100
AcDbEntity
  8
0
  6
Continuous
 62
     3
100
AcDbLine
 10
102.675
 20
84.45
 30
0.0
 11
102.775
 21
84.55
 31
0.0
  0
LINE
  5
325
330
1E
100
AcDbEntity
  8
0
  6
Continuous
 62
     3
100
AcDbLine
 10
102.5249999999999
 20
84.25
 30
0.0
 11
102.475
 21
84.35
 31
0.0
  0
LINE
  5
326
330
1E
100
AcDbEntity
  8
0
  6
Continuous
 62
     3
100
AcDbLine
 10
91.07499999999999
 20
83.40000000000001
 30
0.0
 11
90.22499999999999
 21
84.40000000000003
 31
0.0
  0
LINE
  5
327
330
1E
100
AcDbEntity
  8
0
  6
Continuous
 62
     3
100
AcDbLine
 10
90.82500000000001
 20
83.34999999999999
 30
0.0
 11
90.02500000000003
 21
84.25
 31
0.0
  0
LINE
  5
328
330
1E
100
AcDbEntity
  8
0
  6
Continuous
 62
     3
100
AcDbLine
 10
96.125
 20
83.45
 30
0.0
 11
97.32500000000001
 21
84.45
 31
0.0
  0
LINE
  5
329
330
1E
100
AcDbEntity
  8
0
  6
Continuous
 62
     3
100
AcDbLine
 10
97.475
 20
84.25
 30
0.0
 11
96.325
 21
83.25000000000001
 31
0.0
  0
LINE
  5
32A
330
1E
100
AcDbEntity
  8
0
  6
Continuous
 62
     3
100
AcDbLine
 10
97.687727273
 20
84.04999999999999
 30
0.0
 11
96.836818182
 21
77.95
 31
0.0
  0
LINE
  5
32B
330
1E
100
AcDbEntity
  8
0
  6
Continuous
 62
     3
100
AcDbLine
 10
97.59318181799999
 20
84.19999999999998
 30
0.0
 11
97.675
 21
84.1
 31
0.0
  0
LINE
  5
32C
330
1E
100
AcDbEntity
  8
0
  6
Continuous
 62
     3
100
AcDbLine
 10
97.225
 20
84.65000000000001
 30
0.0
 11
97.42954545499999
 21
84.40000000000003
 31
0.0
  0
LINE
  5
32D
330
1E
100
AcDbEntity
  8
0
  6
Continuous
 62
     3
100
AcDbLine
 10
95.61590909100001
 20
78.15000000000002
 30
0.0
 11
96.321363636
 21
83.25000000000001
 31
0.0
  0
LINE
  5
32E
330
1E
100
AcDbEntity
  8
0
  6
Continuous
 62
     3
100
AcDbLine
 10
90.84318181799998
 20
83.40000000000001
 30
0.0
 11
90.10863636399999
 21
78.09999999999998
 31
0.0
  0
LINE
  5
32F
330
1E
100
AcDbEntity
  8
0
  6
Continuous
 62
     3
100
AcDbLine
 10
96.07500000000001
 20
83.40000000000001
 30
0.0
 11
90.975
 21
83.40000000000001
 31
0.0
  0
LINE
  5
330
330
1E
100
AcDbEntity
  8
0
  6
Continuous
 62
     3
100
AcDbLine
 10
88.86071428600002
 20
78.0
 30
0.0
 11
89.70357142899997
 21
84.15
 31
0.0
  0
LINE
  5
331
330
1E
100
AcDbEntity
  8
0
  6
Continuous
 62
     3
100
AcDbLine
 10
90.325
 20
84.65000000000001
 30
0.0
 11
97.275
 21
84.65000000000001
 31
0.0
  0
LINE
  5
332
330
1E
100
AcDbEntity
  8
0
  6
Continuous
 62
     3
100
AcDbLine
 10
90.325
 20
84.59999999999999
 30
0.0
 11
90.27500000000001
 21
84.565384615
 31
0.0
  0
LINE
  5
333
330
1E
100
AcDbEntity
  8
0
  6
Continuous
 62
     3
100
AcDbLine
 10
89.975
 20
84.357692308
 30
0.0
 11
89.67499999999999
 21
84.15
 31
0.0
  0
LINE
  5
334
330
1E
100
AcDbEntity
  8
0
  6
Continuous
 62
     3
100
AcDbLine
 10
90.22499999999999
 20
84.40000000000003
 30
0.0
 11
90.175
 21
84.45
 31
0.0
  0
LINE
  5
335
330
1E
100
AcDbEntity
  8
0
  6
Continuous
 62
     3
100
AcDbLine
 10
90.175
 20
84.45
 30
0.0
 11
90.27500000000001
 21
84.55
 31
0.0
  0
LINE
  5
336
330
1E
100
AcDbEntity
  8
0
  6
Continuous
 62
     3
100
AcDbLine
 10
90.02500000000003
 20
84.25
 30
0.0
 11
89.975
 21
84.35
 31
0.0
  0
POINT
  5
337
330
1E
100
AcDbEntity
  8
0
  6
Continuous
 62
     3
100
AcDbPoint
 10
119.825
 20
81.65
 30
0.0
  0
POINT
  5
338
330
1E
100
AcDbEntity
  8
0
  6
Continuous
 62
     3
100
AcDbPoint
 10
119.825
 20
81.65
 30
0.0
  0
POINT
  5
339
330
1E
100
AcDbEntity
  8
0
  6
Continuous
 62
     3
100
AcDbPoint
 10
116.0749999999999
 20
81.65
 30
0.0
  0
POINT
  5
33A
330
1E
100
AcDbEntity
  8
0
  6
Continuous
 62
     3
100
AcDbPoint
 10
119.575
 20
89.65000000000001
 30
0.0
  0
LINE
  5
33B
330
1E
100
AcDbEntity
  8
0
  6
Continuous
 62
     3
100
AcDbLine
 10
117.825
 20
86.0
 30
0.0
 11
116.6749999999999
 21
86.0
 31
0.0
  0
LINE
  5
33C
330
1E
100
AcDbEntity
  8
0
  6
Continuous
 62
     3
100
AcDbLine
 10
116.625
 20
85.25
 30
0.0
 11
119.1249999999999
 21
85.25
 31
0.0
  0
LINE
  5
33D
330
1E
100
AcDbEntity
  8
0
  6
Continuous
 62
     3
100
AcDbLine
 10
119.425
 20
88.9
 30
0.0
 11
119.9249999999999
 21
89.50000000000001
 31
0.0
  0
LINE
  5
33E
330
1E
100
AcDbEntity
  8
0
  6
Continuous
 62
     3
100
AcDbLine
 10
120.1249999999999
 20
89.45
 30
0.0
 11
119.525
 21
88.7
 31
0.0
  0
LINE
  5
33F
330
1E
100
AcDbEntity
  8
0
  6
Continuous
 62
     3
100
AcDbLine
 10
117.0749999999999
 20
88.95000000000001
 30
0.0
 11
116.625
 21
89.50000000000001
 31
0.0
  0
LINE
  5
340
330
1E
100
AcDbEntity
  8
0
  6
Continuous
 62
     3
100
AcDbLine
 10
116.975
 20
88.75
 30
0.0
 11
116.4749999999999
 21
89.40000000000003
 31
0.0
  0
LINE
  5
341
330
1E
100
AcDbEntity
  8
0
  6
Continuous
 62
     3
100
AcDbLine
 10
119.1249999999999
 20
86.09999999999997
 30
0.0
 11
119.775
 21
85.6
 31
0.0
  0
LINE
  5
342
330
1E
100
AcDbEntity
  8
0
  6
Continuous
 62
     3
100
AcDbLine
 10
119.0749999999999
 20
85.95
 30
0.0
 11
119.7249999999999
 21
85.44999999999998
 31
0.0
  0
LINE
  5
343
330
1E
100
AcDbEntity
  8
0
  6
Continuous
 62
     3
100
AcDbLine
 10
119.7249999999999
 20
85.44999999999998
 30
0.0
 11
119.025
 21
85.25
 31
0.0
  0
LINE
  5
344
330
1E
100
AcDbEntity
  8
0
  6
Continuous
 62
     3
100
AcDbLine
 10
119.025
 20
85.09999999999998
 30
0.0
 11
119.775
 21
85.29999999999999
 31
0.0
  0
LINE
  5
345
330
1E
100
AcDbEntity
  8
0
  6
Continuous
 62
     3
100
AcDbLine
 10
116.625
 20
86.0
 30
0.0
 11
115.975
 21
85.7
 31
0.0
  0
LINE
  5
346
330
1E
100
AcDbEntity
  8
0
  6
Continuous
 62
     3
100
AcDbLine
 10
115.975
 20
85.7
 30
0.0
 11
116.575
 21
85.25
 31
0.0
  0
LINE
  5
347
330
1E
100
AcDbEntity
  8
0
  6
Continuous
 62
     3
100
AcDbLine
 10
115.8749999999999
 20
85.8
 30
0.0
 11
116.625
 21
86.2
 31
0.0
  0
LINE
  5
348
330
1E
100
AcDbEntity
  8
0
  6
Continuous
 62
     3
100
AcDbLine
 10
118.6749999999999
 20
82.5
 30
0.0
 11
119.225
 21
81.95
 31
0.0
  0
LINE
  5
349
330
1E
100
AcDbEntity
  8
0
  6
Continuous
 62
     3
100
AcDbLine
 10
118.575
 20
82.4
 30
0.0
 11
119.1249999999999
 21
81.85
 31
0.0
  0
LINE
  5
34A
330
1E
100
AcDbEntity
  8
0
  6
Continuous
 62
     3
100
AcDbLine
 10
115.541666667
 20
81.85
 30
0.0
 11
115.6749999999999
 21
81.65
 31
0.0
  0
LINE
  5
34B
330
1E
100
AcDbEntity
  8
0
  6
Continuous
 62
     3
100
AcDbLine
 10
118.575
 20
82.4
 30
0.0
 11
116.175
 21
82.4
 31
0.0
  0
LINE
  5
34C
330
1E
100
AcDbEntity
  8
0
  6
Continuous
 62
     3
100
AcDbLine
 10
119.225
 20
81.92222222199999
 30
0.0
 11
119.325
 21
82.0
 31
0.0
  0
LINE
  5
34D
330
1E
100
AcDbEntity
  8
0
  6
Continuous
 62
     3
100
AcDbLine
 10
118.8749999999999
 20
81.65
 30
0.0
 11
119.1249999999999
 21
81.84444444399998
 31
0.0
  0
LINE
  5
34E
330
1E
100
AcDbEntity
  8
0
  6
Continuous
 62
     3
100
AcDbLine
 10
118.8749999999999
 20
81.65
 30
0.0
 11
115.625
 21
81.65
 31
0.0
  0
LINE
  5
34F
330
1E
100
AcDbEntity
  8
0
  6
Continuous
 62
     3
100
AcDbLine
 10
119.7796874999999
 20
85.2875
 30
0.0
 11
119.3671874999999
 21
81.9875
 31
0.0
  0
LINE
  5
350
330
1E
100
AcDbEntity
  8
0
  6
Continuous
 62
     3
100
AcDbLine
 10
118.9984374999999
 20
85.0375
 30
0.0
 11
118.6859375
 21
82.5375
 31
0.0
  0
LINE
  5
351
330
1E
100
AcDbEntity
  8
0
  6
Continuous
 62
     3
100
AcDbLine
 10
119.025
 20
86.0
 30
0.0
 11
117.8749999999999
 21
86.0
 31
0.0
  0
LINE
  5
352
330
1E
100
AcDbEntity
  8
0
  6
Continuous
 62
     3
100
AcDbLine
 10
116.6546874999999
 20
86.2875
 30
0.0
 11
116.9609375
 21
88.73749999999999
 31
0.0
  0
LINE
  5
353
330
1E
100
AcDbEntity
  8
0
  6
Continuous
 62
     3
100
AcDbLine
 10
116.425
 20
89.38571428600003
 30
0.0
 11
116.325
 21
89.29999999999997
 31
0.0
  0
LINE
  5
354
330
1E
100
AcDbEntity
  8
0
  6
Continuous
 62
     3
100
AcDbLine
 10
116.6749999999999
 20
89.59999999999999
 30
0.0
 11
116.625
 21
89.557142857
 31
0.0
  0
LINE
  5
355
330
1E
100
AcDbEntity
  8
0
  6
Continuous
 62
     3
100
AcDbLine
 10
115.8421874999999
 20
85.78749999999997
 30
0.0
 11
116.2734375
 21
89.2375
 31
0.0
  0
LINE
  5
356
330
1E
100
AcDbEntity
  8
0
  6
Continuous
 62
     3
100
AcDbLine
 10
117.125
 20
88.9
 30
0.0
 11
119.4749999999999
 21
88.9
 31
0.0
  0
LINE
  5
357
330
1E
100
AcDbEntity
  8
0
  6
Continuous
 62
     3
100
AcDbLine
 10
119.4484375
 20
88.63750000000001
 30
0.0
 11
119.1296875
 21
86.0875
 31
0.0
  0
LINE
  5
358
330
1E
100
AcDbEntity
  8
0
  6
Continuous
 62
     3
100
AcDbLine
 10
120.175
 20
89.45714285700001
 30
0.0
 11
120.2749999999999
 21
89.40000000000003
 31
0.0
  0
LINE
  5
359
330
1E
100
AcDbEntity
  8
0
  6
Continuous
 62
     3
100
AcDbLine
 10
119.9249999999999
 20
89.59999999999999
 30
0.0
 11
119.9749999999999
 21
89.571428571
 31
0.0
  0
LINE
  5
35A
330
1E
100
AcDbEntity
  8
0
  6
Continuous
 62
     3
100
AcDbLine
 10
116.7249999999999
 20
89.65000000000001
 30
0.0
 11
119.8749999999999
 21
89.65000000000001
 31
0.0
  0
LINE
  5
35B
330
1E
100
AcDbEntity
  8
0
  6
Continuous
 62
     3
100
AcDbLine
 10
120.325
 20
89.40000000000003
 30
0.0
 11
119.825
 21
85.65000000000003
 31
0.0
  0
POINT
  5
35C
330
1E
100
AcDbEntity
  8
0
  6
Continuous
 62
     3
100
AcDbPoint
 10
126.95
 20
81.65
 30
0.0
  0
POINT
  5
35D
330
1E
100
AcDbEntity
  8
0
  6
Continuous
 62
     3
100
AcDbPoint
 10
126.95
 20
81.65
 30
0.0
  0
POINT
  5
35E
330
1E
100
AcDbEntity
  8
0
  6
Continuous
 62
     3
100
AcDbPoint
 10
123.1999999999999
 20
81.65
 30
0.0
  0
POINT
  5
35F
330
1E
100
AcDbEntity
  8
0
  6
Continuous
 62
     3
100
AcDbPoint
 10
126.7
 20
89.65000000000001
 30
0.0
  0
LINE
  5
360
330
1E
100
AcDbEntity
  8
0
  6
Continuous
 62
     3
100
AcDbLine
 10
124.95
 20
86.0
 30
0.0
 11
123.7999999999999
 21
86.0
 31
0.0
  0
LINE
  5
361
330
1E
100
AcDbEntity
  8
0
  6
Continuous
 62
     3
100
AcDbLine
 10
123.75
 20
85.25
 30
0.0
 11
126.2499999999999
 21
85.25
 31
0.0
  0
LINE
  5
362
330
1E
100
AcDbEntity
  8
0
  6
Continuous
 62
     3
100
AcDbLine
 10
126.55
 20
88.9
 30
0.0
 11
127.0499999999999
 21
89.50000000000001
 31
0.0
  0
LINE
  5
363
330
1E
100
AcDbEntity
  8
0
  6
Continuous
 62
     3
100
AcDbLine
 10
127.2499999999999
 20
89.45
 30
0.0
 11
126.65
 21
88.7
 31
0.0
  0
LINE
  5
364
330
1E
100
AcDbEntity
  8
0
  6
Continuous
 62
     3
100
AcDbLine
 10
124.1999999999999
 20
88.95000000000001
 30
0.0
 11
123.75
 21
89.50000000000001
 31
0.0
  0
LINE
  5
365
330
1E
100
AcDbEntity
  8
0
  6
Continuous
 62
     3
100
AcDbLine
 10
124.0999999999999
 20
88.75
 30
0.0
 11
123.5999999999999
 21
89.40000000000003
 31
0.0
  0
LINE
  5
366
330
1E
100
AcDbEntity
  8
0
  6
Continuous
 62
     3
100
AcDbLine
 10
126.2499999999999
 20
86.09999999999997
 30
0.0
 11
126.9
 21
85.6
 31
0.0
  0
LINE
  5
367
330
1E
100
AcDbEntity
  8
0
  6
Continuous
 62
     3
100
AcDbLine
 10
126.2
 20
85.95
 30
0.0
 11
126.8499999999999
 21
85.44999999999998
 31
0.0
  0
LINE
  5
368
330
1E
100
AcDbEntity
  8
0
  6
Continuous
 62
     3
100
AcDbLine
 10
126.8499999999999
 20
85.44999999999998
 30
0.0
 11
126.15
 21
85.25
 31
0.0
  0
LINE
  5
369
330
1E
100
AcDbEntity
  8
0
  6
Continuous
 62
     3
100
AcDbLine
 10
126.15
 20
85.09999999999998
 30
0.0
 11
126.9
 21
85.29999999999999
 31
0.0
  0
LINE
  5
36A
330
1E
100
AcDbEntity
  8
0
  6
Continuous
 62
     3
100
AcDbLine
 10
123.75
 20
86.0
 30
0.0
 11
123.0999999999999
 21
85.7
 31
0.0
  0
LINE
  5
36B
330
1E
100
AcDbEntity
  8
0
  6
Continuous
 62
     3
100
AcDbLine
 10
123.0999999999999
 20
85.7
 30
0.0
 11
123.7
 21
85.25
 31
0.0
  0
LINE
  5
36C
330
1E
100
AcDbEntity
  8
0
  6
Continuous
 62
     3
100
AcDbLine
 10
123.0
 20
85.8
 30
0.0
 11
123.75
 21
86.2
 31
0.0
  0
LINE
  5
36D
330
1E
100
AcDbEntity
  8
0
  6
Continuous
 62
     3
100
AcDbLine
 10
125.8
 20
82.5
 30
0.0
 11
126.35
 21
81.95
 31
0.0
  0
LINE
  5
36E
330
1E
100
AcDbEntity
  8
0
  6
Continuous
 62
     3
100
AcDbLine
 10
125.7
 20
82.4
 30
0.0
 11
126.2499999999999
 21
81.85
 31
0.0
  0
LINE
  5
36F
330
1E
100
AcDbEntity
  8
0
  6
Continuous
 62
     3
100
AcDbLine
 10
122.7
 20
81.90000000000003
 30
0.0
 11
123.3
 21
82.34999999999997
 31
0.0
  0
LINE
  5
370
330
1E
100
AcDbEntity
  8
0
  6
Continuous
 62
     3
100
AcDbLine
 10
122.666666667
 20
81.85
 30
0.0
 11
122.7999999999999
 21
81.65
 31
0.0
  0
LINE
  5
371
330
1E
100
AcDbEntity
  8
0
  6
Continuous
 62
     3
100
AcDbLine
 10
125.7
 20
82.4
 30
0.0
 11
123.3
 21
82.4
 31
0.0
  0
LINE
  5
372
330
1E
100
AcDbEntity
  8
0
  6
Continuous
 62
     3
100
AcDbLine
 10
126.35
 20
81.92222222199999
 30
0.0
 11
126.4499999999999
 21
82.0
 31
0.0
  0
LINE
  5
373
330
1E
100
AcDbEntity
  8
0
  6
Continuous
 62
     3
100
AcDbLine
 10
126.0
 20
81.65
 30
0.0
 11
126.2499999999999
 21
81.84444444399998
 31
0.0
  0
LINE
  5
374
330
1E
100
AcDbEntity
  8
0
  6
Continuous
 62
     3
100
AcDbLine
 10
126.0
 20
81.65
 30
0.0
 11
122.75
 21
81.65
 31
0.0
  0
LINE
  5
375
330
1E
100
AcDbEntity
  8
0
  6
Continuous
 62
     3
100
AcDbLine
 10
126.9046874999999
 20
85.2875
 30
0.0
 11
126.4921874999999
 21
81.9875
 31
0.0
  0
LINE
  5
376
330
1E
100
AcDbEntity
  8
0
  6
Continuous
 62
     3
100
AcDbLine
 10
126.1234374999999
 20
85.0375
 30
0.0
 11
125.8109374999999
 21
82.5375
 31
0.0
  0
LINE
  5
377
330
1E
100
AcDbEntity
  8
0
  6
Continuous
 62
     3
100
AcDbLine
 10
126.15
 20
86.0
 30
0.0
 11
125.0
 21
86.0
 31
0.0
  0
LINE
  5
378
330
1E
100
AcDbEntity
  8
0
  6
Continuous
 62
     3
100
AcDbLine
 10
123.7796874999999
 20
86.2875
 30
0.0
 11
124.0859375
 21
88.73749999999999
 31
0.0
  0
LINE
  5
379
330
1E
100
AcDbEntity
  8
0
  6
Continuous
 62
     3
100
AcDbLine
 10
123.55
 20
89.38571428600003
 30
0.0
 11
123.45
 21
89.29999999999997
 31
0.0
  0
LINE
  5
37A
330
1E
100
AcDbEntity
  8
0
  6
Continuous
 62
     3
100
AcDbLine
 10
123.7999999999999
 20
89.59999999999999
 30
0.0
 11
123.75
 21
89.557142857
 31
0.0
  0
LINE
  5
37B
330
1E
100
AcDbEntity
  8
0
  6
Continuous
 62
     3
100
AcDbLine
 10
122.9671874999999
 20
85.78749999999997
 30
0.0
 11
123.3984375
 21
89.2375
 31
0.0
  0
LINE
  5
37C
330
1E
100
AcDbEntity
  8
0
  6
Continuous
 62
     3
100
AcDbLine
 10
124.2499999999999
 20
88.9
 30
0.0
 11
126.6
 21
88.9
 31
0.0
  0
LINE
  5
37D
330
1E
100
AcDbEntity
  8
0
  6
Continuous
 62
     3
100
AcDbLine
 10
126.5734375
 20
88.63750000000001
 30
0.0
 11
126.2546874999999
 21
86.0875
 31
0.0
  0
LINE
  5
37E
330
1E
100
AcDbEntity
  8
0
  6
Continuous
 62
     3
100
AcDbLine
 10
127.2999999999999
 20
89.45714285700001
 30
0.0
 11
127.4
 21
89.40000000000003
 31
0.0
  0
LINE
  5
37F
330
1E
100
AcDbEntity
  8
0
  6
Continuous
 62
     3
100
AcDbLine
 10
127.0499999999999
 20
89.59999999999999
 30
0.0
 11
127.0999999999999
 21
89.571428571
 31
0.0
  0
LINE
  5
380
330
1E
100
AcDbEntity
  8
0
  6
Continuous
 62
     3
100
AcDbLine
 10
123.8499999999999
 20
89.65000000000001
 30
0.0
 11
127.0
 21
89.65000000000001
 31
0.0
  0
LINE
  5
381
330
1E
100
AcDbEntity
  8
0
  6
Continuous
 62
     3
100
AcDbLine
 10
127.4171874999999
 20
89.3875
 30
0.0
 11
126.9421875
 21
85.58750000000001
 31
0.0
  0
POINT
  5
382
330
1E
100
AcDbEntity
  8
0
  6
Continuous
 62
     3
100
AcDbPoint
 10
134.0749999999995
 20
81.65
 30
0.0
  0
POINT
  5
383
330
1E
100
AcDbEntity
  8
0
  6
Continuous
 62
     3
100
AcDbPoint
 10
134.0749999999995
 20
81.65
 30
0.0
  0
POINT
  5
384
330
1E
100
AcDbEntity
  8
0
  6
Continuous
 62
     3
100
AcDbPoint
 10
130.325
 20
81.65
 30
0.0
  0
POINT
  5
385
330
1E
100
AcDbEntity
  8
0
  6
Continuous
 62
     3
100
AcDbPoint
 10
133.8249999999999
 20
89.65000000000001
 30
0.0
  0
LINE
  5
386
330
1E
100
AcDbEntity
  8
0
  6
Continuous
 62
     3
100
AcDbLine
 10
132.0749999999994
 20
86.0
 30
0.0
 11
130.925
 21
86.0
 31
0.0
  0
LINE
  5
387
330
1E
100
AcDbEntity
  8
0
  6
Continuous
 62
     3
100
AcDbLine
 10
130.875
 20
85.25
 30
0.0
 11
133.3749999999999
 21
85.25
 31
0.0
  0
LINE
  5
388
330
1E
100
AcDbEntity
  8
0
  6
Continuous
 62
     3
100
AcDbLine
 10
133.675
 20
88.9
 30
0.0
 11
134.175
 21
89.50000000000001
 31
0.0
  0
LINE
  5
389
330
1E
100
AcDbEntity
  8
0
  6
Continuous
 62
     3
100
AcDbLine
 10
134.375
 20
89.45
 30
0.0
 11
133.7749999999994
 21
88.7
 31
0.0
  0
LINE
  5
38A
330
1E
100
AcDbEntity
  8
0
  6
Continuous
 62
     3
100
AcDbLine
 10
131.3249999999999
 20
88.95000000000001
 30
0.0
 11
130.875
 21
89.50000000000001
 31
0.0
  0
LINE
  5
38B
330
1E
100
AcDbEntity
  8
0
  6
Continuous
 62
     3
100
AcDbLine
 10
131.2249999999999
 20
88.75
 30
0.0
 11
130.725
 21
89.40000000000003
 31
0.0
  0
LINE
  5
38C
330
1E
100
AcDbEntity
  8
0
  6
Continuous
 62
     3
100
AcDbLine
 10
133.3749999999999
 20
86.09999999999997
 30
0.0
 11
134.025
 21
85.6
 31
0.0
  0
LINE
  5
38D
330
1E
100
AcDbEntity
  8
0
  6
Continuous
 62
     3
100
AcDbLine
 10
133.3249999999999
 20
85.95
 30
0.0
 11
133.9749999999999
 21
85.44999999999998
 31
0.0
  0
LINE
  5
38E
330
1E
100
AcDbEntity
  8
0
  6
Continuous
 62
     3
100
AcDbLine
 10
133.9749999999999
 20
85.44999999999998
 30
0.0
 11
133.275
 21
85.25
 31
0.0
  0
LINE
  5
38F
330
1E
100
AcDbEntity
  8
0
  6
Continuous
 62
     3
100
AcDbLine
 10
133.275
 20
85.09999999999998
 30
0.0
 11
134.025
 21
85.29999999999999
 31
0.0
  0
LINE
  5
390
330
1E
100
AcDbEntity
  8
0
  6
Continuous
 62
     3
100
AcDbLine
 10
130.875
 20
86.0
 30
0.0
 11
130.2249999999999
 21
85.7
 31
0.0
  0
LINE
  5
391
330
1E
100
AcDbEntity
  8
0
  6
Continuous
 62
     3
100
AcDbLine
 10
130.125
 20
85.8
 30
0.0
 11
130.875
 21
86.2
 31
0.0
  0
LINE
  5
392
330
1E
100
AcDbEntity
  8
0
  6
Continuous
 62
     3
100
AcDbLine
 10
132.925
 20
82.5
 30
0.0
 11
133.4749999999999
 21
81.95
 31
0.0
  0
LINE
  5
393
330
1E
100
AcDbEntity
  8
0
  6
Continuous
 62
     3
100
AcDbLine
 10
132.8249999999999
 20
82.4
 30
0.0
 11
133.3749999999999
 21
81.85
 31
0.0
  0
LINE
  5
394
330
1E
100
AcDbEntity
  8
0
  6
Continuous
 62
     3
100
AcDbLine
 10
129.8249999999999
 20
81.90000000000003
 30
0.0
 11
130.425
 21
82.34999999999997
 31
0.0
  0
LINE
  5
395
330
1E
100
AcDbEntity
  8
0
  6
Continuous
 62
     3
100
AcDbLine
 10
129.791666667
 20
81.85
 30
0.0
 11
129.925
 21
81.65
 31
0.0
  0
LINE
  5
396
330
1E
100
AcDbEntity
  8
0
  6
Continuous
 62
     3
100
AcDbLine
 10
132.8249999999999
 20
82.4
 30
0.0
 11
130.425
 21
82.4
 31
0.0
  0
LINE
  5
397
330
1E
100
AcDbEntity
  8
0
  6
Continuous
 62
     3
100
AcDbLine
 10
133.4749999999999
 20
81.92222222199999
 30
0.0
 11
133.5749999999999
 21
82.0
 31
0.0
  0
LINE
  5
398
330
1E
100
AcDbEntity
  8
0
  6
Continuous
 62
     3
100
AcDbLine
 10
133.125
 20
81.65
 30
0.0
 11
133.3749999999999
 21
81.84444444399998
 31
0.0
  0
LINE
  5
399
330
1E
100
AcDbEntity
  8
0
  6
Continuous
 62
     3
100
AcDbLine
 10
133.125
 20
81.65
 30
0.0
 11
129.875
 21
81.65
 31
0.0
  0
LINE
  5
39A
330
1E
100
AcDbEntity
  8
0
  6
Continuous
 62
     3
100
AcDbLine
 10
134.0296874999999
 20
85.2875
 30
0.0
 11
133.6171875
 21
81.9875
 31
0.0
  0
LINE
  5
39B
330
1E
100
AcDbEntity
  8
0
  6
Continuous
 62
     3
100
AcDbLine
 10
133.2484374999999
 20
85.0375
 30
0.0
 11
132.9359374999999
 21
82.5375
 31
0.0
  0
LINE
  5
39C
330
1E
100
AcDbEntity
  8
0
  6
Continuous
 62
     3
100
AcDbLine
 10
133.275
 20
86.0
 30
0.0
 11
132.125
 21
86.0
 31
0.0
  0
LINE
  5
39D
330
1E
100
AcDbEntity
  8
0
  6
Continuous
 62
     3
100
AcDbLine
 10
130.9046874999999
 20
86.2875
 30
0.0
 11
131.2109375
 21
88.73749999999999
 31
0.0
  0
LINE
  5
39E
330
1E
100
AcDbEntity
  8
0
  6
Continuous
 62
     3
100
AcDbLine
 10
130.675
 20
89.38571428600003
 30
0.0
 11
130.5749999999999
 21
89.29999999999997
 31
0.0
  0
LINE
  5
39F
330
1E
100
AcDbEntity
  8
0
  6
Continuous
 62
     3
100
AcDbLine
 10
130.925
 20
89.59999999999999
 30
0.0
 11
130.875
 21
89.557142857
 31
0.0
  0
LINE
  5
3A0
330
1E
100
AcDbEntity
  8
0
  6
Continuous
 62
     3
100
AcDbLine
 10
130.0921875
 20
85.78749999999997
 30
0.0
 11
130.5234374999999
 21
89.2375
 31
0.0
  0
LINE
  5
3A1
330
1E
100
AcDbEntity
  8
0
  6
Continuous
 62
     3
100
AcDbLine
 10
131.3749999999999
 20
88.9
 30
0.0
 11
133.725
 21
88.9
 31
0.0
  0
LINE
  5
3A2
330
1E
100
AcDbEntity
  8
0
  6
Continuous
 62
     3
100
AcDbLine
 10
133.6984375
 20
88.63750000000001
 30
0.0
 11
133.3796874999999
 21
86.0875
 31
0.0
  0
LINE
  5
3A3
330
1E
100
AcDbEntity
  8
0
  6
Continuous
 62
     3
100
AcDbLine
 10
134.425
 20
89.45714285700001
 30
0.0
 11
134.525
 21
89.40000000000003
 31
0.0
  0
LINE
  5
3A4
330
1E
100
AcDbEntity
  8
0
  6
Continuous
 62
     3
100
AcDbLine
 10
134.175
 20
89.59999999999999
 30
0.0
 11
134.2249999999999
 21
89.571428571
 31
0.0
  0
LINE
  5
3A5
330
1E
100
AcDbEntity
  8
0
  6
Continuous
 62
     3
100
AcDbLine
 10
130.9749999999999
 20
89.65000000000001
 30
0.0
 11
134.125
 21
89.65000000000001
 31
0.0
  0
LINE
  5
3A6
330
1E
100
AcDbEntity
  8
0
  6
Continuous
 62
     3
100
AcDbLine
 10
134.575
 20
89.40000000000003
 30
0.0
 11
134.0749999999995
 21
85.65000000000003
 31
0.0
  0
POINT
  5
3A7
330
1E
100
AcDbEntity
  8
0
  6
Continuous
 62
     3
100
AcDbPoint
 10
141.1999999999999
 20
81.65
 30
0.0
  0
POINT
  5
3A8
330
1E
100
AcDbEntity
  8
0
  6
Continuous
 62
     3
100
AcDbPoint
 10
141.1999999999999
 20
81.65
 30
0.0
  0
POINT
  5
3A9
330
1E
100
AcDbEntity
  8
0
  6
Continuous
 62
     3
100
AcDbPoint
 10
137.4499999999999
 20
81.65
 30
0.0
  0
POINT
  5
3AA
330
1E
100
AcDbEntity
  8
0
  6
Continuous
 62
     3
100
AcDbPoint
 10
140.9499999999999
 20
89.65000000000001
 30
0.0
  0
LINE
  5
3AB
330
1E
100
AcDbEntity
  8
0
  6
Continuous
 62
     3
100
AcDbLine
 10
139.1999999999999
 20
86.0
 30
0.0
 11
138.05
 21
86.0
 31
0.0
  0
LINE
  5
3AC
330
1E
100
AcDbEntity
  8
0
  6
Continuous
 62
     3
100
AcDbLine
 10
138.0
 20
85.25
 30
0.0
 11
140.5
 21
85.25
 31
0.0
  0
LINE
  5
3AD
330
1E
100
AcDbEntity
  8
0
  6
Continuous
 62
     3
100
AcDbLine
 10
140.8
 20
88.9
 30
0.0
 11
141.3
 21
89.50000000000001
 31
0.0
  0
LINE
  5
3AE
330
1E
100
AcDbEntity
  8
0
  6
Continuous
 62
     3
100
AcDbLine
 10
141.5
 20
89.45
 30
0.0
 11
140.8999999999998
 21
88.7
 31
0.0
  0
LINE
  5
3AF
330
1E
100
AcDbEntity
  8
0
  6
Continuous
 62
     3
100
AcDbLine
 10
138.4499999999997
 20
88.95000000000001
 30
0.0
 11
138.0
 21
89.50000000000001
 31
0.0
  0
LINE
  5
3B0
330
1E
100
AcDbEntity
  8
0
  6
Continuous
 62
     3
100
AcDbLine
 10
138.3499999999999
 20
88.75
 30
0.0
 11
137.85
 21
89.40000000000003
 31
0.0
  0
LINE
  5
3B1
330
1E
100
AcDbEntity
  8
0
  6
Continuous
 62
     3
100
AcDbLine
 10
140.5
 20
86.09999999999997
 30
0.0
 11
141.15
 21
85.6
 31
0.0
  0
LINE
  5
3B2
330
1E
100
AcDbEntity
  8
0
  6
Continuous
 62
     3
100
AcDbLine
 10
140.4499999999995
 20
85.95
 30
0.0
 11
141.1
 21
85.44999999999998
 31
0.0
  0
LINE
  5
3B3
330
1E
100
AcDbEntity
  8
0
  6
Continuous
 62
     3
100
AcDbLine
 10
141.1
 20
85.44999999999998
 30
0.0
 11
140.4
 21
85.25
 31
0.0
  0
LINE
  5
3B4
330
1E
100
AcDbEntity
  8
0
  6
Continuous
 62
     3
100
AcDbLine
 10
140.4
 20
85.09999999999998
 30
0.0
 11
141.15
 21
85.29999999999999
 31
0.0
  0
LINE
  5
3B5
330
1E
100
AcDbEntity
  8
0
  6
Continuous
 62
     3
100
AcDbLine
 10
138.0
 20
86.0
 30
0.0
 11
137.3499999999999
 21
85.7
 31
0.0
  0
LINE
  5
3B6
330
1E
100
AcDbEntity
  8
0
  6
Continuous
 62
     3
100
AcDbLine
 10
137.3499999999999
 20
85.7
 30
0.0
 11
137.9499999999999
 21
85.25
 31
0.0
  0
LINE
  5
3B7
330
1E
100
AcDbEntity
  8
0
  6
Continuous
 62
     3
100
AcDbLine
 10
137.25
 20
85.8
 30
0.0
 11
138.0
 21
86.2
 31
0.0
  0
LINE
  5
3B8
330
1E
100
AcDbEntity
  8
0
  6
Continuous
 62
     3
100
AcDbLine
 10
140.05
 20
82.5
 30
0.0
 11
140.5999999999995
 21
81.95
 31
0.0
  0
LINE
  5
3B9
330
1E
100
AcDbEntity
  8
0
  6
Continuous
 62
     3
100
AcDbLine
 10
139.9499999999999
 20
82.4
 30
0.0
 11
140.5
 21
81.85
 31
0.0
  0
LINE
  5
3BA
330
1E
100
AcDbEntity
  8
0
  6
Continuous
 62
     3
100
AcDbLine
 10
136.9499999999999
 20
81.90000000000003
 30
0.0
 11
137.55
 21
82.34999999999997
 31
0.0
  0
LINE
  5
3BB
330
1E
100
AcDbEntity
  8
0
  6
Continuous
 62
     3
100
AcDbLine
 10
136.916666667
 20
81.85
 30
0.0
 11
137.05
 21
81.65
 31
0.0
  0
LINE
  5
3BC
330
1E
100
AcDbEntity
  8
0
  6
Continuous
 62
     3
100
AcDbLine
 10
139.9499999999999
 20
82.4
 30
0.0
 11
137.55
 21
82.4
 31
0.0
  0
LINE
  5
3BD
330
1E
100
AcDbEntity
  8
0
  6
Continuous
 62
     3
100
AcDbLine
 10
140.5999999999995
 20
81.92222222199999
 30
0.0
 11
140.6999999999999
 21
82.0
 31
0.0
  0
LINE
  5
3BE
330
1E
100
AcDbEntity
  8
0
  6
Continuous
 62
     3
100
AcDbLine
 10
140.25
 20
81.65
 30
0.0
 11
140.5
 21
81.84444444399998
 31
0.0
  0
LINE
  5
3BF
330
1E
100
AcDbEntity
  8
0
  6
Continuous
 62
     3
100
AcDbLine
 10
140.25
 20
81.65
 30
0.0
 11
137.0
 21
81.65
 31
0.0
  0
LINE
  5
3C0
330
1E
100
AcDbEntity
  8
0
  6
Continuous
 62
     3
100
AcDbLine
 10
141.1546874999999
 20
85.2875
 30
0.0
 11
140.7421875
 21
81.9875
 31
0.0
  0
LINE
  5
3C1
330
1E
100
AcDbEntity
  8
0
  6
Continuous
 62
     3
100
AcDbLine
 10
140.3734374999999
 20
85.0375
 30
0.0
 11
140.0609374999999
 21
82.5375
 31
0.0
  0
LINE
  5
3C2
330
1E
100
AcDbEntity
  8
0
  6
Continuous
 62
     3
100
AcDbLine
 10
140.4
 20
86.0
 30
0.0
 11
139.25
 21
86.0
 31
0.0
  0
LINE
  5
3C3
330
1E
100
AcDbEntity
  8
0
  6
Continuous
 62
     3
100
AcDbLine
 10
138.0296874999999
 20
86.2875
 30
0.0
 11
138.3359374999999
 21
88.73749999999999
 31
0.0
  0
LINE
  5
3C4
330
1E
100
AcDbEntity
  8
0
  6
Continuous
 62
     3
100
AcDbLine
 10
137.8
 20
89.38571428600003
 30
0.0
 11
137.7
 21
89.29999999999997
 31
0.0
  0
LINE
  5
3C5
330
1E
100
AcDbEntity
  8
0
  6
Continuous
 62
     3
100
AcDbLine
 10
138.05
 20
89.59999999999999
 30
0.0
 11
138.0
 21
89.557142857
 31
0.0
  0
LINE
  5
3C6
330
1E
100
AcDbEntity
  8
0
  6
Continuous
 62
     3
100
AcDbLine
 10
137.2171875
 20
85.78749999999997
 30
0.0
 11
137.6484374999999
 21
89.2375
 31
0.0
  0
LINE
  5
3C7
330
1E
100
AcDbEntity
  8
0
  6
Continuous
 62
     3
100
AcDbLine
 10
138.5
 20
88.9
 30
0.0
 11
140.8499999999999
 21
88.9
 31
0.0
  0
LINE
  5
3C8
330
1E
100
AcDbEntity
  8
0
  6
Continuous
 62
     3
100
AcDbLine
 10
140.8234375
 20
88.63750000000001
 30
0.0
 11
140.5046874999999
 21
86.0875
 31
0.0
  0
LINE
  5
3C9
330
1E
100
AcDbEntity
  8
0
  6
Continuous
 62
     3
100
AcDbLine
 10
141.3
 20
89.59999999999999
 30
0.0
 11
141.3499999999999
 21
89.571428571
 31
0.0
  0
LINE
  5
3CA
330
1E
100
AcDbEntity
  8
0
  6
Continuous
 62
     3
100
AcDbLine
 10
138.1
 20
89.65000000000001
 30
0.0
 11
141.25
 21
89.65000000000001
 31
0.0
  0
LINE
  5
3CB
330
1E
100
AcDbEntity
  8
0
  6
Continuous
 62
     3
100
AcDbLine
 10
141.6671875
 20
89.3875
 30
0.0
 11
141.1921874999999
 21
85.58750000000001
 31
0.0
  0
POINT
  5
3CC
330
1E
100
AcDbEntity
  8
0
  6
Continuous
 62
     3
100
AcDbPoint
 10
119.825
 20
70.15
 30
0.0
  0
POINT
  5
3CD
330
1E
100
AcDbEntity
  8
0
  6
Continuous
 62
     3
100
AcDbPoint
 10
119.825
 20
70.15
 30
0.0
  0
POINT
  5
3CE
330
1E
100
AcDbEntity
  8
0
  6
Continuous
 62
     3
100
AcDbPoint
 10
116.0749999999999
 20
70.15
 30
0.0
  0
POINT
  5
3CF
330
1E
100
AcDbEntity
  8
0
  6
Continuous
 62
     3
100
AcDbPoint
 10
119.575
 20
78.15000000000002
 30
0.0
  0
LINE
  5
3D0
330
1E
100
AcDbEntity
  8
0
  6
Continuous
 62
     3
100
AcDbLine
 10
117.825
 20
74.5
 30
0.0
 11
116.6749999999999
 21
74.5
 31
0.0
  0
LINE
  5
3D1
330
1E
100
AcDbEntity
  8
0
  6
Continuous
 62
     3
100
AcDbLine
 10
116.625
 20
73.75
 30
0.0
 11
119.1249999999999
 21
73.75
 31
0.0
  0
LINE
  5
3D2
330
1E
100
AcDbEntity
  8
0
  6
Continuous
 62
     3
100
AcDbLine
 10
119.425
 20
77.40000000000001
 30
0.0
 11
119.9249999999999
 21
78.0
 31
0.0
  0
LINE
  5
3D3
330
1E
100
AcDbEntity
  8
0
  6
Continuous
 62
     3
100
AcDbLine
 10
120.1249999999999
 20
77.95
 30
0.0
 11
119.525
 21
77.2
 31
0.0
  0
LINE
  5
3D4
330
1E
100
AcDbEntity
  8
0
  6
Continuous
 62
     3
100
AcDbLine
 10
117.0749999999999
 20
77.45
 30
0.0
 11
116.625
 21
78.0
 31
0.0
  0
LINE
  5
3D5
330
1E
100
AcDbEntity
  8
0
  6
Continuous
 62
     3
100
AcDbLine
 10
116.975
 20
77.25
 30
0.0
 11
116.4749999999999
 21
77.9
 31
0.0
  0
LINE
  5
3D6
330
1E
100
AcDbEntity
  8
0
  6
Continuous
 62
     3
100
AcDbLine
 10
119.1249999999999
 20
74.59999999999998
 30
0.0
 11
119.775
 21
74.1
 31
0.0
  0
LINE
  5
3D7
330
1E
100
AcDbEntity
  8
0
  6
Continuous
 62
     3
100
AcDbLine
 10
119.0749999999999
 20
74.45
 30
0.0
 11
119.7249999999999
 21
73.95
 31
0.0
  0
LINE
  5
3D8
330
1E
100
AcDbEntity
  8
0
  6
Continuous
 62
     3
100
AcDbLine
 10
119.7249999999999
 20
73.95
 30
0.0
 11
119.025
 21
73.75
 31
0.0
  0
LINE
  5
3D9
330
1E
100
AcDbEntity
  8
0
  6
Continuous
 62
     3
100
AcDbLine
 10
119.025
 20
73.59999999999998
 30
0.0
 11
119.775
 21
73.79999999999999
 31
0.0
  0
LINE
  5
3DA
330
1E
100
AcDbEntity
  8
0
  6
Continuous
 62
     3
100
AcDbLine
 10
116.625
 20
74.5
 30
0.0
 11
115.975
 21
74.2
 31
0.0
  0
LINE
  5
3DB
330
1E
100
AcDbEntity
  8
0
  6
Continuous
 62
     3
100
AcDbLine
 10
115.8749999999999
 20
74.29999999999998
 30
0.0
 11
116.625
 21
74.7
 31
0.0
  0
LINE
  5
3DC
330
1E
100
AcDbEntity
  8
0
  6
Continuous
 62
     3
100
AcDbLine
 10
118.6749999999999
 20
71.0
 30
0.0
 11
119.225
 21
70.45
 31
0.0
  0
LINE
  5
3DD
330
1E
100
AcDbEntity
  8
0
  6
Continuous
 62
     3
100
AcDbLine
 10
118.575
 20
70.9
 30
0.0
 11
119.1249999999999
 21
70.35
 31
0.0
  0
LINE
  5
3DE
330
1E
100
AcDbEntity
  8
0
  6
Continuous
 62
     3
100
AcDbLine
 10
115.575
 20
70.4
 30
0.0
 11
116.175
 21
70.84999999999998
 31
0.0
  0
LINE
  5
3DF
330
1E
100
AcDbEntity
  8
0
  6
Continuous
 62
     3
100
AcDbLine
 10
115.541666667
 20
70.35
 30
0.0
 11
115.6749999999999
 21
70.15
 31
0.0
  0
LINE
  5
3E0
330
1E
100
AcDbEntity
  8
0
  6
Continuous
 62
     3
100
AcDbLine
 10
118.575
 20
70.9
 30
0.0
 11
116.175
 21
70.9
 31
0.0
  0
LINE
  5
3E1
330
1E
100
AcDbEntity
  8
0
  6
Continuous
 62
     3
100
AcDbLine
 10
119.225
 20
70.422222222
 30
0.0
 11
119.325
 21
70.5
 31
0.0
  0
LINE
  5
3E2
330
1E
100
AcDbEntity
  8
0
  6
Continuous
 62
     3
100
AcDbLine
 10
118.8749999999999
 20
70.15
 30
0.0
 11
119.1249999999999
 21
70.34444444399999
 31
0.0
  0
LINE
  5
3E3
330
1E
100
AcDbEntity
  8
0
  6
Continuous
 62
     3
100
AcDbLine
 10
118.8749999999999
 20
70.15
 30
0.0
 11
115.625
 21
70.15
 31
0.0
  0
LINE
  5
3E4
330
1E
100
AcDbEntity
  8
0
  6
Continuous
 62
     3
100
AcDbLine
 10
119.7796874999999
 20
73.7875
 30
0.0
 11
119.3671874999999
 21
70.4875
 31
0.0
  0
LINE
  5
3E5
330
1E
100
AcDbEntity
  8
0
  6
Continuous
 62
     3
100
AcDbLine
 10
118.9984374999999
 20
73.53749999999998
 30
0.0
 11
118.6859375
 21
71.03749999999998
 31
0.0
  0
LINE
  5
3E6
330
1E
100
AcDbEntity
  8
0
  6
Continuous
 62
     3
100
AcDbLine
 10
119.025
 20
74.5
 30
0.0
 11
117.8749999999999
 21
74.5
 31
0.0
  0
LINE
  5
3E7
330
1E
100
AcDbEntity
  8
0
  6
Continuous
 62
     3
100
AcDbLine
 10
116.6546874999999
 20
74.78749999999998
 30
0.0
 11
116.9609375
 21
77.23749999999999
 31
0.0
  0
LINE
  5
3E8
330
1E
100
AcDbEntity
  8
0
  6
Continuous
 62
     3
100
AcDbLine
 10
116.425
 20
77.885714286
 30
0.0
 11
116.325
 21
77.8
 31
0.0
  0
LINE
  5
3E9
330
1E
100
AcDbEntity
  8
0
  6
Continuous
 62
     3
100
AcDbLine
 10
116.6749999999999
 20
78.09999999999998
 30
0.0
 11
116.625
 21
78.057142857
 31
0.0
  0
LINE
  5
3EA
330
1E
100
AcDbEntity
  8
0
  6
Continuous
 62
     3
100
AcDbLine
 10
115.8421874999999
 20
74.28749999999998
 30
0.0
 11
116.2734375
 21
77.73749999999998
 31
0.0
  0
LINE
  5
3EB
330
1E
100
AcDbEntity
  8
0
  6
Continuous
 62
     3
100
AcDbLine
 10
117.125
 20
77.40000000000001
 30
0.0
 11
119.4749999999999
 21
77.40000000000001
 31
0.0
  0
LINE
  5
3EC
330
1E
100
AcDbEntity
  8
0
  6
Continuous
 62
     3
100
AcDbLine
 10
119.4484375
 20
77.1375
 30
0.0
 11
119.1296875
 21
74.58750000000001
 31
0.0
  0
LINE
  5
3ED
330
1E
100
AcDbEntity
  8
0
  6
Continuous
 62
     3
100
AcDbLine
 10
120.175
 20
77.95714285699999
 30
0.0
 11
120.2749999999999
 21
77.9
 31
0.0
  0
LINE
  5
3EE
330
1E
100
AcDbEntity
  8
0
  6
Continuous
 62
     3
100
AcDbLine
 10
119.9249999999999
 20
78.09999999999998
 30
0.0
 11
119.9749999999999
 21
78.071428571
 31
0.0
  0
LINE
  5
3EF
330
1E
100
AcDbEntity
  8
0
  6
Continuous
 62
     3
100
AcDbLine
 10
116.7249999999999
 20
78.15000000000002
 30
0.0
 11
119.8749999999999
 21
78.15000000000002
 31
0.0
  0
LINE
  5
3F0
330
1E
100
AcDbEntity
  8
0
  6
Continuous
 62
     3
100
AcDbLine
 10
120.325
 20
77.9
 30
0.0
 11
119.825
 21
74.15
 31
0.0
  0
POINT
  5
3F1
330
1E
100
AcDbEntity
  8
0
  6
Continuous
 62
     3
100
AcDbPoint
 10
126.95
 20
70.15
 30
0.0
  0
POINT
  5
3F2
330
1E
100
AcDbEntity
  8
0
  6
Continuous
 62
     3
100
AcDbPoint
 10
126.95
 20
70.15
 30
0.0
  0
POINT
  5
3F3
330
1E
100
AcDbEntity
  8
0
  6
Continuous
 62
     3
100
AcDbPoint
 10
123.1999999999999
 20
70.15
 30
0.0
  0
POINT
  5
3F4
330
1E
100
AcDbEntity
  8
0
  6
Continuous
 62
     3
100
AcDbPoint
 10
126.7
 20
78.15000000000002
 30
0.0
  0
LINE
  5
3F5
330
1E
100
AcDbEntity
  8
0
  6
Continuous
 62
     3
100
AcDbLine
 10
124.95
 20
74.5
 30
0.0
 11
123.7999999999999
 21
74.5
 31
0.0
  0
LINE
  5
3F6
330
1E
100
AcDbEntity
  8
0
  6
Continuous
 62
     3
100
AcDbLine
 10
123.75
 20
73.75
 30
0.0
 11
126.2499999999999
 21
73.75
 31
0.0
  0
LINE
  5
3F7
330
1E
100
AcDbEntity
  8
0
  6
Continuous
 62
     3
100
AcDbLine
 10
126.55
 20
77.40000000000001
 30
0.0
 11
127.0499999999999
 21
78.0
 31
0.0
  0
LINE
  5
3F8
330
1E
100
AcDbEntity
  8
0
  6
Continuous
 62
     3
100
AcDbLine
 10
127.2499999999999
 20
77.95
 30
0.0
 11
126.65
 21
77.2
 31
0.0
  0
LINE
  5
3F9
330
1E
100
AcDbEntity
  8
0
  6
Continuous
 62
     3
100
AcDbLine
 10
124.1999999999999
 20
77.45
 30
0.0
 11
123.75
 21
78.0
 31
0.0
  0
LINE
  5
3FA
330
1E
100
AcDbEntity
  8
0
  6
Continuous
 62
     3
100
AcDbLine
 10
124.0999999999999
 20
77.25
 30
0.0
 11
123.5999999999999
 21
77.9
 31
0.0
  0
LINE
  5
3FB
330
1E
100
AcDbEntity
  8
0
  6
Continuous
 62
     3
100
AcDbLine
 10
126.2499999999999
 20
74.59999999999998
 30
0.0
 11
126.9
 21
74.1
 31
0.0
  0
LINE
  5
3FC
330
1E
100
AcDbEntity
  8
0
  6
Continuous
 62
     3
100
AcDbLine
 10
126.2
 20
74.45
 30
0.0
 11
126.8499999999999
 21
73.95
 31
0.0
  0
LINE
  5
3FD
330
1E
100
AcDbEntity
  8
0
  6
Continuous
 62
     3
100
AcDbLine
 10
126.8499999999999
 20
73.95
 30
0.0
 11
126.15
 21
73.75
 31
0.0
  0
LINE
  5
3FE
330
1E
100
AcDbEntity
  8
0
  6
Continuous
 62
     3
100
AcDbLine
 10
126.15
 20
73.59999999999998
 30
0.0
 11
126.9
 21
73.79999999999999
 31
0.0
  0
LINE
  5
3FF
330
1E
100
AcDbEntity
  8
0
  6
Continuous
 62
     3
100
AcDbLine
 10
123.75
 20
74.5
 30
0.0
 11
123.0999999999999
 21
74.2
 31
0.0
  0
LINE
  5
400
330
1E
100
AcDbEntity
  8
0
  6
Continuous
 62
     3
100
AcDbLine
 10
123.0999999999999
 20
74.2
 30
0.0
 11
123.7
 21
73.75
 31
0.0
  0
LINE
  5
401
330
1E
100
AcDbEntity
  8
0
  6
Continuous
 62
     3
100
AcDbLine
 10
123.0
 20
74.29999999999998
 30
0.0
 11
123.75
 21
74.7
 31
0.0
  0
LINE
  5
402
330
1E
100
AcDbEntity
  8
0
  6
Continuous
 62
     3
100
AcDbLine
 10
125.8
 20
71.0
 30
0.0
 11
126.35
 21
70.45
 31
0.0
  0
LINE
  5
403
330
1E
100
AcDbEntity
  8
0
  6
Continuous
 62
     3
100
AcDbLine
 10
125.7
 20
70.9
 30
0.0
 11
126.2499999999999
 21
70.35
 31
0.0
  0
LINE
  5
404
330
1E
100
AcDbEntity
  8
0
  6
Continuous
 62
     3
100
AcDbLine
 10
122.7
 20
70.4
 30
0.0
 11
123.3
 21
70.84999999999998
 31
0.0
  0
LINE
  5
405
330
1E
100
AcDbEntity
  8
0
  6
Continuous
 62
     3
100
AcDbLine
 10
122.666666667
 20
70.35
 30
0.0
 11
122.7999999999999
 21
70.15
 31
0.0
  0
LINE
  5
406
330
1E
100
AcDbEntity
  8
0
  6
Continuous
 62
     3
100
AcDbLine
 10
125.7
 20
70.9
 30
0.0
 11
123.3
 21
70.9
 31
0.0
  0
LINE
  5
407
330
1E
100
AcDbEntity
  8
0
  6
Continuous
 62
     3
100
AcDbLine
 10
126.35
 20
70.422222222
 30
0.0
 11
126.4499999999999
 21
70.5
 31
0.0
  0
LINE
  5
408
330
1E
100
AcDbEntity
  8
0
  6
Continuous
 62
     3
100
AcDbLine
 10
126.0
 20
70.15
 30
0.0
 11
126.2499999999999
 21
70.34444444399999
 31
0.0
  0
LINE
  5
409
330
1E
100
AcDbEntity
  8
0
  6
Continuous
 62
     3
100
AcDbLine
 10
126.0
 20
70.15
 30
0.0
 11
122.75
 21
70.15
 31
0.0
  0
LINE
  5
40A
330
1E
100
AcDbEntity
  8
0
  6
Continuous
 62
     3
100
AcDbLine
 10
126.9046874999999
 20
73.7875
 30
0.0
 11
126.4921874999999
 21
70.4875
 31
0.0
  0
LINE
  5
40B
330
1E
100
AcDbEntity
  8
0
  6
Continuous
 62
     3
100
AcDbLine
 10
126.1234374999999
 20
73.53749999999998
 30
0.0
 11
125.8109374999999
 21
71.03749999999998
 31
0.0
  0
LINE
  5
40C
330
1E
100
AcDbEntity
  8
0
  6
Continuous
 62
     3
100
AcDbLine
 10
126.15
 20
74.5
 30
0.0
 11
125.0
 21
74.5
 31
0.0
  0
LINE
  5
40D
330
1E
100
AcDbEntity
  8
0
  6
Continuous
 62
     3
100
AcDbLine
 10
123.7796874999999
 20
74.78749999999998
 30
0.0
 11
124.0859375
 21
77.23749999999999
 31
0.0
  0
LINE
  5
40E
330
1E
100
AcDbEntity
  8
0
  6
Continuous
 62
     3
100
AcDbLine
 10
123.55
 20
77.885714286
 30
0.0
 11
123.45
 21
77.8
 31
0.0
  0
LINE
  5
40F
330
1E
100
AcDbEntity
  8
0
  6
Continuous
 62
     3
100
AcDbLine
 10
123.7999999999999
 20
78.09999999999998
 30
0.0
 11
123.75
 21
78.057142857
 31
0.0
  0
LINE
  5
410
330
1E
100
AcDbEntity
  8
0
  6
Continuous
 62
     3
100
AcDbLine
 10
122.9671874999999
 20
74.28749999999998
 30
0.0
 11
123.3984375
 21
77.73749999999998
 31
0.0
  0
LINE
  5
411
330
1E
100
AcDbEntity
  8
0
  6
Continuous
 62
     3
100
AcDbLine
 10
124.2499999999999
 20
77.40000000000001
 30
0.0
 11
126.6
 21
77.40000000000001
 31
0.0
  0
LINE
  5
412
330
1E
100
AcDbEntity
  8
0
  6
Continuous
 62
     3
100
AcDbLine
 10
126.5734375
 20
77.1375
 30
0.0
 11
126.2546874999999
 21
74.58750000000001
 31
0.0
  0
LINE
  5
413
330
1E
100
AcDbEntity
  8
0
  6
Continuous
 62
     3
100
AcDbLine
 10
127.2999999999999
 20
77.95714285699999
 30
0.0
 11
127.4
 21
77.9
 31
0.0
  0
LINE
  5
414
330
1E
100
AcDbEntity
  8
0
  6
Continuous
 62
     3
100
AcDbLine
 10
127.0499999999999
 20
78.09999999999998
 30
0.0
 11
127.0999999999999
 21
78.071428571
 31
0.0
  0
LINE
  5
415
330
1E
100
AcDbEntity
  8
0
  6
Continuous
 62
     3
100
AcDbLine
 10
123.8499999999999
 20
78.15000000000002
 30
0.0
 11
127.0
 21
78.15000000000002
 31
0.0
  0
LINE
  5
416
330
1E
100
AcDbEntity
  8
0
  6
Continuous
 62
     3
100
AcDbLine
 10
127.4171874999999
 20
77.8875
 30
0.0
 11
126.9421875
 21
74.08750000000002
 31
0.0
  0
POINT
  5
417
330
1E
100
AcDbEntity
  8
0
  6
Continuous
 62
     3
100
AcDbPoint
 10
134.0749999999995
 20
70.15
 30
0.0
  0
POINT
  5
418
330
1E
100
AcDbEntity
  8
0
  6
Continuous
 62
     3
100
AcDbPoint
 10
134.0749999999995
 20
70.15
 30
0.0
  0
POINT
  5
419
330
1E
100
AcDbEntity
  8
0
  6
Continuous
 62
     3
100
AcDbPoint
 10
130.325
 20
70.15
 30
0.0
  0
POINT
  5
41A
330
1E
100
AcDbEntity
  8
0
  6
Continuous
 62
     3
100
AcDbPoint
 10
133.8249999999999
 20
78.15000000000002
 30
0.0
  0
LINE
  5
41B
330
1E
100
AcDbEntity
  8
0
  6
Continuous
 62
     3
100
AcDbLine
 10
132.0749999999994
 20
74.5
 30
0.0
 11
130.925
 21
74.5
 31
0.0
  0
LINE
  5
41C
330
1E
100
AcDbEntity
  8
0
  6
Continuous
 62
     3
100
AcDbLine
 10
130.875
 20
73.75
 30
0.0
 11
133.3749999999999
 21
73.75
 31
0.0
  0
LINE
  5
41D
330
1E
100
AcDbEntity
  8
0
  6
Continuous
 62
     3
100
AcDbLine
 10
133.675
 20
77.40000000000001
 30
0.0
 11
134.175
 21
78.0
 31
0.0
  0
LINE
  5
41E
330
1E
100
AcDbEntity
  8
0
  6
Continuous
 62
     3
100
AcDbLine
 10
134.375
 20
77.95
 30
0.0
 11
133.7749999999994
 21
77.2
 31
0.0
  0
LINE
  5
41F
330
1E
100
AcDbEntity
  8
0
  6
Continuous
 62
     3
100
AcDbLine
 10
131.3249999999999
 20
77.45
 30
0.0
 11
130.875
 21
78.0
 31
0.0
  0
LINE
  5
420
330
1E
100
AcDbEntity
  8
0
  6
Continuous
 62
     3
100
AcDbLine
 10
131.2249999999999
 20
77.25
 30
0.0
 11
130.725
 21
77.9
 31
0.0
  0
LINE
  5
421
330
1E
100
AcDbEntity
  8
0
  6
Continuous
 62
     3
100
AcDbLine
 10
133.3749999999999
 20
74.59999999999998
 30
0.0
 11
134.025
 21
74.1
 31
0.0
  0
LINE
  5
422
330
1E
100
AcDbEntity
  8
0
  6
Continuous
 62
     3
100
AcDbLine
 10
133.3249999999999
 20
74.45
 30
0.0
 11
133.9749999999999
 21
73.95
 31
0.0
  0
LINE
  5
423
330
1E
100
AcDbEntity
  8
0
  6
Continuous
 62
     3
100
AcDbLine
 10
133.9749999999999
 20
73.95
 30
0.0
 11
133.275
 21
73.75
 31
0.0
  0
LINE
  5
424
330
1E
100
AcDbEntity
  8
0
  6
Continuous
 62
     3
100
AcDbLine
 10
133.275
 20
73.59999999999998
 30
0.0
 11
134.025
 21
73.79999999999999
 31
0.0
  0
LINE
  5
425
330
1E
100
AcDbEntity
  8
0
  6
Continuous
 62
     3
100
AcDbLine
 10
130.875
 20
74.5
 30
0.0
 11
130.2249999999999
 21
74.2
 31
0.0
  0
LINE
  5
426
330
1E
100
AcDbEntity
  8
0
  6
Continuous
 62
     3
100
AcDbLine
 10
130.2249999999999
 20
74.2
 30
0.0
 11
130.8249999999999
 21
73.75
 31
0.0
  0
LINE
  5
427
330
1E
100
AcDbEntity
  8
0
  6
Continuous
 62
     3
100
AcDbLine
 10
130.125
 20
74.29999999999998
 30
0.0
 11
130.875
 21
74.7
 31
0.0
  0
LINE
  5
428
330
1E
100
AcDbEntity
  8
0
  6
Continuous
 62
     3
100
AcDbLine
 10
132.925
 20
71.0
 30
0.0
 11
133.4749999999999
 21
70.45
 31
0.0
  0
LINE
  5
429
330
1E
100
AcDbEntity
  8
0
  6
Continuous
 62
     3
100
AcDbLine
 10
132.8249999999999
 20
70.9
 30
0.0
 11
133.3749999999999
 21
70.35
 31
0.0
  0
LINE
  5
42A
330
1E
100
AcDbEntity
  8
0
  6
Continuous
 62
     3
100
AcDbLine
 10
129.8249999999999
 20
70.4
 30
0.0
 11
130.425
 21
70.84999999999998
 31
0.0
  0
LINE
  5
42B
330
1E
100
AcDbEntity
  8
0
  6
Continuous
 62
     3
100
AcDbLine
 10
129.791666667
 20
70.35
 30
0.0
 11
129.925
 21
70.15
 31
0.0
  0
LINE
  5
42C
330
1E
100
AcDbEntity
  8
0
  6
Continuous
 62
     3
100
AcDbLine
 10
132.8249999999999
 20
70.9
 30
0.0
 11
130.425
 21
70.9
 31
0.0
  0
LINE
  5
42D
330
1E
100
AcDbEntity
  8
0
  6
Continuous
 62
     3
100
AcDbLine
 10
133.4749999999999
 20
70.422222222
 30
0.0
 11
133.5749999999999
 21
70.5
 31
0.0
  0
LINE
  5
42E
330
1E
100
AcDbEntity
  8
0
  6
Continuous
 62
     3
100
AcDbLine
 10
133.125
 20
70.15
 30
0.0
 11
133.3749999999999
 21
70.34444444399999
 31
0.0
  0
LINE
  5
42F
330
1E
100
AcDbEntity
  8
0
  6
Continuous
 62
     3
100
AcDbLine
 10
133.125
 20
70.15
 30
0.0
 11
129.875
 21
70.15
 31
0.0
  0
LINE
  5
430
330
1E
100
AcDbEntity
  8
0
  6
Continuous
 62
     3
100
AcDbLine
 10
134.0296874999999
 20
73.7875
 30
0.0
 11
133.6171875
 21
70.4875
 31
0.0
  0
LINE
  5
431
330
1E
100
AcDbEntity
  8
0
  6
Continuous
 62
     3
100
AcDbLine
 10
133.2484374999999
 20
73.53749999999998
 30
0.0
 11
132.9359374999999
 21
71.03749999999998
 31
0.0
  0
LINE
  5
432
330
1E
100
AcDbEntity
  8
0
  6
Continuous
 62
     3
100
AcDbLine
 10
133.275
 20
74.5
 30
0.0
 11
132.125
 21
74.5
 31
0.0
  0
LINE
  5
433
330
1E
100
AcDbEntity
  8
0
  6
Continuous
 62
     3
100
AcDbLine
 10
130.9046874999999
 20
74.78749999999998
 30
0.0
 11
131.2109375
 21
77.23749999999999
 31
0.0
  0
LINE
  5
434
330
1E
100
AcDbEntity
  8
0
  6
Continuous
 62
     3
100
AcDbLine
 10
130.675
 20
77.885714286
 30
0.0
 11
130.5749999999999
 21
77.8
 31
0.0
  0
LINE
  5
435
330
1E
100
AcDbEntity
  8
0
  6
Continuous
 62
     3
100
AcDbLine
 10
130.925
 20
78.09999999999998
 30
0.0
 11
130.875
 21
78.057142857
 31
0.0
  0
LINE
  5
436
330
1E
100
AcDbEntity
  8
0
  6
Continuous
 62
     3
100
AcDbLine
 10
130.0921875
 20
74.28749999999998
 30
0.0
 11
130.5234374999999
 21
77.73749999999998
 31
0.0
  0
LINE
  5
437
330
1E
100
AcDbEntity
  8
0
  6
Continuous
 62
     3
100
AcDbLine
 10
131.3749999999999
 20
77.40000000000001
 30
0.0
 11
133.725
 21
77.40000000000001
 31
0.0
  0
LINE
  5
438
330
1E
100
AcDbEntity
  8
0
  6
Continuous
 62
     3
100
AcDbLine
 10
133.6984375
 20
77.1375
 30
0.0
 11
133.3796874999999
 21
74.58750000000001
 31
0.0
  0
LINE
  5
439
330
1E
100
AcDbEntity
  8
0
  6
Continuous
 62
     3
100
AcDbLine
 10
134.425
 20
77.95714285699999
 30
0.0
 11
134.525
 21
77.9
 31
0.0
  0
LINE
  5
43A
330
1E
100
AcDbEntity
  8
0
  6
Continuous
 62
     3
100
AcDbLine
 10
134.175
 20
78.09999999999998
 30
0.0
 11
134.2249999999999
 21
78.071428571
 31
0.0
  0
LINE
  5
43B
330
1E
100
AcDbEntity
  8
0
  6
Continuous
 62
     3
100
AcDbLine
 10
130.9749999999999
 20
78.15000000000002
 30
0.0
 11
134.125
 21
78.15000000000002
 31
0.0
  0
LINE
  5
43C
330
1E
100
AcDbEntity
  8
0
  6
Continuous
 62
     3
100
AcDbLine
 10
134.575
 20
77.9
 30
0.0
 11
134.0749999999995
 21
74.15
 31
0.0
  0
POINT
  5
43D
330
1E
100
AcDbEntity
  8
0
  6
Continuous
 62
     3
100
AcDbPoint
 10
141.1999999999999
 20
70.15
 30
0.0
  0
POINT
  5
43E
330
1E
100
AcDbEntity
  8
0
  6
Continuous
 62
     3
100
AcDbPoint
 10
141.1999999999999
 20
70.15
 30
0.0
  0
POINT
  5
43F
330
1E
100
AcDbEntity
  8
0
  6
Continuous
 62
     3
100
AcDbPoint
 10
137.4499999999999
 20
70.15
 30
0.0
  0
POINT
  5
440
330
1E
100
AcDbEntity
  8
0
  6
Continuous
 62
     3
100
AcDbPoint
 10
140.9499999999999
 20
78.15000000000002
 30
0.0
  0
LINE
  5
441
330
1E
100
AcDbEntity
  8
0
  6
Continuous
 62
     3
100
AcDbLine
 10
139.1999999999999
 20
74.5
 30
0.0
 11
138.05
 21
74.5
 31
0.0
  0
LINE
  5
442
330
1E
100
AcDbEntity
  8
0
  6
Continuous
 62
     3
100
AcDbLine
 10
138.0
 20
73.75
 30
0.0
 11
140.5
 21
73.75
 31
0.0
  0
LINE
  5
443
330
1E
100
AcDbEntity
  8
0
  6
Continuous
 62
     3
100
AcDbLine
 10
140.8
 20
77.40000000000001
 30
0.0
 11
141.3
 21
78.0
 31
0.0
  0
LINE
  5
444
330
1E
100
AcDbEntity
  8
0
  6
Continuous
 62
     3
100
AcDbLine
 10
141.5
 20
77.95
 30
0.0
 11
140.8999999999998
 21
77.2
 31
0.0
  0
LINE
  5
445
330
1E
100
AcDbEntity
  8
0
  6
Continuous
 62
     3
100
AcDbLine
 10
138.4499999999997
 20
77.45
 30
0.0
 11
138.0
 21
78.0
 31
0.0
  0
LINE
  5
446
330
1E
100
AcDbEntity
  8
0
  6
Continuous
 62
     3
100
AcDbLine
 10
138.3499999999999
 20
77.25
 30
0.0
 11
137.85
 21
77.9
 31
0.0
  0
LINE
  5
447
330
1E
100
AcDbEntity
  8
0
  6
Continuous
 62
     3
100
AcDbLine
 10
140.5
 20
74.59999999999998
 30
0.0
 11
141.15
 21
74.1
 31
0.0
  0
LINE
  5
448
330
1E
100
AcDbEntity
  8
0
  6
Continuous
 62
     3
100
AcDbLine
 10
140.4499999999995
 20
74.45
 30
0.0
 11
141.1
 21
73.95
 31
0.0
  0
LINE
  5
449
330
1E
100
AcDbEntity
  8
0
  6
Continuous
 62
     3
100
AcDbLine
 10
141.1
 20
73.95
 30
0.0
 11
140.4
 21
73.75
 31
0.0
  0
LINE
  5
44A
330
1E
100
AcDbEntity
  8
0
  6
Continuous
 62
     3
100
AcDbLine
 10
140.4
 20
73.59999999999998
 30
0.0
 11
141.15
 21
73.79999999999999
 31
0.0
  0
LINE
  5
44B
330
1E
100
AcDbEntity
  8
0
  6
Continuous
 62
     3
100
AcDbLine
 10
138.0
 20
74.5
 30
0.0
 11
137.3499999999999
 21
74.2
 31
0.0
  0
LINE
  5
44C
330
1E
100
AcDbEntity
  8
0
  6
Continuous
 62
     3
100
AcDbLine
 10
137.3499999999999
 20
74.2
 30
0.0
 11
137.9499999999999
 21
73.75
 31
0.0
  0
LINE
  5
44D
330
1E
100
AcDbEntity
  8
0
  6
Continuous
 62
     3
100
AcDbLine
 10
137.25
 20
74.29999999999998
 30
0.0
 11
138.0
 21
74.7
 31
0.0
  0
LINE
  5
44E
330
1E
100
AcDbEntity
  8
0
  6
Continuous
 62
     3
100
AcDbLine
 10
140.05
 20
71.0
 30
0.0
 11
140.5999999999995
 21
70.45
 31
0.0
  0
LINE
  5
44F
330
1E
100
AcDbEntity
  8
0
  6
Continuous
 62
     3
100
AcDbLine
 10
139.9499999999999
 20
70.9
 30
0.0
 11
140.5
 21
70.35
 31
0.0
  0
LINE
  5
450
330
1E
100
AcDbEntity
  8
0
  6
Continuous
 62
     3
100
AcDbLine
 10
136.9499999999999
 20
70.4
 30
0.0
 11
137.55
 21
70.84999999999998
 31
0.0
  0
LINE
  5
451
330
1E
100
AcDbEntity
  8
0
  6
Continuous
 62
     3
100
AcDbLine
 10
136.916666667
 20
70.35
 30
0.0
 11
137.05
 21
70.15
 31
0.0
  0
LINE
  5
452
330
1E
100
AcDbEntity
  8
0
  6
Continuous
 62
     3
100
AcDbLine
 10
139.9499999999999
 20
70.9
 30
0.0
 11
137.55
 21
70.9
 31
0.0
  0
LINE
  5
453
330
1E
100
AcDbEntity
  8
0
  6
Continuous
 62
     3
100
AcDbLine
 10
140.5999999999995
 20
70.422222222
 30
0.0
 11
140.6999999999999
 21
70.5
 31
0.0
  0
LINE
  5
454
330
1E
100
AcDbEntity
  8
0
  6
Continuous
 62
     3
100
AcDbLine
 10
140.25
 20
70.15
 30
0.0
 11
140.5
 21
70.34444444399999
 31
0.0
  0
LINE
  5
455
330
1E
100
AcDbEntity
  8
0
  6
Continuous
 62
     3
100
AcDbLine
 10
140.25
 20
70.15
 30
0.0
 11
137.0
 21
70.15
 31
0.0
  0
LINE
  5
456
330
1E
100
AcDbEntity
  8
0
  6
Continuous
 62
     3
100
AcDbLine
 10
141.1546874999999
 20
73.7875
 30
0.0
 11
140.7421875
 21
70.4875
 31
0.0
  0
LINE
  5
457
330
1E
100
AcDbEntity
  8
0
  6
Continuous
 62
     3
100
AcDbLine
 10
140.3734374999999
 20
73.53749999999998
 30
0.0
 11
140.0609374999999
 21
71.03749999999998
 31
0.0
  0
LINE
  5
458
330
1E
100
AcDbEntity
  8
0
  6
Continuous
 62
     3
100
AcDbLine
 10
140.4
 20
74.5
 30
0.0
 11
139.25
 21
74.5
 31
0.0
  0
LINE
  5
459
330
1E
100
AcDbEntity
  8
0
  6
Continuous
 62
     3
100
AcDbLine
 10
138.0296874999999
 20
74.78749999999998
 30
0.0
 11
138.3359374999999
 21
77.23749999999999
 31
0.0
  0
LINE
  5
45A
330
1E
100
AcDbEntity
  8
0
  6
Continuous
 62
     3
100
AcDbLine
 10
137.8
 20
77.885714286
 30
0.0
 11
137.7
 21
77.8
 31
0.0
  0
LINE
  5
45B
330
1E
100
AcDbEntity
  8
0
  6
Continuous
 62
     3
100
AcDbLine
 10
138.05
 20
78.09999999999998
 30
0.0
 11
138.0
 21
78.057142857
 31
0.0
  0
LINE
  5
45C
330
1E
100
AcDbEntity
  8
0
  6
Continuous
 62
     3
100
AcDbLine
 10
137.2171875
 20
74.28749999999998
 30
0.0
 11
137.6484374999999
 21
77.73749999999998
 31
0.0
  0
LINE
  5
45D
330
1E
100
AcDbEntity
  8
0
  6
Continuous
 62
     3
100
AcDbLine
 10
138.5
 20
77.40000000000001
 30
0.0
 11
140.8499999999999
 21
77.40000000000001
 31
0.0
  0
LINE
  5
45E
330
1E
100
AcDbEntity
  8
0
  6
Continuous
 62
     3
100
AcDbLine
 10
140.8234375
 20
77.1375
 30
0.0
 11
140.5046874999999
 21
74.58750000000001
 31
0.0
  0
LINE
  5
45F
330
1E
100
AcDbEntity
  8
0
  6
Continuous
 62
     3
100
AcDbLine
 10
141.3
 20
78.09999999999998
 30
0.0
 11
141.3499999999999
 21
78.071428571
 31
0.0
  0
LINE
  5
460
330
1E
100
AcDbEntity
  8
0
  6
Continuous
 62
     3
100
AcDbLine
 10
138.1
 20
78.15000000000002
 30
0.0
 11
141.25
 21
78.15000000000002
 31
0.0
  0
LINE
  5
461
330
1E
100
AcDbEntity
  8
0
  6
Continuous
 62
     3
100
AcDbLine
 10
141.6671875
 20
77.8875
 30
0.0
 11
141.1921874999999
 21
74.08750000000002
 31
0.0
  0
POINT
  5
462
330
1E
100
AcDbEntity
  8
0
  6
Continuous
 62
     3
100
AcDbPoint
 10
116.7499999999999
 20
59.2
 30
0.0
  0
POINT
  5
463
330
1E
100
AcDbEntity
  8
0
  6
Continuous
 62
     3
100
AcDbPoint
 10
116.325
 20
66.65
 30
0.0
  0
POINT
  5
464
330
1E
100
AcDbEntity
  8
0
  6
Continuous
 62
     3
100
AcDbPoint
 10
116.0749999999999
 20
58.65
 30
0.0
  0
POINT
  5
465
330
1E
100
AcDbEntity
  8
0
  6
Continuous
 62
     3
100
AcDbPoint
 10
119.575
 20
66.65
 30
0.0
  0
LINE
  5
466
330
1E
100
AcDbEntity
  8
0
  6
Continuous
 62
     3
100
AcDbLine
 10
117.825
 20
63.0
 30
0.0
 11
116.6749999999999
 21
63.0
 31
0.0
  0
LINE
  5
467
330
1E
100
AcDbEntity
  8
0
  6
Continuous
 62
     3
100
AcDbLine
 10
116.625
 20
62.25
 30
0.0
 11
119.1249999999999
 21
62.25
 31
0.0
  0
LINE
  5
468
330
1E
100
AcDbEntity
  8
0
  6
Continuous
 62
     3
100
AcDbLine
 10
119.425
 20
65.9
 30
0.0
 11
119.9249999999999
 21
66.5
 31
0.0
  0
LINE
  5
469
330
1E
100
AcDbEntity
  8
0
  6
Continuous
 62
     3
100
AcDbLine
 10
120.1249999999999
 20
66.45
 30
0.0
 11
119.525
 21
65.7
 31
0.0
  0
LINE
  5
46A
330
1E
100
AcDbEntity
  8
0
  6
Continuous
 62
     3
100
AcDbLine
 10
117.0749999999999
 20
65.95
 30
0.0
 11
116.625
 21
66.5
 31
0.0
  0
LINE
  5
46B
330
1E
100
AcDbEntity
  8
0
  6
Continuous
 62
     3
100
AcDbLine
 10
116.975
 20
65.75
 30
0.0
 11
116.4749999999999
 21
66.4
 31
0.0
  0
LINE
  5
46C
330
1E
100
AcDbEntity
  8
0
  6
Continuous
 62
     3
100
AcDbLine
 10
119.1249999999999
 20
63.1
 30
0.0
 11
119.775
 21
62.6
 31
0.0
  0
LINE
  5
46D
330
1E
100
AcDbEntity
  8
0
  6
Continuous
 62
     3
100
AcDbLine
 10
119.0749999999999
 20
62.95
 30
0.0
 11
119.7249999999999
 21
62.45
 31
0.0
  0
LINE
  5
46E
330
1E
100
AcDbEntity
  8
0
  6
Continuous
 62
     3
100
AcDbLine
 10
119.7249999999999
 20
62.45
 30
0.0
 11
119.025
 21
62.25
 31
0.0
  0
LINE
  5
46F
330
1E
100
AcDbEntity
  8
0
  6
Continuous
 62
     3
100
AcDbLine
 10
119.025
 20
62.1
 30
0.0
 11
119.775
 21
62.3
 31
0.0
  0
LINE
  5
470
330
1E
100
AcDbEntity
  8
0
  6
Continuous
 62
     3
100
AcDbLine
 10
116.625
 20
63.0
 30
0.0
 11
115.975
 21
62.7
 31
0.0
  0
LINE
  5
471
330
1E
100
AcDbEntity
  8
0
  6
Continuous
 62
     3
100
AcDbLine
 10
115.975
 20
62.7
 30
0.0
 11
116.575
 21
62.25
 31
0.0
  0
LINE
  5
472
330
1E
100
AcDbEntity
  8
0
  6
Continuous
 62
     3
100
AcDbLine
 10
116.4749999999999
 20
62.14999999999999
 30
0.0
 11
115.825
 21
62.6
 31
0.0
  0
LINE
  5
473
330
1E
100
AcDbEntity
  8
0
  6
Continuous
 62
     3
100
AcDbLine
 10
115.8749999999999
 20
62.8
 30
0.0
 11
116.625
 21
63.2
 31
0.0
  0
LINE
  5
474
330
1E
100
AcDbEntity
  8
0
  6
Continuous
 62
     3
100
AcDbLine
 10
118.6749999999999
 20
59.5
 30
0.0
 11
119.225
 21
58.95
 31
0.0
  0
LINE
  5
475
330
1E
100
AcDbEntity
  8
0
  6
Continuous
 62
     3
100
AcDbLine
 10
118.575
 20
59.4
 30
0.0
 11
119.1249999999999
 21
58.85
 31
0.0
  0
LINE
  5
476
330
1E
100
AcDbEntity
  8
0
  6
Continuous
 62
     3
100
AcDbLine
 10
116.175
 20
59.5
 30
0.0
 11
115.4749999999999
 21
59.0
 31
0.0
  0
LINE
  5
477
330
1E
100
AcDbEntity
  8
0
  6
Continuous
 62
     3
100
AcDbLine
 10
115.575
 20
58.9
 30
0.0
 11
116.175
 21
59.35
 31
0.0
  0
LINE
  5
478
330
1E
100
AcDbEntity
  8
0
  6
Continuous
 62
     3
100
AcDbLine
 10
115.3812499999999
 20
59.1
 30
0.0
 11
115.825
 21
62.65
 31
0.0
  0
LINE
  5
479
330
1E
100
AcDbEntity
  8
0
  6
Continuous
 62
     3
100
AcDbLine
 10
115.541666667
 20
58.85
 30
0.0
 11
115.6749999999999
 21
58.65
 31
0.0
  0
LINE
  5
47A
330
1E
100
AcDbEntity
  8
0
  6
Continuous
 62
     3
100
AcDbLine
 10
115.375
 20
59.1
 30
0.0
 11
115.4749999999999
 21
58.95
 31
0.0
  0
LINE
  5
47B
330
1E
100
AcDbEntity
  8
0
  6
Continuous
 62
     3
100
AcDbLine
 10
118.575
 20
59.4
 30
0.0
 11
116.175
 21
59.4
 31
0.0
  0
LINE
  5
47C
330
1E
100
AcDbEntity
  8
0
  6
Continuous
 62
     3
100
AcDbLine
 10
119.225
 20
58.922222222
 30
0.0
 11
119.325
 21
59.0
 31
0.0
  0
LINE
  5
47D
330
1E
100
AcDbEntity
  8
0
  6
Continuous
 62
     3
100
AcDbLine
 10
118.8749999999999
 20
58.65
 30
0.0
 11
119.1249999999999
 21
58.84444444399999
 31
0.0
  0
LINE
  5
47E
330
1E
100
AcDbEntity
  8
0
  6
Continuous
 62
     3
100
AcDbLine
 10
118.8749999999999
 20
58.65
 30
0.0
 11
115.625
 21
58.65
 31
0.0
  0
LINE
  5
47F
330
1E
100
AcDbEntity
  8
0
  6
Continuous
 62
     3
100
AcDbLine
 10
119.7796874999999
 20
62.2875
 30
0.0
 11
119.3671874999999
 21
58.98749999999999
 31
0.0
  0
LINE
  5
480
330
1E
100
AcDbEntity
  8
0
  6
Continuous
 62
     3
100
AcDbLine
 10
118.9984374999999
 20
62.0375
 30
0.0
 11
118.6859375
 21
59.5375
 31
0.0
  0
LINE
  5
481
330
1E
100
AcDbEntity
  8
0
  6
Continuous
 62
     3
100
AcDbLine
 10
119.025
 20
63.0
 30
0.0
 11
117.8749999999999
 21
63.0
 31
0.0
  0
LINE
  5
482
330
1E
100
AcDbEntity
  8
0
  6
Continuous
 62
     3
100
AcDbLine
 10
116.1859374999999
 20
59.5375
 30
0.0
 11
116.5046875
 21
62.0875
 31
0.0
  0
LINE
  5
483
330
1E
100
AcDbEntity
  8
0
  6
Continuous
 62
     3
100
AcDbLine
 10
116.6546874999999
 20
63.2875
 30
0.0
 11
116.9609375
 21
65.7375
 31
0.0
  0
LINE
  5
484
330
1E
100
AcDbEntity
  8
0
  6
Continuous
 62
     3
100
AcDbLine
 10
116.425
 20
66.38571428600001
 30
0.0
 11
116.325
 21
66.29999999999999
 31
0.0
  0
LINE
  5
485
330
1E
100
AcDbEntity
  8
0
  6
Continuous
 62
     3
100
AcDbLine
 10
116.6749999999999
 20
66.6
 30
0.0
 11
116.625
 21
66.557142857
 31
0.0
  0
LINE
  5
486
330
1E
100
AcDbEntity
  8
0
  6
Continuous
 62
     3
100
AcDbLine
 10
116.3234375
 20
66.6375
 30
0.0
 11
116.325
 21
66.65
 31
0.0
  0
LINE
  5
487
330
1E
100
AcDbEntity
  8
0
  6
Continuous
 62
     3
100
AcDbLine
 10
115.8421874999999
 20
62.7875
 30
0.0
 11
116.2734375
 21
66.2375
 31
0.0
  0
LINE
  5
488
330
1E
100
AcDbEntity
  8
0
  6
Continuous
 62
     3
100
AcDbLine
 10
117.125
 20
65.9
 30
0.0
 11
119.4749999999999
 21
65.9
 31
0.0
  0
LINE
  5
489
330
1E
100
AcDbEntity
  8
0
  6
Continuous
 62
     3
100
AcDbLine
 10
119.4484375
 20
65.6375
 30
0.0
 11
119.1296875
 21
63.08749999999999
 31
0.0
  0
LINE
  5
48A
330
1E
100
AcDbEntity
  8
0
  6
Continuous
 62
     3
100
AcDbLine
 10
119.9249999999999
 20
66.6
 30
0.0
 11
119.9749999999999
 21
66.571428571
 31
0.0
  0
LINE
  5
48B
330
1E
100
AcDbEntity
  8
0
  6
Continuous
 62
     3
100
AcDbLine
 10
116.7249999999999
 20
66.65
 30
0.0
 11
119.8749999999999
 21
66.65
 31
0.0
  0
LINE
  5
48C
330
1E
100
AcDbEntity
  8
0
  6
Continuous
 62
     3
100
AcDbLine
 10
120.2921874999999
 20
66.3875
 30
0.0
 11
119.8171875
 21
62.5875
 31
0.0
  0
LINE
  5
48D
330
1E
100
AcDbEntity
  8
0
  6
Continuous
 62
     3
100
AcDbLine
 10
129.775
 20
98.40000000000001
 30
0.0
 11
53.775
 21
98.40000000000001
 31
0.0
  0
LINE
  5
48E
330
1E
100
AcDbEntity
  8
0
  6
Continuous
 62
     3
100
AcDbLine
 10
100.775
 20
99.40000000000001
 30
0.0
 11
128.525
 21
99.40000000000001
 31
0.0
  0
CIRCLE
  5
48F
330
1E
100
AcDbEntity
  8
0
  6
Continuous
 62
     3
100
AcDbCircle
 10
72.45999999999998
 20
71.31999999999997
 30
0.0
 40
0.7
  0
LINE
  5
490
330
1E
100
AcDbEntity
  8
0
  6
Continuous
 62
     3
100
AcDbLine
 10
115.575
 20
81.90000000000003
 30
0.0
 11
116.175
 21
82.34999999999997
 31
0.0
  0
LINE
  5
491
330
1E
100
AcDbEntity
  8
0
  6
Continuous
 62
     3
100
AcDbLine
 10
130.2249999999999
 20
85.7
 30
0.0
 11
130.8249999999999
 21
85.25
 31
0.0
  0
LINE
  5
492
330
1E
100
AcDbEntity
  8
0
  6
Continuous
 62
     3
100
AcDbLine
 10
115.975
 20
74.2
 30
0.0
 11
116.575
 21
73.75
 31
0.0
  0
LINE
  5
493
330
1E
100
AcDbEntity
  8
0
  6
Continuous
 62
     3
100
AcDbLine
 10
142.6999999999999
 20
80.65000000000003
 30
0.0
 11
142.6999999999999
 21
90.525
 31
0.0
  0
LINE
  5
494
330
1E
100
AcDbEntity
  8
0
  6
Continuous
 62
     3
100
AcDbLine
 10
72.775
 20
69.15
 30
0.0
 11
111.725
 21
69.15
 31
0.0
  0
LINE
  5
495
330
1E
100
AcDbEntity
  8
0
  6
LTYPE1
 62
     3
100
AcDbLine
 10
81.025
 20
63.39999999999999
 30
0.0
 11
81.025
 21
57.4
 31
0.0
  0
LINE
  5
496
330
1E
100
AcDbEntity
  8
0
  6
LTYPE1
 62
     3
100
AcDbLine
 10
80.775
 20
63.39999999999999
 30
0.0
 11
80.775
 21
57.4
 31
0.0
  0
LINE
  5
497
330
1E
100
AcDbEntity
  8
0
  6
LTYPE1
 62
     3
100
AcDbLine
 10
78.77500000000002
 20
57.4
 30
0.0
 11
78.77500000000002
 21
63.39999999999999
 31
0.0
  0
LINE
  5
498
330
1E
100
AcDbEntity
  8
0
  6
Continuous
 62
     3
100
AcDbLine
 10
83.01
 20
61.93
 30
0.0
 11
83.01
 21
58.93
 31
0.0
  0
LINE
  5
499
330
1E
100
AcDbEntity
  8
0
  6
Continuous
 62
     3
100
AcDbLine
 10
83.01
 20
58.93
 30
0.0
 11
86.60999999999999
 21
60.43
 31
0.0
  0
LINE
  5
49A
330
1E
100
AcDbEntity
  8
0
  6
Continuous
 62
     3
100
AcDbLine
 10
86.60999999999999
 20
60.43
 30
0.0
 11
83.01
 21
61.93
 31
0.0
  0
LINE
  5
49B
330
1E
100
AcDbEntity
  8
0
  6
Continuous
 62
     3
100
AcDbLine
 10
83.01
 20
61.63
 30
0.0
 11
83.73000000000002
 21
61.63
 31
0.0
  0
LINE
  5
49C
330
1E
100
AcDbEntity
  8
0
  6
Continuous
 62
     3
100
AcDbLine
 10
84.45
 20
61.33
 30
0.0
 11
83.01
 21
61.33
 31
0.0
  0
LINE
  5
49D
330
1E
100
AcDbEntity
  8
0
  6
Continuous
 62
     3
100
AcDbLine
 10
83.01
 20
61.03
 30
0.0
 11
85.17000000000001
 21
61.03
 31
0.0
  0
LINE
  5
49E
330
1E
100
AcDbEntity
  8
0
  6
Continuous
 62
     3
100
AcDbLine
 10
85.89
 20
60.73
 30
0.0
 11
83.01
 21
60.73
 31
0.0
  0
LINE
  5
49F
330
1E
100
AcDbEntity
  8
0
  6
Continuous
 62
     3
100
AcDbLine
 10
83.01
 20
60.43
 30
0.0
 11
86.60999999999999
 21
60.43
 31
0.0
  0
LINE
  5
4A0
330
1E
100
AcDbEntity
  8
0
  6
Continuous
 62
     3
100
AcDbLine
 10
85.89
 20
60.13
 30
0.0
 11
83.01
 21
60.13
 31
0.0
  0
LINE
  5
4A1
330
1E
100
AcDbEntity
  8
0
  6
Continuous
 62
     3
100
AcDbLine
 10
83.01
 20
59.83
 30
0.0
 11
85.17000000000001
 21
59.83
 31
0.0
  0
LINE
  5
4A2
330
1E
100
AcDbEntity
  8
0
  6
Continuous
 62
     3
100
AcDbLine
 10
84.45
 20
59.53
 30
0.0
 11
83.01
 21
59.53
 31
0.0
  0
LINE
  5
4A3
330
1E
100
AcDbEntity
  8
0
  6
Continuous
 62
     3
100
AcDbLine
 10
83.01
 20
59.23
 30
0.0
 11
83.73000000000002
 21
59.23
 31
0.0
  0
LINE
  5
4A4
330
1E
100
AcDbEntity
  8
0
  6
Continuous
 62
     3
100
AcDbLine
 10
83.01
 20
61.93
 30
0.0
 11
83.01
 21
58.93
 31
0.0
  0
LINE
  5
4A5
330
1E
100
AcDbEntity
  8
0
  6
Continuous
 62
     3
100
AcDbLine
 10
83.31000000000001
 20
59.05499999999999
 30
0.0
 11
83.31000000000001
 21
61.805
 31
0.0
  0
LINE
  5
4A6
330
1E
100
AcDbEntity
  8
0
  6
Continuous
 62
     3
100
AcDbLine
 10
83.61
 20
61.68
 30
0.0
 11
83.61
 21
59.18
 31
0.0
  0
LINE
  5
4A7
330
1E
100
AcDbEntity
  8
0
  6
Continuous
 62
     3
100
AcDbLine
 10
83.91
 20
59.305
 30
0.0
 11
83.91
 21
61.55499999999999
 31
0.0
  0
LINE
  5
4A8
330
1E
100
AcDbEntity
  8
0
  6
Continuous
 62
     3
100
AcDbLine
 10
84.20999999999997
 20
61.43
 30
0.0
 11
84.20999999999997
 21
59.43
 31
0.0
  0
LINE
  5
4A9
330
1E
100
AcDbEntity
  8
0
  6
Continuous
 62
     3
100
AcDbLine
 10
84.51
 20
59.555
 30
0.0
 11
84.51
 21
61.305
 31
0.0
  0
LINE
  5
4AA
330
1E
100
AcDbEntity
  8
0
  6
Continuous
 62
     3
100
AcDbLine
 10
84.80999999999998
 20
61.18
 30
0.0
 11
84.80999999999998
 21
59.67999999999999
 31
0.0
  0
LINE
  5
4AB
330
1E
100
AcDbEntity
  8
0
  6
Continuous
 62
     3
100
AcDbLine
 10
85.11000000000001
 20
59.805
 30
0.0
 11
85.11000000000001
 21
61.055
 31
0.0
  0
LINE
  5
4AC
330
1E
100
AcDbEntity
  8
0
  6
Continuous
 62
     3
100
AcDbLine
 10
85.41
 20
60.92999999999999
 30
0.0
 11
85.41
 21
59.93
 31
0.0
  0
LINE
  5
4AD
330
1E
100
AcDbEntity
  8
0
  6
Continuous
 62
     3
100
AcDbLine
 10
85.70999999999996
 20
60.055
 30
0.0
 11
85.70999999999996
 21
60.805
 31
0.0
  0
LINE
  5
4AE
330
1E
100
AcDbEntity
  8
0
  6
Continuous
 62
     3
100
AcDbLine
 10
86.01
 20
60.68
 30
0.0
 11
86.01
 21
60.18
 31
0.0
  0
LINE
  5
4AF
330
1E
100
AcDbEntity
  8
0
  6
Continuous
 62
     3
100
AcDbLine
 10
86.31
 20
60.30499999999999
 30
0.0
 11
86.31
 21
60.555
 31
0.0
  0
LINE
  5
4B0
330
1E
100
AcDbEntity
  8
0
  6
Continuous
 62
     3
100
AcDbLine
 10
93.31000000000001
 20
58.68
 30
0.0
 11
94.80999999999999
 21
62.28
 31
0.0
  0
LINE
  5
4B1
330
1E
100
AcDbEntity
  8
0
  6
Continuous
 62
     3
100
AcDbLine
 10
94.80999999999999
 20
62.28
 30
0.0
 11
96.31
 21
58.68
 31
0.0
  0
LINE
  5
4B2
330
1E
100
AcDbEntity
  8
0
  6
Continuous
 62
     3
100
AcDbLine
 10
96.31
 20
58.68
 30
0.0
 11
93.31000000000001
 21
58.68
 31
0.0
  0
LINE
  5
4B3
330
1E
100
AcDbEntity
  8
0
  6
Continuous
 62
     3
100
AcDbLine
 10
94.935
 20
61.98
 30
0.0
 11
94.685
 21
61.98
 31
0.0
  0
LINE
  5
4B4
330
1E
100
AcDbEntity
  8
0
  6
Continuous
 62
     3
100
AcDbLine
 10
94.56000000000001
 20
61.68
 30
0.0
 11
95.06
 21
61.68
 31
0.0
  0
LINE
  5
4B5
330
1E
100
AcDbEntity
  8
0
  6
Continuous
 62
     3
100
AcDbLine
 10
95.18500000000001
 20
61.38
 30
0.0
 11
94.435
 21
61.38
 31
0.0
  0
LINE
  5
4B6
330
1E
100
AcDbEntity
  8
0
  6
Continuous
 62
     3
100
AcDbLine
 10
94.31
 20
61.08
 30
0.0
 11
95.31
 21
61.08
 31
0.0
  0
LINE
  5
4B7
330
1E
100
AcDbEntity
  8
0
  6
Continuous
 62
     3
100
AcDbLine
 10
95.43499999999999
 20
60.78
 30
0.0
 11
94.18499999999999
 21
60.78
 31
0.0
  0
LINE
  5
4B8
330
1E
100
AcDbEntity
  8
0
  6
Continuous
 62
     3
100
AcDbLine
 10
94.06
 20
60.48
 30
0.0
 11
95.56
 21
60.48
 31
0.0
  0
LINE
  5
4B9
330
1E
100
AcDbEntity
  8
0
  6
Continuous
 62
     3
100
AcDbLine
 10
95.685
 20
60.18
 30
0.0
 11
93.93500000000001
 21
60.18
 31
0.0
  0
LINE
  5
4BA
330
1E
100
AcDbEntity
  8
0
  6
Continuous
 62
     3
100
AcDbLine
 10
93.81
 20
59.88
 30
0.0
 11
95.81000000000001
 21
59.88
 31
0.0
  0
LINE
  5
4BB
330
1E
100
AcDbEntity
  8
0
  6
Continuous
 62
     3
100
AcDbLine
 10
95.935
 20
59.58
 30
0.0
 11
93.685
 21
59.58
 31
0.0
  0
LINE
  5
4BC
330
1E
100
AcDbEntity
  8
0
  6
Continuous
 62
     3
100
AcDbLine
 10
93.55999999999999
 20
59.28
 30
0.0
 11
96.06000000000001
 21
59.28
 31
0.0
  0
LINE
  5
4BD
330
1E
100
AcDbEntity
  8
0
  6
Continuous
 62
     3
100
AcDbLine
 10
96.185
 20
58.97999999999999
 30
0.0
 11
93.435
 21
58.97999999999999
 31
0.0
  0
LINE
  5
4BE
330
1E
100
AcDbEntity
  8
0
  6
Continuous
 62
     3
100
AcDbLine
 10
93.31000000000001
 20
58.68
 30
0.0
 11
96.31
 21
58.68
 31
0.0
  0
LINE
  5
4BF
330
1E
100
AcDbEntity
  8
0
  6
Continuous
 62
     3
100
AcDbLine
 10
93.61
 20
59.4
 30
0.0
 11
93.61
 21
58.68
 31
0.0
  0
LINE
  5
4C0
330
1E
100
AcDbEntity
  8
0
  6
Continuous
 62
     3
100
AcDbLine
 10
93.91
 20
58.68
 30
0.0
 11
93.91
 21
60.12
 31
0.0
  0
LINE
  5
4C1
330
1E
100
AcDbEntity
  8
0
  6
Continuous
 62
     3
100
AcDbLine
 10
94.20999999999999
 20
60.84
 30
0.0
 11
94.20999999999999
 21
58.68
 31
0.0
  0
LINE
  5
4C2
330
1E
100
AcDbEntity
  8
0
  6
Continuous
 62
     3
100
AcDbLine
 10
94.51
 20
58.68
 30
0.0
 11
94.51
 21
61.56
 31
0.0
  0
LINE
  5
4C3
330
1E
100
AcDbEntity
  8
0
  6
Continuous
 62
     3
100
AcDbLine
 10
94.80999999999999
 20
62.28
 30
0.0
 11
94.80999999999999
 21
58.68
 31
0.0
  0
LINE
  5
4C4
330
1E
100
AcDbEntity
  8
0
  6
Continuous
 62
     3
100
AcDbLine
 10
95.11000000000001
 20
58.68
 30
0.0
 11
95.11000000000001
 21
61.56
 31
0.0
  0
LINE
  5
4C5
330
1E
100
AcDbEntity
  8
0
  6
Continuous
 62
     3
100
AcDbLine
 10
95.41
 20
60.84
 30
0.0
 11
95.41
 21
58.68
 31
0.0
  0
LINE
  5
4C6
330
1E
100
AcDbEntity
  8
0
  6
Continuous
 62
     3
100
AcDbLine
 10
95.70999999999999
 20
58.68
 30
0.0
 11
95.70999999999999
 21
60.12
 31
0.0
  0
LINE
  5
4C7
330
1E
100
AcDbEntity
  8
0
  6
Continuous
 62
     3
100
AcDbLine
 10
96.01
 20
59.4
 30
0.0
 11
96.01
 21
58.68
 31
0.0
  0
TEXT
  5
4C9
330
1E
100
AcDbEntity
  8
0
  6
Continuous
 62
     3
100
AcDbText
 10
84.775
 20
92.15000000000001
 30
0.0
 40
2.0
  1
ＧＯ
 41
0.9
  7
KANJI0
100
AcDbText
  0
TEXT
  5
4CA
330
1E
100
AcDbEntity
  8
0
  6
Continuous
 62
     3
100
AcDbText
 10
70.02500000000001
 20
92.15000000000001
 30
0.0
 40
2.0
  1
ＨＩ
 41
0.9
  7
KANJI0
100
AcDbText
  0
TEXT
  5
4CB
330
1E
100
AcDbEntity
  8
0
  6
Continuous
 62
     3
100
AcDbText
 10
100.025
 20
92.15000000000001
 30
0.0
 40
2.0
  1
ＬＯ
 41
0.9
  7
KANJI0
100
AcDbText
  0
TEXT
  5
4CC
330
1E
100
AcDbEntity
  8
0
  6
Continuous
 62
     3
100
AcDbText
 10
124.575
 20
60.65
 30
0.0
 40
2.0
  1
ＭＥ
 41
0.9
  7
KANJI0
100
AcDbText
  0
TEXT
  5
4CD
330
1E
100
AcDbEntity
  8
0
  6
Continuous
 62
     3
100
AcDbText
 10
131.0749999999994
 20
60.65
 30
0.0
 40
2.0
  1
ＰＨ
 41
0.9
  7
KANJI0
100
AcDbText
  0
TEXT
  5
4CE
330
1E
100
AcDbEntity
  8
0
  6
Continuous
 62
     3
100
AcDbText
 10
124.575
 20
54.64999999999999
 30
0.0
 40
2.0
  1
ＤＺ
 41
0.9
  7
KANJI0
100
AcDbText
  0
TEXT
  5
4CF
330
1E
100
AcDbEntity
  8
0
  6
Continuous
 62
     3
100
AcDbText
 10
63.2025
 20
58.49499999999999
 30
0.0
 40
3.9
  1
Ｅ
 41
0.88
  7
KANJI1
100
AcDbText
  0
TEXT
  5
4D0
330
1E
100
AcDbEntity
  8
0
  6
Continuous
 62
     3
100
AcDbText
 10
73.1275
 20
58.49499999999999
 30
0.0
 40
3.9
  1
Ｍ
 41
0.88
  7
KANJI1
100
AcDbText
  0
TEXT
  5
4D1
330
1E
100
AcDbEntity
  8
0
  6
Continuous
 62
     3
100
AcDbText
 10
102.9875
 20
58.547
 30
0.0
 40
3.9
  1
Ｓ
 41
0.9
  7
KANJI2
100
AcDbText
  0
TEXT
  5
4D2
330
1E
100
AcDbEntity
  8
0
  6
Continuous
 62
     3
100
AcDbText
 10
126.605
 20
66.34999999999999
 30
0.0
 40
2.0
  1
ＬＯ　ＳＥＴ
 41
0.9
  7
KANJI0
100
AcDbText
  0
TEXT
  5
4D3
330
1E
100
AcDbEntity
  8
0
  6
Continuous
 62
     3
100
AcDbText
 10
123.025
 20
92.15000000000001
 30
0.0
 40
2.0
  1
ＨＩ　ＳＥＴ
 41
0.9
  7
KANJI0
100
AcDbText
  0
ARC
  5
4D4
330
1E
100
AcDbEntity
  8
0
  6
Continuous
 62
     3
100
AcDbCircle
 10
196.8249999999999
 20
265.5249999999999
 30
0.0
 40
1.0
100
AcDbArc
 50
0.0
 51
90.0
  0
LINE
  5
4D5
330
1E
100
AcDbEntity
  8
0
  6
Continuous
 62
     3
100
AcDbLine
 10
196.8249999999999
 20
266.5249999999999
 30
0.0
 11
190.8249999999999
 21
266.5249999999999
 31
0.0
  0
ARC
  5
4D6
330
1E
100
AcDbEntity
  8
0
  6
Continuous
 62
     3
100
AcDbCircle
 10
190.8249999999999
 20
265.5249999999999
 30
0.0
 40
1.0
100
AcDbArc
 50
90.0
 51
180.0
  0
LINE
  5
4D7
330
1E
100
AcDbEntity
  8
0
  6
Continuous
 62
     3
100
AcDbLine
 10
187.6249999999999
 20
260.625
 30
0.0
 11
187.6249999999999
 21
259.425
 31
0.0
  0
LINE
  5
4D8
330
1E
100
AcDbEntity
  8
0
  6
Continuous
 62
     3
100
AcDbLine
 10
187.6249999999999
 20
259.425
 30
0.0
 11
200.025
 21
259.425
 31
0.0
  0
LINE
  5
4D9
330
1E
100
AcDbEntity
  8
0
  6
Continuous
 62
     3
100
AcDbLine
 10
200.025
 20
259.425
 30
0.0
 11
200.025
 21
260.625
 31
0.0
  0
LINE
  5
4DA
330
1E
100
AcDbEntity
  8
0
  6
Continuous
 62
     3
100
AcDbLine
 10
200.025
 20
260.625
 30
0.0
 11
187.6249999999999
 21
260.625
 31
0.0
  0
LINE
  5
4DB
330
1E
100
AcDbEntity
  8
0
  6
Continuous
 62
     3
100
AcDbLine
 10
189.8249999999999
 20
265.5249999999999
 30
0.0
 11
189.8249999999999
 21
260.625
 31
0.0
  0
LINE
  5
4DC
330
1E
100
AcDbEntity
  8
0
  6
Continuous
 62
     3
100
AcDbLine
 10
197.8249999999999
 20
260.625
 30
0.0
 11
197.8249999999999
 21
265.5249999999999
 31
0.0
  0
LINE
  5
4DD
330
1E
100
AcDbEntity
  8
0
  6
Continuous
 62
     3
100
AcDbLine
 10
199.725
 20
259.3249999999999
 30
0.0
 11
199.725
 21
257.725
 31
0.0
  0
LINE
  5
4DE
330
1E
100
AcDbEntity
  8
0
  6
Continuous
 62
     3
100
AcDbLine
 10
189.925
 20
244.425
 30
0.0
 11
188.3249999999999
 21
244.425
 31
0.0
  0
LINE
  5
4DF
330
1E
100
AcDbEntity
  8
0
  6
Continuous
 62
     3
100
AcDbLine
 10
190.8749999999999
 20
257.725
 30
0.0
 11
190.8749999999999
 21
242.9749999999999
 31
0.0
  0
LINE
  5
4E0
330
1E
100
AcDbEntity
  8
0
  6
Continuous
 62
     3
100
AcDbLine
 10
193.625
 20
242.9749999999999
 30
0.0
 11
193.625
 21
257.725
 31
0.0
  0
LINE
  5
4E1
330
1E
100
AcDbEntity
  8
0
  6
Continuous
 62
     3
100
AcDbLine
 10
196.375
 20
257.725
 30
0.0
 11
196.375
 21
242.9749999999999
 31
0.0
  0
LINE
  5
4E2
330
1E
100
AcDbEntity
  8
0
  6
Continuous
 62
     3
100
AcDbLine
 10
188.3249999999999
 20
244.425
 30
0.0
 11
188.3249999999999
 21
257.825
 31
0.0
  0
LINE
  5
4E3
330
1E
100
AcDbEntity
  8
0
  6
Continuous
 62
     3
100
AcDbLine
 10
189.8249999999999
 20
259.3249999999999
 30
0.0
 11
199.725
 21
259.3249999999999
 31
0.0
  0
ARC
  5
4E4
330
1E
100
AcDbEntity
  8
0
  6
Continuous
 62
     3
100
AcDbCircle
 10
189.8249999999999
 20
257.825
 30
0.0
 40
1.5
100
AcDbArc
 50
90.0
 51
180.0
  0
LINE
  5
4E5
330
1E
100
AcDbEntity
  8
0
  6
Continuous
 62
     3
100
AcDbLine
 10
199.725
 20
257.725
 30
0.0
 11
190.425
 21
257.725
 31
0.0
  0
LINE
  5
4E6
330
1E
100
AcDbEntity
  8
0
  6
Continuous
 62
     3
100
AcDbLine
 10
189.925
 20
257.225
 30
0.0
 11
189.925
 21
244.425
 31
0.0
  0
ARC
  5
4E7
330
1E
100
AcDbEntity
  8
0
  6
Continuous
 62
     3
100
AcDbCircle
 10
190.425
 20
257.225
 30
0.0
 40
0.5
100
AcDbArc
 50
90.0
 51
180.0
  0
TEXT
  5
4E9
330
1E
100
AcDbEntity
  8
0
  6
Continuous
 62
     3
100
AcDbText
 10
253.9124999999999
 20
251.5344999999999
 30
0.10374
 40
3.12
  1
ＰＡＮＥＬ　ＣＵＴ
 41
0.75
  7
KANJI3
100
AcDbText
  0
LINE
  5
4EA
330
1E
100
AcDbEntity
  8
0
  6
Continuous
 62
     3
100
AcDbLine
 10
186.0999999999999
 20
248.395
 30
0.10374
 11
186.0999999999999
 21
241.495
 31
0.10374
  0
LINE
  5
4EB
330
1E
100
AcDbEntity
  8
0
  6
Continuous
 62
     3
100
AcDbLine
 10
186.0
 20
252.9949999999999
 30
0.0
 11
178.9
 21
252.9949999999999
 31
0.0
  0
LINE
  5
4EC
330
1E
100
AcDbEntity
  8
0
  6
Continuous
 62
     3
100
AcDbLine
 10
178.9
 20
252.9949999999999
 30
0.0
 11
175.5
 21
248.395
 31
0.0
  0
LINE
  5
4ED
330
1E
100
AcDbEntity
  8
0
  6
Continuous
 62
     3
100
AcDbLine
 10
175.5
 20
241.6949999999999
 30
0.0
 11
175.5
 21
248.395
 31
0.0
  0
LINE
  5
4EE
330
1E
100
AcDbEntity
  8
0
  6
Continuous
 62
     3
100
AcDbLine
 10
186.0999999999999
 20
248.395
 30
0.0
 11
186.0
 21
252.9949999999999
 31
0.0
  0
LINE
  5
4EF
330
1E
100
AcDbEntity
  8
0
  6
Continuous
 62
     3
100
AcDbLine
 10
65.175
 20
252.9949999999999
 30
0.0
 11
136.175
 21
252.9949999999999
 31
0.0
  0
LINE
  5
4F0
330
1E
100
AcDbEntity
  8
0
  6
Continuous
 62
     3
100
AcDbLine
 10
136.175
 20
252.9949999999999
 30
0.0
 11
136.175
 21
241.3959415459999
 31
0.0
  0
LINE
  5
4F1
330
1E
100
AcDbEntity
  8
0
  6
Continuous
 62
     3
100
AcDbLine
 10
65.175
 20
252.9949999999999
 30
0.0
 11
65.175
 21
241.3959415459999
 31
0.0
  0
LINE
  5
4F2
330
1E
100
AcDbEntity
  8
0
  6
Continuous
 62
     3
100
AcDbLine
 10
65.175
 20
248.395
 30
0.0
 11
136.175
 21
248.395
 31
0.0
  0
LINE
  5
4F3
330
1E
100
AcDbEntity
  8
0
  6
Continuous
 62
     3
100
AcDbLine
 10
70.47499999999998
 20
247.395
 30
0.0
 11
65.875
 21
247.395
 31
0.0
  0
LINE
  5
4F4
330
1E
100
AcDbEntity
  8
0
  6
Continuous
 62
     3
100
AcDbLine
 10
68.97499999999999
 20
242.75
 30
0.0
 11
67.375
 21
242.75
 31
0.0
  0
LINE
  5
4F5
330
1E
100
AcDbEntity
  8
0
  6
Continuous
 62
     3
100
AcDbLine
 10
67.375
 20
242.75
 30
0.0
 11
67.375
 21
241.4
 31
0.0
  0
LINE
  5
4F6
330
1E
100
AcDbEntity
  8
0
  6
Continuous
 62
     3
100
AcDbLine
 10
68.97499999999999
 20
241.4
 30
0.0
 11
68.97499999999999
 21
242.75
 31
0.0
  0
LINE
  5
4F7
330
1E
100
AcDbEntity
  8
0
  6
Continuous
 62
     3
100
AcDbLine
 10
66.77500000000001
 20
247.2949999999999
 30
0.0
 11
66.77500000000001
 21
242.695
 31
0.0
  0
LINE
  5
4F8
330
1E
100
AcDbEntity
  8
0
  6
Continuous
 62
     3
100
AcDbLine
 10
69.575
 20
247.2949999999999
 30
0.0
 11
69.575
 21
242.695
 31
0.0
  0
LINE
  5
4F9
330
1E
100
AcDbEntity
  8
0
  6
Continuous
 62
     3
100
AcDbLine
 10
66.47499999999999
 20
247.2949999999999
 30
0.0
 11
70.375
 21
247.2949999999999
 31
0.0
  0
ARC
  5
4FA
330
1E
100
AcDbEntity
  8
0
  6
Continuous
 62
     3
100
AcDbCircle
 10
66.47499999999999
 20
246.795
 30
0.0
 40
0.5
100
AcDbArc
 50
90.0
 51
180.0
  0
LINE
  5
4FB
330
1E
100
AcDbEntity
  8
0
  6
Continuous
 62
     3
100
AcDbLine
 10
65.975
 20
246.795
 30
0.0
 11
65.975
 21
242.6
 31
0.0
  0
ARC
  5
4FC
330
1E
100
AcDbEntity
  8
0
  6
Continuous
 62
     3
100
AcDbCircle
 10
66.47499999999999
 20
242.6
 30
0.0
 40
0.5
100
AcDbArc
 50
180.0
 51
270.0
  0
ARC
  5
4FD
330
1E
100
AcDbEntity
  8
0
  6
Continuous
 62
     3
100
AcDbCircle
 10
69.875
 20
242.6
 30
0.0
 40
0.5
100
AcDbArc
 50
270.0
 51
0.0
  0
LINE
  5
4FE
330
1E
100
AcDbEntity
  8
0
  6
Continuous
 62
     3
100
AcDbLine
 10
70.375
 20
246.1949999999999
 30
0.0
 11
70.375
 21
242.6
 31
0.0
  0
ARC
  5
4FF
330
1E
100
AcDbEntity
  8
0
  6
Continuous
 62
     3
100
AcDbCircle
 10
69.875
 20
246.1949999999999
 30
0.0
 40
0.5
100
AcDbArc
 50
0.0
 51
90.0
  0
LINE
  5
500
330
1E
100
AcDbEntity
  8
0
  6
Continuous
 62
     3
100
AcDbLine
 10
70.375
 20
246.695
 30
0.0
 11
69.575
 21
246.695
 31
0.0
  0
LINE
  5
501
330
1E
100
AcDbEntity
  8
0
  6
Continuous
 62
     3
100
AcDbLine
 10
70.375
 20
247.2949999999999
 30
0.0
 11
70.375
 21
246.695
 31
0.0
  0
LINE
  5
502
330
1E
100
AcDbEntity
  8
0
  6
Continuous
 62
     3
100
AcDbLine
 10
65.875
 20
242.0999999999999
 30
0.0
 11
67.375
 21
242.0999999999999
 31
0.0
  0
LINE
  5
503
330
1E
100
AcDbEntity
  8
0
  6
Continuous
 62
     3
100
AcDbLine
 10
66.875
 20
242.695
 30
0.0
 11
67.375
 21
242.695
 31
0.0
  0
ARC
  5
504
330
1E
100
AcDbEntity
  8
0
  6
Continuous
 62
     3
100
AcDbCircle
 10
66.875
 20
242.995
 30
0.0
 40
0.3
100
AcDbArc
 50
180.0
 51
270.0
  0
LINE
  5
505
330
1E
100
AcDbEntity
  8
0
  6
Continuous
 62
     3
100
AcDbLine
 10
69.47499999999999
 20
242.695
 30
0.0
 11
68.97499999999999
 21
242.695
 31
0.0
  0
ARC
  5
506
330
1E
100
AcDbEntity
  8
0
  6
Continuous
 62
     3
100
AcDbCircle
 10
69.47499999999999
 20
242.995
 30
0.0
 40
0.3
100
AcDbArc
 50
270.0
 51
0.0
  0
LINE
  5
507
330
1E
100
AcDbEntity
  8
0
  6
Continuous
 62
     3
100
AcDbLine
 10
66.575
 20
246.395
 30
0.0
 11
66.575
 21
242.995
 31
0.0
  0
LINE
  5
508
330
1E
100
AcDbEntity
  8
0
  6
Continuous
 62
     3
100
AcDbLine
 10
69.775
 20
242.995
 30
0.0
 11
69.775
 21
245.745
 31
0.0
  0
ARC
  5
509
330
1E
100
AcDbEntity
  8
0
  6
Continuous
 62
     3
100
AcDbCircle
 10
66.875
 20
246.395
 30
0.0
 40
0.3
100
AcDbArc
 50
111.8014094889999
 51
180.0
  0
ARC
  5
50A
330
1E
100
AcDbEntity
  8
0
  6
Continuous
 62
     3
100
AcDbCircle
 10
69.47499999999999
 20
245.745
 30
0.0
 40
0.3
100
AcDbArc
 50
0.0
 51
68.19859052099999
  0
LINE
  5
50B
330
1E
100
AcDbEntity
  8
0
  6
Continuous
 62
     3
100
AcDbLine
 10
68.97499999999999
 20
242.0999999999999
 30
0.0
 11
70.47499999999998
 21
242.0999999999999
 31
0.0
  0
LINE
  5
50C
330
1E
100
AcDbEntity
  8
0
  6
Continuous
 62
     3
100
AcDbLine
 10
65.875
 20
247.395
 30
0.0
 11
65.875
 21
242.0999999999999
 31
0.0
  0
LINE
  5
50D
330
1E
100
AcDbEntity
  8
0
  6
Continuous
 62
     3
100
AcDbLine
 10
70.47499999999998
 20
242.0999999999999
 30
0.0
 11
70.47499999999998
 21
247.395
 31
0.0
  0
LINE
  5
50E
330
1E
100
AcDbEntity
  8
0
  6
Continuous
 62
     3
100
AcDbLine
 10
75.47499999999998
 20
247.395
 30
0.0
 11
70.875
 21
247.395
 31
0.0
  0
LINE
  5
50F
330
1E
100
AcDbEntity
  8
0
  6
Continuous
 62
     3
100
AcDbLine
 10
73.97499999999998
 20
242.75
 30
0.0
 11
72.375
 21
242.75
 31
0.0
  0
LINE
  5
510
330
1E
100
AcDbEntity
  8
0
  6
Continuous
 62
     3
100
AcDbLine
 10
72.375
 20
242.75
 30
0.0
 11
72.375
 21
241.4
 31
0.0
  0
LINE
  5
511
330
1E
100
AcDbEntity
  8
0
  6
Continuous
 62
     3
100
AcDbLine
 10
73.97499999999998
 20
241.4
 30
0.0
 11
73.97499999999998
 21
242.75
 31
0.0
  0
LINE
  5
512
330
1E
100
AcDbEntity
  8
0
  6
Continuous
 62
     3
100
AcDbLine
 10
71.77500000000001
 20
247.2949999999999
 30
0.0
 11
71.77500000000001
 21
242.695
 31
0.0
  0
LINE
  5
513
330
1E
100
AcDbEntity
  8
0
  6
Continuous
 62
     3
100
AcDbLine
 10
74.575
 20
247.2949999999999
 30
0.0
 11
74.575
 21
242.695
 31
0.0
  0
LINE
  5
514
330
1E
100
AcDbEntity
  8
0
  6
Continuous
 62
     3
100
AcDbLine
 10
71.47499999999998
 20
247.2949999999999
 30
0.0
 11
75.375
 21
247.2949999999999
 31
0.0
  0
ARC
  5
515
330
1E
100
AcDbEntity
  8
0
  6
Continuous
 62
     3
100
AcDbCircle
 10
71.47499999999998
 20
246.795
 30
0.0
 40
0.5
100
AcDbArc
 50
90.0
 51
180.0
  0
LINE
  5
516
330
1E
100
AcDbEntity
  8
0
  6
Continuous
 62
     3
100
AcDbLine
 10
70.975
 20
246.795
 30
0.0
 11
70.975
 21
242.6
 31
0.0
  0
ARC
  5
517
330
1E
100
AcDbEntity
  8
0
  6
Continuous
 62
     3
100
AcDbCircle
 10
71.47499999999998
 20
242.6
 30
0.0
 40
0.5
100
AcDbArc
 50
180.0
 51
270.0
  0
ARC
  5
518
330
1E
100
AcDbEntity
  8
0
  6
Continuous
 62
     3
100
AcDbCircle
 10
74.875
 20
242.6
 30
0.0
 40
0.5
100
AcDbArc
 50
270.0
 51
0.0
  0
LINE
  5
519
330
1E
100
AcDbEntity
  8
0
  6
Continuous
 62
     3
100
AcDbLine
 10
75.375
 20
246.1949999999999
 30
0.0
 11
75.375
 21
242.6
 31
0.0
  0
ARC
  5
51A
330
1E
100
AcDbEntity
  8
0
  6
Continuous
 62
     3
100
AcDbCircle
 10
74.875
 20
246.1949999999999
 30
0.0
 40
0.5
100
AcDbArc
 50
0.0
 51
90.0
  0
LINE
  5
51B
330
1E
100
AcDbEntity
  8
0
  6
Continuous
 62
     3
100
AcDbLine
 10
75.375
 20
246.695
 30
0.0
 11
74.575
 21
246.695
 31
0.0
  0
LINE
  5
51C
330
1E
100
AcDbEntity
  8
0
  6
Continuous
 62
     3
100
AcDbLine
 10
75.375
 20
247.2949999999999
 30
0.0
 11
75.375
 21
246.695
 31
0.0
  0
LINE
  5
51D
330
1E
100
AcDbEntity
  8
0
  6
Continuous
 62
     3
100
AcDbLine
 10
70.875
 20
242.0999999999999
 30
0.0
 11
72.375
 21
242.0999999999999
 31
0.0
  0
LINE
  5
51E
330
1E
100
AcDbEntity
  8
0
  6
Continuous
 62
     3
100
AcDbLine
 10
71.875
 20
242.695
 30
0.0
 11
72.375
 21
242.695
 31
0.0
  0
ARC
  5
51F
330
1E
100
AcDbEntity
  8
0
  6
Continuous
 62
     3
100
AcDbCircle
 10
71.875
 20
242.995
 30
0.0
 40
0.3
100
AcDbArc
 50
180.0
 51
270.0
  0
LINE
  5
520
330
1E
100
AcDbEntity
  8
0
  6
Continuous
 62
     3
100
AcDbLine
 10
74.47499999999998
 20
242.695
 30
0.0
 11
73.97499999999998
 21
242.695
 31
0.0
  0
ARC
  5
521
330
1E
100
AcDbEntity
  8
0
  6
Continuous
 62
     3
100
AcDbCircle
 10
74.47499999999998
 20
242.995
 30
0.0
 40
0.3
100
AcDbArc
 50
270.0
 51
0.0
  0
LINE
  5
522
330
1E
100
AcDbEntity
  8
0
  6
Continuous
 62
     3
100
AcDbLine
 10
71.575
 20
246.395
 30
0.0
 11
71.575
 21
242.995
 31
0.0
  0
LINE
  5
523
330
1E
100
AcDbEntity
  8
0
  6
Continuous
 62
     3
100
AcDbLine
 10
74.775
 20
242.995
 30
0.0
 11
74.775
 21
245.745
 31
0.0
  0
ARC
  5
524
330
1E
100
AcDbEntity
  8
0
  6
Continuous
 62
     3
100
AcDbCircle
 10
71.875
 20
246.395
 30
0.0
 40
0.3
100
AcDbArc
 50
111.8014094889999
 51
180.0
  0
ARC
  5
525
330
1E
100
AcDbEntity
  8
0
  6
Continuous
 62
     3
100
AcDbCircle
 10
74.47499999999998
 20
245.745
 30
0.0
 40
0.3
100
AcDbArc
 50
0.0
 51
68.19859052099999
  0
LINE
  5
526
330
1E
100
AcDbEntity
  8
0
  6
Continuous
 62
     3
100
AcDbLine
 10
73.97499999999998
 20
242.0999999999999
 30
0.0
 11
75.47499999999998
 21
242.0999999999999
 31
0.0
  0
LINE
  5
527
330
1E
100
AcDbEntity
  8
0
  6
Continuous
 62
     3
100
AcDbLine
 10
70.875
 20
247.395
 30
0.0
 11
70.875
 21
242.0999999999999
 31
0.0
  0
LINE
  5
528
330
1E
100
AcDbEntity
  8
0
  6
Continuous
 62
     3
100
AcDbLine
 10
75.47499999999998
 20
242.0999999999999
 30
0.0
 11
75.47499999999998
 21
247.395
 31
0.0
  0
LINE
  5
529
330
1E
100
AcDbEntity
  8
0
  6
Continuous
 62
     3
100
AcDbLine
 10
80.47499999999997
 20
247.395
 30
0.0
 11
75.875
 21
247.395
 31
0.0
  0
LINE
  5
52A
330
1E
100
AcDbEntity
  8
0
  6
Continuous
 62
     3
100
AcDbLine
 10
78.97499999999998
 20
242.75
 30
0.0
 11
77.375
 21
242.75
 31
0.0
  0
LINE
  5
52B
330
1E
100
AcDbEntity
  8
0
  6
Continuous
 62
     3
100
AcDbLine
 10
77.375
 20
242.75
 30
0.0
 11
77.375
 21
241.4
 31
0.0
  0
LINE
  5
52C
330
1E
100
AcDbEntity
  8
0
  6
Continuous
 62
     3
100
AcDbLine
 10
78.97499999999998
 20
241.4
 30
0.0
 11
78.97499999999998
 21
242.75
 31
0.0
  0
LINE
  5
52D
330
1E
100
AcDbEntity
  8
0
  6
Continuous
 62
     3
100
AcDbLine
 10
76.77500000000001
 20
247.2949999999999
 30
0.0
 11
76.77500000000001
 21
242.695
 31
0.0
  0
LINE
  5
52E
330
1E
100
AcDbEntity
  8
0
  6
Continuous
 62
     3
100
AcDbLine
 10
79.575
 20
247.2949999999999
 30
0.0
 11
79.575
 21
242.695
 31
0.0
  0
LINE
  5
52F
330
1E
100
AcDbEntity
  8
0
  6
Continuous
 62
     3
100
AcDbLine
 10
76.47499999999998
 20
247.2949999999999
 30
0.0
 11
80.37499999999999
 21
247.2949999999999
 31
0.0
  0
ARC
  5
530
330
1E
100
AcDbEntity
  8
0
  6
Continuous
 62
     3
100
AcDbCircle
 10
76.47499999999998
 20
246.795
 30
0.0
 40
0.5
100
AcDbArc
 50
90.0
 51
180.0
  0
LINE
  5
531
330
1E
100
AcDbEntity
  8
0
  6
Continuous
 62
     3
100
AcDbLine
 10
75.975
 20
246.795
 30
0.0
 11
75.975
 21
242.6
 31
0.0
  0
ARC
  5
532
330
1E
100
AcDbEntity
  8
0
  6
Continuous
 62
     3
100
AcDbCircle
 10
76.47499999999998
 20
242.6
 30
0.0
 40
0.5
100
AcDbArc
 50
180.0
 51
270.0
  0
ARC
  5
533
330
1E
100
AcDbEntity
  8
0
  6
Continuous
 62
     3
100
AcDbCircle
 10
79.875
 20
242.6
 30
0.0
 40
0.5
100
AcDbArc
 50
270.0
 51
0.0
  0
LINE
  5
534
330
1E
100
AcDbEntity
  8
0
  6
Continuous
 62
     3
100
AcDbLine
 10
80.37499999999999
 20
246.1949999999999
 30
0.0
 11
80.37499999999999
 21
242.6
 31
0.0
  0
ARC
  5
535
330
1E
100
AcDbEntity
  8
0
  6
Continuous
 62
     3
100
AcDbCircle
 10
79.875
 20
246.1949999999999
 30
0.0
 40
0.5
100
AcDbArc
 50
0.0
 51
90.0
  0
LINE
  5
536
330
1E
100
AcDbEntity
  8
0
  6
Continuous
 62
     3
100
AcDbLine
 10
80.37499999999999
 20
246.695
 30
0.0
 11
79.575
 21
246.695
 31
0.0
  0
LINE
  5
537
330
1E
100
AcDbEntity
  8
0
  6
Continuous
 62
     3
100
AcDbLine
 10
80.37499999999999
 20
247.2949999999999
 30
0.0
 11
80.37499999999999
 21
246.695
 31
0.0
  0
LINE
  5
538
330
1E
100
AcDbEntity
  8
0
  6
Continuous
 62
     3
100
AcDbLine
 10
75.875
 20
242.0999999999999
 30
0.0
 11
77.375
 21
242.0999999999999
 31
0.0
  0
LINE
  5
539
330
1E
100
AcDbEntity
  8
0
  6
Continuous
 62
     3
100
AcDbLine
 10
76.875
 20
242.695
 30
0.0
 11
77.375
 21
242.695
 31
0.0
  0
ARC
  5
53A
330
1E
100
AcDbEntity
  8
0
  6
Continuous
 62
     3
100
AcDbCircle
 10
76.875
 20
242.995
 30
0.0
 40
0.3
100
AcDbArc
 50
180.0
 51
270.0
  0
LINE
  5
53B
330
1E
100
AcDbEntity
  8
0
  6
Continuous
 62
     3
100
AcDbLine
 10
79.47499999999998
 20
242.695
 30
0.0
 11
78.97499999999998
 21
242.695
 31
0.0
  0
ARC
  5
53C
330
1E
100
AcDbEntity
  8
0
  6
Continuous
 62
     3
100
AcDbCircle
 10
79.47499999999998
 20
242.995
 30
0.0
 40
0.3
100
AcDbArc
 50
270.0
 51
0.0
  0
LINE
  5
53D
330
1E
100
AcDbEntity
  8
0
  6
Continuous
 62
     3
100
AcDbLine
 10
76.575
 20
246.395
 30
0.0
 11
76.575
 21
242.995
 31
0.0
  0
LINE
  5
53E
330
1E
100
AcDbEntity
  8
0
  6
Continuous
 62
     3
100
AcDbLine
 10
79.775
 20
242.995
 30
0.0
 11
79.775
 21
245.745
 31
0.0
  0
ARC
  5
53F
330
1E
100
AcDbEntity
  8
0
  6
Continuous
 62
     3
100
AcDbCircle
 10
76.875
 20
246.395
 30
0.0
 40
0.3
100
AcDbArc
 50
111.8014094889999
 51
180.0
  0
ARC
  5
540
330
1E
100
AcDbEntity
  8
0
  6
Continuous
 62
     3
100
AcDbCircle
 10
79.47499999999998
 20
245.745
 30
0.0
 40
0.3
100
AcDbArc
 50
0.0
 51
68.19859052099999
  0
LINE
  5
541
330
1E
100
AcDbEntity
  8
0
  6
Continuous
 62
     3
100
AcDbLine
 10
78.97499999999998
 20
242.0999999999999
 30
0.0
 11
80.47499999999997
 21
242.0999999999999
 31
0.0
  0
LINE
  5
542
330
1E
100
AcDbEntity
  8
0
  6
Continuous
 62
     3
100
AcDbLine
 10
75.875
 20
247.395
 30
0.0
 11
75.875
 21
242.0999999999999
 31
0.0
  0
LINE
  5
543
330
1E
100
AcDbEntity
  8
0
  6
Continuous
 62
     3
100
AcDbLine
 10
80.47499999999997
 20
242.0999999999999
 30
0.0
 11
80.47499999999997
 21
247.395
 31
0.0
  0
LINE
  5
544
330
1E
100
AcDbEntity
  8
0
  6
Continuous
 62
     3
100
AcDbLine
 10
85.47499999999997
 20
247.395
 30
0.0
 11
80.875
 21
247.395
 31
0.0
  0
LINE
  5
545
330
1E
100
AcDbEntity
  8
0
  6
Continuous
 62
     3
100
AcDbLine
 10
83.97499999999999
 20
242.75
 30
0.0
 11
82.375
 21
242.75
 31
0.0
  0
LINE
  5
546
330
1E
100
AcDbEntity
  8
0
  6
Continuous
 62
     3
100
AcDbLine
 10
82.375
 20
242.75
 30
0.0
 11
82.375
 21
241.4
 31
0.0
  0
LINE
  5
547
330
1E
100
AcDbEntity
  8
0
  6
Continuous
 62
     3
100
AcDbLine
 10
83.97499999999999
 20
241.4
 30
0.0
 11
83.97499999999999
 21
242.75
 31
0.0
  0
LINE
  5
548
330
1E
100
AcDbEntity
  8
0
  6
Continuous
 62
     3
100
AcDbLine
 10
81.775
 20
247.2949999999999
 30
0.0
 11
81.775
 21
242.695
 31
0.0
  0
LINE
  5
549
330
1E
100
AcDbEntity
  8
0
  6
Continuous
 62
     3
100
AcDbLine
 10
84.57500000000001
 20
247.2949999999999
 30
0.0
 11
84.57500000000001
 21
242.695
 31
0.0
  0
LINE
  5
54A
330
1E
100
AcDbEntity
  8
0
  6
Continuous
 62
     3
100
AcDbLine
 10
81.47499999999999
 20
247.2949999999999
 30
0.0
 11
85.37499999999999
 21
247.2949999999999
 31
0.0
  0
ARC
  5
54B
330
1E
100
AcDbEntity
  8
0
  6
Continuous
 62
     3
100
AcDbCircle
 10
81.47499999999999
 20
246.795
 30
0.0
 40
0.5
100
AcDbArc
 50
90.0
 51
180.0
  0
LINE
  5
54C
330
1E
100
AcDbEntity
  8
0
  6
Continuous
 62
     3
100
AcDbLine
 10
80.975
 20
246.795
 30
0.0
 11
80.975
 21
242.6
 31
0.0
  0
ARC
  5
54D
330
1E
100
AcDbEntity
  8
0
  6
Continuous
 62
     3
100
AcDbCircle
 10
81.47499999999999
 20
242.6
 30
0.0
 40
0.5
100
AcDbArc
 50
180.0
 51
270.0
  0
ARC
  5
54E
330
1E
100
AcDbEntity
  8
0
  6
Continuous
 62
     3
100
AcDbCircle
 10
84.875
 20
242.6
 30
0.0
 40
0.5
100
AcDbArc
 50
270.0
 51
0.0
  0
LINE
  5
54F
330
1E
100
AcDbEntity
  8
0
  6
Continuous
 62
     3
100
AcDbLine
 10
85.37499999999999
 20
246.1949999999999
 30
0.0
 11
85.37499999999999
 21
242.6
 31
0.0
  0
ARC
  5
550
330
1E
100
AcDbEntity
  8
0
  6
Continuous
 62
     3
100
AcDbCircle
 10
84.875
 20
246.1949999999999
 30
0.0
 40
0.5
100
AcDbArc
 50
0.0
 51
90.0
  0
LINE
  5
551
330
1E
100
AcDbEntity
  8
0
  6
Continuous
 62
     3
100
AcDbLine
 10
85.37499999999999
 20
246.695
 30
0.0
 11
84.57500000000001
 21
246.695
 31
0.0
  0
LINE
  5
552
330
1E
100
AcDbEntity
  8
0
  6
Continuous
 62
     3
100
AcDbLine
 10
85.37499999999999
 20
247.2949999999999
 30
0.0
 11
85.37499999999999
 21
246.695
 31
0.0
  0
LINE
  5
553
330
1E
100
AcDbEntity
  8
0
  6
Continuous
 62
     3
100
AcDbLine
 10
80.875
 20
242.0999999999999
 30
0.0
 11
82.375
 21
242.0999999999999
 31
0.0
  0
LINE
  5
554
330
1E
100
AcDbEntity
  8
0
  6
Continuous
 62
     3
100
AcDbLine
 10
81.875
 20
242.695
 30
0.0
 11
82.375
 21
242.695
 31
0.0
  0
ARC
  5
555
330
1E
100
AcDbEntity
  8
0
  6
Continuous
 62
     3
100
AcDbCircle
 10
81.875
 20
242.995
 30
0.0
 40
0.3
100
AcDbArc
 50
180.0
 51
270.0
  0
LINE
  5
556
330
1E
100
AcDbEntity
  8
0
  6
Continuous
 62
     3
100
AcDbLine
 10
84.47499999999998
 20
242.695
 30
0.0
 11
83.97499999999999
 21
242.695
 31
0.0
  0
ARC
  5
557
330
1E
100
AcDbEntity
  8
0
  6
Continuous
 62
     3
100
AcDbCircle
 10
84.47499999999998
 20
242.995
 30
0.0
 40
0.3
100
AcDbArc
 50
270.0
 51
0.0
  0
LINE
  5
558
330
1E
100
AcDbEntity
  8
0
  6
Continuous
 62
     3
100
AcDbLine
 10
81.575
 20
246.395
 30
0.0
 11
81.575
 21
242.995
 31
0.0
  0
LINE
  5
559
330
1E
100
AcDbEntity
  8
0
  6
Continuous
 62
     3
100
AcDbLine
 10
84.775
 20
242.995
 30
0.0
 11
84.775
 21
245.745
 31
0.0
  0
ARC
  5
55A
330
1E
100
AcDbEntity
  8
0
  6
Continuous
 62
     3
100
AcDbCircle
 10
81.875
 20
246.395
 30
0.0
 40
0.3
100
AcDbArc
 50
111.8014094889999
 51
180.0
  0
ARC
  5
55B
330
1E
100
AcDbEntity
  8
0
  6
Continuous
 62
     3
100
AcDbCircle
 10
84.47499999999998
 20
245.745
 30
0.0
 40
0.3
100
AcDbArc
 50
0.0
 51
68.19859052099999
  0
LINE
  5
55C
330
1E
100
AcDbEntity
  8
0
  6
Continuous
 62
     3
100
AcDbLine
 10
83.97499999999999
 20
242.0999999999999
 30
0.0
 11
85.47499999999997
 21
242.0999999999999
 31
0.0
  0
LINE
  5
55D
330
1E
100
AcDbEntity
  8
0
  6
Continuous
 62
     3
100
AcDbLine
 10
80.875
 20
247.395
 30
0.0
 11
80.875
 21
242.0999999999999
 31
0.0
  0
LINE
  5
55E
330
1E
100
AcDbEntity
  8
0
  6
Continuous
 62
     3
100
AcDbLine
 10
85.47499999999997
 20
242.0999999999999
 30
0.0
 11
85.47499999999997
 21
247.395
 31
0.0
  0
LINE
  5
55F
330
1E
100
AcDbEntity
  8
0
  6
Continuous
 62
     3
100
AcDbLine
 10
90.47499999999999
 20
247.395
 30
0.0
 11
85.875
 21
247.395
 31
0.0
  0
LINE
  5
560
330
1E
100
AcDbEntity
  8
0
  6
Continuous
 62
     3
100
AcDbLine
 10
88.97499999999999
 20
242.75
 30
0.0
 11
87.375
 21
242.75
 31
0.0
  0
LINE
  5
561
330
1E
100
AcDbEntity
  8
0
  6
Continuous
 62
     3
100
AcDbLine
 10
87.375
 20
242.75
 30
0.0
 11
87.375
 21
241.4
 31
0.0
  0
LINE
  5
562
330
1E
100
AcDbEntity
  8
0
  6
Continuous
 62
     3
100
AcDbLine
 10
88.97499999999999
 20
241.4
 30
0.0
 11
88.97499999999999
 21
242.75
 31
0.0
  0
LINE
  5
563
330
1E
100
AcDbEntity
  8
0
  6
Continuous
 62
     3
100
AcDbLine
 10
86.775
 20
247.2949999999999
 30
0.0
 11
86.775
 21
242.695
 31
0.0
  0
LINE
  5
564
330
1E
100
AcDbEntity
  8
0
  6
Continuous
 62
     3
100
AcDbLine
 10
89.57500000000001
 20
247.2949999999999
 30
0.0
 11
89.57500000000001
 21
242.695
 31
0.0
  0
LINE
  5
565
330
1E
100
AcDbEntity
  8
0
  6
Continuous
 62
     3
100
AcDbLine
 10
86.47499999999999
 20
247.2949999999999
 30
0.0
 11
90.37499999999999
 21
247.2949999999999
 31
0.0
  0
ARC
  5
566
330
1E
100
AcDbEntity
  8
0
  6
Continuous
 62
     3
100
AcDbCircle
 10
86.47499999999999
 20
246.795
 30
0.0
 40
0.5
100
AcDbArc
 50
90.0
 51
180.0
  0
LINE
  5
567
330
1E
100
AcDbEntity
  8
0
  6
Continuous
 62
     3
100
AcDbLine
 10
85.975
 20
246.795
 30
0.0
 11
85.975
 21
242.6
 31
0.0
  0
ARC
  5
568
330
1E
100
AcDbEntity
  8
0
  6
Continuous
 62
     3
100
AcDbCircle
 10
86.47499999999999
 20
242.6
 30
0.0
 40
0.5
100
AcDbArc
 50
180.0
 51
270.0
  0
ARC
  5
569
330
1E
100
AcDbEntity
  8
0
  6
Continuous
 62
     3
100
AcDbCircle
 10
89.875
 20
242.6
 30
0.0
 40
0.5
100
AcDbArc
 50
270.0
 51
0.0
  0
LINE
  5
56A
330
1E
100
AcDbEntity
  8
0
  6
Continuous
 62
     3
100
AcDbLine
 10
90.37499999999999
 20
246.1949999999999
 30
0.0
 11
90.37499999999999
 21
242.6
 31
0.0
  0
ARC
  5
56B
330
1E
100
AcDbEntity
  8
0
  6
Continuous
 62
     3
100
AcDbCircle
 10
89.875
 20
246.1949999999999
 30
0.0
 40
0.5
100
AcDbArc
 50
0.0
 51
90.0
  0
LINE
  5
56C
330
1E
100
AcDbEntity
  8
0
  6
Continuous
 62
     3
100
AcDbLine
 10
90.37499999999999
 20
246.695
 30
0.0
 11
89.57500000000001
 21
246.695
 31
0.0
  0
LINE
  5
56D
330
1E
100
AcDbEntity
  8
0
  6
Continuous
 62
     3
100
AcDbLine
 10
90.37499999999999
 20
247.2949999999999
 30
0.0
 11
90.37499999999999
 21
246.695
 31
0.0
  0
LINE
  5
56E
330
1E
100
AcDbEntity
  8
0
  6
Continuous
 62
     3
100
AcDbLine
 10
85.875
 20
242.0999999999999
 30
0.0
 11
87.375
 21
242.0999999999999
 31
0.0
  0
LINE
  5
56F
330
1E
100
AcDbEntity
  8
0
  6
Continuous
 62
     3
100
AcDbLine
 10
86.875
 20
242.695
 30
0.0
 11
87.375
 21
242.695
 31
0.0
  0
ARC
  5
570
330
1E
100
AcDbEntity
  8
0
  6
Continuous
 62
     3
100
AcDbCircle
 10
86.875
 20
242.995
 30
0.0
 40
0.3
100
AcDbArc
 50
180.0
 51
270.0
  0
LINE
  5
571
330
1E
100
AcDbEntity
  8
0
  6
Continuous
 62
     3
100
AcDbLine
 10
89.47499999999998
 20
242.695
 30
0.0
 11
88.97499999999999
 21
242.695
 31
0.0
  0
ARC
  5
572
330
1E
100
AcDbEntity
  8
0
  6
Continuous
 62
     3
100
AcDbCircle
 10
89.47499999999998
 20
242.995
 30
0.0
 40
0.3
100
AcDbArc
 50
270.0
 51
0.0
  0
LINE
  5
573
330
1E
100
AcDbEntity
  8
0
  6
Continuous
 62
     3
100
AcDbLine
 10
86.575
 20
246.395
 30
0.0
 11
86.575
 21
242.995
 31
0.0
  0
LINE
  5
574
330
1E
100
AcDbEntity
  8
0
  6
Continuous
 62
     3
100
AcDbLine
 10
89.775
 20
242.995
 30
0.0
 11
89.775
 21
245.745
 31
0.0
  0
ARC
  5
575
330
1E
100
AcDbEntity
  8
0
  6
Continuous
 62
     3
100
AcDbCircle
 10
86.875
 20
246.395
 30
0.0
 40
0.3
100
AcDbArc
 50
111.8014094889999
 51
180.0
  0
ARC
  5
576
330
1E
100
AcDbEntity
  8
0
  6
Continuous
 62
     3
100
AcDbCircle
 10
89.47499999999998
 20
245.745
 30
0.0
 40
0.3
100
AcDbArc
 50
0.0
 51
68.19859052099999
  0
LINE
  5
577
330
1E
100
AcDbEntity
  8
0
  6
Continuous
 62
     3
100
AcDbLine
 10
88.97499999999999
 20
242.0999999999999
 30
0.0
 11
90.47499999999999
 21
242.0999999999999
 31
0.0
  0
LINE
  5
578
330
1E
100
AcDbEntity
  8
0
  6
Continuous
 62
     3
100
AcDbLine
 10
85.875
 20
247.395
 30
0.0
 11
85.875
 21
242.0999999999999
 31
0.0
  0
LINE
  5
579
330
1E
100
AcDbEntity
  8
0
  6
Continuous
 62
     3
100
AcDbLine
 10
90.47499999999999
 20
242.0999999999999
 30
0.0
 11
90.47499999999999
 21
247.395
 31
0.0
  0
LINE
  5
57A
330
1E
100
AcDbEntity
  8
0
  6
Continuous
 62
     3
100
AcDbLine
 10
95.47499999999999
 20
247.395
 30
0.0
 11
90.875
 21
247.395
 31
0.0
  0
LINE
  5
57B
330
1E
100
AcDbEntity
  8
0
  6
Continuous
 62
     3
100
AcDbLine
 10
93.97499999999999
 20
242.75
 30
0.0
 11
92.375
 21
242.75
 31
0.0
  0
LINE
  5
57C
330
1E
100
AcDbEntity
  8
0
  6
Continuous
 62
     3
100
AcDbLine
 10
92.375
 20
242.75
 30
0.0
 11
92.375
 21
241.4
 31
0.0
  0
LINE
  5
57D
330
1E
100
AcDbEntity
  8
0
  6
Continuous
 62
     3
100
AcDbLine
 10
93.97499999999999
 20
241.4
 30
0.0
 11
93.97499999999999
 21
242.75
 31
0.0
  0
LINE
  5
57E
330
1E
100
AcDbEntity
  8
0
  6
Continuous
 62
     3
100
AcDbLine
 10
91.775
 20
247.2949999999999
 30
0.0
 11
91.775
 21
242.695
 31
0.0
  0
LINE
  5
57F
330
1E
100
AcDbEntity
  8
0
  6
Continuous
 62
     3
100
AcDbLine
 10
94.57500000000001
 20
247.2949999999999
 30
0.0
 11
94.57500000000001
 21
242.695
 31
0.0
  0
LINE
  5
580
330
1E
100
AcDbEntity
  8
0
  6
Continuous
 62
     3
100
AcDbLine
 10
91.47499999999999
 20
247.2949999999999
 30
0.0
 11
95.37499999999999
 21
247.2949999999999
 31
0.0
  0
ARC
  5
581
330
1E
100
AcDbEntity
  8
0
  6
Continuous
 62
     3
100
AcDbCircle
 10
91.47499999999999
 20
246.795
 30
0.0
 40
0.5
100
AcDbArc
 50
90.0
 51
180.0
  0
LINE
  5
582
330
1E
100
AcDbEntity
  8
0
  6
Continuous
 62
     3
100
AcDbLine
 10
90.975
 20
246.795
 30
0.0
 11
90.975
 21
242.6
 31
0.0
  0
ARC
  5
583
330
1E
100
AcDbEntity
  8
0
  6
Continuous
 62
     3
100
AcDbCircle
 10
91.47499999999999
 20
242.6
 30
0.0
 40
0.5
100
AcDbArc
 50
180.0
 51
270.0
  0
ARC
  5
584
330
1E
100
AcDbEntity
  8
0
  6
Continuous
 62
     3
100
AcDbCircle
 10
94.875
 20
242.6
 30
0.0
 40
0.5
100
AcDbArc
 50
270.0
 51
0.0
  0
LINE
  5
585
330
1E
100
AcDbEntity
  8
0
  6
Continuous
 62
     3
100
AcDbLine
 10
95.37499999999999
 20
246.1949999999999
 30
0.0
 11
95.37499999999999
 21
242.6
 31
0.0
  0
ARC
  5
586
330
1E
100
AcDbEntity
  8
0
  6
Continuous
 62
     3
100
AcDbCircle
 10
94.875
 20
246.1949999999999
 30
0.0
 40
0.5
100
AcDbArc
 50
0.0
 51
90.0
  0
LINE
  5
587
330
1E
100
AcDbEntity
  8
0
  6
Continuous
 62
     3
100
AcDbLine
 10
95.37499999999999
 20
246.695
 30
0.0
 11
94.57500000000001
 21
246.695
 31
0.0
  0
LINE
  5
588
330
1E
100
AcDbEntity
  8
0
  6
Continuous
 62
     3
100
AcDbLine
 10
95.37499999999999
 20
247.2949999999999
 30
0.0
 11
95.37499999999999
 21
246.695
 31
0.0
  0
LINE
  5
589
330
1E
100
AcDbEntity
  8
0
  6
Continuous
 62
     3
100
AcDbLine
 10
90.875
 20
242.0999999999999
 30
0.0
 11
92.375
 21
242.0999999999999
 31
0.0
  0
LINE
  5
58A
330
1E
100
AcDbEntity
  8
0
  6
Continuous
 62
     3
100
AcDbLine
 10
91.875
 20
242.695
 30
0.0
 11
92.375
 21
242.695
 31
0.0
  0
ARC
  5
58B
330
1E
100
AcDbEntity
  8
0
  6
Continuous
 62
     3
100
AcDbCircle
 10
91.875
 20
242.995
 30
0.0
 40
0.3
100
AcDbArc
 50
180.0
 51
270.0
  0
LINE
  5
58C
330
1E
100
AcDbEntity
  8
0
  6
Continuous
 62
     3
100
AcDbLine
 10
94.47499999999999
 20
242.695
 30
0.0
 11
93.97499999999999
 21
242.695
 31
0.0
  0
ARC
  5
58D
330
1E
100
AcDbEntity
  8
0
  6
Continuous
 62
     3
100
AcDbCircle
 10
94.47499999999999
 20
242.995
 30
0.0
 40
0.3
100
AcDbArc
 50
270.0
 51
0.0
  0
LINE
  5
58E
330
1E
100
AcDbEntity
  8
0
  6
Continuous
 62
     3
100
AcDbLine
 10
91.575
 20
246.395
 30
0.0
 11
91.575
 21
242.995
 31
0.0
  0
LINE
  5
58F
330
1E
100
AcDbEntity
  8
0
  6
Continuous
 62
     3
100
AcDbLine
 10
94.775
 20
242.995
 30
0.0
 11
94.775
 21
245.745
 31
0.0
  0
ARC
  5
590
330
1E
100
AcDbEntity
  8
0
  6
Continuous
 62
     3
100
AcDbCircle
 10
91.875
 20
246.395
 30
0.0
 40
0.3
100
AcDbArc
 50
111.8014094889999
 51
180.0
  0
ARC
  5
591
330
1E
100
AcDbEntity
  8
0
  6
Continuous
 62
     3
100
AcDbCircle
 10
94.47499999999999
 20
245.745
 30
0.0
 40
0.3
100
AcDbArc
 50
0.0
 51
68.19859052099999
  0
LINE
  5
592
330
1E
100
AcDbEntity
  8
0
  6
Continuous
 62
     3
100
AcDbLine
 10
93.97499999999999
 20
242.0999999999999
 30
0.0
 11
95.47499999999999
 21
242.0999999999999
 31
0.0
  0
LINE
  5
593
330
1E
100
AcDbEntity
  8
0
  6
Continuous
 62
     3
100
AcDbLine
 10
90.875
 20
247.395
 30
0.0
 11
90.875
 21
242.0999999999999
 31
0.0
  0
LINE
  5
594
330
1E
100
AcDbEntity
  8
0
  6
Continuous
 62
     3
100
AcDbLine
 10
95.47499999999999
 20
242.0999999999999
 30
0.0
 11
95.47499999999999
 21
247.395
 31
0.0
  0
LINE
  5
595
330
1E
100
AcDbEntity
  8
0
  6
Continuous
 62
     3
100
AcDbLine
 10
100.475
 20
247.395
 30
0.0
 11
95.875
 21
247.395
 31
0.0
  0
LINE
  5
596
330
1E
100
AcDbEntity
  8
0
  6
Continuous
 62
     3
100
AcDbLine
 10
98.975
 20
242.75
 30
0.0
 11
97.375
 21
242.75
 31
0.0
  0
LINE
  5
597
330
1E
100
AcDbEntity
  8
0
  6
Continuous
 62
     3
100
AcDbLine
 10
97.375
 20
242.75
 30
0.0
 11
97.375
 21
241.4
 31
0.0
  0
LINE
  5
598
330
1E
100
AcDbEntity
  8
0
  6
Continuous
 62
     3
100
AcDbLine
 10
98.975
 20
241.4
 30
0.0
 11
98.975
 21
242.75
 31
0.0
  0
LINE
  5
599
330
1E
100
AcDbEntity
  8
0
  6
Continuous
 62
     3
100
AcDbLine
 10
96.77500000000001
 20
247.2949999999999
 30
0.0
 11
96.77500000000001
 21
242.695
 31
0.0
  0
LINE
  5
59A
330
1E
100
AcDbEntity
  8
0
  6
Continuous
 62
     3
100
AcDbLine
 10
99.57500000000001
 20
247.2949999999999
 30
0.0
 11
99.57500000000001
 21
242.695
 31
0.0
  0
LINE
  5
59B
330
1E
100
AcDbEntity
  8
0
  6
Continuous
 62
     3
100
AcDbLine
 10
96.475
 20
247.2949999999999
 30
0.0
 11
100.3749999999999
 21
247.2949999999999
 31
0.0
  0
ARC
  5
59C
330
1E
100
AcDbEntity
  8
0
  6
Continuous
 62
     3
100
AcDbCircle
 10
96.475
 20
246.795
 30
0.0
 40
0.5
100
AcDbArc
 50
90.0
 51
180.0
  0
LINE
  5
59D
330
1E
100
AcDbEntity
  8
0
  6
Continuous
 62
     3
100
AcDbLine
 10
95.975
 20
246.795
 30
0.0
 11
95.975
 21
242.6
 31
0.0
  0
ARC
  5
59E
330
1E
100
AcDbEntity
  8
0
  6
Continuous
 62
     3
100
AcDbCircle
 10
96.475
 20
242.6
 30
0.0
 40
0.5
100
AcDbArc
 50
180.0
 51
270.0
  0
ARC
  5
59F
330
1E
100
AcDbEntity
  8
0
  6
Continuous
 62
     3
100
AcDbCircle
 10
99.875
 20
242.6
 30
0.0
 40
0.5
100
AcDbArc
 50
270.0
 51
0.0
  0
LINE
  5
5A0
330
1E
100
AcDbEntity
  8
0
  6
Continuous
 62
     3
100
AcDbLine
 10
100.3749999999999
 20
246.1949999999999
 30
0.0
 11
100.3749999999999
 21
242.6
 31
0.0
  0
ARC
  5
5A1
330
1E
100
AcDbEntity
  8
0
  6
Continuous
 62
     3
100
AcDbCircle
 10
99.875
 20
246.1949999999999
 30
0.0
 40
0.5
100
AcDbArc
 50
0.0
 51
90.0
  0
LINE
  5
5A2
330
1E
100
AcDbEntity
  8
0
  6
Continuous
 62
     3
100
AcDbLine
 10
100.3749999999999
 20
246.695
 30
0.0
 11
99.57500000000001
 21
246.695
 31
0.0
  0
LINE
  5
5A3
330
1E
100
AcDbEntity
  8
0
  6
Continuous
 62
     3
100
AcDbLine
 10
100.3749999999999
 20
247.2949999999999
 30
0.0
 11
100.3749999999999
 21
246.695
 31
0.0
  0
LINE
  5
5A4
330
1E
100
AcDbEntity
  8
0
  6
Continuous
 62
     3
100
AcDbLine
 10
95.875
 20
242.0999999999999
 30
0.0
 11
97.375
 21
242.0999999999999
 31
0.0
  0
LINE
  5
5A5
330
1E
100
AcDbEntity
  8
0
  6
Continuous
 62
     3
100
AcDbLine
 10
96.875
 20
242.695
 30
0.0
 11
97.375
 21
242.695
 31
0.0
  0
ARC
  5
5A6
330
1E
100
AcDbEntity
  8
0
  6
Continuous
 62
     3
100
AcDbCircle
 10
96.875
 20
242.995
 30
0.0
 40
0.3
100
AcDbArc
 50
180.0
 51
270.0
  0
LINE
  5
5A7
330
1E
100
AcDbEntity
  8
0
  6
Continuous
 62
     3
100
AcDbLine
 10
99.47499999999999
 20
242.695
 30
0.0
 11
98.975
 21
242.695
 31
0.0
  0
ARC
  5
5A8
330
1E
100
AcDbEntity
  8
0
  6
Continuous
 62
     3
100
AcDbCircle
 10
99.47499999999999
 20
242.995
 30
0.0
 40
0.3
100
AcDbArc
 50
270.0
 51
0.0
  0
LINE
  5
5A9
330
1E
100
AcDbEntity
  8
0
  6
Continuous
 62
     3
100
AcDbLine
 10
96.575
 20
246.395
 30
0.0
 11
96.575
 21
242.995
 31
0.0
  0
LINE
  5
5AA
330
1E
100
AcDbEntity
  8
0
  6
Continuous
 62
     3
100
AcDbLine
 10
99.775
 20
242.995
 30
0.0
 11
99.775
 21
245.745
 31
0.0
  0
ARC
  5
5AB
330
1E
100
AcDbEntity
  8
0
  6
Continuous
 62
     3
100
AcDbCircle
 10
96.875
 20
246.395
 30
0.0
 40
0.3
100
AcDbArc
 50
111.8014094889999
 51
180.0
  0
ARC
  5
5AC
330
1E
100
AcDbEntity
  8
0
  6
Continuous
 62
     3
100
AcDbCircle
 10
99.47499999999999
 20
245.745
 30
0.0
 40
0.3
100
AcDbArc
 50
0.0
 51
68.19859052099999
  0
LINE
  5
5AD
330
1E
100
AcDbEntity
  8
0
  6
Continuous
 62
     3
100
AcDbLine
 10
98.975
 20
242.0999999999999
 30
0.0
 11
100.475
 21
242.0999999999999
 31
0.0
  0
LINE
  5
5AE
330
1E
100
AcDbEntity
  8
0
  6
Continuous
 62
     3
100
AcDbLine
 10
95.875
 20
247.395
 30
0.0
 11
95.875
 21
242.0999999999999
 31
0.0
  0
LINE
  5
5AF
330
1E
100
AcDbEntity
  8
0
  6
Continuous
 62
     3
100
AcDbLine
 10
100.475
 20
242.0999999999999
 30
0.0
 11
100.475
 21
247.395
 31
0.0
  0
LINE
  5
5B0
330
1E
100
AcDbEntity
  8
0
  6
Continuous
 62
     3
100
AcDbLine
 10
105.4749999999999
 20
247.395
 30
0.0
 11
100.875
 21
247.395
 31
0.0
  0
LINE
  5
5B1
330
1E
100
AcDbEntity
  8
0
  6
Continuous
 62
     3
100
AcDbLine
 10
103.9749999999999
 20
242.75
 30
0.0
 11
102.3749999999999
 21
242.75
 31
0.0
  0
LINE
  5
5B2
330
1E
100
AcDbEntity
  8
0
  6
Continuous
 62
     3
100
AcDbLine
 10
102.3749999999999
 20
242.75
 30
0.0
 11
102.3749999999999
 21
241.4
 31
0.0
  0
LINE
  5
5B3
330
1E
100
AcDbEntity
  8
0
  6
Continuous
 62
     3
100
AcDbLine
 10
103.9749999999999
 20
241.4
 30
0.0
 11
103.9749999999999
 21
242.75
 31
0.0
  0
LINE
  5
5B4
330
1E
100
AcDbEntity
  8
0
  6
Continuous
 62
     3
100
AcDbLine
 10
101.775
 20
247.2949999999999
 30
0.0
 11
101.775
 21
242.695
 31
0.0
  0
LINE
  5
5B5
330
1E
100
AcDbEntity
  8
0
  6
Continuous
 62
     3
100
AcDbLine
 10
104.5749999999999
 20
247.2949999999999
 30
0.0
 11
104.5749999999999
 21
242.695
 31
0.0
  0
LINE
  5
5B6
330
1E
100
AcDbEntity
  8
0
  6
Continuous
 62
     3
100
AcDbLine
 10
101.475
 20
247.2949999999999
 30
0.0
 11
105.3749999999999
 21
247.2949999999999
 31
0.0
  0
ARC
  5
5B7
330
1E
100
AcDbEntity
  8
0
  6
Continuous
 62
     3
100
AcDbCircle
 10
101.475
 20
246.795
 30
0.0
 40
0.5
100
AcDbArc
 50
90.0
 51
180.0
  0
LINE
  5
5B8
330
1E
100
AcDbEntity
  8
0
  6
Continuous
 62
     3
100
AcDbLine
 10
100.9749999999999
 20
246.795
 30
0.0
 11
100.9749999999999
 21
242.6
 31
0.0
  0
ARC
  5
5B9
330
1E
100
AcDbEntity
  8
0
  6
Continuous
 62
     3
100
AcDbCircle
 10
101.475
 20
242.6
 30
0.0
 40
0.5
100
AcDbArc
 50
180.0
 51
270.0
  0
ARC
  5
5BA
330
1E
100
AcDbEntity
  8
0
  6
Continuous
 62
     3
100
AcDbCircle
 10
104.875
 20
242.6
 30
0.0
 40
0.5
100
AcDbArc
 50
270.0
 51
0.0
  0
LINE
  5
5BB
330
1E
100
AcDbEntity
  8
0
  6
Continuous
 62
     3
100
AcDbLine
 10
105.3749999999999
 20
246.1949999999999
 30
0.0
 11
105.3749999999999
 21
242.6
 31
0.0
  0
ARC
  5
5BC
330
1E
100
AcDbEntity
  8
0
  6
Continuous
 62
     3
100
AcDbCircle
 10
104.875
 20
246.1949999999999
 30
0.0
 40
0.5
100
AcDbArc
 50
0.0
 51
90.0
  0
LINE
  5
5BD
330
1E
100
AcDbEntity
  8
0
  6
Continuous
 62
     3
100
AcDbLine
 10
105.3749999999999
 20
246.695
 30
0.0
 11
104.5749999999999
 21
246.695
 31
0.0
  0
LINE
  5
5BE
330
1E
100
AcDbEntity
  8
0
  6
Continuous
 62
     3
100
AcDbLine
 10
105.3749999999999
 20
247.2949999999999
 30
0.0
 11
105.3749999999999
 21
246.695
 31
0.0
  0
LINE
  5
5BF
330
1E
100
AcDbEntity
  8
0
  6
Continuous
 62
     3
100
AcDbLine
 10
100.875
 20
242.0999999999999
 30
0.0
 11
102.3749999999999
 21
242.0999999999999
 31
0.0
  0
LINE
  5
5C0
330
1E
100
AcDbEntity
  8
0
  6
Continuous
 62
     3
100
AcDbLine
 10
101.875
 20
242.695
 30
0.0
 11
102.3749999999999
 21
242.695
 31
0.0
  0
ARC
  5
5C1
330
1E
100
AcDbEntity
  8
0
  6
Continuous
 62
     3
100
AcDbCircle
 10
101.875
 20
242.995
 30
0.0
 40
0.3
100
AcDbArc
 50
180.0
 51
270.0
  0
LINE
  5
5C2
330
1E
100
AcDbEntity
  8
0
  6
Continuous
 62
     3
100
AcDbLine
 10
104.475
 20
242.695
 30
0.0
 11
103.9749999999999
 21
242.695
 31
0.0
  0
ARC
  5
5C3
330
1E
100
AcDbEntity
  8
0
  6
Continuous
 62
     3
100
AcDbCircle
 10
104.475
 20
242.995
 30
0.0
 40
0.3
100
AcDbArc
 50
270.0
 51
0.0
  0
LINE
  5
5C4
330
1E
100
AcDbEntity
  8
0
  6
Continuous
 62
     3
100
AcDbLine
 10
101.575
 20
246.395
 30
0.0
 11
101.575
 21
242.995
 31
0.0
  0
LINE
  5
5C5
330
1E
100
AcDbEntity
  8
0
  6
Continuous
 62
     3
100
AcDbLine
 10
104.775
 20
242.995
 30
0.0
 11
104.775
 21
245.745
 31
0.0
  0
ARC
  5
5C6
330
1E
100
AcDbEntity
  8
0
  6
Continuous
 62
     3
100
AcDbCircle
 10
101.875
 20
246.395
 30
0.0
 40
0.3
100
AcDbArc
 50
111.8014094889999
 51
180.0
  0
ARC
  5
5C7
330
1E
100
AcDbEntity
  8
0
  6
Continuous
 62
     3
100
AcDbCircle
 10
104.475
 20
245.745
 30
0.0
 40
0.3
100
AcDbArc
 50
0.0
 51
68.19859052099999
  0
LINE
  5
5C8
330
1E
100
AcDbEntity
  8
0
  6
Continuous
 62
     3
100
AcDbLine
 10
103.9749999999999
 20
242.0999999999999
 30
0.0
 11
105.4749999999999
 21
242.0999999999999
 31
0.0
  0
LINE
  5
5C9
330
1E
100
AcDbEntity
  8
0
  6
Continuous
 62
     3
100
AcDbLine
 10
100.875
 20
247.395
 30
0.0
 11
100.875
 21
242.0999999999999
 31
0.0
  0
LINE
  5
5CA
330
1E
100
AcDbEntity
  8
0
  6
Continuous
 62
     3
100
AcDbLine
 10
105.4749999999999
 20
242.0999999999999
 30
0.0
 11
105.4749999999999
 21
247.395
 31
0.0
  0
LINE
  5
5CB
330
1E
100
AcDbEntity
  8
0
  6
Continuous
 62
     3
100
AcDbLine
 10
110.4749999999999
 20
247.395
 30
0.0
 11
105.875
 21
247.395
 31
0.0
  0
LINE
  5
5CC
330
1E
100
AcDbEntity
  8
0
  6
Continuous
 62
     3
100
AcDbLine
 10
108.9749999999999
 20
242.75
 30
0.0
 11
107.3749999999999
 21
242.75
 31
0.0
  0
LINE
  5
5CD
330
1E
100
AcDbEntity
  8
0
  6
Continuous
 62
     3
100
AcDbLine
 10
107.3749999999999
 20
242.75
 30
0.0
 11
107.3749999999999
 21
241.4
 31
0.0
  0
LINE
  5
5CE
330
1E
100
AcDbEntity
  8
0
  6
Continuous
 62
     3
100
AcDbLine
 10
108.9749999999999
 20
241.4
 30
0.0
 11
108.9749999999999
 21
242.75
 31
0.0
  0
LINE
  5
5CF
330
1E
100
AcDbEntity
  8
0
  6
Continuous
 62
     3
100
AcDbLine
 10
106.7749999999999
 20
247.2949999999999
 30
0.0
 11
106.7749999999999
 21
242.695
 31
0.0
  0
LINE
  5
5D0
330
1E
100
AcDbEntity
  8
0
  6
Continuous
 62
     3
100
AcDbLine
 10
109.5749999999999
 20
247.2949999999999
 30
0.0
 11
109.5749999999999
 21
242.695
 31
0.0
  0
LINE
  5
5D1
330
1E
100
AcDbEntity
  8
0
  6
Continuous
 62
     3
100
AcDbLine
 10
106.4749999999999
 20
247.2949999999999
 30
0.0
 11
110.375
 21
247.2949999999999
 31
0.0
  0
ARC
  5
5D2
330
1E
100
AcDbEntity
  8
0
  6
Continuous
 62
     3
100
AcDbCircle
 10
106.4749999999999
 20
246.795
 30
0.0
 40
0.5
100
AcDbArc
 50
90.0
 51
180.0
  0
LINE
  5
5D3
330
1E
100
AcDbEntity
  8
0
  6
Continuous
 62
     3
100
AcDbLine
 10
105.9749999999999
 20
246.795
 30
0.0
 11
105.9749999999999
 21
242.6
 31
0.0
  0
ARC
  5
5D4
330
1E
100
AcDbEntity
  8
0
  6
Continuous
 62
     3
100
AcDbCircle
 10
106.4749999999999
 20
242.6
 30
0.0
 40
0.5
100
AcDbArc
 50
180.0
 51
270.0
  0
ARC
  5
5D5
330
1E
100
AcDbEntity
  8
0
  6
Continuous
 62
     3
100
AcDbCircle
 10
109.875
 20
242.6
 30
0.0
 40
0.5
100
AcDbArc
 50
270.0
 51
0.0
  0
LINE
  5
5D6
330
1E
100
AcDbEntity
  8
0
  6
Continuous
 62
     3
100
AcDbLine
 10
110.375
 20
246.1949999999999
 30
0.0
 11
110.375
 21
242.6
 31
0.0
  0
ARC
  5
5D7
330
1E
100
AcDbEntity
  8
0
  6
Continuous
 62
     3
100
AcDbCircle
 10
109.875
 20
246.1949999999999
 30
0.0
 40
0.5
100
AcDbArc
 50
0.0
 51
90.0
  0
LINE
  5
5D8
330
1E
100
AcDbEntity
  8
0
  6
Continuous
 62
     3
100
AcDbLine
 10
110.375
 20
246.695
 30
0.0
 11
109.5749999999999
 21
246.695
 31
0.0
  0
LINE
  5
5D9
330
1E
100
AcDbEntity
  8
0
  6
Continuous
 62
     3
100
AcDbLine
 10
110.375
 20
247.2949999999999
 30
0.0
 11
110.375
 21
246.695
 31
0.0
  0
LINE
  5
5DA
330
1E
100
AcDbEntity
  8
0
  6
Continuous
 62
     3
100
AcDbLine
 10
105.875
 20
242.0999999999999
 30
0.0
 11
107.3749999999999
 21
242.0999999999999
 31
0.0
  0
LINE
  5
5DB
330
1E
100
AcDbEntity
  8
0
  6
Continuous
 62
     3
100
AcDbLine
 10
106.875
 20
242.695
 30
0.0
 11
107.3749999999999
 21
242.695
 31
0.0
  0
ARC
  5
5DC
330
1E
100
AcDbEntity
  8
0
  6
Continuous
 62
     3
100
AcDbCircle
 10
106.875
 20
242.995
 30
0.0
 40
0.3
100
AcDbArc
 50
180.0
 51
270.0
  0
LINE
  5
5DD
330
1E
100
AcDbEntity
  8
0
  6
Continuous
 62
     3
100
AcDbLine
 10
109.4749999999999
 20
242.695
 30
0.0
 11
108.9749999999999
 21
242.695
 31
0.0
  0
ARC
  5
5DE
330
1E
100
AcDbEntity
  8
0
  6
Continuous
 62
     3
100
AcDbCircle
 10
109.4749999999999
 20
242.995
 30
0.0
 40
0.3
100
AcDbArc
 50
270.0
 51
0.0
  0
LINE
  5
5DF
330
1E
100
AcDbEntity
  8
0
  6
Continuous
 62
     3
100
AcDbLine
 10
106.5749999999999
 20
246.395
 30
0.0
 11
106.5749999999999
 21
242.995
 31
0.0
  0
LINE
  5
5E0
330
1E
100
AcDbEntity
  8
0
  6
Continuous
 62
     3
100
AcDbLine
 10
109.775
 20
242.995
 30
0.0
 11
109.775
 21
245.745
 31
0.0
  0
ARC
  5
5E1
330
1E
100
AcDbEntity
  8
0
  6
Continuous
 62
     3
100
AcDbCircle
 10
106.875
 20
246.395
 30
0.0
 40
0.3
100
AcDbArc
 50
111.8014094889999
 51
180.0
  0
ARC
  5
5E2
330
1E
100
AcDbEntity
  8
0
  6
Continuous
 62
     3
100
AcDbCircle
 10
109.4749999999999
 20
245.745
 30
0.0
 40
0.3
100
AcDbArc
 50
0.0
 51
68.19859052099999
  0
LINE
  5
5E3
330
1E
100
AcDbEntity
  8
0
  6
Continuous
 62
     3
100
AcDbLine
 10
108.9749999999999
 20
242.0999999999999
 30
0.0
 11
110.4749999999999
 21
242.0999999999999
 31
0.0
  0
LINE
  5
5E4
330
1E
100
AcDbEntity
  8
0
  6
Continuous
 62
     3
100
AcDbLine
 10
105.875
 20
247.395
 30
0.0
 11
105.875
 21
242.0999999999999
 31
0.0
  0
LINE
  5
5E5
330
1E
100
AcDbEntity
  8
0
  6
Continuous
 62
     3
100
AcDbLine
 10
110.4749999999999
 20
242.0999999999999
 30
0.0
 11
110.4749999999999
 21
247.395
 31
0.0
  0
LINE
  5
5E6
330
1E
100
AcDbEntity
  8
0
  6
Continuous
 62
     3
100
AcDbLine
 10
115.4749999999999
 20
247.395
 30
0.0
 11
110.875
 21
247.395
 31
0.0
  0
LINE
  5
5E7
330
1E
100
AcDbEntity
  8
0
  6
Continuous
 62
     3
100
AcDbLine
 10
113.975
 20
242.75
 30
0.0
 11
112.375
 21
242.75
 31
0.0
  0
LINE
  5
5E8
330
1E
100
AcDbEntity
  8
0
  6
Continuous
 62
     3
100
AcDbLine
 10
112.375
 20
242.75
 30
0.0
 11
112.375
 21
241.4
 31
0.0
  0
LINE
  5
5E9
330
1E
100
AcDbEntity
  8
0
  6
Continuous
 62
     3
100
AcDbLine
 10
113.975
 20
241.4
 30
0.0
 11
113.975
 21
242.75
 31
0.0
  0
LINE
  5
5EA
330
1E
100
AcDbEntity
  8
0
  6
Continuous
 62
     3
100
AcDbLine
 10
111.775
 20
247.2949999999999
 30
0.0
 11
111.775
 21
242.695
 31
0.0
  0
LINE
  5
5EB
330
1E
100
AcDbEntity
  8
0
  6
Continuous
 62
     3
100
AcDbLine
 10
114.575
 20
247.2949999999999
 30
0.0
 11
114.575
 21
242.695
 31
0.0
  0
LINE
  5
5EC
330
1E
100
AcDbEntity
  8
0
  6
Continuous
 62
     3
100
AcDbLine
 10
111.4749999999999
 20
247.2949999999999
 30
0.0
 11
115.375
 21
247.2949999999999
 31
0.0
  0
ARC
  5
5ED
330
1E
100
AcDbEntity
  8
0
  6
Continuous
 62
     3
100
AcDbCircle
 10
111.4749999999999
 20
246.795
 30
0.0
 40
0.5
100
AcDbArc
 50
90.0
 51
180.0
  0
LINE
  5
5EE
330
1E
100
AcDbEntity
  8
0
  6
Continuous
 62
     3
100
AcDbLine
 10
110.975
 20
246.795
 30
0.0
 11
110.975
 21
242.6
 31
0.0
  0
ARC
  5
5EF
330
1E
100
AcDbEntity
  8
0
  6
Continuous
 62
     3
100
AcDbCircle
 10
111.4749999999999
 20
242.6
 30
0.0
 40
0.5
100
AcDbArc
 50
180.0
 51
270.0
  0
ARC
  5
5F0
330
1E
100
AcDbEntity
  8
0
  6
Continuous
 62
     3
100
AcDbCircle
 10
114.8749999999999
 20
242.6
 30
0.0
 40
0.5
100
AcDbArc
 50
270.0
 51
0.0
  0
LINE
  5
5F1
330
1E
100
AcDbEntity
  8
0
  6
Continuous
 62
     3
100
AcDbLine
 10
115.375
 20
246.1949999999999
 30
0.0
 11
115.375
 21
242.6
 31
0.0
  0
ARC
  5
5F2
330
1E
100
AcDbEntity
  8
0
  6
Continuous
 62
     3
100
AcDbCircle
 10
114.8749999999999
 20
246.1949999999999
 30
0.0
 40
0.5
100
AcDbArc
 50
0.0
 51
90.0
  0
LINE
  5
5F3
330
1E
100
AcDbEntity
  8
0
  6
Continuous
 62
     3
100
AcDbLine
 10
115.375
 20
246.695
 30
0.0
 11
114.575
 21
246.695
 31
0.0
  0
LINE
  5
5F4
330
1E
100
AcDbEntity
  8
0
  6
Continuous
 62
     3
100
AcDbLine
 10
115.375
 20
247.2949999999999
 30
0.0
 11
115.375
 21
246.695
 31
0.0
  0
LINE
  5
5F5
330
1E
100
AcDbEntity
  8
0
  6
Continuous
 62
     3
100
AcDbLine
 10
110.875
 20
242.0999999999999
 30
0.0
 11
112.375
 21
242.0999999999999
 31
0.0
  0
LINE
  5
5F6
330
1E
100
AcDbEntity
  8
0
  6
Continuous
 62
     3
100
AcDbLine
 10
111.875
 20
242.695
 30
0.0
 11
112.375
 21
242.695
 31
0.0
  0
ARC
  5
5F7
330
1E
100
AcDbEntity
  8
0
  6
Continuous
 62
     3
100
AcDbCircle
 10
111.875
 20
242.995
 30
0.0
 40
0.3
100
AcDbArc
 50
180.0
 51
270.0
  0
LINE
  5
5F8
330
1E
100
AcDbEntity
  8
0
  6
Continuous
 62
     3
100
AcDbLine
 10
114.4749999999999
 20
242.695
 30
0.0
 11
113.975
 21
242.695
 31
0.0
  0
ARC
  5
5F9
330
1E
100
AcDbEntity
  8
0
  6
Continuous
 62
     3
100
AcDbCircle
 10
114.4749999999999
 20
242.995
 30
0.0
 40
0.3
100
AcDbArc
 50
270.0
 51
0.0
  0
LINE
  5
5FA
330
1E
100
AcDbEntity
  8
0
  6
Continuous
 62
     3
100
AcDbLine
 10
111.575
 20
246.395
 30
0.0
 11
111.575
 21
242.995
 31
0.0
  0
LINE
  5
5FB
330
1E
100
AcDbEntity
  8
0
  6
Continuous
 62
     3
100
AcDbLine
 10
114.775
 20
242.995
 30
0.0
 11
114.775
 21
245.745
 31
0.0
  0
ARC
  5
5FC
330
1E
100
AcDbEntity
  8
0
  6
Continuous
 62
     3
100
AcDbCircle
 10
111.875
 20
246.395
 30
0.0
 40
0.3
100
AcDbArc
 50
111.8014094889999
 51
180.0
  0
ARC
  5
5FD
330
1E
100
AcDbEntity
  8
0
  6
Continuous
 62
     3
100
AcDbCircle
 10
114.4749999999999
 20
245.745
 30
0.0
 40
0.3
100
AcDbArc
 50
0.0
 51
68.19859052099999
  0
LINE
  5
5FE
330
1E
100
AcDbEntity
  8
0
  6
Continuous
 62
     3
100
AcDbLine
 10
113.975
 20
242.0999999999999
 30
0.0
 11
115.4749999999999
 21
242.0999999999999
 31
0.0
  0
LINE
  5
5FF
330
1E
100
AcDbEntity
  8
0
  6
Continuous
 62
     3
100
AcDbLine
 10
110.875
 20
247.395
 30
0.0
 11
110.875
 21
242.0999999999999
 31
0.0
  0
LINE
  5
600
330
1E
100
AcDbEntity
  8
0
  6
Continuous
 62
     3
100
AcDbLine
 10
115.4749999999999
 20
242.0999999999999
 30
0.0
 11
115.4749999999999
 21
247.395
 31
0.0
  0
LINE
  5
601
330
1E
100
AcDbEntity
  8
0
  6
Continuous
 62
     3
100
AcDbLine
 10
120.4749999999999
 20
247.395
 30
0.0
 11
115.8749999999999
 21
247.395
 31
0.0
  0
LINE
  5
602
330
1E
100
AcDbEntity
  8
0
  6
Continuous
 62
     3
100
AcDbLine
 10
118.9749999999999
 20
242.75
 30
0.0
 11
117.375
 21
242.75
 31
0.0
  0
LINE
  5
603
330
1E
100
AcDbEntity
  8
0
  6
Continuous
 62
     3
100
AcDbLine
 10
117.375
 20
242.75
 30
0.0
 11
117.375
 21
241.4
 31
0.0
  0
LINE
  5
604
330
1E
100
AcDbEntity
  8
0
  6
Continuous
 62
     3
100
AcDbLine
 10
118.9749999999999
 20
241.4
 30
0.0
 11
118.9749999999999
 21
242.75
 31
0.0
  0
LINE
  5
605
330
1E
100
AcDbEntity
  8
0
  6
Continuous
 62
     3
100
AcDbLine
 10
116.775
 20
247.2949999999999
 30
0.0
 11
116.775
 21
242.695
 31
0.0
  0
LINE
  5
606
330
1E
100
AcDbEntity
  8
0
  6
Continuous
 62
     3
100
AcDbLine
 10
119.575
 20
247.2949999999999
 30
0.0
 11
119.575
 21
242.695
 31
0.0
  0
LINE
  5
607
330
1E
100
AcDbEntity
  8
0
  6
Continuous
 62
     3
100
AcDbLine
 10
116.4749999999999
 20
247.2949999999999
 30
0.0
 11
120.375
 21
247.2949999999999
 31
0.0
  0
ARC
  5
608
330
1E
100
AcDbEntity
  8
0
  6
Continuous
 62
     3
100
AcDbCircle
 10
116.4749999999999
 20
246.795
 30
0.0
 40
0.5
100
AcDbArc
 50
90.0
 51
180.0
  0
LINE
  5
609
330
1E
100
AcDbEntity
  8
0
  6
Continuous
 62
     3
100
AcDbLine
 10
115.975
 20
246.795
 30
0.0
 11
115.975
 21
242.6
 31
0.0
  0
ARC
  5
60A
330
1E
100
AcDbEntity
  8
0
  6
Continuous
 62
     3
100
AcDbCircle
 10
116.4749999999999
 20
242.6
 30
0.0
 40
0.5
100
AcDbArc
 50
180.0
 51
270.0
  0
ARC
  5
60B
330
1E
100
AcDbEntity
  8
0
  6
Continuous
 62
     3
100
AcDbCircle
 10
119.8749999999999
 20
242.6
 30
0.0
 40
0.5
100
AcDbArc
 50
270.0
 51
0.0
  0
LINE
  5
60C
330
1E
100
AcDbEntity
  8
0
  6
Continuous
 62
     3
100
AcDbLine
 10
120.375
 20
246.1949999999999
 30
0.0
 11
120.375
 21
242.6
 31
0.0
  0
ARC
  5
60D
330
1E
100
AcDbEntity
  8
0
  6
Continuous
 62
     3
100
AcDbCircle
 10
119.8749999999999
 20
246.1949999999999
 30
0.0
 40
0.5
100
AcDbArc
 50
0.0
 51
90.0
  0
LINE
  5
60E
330
1E
100
AcDbEntity
  8
0
  6
Continuous
 62
     3
100
AcDbLine
 10
120.375
 20
246.695
 30
0.0
 11
119.575
 21
246.695
 31
0.0
  0
LINE
  5
60F
330
1E
100
AcDbEntity
  8
0
  6
Continuous
 62
     3
100
AcDbLine
 10
120.375
 20
247.2949999999999
 30
0.0
 11
120.375
 21
246.695
 31
0.0
  0
LINE
  5
610
330
1E
100
AcDbEntity
  8
0
  6
Continuous
 62
     3
100
AcDbLine
 10
115.8749999999999
 20
242.0999999999999
 30
0.0
 11
117.375
 21
242.0999999999999
 31
0.0
  0
LINE
  5
611
330
1E
100
AcDbEntity
  8
0
  6
Continuous
 62
     3
100
AcDbLine
 10
116.8749999999999
 20
242.695
 30
0.0
 11
117.375
 21
242.695
 31
0.0
  0
ARC
  5
612
330
1E
100
AcDbEntity
  8
0
  6
Continuous
 62
     3
100
AcDbCircle
 10
116.8749999999999
 20
242.995
 30
0.0
 40
0.3
100
AcDbArc
 50
180.0
 51
270.0
  0
LINE
  5
613
330
1E
100
AcDbEntity
  8
0
  6
Continuous
 62
     3
100
AcDbLine
 10
119.4749999999999
 20
242.695
 30
0.0
 11
118.9749999999999
 21
242.695
 31
0.0
  0
ARC
  5
614
330
1E
100
AcDbEntity
  8
0
  6
Continuous
 62
     3
100
AcDbCircle
 10
119.4749999999999
 20
242.995
 30
0.0
 40
0.3
100
AcDbArc
 50
270.0
 51
0.0
  0
LINE
  5
615
330
1E
100
AcDbEntity
  8
0
  6
Continuous
 62
     3
100
AcDbLine
 10
116.575
 20
246.395
 30
0.0
 11
116.575
 21
242.995
 31
0.0
  0
LINE
  5
616
330
1E
100
AcDbEntity
  8
0
  6
Continuous
 62
     3
100
AcDbLine
 10
119.775
 20
242.995
 30
0.0
 11
119.775
 21
245.745
 31
0.0
  0
ARC
  5
617
330
1E
100
AcDbEntity
  8
0
  6
Continuous
 62
     3
100
AcDbCircle
 10
116.8749999999999
 20
246.395
 30
0.0
 40
0.3
100
AcDbArc
 50
111.8014094889999
 51
180.0
  0
ARC
  5
618
330
1E
100
AcDbEntity
  8
0
  6
Continuous
 62
     3
100
AcDbCircle
 10
119.4749999999999
 20
245.745
 30
0.0
 40
0.3
100
AcDbArc
 50
0.0
 51
68.19859052099999
  0
LINE
  5
619
330
1E
100
AcDbEntity
  8
0
  6
Continuous
 62
     3
100
AcDbLine
 10
118.9749999999999
 20
242.0999999999999
 30
0.0
 11
120.4749999999999
 21
242.0999999999999
 31
0.0
  0
LINE
  5
61A
330
1E
100
AcDbEntity
  8
0
  6
Continuous
 62
     3
100
AcDbLine
 10
115.8749999999999
 20
247.395
 30
0.0
 11
115.8749999999999
 21
242.0999999999999
 31
0.0
  0
LINE
  5
61B
330
1E
100
AcDbEntity
  8
0
  6
Continuous
 62
     3
100
AcDbLine
 10
120.4749999999999
 20
242.0999999999999
 30
0.0
 11
120.4749999999999
 21
247.395
 31
0.0
  0
LINE
  5
61C
330
1E
100
AcDbEntity
  8
0
  6
Continuous
 62
     3
100
AcDbLine
 10
125.475
 20
247.395
 30
0.0
 11
120.8749999999999
 21
247.395
 31
0.0
  0
LINE
  5
61D
330
1E
100
AcDbEntity
  8
0
  6
Continuous
 62
     3
100
AcDbLine
 10
123.9749999999999
 20
242.75
 30
0.0
 11
122.375
 21
242.75
 31
0.0
  0
LINE
  5
61E
330
1E
100
AcDbEntity
  8
0
  6
Continuous
 62
     3
100
AcDbLine
 10
122.375
 20
242.75
 30
0.0
 11
122.375
 21
241.4
 31
0.0
  0
LINE
  5
61F
330
1E
100
AcDbEntity
  8
0
  6
Continuous
 62
     3
100
AcDbLine
 10
123.9749999999999
 20
241.4
 30
0.0
 11
123.9749999999999
 21
242.75
 31
0.0
  0
LINE
  5
620
330
1E
100
AcDbEntity
  8
0
  6
Continuous
 62
     3
100
AcDbLine
 10
121.775
 20
247.2949999999999
 30
0.0
 11
121.775
 21
242.695
 31
0.0
  0
LINE
  5
621
330
1E
100
AcDbEntity
  8
0
  6
Continuous
 62
     3
100
AcDbLine
 10
124.575
 20
247.2949999999999
 30
0.0
 11
124.575
 21
242.695
 31
0.0
  0
LINE
  5
622
330
1E
100
AcDbEntity
  8
0
  6
Continuous
 62
     3
100
AcDbLine
 10
121.4749999999999
 20
247.2949999999999
 30
0.0
 11
125.3749999999999
 21
247.2949999999999
 31
0.0
  0
ARC
  5
623
330
1E
100
AcDbEntity
  8
0
  6
Continuous
 62
     3
100
AcDbCircle
 10
121.4749999999999
 20
246.795
 30
0.0
 40
0.5
100
AcDbArc
 50
90.0
 51
180.0
  0
LINE
  5
624
330
1E
100
AcDbEntity
  8
0
  6
Continuous
 62
     3
100
AcDbLine
 10
120.9749999999999
 20
246.795
 30
0.0
 11
120.9749999999999
 21
242.6
 31
0.0
  0
ARC
  5
625
330
1E
100
AcDbEntity
  8
0
  6
Continuous
 62
     3
100
AcDbCircle
 10
121.4749999999999
 20
242.6
 30
0.0
 40
0.5
100
AcDbArc
 50
180.0
 51
270.0
  0
ARC
  5
626
330
1E
100
AcDbEntity
  8
0
  6
Continuous
 62
     3
100
AcDbCircle
 10
124.875
 20
242.6
 30
0.0
 40
0.5
100
AcDbArc
 50
270.0
 51
0.0
  0
LINE
  5
627
330
1E
100
AcDbEntity
  8
0
  6
Continuous
 62
     3
100
AcDbLine
 10
125.3749999999999
 20
246.1949999999999
 30
0.0
 11
125.3749999999999
 21
242.6
 31
0.0
  0
ARC
  5
628
330
1E
100
AcDbEntity
  8
0
  6
Continuous
 62
     3
100
AcDbCircle
 10
124.875
 20
246.1949999999999
 30
0.0
 40
0.5
100
AcDbArc
 50
0.0
 51
90.0
  0
LINE
  5
629
330
1E
100
AcDbEntity
  8
0
  6
Continuous
 62
     3
100
AcDbLine
 10
125.3749999999999
 20
246.695
 30
0.0
 11
124.575
 21
246.695
 31
0.0
  0
LINE
  5
62A
330
1E
100
AcDbEntity
  8
0
  6
Continuous
 62
     3
100
AcDbLine
 10
125.3749999999999
 20
247.2949999999999
 30
0.0
 11
125.3749999999999
 21
246.695
 31
0.0
  0
LINE
  5
62B
330
1E
100
AcDbEntity
  8
0
  6
Continuous
 62
     3
100
AcDbLine
 10
120.8749999999999
 20
242.0999999999999
 30
0.0
 11
122.375
 21
242.0999999999999
 31
0.0
  0
LINE
  5
62C
330
1E
100
AcDbEntity
  8
0
  6
Continuous
 62
     3
100
AcDbLine
 10
121.875
 20
242.695
 30
0.0
 11
122.375
 21
242.695
 31
0.0
  0
ARC
  5
62D
330
1E
100
AcDbEntity
  8
0
  6
Continuous
 62
     3
100
AcDbCircle
 10
121.875
 20
242.995
 30
0.0
 40
0.3
100
AcDbArc
 50
180.0
 51
270.0
  0
LINE
  5
62E
330
1E
100
AcDbEntity
  8
0
  6
Continuous
 62
     3
100
AcDbLine
 10
124.475
 20
242.695
 30
0.0
 11
123.9749999999999
 21
242.695
 31
0.0
  0
ARC
  5
62F
330
1E
100
AcDbEntity
  8
0
  6
Continuous
 62
     3
100
AcDbCircle
 10
124.475
 20
242.995
 30
0.0
 40
0.3
100
AcDbArc
 50
270.0
 51
0.0
  0
LINE
  5
630
330
1E
100
AcDbEntity
  8
0
  6
Continuous
 62
     3
100
AcDbLine
 10
121.575
 20
246.395
 30
0.0
 11
121.575
 21
242.995
 31
0.0
  0
LINE
  5
631
330
1E
100
AcDbEntity
  8
0
  6
Continuous
 62
     3
100
AcDbLine
 10
124.775
 20
242.995
 30
0.0
 11
124.775
 21
245.745
 31
0.0
  0
ARC
  5
632
330
1E
100
AcDbEntity
  8
0
  6
Continuous
 62
     3
100
AcDbCircle
 10
121.875
 20
246.395
 30
0.0
 40
0.3
100
AcDbArc
 50
111.8014094889999
 51
180.0
  0
ARC
  5
633
330
1E
100
AcDbEntity
  8
0
  6
Continuous
 62
     3
100
AcDbCircle
 10
124.475
 20
245.745
 30
0.0
 40
0.3
100
AcDbArc
 50
0.0
 51
68.19859052099999
  0
LINE
  5
634
330
1E
100
AcDbEntity
  8
0
  6
Continuous
 62
     3
100
AcDbLine
 10
123.9749999999999
 20
242.0999999999999
 30
0.0
 11
125.475
 21
242.0999999999999
 31
0.0
  0
LINE
  5
635
330
1E
100
AcDbEntity
  8
0
  6
Continuous
 62
     3
100
AcDbLine
 10
120.8749999999999
 20
247.395
 30
0.0
 11
120.8749999999999
 21
242.0999999999999
 31
0.0
  0
LINE
  5
636
330
1E
100
AcDbEntity
  8
0
  6
Continuous
 62
     3
100
AcDbLine
 10
125.475
 20
242.0999999999999
 30
0.0
 11
125.475
 21
247.395
 31
0.0
  0
LINE
  5
637
330
1E
100
AcDbEntity
  8
0
  6
Continuous
 62
     3
100
AcDbLine
 10
130.475
 20
247.395
 30
0.0
 11
125.875
 21
247.395
 31
0.0
  0
LINE
  5
638
330
1E
100
AcDbEntity
  8
0
  6
Continuous
 62
     3
100
AcDbLine
 10
128.9749999999999
 20
242.75
 30
0.0
 11
127.3749999999999
 21
242.75
 31
0.0
  0
LINE
  5
639
330
1E
100
AcDbEntity
  8
0
  6
Continuous
 62
     3
100
AcDbLine
 10
127.3749999999999
 20
242.75
 30
0.0
 11
127.3749999999999
 21
241.4
 31
0.0
  0
LINE
  5
63A
330
1E
100
AcDbEntity
  8
0
  6
Continuous
 62
     3
100
AcDbLine
 10
128.9749999999999
 20
241.4
 30
0.0
 11
128.9749999999999
 21
242.75
 31
0.0
  0
LINE
  5
63B
330
1E
100
AcDbEntity
  8
0
  6
Continuous
 62
     3
100
AcDbLine
 10
126.775
 20
247.2949999999999
 30
0.0
 11
126.775
 21
242.695
 31
0.0
  0
LINE
  5
63C
330
1E
100
AcDbEntity
  8
0
  6
Continuous
 62
     3
100
AcDbLine
 10
129.5749999999999
 20
247.2949999999999
 30
0.0
 11
129.5749999999999
 21
242.695
 31
0.0
  0
LINE
  5
63D
330
1E
100
AcDbEntity
  8
0
  6
Continuous
 62
     3
100
AcDbLine
 10
126.475
 20
247.2949999999999
 30
0.0
 11
130.3749999999999
 21
247.2949999999999
 31
0.0
  0
ARC
  5
63E
330
1E
100
AcDbEntity
  8
0
  6
Continuous
 62
     3
100
AcDbCircle
 10
126.475
 20
246.795
 30
0.0
 40
0.5
100
AcDbArc
 50
90.0
 51
180.0
  0
LINE
  5
63F
330
1E
100
AcDbEntity
  8
0
  6
Continuous
 62
     3
100
AcDbLine
 10
125.9749999999999
 20
246.795
 30
0.0
 11
125.9749999999999
 21
242.6
 31
0.0
  0
ARC
  5
640
330
1E
100
AcDbEntity
  8
0
  6
Continuous
 62
     3
100
AcDbCircle
 10
126.475
 20
242.6
 30
0.0
 40
0.5
100
AcDbArc
 50
180.0
 51
270.0
  0
ARC
  5
641
330
1E
100
AcDbEntity
  8
0
  6
Continuous
 62
     3
100
AcDbCircle
 10
129.875
 20
242.6
 30
0.0
 40
0.5
100
AcDbArc
 50
270.0
 51
0.0
  0
LINE
  5
642
330
1E
100
AcDbEntity
  8
0
  6
Continuous
 62
     3
100
AcDbLine
 10
130.3749999999999
 20
246.1949999999999
 30
0.0
 11
130.3749999999999
 21
242.6
 31
0.0
  0
ARC
  5
643
330
1E
100
AcDbEntity
  8
0
  6
Continuous
 62
     3
100
AcDbCircle
 10
129.875
 20
246.1949999999999
 30
0.0
 40
0.5
100
AcDbArc
 50
0.0
 51
90.0
  0
LINE
  5
644
330
1E
100
AcDbEntity
  8
0
  6
Continuous
 62
     3
100
AcDbLine
 10
130.3749999999999
 20
246.695
 30
0.0
 11
129.5749999999999
 21
246.695
 31
0.0
  0
LINE
  5
645
330
1E
100
AcDbEntity
  8
0
  6
Continuous
 62
     3
100
AcDbLine
 10
130.3749999999999
 20
247.2949999999999
 30
0.0
 11
130.3749999999999
 21
246.695
 31
0.0
  0
LINE
  5
646
330
1E
100
AcDbEntity
  8
0
  6
Continuous
 62
     3
100
AcDbLine
 10
125.875
 20
242.0999999999999
 30
0.0
 11
127.3749999999999
 21
242.0999999999999
 31
0.0
  0
LINE
  5
647
330
1E
100
AcDbEntity
  8
0
  6
Continuous
 62
     3
100
AcDbLine
 10
126.875
 20
242.695
 30
0.0
 11
127.3749999999999
 21
242.695
 31
0.0
  0
ARC
  5
648
330
1E
100
AcDbEntity
  8
0
  6
Continuous
 62
     3
100
AcDbCircle
 10
126.875
 20
242.995
 30
0.0
 40
0.3
100
AcDbArc
 50
180.0
 51
270.0
  0
LINE
  5
649
330
1E
100
AcDbEntity
  8
0
  6
Continuous
 62
     3
100
AcDbLine
 10
129.475
 20
242.695
 30
0.0
 11
128.9749999999999
 21
242.695
 31
0.0
  0
ARC
  5
64A
330
1E
100
AcDbEntity
  8
0
  6
Continuous
 62
     3
100
AcDbCircle
 10
129.475
 20
242.995
 30
0.0
 40
0.3
100
AcDbArc
 50
270.0
 51
0.0
  0
LINE
  5
64B
330
1E
100
AcDbEntity
  8
0
  6
Continuous
 62
     3
100
AcDbLine
 10
126.575
 20
246.395
 30
0.0
 11
126.575
 21
242.995
 31
0.0
  0
LINE
  5
64C
330
1E
100
AcDbEntity
  8
0
  6
Continuous
 62
     3
100
AcDbLine
 10
129.775
 20
242.995
 30
0.0
 11
129.775
 21
245.745
 31
0.0
  0
ARC
  5
64D
330
1E
100
AcDbEntity
  8
0
  6
Continuous
 62
     3
100
AcDbCircle
 10
126.875
 20
246.395
 30
0.0
 40
0.3
100
AcDbArc
 50
111.8014094889999
 51
180.0
  0
ARC
  5
64E
330
1E
100
AcDbEntity
  8
0
  6
Continuous
 62
     3
100
AcDbCircle
 10
129.475
 20
245.745
 30
0.0
 40
0.3
100
AcDbArc
 50
0.0
 51
68.19859052099999
  0
LINE
  5
64F
330
1E
100
AcDbEntity
  8
0
  6
Continuous
 62
     3
100
AcDbLine
 10
128.9749999999999
 20
242.0999999999999
 30
0.0
 11
130.475
 21
242.0999999999999
 31
0.0
  0
LINE
  5
650
330
1E
100
AcDbEntity
  8
0
  6
Continuous
 62
     3
100
AcDbLine
 10
125.875
 20
247.395
 30
0.0
 11
125.875
 21
242.0999999999999
 31
0.0
  0
LINE
  5
651
330
1E
100
AcDbEntity
  8
0
  6
Continuous
 62
     3
100
AcDbLine
 10
130.475
 20
242.0999999999999
 30
0.0
 11
130.475
 21
247.395
 31
0.0
  0
LINE
  5
652
330
1E
100
AcDbEntity
  8
0
  6
Continuous
 62
     3
100
AcDbLine
 10
135.4749999999999
 20
247.395
 30
0.0
 11
130.875
 21
247.395
 31
0.0
  0
LINE
  5
653
330
1E
100
AcDbEntity
  8
0
  6
Continuous
 62
     3
100
AcDbLine
 10
133.9749999999999
 20
242.75
 30
0.0
 11
132.3749999999999
 21
242.75
 31
0.0
  0
LINE
  5
654
330
1E
100
AcDbEntity
  8
0
  6
Continuous
 62
     3
100
AcDbLine
 10
132.3749999999999
 20
242.75
 30
0.0
 11
132.3749999999999
 21
241.4
 31
0.0
  0
LINE
  5
655
330
1E
100
AcDbEntity
  8
0
  6
Continuous
 62
     3
100
AcDbLine
 10
133.9749999999999
 20
241.4
 30
0.0
 11
133.9749999999999
 21
242.75
 31
0.0
  0
LINE
  5
656
330
1E
100
AcDbEntity
  8
0
  6
Continuous
 62
     3
100
AcDbLine
 10
131.7749999999996
 20
247.2949999999999
 30
0.0
 11
131.7749999999996
 21
242.695
 31
0.0
  0
LINE
  5
657
330
1E
100
AcDbEntity
  8
0
  6
Continuous
 62
     3
100
AcDbLine
 10
134.575
 20
247.2949999999999
 30
0.0
 11
134.575
 21
242.695
 31
0.0
  0
LINE
  5
658
330
1E
100
AcDbEntity
  8
0
  6
Continuous
 62
     3
100
AcDbLine
 10
131.4749999999999
 20
247.2949999999999
 30
0.0
 11
135.375
 21
247.2949999999999
 31
0.0
  0
ARC
  5
659
330
1E
100
AcDbEntity
  8
0
  6
Continuous
 62
     3
100
AcDbCircle
 10
131.4749999999999
 20
246.795
 30
0.0
 40
0.5
100
AcDbArc
 50
90.0
 51
180.0
  0
LINE
  5
65A
330
1E
100
AcDbEntity
  8
0
  6
Continuous
 62
     3
100
AcDbLine
 10
130.9749999999999
 20
246.795
 30
0.0
 11
130.9749999999999
 21
242.6
 31
0.0
  0
ARC
  5
65B
330
1E
100
AcDbEntity
  8
0
  6
Continuous
 62
     3
100
AcDbCircle
 10
131.4749999999999
 20
242.6
 30
0.0
 40
0.5
100
AcDbArc
 50
180.0
 51
270.0
  0
ARC
  5
65C
330
1E
100
AcDbEntity
  8
0
  6
Continuous
 62
     3
100
AcDbCircle
 10
134.875
 20
242.6
 30
0.0
 40
0.5
100
AcDbArc
 50
270.0
 51
0.0
  0
LINE
  5
65D
330
1E
100
AcDbEntity
  8
0
  6
Continuous
 62
     3
100
AcDbLine
 10
135.375
 20
246.1949999999999
 30
0.0
 11
135.375
 21
242.6
 31
0.0
  0
ARC
  5
65E
330
1E
100
AcDbEntity
  8
0
  6
Continuous
 62
     3
100
AcDbCircle
 10
134.875
 20
246.1949999999999
 30
0.0
 40
0.5
100
AcDbArc
 50
0.0
 51
90.0
  0
LINE
  5
65F
330
1E
100
AcDbEntity
  8
0
  6
Continuous
 62
     3
100
AcDbLine
 10
135.375
 20
246.695
 30
0.0
 11
134.575
 21
246.695
 31
0.0
  0
LINE
  5
660
330
1E
100
AcDbEntity
  8
0
  6
Continuous
 62
     3
100
AcDbLine
 10
135.375
 20
247.2949999999999
 30
0.0
 11
135.375
 21
246.695
 31
0.0
  0
LINE
  5
661
330
1E
100
AcDbEntity
  8
0
  6
Continuous
 62
     3
100
AcDbLine
 10
130.875
 20
242.0999999999999
 30
0.0
 11
132.3749999999999
 21
242.0999999999999
 31
0.0
  0
LINE
  5
662
330
1E
100
AcDbEntity
  8
0
  6
Continuous
 62
     3
100
AcDbLine
 10
131.875
 20
242.695
 30
0.0
 11
132.3749999999999
 21
242.695
 31
0.0
  0
ARC
  5
663
330
1E
100
AcDbEntity
  8
0
  6
Continuous
 62
     3
100
AcDbCircle
 10
131.875
 20
242.995
 30
0.0
 40
0.3
100
AcDbArc
 50
180.0
 51
270.0
  0
LINE
  5
664
330
1E
100
AcDbEntity
  8
0
  6
Continuous
 62
     3
100
AcDbLine
 10
134.4749999999999
 20
242.695
 30
0.0
 11
133.9749999999999
 21
242.695
 31
0.0
  0
ARC
  5
665
330
1E
100
AcDbEntity
  8
0
  6
Continuous
 62
     3
100
AcDbCircle
 10
134.4749999999999
 20
242.995
 30
0.0
 40
0.3
100
AcDbArc
 50
270.0
 51
0.0
  0
LINE
  5
666
330
1E
100
AcDbEntity
  8
0
  6
Continuous
 62
     3
100
AcDbLine
 10
131.5749999999999
 20
246.395
 30
0.0
 11
131.5749999999999
 21
242.995
 31
0.0
  0
LINE
  5
667
330
1E
100
AcDbEntity
  8
0
  6
Continuous
 62
     3
100
AcDbLine
 10
134.775
 20
242.995
 30
0.0
 11
134.775
 21
245.745
 31
0.0
  0
ARC
  5
668
330
1E
100
AcDbEntity
  8
0
  6
Continuous
 62
     3
100
AcDbCircle
 10
131.875
 20
246.395
 30
0.0
 40
0.3
100
AcDbArc
 50
111.8014094889999
 51
180.0
  0
ARC
  5
669
330
1E
100
AcDbEntity
  8
0
  6
Continuous
 62
     3
100
AcDbCircle
 10
134.4749999999999
 20
245.745
 30
0.0
 40
0.3
100
AcDbArc
 50
0.0
 51
68.19859052099999
  0
LINE
  5
66A
330
1E
100
AcDbEntity
  8
0
  6
Continuous
 62
     3
100
AcDbLine
 10
133.9749999999999
 20
242.0999999999999
 30
0.0
 11
135.4749999999999
 21
242.0999999999999
 31
0.0
  0
LINE
  5
66B
330
1E
100
AcDbEntity
  8
0
  6
Continuous
 62
     3
100
AcDbLine
 10
130.875
 20
247.395
 30
0.0
 11
130.875
 21
242.0999999999999
 31
0.0
  0
LINE
  5
66C
330
1E
100
AcDbEntity
  8
0
  6
Continuous
 62
     3
100
AcDbLine
 10
135.4749999999999
 20
242.0999999999999
 30
0.0
 11
135.4749999999999
 21
247.395
 31
0.0
  0
LINE
  5
66D
330
1E
100
AcDbEntity
  8
2
  6
Continuous
 62
     4
100
AcDbLine
 10
236.7914999999999
 20
236.2913
 30
0.0
 11
230.5515
 21
236.2913
 31
0.0
  0
LINE
  5
66E
330
1E
100
AcDbEntity
  8
2
  6
Continuous
 62
     4
100
AcDbLine
 10
232.1115
 20
236.2913
 30
0.0
 11
232.5152577099999
 21
237.798144289
 31
0.0
  0
LINE
  5
66F
330
1E
100
AcDbEntity
  8
2
  6
Continuous
 62
     4
100
AcDbLine
 10
232.1115
 20
236.2913
 30
0.0
 11
231.70774229
 21
237.798144289
 31
0.0
  0
LINE
  5
670
330
1E
100
AcDbEntity
  8
2
  6
Continuous
 62
     4
100
AcDbLine
 10
232.1115
 20
247.9912999999999
 30
0.0
 11
232.1115
 21
236.2913
 31
0.0
  0
LINE
  5
671
330
1E
100
AcDbEntity
  8
2
  6
Continuous
 62
     3
100
AcDbLine
 10
236.7914999999999
 20
247.9912999999999
 30
0.0
 11
230.5515
 21
247.9912999999999
 31
0.0
  0
LINE
  5
672
330
1E
100
AcDbEntity
  8
2
  6
Continuous
 62
     4
100
AcDbLine
 10
232.1115
 20
247.9912999999999
 30
0.0
 11
231.70774229
 21
246.4844557109996
 31
0.0
  0
LINE
  5
673
330
1E
100
AcDbEntity
  8
2
  6
Continuous
 62
     4
100
AcDbLine
 10
232.1115
 20
247.9912999999999
 30
0.0
 11
232.5152577099999
 21
246.4844557109996
 31
0.0
  0
LINE
  5
674
330
1E
100
AcDbEntity
  8
2
  6
Continuous
 62
     4
100
AcDbLine
 10
233.8274999999999
 20
242.1413
 30
0.0
 11
246.5259
 21
242.1413
 31
0.0
  0
LINE
  5
675
330
1E
100
AcDbEntity
  8
2
  6
Continuous
 62
     4
100
AcDbLine
 10
249.2715
 20
243.6077
 30
0.0
 11
249.2715
 21
240.0977
 31
0.0
  0
LINE
  5
676
330
1E
100
AcDbEntity
  8
2
  6
Continuous
 62
     4
100
AcDbLine
 10
247.6958999999999
 20
242.1413
 30
0.0
 11
251.2059
 21
242.1413
 31
0.0
  0
LINE
  5
677
330
1E
100
AcDbEntity
  8
2
  6
Continuous
 62
     4
100
AcDbLine
 10
252.3759
 20
242.1413
 30
0.0
 11
277.7259
 21
242.1413
 31
0.0
  0
LINE
  5
678
330
1E
100
AcDbEntity
  8
2
  6
Continuous
 62
     4
100
AcDbLine
 10
249.2715
 20
238.9276999999999
 30
0.0
 11
249.2715
 21
228.0076999999999
 31
0.0
  0
LINE
  5
679
330
1E
100
AcDbEntity
  8
2
  6
Continuous
 62
     4
100
AcDbLine
 10
237.5715
 20
232.0012999999999
 30
0.0
 11
239.078344289
 21
231.59754229
 31
0.0
  0
LINE
  5
67A
330
1E
100
AcDbEntity
  8
2
  6
Continuous
 62
     4
100
AcDbLine
 10
237.5715
 20
232.0012999999999
 30
0.0
 11
260.9715
 21
232.0012999999999
 31
0.0
  0
LINE
  5
67B
330
1E
100
AcDbEntity
  8
2
  6
Continuous
 62
     4
100
AcDbLine
 10
237.5715
 20
232.0012999999999
 30
0.0
 11
239.078344289
 21
232.4050577099999
 31
0.0
  0
LINE
  5
67C
330
1E
100
AcDbEntity
  8
2
  6
Continuous
 62
     4
100
AcDbLine
 10
237.5715
 20
235.5113
 30
0.0
 11
237.5715
 21
231.2213
 31
0.0
  0
LINE
  5
67D
330
1E
100
AcDbEntity
  8
2
  6
Continuous
 62
     4
100
AcDbLine
 10
260.9715
 20
232.0012999999999
 30
0.0
 11
259.4646557109999
 21
232.4050577099999
 31
0.0
  0
LINE
  5
67E
330
1E
100
AcDbEntity
  8
2
  6
Continuous
 62
     4
100
AcDbLine
 10
260.9715
 20
232.0012999999999
 30
0.0
 11
259.4646557109999
 21
231.59754229
 31
0.0
  0
LINE
  5
67F
330
1E
100
AcDbEntity
  8
2
  6
Continuous
 62
     4
100
AcDbLine
 10
260.9715
 20
235.5113
 30
0.0
 11
260.9715
 21
231.2213
 31
0.0
  0
LINE
  5
680
330
1E
100
AcDbEntity
  8
2
  6
Continuous
 62
     4
100
AcDbLine
 10
252.7658999999999
 20
224.2013
 30
0.0
 11
275.4404999999999
 21
224.2013
 31
0.0
  0
LINE
  5
681
330
1E
100
AcDbEntity
  8
2
  6
Continuous
 62
     4
100
AcDbLine
 10
247.3059
 20
224.2013
 30
0.0
 11
251.5959
 21
224.2013
 31
0.0
  0
LINE
  5
682
330
1E
100
AcDbEntity
  8
2
  6
Continuous
 62
     4
100
AcDbLine
 10
249.2715
 20
226.8377
 30
0.0
 11
249.2715
 21
222.1576999999999
 31
0.0
  0
LINE
  5
683
330
1E
100
AcDbEntity
  8
2
  6
Continuous
 62
     4
100
AcDbLine
 10
233.7339
 20
224.2013
 30
0.0
 11
246.1358999999999
 21
224.2013
 31
0.0
  0
LINE
  5
684
330
1E
100
AcDbEntity
  8
2
  6
Continuous
 62
     4
100
AcDbLine
 10
249.2715
 20
220.9877
 30
0.0
 11
249.2715
 21
208.1332999999999
 31
0.0
  0
LINE
  5
685
330
1E
100
AcDbEntity
  8
2
  6
Continuous
 62
     4
100
AcDbLine
 10
249.2715
 20
209.6932999999999
 30
0.0
 11
250.778344289
 21
209.28954229
 31
0.0
  0
LINE
  5
686
330
1E
100
AcDbEntity
  8
2
  6
Continuous
 62
     4
100
AcDbLine
 10
249.2715
 20
209.6932999999999
 30
0.0
 11
250.778344289
 21
210.09705771
 31
0.0
  0
LINE
  5
687
330
1E
100
AcDbEntity
  8
2
  6
Continuous
 62
     4
100
AcDbLine
 10
280.4714999999999
 20
209.6932999999999
 30
0.0
 11
278.9646557109999
 21
209.28954229
 31
0.0
  0
LINE
  5
688
330
1E
100
AcDbEntity
  8
2
  6
Continuous
 62
     4
100
AcDbLine
 10
280.4714999999999
 20
209.6932999999999
 30
0.0
 11
278.9646557109999
 21
210.09705771
 31
0.0
  0
LINE
  5
689
330
1E
100
AcDbEntity
  8
2
  6
Continuous
 62
     4
100
AcDbLine
 10
280.4714999999999
 20
221.3776999999999
 30
0.0
 11
280.4714999999999
 21
208.1332999999999
 31
0.0
  0
LINE
  5
68A
330
1E
100
AcDbEntity
  8
2
  6
Continuous
 62
     4
100
AcDbLine
 10
280.4714999999999
 20
209.6932999999999
 30
0.0
 11
249.2715
 21
209.6932999999999
 31
0.0
  0
LINE
  5
68B
330
1E
100
AcDbEntity
  8
2
  6
Continuous
 62
     4
100
AcDbLine
 10
277.0004999999999
 20
224.2013
 30
0.0
 11
284.8005
 21
224.2013
 31
0.0
  0
LINE
  5
68C
330
1E
100
AcDbEntity
  8
2
  6
Continuous
 62
     4
100
AcDbLine
 10
280.4714999999999
 20
226.0577
 30
0.0
 11
280.4714999999999
 21
222.5477
 31
0.0
  0
LINE
  5
68D
330
1E
100
AcDbEntity
  8
2
  6
Continuous
 62
     4
100
AcDbLine
 10
280.4714999999999
 20
239.4737
 30
0.0
 11
280.4714999999999
 21
227.2276999999998
 31
0.0
  0
LINE
  5
68E
330
1E
100
AcDbEntity
  8
2
  6
Continuous
 62
     4
100
AcDbLine
 10
280.4714999999999
 20
244.9336999999999
 30
0.0
 11
280.4714999999999
 21
240.5657
 31
0.0
  0
LINE
  5
68F
330
1E
100
AcDbEntity
  8
2
  6
Continuous
 62
     4
100
AcDbLine
 10
278.8958999999999
 20
242.1413
 30
0.0
 11
283.1859
 21
242.1413
 31
0.0
  0
LINE
  5
690
330
1E
100
AcDbEntity
  8
1
  6
Continuous
 62
     4
100
AcDbLine
 10
52.575
 20
114.9
 30
0.0
 11
37.15999999999999
 21
114.9
 31
0.0
  0
LINE
  5
691
330
1E
100
AcDbEntity
  8
1
  6
Continuous
 62
     4
100
AcDbLine
 10
38.15999999999997
 20
114.9
 30
0.0
 11
38.67763809
 21
116.8318516529998
 31
0.0
  0
LINE
  5
692
330
1E
100
AcDbEntity
  8
1
  6
Continuous
 62
     4
100
AcDbLine
 10
38.15999999999997
 20
114.9
 30
0.0
 11
37.64236191
 21
116.8318516529998
 31
0.0
  0
LINE
  5
693
330
1E
100
AcDbEntity
  8
1
  6
Continuous
 62
     4
100
AcDbLine
 10
38.15999999999997
 20
114.9
 30
0.0
 11
38.15999999999997
 21
259.0249999999999
 31
0.0
  0
LINE
  5
694
330
1E
100
AcDbEntity
  8
1
  6
Continuous
 62
     4
100
AcDbLine
 10
38.15999999999997
 20
259.0249999999999
 30
0.0
 11
37.64236191
 21
257.093148347
 31
0.0
  0
LINE
  5
695
330
1E
100
AcDbEntity
  8
1
  6
Continuous
 62
     4
100
AcDbLine
 10
38.15999999999997
 20
259.0249999999999
 30
0.0
 11
38.67763809
 21
257.093148347
 31
0.0
  0
LINE
  5
696
330
1E
100
AcDbEntity
  8
1
  6
Continuous
 62
     4
100
AcDbLine
 10
54.575
 20
259.0249999999999
 30
0.0
 11
37.15999999999999
 21
259.0249999999999
 31
0.0
  0
LINE
  5
697
330
1E
100
AcDbEntity
  8
1
  6
Continuous
 62
     4
100
AcDbLine
 10
52.325
 20
121.4
 30
0.0
 11
44.66
 21
121.4
 31
0.0
  0
LINE
  5
698
330
1E
100
AcDbEntity
  8
1
  6
Continuous
 62
     4
100
AcDbLine
 10
45.65999999999998
 20
121.4
 30
0.0
 11
46.17763809
 21
123.3318516529999
 31
0.0
  0
LINE
  5
699
330
1E
100
AcDbEntity
  8
1
  6
Continuous
 62
     4
100
AcDbLine
 10
45.65999999999998
 20
121.4
 30
0.0
 11
45.14236191
 21
123.3318516529999
 31
0.0
  0
LINE
  5
69A
330
1E
100
AcDbEntity
  8
1
  6
Continuous
 62
     4
100
AcDbLine
 10
45.65999999999998
 20
126.0999999999999
 30
0.0
 11
45.65999999999998
 21
121.4
 31
0.0
  0
LINE
  5
69B
330
1E
100
AcDbEntity
  8
1
  6
Continuous
 62
     4
100
AcDbLine
 10
45.65999999999998
 20
121.4
 30
0.0
 11
45.65999999999998
 21
114.9
 31
0.0
  0
LINE
  5
69C
330
1E
100
AcDbEntity
  8
1
  6
Continuous
 62
     4
100
AcDbLine
 10
45.65999999999998
 20
114.9
 30
0.0
 11
45.65999999999998
 21
111.8999999999999
 31
0.0
  0
LINE
  5
69D
330
1E
100
AcDbEntity
  8
1
  6
Continuous
 62
     4
100
AcDbLine
 10
45.65999999999998
 20
114.9
 30
0.0
 11
45.14236191
 21
112.968148347
 31
0.0
  0
LINE
  5
69E
330
1E
100
AcDbEntity
  8
1
  6
Continuous
 62
     4
100
AcDbLine
 10
45.65999999999998
 20
114.9
 30
0.0
 11
46.17763809
 21
112.968148347
 31
0.0
  0
LINE
  5
69F
330
1E
100
AcDbEntity
  8
1
  6
Continuous
 62
     4
100
AcDbLine
 10
45.325
 20
114.9
 30
0.0
 11
44.66
 21
114.9
 31
0.0
  0
LINE
  5
6A3
330
1E
100
AcDbEntity
  8
0
  6
Continuous
 62
     4
100
AcDbLine
 10
45.78380585399999
 20
106.0
 30
0.0
 11
47.71565750699997
 21
106.51763809
 31
0.0
  0
LINE
  5
6A4
330
1E
100
AcDbEntity
  8
0
  6
Continuous
 62
     4
100
AcDbLine
 10
54.42499999999999
 20
120.9669872979999
 30
0.0
 11
45.28380585399999
 21
105.133974596
 31
0.0
  0
LINE
  5
6A5
330
1E
100
AcDbEntity
  8
0
  6
Continuous
 62
     4
100
AcDbLine
 10
146.425
 20
120.9669872979999
 30
0.0
 11
137.283805854
 21
105.133974596
 31
0.0
  0
LINE
  5
6A6
330
1E
100
AcDbEntity
  8
0
  6
Continuous
 62
     4
100
AcDbLine
 10
137.783805854
 20
106.0
 30
0.0
 11
135.851954202
 21
106.51763809
 31
0.0
  0
LINE
  5
6AD
330
1E
100
AcDbEntity
  8
0
  6
Continuous
 62
     4
100
AcDbLine
 10
137.783805854
 20
106.0
 30
0.0
 11
45.78380585399999
 21
106.0
 31
0.0
  0
LINE
  5
6AE
330
1E
100
AcDbEntity
  8
0
  6
Continuous
 62
     4
100
AcDbLine
 10
45.78380585399999
 20
106.0
 30
0.0
 11
47.71565750699997
 21
105.4823619099999
 31
0.0
  0
LINE
  5
6AF
330
1E
100
AcDbEntity
  8
0
  6
Continuous
 62
     4
100
AcDbLine
 10
137.783805854
 20
106.0
 30
0.0
 11
135.851954202
 21
105.4823619099999
 31
0.0
  0
LINE
  5
6B2
330
1E
100
AcDbEntity
  8
1
  6
Continuous
 62
     4
100
AcDbLine
 10
54.92499999999999
 20
273.2749999999999
 30
0.0
 11
56.856851653
 21
272.7573619099999
 31
0.0
  0
LINE
  5
6B3
330
1E
100
AcDbEntity
  8
1
  6
Continuous
 62
     4
100
AcDbLine
 10
54.92499999999999
 20
273.2749999999999
 30
0.0
 11
56.856851653
 21
273.79263809
 31
0.0
  0
LINE
  5
6B4
330
1E
100
AcDbEntity
  8
1
  6
Continuous
 62
     4
100
AcDbLine
 10
54.92499999999999
 20
273.2749999999999
 30
0.0
 11
146.425
 21
273.2749999999999
 31
0.0
  0
LINE
  5
6B5
330
1E
100
AcDbEntity
  8
1
  6
Continuous
 62
     4
100
AcDbLine
 10
146.425
 20
273.2749999999999
 30
0.0
 11
144.493148347
 21
273.79263809
 31
0.0
  0
LINE
  5
6B6
330
1E
100
AcDbEntity
  8
1
  6
Continuous
 62
     4
100
AcDbLine
 10
146.425
 20
273.2749999999999
 30
0.0
 11
144.493148347
 21
272.7573619099999
 31
0.0
  0
LINE
  5
6B7
330
1E
100
AcDbEntity
  8
1
  6
Continuous
 62
     4
100
AcDbLine
 10
54.92499999999999
 20
259.375
 30
0.0
 11
54.92499999999999
 21
274.275
 31
0.0
  0
LINE
  5
6B8
330
1E
100
AcDbEntity
  8
1
  6
Continuous
 62
     4
100
AcDbLine
 10
146.425
 20
259.375
 30
0.0
 11
146.425
 21
274.275
 31
0.0
  0
LINE
  5
6BA
330
1E
100
AcDbEntity
  8
1
  6
Continuous
 62
     4
100
AcDbLine
 10
159.66
 20
114.4
 30
0.0
 11
160.1776380899998
 21
116.3318516529999
 31
0.0
  0
LINE
  5
6BB
330
1E
100
AcDbEntity
  8
1
  6
Continuous
 62
     4
100
AcDbLine
 10
159.66
 20
114.4
 30
0.0
 11
159.14236191
 21
116.3318516529999
 31
0.0
  0
LINE
  5
6BC
330
1E
100
AcDbEntity
  8
1
  6
Continuous
 62
     4
100
AcDbLine
 10
169.775
 20
114.4
 30
0.0
 11
158.6599999999999
 21
114.4
 31
0.0
  0
LINE
  5
6BD
330
1E
100
AcDbEntity
  8
1
  6
Continuous
 62
     4
100
AcDbLine
 10
171.375
 20
121.0499999999999
 30
0.0
 11
171.375
 21
99.90000000000001
 31
0.0
  0
LINE
  5
6BE
330
1E
100
AcDbEntity
  8
1
  6
Continuous
 62
     4
100
AcDbLine
 10
216.3749999999999
 20
121.0499999999999
 30
0.0
 11
216.3749999999999
 21
99.90000000000001
 31
0.0
  0
LINE
  5
6BF
330
1E
100
AcDbEntity
  8
1
  6
Continuous
 62
     3
100
AcDbLine
 10
216.725
 20
241.4
 30
0.0
 11
225.875
 21
241.4
 31
0.0
  0
LINE
  5
6C0
330
1E
100
AcDbEntity
  8
1
  6
Continuous
 62
     4
100
AcDbLine
 10
224.875
 20
241.4
 30
0.0
 11
224.35736191
 21
239.468148347
 31
0.0
  0
LINE
  5
6C1
330
1E
100
AcDbEntity
  8
1
  6
Continuous
 62
     4
100
AcDbLine
 10
224.875
 20
241.4
 30
0.0
 11
225.3926380899999
 21
239.468148347
 31
0.0
  0
LINE
  5
6C2
330
1E
100
AcDbEntity
  8
1
  6
Continuous
 62
     4
100
AcDbLine
 10
224.875
 20
241.4
 30
0.0
 11
224.875
 21
114.4
 31
0.0
  0
LINE
  5
6C3
330
1E
100
AcDbEntity
  8
1
  6
Continuous
 62
     4
100
AcDbLine
 10
224.875
 20
114.4
 30
0.0
 11
225.3926380899999
 21
116.3318516529999
 31
0.0
  0
LINE
  5
6C4
330
1E
100
AcDbEntity
  8
1
  6
Continuous
 62
     4
100
AcDbLine
 10
224.875
 20
114.4
 30
0.0
 11
224.35736191
 21
116.3318516529999
 31
0.0
  0
LINE
  5
6C5
330
1E
100
AcDbEntity
  8
1
  6
Continuous
 62
     4
100
AcDbLine
 10
217.9749999999999
 20
114.4
 30
0.0
 11
225.875
 21
114.4
 31
0.0
  0
LINE
  5
6C6
330
1E
100
AcDbEntity
  8
1
  6
Continuous
 62
     4
100
AcDbLine
 10
169.525
 20
121.4
 30
0.0
 11
163.375
 21
121.4
 31
0.0
  0
LINE
  5
6C7
330
1E
100
AcDbEntity
  8
1
  6
Continuous
 62
     4
100
AcDbLine
 10
164.375
 20
121.4
 30
0.0
 11
164.8926380899998
 21
123.3318516529999
 31
0.0
  0
LINE
  5
6C8
330
1E
100
AcDbEntity
  8
1
  6
Continuous
 62
     4
100
AcDbLine
 10
164.375
 20
121.4
 30
0.0
 11
163.85736191
 21
123.3318516529999
 31
0.0
  0
LINE
  5
6C9
330
1E
100
AcDbEntity
  8
1
  6
Continuous
 62
     4
100
AcDbLine
 10
164.375
 20
121.4
 30
0.0
 11
164.375
 21
114.4
 31
0.0
  0
LINE
  5
6CA
330
1E
100
AcDbEntity
  8
1
  6
Continuous
 62
     4
100
AcDbLine
 10
164.375
 20
114.4
 30
0.0
 11
164.375
 21
111.4
 31
0.0
  0
LINE
  5
6CB
330
1E
100
AcDbEntity
  8
1
  6
Continuous
 62
     4
100
AcDbLine
 10
164.375
 20
114.4
 30
0.0
 11
163.85736191
 21
112.468148347
 31
0.0
  0
LINE
  5
6CC
330
1E
100
AcDbEntity
  8
1
  6
Continuous
 62
     4
100
AcDbLine
 10
164.375
 20
114.4
 30
0.0
 11
164.8926380899998
 21
112.468148347
 31
0.0
  0
LINE
  5
6CD
330
1E
100
AcDbEntity
  8
1
  6
Continuous
 62
     4
100
AcDbLine
 10
164.7249999999999
 20
114.4
 30
0.0
 11
165.375
 21
114.4
 31
0.0
  0
LINE
  5
6CE
330
1E
100
AcDbEntity
  8
1
  6
Continuous
 62
     4
100
AcDbLine
 10
164.375
 20
124.9
 30
0.0
 11
164.375
 21
121.4
 31
0.0
  0
LINE
  5
6CF
330
1E
100
AcDbEntity
  8
1
  6
Continuous
 62
     4
100
AcDbLine
 10
202.625002697
 20
259.0249999999999
 30
0.0
 11
158.6599999999999
 21
259.0249999999999
 31
0.0
  0
LINE
  5
6D0
330
1E
100
AcDbEntity
  8
1
  6
Continuous
 62
     4
100
AcDbLine
 10
159.66
 20
259.0249999999999
 30
0.0
 11
159.14236191
 21
257.093148347
 31
0.0
  0
LINE
  5
6D1
330
1E
100
AcDbEntity
  8
1
  6
Continuous
 62
     4
100
AcDbLine
 10
159.66
 20
259.0249999999999
 30
0.0
 11
160.1776380899998
 21
257.093148347
 31
0.0
  0
LINE
  5
6D2
330
1E
100
AcDbEntity
  8
1
  6
Continuous
 62
     4
100
AcDbLine
 10
159.66
 20
259.0249999999999
 30
0.0
 11
159.66
 21
114.4
 31
0.0
  0
LINE
  5
6D3
330
1E
100
AcDbEntity
  8
1
  6
Continuous
 62
     4
100
AcDbLine
 10
171.375
 20
100.9
 30
0.0
 11
216.3749999999999
 21
100.9
 31
0.0
  0
LINE
  5
6D4
330
1E
100
AcDbEntity
  8
1
  6
Continuous
 62
     4
100
AcDbLine
 10
216.3749999999999
 20
100.9
 30
0.0
 11
214.443148347
 21
101.4176380899999
 31
0.0
  0
LINE
  5
6D5
330
1E
100
AcDbEntity
  8
1
  6
Continuous
 62
     4
100
AcDbLine
 10
216.3749999999999
 20
100.9
 30
0.0
 11
214.443148347
 21
100.38236191
 31
0.0
  0
LINE
  5
6D6
330
1E
100
AcDbEntity
  8
1
  6
Continuous
 62
     4
100
AcDbLine
 10
171.375
 20
100.9
 30
0.0
 11
173.3068516529999
 21
100.38236191
 31
0.0
  0
LINE
  5
6D7
330
1E
100
AcDbEntity
  8
1
  6
Continuous
 62
     4
100
AcDbLine
 10
171.375
 20
100.9
 30
0.0
 11
173.3068516529999
 21
101.4176380899999
 31
0.0
  0
LINE
  5
6DA
330
1E
100
AcDbEntity
  8
0
  6
Continuous
 62
     4
100
AcDbLine
 10
38.26
 20
99.32
 30
0.0
 11
38.26
 21
51.32
 31
0.0
  0
LINE
  5
6DB
330
1E
100
AcDbEntity
  8
0
  6
Continuous
 62
     4
100
AcDbLine
 10
52.56
 20
99.32
 30
0.0
 11
37.25999999999999
 21
99.32
 31
0.0
  0
LINE
  5
6DC
330
1E
100
AcDbEntity
  8
0
  6
Continuous
 62
     4
100
AcDbLine
 10
38.26
 20
99.32
 30
0.0
 11
37.74236190999999
 21
97.38814834700001
 31
0.0
  0
LINE
  5
6DD
330
1E
100
AcDbEntity
  8
0
  6
Continuous
 62
     4
100
AcDbLine
 10
38.26
 20
99.32
 30
0.0
 11
38.77763809
 21
97.38814834700001
 31
0.0
  0
LINE
  5
6E5
330
1E
100
AcDbEntity
  8
0
  6
Continuous
 62
     4
100
AcDbLine
 10
52.75999999999999
 20
51.32
 30
0.0
 11
37.25999999999999
 21
51.32
 31
0.0
  0
LINE
  5
6E6
330
1E
100
AcDbEntity
  8
0
  6
Continuous
 62
     4
100
AcDbLine
 10
38.26
 20
51.32
 30
0.0
 11
38.77763809
 21
53.251851653
 31
0.0
  0
LINE
  5
6E7
330
1E
100
AcDbEntity
  8
0
  6
Continuous
 62
     4
100
AcDbLine
 10
38.26
 20
51.32
 30
0.0
 11
37.74236190999999
 21
53.251851653
 31
0.0
  0
LINE
  5
6EE
330
1E
100
AcDbEntity
  8
0
  6
Continuous
 62
     4
100
AcDbLine
 10
52.75999999999999
 20
51.42
 30
0.0
 11
52.75999999999999
 21
42.72
 31
0.0
  0
LINE
  5
6EF
330
1E
100
AcDbEntity
  8
0
  6
Continuous
 62
     4
100
AcDbLine
 10
52.75999999999999
 20
43.71999999999998
 30
0.0
 11
54.691851653
 21
43.20236191
 31
0.0
  0
LINE
  5
6F0
330
1E
100
AcDbEntity
  8
0
  6
Continuous
 62
     4
100
AcDbLine
 10
52.75999999999999
 20
43.71999999999998
 30
0.0
 11
54.691851653
 21
44.23763808999999
 31
0.0
  0
LINE
  5
6F1
330
1E
100
AcDbEntity
  8
0
  6
Continuous
 62
     4
100
AcDbLine
 10
52.75999999999999
 20
43.71999999999998
 30
0.0
 11
148.76
 21
43.71999999999998
 31
0.0
  0
LINE
  5
6F7
330
1E
100
AcDbEntity
  8
0
  6
Continuous
 62
     4
100
AcDbLine
 10
148.76
 20
43.71999999999998
 30
0.0
 11
146.828148347
 21
44.23763808999999
 31
0.0
  0
LINE
  5
6F8
330
1E
100
AcDbEntity
  8
0
  6
Continuous
 62
     4
100
AcDbLine
 10
148.76
 20
43.71999999999998
 30
0.0
 11
146.828148347
 21
43.20236191
 31
0.0
  0
LINE
  5
6F9
330
1E
100
AcDbEntity
  8
0
  6
Continuous
 62
     4
100
AcDbLine
 10
148.76
 20
51.82
 30
0.0
 11
148.76
 21
42.72
 31
0.0
  0
LINE
  5
719
330
1E
100
AcDbEntity
  8
0
  6
Continuous
 62
     4
100
AcDbLine
 10
217.375
 20
241.4
 30
0.0
 11
225.8249999999999
 21
241.4
 31
0.0
  0
LINE
  5
71A
330
1E
100
AcDbEntity
  8
0
  6
Continuous
 62
     4
100
AcDbLine
 10
197.8249999999999
 20
266.5249999999999
 30
0.0
 11
225.8249999999999
 21
266.5249999999999
 31
0.0
  0
LINE
  5
71B
330
1E
100
AcDbEntity
  8
0
  6
Continuous
 62
     4
100
AcDbLine
 10
224.875
 20
241.4
 30
0.0
 11
225.5220476129999
 21
243.814814566
 31
0.0
  0
LINE
  5
71C
330
1E
100
AcDbEntity
  8
0
  6
Continuous
 62
     4
100
AcDbLine
 10
224.875
 20
241.4
 30
0.0
 11
224.227952387
 21
243.814814566
 31
0.0
  0
LINE
  5
71D
330
1E
100
AcDbEntity
  8
0
  6
Continuous
 62
     4
100
AcDbLine
 10
224.875
 20
241.4
 30
0.0
 11
224.875
 21
266.5249999999999
 31
0.0
  0
LINE
  5
71E
330
1E
100
AcDbEntity
  8
0
  6
Continuous
 62
     4
100
AcDbLine
 10
224.875
 20
266.5249999999999
 30
0.0
 11
224.227952387
 21
264.1101854339999
 31
0.0
  0
LINE
  5
71F
330
1E
100
AcDbEntity
  8
0
  6
Continuous
 62
     4
100
AcDbLine
 10
224.875
 20
266.5249999999999
 30
0.0
 11
225.5220476129999
 21
264.1101854339999
 31
0.0
  0
TEXT
  5
720
330
1E
100
AcDbEntity
  8
1
  6
Continuous
 62
     4
100
AcDbText
 10
98.975
 20
274.275
 30
0.0
 40
2.0
  1
９２
 41
0.85
  7
KANJI4
100
AcDbText
  0
TEXT
  5
721
330
1E
100
AcDbEntity
  8
1
  6
Continuous
 62
     4
100
AcDbText
 10
37.15999999999999
 20
184.4125
 30
0.0
 40
2.0
  1
１４４
 50
90.0
 41
0.85
  7
KANJI4
100
AcDbText
  0
TEXT
  5
722
330
1E
100
AcDbEntity
  8
0
  6
Continuous
 62
     4
100
AcDbText
 10
94.98380585399999
 20
107.0
 30
0.0
 40
2.0
  1
９２
 41
0.9
  7
KANJI0
100
AcDbText
  0
TEXT
  5
723
330
1E
100
AcDbEntity
  8
1
  6
Continuous
 62
     4
100
AcDbText
 10
44.66
 20
124.3999999999999
 30
0.0
 40
2.0
  1
７
 50
90.0
 41
0.85
  7
KANJI4
100
AcDbText
  0
TEXT
  5
724
330
1E
100
AcDbEntity
  8
0
  6
Continuous
 62
     4
100
AcDbText
 10
37.25999999999999
 20
73.52
 30
0.0
 40
2.0
  1
４８
 50
90.0
 41
0.9
  7
KANJI0
100
AcDbText
  0
TEXT
  5
726
330
1E
100
AcDbEntity
  8
0
  6
Continuous
 62
     4
100
AcDbText
 10
98.96
 20
40.72
 30
0.0
 40
2.0
  1
９６
 41
0.9
  7
KANJI0
100
AcDbText
  0
TEXT
  5
727
330
1E
100
AcDbEntity
  8
0
  6
Continuous
 62
     4
100
AcDbText
 10
82.475
 20
178.15
 30
0.0
 40
2.5
  1
角孔
 41
0.9
  7
KANJI5
100
AcDbText
  0
TEXT
  5
72E
330
1E
100
AcDbEntity
  8
1
  6
Continuous
 62
     4
100
AcDbText
 10
158.6599999999999
 20
182.5625
 30
0.0
 40
2.0
  1
１４４
 50
90.0
 41
0.85
  7
KANJI4
100
AcDbText
  0
TEXT
  5
72F
330
1E
100
AcDbEntity
  8
1
  6
Continuous
 62
     4
100
AcDbText
 10
223.875
 20
175.35
 30
0.0
 40
2.0
  1
１２７
 50
90.0
 41
0.85
  7
KANJI4
100
AcDbText
  0
TEXT
  5
730
330
1E
100
AcDbEntity
  8
0
  6
Continuous
 62
     4
100
AcDbText
 10
223.8249999999999
 20
251.9124999999999
 30
0.1
 40
2.0
  1
２５
 50
90.0
 41
0.85
  7
KANJI9
100
AcDbText
  0
TEXT
  5
731
330
1E
100
AcDbEntity
  8
1
  6
Continuous
 62
     4
100
AcDbText
 10
163.375
 20
116.9
 30
0.0
 40
2.0
  1
７
 50
90.0
 41
0.85
  7
KANJI4
100
AcDbText
  0
TEXT
  5
732
330
1E
100
AcDbEntity
  8
1
  6
Continuous
 62
     4
100
AcDbText
 10
192.175
 20
101.9
 30
0.0
 40
2.0
  1
４５
 41
0.85
  7
KANJI4
100
AcDbText
  0
TEXT
  5
735
330
1E
100
AcDbEntity
  8
2
  6
Continuous
 62
     4
100
AcDbText
 10
245.9565
 20
233.0153
 30
0.078
 40
1.794
  1
９２
 41
0.739130435
  7
KANJI10
100
AcDbText
  0
TEXT
  5
738
330
1E
100
AcDbEntity
  8
2
  6
Continuous
 62
     4
100
AcDbText
 10
230.7854999999999
 20
238.7483
 30
0.078
 40
1.794
  1
４５
 50
90.0
 41
0.739130435
  7
KANJI10
100
AcDbText
  0
LINE
  5
740
330
1E
100
AcDbEntity
  8
0
  6
LTYPE1
 62
     3
100
AcDbLine
 10
131.6858695649999
 20
241.5249999999999
 30
0.0
 11
129.175
 21
252.025
 31
0.0
  0
LINE
  5
741
330
1E
100
AcDbEntity
  8
0
  6
LTYPE1
 62
     3
100
AcDbLine
 10
72.175
 20
252.025
 30
0.0
 11
100.675
 21
252.025
 31
0.0
  0
LINE
  5
742
330
1E
100
AcDbEntity
  8
0
  6
LTYPE1
 62
     3
100
AcDbLine
 10
69.66413043500001
 20
241.5249999999999
 30
0.0
 11
72.175
 21
252.025
 31
0.0
  0
LINE
  5
743
330
1E
100
AcDbEntity
  8
0
  6
LTYPE1
 62
     3
100
AcDbLine
 10
100.675
 20
183.3999999999999
 30
0.0
 11
80.675
 21
183.3999999999999
 31
0.0
  0
ARC
  5
744
330
1E
100
AcDbEntity
  8
0
  6
LTYPE1
 62
     3
100
AcDbCircle
 10
80.675
 20
182.4
 30
0.0
 40
1.0
100
AcDbArc
 50
90.0
 51
180.0
  0
LINE
  5
745
330
1E
100
AcDbEntity
  8
0
  6
LTYPE1
 62
     3
100
AcDbLine
 10
79.675
 20
182.4
 30
0.0
 11
79.675
 21
171.4
 31
0.0
  0
LINE
  5
746
330
1E
100
AcDbEntity
  8
0
  6
LTYPE1
 62
     3
100
AcDbLine
 10
80.675
 20
170.4
 30
0.0
 11
100.675
 21
170.4
 31
0.0
  0
ARC
  5
747
330
1E
100
AcDbEntity
  8
0
  6
LTYPE1
 62
     3
100
AcDbCircle
 10
100.675
 20
171.4
 30
0.0
 40
1.0
100
AcDbArc
 50
270.0
 51
0.0
  0
ARC
  5
748
330
1E
100
AcDbEntity
  8
0
  6
LTYPE1
 62
     3
100
AcDbCircle
 10
100.675
 20
182.4
 30
0.0
 40
1.0
100
AcDbArc
 50
0.0
 51
90.0
  0
LINE
  5
749
330
1E
100
AcDbEntity
  8
0
  6
LTYPE1
 62
     3
100
AcDbLine
 10
101.675
 20
171.4
 30
0.0
 11
101.675
 21
182.4
 31
0.0
  0
LINE
  5
74B
330
1E
100
AcDbEntity
  8
0
  6
Continuous
 62
     3
100
AcDbLine
 10
64.95
 20
241.5249999999999
 30
0.0
 11
54.55
 21
241.5249999999999
 31
0.0
  0
LINE
  5
74C
330
1E
100
AcDbEntity
  8
0
  6
Continuous
 62
     3
100
AcDbLine
 10
54.92499999999999
 20
241.5249999999999
 30
0.0
 11
62.675
 21
241.5249999999999
 31
0.0
  0
LINE
  5
74D
330
1E
100
AcDbEntity
  8
0
  6
Continuous
 62
     3
100
AcDbLine
 10
62.675
 20
241.5249999999999
 30
0.0
 11
62.675
 21
240.275
 31
0.0
  0
LINE
  5
74E
330
1E
100
AcDbEntity
  8
0
  6
Continuous
 62
     3
100
AcDbLine
 10
62.675
 20
241.5249999999999
 30
0.0
 11
64.775
 21
241.5249999999999
 31
0.0
  0
LINE
  5
74F
330
1E
100
AcDbEntity
  8
0
  6
Continuous
 62
     3
100
AcDbLine
 10
54.92499999999999
 20
240.275
 30
0.0
 11
54.92499999999999
 21
241.5249999999999
 31
0.0
  0
LINE
  5
750
330
1E
100
AcDbEntity
  8
0
  6
Continuous
 62
     3
100
AcDbLine
 10
136.4
 20
241.5249999999999
 30
0.0
 11
146.8
 21
241.5249999999999
 31
0.0
  0
LINE
  5
751
330
1E
100
AcDbEntity
  8
0
  6
Continuous
 62
     3
100
AcDbLine
 10
146.425
 20
241.5249999999999
 30
0.0
 11
138.675
 21
241.5249999999999
 31
0.0
  0
LINE
  5
752
330
1E
100
AcDbEntity
  8
0
  6
Continuous
 62
     3
100
AcDbLine
 10
138.675
 20
241.5249999999999
 30
0.0
 11
138.675
 21
240.275
 31
0.0
  0
LINE
  5
753
330
1E
100
AcDbEntity
  8
0
  6
Continuous
 62
     3
100
AcDbLine
 10
138.675
 20
241.5249999999999
 30
0.0
 11
136.575
 21
241.5249999999999
 31
0.0
  0
LINE
  5
754
330
1E
100
AcDbEntity
  8
0
  6
Continuous
 62
     3
100
AcDbLine
 10
146.425
 20
241.5249999999999
 30
0.0
 11
146.425
 21
240.275
 31
0.0
  0
LINE
  5
755
330
1E
100
AcDbEntity
  8
0
  6
LTYPE1
 62
     3
100
AcDbLine
 10
129.175
 20
252.025
 30
0.0
 11
100.675
 21
252.025
 31
0.0
  0
MTEXT
  5
773
330
1E
100
AcDbEntity
  8
0
  6
Continuous
 62
     4
100
AcDbMText
 10
259.3355917084378
 20
213.3470418241976
 30
0.0
 40
2.0
 41
13.9647
 71
     1
 72
     5
  1
{\fＭＳ Ｐ明朝|b0|i0|c128|p18;ＭＩＮ.１２０}
 73
     1
 44
1.0
  0
MTEXT
  5
775
330
1E
100
AcDbEntity
  8
0
  6
Continuous
 62
     4
100
AcDbMText
 10
249.4695153924041
 20
234.9687128888216
 30
0.0
 40
1.0
 41
4.3531307784379
 71
     1
 72
     5
  1
{\fＭＳ Ｐ明朝|b0|i0|c128|p18;＋０.８\P－０}
 73
     1
 44
1.0
  0
MTEXT
  5
776
330
1E
100
AcDbEntity
  8
0
  6
Continuous
 62
     4
100
AcDbMText
 10
228.7070625264343
 20
242.0917790124839
 30
0.0
 40
1.0
 41
5.0038
 71
     1
 72
     5
  1
{\fＭＳ Ｐ明朝|b0|i0|c128|p18;＋０.６\P－０}
 11
0.0000000000000001
 21
1.0
 31
0.0
 73
     1
 44
1.0
  0
MTEXT
  5
77C
330
1E
100
AcDbEntity
  8
0
  6
Continuous
 62
     3
100
AcDbMText
 10
113.6132418763463
 20
55.86514186182899
 30
0.0
 40
1.5
 41
6.561758123653632
 71
     1
 72
     5
  1
{\fＭＳ Ｐ明朝|b0|i0|c128|p18;Ｐ．ＮＯ}
 73
     1
 44
1.0
  0
CIRCLE
  5
7E6
330
1E
100
AcDbEntity
  8
0
  6
Continuous
 62
     3
100
AcDbCircle
 10
183.1749749999999
 20
159.85
 30
0.0
 40
3.2
  0
CIRCLE
  5
7E7
330
1E
100
AcDbEntity
  8
0
  6
Continuous
 62
     3
100
AcDbCircle
 10
183.1749749999999
 20
159.85
 30
0.0
 40
3.0
  0
ARC
  5
7E8
330
1E
100
AcDbEntity
  8
0
  6
Continuous
 62
     3
100
AcDbCircle
 10
183.1749749999999
 20
159.85
 30
0.0
 40
6.0
100
AcDbArc
 50
29.92595633399909
 51
330.0740436660008
  0
CIRCLE
  5
80F
330
1E
100
AcDbEntity
  8
0
  6
Continuous
 62
     3
100
AcDbCircle
 10
183.1749749999999
 20
159.85
 30
0.0
 40
1.44705781687692
  0
ENDSEC
  0
SECTION
  2
OBJECTS
  0
DICTIONARY
  5
C
330
0
100
AcDbDictionary
281
     1
  3
ACAD_GROUP
350
D
  3
ACAD_PLOTSTYLENAME
350
E
  3
ACAD_MLINESTYLE
350
16
  3
ACAD_PLOTSETTINGS
350
18
  3
ACAD_LAYOUT
350
19
  0
DICTIONARY
  5
D
102
{ACAD_REACTORS
330
C
102
}
330
C
100
AcDbDictionary
281
     1
  0
ACDBDICTIONARYWDFLT
  5
E
102
{ACAD_REACTORS
330
C
102
}
330
C
100
AcDbDictionary
281
     1
  3
Normal
350
F
100
AcDbDictionaryWithDefault
340
F
  0
DICTIONARY
  5
16
102
{ACAD_REACTORS
330
C
102
}
330
C
100
AcDbDictionary
281
     1
  3
Standard
350
17
  0
DICTIONARY
  5
18
102
{ACAD_REACTORS
330
C
102
}
330
C
100
AcDbDictionary
281
     1
  0
DICTIONARY
  5
19
102
{ACAD_REACTORS
330
C
102
}
330
C
100
AcDbDictionary
281
     1
  3
ﾚｲｱｳﾄ1
350
1D
  3
Model
350
21
  0
ACDBPLACEHOLDER
  5
F
102
{ACAD_REACTORS
330
E
102
}
330
E
  0
MLINESTYLE
  5
17
102
{ACAD_REACTORS
330
16
102
}
330
16
100
AcDbMlineStyle
  2
STANDARD
 70
     0
  3

 62
   256
 51
90.0
 52
90.0
 71
     2
 49
0.5
 62
   256
  6
BYLAYER
 49
-0.5
 62
   256
  6
BYLAYER
  0
LAYOUT
  5
1D
102
{ACAD_REACTORS
330
19
102
}
330
19
100
AcDbPlotSettings
  1

  2
Canon LBP-880
  4

  6

 40
0.0
 41
0.0
 42
0.0
 43
0.0
 44
0.0
 45
0.0
 46
0.0
 47
0.0
 48
0.0
 49
0.0
140
0.0
141
0.0
142
1.0
143
1.0
 70
   688
 72
     0
 73
     0
 74
     5
  7

 75
    16
147
1.0
148
0.0
149
0.0
100
AcDbLayout
  1
ﾚｲｱｳﾄ1
 70
     1
 71
     1
 10
0.0
 20
0.0
 11
12.0
 21
9.0
 12
0.0
 22
0.0
 32
0.0
 14
1.000000000000000E+20
 24
1.000000000000000E+20
 34
1.000000000000000E+20
 15
-1.000000000000000E+20
 25
-1.000000000000000E+20
 35
-1.000000000000000E+20
146
0.0
 13
0.0
 23
0.0
 33
0.0
 16
1.0
 26
0.0
 36
0.0
 17
0.0
 27
1.0
 37
0.0
 76
     0
330
1A
  0
LAYOUT
  5
21
102
{ACAD_REACTORS
330
19
102
}
330
19
100
AcDbPlotSettings
  1

  2
Canon LBP-880
  4
A3
  6

 40
5.873749732971191
 41
6.043089866638182
 42
5.873748779296875
 43
5.873748779296875
 44
296.9259948730469
 45
420.1159973144531
 46
0.0
 47
0.0
 48
0.0
 49
0.0
140
0.0
141
0.0
142
1.0
143
1.041452997999769
 70
 11952
 72
     1
 73
     1
 74
     2
  7

 75
     0
147
0.9601969574436996
148
0.0
149
0.0
100
AcDbLayout
  1
Model
 70
     1
 71
     0
 10
0.0
 20
0.0
 11
12.0
 21
9.0
 12
0.0
 22
0.0
 32
0.0
 14
0.0
 24
0.0
 34
0.0
 15
0.0
 25
0.0
 35
0.0
146
0.0
 13
0.0
 23
0.0
 33
0.0
 16
1.0
 26
0.0
 36
0.0
 17
0.0
 27
1.0
 37
0.0
 76
     0
330
1E
  0
ENDSEC
  0
EOF
