  0
SECTION
  2
HEADER
  9
$ACADVER
  1
AC1015
  9
$ACADMAINTVER
 70
     6
  9
$DWGCODEPAGE
  3
ANSI_932
  9
$INSBASE
 10
0.0
 20
0.0
 30
0.0
  9
$EXTMIN
 10
-1.470580238991736E+63
 20
-5.941616374145985E+73
 30
0.0
  9
$EXTMAX
 10
3.141492651413534E+99
 20
1.269263905633295E+99
 30
0.3
  9
$LIMMIN
 10
0.0
 20
0.0
  9
$LIMMAX
 10
420.0
 20
297.0
  9
$ORTHOMODE
 70
     0
  9
$REGENMODE
 70
     1
  9
$FILLMODE
 70
     1
  9
$QTEXTMODE
 70
     0
  9
$MIRRTEXT
 70
     1
  9
$LTSCALE
 40
1.0
  9
$ATTMODE
 70
     1
  9
$TEXTSIZE
 40
0.2
  9
$TRACEWID
 40
0.05
  9
$TEXTSTYLE
  7
STANDARD
  9
$CLAYER
  8
0
  9
$CELTYPE
  6
CONTINUOUS
  9
$CECOLOR
 62
   256
  9
$CELTSCALE
 40
1.0
  9
$DISPSILH
 70
     0
  9
$DIMSCALE
 40
1.0
  9
$DIMASZ
 40
0.18
  9
$DIMEXO
 40
0.0625
  9
$DIMDLI
 40
0.38
  9
$DIMRND
 40
0.0
  9
$DIMDLE
 40
0.0
  9
$DIMEXE
 40
0.18
  9
$DIMTP
 40
0.0
  9
$DIMTM
 40
0.0
  9
$DIMTXT
 40
0.18
  9
$DIMCEN
 40
0.09
  9
$DIMTSZ
 40
0.0
  9
$DIMTOL
 70
     0
  9
$DIMLIM
 70
     0
  9
$DIMTIH
 70
     1
  9
$DIMTOH
 70
     1
  9
$DIMSE1
 70
     0
  9
$DIMSE2
 70
     0
  9
$DIMTAD
 70
     0
  9
$DIMZIN
 70
     0
  9
$DIMBLK
  1

  9
$DIMASO
 70
     1
  9
$DIMSHO
 70
     1
  9
$DIMPOST
  1

  9
$DIMAPOST
  1

  9
$DIMALT
 70
     0
  9
$DIMALTD
 70
     2
  9
$DIMALTF
 40
25.4
  9
$DIMLFAC
 40
1.0
  9
$DIMTOFL
 70
     0
  9
$DIMTVP
 40
0.0
  9
$DIMTIX
 70
     0
  9
$DIMSOXD
 70
     0
  9
$DIMSAH
 70
     0
  9
$DIMBLK1
  1

  9
$DIMBLK2
  1

  9
$DIMSTYLE
  2
Standard
  9
$DIMCLRD
 70
     0
  9
$DIMCLRE
 70
     0
  9
$DIMCLRT
 70
     0
  9
$DIMTFAC
 40
1.0
  9
$DIMGAP
 40
0.09
  9
$DIMJUST
 70
     0
  9
$DIMSD1
 70
     0
  9
$DIMSD2
 70
     0
  9
$DIMTOLJ
 70
     1
  9
$DIMTZIN
 70
     0
  9
$DIMALTZ
 70
     0
  9
$DIMALTTZ
 70
     0
  9
$DIMUPT
 70
     0
  9
$DIMDEC
 70
     4
  9
$DIMTDEC
 70
     4
  9
$DIMALTU
 70
     2
  9
$DIMALTTD
 70
     2
  9
$DIMTXSTY
  7
STANDARD
  9
$DIMAUNIT
 70
     0
  9
$DIMADEC
 70
     0
  9
$DIMALTRND
 40
0.0
  9
$DIMAZIN
 70
     0
  9
$DIMDSEP
 70
    46
  9
$DIMATFIT
 70
     3
  9
$DIMFRAC
 70
     0
  9
$DIMLDRBLK
  1

  9
$DIMLUNIT
 70
     2
  9
$DIMLWD
 70
    -2
  9
$DIMLWE
 70
    -2
  9
$DIMTMOVE
 70
     0
  9
$LUNITS
 70
     2
  9
$LUPREC
 70
     4
  9
$SKETCHINC
 40
0.1
  9
$FILLETRAD
 40
0.0
  9
$AUNITS
 70
     0
  9
$AUPREC
 70
     0
  9
$MENU
  1
.
  9
$ELEVATION
 40
0.0
  9
$PELEVATION
 40
0.0
  9
$THICKNESS
 40
0.0
  9
$LIMCHECK
 70
     0
  9
$CHAMFERA
 40
0.0
  9
$CHAMFERB
 40
0.0
  9
$CHAMFERC
 40
0.0
  9
$CHAMFERD
 40
0.0
  9
$SKPOLY
 70
     0
  9
$TDCREATE
 40
2452700.454406018
  9
$TDUCREATE
 40
2452700.079406018
  9
$TDUPDATE
 40
2452700.456978125
  9
$TDUUPDATE
 40
2452700.081978125
  9
$TDINDWG
 40
0.0025721065
  9
$TDUSRTIMER
 40
0.0025721065
  9
$USRTIMER
 70
     1
  9
$ANGBASE
 50
0.0
  9
$ANGDIR
 70
     0
  9
$PDMODE
 70
     0
  9
$PDSIZE
 40
0.0
  9
$PLINEWID
 40
0.0
  9
$SPLFRAME
 70
     0
  9
$SPLINETYPE
 70
     6
  9
$SPLINESEGS
 70
     8
  9
$HANDSEED
  5
6BC
  9
$SURFTAB1
 70
     6
  9
$SURFTAB2
 70
     6
  9
$SURFTYPE
 70
     6
  9
$SURFU
 70
     6
  9
$SURFV
 70
     6
  9
$UCSBASE
  2

  9
$UCSNAME
  2

  9
$UCSORG
 10
0.0
 20
0.0
 30
0.0
  9
$UCSXDIR
 10
1.0
 20
0.0
 30
0.0
  9
$UCSYDIR
 10
0.0
 20
1.0
 30
0.0
  9
$UCSORTHOREF
  2

  9
$UCSORTHOVIEW
 70
     0
  9
$UCSORGTOP
 10
0.0
 20
0.0
 30
0.0
  9
$UCSORGBOTTOM
 10
0.0
 20
0.0
 30
0.0
  9
$UCSORGLEFT
 10
0.0
 20
0.0
 30
0.0
  9
$UCSORGRIGHT
 10
0.0
 20
0.0
 30
0.0
  9
$UCSORGFRONT
 10
0.0
 20
0.0
 30
0.0
  9
$UCSORGBACK
 10
0.0
 20
0.0
 30
0.0
  9
$PUCSBASE
  2

  9
$PUCSNAME
  2

  9
$PUCSORG
 10
0.0
 20
0.0
 30
0.0
  9
$PUCSXDIR
 10
1.0
 20
0.0
 30
0.0
  9
$PUCSYDIR
 10
0.0
 20
1.0
 30
0.0
  9
$PUCSORTHOREF
  2

  9
$PUCSORTHOVIEW
 70
     0
  9
$PUCSORGTOP
 10
0.0
 20
0.0
 30
0.0
  9
$PUCSORGBOTTOM
 10
0.0
 20
0.0
 30
0.0
  9
$PUCSORGLEFT
 10
0.0
 20
0.0
 30
0.0
  9
$PUCSORGRIGHT
 10
0.0
 20
0.0
 30
0.0
  9
$PUCSORGFRONT
 10
0.0
 20
0.0
 30
0.0
  9
$PUCSORGBACK
 10
0.0
 20
0.0
 30
0.0
  9
$USERI1
 70
     0
  9
$USERI2
 70
     0
  9
$USERI3
 70
     0
  9
$USERI4
 70
     0
  9
$USERI5
 70
     0
  9
$USERR1
 40
0.0
  9
$USERR2
 40
0.0
  9
$USERR3
 40
0.0
  9
$USERR4
 40
0.0
  9
$USERR5
 40
0.0
  9
$WORLDVIEW
 70
     1
  9
$SHADEDGE
 70
     3
  9
$SHADEDIF
 70
    70
  9
$TILEMODE
 70
     1
  9
$MAXACTVP
 70
    64
  9
$PINSBASE
 10
0.0
 20
0.0
 30
0.0
  9
$PLIMCHECK
 70
     0
  9
$PEXTMIN
 10
1.000000000000000E+20
 20
1.000000000000000E+20
 30
1.000000000000000E+20
  9
$PEXTMAX
 10
-1.000000000000000E+20
 20
-1.000000000000000E+20
 30
-1.000000000000000E+20
  9
$PLIMMIN
 10
0.0
 20
0.0
  9
$PLIMMAX
 10
12.0
 20
9.0
  9
$UNITMODE
 70
     0
  9
$VISRETAIN
 70
     1
  9
$PLINEGEN
 70
     0
  9
$PSLTSCALE
 70
     1
  9
$TREEDEPTH
 70
  3020
  9
$CMLSTYLE
  2
Standard
  9
$CMLJUST
 70
     0
  9
$CMLSCALE
 40
1.0
  9
$PROXYGRAPHICS
 70
     1
  9
$MEASUREMENT
 70
     0
  9
$CELWEIGHT
370
    -1
  9
$ENDCAPS
280
     0
  9
$JOINSTYLE
280
     0
  9
$LWDISPLAY
290
     0
  9
$INSUNITS
 70
     0
  9
$HYPERLINKBASE
  1

  9
$STYLESHEET
  1

  9
$XEDIT
290
     1
  9
$CEPSNTYPE
380
     0
  9
$PSTYLEMODE
290
     1
  9
$FINGERPRINTGUID
  2
{1A43B500-70FE-4A04-B9A0-F3A788596E59}
  9
$VERSIONGUID
  2
{ED0D4C54-C48C-4DD8-843C-9ED140446FF7}
  9
$EXTNAMES
290
     1
  9
$PSVPSCALE
 40
0.0
  9
$OLESTARTUP
290
     0
  0
ENDSEC
  0
SECTION
  2
CLASSES
  0
CLASS
  1
ACDBDICTIONARYWDFLT
  2
AcDbDictionaryWithDefault
  3
AutoCAD 2000
 90
        0
280
     0
281
     0
  0
CLASS
  1
ACDBPLACEHOLDER
  2
AcDbPlaceHolder
  3
AutoCAD 2000
 90
        0
280
     0
281
     0
  0
CLASS
  1
LAYOUT
  2
AcDbLayout
  3
AutoCAD 2000
 90
        0
280
     0
281
     0
  0
ENDSEC
  0
SECTION
  2
TABLES
  0
TABLE
  2
VPORT
  5
8
330
0
100
AcDbSymbolTable
 70
     2
  0
VPORT
  5
6BB
330
8
100
AcDbSymbolTableRecord
100
AcDbViewportTableRecord
  2
*Active
 70
     0
 10
0.0
 20
0.0
 11
1.0
 21
1.0
 12
-263.4519426217849
 22
-109.2599790915939
 13
0.0
 23
0.0
 14
1.0
 24
1.0
 15
0.0
 25
0.0
 16
0.0
 26
0.0
 36
1.0
 17
0.0
 27
0.0
 37
0.0
 40
287.9999994467944
 41
1.761278195488721
 42
50.0
 43
0.0
 44
0.0
 50
0.0
 51
0.0
 71
     0
 72
   100
 73
     1
 74
     1
 75
     0
 76
     0
 77
     0
 78
     0
281
     0
 65
     1
110
0.0
120
0.0
130
0.0
111
1.0
121
0.0
131
0.0
112
0.0
122
1.0
132
0.0
 79
     0
146
0.0
  0
ENDTAB
  0
TABLE
  2
LTYPE
  5
5
330
0
100
AcDbSymbolTable
 70
     2
  0
LTYPE
  5
13
330
5
100
AcDbSymbolTableRecord
100
AcDbLinetypeTableRecord
  2
ByBlock
 70
     0
  3

 72
    65
 73
     0
 40
0.0
  0
LTYPE
  5
14
330
5
100
AcDbSymbolTableRecord
100
AcDbLinetypeTableRecord
  2
ByLayer
 70
     0
  3

 72
    65
 73
     0
 40
0.0
  0
LTYPE
  5
15
330
5
100
AcDbSymbolTableRecord
100
AcDbLinetypeTableRecord
  2
CONTINUOUS
 70
     0
  3
Solid line
 72
    65
 73
     0
 40
0.0
  0
LTYPE
  5
22
330
5
100
AcDbSymbolTableRecord
100
AcDbLinetypeTableRecord
  2
LTYPE1
 70
     0
  3
CENTER
 72
    65
 73
     4
 40
15.0
 49
10.5
 74
     0
 49
-1.5
 74
     0
 49
1.5
 74
     0
 49
-1.5
 74
     0
  0
ENDTAB
  0
TABLE
  2
LAYER
  5
2
330
0
100
AcDbSymbolTable
 70
   128
  0
LAYER
  5
10
330
2
100
AcDbSymbolTableRecord
100
AcDbLayerTableRecord
  2
0
 70
     0
 62
     7
  6
CONTINUOUS
370
    -3
390
F
  0
LAYER
  5
23
330
2
100
AcDbSymbolTableRecord
100
AcDbLayerTableRecord
  2
1
 70
     0
 62
     7
  6
CONTINUOUS
370
    -3
390
F
  0
LAYER
  5
24
330
2
100
AcDbSymbolTableRecord
100
AcDbLayerTableRecord
  2
2
 70
     0
 62
     7
  6
CONTINUOUS
370
    -3
390
F
  0
LAYER
  5
25
330
2
100
AcDbSymbolTableRecord
100
AcDbLayerTableRecord
  2
3
 70
     0
 62
     7
  6
CONTINUOUS
370
    -3
390
F
  0
LAYER
  5
26
330
2
100
AcDbSymbolTableRecord
100
AcDbLayerTableRecord
  2
4
 70
     0
 62
     7
  6
CONTINUOUS
370
    -3
390
F
  0
LAYER
  5
27
330
2
100
AcDbSymbolTableRecord
100
AcDbLayerTableRecord
  2
5
 70
     0
 62
     7
  6
CONTINUOUS
370
    -3
390
F
  0
LAYER
  5
28
330
2
100
AcDbSymbolTableRecord
100
AcDbLayerTableRecord
  2
6
 70
     0
 62
     7
  6
CONTINUOUS
370
    -3
390
F
  0
LAYER
  5
29
330
2
100
AcDbSymbolTableRecord
100
AcDbLayerTableRecord
  2
7
 70
     0
 62
     7
  6
CONTINUOUS
370
    -3
390
F
  0
LAYER
  5
2A
330
2
100
AcDbSymbolTableRecord
100
AcDbLayerTableRecord
  2
8
 70
     0
 62
     7
  6
CONTINUOUS
370
    -3
390
F
  0
LAYER
  5
2B
330
2
100
AcDbSymbolTableRecord
100
AcDbLayerTableRecord
  2
9
 70
     0
 62
     7
  6
CONTINUOUS
370
    -3
390
F
  0
LAYER
  5
2C
330
2
100
AcDbSymbolTableRecord
100
AcDbLayerTableRecord
  2
10
 70
     0
 62
     7
  6
CONTINUOUS
370
    -3
390
F
  0
LAYER
  5
2D
330
2
100
AcDbSymbolTableRecord
100
AcDbLayerTableRecord
  2
11
 70
     0
 62
     7
  6
CONTINUOUS
370
    -3
390
F
  0
LAYER
  5
2E
330
2
100
AcDbSymbolTableRecord
100
AcDbLayerTableRecord
  2
12
 70
     0
 62
     7
  6
CONTINUOUS
370
    -3
390
F
  0
LAYER
  5
2F
330
2
100
AcDbSymbolTableRecord
100
AcDbLayerTableRecord
  2
13
 70
     0
 62
     7
  6
CONTINUOUS
370
    -3
390
F
  0
LAYER
  5
30
330
2
100
AcDbSymbolTableRecord
100
AcDbLayerTableRecord
  2
14
 70
     0
 62
     7
  6
CONTINUOUS
370
    -3
390
F
  0
LAYER
  5
31
330
2
100
AcDbSymbolTableRecord
100
AcDbLayerTableRecord
  2
15
 70
     0
 62
     7
  6
CONTINUOUS
370
    -3
390
F
  0
LAYER
  5
32
330
2
100
AcDbSymbolTableRecord
100
AcDbLayerTableRecord
  2
16
 70
     0
 62
     7
  6
CONTINUOUS
370
    -3
390
F
  0
LAYER
  5
33
330
2
100
AcDbSymbolTableRecord
100
AcDbLayerTableRecord
  2
17
 70
     0
 62
     7
  6
CONTINUOUS
370
    -3
390
F
  0
LAYER
  5
34
330
2
100
AcDbSymbolTableRecord
100
AcDbLayerTableRecord
  2
18
 70
     0
 62
     7
  6
CONTINUOUS
370
    -3
390
F
  0
LAYER
  5
35
330
2
100
AcDbSymbolTableRecord
100
AcDbLayerTableRecord
  2
19
 70
     0
 62
     7
  6
CONTINUOUS
370
    -3
390
F
  0
LAYER
  5
36
330
2
100
AcDbSymbolTableRecord
100
AcDbLayerTableRecord
  2
20
 70
     0
 62
     7
  6
CONTINUOUS
370
    -3
390
F
  0
LAYER
  5
37
330
2
100
AcDbSymbolTableRecord
100
AcDbLayerTableRecord
  2
21
 70
     0
 62
     7
  6
CONTINUOUS
370
    -3
390
F
  0
LAYER
  5
38
330
2
100
AcDbSymbolTableRecord
100
AcDbLayerTableRecord
  2
22
 70
     0
 62
     7
  6
CONTINUOUS
370
    -3
390
F
  0
LAYER
  5
39
330
2
100
AcDbSymbolTableRecord
100
AcDbLayerTableRecord
  2
23
 70
     0
 62
     7
  6
CONTINUOUS
370
    -3
390
F
  0
LAYER
  5
3A
330
2
100
AcDbSymbolTableRecord
100
AcDbLayerTableRecord
  2
24
 70
     0
 62
     7
  6
CONTINUOUS
370
    -3
390
F
  0
LAYER
  5
3B
330
2
100
AcDbSymbolTableRecord
100
AcDbLayerTableRecord
  2
25
 70
     0
 62
     7
  6
CONTINUOUS
370
    -3
390
F
  0
LAYER
  5
3C
330
2
100
AcDbSymbolTableRecord
100
AcDbLayerTableRecord
  2
26
 70
     0
 62
     7
  6
CONTINUOUS
370
    -3
390
F
  0
LAYER
  5
3D
330
2
100
AcDbSymbolTableRecord
100
AcDbLayerTableRecord
  2
27
 70
     0
 62
     7
  6
CONTINUOUS
370
    -3
390
F
  0
LAYER
  5
3E
330
2
100
AcDbSymbolTableRecord
100
AcDbLayerTableRecord
  2
28
 70
     0
 62
     7
  6
CONTINUOUS
370
    -3
390
F
  0
LAYER
  5
3F
330
2
100
AcDbSymbolTableRecord
100
AcDbLayerTableRecord
  2
29
 70
     0
 62
     7
  6
CONTINUOUS
370
    -3
390
F
  0
LAYER
  5
40
330
2
100
AcDbSymbolTableRecord
100
AcDbLayerTableRecord
  2
30
 70
     0
 62
     7
  6
CONTINUOUS
370
    -3
390
F
  0
LAYER
  5
41
330
2
100
AcDbSymbolTableRecord
100
AcDbLayerTableRecord
  2
31
 70
     0
 62
     7
  6
CONTINUOUS
370
    -3
390
F
  0
LAYER
  5
42
330
2
100
AcDbSymbolTableRecord
100
AcDbLayerTableRecord
  2
32
 70
     0
 62
     7
  6
CONTINUOUS
370
    -3
390
F
  0
LAYER
  5
43
330
2
100
AcDbSymbolTableRecord
100
AcDbLayerTableRecord
  2
33
 70
     0
 62
     7
  6
CONTINUOUS
370
    -3
390
F
  0
LAYER
  5
44
330
2
100
AcDbSymbolTableRecord
100
AcDbLayerTableRecord
  2
34
 70
     0
 62
     7
  6
CONTINUOUS
370
    -3
390
F
  0
LAYER
  5
45
330
2
100
AcDbSymbolTableRecord
100
AcDbLayerTableRecord
  2
35
 70
     0
 62
     7
  6
CONTINUOUS
370
    -3
390
F
  0
LAYER
  5
46
330
2
100
AcDbSymbolTableRecord
100
AcDbLayerTableRecord
  2
36
 70
     0
 62
     7
  6
CONTINUOUS
370
    -3
390
F
  0
LAYER
  5
47
330
2
100
AcDbSymbolTableRecord
100
AcDbLayerTableRecord
  2
37
 70
     0
 62
     7
  6
CONTINUOUS
370
    -3
390
F
  0
LAYER
  5
48
330
2
100
AcDbSymbolTableRecord
100
AcDbLayerTableRecord
  2
38
 70
     0
 62
     7
  6
CONTINUOUS
370
    -3
390
F
  0
LAYER
  5
49
330
2
100
AcDbSymbolTableRecord
100
AcDbLayerTableRecord
  2
39
 70
     0
 62
     7
  6
CONTINUOUS
370
    -3
390
F
  0
LAYER
  5
4A
330
2
100
AcDbSymbolTableRecord
100
AcDbLayerTableRecord
  2
40
 70
     0
 62
     7
  6
CONTINUOUS
370
    -3
390
F
  0
LAYER
  5
4B
330
2
100
AcDbSymbolTableRecord
100
AcDbLayerTableRecord
  2
41
 70
     0
 62
     7
  6
CONTINUOUS
370
    -3
390
F
  0
LAYER
  5
4C
330
2
100
AcDbSymbolTableRecord
100
AcDbLayerTableRecord
  2
42
 70
     0
 62
     7
  6
CONTINUOUS
370
    -3
390
F
  0
LAYER
  5
4D
330
2
100
AcDbSymbolTableRecord
100
AcDbLayerTableRecord
  2
43
 70
     0
 62
     7
  6
CONTINUOUS
370
    -3
390
F
  0
LAYER
  5
4E
330
2
100
AcDbSymbolTableRecord
100
AcDbLayerTableRecord
  2
44
 70
     0
 62
     7
  6
CONTINUOUS
370
    -3
390
F
  0
LAYER
  5
4F
330
2
100
AcDbSymbolTableRecord
100
AcDbLayerTableRecord
  2
45
 70
     0
 62
     7
  6
CONTINUOUS
370
    -3
390
F
  0
LAYER
  5
50
330
2
100
AcDbSymbolTableRecord
100
AcDbLayerTableRecord
  2
46
 70
     0
 62
     7
  6
CONTINUOUS
370
    -3
390
F
  0
LAYER
  5
51
330
2
100
AcDbSymbolTableRecord
100
AcDbLayerTableRecord
  2
47
 70
     0
 62
     7
  6
CONTINUOUS
370
    -3
390
F
  0
LAYER
  5
52
330
2
100
AcDbSymbolTableRecord
100
AcDbLayerTableRecord
  2
48
 70
     0
 62
     7
  6
CONTINUOUS
370
    -3
390
F
  0
LAYER
  5
53
330
2
100
AcDbSymbolTableRecord
100
AcDbLayerTableRecord
  2
49
 70
     0
 62
     7
  6
CONTINUOUS
370
    -3
390
F
  0
LAYER
  5
54
330
2
100
AcDbSymbolTableRecord
100
AcDbLayerTableRecord
  2
50
 70
     0
 62
     7
  6
CONTINUOUS
370
    -3
390
F
  0
LAYER
  5
55
330
2
100
AcDbSymbolTableRecord
100
AcDbLayerTableRecord
  2
51
 70
     0
 62
     7
  6
CONTINUOUS
370
    -3
390
F
  0
LAYER
  5
56
330
2
100
AcDbSymbolTableRecord
100
AcDbLayerTableRecord
  2
52
 70
     0
 62
     7
  6
CONTINUOUS
370
    -3
390
F
  0
LAYER
  5
57
330
2
100
AcDbSymbolTableRecord
100
AcDbLayerTableRecord
  2
53
 70
     0
 62
     7
  6
CONTINUOUS
370
    -3
390
F
  0
LAYER
  5
58
330
2
100
AcDbSymbolTableRecord
100
AcDbLayerTableRecord
  2
54
 70
     0
 62
     7
  6
CONTINUOUS
370
    -3
390
F
  0
LAYER
  5
59
330
2
100
AcDbSymbolTableRecord
100
AcDbLayerTableRecord
  2
55
 70
     0
 62
     7
  6
CONTINUOUS
370
    -3
390
F
  0
LAYER
  5
5A
330
2
100
AcDbSymbolTableRecord
100
AcDbLayerTableRecord
  2
56
 70
     0
 62
     7
  6
CONTINUOUS
370
    -3
390
F
  0
LAYER
  5
5B
330
2
100
AcDbSymbolTableRecord
100
AcDbLayerTableRecord
  2
57
 70
     0
 62
     7
  6
CONTINUOUS
370
    -3
390
F
  0
LAYER
  5
5C
330
2
100
AcDbSymbolTableRecord
100
AcDbLayerTableRecord
  2
58
 70
     0
 62
     7
  6
CONTINUOUS
370
    -3
390
F
  0
LAYER
  5
5D
330
2
100
AcDbSymbolTableRecord
100
AcDbLayerTableRecord
  2
59
 70
     0
 62
     7
  6
CONTINUOUS
370
    -3
390
F
  0
LAYER
  5
5E
330
2
100
AcDbSymbolTableRecord
100
AcDbLayerTableRecord
  2
60
 70
     0
 62
     7
  6
CONTINUOUS
370
    -3
390
F
  0
LAYER
  5
5F
330
2
100
AcDbSymbolTableRecord
100
AcDbLayerTableRecord
  2
61
 70
     0
 62
     7
  6
CONTINUOUS
370
    -3
390
F
  0
LAYER
  5
60
330
2
100
AcDbSymbolTableRecord
100
AcDbLayerTableRecord
  2
62
 70
     0
 62
     7
  6
CONTINUOUS
370
    -3
390
F
  0
LAYER
  5
61
330
2
100
AcDbSymbolTableRecord
100
AcDbLayerTableRecord
  2
63
 70
     0
 62
     7
  6
CONTINUOUS
370
    -3
390
F
  0
LAYER
  5
62
330
2
100
AcDbSymbolTableRecord
100
AcDbLayerTableRecord
  2
64
 70
     0
 62
     7
  6
CONTINUOUS
370
    -3
390
F
  0
LAYER
  5
63
330
2
100
AcDbSymbolTableRecord
100
AcDbLayerTableRecord
  2
65
 70
     0
 62
     7
  6
CONTINUOUS
370
    -3
390
F
  0
LAYER
  5
64
330
2
100
AcDbSymbolTableRecord
100
AcDbLayerTableRecord
  2
66
 70
     0
 62
     7
  6
CONTINUOUS
370
    -3
390
F
  0
LAYER
  5
65
330
2
100
AcDbSymbolTableRecord
100
AcDbLayerTableRecord
  2
67
 70
     0
 62
     7
  6
CONTINUOUS
370
    -3
390
F
  0
LAYER
  5
66
330
2
100
AcDbSymbolTableRecord
100
AcDbLayerTableRecord
  2
68
 70
     0
 62
     7
  6
CONTINUOUS
370
    -3
390
F
  0
LAYER
  5
67
330
2
100
AcDbSymbolTableRecord
100
AcDbLayerTableRecord
  2
69
 70
     0
 62
     7
  6
CONTINUOUS
370
    -3
390
F
  0
LAYER
  5
68
330
2
100
AcDbSymbolTableRecord
100
AcDbLayerTableRecord
  2
70
 70
     0
 62
     7
  6
CONTINUOUS
370
    -3
390
F
  0
LAYER
  5
69
330
2
100
AcDbSymbolTableRecord
100
AcDbLayerTableRecord
  2
71
 70
     0
 62
     7
  6
CONTINUOUS
370
    -3
390
F
  0
LAYER
  5
6A
330
2
100
AcDbSymbolTableRecord
100
AcDbLayerTableRecord
  2
72
 70
     0
 62
     7
  6
CONTINUOUS
370
    -3
390
F
  0
LAYER
  5
6B
330
2
100
AcDbSymbolTableRecord
100
AcDbLayerTableRecord
  2
73
 70
     0
 62
     7
  6
CONTINUOUS
370
    -3
390
F
  0
LAYER
  5
6C
330
2
100
AcDbSymbolTableRecord
100
AcDbLayerTableRecord
  2
74
 70
     0
 62
     7
  6
CONTINUOUS
370
    -3
390
F
  0
LAYER
  5
6D
330
2
100
AcDbSymbolTableRecord
100
AcDbLayerTableRecord
  2
75
 70
     0
 62
     7
  6
CONTINUOUS
370
    -3
390
F
  0
LAYER
  5
6E
330
2
100
AcDbSymbolTableRecord
100
AcDbLayerTableRecord
  2
76
 70
     0
 62
     7
  6
CONTINUOUS
370
    -3
390
F
  0
LAYER
  5
6F
330
2
100
AcDbSymbolTableRecord
100
AcDbLayerTableRecord
  2
77
 70
     0
 62
     7
  6
CONTINUOUS
370
    -3
390
F
  0
LAYER
  5
70
330
2
100
AcDbSymbolTableRecord
100
AcDbLayerTableRecord
  2
78
 70
     0
 62
     7
  6
CONTINUOUS
370
    -3
390
F
  0
LAYER
  5
71
330
2
100
AcDbSymbolTableRecord
100
AcDbLayerTableRecord
  2
79
 70
     0
 62
     7
  6
CONTINUOUS
370
    -3
390
F
  0
LAYER
  5
72
330
2
100
AcDbSymbolTableRecord
100
AcDbLayerTableRecord
  2
80
 70
     0
 62
     7
  6
CONTINUOUS
370
    -3
390
F
  0
LAYER
  5
73
330
2
100
AcDbSymbolTableRecord
100
AcDbLayerTableRecord
  2
81
 70
     0
 62
     7
  6
CONTINUOUS
370
    -3
390
F
  0
LAYER
  5
74
330
2
100
AcDbSymbolTableRecord
100
AcDbLayerTableRecord
  2
82
 70
     0
 62
     7
  6
CONTINUOUS
370
    -3
390
F
  0
LAYER
  5
75
330
2
100
AcDbSymbolTableRecord
100
AcDbLayerTableRecord
  2
83
 70
     0
 62
     7
  6
CONTINUOUS
370
    -3
390
F
  0
LAYER
  5
76
330
2
100
AcDbSymbolTableRecord
100
AcDbLayerTableRecord
  2
84
 70
     0
 62
     7
  6
CONTINUOUS
370
    -3
390
F
  0
LAYER
  5
77
330
2
100
AcDbSymbolTableRecord
100
AcDbLayerTableRecord
  2
85
 70
     0
 62
     7
  6
CONTINUOUS
370
    -3
390
F
  0
LAYER
  5
78
330
2
100
AcDbSymbolTableRecord
100
AcDbLayerTableRecord
  2
86
 70
     0
 62
     7
  6
CONTINUOUS
370
    -3
390
F
  0
LAYER
  5
79
330
2
100
AcDbSymbolTableRecord
100
AcDbLayerTableRecord
  2
87
 70
     0
 62
     7
  6
CONTINUOUS
370
    -3
390
F
  0
LAYER
  5
7A
330
2
100
AcDbSymbolTableRecord
100
AcDbLayerTableRecord
  2
88
 70
     0
 62
     7
  6
CONTINUOUS
370
    -3
390
F
  0
LAYER
  5
7B
330
2
100
AcDbSymbolTableRecord
100
AcDbLayerTableRecord
  2
89
 70
     0
 62
     7
  6
CONTINUOUS
370
    -3
390
F
  0
LAYER
  5
7C
330
2
100
AcDbSymbolTableRecord
100
AcDbLayerTableRecord
  2
90
 70
     0
 62
     7
  6
CONTINUOUS
370
    -3
390
F
  0
LAYER
  5
7D
330
2
100
AcDbSymbolTableRecord
100
AcDbLayerTableRecord
  2
91
 70
     0
 62
     7
  6
CONTINUOUS
370
    -3
390
F
  0
LAYER
  5
7E
330
2
100
AcDbSymbolTableRecord
100
AcDbLayerTableRecord
  2
92
 70
     0
 62
     7
  6
CONTINUOUS
370
    -3
390
F
  0
LAYER
  5
7F
330
2
100
AcDbSymbolTableRecord
100
AcDbLayerTableRecord
  2
93
 70
     0
 62
     7
  6
CONTINUOUS
370
    -3
390
F
  0
LAYER
  5
80
330
2
100
AcDbSymbolTableRecord
100
AcDbLayerTableRecord
  2
94
 70
     0
 62
     7
  6
CONTINUOUS
370
    -3
390
F
  0
LAYER
  5
81
330
2
100
AcDbSymbolTableRecord
100
AcDbLayerTableRecord
  2
95
 70
     0
 62
     7
  6
CONTINUOUS
370
    -3
390
F
  0
LAYER
  5
82
330
2
100
AcDbSymbolTableRecord
100
AcDbLayerTableRecord
  2
96
 70
     0
 62
     7
  6
CONTINUOUS
370
    -3
390
F
  0
LAYER
  5
83
330
2
100
AcDbSymbolTableRecord
100
AcDbLayerTableRecord
  2
97
 70
     0
 62
     7
  6
CONTINUOUS
370
    -3
390
F
  0
LAYER
  5
84
330
2
100
AcDbSymbolTableRecord
100
AcDbLayerTableRecord
  2
98
 70
     0
 62
     7
  6
CONTINUOUS
370
    -3
390
F
  0
LAYER
  5
85
330
2
100
AcDbSymbolTableRecord
100
AcDbLayerTableRecord
  2
99
 70
     0
 62
     7
  6
CONTINUOUS
370
    -3
390
F
  0
LAYER
  5
86
330
2
100
AcDbSymbolTableRecord
100
AcDbLayerTableRecord
  2
100
 70
     0
 62
     7
  6
CONTINUOUS
370
    -3
390
F
  0
LAYER
  5
87
330
2
100
AcDbSymbolTableRecord
100
AcDbLayerTableRecord
  2
101
 70
     0
 62
     7
  6
CONTINUOUS
370
    -3
390
F
  0
LAYER
  5
88
330
2
100
AcDbSymbolTableRecord
100
AcDbLayerTableRecord
  2
102
 70
     0
 62
     7
  6
CONTINUOUS
370
    -3
390
F
  0
LAYER
  5
89
330
2
100
AcDbSymbolTableRecord
100
AcDbLayerTableRecord
  2
103
 70
     0
 62
     7
  6
CONTINUOUS
370
    -3
390
F
  0
LAYER
  5
8A
330
2
100
AcDbSymbolTableRecord
100
AcDbLayerTableRecord
  2
104
 70
     0
 62
     7
  6
CONTINUOUS
370
    -3
390
F
  0
LAYER
  5
8B
330
2
100
AcDbSymbolTableRecord
100
AcDbLayerTableRecord
  2
105
 70
     0
 62
     7
  6
CONTINUOUS
370
    -3
390
F
  0
LAYER
  5
8C
330
2
100
AcDbSymbolTableRecord
100
AcDbLayerTableRecord
  2
106
 70
     0
 62
     7
  6
CONTINUOUS
370
    -3
390
F
  0
LAYER
  5
8D
330
2
100
AcDbSymbolTableRecord
100
AcDbLayerTableRecord
  2
107
 70
     0
 62
     7
  6
CONTINUOUS
370
    -3
390
F
  0
LAYER
  5
8E
330
2
100
AcDbSymbolTableRecord
100
AcDbLayerTableRecord
  2
108
 70
     0
 62
     7
  6
CONTINUOUS
370
    -3
390
F
  0
LAYER
  5
8F
330
2
100
AcDbSymbolTableRecord
100
AcDbLayerTableRecord
  2
109
 70
     0
 62
     7
  6
CONTINUOUS
370
    -3
390
F
  0
LAYER
  5
90
330
2
100
AcDbSymbolTableRecord
100
AcDbLayerTableRecord
  2
110
 70
     0
 62
     7
  6
CONTINUOUS
370
    -3
390
F
  0
LAYER
  5
91
330
2
100
AcDbSymbolTableRecord
100
AcDbLayerTableRecord
  2
111
 70
     0
 62
     7
  6
CONTINUOUS
370
    -3
390
F
  0
LAYER
  5
92
330
2
100
AcDbSymbolTableRecord
100
AcDbLayerTableRecord
  2
112
 70
     0
 62
     7
  6
CONTINUOUS
370
    -3
390
F
  0
LAYER
  5
93
330
2
100
AcDbSymbolTableRecord
100
AcDbLayerTableRecord
  2
113
 70
     0
 62
     7
  6
CONTINUOUS
370
    -3
390
F
  0
LAYER
  5
94
330
2
100
AcDbSymbolTableRecord
100
AcDbLayerTableRecord
  2
114
 70
     0
 62
     7
  6
CONTINUOUS
370
    -3
390
F
  0
LAYER
  5
95
330
2
100
AcDbSymbolTableRecord
100
AcDbLayerTableRecord
  2
115
 70
     0
 62
     7
  6
CONTINUOUS
370
    -3
390
F
  0
LAYER
  5
96
330
2
100
AcDbSymbolTableRecord
100
AcDbLayerTableRecord
  2
116
 70
     0
 62
     7
  6
CONTINUOUS
370
    -3
390
F
  0
LAYER
  5
97
330
2
100
AcDbSymbolTableRecord
100
AcDbLayerTableRecord
  2
117
 70
     0
 62
     7
  6
CONTINUOUS
370
    -3
390
F
  0
LAYER
  5
98
330
2
100
AcDbSymbolTableRecord
100
AcDbLayerTableRecord
  2
118
 70
     0
 62
     7
  6
CONTINUOUS
370
    -3
390
F
  0
LAYER
  5
99
330
2
100
AcDbSymbolTableRecord
100
AcDbLayerTableRecord
  2
119
 70
     0
 62
     7
  6
CONTINUOUS
370
    -3
390
F
  0
LAYER
  5
9A
330
2
100
AcDbSymbolTableRecord
100
AcDbLayerTableRecord
  2
120
 70
     0
 62
     7
  6
CONTINUOUS
370
    -3
390
F
  0
LAYER
  5
9B
330
2
100
AcDbSymbolTableRecord
100
AcDbLayerTableRecord
  2
121
 70
     0
 62
     7
  6
CONTINUOUS
370
    -3
390
F
  0
LAYER
  5
9C
330
2
100
AcDbSymbolTableRecord
100
AcDbLayerTableRecord
  2
122
 70
     0
 62
     7
  6
CONTINUOUS
370
    -3
390
F
  0
LAYER
  5
9D
330
2
100
AcDbSymbolTableRecord
100
AcDbLayerTableRecord
  2
123
 70
     0
 62
     7
  6
CONTINUOUS
370
    -3
390
F
  0
LAYER
  5
9E
330
2
100
AcDbSymbolTableRecord
100
AcDbLayerTableRecord
  2
124
 70
     0
 62
     7
  6
CONTINUOUS
370
    -3
390
F
  0
LAYER
  5
9F
330
2
100
AcDbSymbolTableRecord
100
AcDbLayerTableRecord
  2
125
 70
     0
 62
     7
  6
CONTINUOUS
370
    -3
390
F
  0
LAYER
  5
A0
330
2
100
AcDbSymbolTableRecord
100
AcDbLayerTableRecord
  2
126
 70
     0
 62
     7
  6
CONTINUOUS
370
    -3
390
F
  0
LAYER
  5
A1
330
2
100
AcDbSymbolTableRecord
100
AcDbLayerTableRecord
  2
127
 70
     0
 62
     7
  6
CONTINUOUS
370
    -3
390
F
  0
ENDTAB
  0
TABLE
  2
STYLE
  5
3
330
0
100
AcDbSymbolTable
 70
     4
  0
STYLE
  5
11
330
3
100
AcDbSymbolTableRecord
100
AcDbTextStyleTableRecord
  2
STANDARD
 70
     0
 40
0.0
 41
1.0
 50
0.0
 71
     0
 42
0.2
  3
txt
  4

  0
STYLE
  5
A2
330
3
100
AcDbSymbolTableRecord
100
AcDbTextStyleTableRecord
  2
KANJI0
 70
     0
 40
3.0
 41
0.6
 50
0.0
 71
     0
 42
3.0
  3

  4
bigfont
  0
STYLE
  5
A3
330
3
100
AcDbSymbolTableRecord
100
AcDbTextStyleTableRecord
  2
KANJI1
 70
     0
 40
2.0
 41
0.8
 50
0.0
 71
     0
 42
2.0
  3

  4
bigfont
  0
STYLE
  5
A4
330
3
100
AcDbSymbolTableRecord
100
AcDbTextStyleTableRecord
  2
KANJI2
 70
     0
 40
3.0
 41
0.9
 50
0.0
 71
     0
 42
3.0
  3

  4
bigfont
  0
ENDTAB
  0
TABLE
  2
VIEW
  5
6
330
0
100
AcDbSymbolTable
 70
     0
  0
ENDTAB
  0
TABLE
  2
UCS
  5
7
330
0
100
AcDbSymbolTable
 70
     0
  0
ENDTAB
  0
TABLE
  2
APPID
  5
9
330
0
100
AcDbSymbolTable
 70
     1
  0
APPID
  5
12
330
9
100
AcDbSymbolTableRecord
100
AcDbRegAppTableRecord
  2
ACAD
 70
     0
  0
ENDTAB
  0
TABLE
  2
DIMSTYLE
  5
A
330
0
100
AcDbSymbolTable
 70
     1
100
AcDbDimStyleTable
 71
     0
  0
DIMSTYLE
105
6B9
330
A
100
AcDbSymbolTableRecord
100
AcDbDimStyleTableRecord
  2
Standard
 70
     0
340
11
  0
ENDTAB
  0
TABLE
  2
BLOCK_RECORD
  5
1
330
0
100
AcDbSymbolTable
 70
     0
  0
BLOCK_RECORD
  5
1E
330
1
100
AcDbSymbolTableRecord
100
AcDbBlockTableRecord
  2
*Model_Space
340
21
  0
BLOCK_RECORD
  5
1A
330
1
100
AcDbSymbolTableRecord
100
AcDbBlockTableRecord
  2
*Paper_Space
340
1D
  0
ENDTAB
  0
ENDSEC
  0
SECTION
  2
BLOCKS
  0
BLOCK
  5
1F
330
1E
100
AcDbEntity
  8
0
100
AcDbBlockBegin
  2
*Model_Space
 70
     0
 10
0.0
 20
0.0
 30
0.0
  3
*Model_Space
  1

  0
ENDBLK
  5
20
330
1E
100
AcDbEntity
  8
0
100
AcDbBlockEnd
  0
BLOCK
  5
1B
330
1A
100
AcDbEntity
 67
     1
  8
0
100
AcDbBlockBegin
  2
*Paper_Space
 70
     0
 10
0.0
 20
0.0
 30
0.0
  3
*Paper_Space
  1

  0
ENDBLK
  5
1C
330
1A
100
AcDbEntity
 67
     1
  8
0
100
AcDbBlockEnd
  0
ENDSEC
  0
SECTION
  2
ENTITIES
  0
POINT
  5
A8
330
1E
100
AcDbEntity
  8
0
  6
Continuous
 62
     1
100
AcDbPoint
 10
3.141492651413534E+99
 20
1.269263905633295E+99
 30
0.0
  0
POINT
  5
A9
330
1E
100
AcDbEntity
  8
0
  6
Continuous
 62
     1
100
AcDbPoint
 10
3.141492651413534E+99
 20
1.269263905633295E+99
 30
0.0
  0
POINT
  5
AA
330
1E
100
AcDbEntity
  8
0
  6
Continuous
 62
     1
100
AcDbPoint
 10
-1.470580238991736E+63
 20
-5.941616374145985E+73
 30
0.0
  0
POINT
  5
AB
330
1E
100
AcDbEntity
  8
0
  6
Continuous
 62
     1
100
AcDbPoint
 10
-1.470580238991736E+63
 20
-5.941616374145985E+73
 30
0.0
  0
POINT
  5
AC
330
1E
100
AcDbEntity
  8
0
  6
Continuous
 62
     1
100
AcDbPoint
 10
3.141492651413534E+99
 20
1.269263905633295E+99
 30
0.0
  0
POINT
  5
AD
330
1E
100
AcDbEntity
  8
0
  6
Continuous
 62
     1
100
AcDbPoint
 10
3.141492651413534E+99
 20
1.269263905633295E+99
 30
0.0
  0
POINT
  5
AE
330
1E
100
AcDbEntity
  8
0
  6
Continuous
 62
     1
100
AcDbPoint
 10
-1.470580238991736E+63
 20
-5.941616374145985E+73
 30
0.0
  0
POINT
  5
AF
330
1E
100
AcDbEntity
  8
0
  6
Continuous
 62
     1
100
AcDbPoint
 10
-1.470580238991736E+63
 20
-5.941616374145985E+73
 30
0.0
  0
POINT
  5
B0
330
1E
100
AcDbEntity
  8
0
  6
Continuous
 62
     1
100
AcDbPoint
 10
3.141492651413534E+99
 20
1.269263905633295E+99
 30
0.0
  0
POINT
  5
B1
330
1E
100
AcDbEntity
  8
0
  6
Continuous
 62
     1
100
AcDbPoint
 10
3.141492651413534E+99
 20
1.269263905633295E+99
 30
0.0
  0
POINT
  5
B2
330
1E
100
AcDbEntity
  8
0
  6
Continuous
 62
     1
100
AcDbPoint
 10
-1.470580238991736E+63
 20
-5.941616374145985E+73
 30
0.0
  0
POINT
  5
B3
330
1E
100
AcDbEntity
  8
0
  6
Continuous
 62
     1
100
AcDbPoint
 10
-1.470580238991736E+63
 20
-5.941616374145985E+73
 30
0.0
  0
POINT
  5
B4
330
1E
100
AcDbEntity
  8
0
  6
Continuous
 62
     1
100
AcDbPoint
 10
3.141492651413534E+99
 20
1.269263905633295E+99
 30
0.0
  0
POINT
  5
B5
330
1E
100
AcDbEntity
  8
0
  6
Continuous
 62
     1
100
AcDbPoint
 10
3.141492651413534E+99
 20
1.269263905633295E+99
 30
0.0
  0
POINT
  5
B6
330
1E
100
AcDbEntity
  8
0
  6
Continuous
 62
     1
100
AcDbPoint
 10
-1.470580238991736E+63
 20
-5.941616374145985E+73
 30
0.0
  0
POINT
  5
B7
330
1E
100
AcDbEntity
  8
0
  6
Continuous
 62
     1
100
AcDbPoint
 10
-1.470580238991736E+63
 20
-5.941616374145985E+73
 30
0.0
  0
POINT
  5
B8
330
1E
100
AcDbEntity
  8
0
  6
Continuous
 62
     1
100
AcDbPoint
 10
3.141492651413534E+99
 20
1.269263905633295E+99
 30
0.0
  0
POINT
  5
B9
330
1E
100
AcDbEntity
  8
0
  6
Continuous
 62
     1
100
AcDbPoint
 10
3.141492651413534E+99
 20
1.269263905633295E+99
 30
0.0
  0
POINT
  5
BA
330
1E
100
AcDbEntity
  8
0
  6
Continuous
 62
     1
100
AcDbPoint
 10
-1.470580238991736E+63
 20
-5.941616374145985E+73
 30
0.0
  0
POINT
  5
BB
330
1E
100
AcDbEntity
  8
0
  6
Continuous
 62
     1
100
AcDbPoint
 10
-1.470580238991736E+63
 20
-5.941616374145985E+73
 30
0.0
  0
POINT
  5
BC
330
1E
100
AcDbEntity
  8
0
  6
Continuous
 62
     1
100
AcDbPoint
 10
3.141492651413534E+99
 20
1.269263905633295E+99
 30
0.0
  0
POINT
  5
BD
330
1E
100
AcDbEntity
  8
0
  6
Continuous
 62
     1
100
AcDbPoint
 10
3.141492651413534E+99
 20
1.269263905633295E+99
 30
0.0
  0
POINT
  5
BE
330
1E
100
AcDbEntity
  8
0
  6
Continuous
 62
     1
100
AcDbPoint
 10
-1.470580238991736E+63
 20
-5.941616374145985E+73
 30
0.0
  0
POINT
  5
BF
330
1E
100
AcDbEntity
  8
0
  6
Continuous
 62
     1
100
AcDbPoint
 10
-1.470580238991736E+63
 20
-5.941616374145985E+73
 30
0.0
  0
LINE
  5
C0
330
1E
100
AcDbEntity
  8
0
  6
Continuous
 62
     1
100
AcDbLine
 10
-223.7272304437502
 20
-160.1050639965394
 30
0.0
 11
-226.3122304437502
 21
-160.1050639975393
 31
0.0
  0
LINE
  5
C1
330
1E
100
AcDbEntity
  8
0
  6
Continuous
 62
     1
100
AcDbLine
 10
-226.3122304437502
 20
-155.8050639975394
 30
0.0
 11
-223.7272304437502
 21
-155.8050639965394
 31
0.0
  0
LINE
  5
C2
330
1E
100
AcDbEntity
  8
0
  6
Continuous
 62
     1
100
AcDbLine
 10
-223.7272304437502
 20
-160.1050639965394
 30
0.0
 11
-223.7272304437502
 21
-155.8050639965394
 31
0.0
  0
ARC
  5
C3
330
1E
100
AcDbEntity
  8
0
  6
Continuous
 62
     1
100
AcDbCircle
 10
-319.3122304427502
 20
-189.1050640005394
 30
0.0
 40
1.0
100
AcDbArc
 50
90.000000001
 51
180.0
  0
LINE
  5
C4
330
1E
100
AcDbEntity
  8
0
  6
Continuous
 62
     1
100
AcDbLine
 10
-320.3122304427502
 20
-189.1050640005394
 30
0.0
 11
-320.3122304407502
 21
-235.1050640005394
 31
0.0
  0
ARC
  5
C5
330
1E
100
AcDbEntity
  8
0
  6
Continuous
 62
     1
100
AcDbCircle
 10
-319.3122304407502
 20
-235.1050640005394
 30
0.0
 40
1.0
100
AcDbArc
 50
179.9999999989999
 51
270.0
  0
LINE
  5
C6
330
1E
100
AcDbEntity
  8
0
  6
Continuous
 62
     1
100
AcDbLine
 10
-298.8122304407502
 20
-234.5550639995394
 30
0.0
 11
-298.8122304407502
 21
-233.5550639995394
 31
0.0
  0
LINE
  5
C7
330
1E
100
AcDbEntity
  8
0
  6
Continuous
 62
     1
100
AcDbLine
 10
-298.8122304407502
 20
-233.5550639995394
 30
0.0
 11
-304.8122304407502
 21
-233.5550639995394
 31
0.0
  0
LINE
  5
C8
330
1E
100
AcDbEntity
  8
0
  6
Continuous
 62
     1
100
AcDbLine
 10
-304.8122304407502
 20
-233.5550639995394
 30
0.0
 11
-304.8122304407502
 21
-234.5550639995394
 31
0.0
  0
ARC
  5
C9
330
1E
100
AcDbEntity
  8
0
  6
Continuous
 62
     1
100
AcDbCircle
 10
-317.6472304407502
 20
-233.5550640005394
 30
0.0
 40
1.0
100
AcDbArc
 50
180.0
 51
270.0
  0
LINE
  5
CA
330
1E
100
AcDbEntity
  8
0
  6
Continuous
 62
     1
100
AcDbLine
 10
-318.6472304427502
 20
-190.6550640005394
 30
0.0
 11
-318.6472304407502
 21
-233.5550640005394
 31
0.0
  0
LINE
  5
CB
330
1E
100
AcDbEntity
  8
0
  6
Continuous
 62
     1
100
AcDbLine
 10
-318.8122304407502
 20
-234.6050640005393
 30
0.0
 11
-318.8122304427502
 21
-189.6050640005394
 31
0.0
  0
LINE
  5
CC
330
1E
100
AcDbEntity
  8
0
  6
Continuous
 62
     1
100
AcDbLine
 10
-228.9772304427502
 20
-189.6550639965394
 30
0.0
 11
-317.6472304427502
 21
-189.6550640005394
 31
0.0
  0
ARC
  5
CD
330
1E
100
AcDbEntity
  8
0
  6
Continuous
 62
     1
100
AcDbCircle
 10
-317.6472304427502
 20
-190.6550640005394
 30
0.0
 40
1.0
100
AcDbArc
 50
90.0
 51
179.9999999989999
  0
LINE
  5
CE
330
1E
100
AcDbEntity
  8
0
  6
Continuous
 62
     1
100
AcDbLine
 10
-318.8122304427502
 20
-189.6050640005394
 30
0.0
 11
-227.8122304427502
 21
-189.6050639965394
 31
0.0
  0
LINE
  5
CF
330
1E
100
AcDbEntity
  8
0
  6
Continuous
 62
     1
100
AcDbLine
 10
-304.8122304427502
 20
-189.6550639995394
 30
0.0
 11
-304.8122304427502
 21
-190.6550639995394
 31
0.0
  0
LINE
  5
D0
330
1E
100
AcDbEntity
  8
0
  6
Continuous
 62
     1
100
AcDbLine
 10
-304.8122304427502
 20
-190.6550639995394
 30
0.0
 11
-298.8122304427502
 21
-190.6550639995394
 31
0.0
  0
LINE
  5
D1
330
1E
100
AcDbEntity
  8
0
  6
Continuous
 62
     1
100
AcDbLine
 10
-298.8122304427502
 20
-190.6550639995394
 30
0.0
 11
-298.8122304427502
 21
-189.6550639995394
 31
0.0
  0
LINE
  5
D2
330
1E
100
AcDbEntity
  8
0
  6
Continuous
 62
     1
100
AcDbLine
 10
-290.8972304427502
 20
-192.4050639995394
 30
0.0
 11
-289.2972304427502
 21
-192.4050639995394
 31
0.0
  0
LINE
  5
D3
330
1E
100
AcDbEntity
  8
0
  6
Continuous
 62
     1
100
AcDbLine
 10
-289.2972304427502
 20
-200.4050639995393
 30
0.0
 11
-290.8972304427502
 21
-200.4050639995393
 31
0.0
  0
LINE
  5
D4
330
1E
100
AcDbEntity
  8
0
  6
Continuous
 62
     1
100
AcDbLine
 10
-288.7972304427502
 20
-191.9050639995394
 30
0.0
 11
-290.8972304427502
 21
-191.9050639995394
 31
0.0
  0
LINE
  5
D5
330
1E
100
AcDbEntity
  8
0
  6
Continuous
 62
     1
100
AcDbLine
 10
-288.7972304427502
 20
-200.9050639995394
 30
0.0
 11
-290.8972304427502
 21
-200.9050639995394
 31
0.0
  0
LINE
  5
D6
330
1E
100
AcDbEntity
  8
0
  6
Continuous
 62
     1
100
AcDbLine
 10
-289.2972304427502
 20
-192.4050639995394
 30
0.0
 11
-289.2972304427502
 21
-200.4050639995393
 31
0.0
  0
LINE
  5
D7
330
1E
100
AcDbEntity
  8
0
  6
Continuous
 62
     1
100
AcDbLine
 10
-288.7972304427502
 20
-200.9050639995394
 30
0.0
 11
-288.7972304427502
 21
-191.9050639995394
 31
0.0
  0
LINE
  5
D8
330
1E
100
AcDbEntity
  8
0
  6
Continuous
 62
     1
100
AcDbLine
 10
-288.7972304417502
 20
-206.3550639995394
 30
0.0
 11
-288.7972304427502
 21
-202.8550639995394
 31
0.0
  0
LINE
  5
D9
330
1E
100
AcDbEntity
  8
0
  6
Continuous
 62
     1
100
AcDbLine
 10
-288.7972304427502
 20
-202.8550639995394
 30
0.0
 11
-286.8972304427502
 21
-202.8550639995394
 31
0.0
  0
LINE
  5
DA
330
1E
100
AcDbEntity
  8
0
  6
Continuous
 62
     1
100
AcDbLine
 10
-286.8972304427502
 20
-202.8550639995394
 30
0.0
 11
-286.8972304417502
 21
-206.3550639995394
 31
0.0
  0
LINE
  5
DB
330
1E
100
AcDbEntity
  8
0
  6
Continuous
 62
     1
100
AcDbLine
 10
-286.8972304417502
 20
-206.3550639995394
 30
0.0
 11
-288.7972304417502
 21
-206.3550639995394
 31
0.0
  0
LINE
  5
DC
330
1E
100
AcDbEntity
  8
0
  6
Continuous
 62
     1
100
AcDbLine
 10
-288.7972304417502
 20
-217.8550639995394
 30
0.0
 11
-288.7972304417502
 21
-221.3550639995394
 31
0.0
  0
LINE
  5
DD
330
1E
100
AcDbEntity
  8
0
  6
Continuous
 62
     1
100
AcDbLine
 10
-288.7972304417502
 20
-221.3550639995394
 30
0.0
 11
-286.8972304417502
 21
-221.3550639995394
 31
0.0
  0
LINE
  5
DE
330
1E
100
AcDbEntity
  8
0
  6
Continuous
 62
     1
100
AcDbLine
 10
-286.8972304417502
 20
-221.3550639995394
 30
0.0
 11
-286.8972304417502
 21
-217.8550639995394
 31
0.0
  0
LINE
  5
DF
330
1E
100
AcDbEntity
  8
0
  6
Continuous
 62
     1
100
AcDbLine
 10
-286.8972304417502
 20
-217.8550639995394
 30
0.0
 11
-288.7972304417502
 21
-217.8550639995394
 31
0.0
  0
LINE
  5
E0
330
1E
100
AcDbEntity
  8
0
  6
Continuous
 62
     1
100
AcDbLine
 10
-289.2972304407502
 20
-231.8050639995394
 30
0.0
 11
-289.2972304417503
 21
-223.8050639995394
 31
0.0
  0
LINE
  5
E1
330
1E
100
AcDbEntity
  8
0
  6
Continuous
 62
     1
100
AcDbLine
 10
-289.2972304417503
 20
-223.8050639995394
 30
0.0
 11
-290.8972304417502
 21
-223.8050639995394
 31
0.0
  0
LINE
  5
E2
330
1E
100
AcDbEntity
  8
0
  6
Continuous
 62
     1
100
AcDbLine
 10
-288.7972304407502
 20
-232.3050639995394
 30
0.0
 11
-288.7972304417502
 21
-223.3050639995393
 31
0.0
  0
LINE
  5
E3
330
1E
100
AcDbEntity
  8
0
  6
Continuous
 62
     1
100
AcDbLine
 10
-288.7972304417502
 20
-223.3050639995393
 30
0.0
 11
-290.8972304417502
 21
-223.3050639995393
 31
0.0
  0
LINE
  5
E4
330
1E
100
AcDbEntity
  8
0
  6
Continuous
 62
     1
100
AcDbLine
 10
-290.8972304407502
 20
-231.8050639995394
 30
0.0
 11
-289.2972304407502
 21
-231.8050639995394
 31
0.0
  0
LINE
  5
E5
330
1E
100
AcDbEntity
  8
0
  6
Continuous
 62
     1
100
AcDbLine
 10
-288.7972304407502
 20
-232.3050639995394
 30
0.0
 11
-290.8972304407502
 21
-232.3050639995394
 31
0.0
  0
LINE
  5
E6
330
1E
100
AcDbEntity
  8
0
  6
Continuous
 62
     1
100
AcDbLine
 10
-290.8972304427502
 20
-189.6550639995394
 30
0.0
 11
-290.8972304407502
 21
-234.5550639995394
 31
0.0
  0
LINE
  5
E7
330
1E
100
AcDbEntity
  8
0
  6
Continuous
 62
     1
100
AcDbLine
 10
-241.8122304407502
 20
-234.5550639965393
 30
0.0
 11
-241.8122304407502
 21
-233.5550639965394
 31
0.0
  0
LINE
  5
E8
330
1E
100
AcDbEntity
  8
0
  6
Continuous
 62
     1
100
AcDbLine
 10
-241.8122304407502
 20
-233.5550639965394
 30
0.0
 11
-247.8122304407502
 21
-233.5550639975394
 31
0.0
  0
LINE
  5
E9
330
1E
100
AcDbEntity
  8
0
  6
Continuous
 62
     1
100
AcDbLine
 10
-247.8122304407502
 20
-233.5550639975394
 30
0.0
 11
-247.8122304407502
 21
-234.5550639975394
 31
0.0
  0
ARC
  5
EA
330
1E
100
AcDbEntity
  8
0
  6
Continuous
 62
     1
100
AcDbCircle
 10
-228.9772304407502
 20
-233.5550639965394
 30
0.0
 40
1.0
100
AcDbArc
 50
270.0
 51
0.0
  0
ARC
  5
EB
330
1E
100
AcDbEntity
  8
0
  6
Continuous
 62
     1
100
AcDbCircle
 10
-227.3122304407502
 20
-235.1050639965393
 30
0.0
 40
1.0
100
AcDbArc
 50
270.0
 51
0.0
  0
LINE
  5
EC
330
1E
100
AcDbEntity
  8
0
  6
Continuous
 62
     1
100
AcDbLine
 10
-227.9772304407502
 20
-233.5550639965394
 30
0.0
 11
-227.9772304417503
 21
-222.1050639965393
 31
0.0
  0
LINE
  5
ED
330
1E
100
AcDbEntity
  8
0
  6
Continuous
 62
     1
100
AcDbLine
 10
-227.8122304417502
 20
-222.1050639965393
 30
0.0
 11
-227.8122304407502
 21
-234.6050639965393
 31
0.0
  0
LINE
  5
EE
330
1E
100
AcDbEntity
  8
0
  6
Continuous
 62
     1
100
AcDbLine
 10
-226.3122304407502
 20
-235.1050639965393
 30
0.0
 11
-226.3122304417502
 21
-222.1050639965393
 31
0.0
  0
LINE
  5
EF
330
1E
100
AcDbEntity
  8
0
  6
Continuous
 62
     1
100
AcDbLine
 10
-319.3122304407502
 20
-236.1050640005394
 30
0.0
 11
-227.3122304407502
 21
-236.1050639965394
 31
0.0
  0
LINE
  5
F0
330
1E
100
AcDbEntity
  8
0
  6
Continuous
 62
     1
100
AcDbLine
 10
-317.6472304407502
 20
-234.5550640005394
 30
0.0
 11
-228.9772304407502
 21
-234.5550639965393
 31
0.0
  0
LINE
  5
F1
330
1E
100
AcDbEntity
  8
0
  6
Continuous
 62
     1
100
AcDbLine
 10
-227.8122304407502
 20
-234.6050639965393
 30
0.0
 11
-318.8122304407502
 21
-234.6050640005393
 31
0.0
  0
LINE
  5
F2
330
1E
100
AcDbEntity
  8
0
  6
Continuous
 62
     1
100
AcDbLine
 10
-257.2272304417503
 20
-223.3550639975394
 30
0.0
 11
-257.2272304427503
 21
-200.8550639975394
 31
0.0
  0
LINE
  5
F3
330
1E
100
AcDbEntity
  8
0
  6
Continuous
 62
     1
100
AcDbLine
 10
-255.7272304417502
 20
-223.4550639975394
 30
0.0
 11
-254.7272304417503
 21
-223.4550639975394
 31
0.0
  0
LINE
  5
F4
330
1E
100
AcDbEntity
  8
0
  6
Continuous
 62
     1
100
AcDbLine
 10
-257.2272304417503
 20
-223.3550639975394
 30
0.0
 11
-254.7272304417503
 21
-223.3550639975394
 31
0.0
  0
LINE
  5
F5
330
1E
100
AcDbEntity
  8
0
  6
Continuous
 62
     1
100
AcDbLine
 10
-255.7272304417502
 20
-223.4550639975394
 30
0.0
 11
-255.7272304407502
 21
-234.5550639975394
 31
0.0
  0
LINE
  5
F6
330
1E
100
AcDbEntity
  8
0
  6
Continuous
 62
     1
100
AcDbLine
 10
-254.7272304417503
 20
-223.4550639975394
 30
0.0
 11
-254.7272304417503
 21
-222.2050639975394
 31
0.0
  0
LINE
  5
F7
330
1E
100
AcDbEntity
  8
0
  6
Continuous
 62
     1
100
AcDbLine
 10
-255.7272304427502
 20
-189.6550639975393
 30
0.0
 11
-255.7272304427502
 21
-200.7550639975394
 31
0.0
  0
LINE
  5
F8
330
1E
100
AcDbEntity
  8
0
  6
Continuous
 62
     1
100
AcDbLine
 10
-235.8272304427502
 20
-202.0050639965394
 30
0.0
 11
-254.7272304427502
 21
-202.0050639975393
 31
0.0
  0
LINE
  5
F9
330
1E
100
AcDbEntity
  8
0
  6
Continuous
 62
     1
100
AcDbLine
 10
-255.7272304427502
 20
-200.7550639975394
 30
0.0
 11
-254.7272304427502
 21
-200.7550639975394
 31
0.0
  0
LINE
  5
FA
330
1E
100
AcDbEntity
  8
0
  6
Continuous
 62
     1
100
AcDbLine
 10
-257.2272304427503
 20
-200.8550639975394
 30
0.0
 11
-254.7272304427502
 21
-200.8550639975394
 31
0.0
  0
LINE
  5
FB
330
1E
100
AcDbEntity
  8
0
  6
Continuous
 62
     1
100
AcDbLine
 10
-254.7272304427502
 20
-200.7550639975394
 30
0.0
 11
-254.7272304427502
 21
-202.0050639975393
 31
0.0
  0
LINE
  5
FC
330
1E
100
AcDbEntity
  8
0
  6
Continuous
 62
     1
100
AcDbLine
 10
-241.8122304427502
 20
-189.6550639965394
 30
0.0
 11
-241.8122304427502
 21
-190.6550639965394
 31
0.0
  0
LINE
  5
FD
330
1E
100
AcDbEntity
  8
0
  6
Continuous
 62
     1
100
AcDbLine
 10
-241.8122304427502
 20
-190.6550639965394
 30
0.0
 11
-247.8122304427502
 21
-190.6550639975393
 31
0.0
  0
LINE
  5
FE
330
1E
100
AcDbEntity
  8
0
  6
Continuous
 62
     1
100
AcDbLine
 10
-247.8122304427502
 20
-190.6550639975393
 30
0.0
 11
-247.8122304427502
 21
-189.6550639975393
 31
0.0
  0
ARC
  5
FF
330
1E
100
AcDbEntity
  8
0
  6
Continuous
 62
     1
100
AcDbCircle
 10
-228.9772304427502
 20
-190.6550639965394
 30
0.0
 40
1.0
100
AcDbArc
 50
0.0
 51
90.0
  0
LINE
  5
100
330
1E
100
AcDbEntity
  8
0
  6
Continuous
 62
     1
100
AcDbLine
 10
-227.9772304427502
 20
-202.1050639965394
 30
0.0
 11
-227.9772304427502
 21
-190.6550639965394
 31
0.0
  0
LINE
  5
101
330
1E
100
AcDbEntity
  8
0
  6
Continuous
 62
     1
100
AcDbLine
 10
-227.8122304427502
 20
-189.6050639965394
 30
0.0
 11
-227.8122304427502
 21
-202.1050639965394
 31
0.0
  0
LINE
  5
102
330
1E
100
AcDbEntity
  8
0
  6
Continuous
 62
     1
100
AcDbLine
 10
-231.8272304427502
 20
-200.7550639965394
 30
0.0
 11
-230.5772304457502
 21
-202.0050639965394
 31
0.0
  0
LINE
  5
103
330
1E
100
AcDbEntity
  8
0
  6
Continuous
 62
     1
100
AcDbLine
 10
-235.8272304427502
 20
-200.7550639965394
 30
0.0
 11
-231.8272304427502
 21
-200.7550639965394
 31
0.0
  0
LINE
  5
104
330
1E
100
AcDbEntity
  8
0
  6
Continuous
 62
     1
100
AcDbLine
 10
-235.8272304427502
 20
-200.7550639965394
 30
0.0
 11
-235.8272304427502
 21
-202.0050639965394
 31
0.0
  0
LINE
  5
105
330
1E
100
AcDbEntity
  8
0
  6
Continuous
 62
     1
100
AcDbLine
 10
-227.9772304427502
 20
-202.0050639965394
 30
0.0
 11
-230.5772304457502
 21
-202.0050639965394
 31
0.0
  0
LINE
  5
106
330
1E
100
AcDbEntity
  8
0
  6
Continuous
 62
     1
100
AcDbLine
 10
-256.8446114847503
 20
-202.1050639975393
 30
0.0
 11
-226.3122304427502
 21
-202.1050639965394
 31
0.0
  0
LINE
  5
107
330
1E
100
AcDbEntity
  8
0
  6
Continuous
 62
     1
100
AcDbLine
 10
-231.8272304417503
 20
-223.4550639965394
 30
0.0
 11
-230.5772304447502
 21
-222.2050639965394
 31
0.0
  0
LINE
  5
108
330
1E
100
AcDbEntity
  8
0
  6
Continuous
 62
     1
100
AcDbLine
 10
-227.9772304417503
 20
-222.2050639965394
 30
0.0
 11
-230.5772304447502
 21
-222.2050639965394
 31
0.0
  0
LINE
  5
109
330
1E
100
AcDbEntity
  8
0
  6
Continuous
 62
     1
100
AcDbLine
 10
-235.8272304417503
 20
-223.4550639965394
 30
0.0
 11
-231.8272304417503
 21
-223.4550639965394
 31
0.0
  0
LINE
  5
10A
330
1E
100
AcDbEntity
  8
0
  6
Continuous
 62
     1
100
AcDbLine
 10
-235.8272304417503
 20
-223.4550639965394
 30
0.0
 11
-235.8272304417503
 21
-222.2050639965394
 31
0.0
  0
LINE
  5
10B
330
1E
100
AcDbEntity
  8
0
  6
Continuous
 62
     1
100
AcDbLine
 10
-235.8272304417503
 20
-222.2050639965394
 30
0.0
 11
-254.7272304417503
 21
-222.2050639975394
 31
0.0
  0
LINE
  5
10C
330
1E
100
AcDbEntity
  8
0
  6
Continuous
 62
     1
100
AcDbLine
 10
-226.3122304417502
 20
-222.1050639965393
 30
0.0
 11
-256.8446114837502
 21
-222.1050639975393
 31
0.0
  0
ARC
  5
10D
330
1E
100
AcDbEntity
  8
0
  6
Continuous
 62
     1
100
AcDbCircle
 10
-224.7272304417502
 20
-221.1050639965394
 30
0.0
 40
1.0
100
AcDbArc
 50
270.0
 51
0.0
  0
LINE
  5
10E
330
1E
100
AcDbEntity
  8
0
  6
Continuous
 62
     1
100
AcDbLine
 10
-223.7272304427502
 20
-203.1050639955394
 30
0.0
 11
-223.7272304417503
 21
-221.1050639955394
 31
0.0
  0
ARC
  5
10F
330
1E
100
AcDbEntity
  8
0
  6
Continuous
 62
     1
100
AcDbCircle
 10
-224.7272304427502
 20
-203.1050639965394
 30
0.0
 40
1.0
100
AcDbArc
 50
0.0
 51
90.0
  0
LINE
  5
110
330
1E
100
AcDbEntity
  8
0
  6
Continuous
 62
     1
100
AcDbLine
 10
-226.3122304427502
 20
-202.1050639965394
 30
0.0
 11
-224.7272304427502
 21
-202.1050639965394
 31
0.0
  0
LINE
  5
111
330
1E
100
AcDbEntity
  8
0
  6
Continuous
 62
     1
100
AcDbLine
 10
-224.7272304417502
 20
-222.1050639965393
 30
0.0
 11
-226.3122304417502
 21
-222.1050639965393
 31
0.0
  0
LINE
  5
112
330
1E
100
AcDbEntity
  8
0
  6
Continuous
 62
     1
100
AcDbLine
 10
-226.3122304427502
 20
-202.1050639965394
 30
0.0
 11
-226.3122304427502
 21
-189.1050639965394
 31
0.0
  0
ARC
  5
113
330
1E
100
AcDbEntity
  8
0
  6
Continuous
 62
     1
100
AcDbCircle
 10
-227.3122304427502
 20
-189.1050639965394
 30
0.0
 40
1.0
100
AcDbArc
 50
0.0
 51
90.0
  0
LINE
  5
114
330
1E
100
AcDbEntity
  8
0
  6
Continuous
 62
     1
100
AcDbLine
 10
-227.3122304427502
 20
-188.1050639965394
 30
0.0
 11
-319.3122304427502
 21
-188.1050640005394
 31
0.0
  0
LINE
  5
115
330
1E
100
AcDbEntity
  8
0
  6
Continuous
 62
     3
100
AcDbLine
 10
-235.8272304427502
 20
-200.8550639965394
 30
0.0
 11
-234.5772304427502
 21
-202.1050639965394
 31
0.0
  0
ARC
  5
116
330
1E
100
AcDbEntity
  8
0
  6
Continuous
 62
     1
100
AcDbCircle
 10
-248.4772304417503
 20
-211.1050640015394
 30
0.0
 40
2.0
100
AcDbArc
 50
359.999999999
 51
90.0
  0
LINE
  5
117
330
1E
100
AcDbEntity
  8
0
  6
Continuous
 62
     1
100
AcDbLine
 10
-248.4772304417503
 20
-209.1050640015394
 30
0.0
 11
-251.2272304417503
 21
-209.1050640005394
 31
0.0
  0
ARC
  5
118
330
1E
100
AcDbEntity
  8
0
  6
Continuous
 62
     1
100
AcDbCircle
 10
-251.2272304417503
 20
-211.1050640005394
 30
0.0
 40
2.0
100
AcDbArc
 50
90.0
 51
156.1533112489999
  0
LINE
  5
119
330
1E
100
AcDbEntity
  8
0
  6
Continuous
 62
     1
100
AcDbLine
 10
-253.2272304417503
 20
-211.6050640005394
 30
0.0
 11
-253.2272304417503
 21
-212.6050640005394
 31
0.0
  0
ARC
  5
11A
330
1E
100
AcDbEntity
  8
0
  6
Continuous
 62
     1
100
AcDbCircle
 10
-248.1272304417502
 20
-211.6050640015394
 30
0.0
 40
5.099999999999999
100
AcDbArc
 50
90.0
 51
180.0
  0
ARC
  5
11B
330
1E
100
AcDbEntity
  8
0
  6
Continuous
 62
     1
100
AcDbCircle
 10
-248.1272304417502
 20
-212.6050640005394
 30
0.0
 40
5.099999999999999
100
AcDbArc
 50
180.0
 51
270.0
  0
ARC
  5
11C
330
1E
100
AcDbEntity
  8
0
  6
Continuous
 62
     1
100
AcDbCircle
 10
-243.3272304417502
 20
-211.6050640015394
 30
0.0
 40
5.099999999999999
100
AcDbArc
 50
0.0
 51
90.0
  0
ARC
  5
11D
330
1E
100
AcDbEntity
  8
0
  6
Continuous
 62
     1
100
AcDbCircle
 10
-242.9772304417503
 20
-211.1050640015394
 30
0.0
 40
2.0
100
AcDbArc
 50
90.0
 51
180.0
  0
LINE
  5
11E
330
1E
100
AcDbEntity
  8
0
  6
Continuous
 62
     1
100
AcDbLine
 10
-242.9772304417503
 20
-209.1050640015394
 30
0.0
 11
-240.2272304417503
 21
-209.1050640015394
 31
0.0
  0
ARC
  5
11F
330
1E
100
AcDbEntity
  8
0
  6
Continuous
 62
     1
100
AcDbCircle
 10
-240.2272304417503
 20
-211.1050640015394
 30
0.0
 40
2.0
100
AcDbArc
 50
23.846688751
 51
90.0
  0
LINE
  5
120
330
1E
100
AcDbEntity
  8
0
  6
Continuous
 62
     1
100
AcDbLine
 10
-243.3272304417502
 20
-206.5050640015394
 30
0.0
 11
-248.1272304417502
 21
-206.5050640015394
 31
0.0
  0
LINE
  5
121
330
1E
100
AcDbEntity
  8
0
  6
Continuous
 62
     1
100
AcDbLine
 10
-238.2272304417503
 20
-211.6050640015394
 30
0.0
 11
-238.2272304417503
 21
-212.6050640015394
 31
0.0
  0
ARC
  5
122
330
1E
100
AcDbEntity
  8
0
  6
Continuous
 62
     1
100
AcDbCircle
 10
-243.3272304417502
 20
-212.6050640015394
 30
0.0
 40
5.099999999999999
100
AcDbArc
 50
270.0
 51
0.0
  0
LINE
  5
123
330
1E
100
AcDbEntity
  8
0
  6
Continuous
 62
     1
100
AcDbLine
 10
-246.8772304417502
 20
-216.1550640015394
 30
0.0
 11
-246.8772304417502
 21
-215.1550640015394
 31
0.0
  0
LINE
  5
124
330
1E
100
AcDbEntity
  8
0
  6
Continuous
 62
     1
100
AcDbLine
 10
-244.5772304417503
 20
-216.1550640015394
 30
0.0
 11
-244.5772304417503
 21
-215.1550640015394
 31
0.0
  0
ARC
  5
125
330
1E
100
AcDbEntity
  8
0
  6
Continuous
 62
     1
100
AcDbCircle
 10
-245.7272304417502
 20
-215.6550640015394
 30
0.0
 40
1.1
100
AcDbArc
 50
132.9858860799999
 51
47.01411391999999
  0
ARC
  5
126
330
1E
100
AcDbEntity
  8
0
  6
Continuous
 62
     1
100
AcDbCircle
 10
-245.7272304417502
 20
-215.1550640015394
 30
0.0
 40
1.149999999999999
100
AcDbArc
 50
130.705706831
 51
180.0
  0
ARC
  5
127
330
1E
100
AcDbEntity
  8
0
  6
Continuous
 62
     1
100
AcDbCircle
 10
-245.7272304417502
 20
-215.1550640015394
 30
0.0
 40
1.149999999999999
100
AcDbArc
 50
0.0
 51
49.294293169
  0
LINE
  5
128
330
1E
100
AcDbEntity
  8
0
  6
Continuous
 62
     1
100
AcDbLine
 10
-246.4772304417503
 20
-211.1050640015394
 30
0.0
 11
-246.4772304417503
 21
-214.8503901545394
 31
0.0
  0
LINE
  5
129
330
1E
100
AcDbEntity
  8
0
  6
Continuous
 62
     1
100
AcDbLine
 10
-244.9772304417503
 20
-214.8503901545394
 30
0.0
 11
-244.9772304417503
 21
-211.1050640015394
 31
0.0
  0
LINE
  5
12A
330
1E
100
AcDbEntity
  8
0
  6
Continuous
 62
     1
100
AcDbLine
 10
-248.1272304417502
 20
-217.7050640005393
 30
0.0
 11
-243.3272304417502
 21
-217.7050640015393
 31
0.0
  0
ARC
  5
12B
330
1E
100
AcDbEntity
  8
0
  6
Continuous
 62
     1
100
AcDbCircle
 10
-245.7272304417502
 20
-216.1550640015394
 30
0.0
 40
1.149999999999999
100
AcDbArc
 50
180.0
 51
0.0
  0
LINE
  5
12C
330
1E
100
AcDbEntity
  8
0
  6
Continuous
 62
     5
100
AcDbLine
 10
-223.7272304437502
 20
-101.1050640045394
 30
0.0
 11
-223.7272304437502
 21
-73.1050640045394
 31
0.0
  0
LINE
  5
12D
330
1E
100
AcDbEntity
  8
0
  6
Continuous
 62
     5
100
AcDbLine
 10
-222.7272304437502
 20
-160.1050639965394
 30
0.0
 11
-217.3122304437502
 21
-160.1050639965394
 31
0.0
  0
LINE
  5
12E
330
1E
100
AcDbEntity
  8
0
  6
Continuous
 62
     5
100
AcDbLine
 10
-218.3122304437502
 20
-160.1050639965394
 30
0.0
 11
-218.8298685337502
 21
-162.0369156495393
 31
0.0
  0
LINE
  5
12F
330
1E
100
AcDbEntity
  8
0
  6
Continuous
 62
     5
100
AcDbLine
 10
-218.3122304437502
 20
-160.1050639965394
 30
0.0
 11
-217.7945923537502
 21
-162.0369156495393
 31
0.0
  0
LINE
  5
130
330
1E
100
AcDbEntity
  8
0
  6
Continuous
 62
     5
100
AcDbLine
 10
-218.3122304437502
 20
-163.1050639965394
 30
0.0
 11
-218.3122304437502
 21
-160.1050639965394
 31
0.0
  0
LINE
  5
131
330
1E
100
AcDbEntity
  8
0
  6
Continuous
 62
     5
100
AcDbLine
 10
-218.3122304437502
 20
-160.1050639965394
 30
0.0
 11
-218.3122304437502
 21
-155.8050639965394
 31
0.0
  0
LINE
  5
132
330
1E
100
AcDbEntity
  8
0
  6
Continuous
 62
     5
100
AcDbLine
 10
-218.3122304437502
 20
-155.8050639965394
 30
0.0
 11
-218.3122304437502
 21
-146.8050639965394
 31
0.0
  0
LINE
  5
133
330
1E
100
AcDbEntity
  8
0
  6
Continuous
 62
     5
100
AcDbLine
 10
-218.3122304437502
 20
-155.8050639965394
 30
0.0
 11
-217.7945923537502
 21
-153.8732123445394
 31
0.0
  0
LINE
  5
134
330
1E
100
AcDbEntity
  8
0
  6
Continuous
 62
     5
100
AcDbLine
 10
-218.3122304437502
 20
-155.8050639965394
 30
0.0
 11
-218.8298685337502
 21
-153.8732123445394
 31
0.0
  0
LINE
  5
135
330
1E
100
AcDbEntity
  8
0
  6
Continuous
 62
     5
100
AcDbLine
 10
-222.7272304437502
 20
-155.8050639965394
 30
0.0
 11
-217.3122304437502
 21
-155.8050639965394
 31
0.0
  0
TEXT
  5
136
330
1E
100
AcDbEntity
  8
0
  6
Continuous
 62
     5
100
AcDbText
 10
-219.3122304437502
 20
-152.8050639965394
 30
0.3
 40
3.0
  1
４.５
 50
90.0
 41
0.6
  7
KANJI0
100
AcDbText
  0
LINE
  5
137
330
1E
100
AcDbEntity
  8
0
  6
Continuous
 62
     5
100
AcDbLine
 10
-222.7272304437502
 20
-160.1050639965394
 30
0.3
 11
-212.3122304437502
 21
-160.1050639965394
 31
0.3
  0
LINE
  5
138
330
1E
100
AcDbEntity
  8
0
  6
Continuous
 62
     5
100
AcDbLine
 10
-213.3122304437502
 20
-160.1050639965394
 30
0.0
 11
-212.7945923537502
 21
-158.1732123445394
 31
0.0
  0
LINE
  5
139
330
1E
100
AcDbEntity
  8
0
  6
Continuous
 62
     5
100
AcDbLine
 10
-213.3122304437502
 20
-160.1050639965394
 30
0.0
 11
-213.8298685337502
 21
-158.1732123445394
 31
0.0
  0
LINE
  5
13A
330
1E
100
AcDbEntity
  8
0
  6
Continuous
 62
     5
100
AcDbLine
 10
-213.3122304437502
 20
-160.1050639965394
 30
0.0
 11
-213.3122304437502
 21
-120.1051374365394
 31
0.0
  0
LINE
  5
13B
330
1E
100
AcDbEntity
  8
0
  6
Continuous
 62
     5
100
AcDbLine
 10
-213.3122304437502
 20
-120.1051374365394
 30
0.0
 11
-213.8298685337502
 21
-122.0369890895394
 31
0.0
  0
LINE
  5
13C
330
1E
100
AcDbEntity
  8
0
  6
Continuous
 62
     5
100
AcDbLine
 10
-213.3122304437502
 20
-120.1051374365394
 30
0.0
 11
-212.7945923537502
 21
-122.0369890895394
 31
0.0
  0
LINE
  5
13D
330
1E
100
AcDbEntity
  8
0
  6
Continuous
 62
     5
100
AcDbLine
 10
-229.1071446897502
 20
-120.1051374365394
 30
0.0
 11
-212.3122304437502
 21
-120.1051374365394
 31
0.0
  0
TEXT
  5
13E
330
1E
100
AcDbEntity
  8
0
  6
Continuous
 62
     5
100
AcDbText
 10
-214.3122304437502
 20
-142.0551007165394
 30
0.3
 40
3.0
  1
４０
 50
90.0
 41
0.6
  7
KANJI0
100
AcDbText
  0
LINE
  5
13F
330
1E
100
AcDbEntity
  8
0
  6
Continuous
 62
     5
100
AcDbLine
 10
-222.7272304437502
 20
-160.1050639965394
 30
0.3
 11
-207.3122304437502
 21
-160.1050639965394
 31
0.3
  0
LINE
  5
140
330
1E
100
AcDbEntity
  8
0
  6
Continuous
 62
     5
100
AcDbLine
 10
-208.3122304437502
 20
-160.1050639965394
 30
0.0
 11
-207.7945923537502
 21
-158.1732123445394
 31
0.0
  0
LINE
  5
141
330
1E
100
AcDbEntity
  8
0
  6
Continuous
 62
     5
100
AcDbLine
 10
-208.3122304437502
 20
-160.1050639965394
 30
0.0
 11
-208.8298685337502
 21
-158.1732123445394
 31
0.0
  0
LINE
  5
142
330
1E
100
AcDbEntity
  8
0
  6
Continuous
 62
     5
100
AcDbLine
 10
-208.3122304437502
 20
-160.1050639965394
 30
0.0
 11
-208.3122304437502
 21
-119.3050639975394
 31
0.0
  0
LINE
  5
143
330
1E
100
AcDbEntity
  8
0
  6
Continuous
 62
     5
100
AcDbLine
 10
-208.3122304437502
 20
-119.3050639975394
 30
0.0
 11
-208.8298685337502
 21
-121.2369156505394
 31
0.0
  0
LINE
  5
144
330
1E
100
AcDbEntity
  8
0
  6
Continuous
 62
     5
100
AcDbLine
 10
-208.3122304437502
 20
-119.3050639975394
 30
0.0
 11
-207.7945923537502
 21
-121.2369156505394
 31
0.0
  0
LINE
  5
145
330
1E
100
AcDbEntity
  8
0
  6
Continuous
 62
     5
100
AcDbLine
 10
-241.6565827437502
 20
-119.3050639975394
 30
0.0
 11
-207.3122304437502
 21
-119.3050639975394
 31
0.0
  0
TEXT
  5
146
330
1E
100
AcDbEntity
  8
0
  6
Continuous
 62
     5
100
AcDbText
 10
-209.3122304437502
 20
-141.6550639975393
 30
0.3
 40
3.0
  1
４１
 50
90.0
 41
0.6
  7
KANJI0
100
AcDbText
  0
LINE
  5
147
330
1E
100
AcDbEntity
  8
0
  6
Continuous
 62
     5
100
AcDbLine
 10
-223.7272304417503
 20
-222.1050639965393
 30
0.3
 11
-212.3122304437502
 21
-222.1050639965393
 31
0.3
  0
LINE
  5
148
330
1E
100
AcDbEntity
  8
0
  6
Continuous
 62
     5
100
AcDbLine
 10
-213.3122304437502
 20
-222.1050639965393
 30
0.0
 11
-212.7945923537502
 21
-220.1732123435394
 31
0.0
  0
LINE
  5
149
330
1E
100
AcDbEntity
  8
0
  6
Continuous
 62
     5
100
AcDbLine
 10
-213.3122304437502
 20
-222.1050639965393
 30
0.0
 11
-213.8298685337502
 21
-220.1732123435394
 31
0.0
  0
LINE
  5
14A
330
1E
100
AcDbEntity
  8
0
  6
Continuous
 62
     5
100
AcDbLine
 10
-213.3122304437502
 20
-222.1050639965393
 30
0.0
 11
-213.3122304437502
 21
-202.1050639965394
 31
0.0
  0
LINE
  5
14B
330
1E
100
AcDbEntity
  8
0
  6
Continuous
 62
     5
100
AcDbLine
 10
-213.3122304437502
 20
-202.1050639965394
 30
0.0
 11
-213.8298685337502
 21
-204.0369156485394
 31
0.0
  0
LINE
  5
14C
330
1E
100
AcDbEntity
  8
0
  6
Continuous
 62
     5
100
AcDbLine
 10
-213.3122304437502
 20
-202.1050639965394
 30
0.0
 11
-212.7945923537502
 21
-204.0369156485394
 31
0.0
  0
LINE
  5
14D
330
1E
100
AcDbEntity
  8
0
  6
Continuous
 62
     5
100
AcDbLine
 10
-223.7272304427502
 20
-202.1050639965394
 30
0.0
 11
-212.3122304437502
 21
-202.1050639965394
 31
0.0
  0
TEXT
  5
14E
330
1E
100
AcDbEntity
  8
0
  6
Continuous
 62
     5
100
AcDbText
 10
-214.3122304437502
 20
-214.0550639965393
 30
0.3
 40
3.0
  1
２０
 50
90.0
 41
0.6
  7
KANJI0
100
AcDbText
  0
LINE
  5
14F
330
1E
100
AcDbEntity
  8
0
  6
Continuous
 62
     5
100
AcDbLine
 10
-226.3122304407502
 20
-236.1050639965394
 30
0.3
 11
-207.3122304437502
 21
-236.1050639965394
 31
0.3
  0
LINE
  5
150
330
1E
100
AcDbEntity
  8
0
  6
Continuous
 62
     5
100
AcDbLine
 10
-208.3122304437502
 20
-236.1050639965394
 30
0.0
 11
-207.7945923537502
 21
-234.1732123435394
 31
0.0
  0
LINE
  5
151
330
1E
100
AcDbEntity
  8
0
  6
Continuous
 62
     5
100
AcDbLine
 10
-208.3122304437502
 20
-236.1050639965394
 30
0.0
 11
-208.8298685337502
 21
-234.1732123435394
 31
0.0
  0
LINE
  5
152
330
1E
100
AcDbEntity
  8
0
  6
Continuous
 62
     5
100
AcDbLine
 10
-208.3122304437502
 20
-236.1050639965394
 30
0.0
 11
-208.3122304437502
 21
-188.1050639965394
 31
0.0
  0
LINE
  5
153
330
1E
100
AcDbEntity
  8
0
  6
Continuous
 62
     5
100
AcDbLine
 10
-208.3122304437502
 20
-188.1050639965394
 30
0.0
 11
-208.8298685337502
 21
-190.0369156485394
 31
0.0
  0
LINE
  5
154
330
1E
100
AcDbEntity
  8
0
  6
Continuous
 62
     5
100
AcDbLine
 10
-208.3122304437502
 20
-188.1050639965394
 30
0.0
 11
-207.7945923537502
 21
-190.0369156485394
 31
0.0
  0
LINE
  5
155
330
1E
100
AcDbEntity
  8
0
  6
Continuous
 62
     5
100
AcDbLine
 10
-226.3122304427502
 20
-188.1050639965394
 30
0.0
 11
-207.3122304437502
 21
-188.1050639965394
 31
0.0
  0
TEXT
  5
156
330
1E
100
AcDbEntity
  8
0
  6
Continuous
 62
     5
100
AcDbText
 10
-209.3122304437502
 20
-214.0550639965393
 30
0.3
 40
3.0
  1
４８
 50
90.0
 41
0.6
  7
KANJI0
100
AcDbText
  0
LINE
  5
157
330
1E
100
AcDbEntity
  8
0
  6
Continuous
 62
     3
100
AcDbLine
 10
-190.2972304447502
 20
-63.89024918953942
 30
0.3
 11
-190.2972304447502
 21
-62.31987881953941
 31
0.3
  0
LINE
  5
158
330
1E
100
AcDbEntity
  8
0
  6
Continuous
 62
     3
100
AcDbLine
 10
-190.2972304447502
 20
-60.39024918953941
 30
0.0
 11
-190.2972304447502
 21
-58.81987881953941
 31
0.0
  0
LINE
  5
159
330
1E
100
AcDbEntity
  8
0
  6
Continuous
 62
     3
100
AcDbLine
 10
-190.2972304447502
 20
-56.89024918953942
 30
0.0
 11
-190.2972304447502
 21
-55.31987881953941
 31
0.0
  0
LINE
  5
15A
330
1E
100
AcDbEntity
  8
0
  6
Continuous
 62
     3
100
AcDbLine
 10
-190.2972304447502
 20
-53.39024918953942
 30
0.0
 11
-190.2972304447502
 21
-51.81987881953941
 31
0.0
  0
LINE
  5
15B
330
1E
100
AcDbEntity
  8
0
  6
Continuous
 62
     3
100
AcDbLine
 10
-190.2972304447502
 20
-49.89024918953941
 30
0.0
 11
-190.2972304447502
 21
-48.31987881953941
 31
0.0
  0
LINE
  5
15C
330
1E
100
AcDbEntity
  8
0
  6
Continuous
 62
     3
100
AcDbLine
 10
-190.2972304447502
 20
-46.39024918953942
 30
0.0
 11
-190.2972304447502
 21
-44.81987881953941
 31
0.0
  0
LINE
  5
15D
330
1E
100
AcDbEntity
  8
0
  6
Continuous
 62
     3
100
AcDbLine
 10
-180.4972304447503
 20
-44.8550640045394
 30
0.0
 11
-192.2972304447502
 21
-44.7550640045394
 31
0.0
  0
LINE
  5
15E
330
1E
100
AcDbEntity
  8
0
  6
Continuous
 62
     3
100
AcDbLine
 10
-190.2972304447502
 20
-42.89024918953941
 30
0.0
 11
-190.2972304447502
 21
-41.31987881953941
 31
0.0
  0
LINE
  5
15F
330
1E
100
AcDbEntity
  8
0
  6
Continuous
 62
     3
100
AcDbLine
 10
-180.4972304447503
 20
-42.10506400453939
 30
0.0
 11
-180.4972304447503
 21
-42.8550640045394
 31
0.0
  0
LINE
  5
160
330
1E
100
AcDbEntity
  8
0
  6
Continuous
 62
     3
100
AcDbLine
 10
-180.4972304447503
 20
-42.8550640045394
 30
0.0
 11
-192.2972304447502
 21
-42.95506400453939
 31
0.0
  0
LINE
  5
161
330
1E
100
AcDbEntity
  8
0
  6
Continuous
 62
     3
100
AcDbLine
 10
-180.4972304447503
 20
-42.10506400453939
 30
0.0
 11
-180.4972304447503
 21
-41.3550640045394
 31
0.0
  0
LINE
  5
162
330
1E
100
AcDbEntity
  8
0
  6
Continuous
 62
     3
100
AcDbLine
 10
-180.4972304447503
 20
-41.3550640045394
 30
0.0
 11
-192.2972304447502
 21
-41.2550640045394
 31
0.0
  0
LINE
  5
163
330
1E
100
AcDbEntity
  8
0
  6
Continuous
 62
     3
100
AcDbLine
 10
-190.2972304447502
 20
-65.81987881953941
 30
0.0
 11
-190.2972304447502
 21
-67.39024918953941
 31
0.0
  0
LINE
  5
164
330
1E
100
AcDbEntity
  8
0
  6
Continuous
 62
     3
100
AcDbLine
 10
-190.2972304447502
 20
-69.31987881953941
 30
0.0
 11
-190.2972304447502
 21
-70.89024918953942
 31
0.0
  0
LINE
  5
165
330
1E
100
AcDbEntity
  8
0
  6
Continuous
 62
     3
100
AcDbLine
 10
-190.2972304447502
 20
-72.81987881953941
 30
0.0
 11
-190.2972304447502
 21
-74.39024918953942
 31
0.0
  0
LINE
  5
166
330
1E
100
AcDbEntity
  8
0
  6
Continuous
 62
     3
100
AcDbLine
 10
-190.2972304447502
 20
-76.31987881953941
 30
0.0
 11
-190.2972304447502
 21
-77.89024918953941
 31
0.0
  0
LINE
  5
167
330
1E
100
AcDbEntity
  8
0
  6
Continuous
 62
     3
100
AcDbLine
 10
-190.2972304447502
 20
-79.81987881953941
 30
0.0
 11
-190.2972304447502
 21
-81.39024918953941
 31
0.0
  0
LINE
  5
168
330
1E
100
AcDbEntity
  8
0
  6
Continuous
 62
     3
100
AcDbLine
 10
-180.4972304447503
 20
-81.35506400453939
 30
0.0
 11
-192.2972304447502
 21
-81.45506400453939
 31
0.0
  0
LINE
  5
169
330
1E
100
AcDbEntity
  8
0
  6
Continuous
 62
     3
100
AcDbLine
 10
-190.2972304447502
 20
-83.3198788195394
 30
0.0
 11
-190.2972304447502
 21
-84.89024918953942
 31
0.0
  0
LINE
  5
16A
330
1E
100
AcDbEntity
  8
0
  6
Continuous
 62
     3
100
AcDbLine
 10
-180.4972304447503
 20
-84.1050640045394
 30
0.0
 11
-180.4972304447503
 21
-83.3550640045394
 31
0.0
  0
LINE
  5
16B
330
1E
100
AcDbEntity
  8
0
  6
Continuous
 62
     3
100
AcDbLine
 10
-180.4972304447503
 20
-83.3550640045394
 30
0.0
 11
-192.2972304447502
 21
-83.2550640045394
 31
0.0
  0
LINE
  5
16C
330
1E
100
AcDbEntity
  8
0
  6
Continuous
 62
     3
100
AcDbLine
 10
-180.4972304447503
 20
-84.1050640045394
 30
0.0
 11
-180.4972304447503
 21
-84.85506400453941
 31
0.0
  0
LINE
  5
16D
330
1E
100
AcDbEntity
  8
0
  6
Continuous
 62
     3
100
AcDbLine
 10
-180.4972304447503
 20
-84.85506400453941
 30
0.0
 11
-192.2972304447502
 21
-84.95506400453939
 31
0.0
  0
LINE
  5
16E
330
1E
100
AcDbEntity
  8
0
  6
Continuous
 62
     1
100
AcDbLine
 10
-170.0972304447502
 20
-63.1050640045394
 30
0.0
 11
-170.0972304447502
 21
-65.6050640045394
 31
0.0
  0
LINE
  5
16F
330
1E
100
AcDbEntity
  8
0
  6
Continuous
 62
     1
100
AcDbLine
 10
-170.0972304447502
 20
-65.6050640045394
 30
0.0
 11
-170.8972304447502
 21
-65.6050640045394
 31
0.0
  0
LINE
  5
170
330
1E
100
AcDbEntity
  8
0
  6
Continuous
 62
     1
100
AcDbLine
 10
-151.4972304447502
 20
-87.1050640045394
 30
0.0
 11
-151.4972304447502
 21
-63.1050640045394
 31
0.0
  0
LINE
  5
171
330
1E
100
AcDbEntity
  8
0
  6
Continuous
 62
     1
100
AcDbLine
 10
-170.3972304447502
 20
-73.2050640045394
 30
0.0
 11
-168.8972304447502
 21
-73.2050640045394
 31
0.0
  0
ARC
  5
172
330
1E
100
AcDbEntity
  8
0
  6
Continuous
 62
     1
100
AcDbCircle
 10
-170.3972304447502
 20
-72.70506400453939
 30
0.0
 40
0.5
100
AcDbArc
 50
180.0
 51
270.0
  0
LINE
  5
173
330
1E
100
AcDbEntity
  8
0
  6
Continuous
 62
     1
100
AcDbLine
 10
-170.3972304447502
 20
-75.0050640045394
 30
0.0
 11
-168.8972304447502
 21
-75.0050640045394
 31
0.0
  0
ARC
  5
174
330
1E
100
AcDbEntity
  8
0
  6
Continuous
 62
     1
100
AcDbCircle
 10
-170.3972304447502
 20
-75.5050640045394
 30
0.0
 40
0.5
100
AcDbArc
 50
90.0
 51
180.0
  0
LINE
  5
175
330
1E
100
AcDbEntity
  8
0
  6
Continuous
 62
     1
100
AcDbLine
 10
-170.8972304447502
 20
-65.6050640045394
 30
0.0
 11
-170.8972304447502
 21
-72.70506400453939
 31
0.0
  0
LINE
  5
176
330
1E
100
AcDbEntity
  8
0
  6
Continuous
 62
     1
100
AcDbLine
 10
-168.8972304447502
 20
-63.1050640045394
 30
0.0
 11
-168.8972304447502
 21
-86.10506400453941
 31
0.0
  0
LINE
  5
177
330
1E
100
AcDbEntity
  8
0
  6
Continuous
 62
     1
100
AcDbLine
 10
-167.8972304447502
 20
-87.1050640045394
 30
0.0
 11
-151.4972304447502
 21
-87.1050640045394
 31
0.0
  0
ARC
  5
178
330
1E
100
AcDbEntity
  8
0
  6
Continuous
 62
     1
100
AcDbCircle
 10
-167.8972304447502
 20
-86.10506400453941
 30
0.0
 40
1.0
100
AcDbArc
 50
180.0
 51
270.0
  0
LINE
  5
179
330
1E
100
AcDbEntity
  8
0
  6
Continuous
 62
     1
100
AcDbLine
 10
-191.2972304447502
 20
-87.1050640045394
 30
0.0
 11
-167.6972304447502
 21
-87.1050640045394
 31
0.0
  0
LWPOLYLINE
  5
17A
330
1E
100
AcDbEntity
  8
0
 62
     1
100
AcDbPolyline
 90
        3
 70
     0
 43
0.0
 10
-170.0972304447502
 20
-63.1050640045394
 10
-170.0972304447502
 20
-60.6050640045394
 10
-170.8972304447502
 20
-60.6050640045394
  0
LINE
  5
17F
330
1E
100
AcDbEntity
  8
0
  6
Continuous
 62
     1
100
AcDbLine
 10
-170.3972304447502
 20
-53.0050640045394
 30
0.0
 11
-168.8972304447502
 21
-53.0050640045394
 31
0.0
  0
ARC
  5
180
330
1E
100
AcDbEntity
  8
0
  6
Continuous
 62
     1
100
AcDbCircle
 10
-170.3972304447502
 20
-53.50506400453941
 30
0.0
 40
0.5
100
AcDbArc
 50
90.0
 51
180.0
  0
LINE
  5
181
330
1E
100
AcDbEntity
  8
0
  6
Continuous
 62
     1
100
AcDbLine
 10
-170.3972304447502
 20
-51.2050640045394
 30
0.0
 11
-168.8972304447502
 21
-51.2050640045394
 31
0.0
  0
ARC
  5
182
330
1E
100
AcDbEntity
  8
0
  6
Continuous
 62
     1
100
AcDbCircle
 10
-170.3972304447502
 20
-50.7050640045394
 30
0.0
 40
0.5
100
AcDbArc
 50
180.0
 51
270.0
  0
LINE
  5
183
330
1E
100
AcDbEntity
  8
0
  6
Continuous
 62
     1
100
AcDbLine
 10
-170.8972304447502
 20
-60.6050640045394
 30
0.0
 11
-170.8972304447502
 21
-53.50506400453941
 31
0.0
  0
LINE
  5
184
330
1E
100
AcDbEntity
  8
0
  6
Continuous
 62
     1
100
AcDbLine
 10
-168.8972304447502
 20
-63.1050640045394
 30
0.0
 11
-168.8972304447502
 21
-40.10506400453943
 31
0.0
  0
ARC
  5
185
330
1E
100
AcDbEntity
  8
0
  6
Continuous
 62
     1
100
AcDbCircle
 10
-167.8972304447502
 20
-40.10506400453943
 30
0.0
 40
1.0
100
AcDbArc
 50
90.0
 51
180.0
  0
LINE
  5
186
330
1E
100
AcDbEntity
  8
0
  6
Continuous
 62
     1
100
AcDbLine
 10
-191.2972304447502
 20
-39.10506400453943
 30
0.0
 11
-167.6972304447502
 21
-39.10506400453943
 31
0.0
  0
LINE
  5
187
330
1E
100
AcDbEntity
  8
0
  6
Continuous
 62
     1
100
AcDbLine
 10
-151.4972304447502
 20
-73.30506400453941
 30
0.0
 11
-155.9972304447503
 21
-73.30506400453941
 31
0.0
  0
LINE
  5
188
330
1E
100
AcDbEntity
  8
0
  6
Continuous
 62
     1
100
AcDbLine
 10
-155.9972304447503
 20
-73.30506400453941
 30
0.0
 11
-155.9972304447503
 21
-63.1050640045394
 31
0.0
  0
LINE
  5
189
330
1E
100
AcDbEntity
  8
0
  6
Continuous
 62
     1
100
AcDbLine
 10
-151.4972304447502
 20
-52.90506400453941
 30
0.0
 11
-155.9972304447503
 21
-52.90506400453941
 31
0.0
  0
LINE
  5
18A
330
1E
100
AcDbEntity
  8
0
  6
Continuous
 62
     1
100
AcDbLine
 10
-155.9972304447503
 20
-52.90506400453941
 30
0.0
 11
-155.9972304447503
 21
-63.1050640045394
 31
0.0
  0
LINE
  5
18B
330
1E
100
AcDbEntity
  8
0
  6
Continuous
 62
     1
100
AcDbLine
 10
-151.4972304447502
 20
-39.10506400453943
 30
0.0
 11
-151.4972304447502
 21
-63.1050640045394
 31
0.0
  0
LINE
  5
18C
330
1E
100
AcDbEntity
  8
0
  6
Continuous
 62
     1
100
AcDbLine
 10
-167.8972304447502
 20
-39.10506400453943
 30
0.0
 11
-151.4972304447502
 21
-39.10506400453943
 31
0.0
  0
LINE
  5
18D
330
1E
100
AcDbEntity
  8
0
  6
Continuous
 62
     1
100
AcDbLine
 10
-170.8972304447502
 20
-50.7050640045394
 30
0.0
 11
-170.8972304447502
 21
-46.6050640045394
 31
0.0
  0
LINE
  5
18E
330
1E
100
AcDbEntity
  8
0
  6
Continuous
 62
     1
100
AcDbLine
 10
-170.8972304447502
 20
-75.5050640045394
 30
0.0
 11
-170.8972304447502
 21
-79.6050640045394
 31
0.0
  0
LINE
  5
18F
330
1E
100
AcDbEntity
  8
0
  6
Continuous
 62
     1
100
AcDbLine
 10
-170.4672304447502
 20
-83.15506400453941
 30
0.0
 11
-173.3453411797502
 21
-83.15506400453941
 31
0.0
  0
LINE
  5
190
330
1E
100
AcDbEntity
  8
0
  6
Continuous
 62
     1
100
AcDbLine
 10
-168.8972304447502
 20
-83.15506400453941
 30
0.0
 11
-170.3972304447502
 21
-83.15506400453941
 31
0.0
  0
ARC
  5
191
330
1E
100
AcDbEntity
  8
0
  6
Continuous
 62
     1
100
AcDbCircle
 10
-170.3972304447502
 20
-82.65506400453942
 30
0.0
 40
0.5
100
AcDbArc
 50
180.0
 51
270.0
  0
ARC
  5
192
330
1E
100
AcDbEntity
  8
0
  6
Continuous
 62
     1
100
AcDbCircle
 10
-173.3453411797502
 20
-43.55506400453942
 30
0.0
 40
0.5
100
AcDbArc
 50
90.0
 51
179.819825187
  0
LINE
  5
193
330
1E
100
AcDbEntity
  8
0
  6
Continuous
 62
     1
100
AcDbLine
 10
-168.8972304447502
 20
-43.05506400453942
 30
0.0
 11
-170.3972304447502
 21
-43.05506400453942
 31
0.0
  0
ARC
  5
194
330
1E
100
AcDbEntity
  8
0
  6
Continuous
 62
     1
100
AcDbCircle
 10
-170.3972304447502
 20
-43.55506400453942
 30
0.0
 40
0.5
100
AcDbArc
 50
90.0
 51
180.0
  0
LINE
  5
195
330
1E
100
AcDbEntity
  8
0
  6
Continuous
 62
     1
100
AcDbLine
 10
-170.2872304447502
 20
-43.05506400453942
 30
0.0
 11
-173.3453411797502
 21
-43.05506400453942
 31
0.0
  0
LINE
  5
196
330
1E
100
AcDbEntity
  8
0
  6
Continuous
 62
     1
100
AcDbLine
 10
-170.8972304447502
 20
-79.6050640045394
 30
0.0
 11
-170.8972304447502
 21
-82.65506400453942
 31
0.0
  0
LINE
  5
197
330
1E
100
AcDbEntity
  8
0
  6
Continuous
 62
     1
100
AcDbLine
 10
-170.8972304447502
 20
-46.6050640045394
 30
0.0
 11
-170.8972304447502
 21
-43.55506400453942
 31
0.0
  0
LINE
  5
198
330
1E
100
AcDbEntity
  8
0
  6
Continuous
 62
     1
100
AcDbLine
 10
-170.8972304447502
 20
-81.55506400453942
 30
0.0
 11
-173.8453387077502
 21
-81.55506400453942
 31
0.0
  0
LINE
  5
199
330
1E
100
AcDbEntity
  8
0
  6
Continuous
 62
     1
100
AcDbLine
 10
-170.8972304447502
 20
-44.65506400453941
 30
0.0
 11
-173.8453387077502
 21
-44.65506400453941
 31
0.0
  0
LINE
  5
19A
330
1E
100
AcDbEntity
  8
0
  6
Continuous
 62
     1
100
AcDbLine
 10
-192.2972304447502
 20
-63.1050640045394
 30
0.0
 11
-192.2972304447502
 21
-40.10506400453943
 31
0.0
  0
ARC
  5
19B
330
1E
100
AcDbEntity
  8
0
  6
Continuous
 62
     1
100
AcDbCircle
 10
-191.2972304447502
 20
-40.10506400453943
 30
0.0
 40
1.0
100
AcDbArc
 50
90.0
 51
180.0
  0
LINE
  5
19C
330
1E
100
AcDbEntity
  8
0
  6
Continuous
 62
     1
100
AcDbLine
 10
-192.2972304447502
 20
-63.1050640045394
 30
0.0
 11
-192.2972304447502
 21
-86.10506400453941
 31
0.0
  0
ARC
  5
19D
330
1E
100
AcDbEntity
  8
0
  6
Continuous
 62
     1
100
AcDbCircle
 10
-191.2972304447502
 20
-86.10506400453941
 30
0.0
 40
1.0
100
AcDbArc
 50
180.0
 51
270.0
  0
LINE
  5
19E
330
1E
100
AcDbEntity
  8
0
  6
Continuous
 62
     1
100
AcDbLine
 10
-151.4972304447502
 20
-39.10506400453943
 30
0.0
 11
-151.4972304447502
 21
-63.1050640045394
 31
0.0
  0
LINE
  5
19F
330
1E
100
AcDbEntity
  8
0
  6
Continuous
 62
     3
100
AcDbLine
 10
-178.2972304447502
 20
-79.75506400453941
 30
0.0
 11
-171.5972304447502
 21
-79.75506400453941
 31
0.0
  0
LINE
  5
1A0
330
1E
100
AcDbEntity
  8
0
  6
Continuous
 62
     3
100
AcDbLine
 10
-171.5972304447502
 20
-72.55506400453942
 30
0.0
 11
-179.5972304447502
 21
-72.55506400453942
 31
0.0
  0
LINE
  5
1A1
330
1E
100
AcDbEntity
  8
0
  6
Continuous
 62
     3
100
AcDbLine
 10
-171.5972304447502
 20
-79.75506400453941
 30
0.0
 11
-171.5972304447502
 21
-72.55506400453942
 31
0.0
  0
LINE
  5
1A2
330
1E
100
AcDbEntity
  8
0
  6
Continuous
 62
     3
100
AcDbLine
 10
-172.0972304447502
 20
-79.75506400453941
 30
0.0
 11
-172.0972304447502
 21
-72.55506400453942
 31
0.0
  0
LINE
  5
1A3
330
1E
100
AcDbEntity
  8
0
  6
Continuous
 62
     3
100
AcDbLine
 10
-171.5972304447502
 20
-78.7550640045394
 30
0.0
 11
-172.0972304447502
 21
-78.7550640045394
 31
0.0
  0
LINE
  5
1A4
330
1E
100
AcDbEntity
  8
0
  6
Continuous
 62
     3
100
AcDbLine
 10
-171.5972304447502
 20
-73.55506400453942
 30
0.0
 11
-172.0972304447502
 21
-73.55506400453942
 31
0.0
  0
LINE
  5
1A5
330
1E
100
AcDbEntity
  8
0
  6
Continuous
 62
     3
100
AcDbLine
 10
-172.0972304447502
 20
-76.65506400453941
 30
0.0
 11
-173.0972304447502
 21
-76.65506400453941
 31
0.0
  0
LINE
  5
1A6
330
1E
100
AcDbEntity
  8
0
  6
Continuous
 62
     3
100
AcDbLine
 10
-173.0972304447502
 20
-76.65506400453941
 30
0.0
 11
-172.0972304447502
 21
-79.15506400453941
 31
0.0
  0
LINE
  5
1A7
330
1E
100
AcDbEntity
  8
0
  6
Continuous
 62
     3
100
AcDbLine
 10
-172.0972304447502
 20
-79.15506400453941
 30
0.0
 11
-174.0972304447502
 21
-79.15506400453941
 31
0.0
  0
LINE
  5
1A8
330
1E
100
AcDbEntity
  8
0
  6
Continuous
 62
     3
100
AcDbLine
 10
-174.0972304447502
 20
-79.15506400453941
 30
0.0
 11
-174.0972304447502
 21
-76.15506400453941
 31
0.0
  0
LINE
  5
1A9
330
1E
100
AcDbEntity
  8
0
  6
Continuous
 62
     3
100
AcDbLine
 10
-173.5972304447502
 20
-76.15506400453941
 30
0.0
 11
-173.5972304447502
 21
-77.15506400453941
 31
0.0
  0
LINE
  5
1AA
330
1E
100
AcDbEntity
  8
0
  6
Continuous
 62
     3
100
AcDbLine
 10
-173.5972304447502
 20
-77.15506400453941
 30
0.0
 11
-174.0972304447502
 21
-77.15506400453941
 31
0.0
  0
LINE
  5
1AB
330
1E
100
AcDbEntity
  8
0
  6
Continuous
 62
     3
100
AcDbLine
 10
-171.5972304447502
 20
-73.55506400453942
 30
0.0
 11
-172.0972304447502
 21
-73.55506400453942
 31
0.0
  0
LINE
  5
1AC
330
1E
100
AcDbEntity
  8
0
  6
Continuous
 62
     3
100
AcDbLine
 10
-172.0972304447502
 20
-75.65506400453941
 30
0.0
 11
-173.0972304447502
 21
-75.65506400453941
 31
0.0
  0
LINE
  5
1AD
330
1E
100
AcDbEntity
  8
0
  6
Continuous
 62
     3
100
AcDbLine
 10
-173.0972304447502
 20
-75.65506400453941
 30
0.0
 11
-172.0972304447502
 21
-73.15506400453941
 31
0.0
  0
LINE
  5
1AE
330
1E
100
AcDbEntity
  8
0
  6
Continuous
 62
     3
100
AcDbLine
 10
-172.0972304447502
 20
-73.15506400453941
 30
0.0
 11
-174.0972304447502
 21
-73.15506400453941
 31
0.0
  0
LINE
  5
1AF
330
1E
100
AcDbEntity
  8
0
  6
Continuous
 62
     3
100
AcDbLine
 10
-174.0972304447502
 20
-73.15506400453941
 30
0.0
 11
-174.0972304447502
 21
-76.15506400453941
 31
0.0
  0
LINE
  5
1B0
330
1E
100
AcDbEntity
  8
0
  6
Continuous
 62
     3
100
AcDbLine
 10
-173.5972304447502
 20
-76.15506400453941
 30
0.0
 11
-173.5972304447502
 21
-75.15506400453941
 31
0.0
  0
LINE
  5
1B1
330
1E
100
AcDbEntity
  8
0
  6
Continuous
 62
     3
100
AcDbLine
 10
-173.5972304447502
 20
-75.15506400453941
 30
0.0
 11
-174.0972304447502
 21
-75.15506400453941
 31
0.0
  0
LINE
  5
1B2
330
1E
100
AcDbEntity
  8
0
  6
Continuous
 62
     3
100
AcDbLine
 10
-174.0972304447502
 20
-76.15506400453941
 30
0.0
 11
-174.0972304447502
 21
-78.95506400453939
 31
0.0
  0
LINE
  5
1B3
330
1E
100
AcDbEntity
  8
0
  6
Continuous
 62
     3
100
AcDbLine
 10
-174.0972304447502
 20
-78.95506400453939
 30
0.0
 11
-176.0972304447502
 21
-78.95506400453939
 31
0.0
  0
LINE
  5
1B4
330
1E
100
AcDbEntity
  8
0
  6
Continuous
 62
     3
100
AcDbLine
 10
-176.2972304447502
 20
-76.15506400453941
 30
0.0
 11
-176.2972304447502
 21
-76.7550640045394
 31
0.0
  0
LINE
  5
1B5
330
1E
100
AcDbEntity
  8
0
  6
Continuous
 62
     3
100
AcDbLine
 10
-176.2972304447502
 20
-76.7550640045394
 30
0.0
 11
-176.0972304447502
 21
-78.95506400453939
 31
0.0
  0
LINE
  5
1B6
330
1E
100
AcDbEntity
  8
0
  6
Continuous
 62
     3
100
AcDbLine
 10
-174.0972304447502
 20
-73.15506400453941
 30
0.0
 11
-174.0972304447502
 21
-76.15506400453941
 31
0.0
  0
LINE
  5
1B7
330
1E
100
AcDbEntity
  8
0
  6
Continuous
 62
     3
100
AcDbLine
 10
-174.0972304447502
 20
-76.15506400453941
 30
0.0
 11
-174.0972304447502
 21
-73.3550640045394
 31
0.0
  0
LINE
  5
1B8
330
1E
100
AcDbEntity
  8
0
  6
Continuous
 62
     3
100
AcDbLine
 10
-174.0972304447502
 20
-73.3550640045394
 30
0.0
 11
-176.0972304447502
 21
-73.3550640045394
 31
0.0
  0
LINE
  5
1B9
330
1E
100
AcDbEntity
  8
0
  6
Continuous
 62
     3
100
AcDbLine
 10
-176.2972304447502
 20
-76.15506400453941
 30
0.0
 11
-176.2972304447502
 21
-75.55506400453942
 31
0.0
  0
LINE
  5
1BA
330
1E
100
AcDbEntity
  8
0
  6
Continuous
 62
     3
100
AcDbLine
 10
-176.2972304447502
 20
-75.55506400453942
 30
0.0
 11
-176.0972304447502
 21
-73.3550640045394
 31
0.0
  0
LINE
  5
1BB
330
1E
100
AcDbEntity
  8
0
  6
Continuous
 62
     3
100
AcDbLine
 10
-179.5972304447502
 20
-71.05506400453942
 30
0.0
 11
-171.5972304447502
 21
-71.05506400453942
 31
0.0
  0
LINE
  5
1BC
330
1E
100
AcDbEntity
  8
0
  6
Continuous
 62
     3
100
AcDbLine
 10
-179.5972304447502
 20
-71.05506400453942
 30
0.0
 11
-171.5972304447502
 21
-71.05506400453942
 31
0.0
  0
LINE
  5
1BD
330
1E
100
AcDbEntity
  8
0
  6
Continuous
 62
     3
100
AcDbLine
 10
-171.5972304447502
 20
-71.05506400453942
 30
0.0
 11
-171.5972304447502
 21
-63.8550640045394
 31
0.0
  0
LINE
  5
1BE
330
1E
100
AcDbEntity
  8
0
  6
Continuous
 62
     3
100
AcDbLine
 10
-171.5972304447502
 20
-63.8550640045394
 30
0.0
 11
-179.5972304447502
 21
-63.8550640045394
 31
0.0
  0
LINE
  5
1BF
330
1E
100
AcDbEntity
  8
0
  6
Continuous
 62
     3
100
AcDbLine
 10
-172.0972304447502
 20
-71.05506400453942
 30
0.0
 11
-172.0972304447502
 21
-63.8550640045394
 31
0.0
  0
LINE
  5
1C0
330
1E
100
AcDbEntity
  8
0
  6
Continuous
 62
     3
100
AcDbLine
 10
-171.5972304447502
 20
-70.05506400453942
 30
0.0
 11
-172.0972304447502
 21
-70.05506400453942
 31
0.0
  0
LINE
  5
1C1
330
1E
100
AcDbEntity
  8
0
  6
Continuous
 62
     3
100
AcDbLine
 10
-171.5972304447502
 20
-64.8550640045394
 30
0.0
 11
-172.0972304447502
 21
-64.8550640045394
 31
0.0
  0
LINE
  5
1C2
330
1E
100
AcDbEntity
  8
0
  6
Continuous
 62
     3
100
AcDbLine
 10
-172.0972304447502
 20
-67.95506400453939
 30
0.0
 11
-173.0972304447502
 21
-67.95506400453939
 31
0.0
  0
LINE
  5
1C3
330
1E
100
AcDbEntity
  8
0
  6
Continuous
 62
     3
100
AcDbLine
 10
-173.0972304447502
 20
-67.95506400453939
 30
0.0
 11
-172.0972304447502
 21
-70.45506400453939
 31
0.0
  0
LINE
  5
1C4
330
1E
100
AcDbEntity
  8
0
  6
Continuous
 62
     3
100
AcDbLine
 10
-172.0972304447502
 20
-70.45506400453939
 30
0.0
 11
-174.0972304447502
 21
-70.45506400453939
 31
0.0
  0
LINE
  5
1C5
330
1E
100
AcDbEntity
  8
0
  6
Continuous
 62
     3
100
AcDbLine
 10
-174.0972304447502
 20
-70.45506400453939
 30
0.0
 11
-174.0972304447502
 21
-67.4550640045394
 31
0.0
  0
LINE
  5
1C6
330
1E
100
AcDbEntity
  8
0
  6
Continuous
 62
     3
100
AcDbLine
 10
-173.5972304447502
 20
-67.4550640045394
 30
0.0
 11
-173.5972304447502
 21
-68.45506400453939
 31
0.0
  0
LINE
  5
1C7
330
1E
100
AcDbEntity
  8
0
  6
Continuous
 62
     3
100
AcDbLine
 10
-173.5972304447502
 20
-68.45506400453939
 30
0.0
 11
-174.0972304447502
 21
-68.45506400453939
 31
0.0
  0
LINE
  5
1C8
330
1E
100
AcDbEntity
  8
0
  6
Continuous
 62
     3
100
AcDbLine
 10
-171.5972304447502
 20
-64.8550640045394
 30
0.0
 11
-172.0972304447502
 21
-64.8550640045394
 31
0.0
  0
LINE
  5
1C9
330
1E
100
AcDbEntity
  8
0
  6
Continuous
 62
     3
100
AcDbLine
 10
-172.0972304447502
 20
-66.9550640045394
 30
0.0
 11
-173.0972304447502
 21
-66.9550640045394
 31
0.0
  0
LINE
  5
1CA
330
1E
100
AcDbEntity
  8
0
  6
Continuous
 62
     3
100
AcDbLine
 10
-173.0972304447502
 20
-66.9550640045394
 30
0.0
 11
-172.0972304447502
 21
-64.4550640045394
 31
0.0
  0
LINE
  5
1CB
330
1E
100
AcDbEntity
  8
0
  6
Continuous
 62
     3
100
AcDbLine
 10
-172.0972304447502
 20
-64.4550640045394
 30
0.0
 11
-174.0972304447502
 21
-64.4550640045394
 31
0.0
  0
LINE
  5
1CC
330
1E
100
AcDbEntity
  8
0
  6
Continuous
 62
     3
100
AcDbLine
 10
-174.0972304447502
 20
-64.4550640045394
 30
0.0
 11
-174.0972304447502
 21
-67.4550640045394
 31
0.0
  0
LINE
  5
1CD
330
1E
100
AcDbEntity
  8
0
  6
Continuous
 62
     3
100
AcDbLine
 10
-173.5972304447502
 20
-67.4550640045394
 30
0.0
 11
-173.5972304447502
 21
-66.45506400453939
 31
0.0
  0
LINE
  5
1CE
330
1E
100
AcDbEntity
  8
0
  6
Continuous
 62
     3
100
AcDbLine
 10
-173.5972304447502
 20
-66.45506400453939
 30
0.0
 11
-174.0972304447502
 21
-66.45506400453939
 31
0.0
  0
LINE
  5
1CF
330
1E
100
AcDbEntity
  8
0
  6
Continuous
 62
     3
100
AcDbLine
 10
-174.0972304447502
 20
-67.4550640045394
 30
0.0
 11
-174.0972304447502
 21
-70.25506400453941
 31
0.0
  0
LINE
  5
1D0
330
1E
100
AcDbEntity
  8
0
  6
Continuous
 62
     3
100
AcDbLine
 10
-174.0972304447502
 20
-70.25506400453941
 30
0.0
 11
-176.0972304447502
 21
-70.25506400453941
 31
0.0
  0
LINE
  5
1D1
330
1E
100
AcDbEntity
  8
0
  6
Continuous
 62
     3
100
AcDbLine
 10
-176.2972304447502
 20
-67.4550640045394
 30
0.0
 11
-176.2972304447502
 21
-68.05506400453942
 31
0.0
  0
LINE
  5
1D2
330
1E
100
AcDbEntity
  8
0
  6
Continuous
 62
     3
100
AcDbLine
 10
-176.2972304447502
 20
-68.05506400453942
 30
0.0
 11
-176.0972304447502
 21
-70.25506400453941
 31
0.0
  0
LINE
  5
1D3
330
1E
100
AcDbEntity
  8
0
  6
Continuous
 62
     3
100
AcDbLine
 10
-174.0972304447502
 20
-64.4550640045394
 30
0.0
 11
-174.0972304447502
 21
-67.4550640045394
 31
0.0
  0
LINE
  5
1D4
330
1E
100
AcDbEntity
  8
0
  6
Continuous
 62
     3
100
AcDbLine
 10
-174.0972304447502
 20
-67.4550640045394
 30
0.0
 11
-174.0972304447502
 21
-64.65506400453941
 31
0.0
  0
LINE
  5
1D5
330
1E
100
AcDbEntity
  8
0
  6
Continuous
 62
     3
100
AcDbLine
 10
-174.0972304447502
 20
-64.65506400453941
 30
0.0
 11
-176.0972304447502
 21
-64.65506400453941
 31
0.0
  0
LINE
  5
1D6
330
1E
100
AcDbEntity
  8
0
  6
Continuous
 62
     3
100
AcDbLine
 10
-176.2972304447502
 20
-67.4550640045394
 30
0.0
 11
-176.2972304447502
 21
-66.8550640045394
 31
0.0
  0
LINE
  5
1D7
330
1E
100
AcDbEntity
  8
0
  6
Continuous
 62
     3
100
AcDbLine
 10
-176.2972304447502
 20
-66.8550640045394
 30
0.0
 11
-176.0972304447502
 21
-64.65506400453941
 31
0.0
  0
LINE
  5
1D8
330
1E
100
AcDbEntity
  8
0
  6
Continuous
 62
     3
100
AcDbLine
 10
-178.2972304447502
 20
-63.8550640045394
 30
0.0
 11
-176.4972304447502
 21
-63.8550640045394
 31
0.0
  0
LINE
  5
1D9
330
1E
100
AcDbEntity
  8
0
  6
Continuous
 62
     3
100
AcDbLine
 10
-179.5972304447502
 20
-62.3550640045394
 30
0.0
 11
-171.5972304447502
 21
-62.3550640045394
 31
0.0
  0
LINE
  5
1DA
330
1E
100
AcDbEntity
  8
0
  6
Continuous
 62
     3
100
AcDbLine
 10
-171.5972304447502
 20
-62.3550640045394
 30
0.0
 11
-171.5972304447502
 21
-55.15506400453941
 31
0.0
  0
LINE
  5
1DB
330
1E
100
AcDbEntity
  8
0
  6
Continuous
 62
     3
100
AcDbLine
 10
-171.5972304447502
 20
-55.15506400453941
 30
0.0
 11
-178.2972304447502
 21
-55.15506400453941
 31
0.0
  0
LINE
  5
1DC
330
1E
100
AcDbEntity
  8
0
  6
Continuous
 62
     3
100
AcDbLine
 10
-172.0972304447502
 20
-62.3550640045394
 30
0.0
 11
-172.0972304447502
 21
-55.15506400453941
 31
0.0
  0
LINE
  5
1DD
330
1E
100
AcDbEntity
  8
0
  6
Continuous
 62
     3
100
AcDbLine
 10
-171.5972304447502
 20
-61.3550640045394
 30
0.0
 11
-172.0972304447502
 21
-61.3550640045394
 31
0.0
  0
LINE
  5
1DE
330
1E
100
AcDbEntity
  8
0
  6
Continuous
 62
     3
100
AcDbLine
 10
-171.5972304447502
 20
-56.15506400453941
 30
0.0
 11
-172.0972304447502
 21
-56.15506400453941
 31
0.0
  0
LINE
  5
1DF
330
1E
100
AcDbEntity
  8
0
  6
Continuous
 62
     3
100
AcDbLine
 10
-172.0972304447502
 20
-59.2550640045394
 30
0.0
 11
-173.0972304447502
 21
-59.2550640045394
 31
0.0
  0
LINE
  5
1E0
330
1E
100
AcDbEntity
  8
0
  6
Continuous
 62
     3
100
AcDbLine
 10
-173.0972304447502
 20
-59.2550640045394
 30
0.0
 11
-172.0972304447502
 21
-61.7550640045394
 31
0.0
  0
LINE
  5
1E1
330
1E
100
AcDbEntity
  8
0
  6
Continuous
 62
     3
100
AcDbLine
 10
-172.0972304447502
 20
-61.7550640045394
 30
0.0
 11
-174.0972304447502
 21
-61.7550640045394
 31
0.0
  0
LINE
  5
1E2
330
1E
100
AcDbEntity
  8
0
  6
Continuous
 62
     3
100
AcDbLine
 10
-174.0972304447502
 20
-61.7550640045394
 30
0.0
 11
-174.0972304447502
 21
-58.7550640045394
 31
0.0
  0
LINE
  5
1E3
330
1E
100
AcDbEntity
  8
0
  6
Continuous
 62
     3
100
AcDbLine
 10
-173.5972304447502
 20
-58.7550640045394
 30
0.0
 11
-173.5972304447502
 21
-59.75506400453941
 31
0.0
  0
LINE
  5
1E4
330
1E
100
AcDbEntity
  8
0
  6
Continuous
 62
     3
100
AcDbLine
 10
-173.5972304447502
 20
-59.75506400453941
 30
0.0
 11
-174.0972304447502
 21
-59.75506400453941
 31
0.0
  0
LINE
  5
1E5
330
1E
100
AcDbEntity
  8
0
  6
Continuous
 62
     3
100
AcDbLine
 10
-171.5972304447502
 20
-56.15506400453941
 30
0.0
 11
-172.0972304447502
 21
-56.15506400453941
 31
0.0
  0
LINE
  5
1E6
330
1E
100
AcDbEntity
  8
0
  6
Continuous
 62
     3
100
AcDbLine
 10
-172.0972304447502
 20
-58.2550640045394
 30
0.0
 11
-173.0972304447502
 21
-58.2550640045394
 31
0.0
  0
LINE
  5
1E7
330
1E
100
AcDbEntity
  8
0
  6
Continuous
 62
     3
100
AcDbLine
 10
-173.0972304447502
 20
-58.2550640045394
 30
0.0
 11
-172.0972304447502
 21
-55.7550640045394
 31
0.0
  0
LINE
  5
1E8
330
1E
100
AcDbEntity
  8
0
  6
Continuous
 62
     3
100
AcDbLine
 10
-172.0972304447502
 20
-55.7550640045394
 30
0.0
 11
-174.0972304447502
 21
-55.7550640045394
 31
0.0
  0
LINE
  5
1E9
330
1E
100
AcDbEntity
  8
0
  6
Continuous
 62
     3
100
AcDbLine
 10
-174.0972304447502
 20
-55.7550640045394
 30
0.0
 11
-174.0972304447502
 21
-58.7550640045394
 31
0.0
  0
LINE
  5
1EA
330
1E
100
AcDbEntity
  8
0
  6
Continuous
 62
     3
100
AcDbLine
 10
-173.5972304447502
 20
-58.7550640045394
 30
0.0
 11
-173.5972304447502
 21
-57.75506400453941
 31
0.0
  0
LINE
  5
1EB
330
1E
100
AcDbEntity
  8
0
  6
Continuous
 62
     3
100
AcDbLine
 10
-173.5972304447502
 20
-57.75506400453941
 30
0.0
 11
-174.0972304447502
 21
-57.75506400453941
 31
0.0
  0
LINE
  5
1EC
330
1E
100
AcDbEntity
  8
0
  6
Continuous
 62
     3
100
AcDbLine
 10
-174.0972304447502
 20
-58.7550640045394
 30
0.0
 11
-174.0972304447502
 21
-61.55506400453941
 31
0.0
  0
LINE
  5
1ED
330
1E
100
AcDbEntity
  8
0
  6
Continuous
 62
     3
100
AcDbLine
 10
-174.0972304447502
 20
-61.55506400453941
 30
0.0
 11
-176.0972304447502
 21
-61.55506400453941
 31
0.0
  0
LINE
  5
1EE
330
1E
100
AcDbEntity
  8
0
  6
Continuous
 62
     3
100
AcDbLine
 10
-176.2972304447502
 20
-58.7550640045394
 30
0.0
 11
-176.2972304447502
 21
-59.3550640045394
 31
0.0
  0
LINE
  5
1EF
330
1E
100
AcDbEntity
  8
0
  6
Continuous
 62
     3
100
AcDbLine
 10
-176.2972304447502
 20
-59.3550640045394
 30
0.0
 11
-176.0972304447502
 21
-61.55506400453941
 31
0.0
  0
LINE
  5
1F0
330
1E
100
AcDbEntity
  8
0
  6
Continuous
 62
     3
100
AcDbLine
 10
-174.0972304447502
 20
-55.7550640045394
 30
0.0
 11
-174.0972304447502
 21
-58.7550640045394
 31
0.0
  0
LINE
  5
1F1
330
1E
100
AcDbEntity
  8
0
  6
Continuous
 62
     3
100
AcDbLine
 10
-174.0972304447502
 20
-58.7550640045394
 30
0.0
 11
-174.0972304447502
 21
-55.95506400453939
 31
0.0
  0
LINE
  5
1F2
330
1E
100
AcDbEntity
  8
0
  6
Continuous
 62
     3
100
AcDbLine
 10
-174.0972304447502
 20
-55.95506400453939
 30
0.0
 11
-176.0972304447502
 21
-55.95506400453939
 31
0.0
  0
LINE
  5
1F3
330
1E
100
AcDbEntity
  8
0
  6
Continuous
 62
     3
100
AcDbLine
 10
-176.2972304447502
 20
-58.7550640045394
 30
0.0
 11
-176.2972304447502
 21
-58.15506400453941
 31
0.0
  0
LINE
  5
1F4
330
1E
100
AcDbEntity
  8
0
  6
Continuous
 62
     3
100
AcDbLine
 10
-176.2972304447502
 20
-58.15506400453941
 30
0.0
 11
-176.0972304447502
 21
-55.95506400453939
 31
0.0
  0
LINE
  5
1F5
330
1E
100
AcDbEntity
  8
0
  6
Continuous
 62
     3
100
AcDbLine
 10
-178.2972304447502
 20
-53.65506400453941
 30
0.0
 11
-171.5972304447502
 21
-53.65506400453941
 31
0.0
  0
LINE
  5
1F6
330
1E
100
AcDbEntity
  8
0
  6
Continuous
 62
     3
100
AcDbLine
 10
-171.5972304447502
 20
-46.45506400453939
 30
0.0
 11
-179.5972304447502
 21
-46.45506400453939
 31
0.0
  0
LINE
  5
1F7
330
1E
100
AcDbEntity
  8
0
  6
Continuous
 62
     3
100
AcDbLine
 10
-172.0972304447502
 20
-53.65506400453941
 30
0.0
 11
-172.0972304447502
 21
-46.45506400453939
 31
0.0
  0
LINE
  5
1F8
330
1E
100
AcDbEntity
  8
0
  6
Continuous
 62
     3
100
AcDbLine
 10
-171.5972304447502
 20
-53.65506400453941
 30
0.0
 11
-171.5972304447502
 21
-46.45506400453939
 31
0.0
  0
LINE
  5
1F9
330
1E
100
AcDbEntity
  8
0
  6
Continuous
 62
     3
100
AcDbLine
 10
-171.5972304447502
 20
-46.45506400453939
 30
0.0
 11
-178.2972304447502
 21
-46.45506400453939
 31
0.0
  0
LINE
  5
1FA
330
1E
100
AcDbEntity
  8
0
  6
Continuous
 62
     3
100
AcDbLine
 10
-172.0972304447502
 20
-53.65506400453941
 30
0.0
 11
-172.0972304447502
 21
-46.45506400453939
 31
0.0
  0
LINE
  5
1FB
330
1E
100
AcDbEntity
  8
0
  6
Continuous
 62
     3
100
AcDbLine
 10
-171.5972304447502
 20
-52.65506400453941
 30
0.0
 11
-172.0972304447502
 21
-52.65506400453941
 31
0.0
  0
LINE
  5
1FC
330
1E
100
AcDbEntity
  8
0
  6
Continuous
 62
     3
100
AcDbLine
 10
-171.5972304447502
 20
-47.4550640045394
 30
0.0
 11
-172.0972304447502
 21
-47.4550640045394
 31
0.0
  0
LINE
  5
1FD
330
1E
100
AcDbEntity
  8
0
  6
Continuous
 62
     3
100
AcDbLine
 10
-172.0972304447502
 20
-50.55506400453942
 30
0.0
 11
-173.0972304447502
 21
-50.55506400453942
 31
0.0
  0
LINE
  5
1FE
330
1E
100
AcDbEntity
  8
0
  6
Continuous
 62
     3
100
AcDbLine
 10
-173.0972304447502
 20
-50.55506400453942
 30
0.0
 11
-172.0972304447502
 21
-53.05506400453942
 31
0.0
  0
LINE
  5
1FF
330
1E
100
AcDbEntity
  8
0
  6
Continuous
 62
     3
100
AcDbLine
 10
-172.0972304447502
 20
-53.05506400453942
 30
0.0
 11
-174.0972304447502
 21
-53.05506400453942
 31
0.0
  0
LINE
  5
200
330
1E
100
AcDbEntity
  8
0
  6
Continuous
 62
     3
100
AcDbLine
 10
-174.0972304447502
 20
-53.05506400453942
 30
0.0
 11
-174.0972304447502
 21
-50.05506400453942
 31
0.0
  0
LINE
  5
201
330
1E
100
AcDbEntity
  8
0
  6
Continuous
 62
     3
100
AcDbLine
 10
-173.5972304447502
 20
-50.05506400453942
 30
0.0
 11
-173.5972304447502
 21
-51.05506400453942
 31
0.0
  0
LINE
  5
202
330
1E
100
AcDbEntity
  8
0
  6
Continuous
 62
     3
100
AcDbLine
 10
-173.5972304447502
 20
-51.05506400453942
 30
0.0
 11
-174.0972304447502
 21
-51.05506400453942
 31
0.0
  0
LINE
  5
203
330
1E
100
AcDbEntity
  8
0
  6
Continuous
 62
     3
100
AcDbLine
 10
-171.5972304447502
 20
-47.4550640045394
 30
0.0
 11
-172.0972304447502
 21
-47.4550640045394
 31
0.0
  0
LINE
  5
204
330
1E
100
AcDbEntity
  8
0
  6
Continuous
 62
     3
100
AcDbLine
 10
-172.0972304447502
 20
-49.55506400453941
 30
0.0
 11
-173.0972304447502
 21
-49.55506400453941
 31
0.0
  0
LINE
  5
205
330
1E
100
AcDbEntity
  8
0
  6
Continuous
 62
     3
100
AcDbLine
 10
-173.0972304447502
 20
-49.55506400453941
 30
0.0
 11
-172.0972304447502
 21
-47.05506400453941
 31
0.0
  0
LINE
  5
206
330
1E
100
AcDbEntity
  8
0
  6
Continuous
 62
     3
100
AcDbLine
 10
-172.0972304447502
 20
-47.05506400453941
 30
0.0
 11
-174.0972304447502
 21
-47.05506400453941
 31
0.0
  0
LINE
  5
207
330
1E
100
AcDbEntity
  8
0
  6
Continuous
 62
     3
100
AcDbLine
 10
-174.0972304447502
 20
-47.05506400453941
 30
0.0
 11
-174.0972304447502
 21
-50.05506400453942
 31
0.0
  0
LINE
  5
208
330
1E
100
AcDbEntity
  8
0
  6
Continuous
 62
     3
100
AcDbLine
 10
-173.5972304447502
 20
-50.05506400453942
 30
0.0
 11
-173.5972304447502
 21
-49.05506400453941
 31
0.0
  0
LINE
  5
209
330
1E
100
AcDbEntity
  8
0
  6
Continuous
 62
     3
100
AcDbLine
 10
-173.5972304447502
 20
-49.05506400453941
 30
0.0
 11
-174.0972304447502
 21
-49.05506400453941
 31
0.0
  0
LINE
  5
20A
330
1E
100
AcDbEntity
  8
0
  6
Continuous
 62
     3
100
AcDbLine
 10
-174.0972304447502
 20
-50.05506400453942
 30
0.0
 11
-174.0972304447502
 21
-52.8550640045394
 31
0.0
  0
LINE
  5
20B
330
1E
100
AcDbEntity
  8
0
  6
Continuous
 62
     3
100
AcDbLine
 10
-174.0972304447502
 20
-52.8550640045394
 30
0.0
 11
-176.0972304447502
 21
-52.8550640045394
 31
0.0
  0
LINE
  5
20C
330
1E
100
AcDbEntity
  8
0
  6
Continuous
 62
     3
100
AcDbLine
 10
-176.2972304447502
 20
-50.05506400453942
 30
0.0
 11
-176.2972304447502
 21
-50.65506400453941
 31
0.0
  0
LINE
  5
20D
330
1E
100
AcDbEntity
  8
0
  6
Continuous
 62
     3
100
AcDbLine
 10
-176.2972304447502
 20
-50.65506400453941
 30
0.0
 11
-176.0972304447502
 21
-52.8550640045394
 31
0.0
  0
LINE
  5
20E
330
1E
100
AcDbEntity
  8
0
  6
Continuous
 62
     3
100
AcDbLine
 10
-174.0972304447502
 20
-47.05506400453941
 30
0.0
 11
-174.0972304447502
 21
-50.05506400453942
 31
0.0
  0
LINE
  5
20F
330
1E
100
AcDbEntity
  8
0
  6
Continuous
 62
     3
100
AcDbLine
 10
-174.0972304447502
 20
-50.05506400453942
 30
0.0
 11
-174.0972304447502
 21
-47.2550640045394
 31
0.0
  0
LINE
  5
210
330
1E
100
AcDbEntity
  8
0
  6
Continuous
 62
     3
100
AcDbLine
 10
-174.0972304447502
 20
-47.2550640045394
 30
0.0
 11
-176.0972304447502
 21
-47.2550640045394
 31
0.0
  0
LINE
  5
211
330
1E
100
AcDbEntity
  8
0
  6
Continuous
 62
     3
100
AcDbLine
 10
-176.2972304447502
 20
-50.05506400453942
 30
0.0
 11
-176.2972304447502
 21
-49.4550640045394
 31
0.0
  0
LINE
  5
212
330
1E
100
AcDbEntity
  8
0
  6
Continuous
 62
     3
100
AcDbLine
 10
-176.2972304447502
 20
-49.4550640045394
 30
0.0
 11
-176.0972304447502
 21
-47.2550640045394
 31
0.0
  0
LINE
  5
213
330
1E
100
AcDbEntity
  8
0
  6
Continuous
 62
     3
100
AcDbLine
 10
-178.2972304447502
 20
-46.45506400453939
 30
0.0
 11
-176.4972304447502
 21
-46.45506400453939
 31
0.0
  0
LINE
  5
214
330
1E
100
AcDbEntity
  8
0
  6
Continuous
 62
     3
100
AcDbLine
 10
-179.5972304447502
 20
-72.55506400453942
 30
0.0
 11
-179.5972304447502
 21
-71.05506400453942
 31
0.0
  0
LINE
  5
215
330
1E
100
AcDbEntity
  8
0
  6
Continuous
 62
     3
100
AcDbLine
 10
-178.2972304447502
 20
-71.05506400453942
 30
0.0
 11
-178.2972304447502
 21
-72.55506400453942
 31
0.0
  0
LINE
  5
216
330
1E
100
AcDbEntity
  8
0
  6
Continuous
 62
     3
100
AcDbLine
 10
-179.5972304447502
 20
-63.8550640045394
 30
0.0
 11
-179.5972304447502
 21
-62.3550640045394
 31
0.0
  0
LINE
  5
217
330
1E
100
AcDbEntity
  8
0
  6
Continuous
 62
     3
100
AcDbLine
 10
-178.2972304447502
 20
-62.3550640045394
 30
0.0
 11
-178.2972304447502
 21
-63.8550640045394
 31
0.0
  0
LINE
  5
218
330
1E
100
AcDbEntity
  8
0
  6
Continuous
 62
     3
100
AcDbLine
 10
-176.4972304447502
 20
-63.8550640045394
 30
0.0
 11
-176.4972304447502
 21
-62.3550640045394
 31
0.0
  0
LINE
  5
219
330
1E
100
AcDbEntity
  8
0
  6
Continuous
 62
     3
100
AcDbLine
 10
-178.2972304447502
 20
-55.15506400453941
 30
0.0
 11
-178.2972304447502
 21
-53.65506400453941
 31
0.0
  0
LINE
  5
21A
330
1E
100
AcDbEntity
  8
0
  6
Continuous
 62
     3
100
AcDbLine
 10
-178.2972304447502
 20
-81.25506400453941
 30
0.0
 11
-178.2972304447502
 21
-79.75506400453941
 31
0.0
  0
LINE
  5
21B
330
1E
100
AcDbEntity
  8
0
  6
LTYPE1
 62
     3
100
AcDbLine
 10
-176.2972304447502
 20
-44.9550640045394
 30
0.0
 11
-181.2972304447502
 21
-44.9550640045394
 31
0.0
  0
LINE
  5
21C
330
1E
100
AcDbEntity
  8
0
  6
Continuous
 62
     3
100
AcDbLine
 10
-179.5972304447502
 20
-46.45506400453939
 30
0.0
 11
-179.5972304447502
 21
-44.9550640045394
 31
0.0
  0
LINE
  5
21D
330
1E
100
AcDbEntity
  8
0
  6
Continuous
 62
     3
100
AcDbLine
 10
-178.2972304447502
 20
-44.9550640045394
 30
0.0
 11
-178.2972304447502
 21
-46.45506400453939
 31
0.0
  0
LINE
  5
21E
330
1E
100
AcDbEntity
  8
0
  6
LTYPE1
 62
     3
100
AcDbLine
 10
-181.2972304447502
 20
-81.25506400453941
 30
0.0
 11
-181.2972304447502
 21
-44.9550640045394
 31
0.0
  0
LINE
  5
21F
330
1E
100
AcDbEntity
  8
0
  6
Continuous
 62
     3
100
AcDbLine
 10
-178.2972304447502
 20
-44.9550640045394
 30
0.0
 11
-178.2972304447502
 21
-46.45506400453939
 31
0.0
  0
LINE
  5
220
330
1E
100
AcDbEntity
  8
0
  6
Continuous
 62
     3
100
AcDbLine
 10
-171.5972304447502
 20
-53.65506400453941
 30
0.0
 11
-171.5972304447502
 21
-46.45506400453939
 31
0.0
  0
LINE
  5
221
330
1E
100
AcDbEntity
  8
0
  6
LTYPE1
 62
     3
100
AcDbLine
 10
-176.2972304447502
 20
-44.9550640045394
 30
0.0
 11
-176.2972304447502
 21
-81.25506400453941
 31
0.0
  0
ARC
  5
222
330
1E
100
AcDbEntity
  8
0
  6
Continuous
 62
     1
100
AcDbCircle
 10
-173.3453411797502
 20
-82.65506400453942
 30
0.0
 40
0.5
100
AcDbArc
 50
164.213321256
 51
270.0
  0
LINE
  5
223
330
1E
100
AcDbEntity
  8
0
  6
Continuous
 62
     1
100
AcDbLine
 10
-173.8453387077502
 20
-81.25506400453941
 30
0.0
 11
-173.8453387077502
 21
-82.65663632353943
 31
0.0
  0
LINE
  5
224
330
1E
100
AcDbEntity
  8
0
  6
Continuous
 62
     1
100
AcDbLine
 10
-173.8453387077502
 20
-43.5534916855394
 30
0.0
 11
-173.8453387077502
 21
-44.9550640045394
 31
0.0
  0
LINE
  5
225
330
1E
100
AcDbEntity
  8
0
  6
Continuous
 62
     3
100
AcDbLine
 10
-170.8972304447502
 20
-44.9550640045394
 30
0.0
 11
-179.5972304447502
 21
-44.9550640045394
 31
0.0
  0
LINE
  5
226
330
1E
100
AcDbEntity
  8
0
  6
LTYPE1
 62
     3
100
AcDbLine
 10
-181.2972304447502
 20
-81.25506400453941
 30
0.0
 11
-170.8972304447502
 21
-81.25506400453941
 31
0.0
  0
LINE
  5
227
330
1E
100
AcDbEntity
  8
0
  6
Continuous
 62
     3
100
AcDbLine
 10
-181.2972304447502
 20
-46.3618436655394
 30
0.0
 11
-192.2972304447502
 21
-46.45506400453939
 31
0.0
  0
LINE
  5
228
330
1E
100
AcDbEntity
  8
0
  6
Continuous
 62
     3
100
AcDbLine
 10
-181.2972304447502
 20
-48.34828434353943
 30
0.0
 11
-192.2972304447502
 21
-48.2550640045394
 31
0.0
  0
LINE
  5
229
330
1E
100
AcDbEntity
  8
0
  6
Continuous
 62
     3
100
AcDbLine
 10
-181.2972304447502
 20
-49.86184366553939
 30
0.0
 11
-192.2972304447502
 21
-49.9550640045394
 31
0.0
  0
LINE
  5
22A
330
1E
100
AcDbEntity
  8
0
  6
Continuous
 62
     3
100
AcDbLine
 10
-181.2972304447502
 20
-51.84828434353943
 30
0.0
 11
-192.2972304447502
 21
-51.7550640045394
 31
0.0
  0
LINE
  5
22B
330
1E
100
AcDbEntity
  8
0
  6
Continuous
 62
     3
100
AcDbLine
 10
-181.2972304447502
 20
-53.3618436655394
 30
0.0
 11
-192.2972304447502
 21
-53.45506400453939
 31
0.0
  0
LINE
  5
22C
330
1E
100
AcDbEntity
  8
0
  6
Continuous
 62
     3
100
AcDbLine
 10
-181.2972304447502
 20
-55.34828434353944
 30
0.0
 11
-192.2972304447502
 21
-55.25506400453941
 31
0.0
  0
LINE
  5
22D
330
1E
100
AcDbEntity
  8
0
  6
Continuous
 62
     3
100
AcDbLine
 10
-181.2972304447502
 20
-56.86184366553939
 30
0.0
 11
-192.2972304447502
 21
-56.9550640045394
 31
0.0
  0
LINE
  5
22E
330
1E
100
AcDbEntity
  8
0
  6
Continuous
 62
     3
100
AcDbLine
 10
-181.2972304447502
 20
-58.84828434353943
 30
0.0
 11
-192.2972304447502
 21
-58.7550640045394
 31
0.0
  0
LINE
  5
22F
330
1E
100
AcDbEntity
  8
0
  6
Continuous
 62
     3
100
AcDbLine
 10
-181.2972304447502
 20
-60.36184366553939
 30
0.0
 11
-192.2972304447502
 21
-60.45506400453939
 31
0.0
  0
LINE
  5
230
330
1E
100
AcDbEntity
  8
0
  6
Continuous
 62
     3
100
AcDbLine
 10
-181.2972304447502
 20
-62.34828434353943
 30
0.0
 11
-192.2972304447502
 21
-62.25506400453941
 31
0.0
  0
LINE
  5
231
330
1E
100
AcDbEntity
  8
0
  6
Continuous
 62
     3
100
AcDbLine
 10
-181.2972304447502
 20
-63.8618436655394
 30
0.0
 11
-192.2972304447502
 21
-63.95506400453939
 31
0.0
  0
LINE
  5
232
330
1E
100
AcDbEntity
  8
0
  6
Continuous
 62
     3
100
AcDbLine
 10
-181.2972304447502
 20
-65.84828434353943
 30
0.0
 11
-192.2972304447502
 21
-65.7550640045394
 31
0.0
  0
LINE
  5
233
330
1E
100
AcDbEntity
  8
0
  6
Continuous
 62
     3
100
AcDbLine
 10
-181.2972304447502
 20
-67.36184366553939
 30
0.0
 11
-192.2972304447502
 21
-67.4550640045394
 31
0.0
  0
LINE
  5
234
330
1E
100
AcDbEntity
  8
0
  6
Continuous
 62
     3
100
AcDbLine
 10
-181.2972304447502
 20
-69.34828434353943
 30
0.0
 11
-192.2972304447502
 21
-69.2550640045394
 31
0.0
  0
LINE
  5
235
330
1E
100
AcDbEntity
  8
0
  6
Continuous
 62
     3
100
AcDbLine
 10
-181.2972304447502
 20
-70.8618436655394
 30
0.0
 11
-192.2972304447502
 21
-70.95506400453939
 31
0.0
  0
LINE
  5
236
330
1E
100
AcDbEntity
  8
0
  6
Continuous
 62
     3
100
AcDbLine
 10
-181.2972304447502
 20
-72.84828434353944
 30
0.0
 11
-192.2972304447502
 21
-72.75506400453941
 31
0.0
  0
LINE
  5
237
330
1E
100
AcDbEntity
  8
0
  6
Continuous
 62
     3
100
AcDbLine
 10
-181.2972304447502
 20
-74.36184366553939
 30
0.0
 11
-192.2972304447502
 21
-74.4550640045394
 31
0.0
  0
LINE
  5
238
330
1E
100
AcDbEntity
  8
0
  6
Continuous
 62
     3
100
AcDbLine
 10
-181.2972304447502
 20
-76.34828434353943
 30
0.0
 11
-192.2972304447502
 21
-76.2550640045394
 31
0.0
  0
LINE
  5
239
330
1E
100
AcDbEntity
  8
0
  6
Continuous
 62
     3
100
AcDbLine
 10
-181.2972304447502
 20
-77.86184366553939
 30
0.0
 11
-192.2972304447502
 21
-77.95506400453939
 31
0.0
  0
LINE
  5
23A
330
1E
100
AcDbEntity
  8
0
  6
Continuous
 62
     3
100
AcDbLine
 10
-181.2972304447502
 20
-79.84828434353943
 30
0.0
 11
-192.2972304447502
 21
-79.75506400453941
 31
0.0
  0
LINE
  5
23B
330
1E
100
AcDbEntity
  8
0
  6
Continuous
 62
     3
100
AcDbLine
 10
-356.3972304447502
 20
-62.31987881953941
 30
0.0
 11
-356.3972304447502
 21
-63.89024918953942
 31
0.0
  0
LINE
  5
23C
330
1E
100
AcDbEntity
  8
0
  6
Continuous
 62
     3
100
AcDbLine
 10
-356.3972304447502
 20
-65.81987881953941
 30
0.0
 11
-356.3972304447502
 21
-67.39024918953941
 31
0.0
  0
LINE
  5
23D
330
1E
100
AcDbEntity
  8
0
  6
Continuous
 62
     3
100
AcDbLine
 10
-356.3972304447502
 20
-69.31987881953941
 30
0.0
 11
-356.3972304447502
 21
-70.89024918953942
 31
0.0
  0
LINE
  5
23E
330
1E
100
AcDbEntity
  8
0
  6
Continuous
 62
     3
100
AcDbLine
 10
-356.3972304447502
 20
-72.81987881953941
 30
0.0
 11
-356.3972304447502
 21
-74.39024918953942
 31
0.0
  0
LINE
  5
23F
330
1E
100
AcDbEntity
  8
0
  6
Continuous
 62
     3
100
AcDbLine
 10
-356.3972304447502
 20
-76.31987881953941
 30
0.0
 11
-356.3972304447502
 21
-77.89024918953941
 31
0.0
  0
LINE
  5
240
330
1E
100
AcDbEntity
  8
0
  6
Continuous
 62
     3
100
AcDbLine
 10
-356.3972304447502
 20
-79.81987881953941
 30
0.0
 11
-356.3972304447502
 21
-81.39024918953941
 31
0.0
  0
LINE
  5
241
330
1E
100
AcDbEntity
  8
0
  6
Continuous
 62
     3
100
AcDbLine
 10
-366.1972304447502
 20
-81.35506400453939
 30
0.0
 11
-354.3972304447502
 21
-81.45506400453939
 31
0.0
  0
LINE
  5
242
330
1E
100
AcDbEntity
  8
0
  6
Continuous
 62
     3
100
AcDbLine
 10
-356.3972304447502
 20
-83.3198788195394
 30
0.0
 11
-356.3972304447502
 21
-84.89024918953942
 31
0.0
  0
LINE
  5
243
330
1E
100
AcDbEntity
  8
0
  6
Continuous
 62
     3
100
AcDbLine
 10
-366.1972304447502
 20
-84.1050640045394
 30
0.0
 11
-366.1972304447502
 21
-83.3550640045394
 31
0.0
  0
LINE
  5
244
330
1E
100
AcDbEntity
  8
0
  6
Continuous
 62
     3
100
AcDbLine
 10
-366.1972304447502
 20
-83.3550640045394
 30
0.0
 11
-354.3972304447502
 21
-83.2550640045394
 31
0.0
  0
LINE
  5
245
330
1E
100
AcDbEntity
  8
0
  6
Continuous
 62
     3
100
AcDbLine
 10
-366.1972304447502
 20
-84.1050640045394
 30
0.0
 11
-366.1972304447502
 21
-84.85506400453941
 31
0.0
  0
LINE
  5
246
330
1E
100
AcDbEntity
  8
0
  6
Continuous
 62
     3
100
AcDbLine
 10
-366.1972304447502
 20
-84.85506400453941
 30
0.0
 11
-354.3972304447502
 21
-84.95506400453939
 31
0.0
  0
LINE
  5
247
330
1E
100
AcDbEntity
  8
0
  6
Continuous
 62
     3
100
AcDbLine
 10
-356.3972304447502
 20
-60.39024918953941
 30
0.0
 11
-356.3972304447502
 21
-58.81987881953941
 31
0.0
  0
LINE
  5
248
330
1E
100
AcDbEntity
  8
0
  6
Continuous
 62
     3
100
AcDbLine
 10
-356.3972304447502
 20
-56.89024918953942
 30
0.0
 11
-356.3972304447502
 21
-55.31987881953941
 31
0.0
  0
LINE
  5
249
330
1E
100
AcDbEntity
  8
0
  6
Continuous
 62
     3
100
AcDbLine
 10
-356.3972304447502
 20
-53.39024918953942
 30
0.0
 11
-356.3972304447502
 21
-51.81987881953941
 31
0.0
  0
LINE
  5
24A
330
1E
100
AcDbEntity
  8
0
  6
Continuous
 62
     3
100
AcDbLine
 10
-356.3972304447502
 20
-49.89024918953941
 30
0.0
 11
-356.3972304447502
 21
-48.31987881953941
 31
0.0
  0
LINE
  5
24B
330
1E
100
AcDbEntity
  8
0
  6
Continuous
 62
     3
100
AcDbLine
 10
-356.3972304447502
 20
-46.39024918953942
 30
0.0
 11
-356.3972304447502
 21
-44.81987881953941
 31
0.0
  0
LINE
  5
24C
330
1E
100
AcDbEntity
  8
0
  6
Continuous
 62
     3
100
AcDbLine
 10
-366.1972304447502
 20
-44.8550640045394
 30
0.0
 11
-354.3972304447502
 21
-44.7550640045394
 31
0.0
  0
LINE
  5
24D
330
1E
100
AcDbEntity
  8
0
  6
Continuous
 62
     3
100
AcDbLine
 10
-356.3972304447502
 20
-42.89024918953941
 30
0.0
 11
-356.3972304447502
 21
-41.31987881953941
 31
0.0
  0
LINE
  5
24E
330
1E
100
AcDbEntity
  8
0
  6
Continuous
 62
     3
100
AcDbLine
 10
-366.1972304447502
 20
-42.10506400453939
 30
0.0
 11
-366.1972304447502
 21
-42.8550640045394
 31
0.0
  0
LINE
  5
24F
330
1E
100
AcDbEntity
  8
0
  6
Continuous
 62
     3
100
AcDbLine
 10
-366.1972304447502
 20
-42.8550640045394
 30
0.0
 11
-354.3972304447502
 21
-42.95506400453939
 31
0.0
  0
LINE
  5
250
330
1E
100
AcDbEntity
  8
0
  6
Continuous
 62
     3
100
AcDbLine
 10
-366.1972304447502
 20
-42.10506400453939
 30
0.0
 11
-366.1972304447502
 21
-41.3550640045394
 31
0.0
  0
LINE
  5
251
330
1E
100
AcDbEntity
  8
0
  6
Continuous
 62
     3
100
AcDbLine
 10
-366.1972304447502
 20
-41.3550640045394
 30
0.0
 11
-354.3972304447502
 21
-41.2550640045394
 31
0.0
  0
LINE
  5
252
330
1E
100
AcDbEntity
  8
0
  6
Continuous
 62
     1
100
AcDbLine
 10
-376.5972304447502
 20
-63.1050640045394
 30
0.0
 11
-376.5972304447502
 21
-60.6050640045394
 31
0.0
  0
LINE
  5
253
330
1E
100
AcDbEntity
  8
0
  6
Continuous
 62
     1
100
AcDbLine
 10
-376.5972304447502
 20
-60.6050640045394
 30
0.0
 11
-375.7972304447502
 21
-60.6050640045394
 31
0.0
  0
LINE
  5
254
330
1E
100
AcDbEntity
  8
0
  6
Continuous
 62
     1
100
AcDbLine
 10
-395.1972304447502
 20
-39.10506400453943
 30
0.0
 11
-395.1972304447502
 21
-63.1050640045394
 31
0.0
  0
LINE
  5
255
330
1E
100
AcDbEntity
  8
0
  6
Continuous
 62
     1
100
AcDbLine
 10
-376.2972304447502
 20
-53.0050640045394
 30
0.0
 11
-377.7972304447502
 21
-53.0050640045394
 31
0.0
  0
ARC
  5
256
330
1E
100
AcDbEntity
  8
0
  6
Continuous
 62
     1
100
AcDbCircle
 10
-376.2972304447502
 20
-53.50506400453941
 30
0.0
 40
0.5
100
AcDbArc
 50
0.0
 51
90.0
  0
LINE
  5
257
330
1E
100
AcDbEntity
  8
0
  6
Continuous
 62
     1
100
AcDbLine
 10
-376.2972304447502
 20
-51.2050640045394
 30
0.0
 11
-377.7972304447502
 21
-51.2050640045394
 31
0.0
  0
ARC
  5
258
330
1E
100
AcDbEntity
  8
0
  6
Continuous
 62
     1
100
AcDbCircle
 10
-376.2972304447502
 20
-50.7050640045394
 30
0.0
 40
0.5
100
AcDbArc
 50
270.0
 51
0.0
  0
LINE
  5
259
330
1E
100
AcDbEntity
  8
0
  6
Continuous
 62
     1
100
AcDbLine
 10
-375.7972304447502
 20
-60.6050640045394
 30
0.0
 11
-375.7972304447502
 21
-53.50506400453941
 31
0.0
  0
LINE
  5
25A
330
1E
100
AcDbEntity
  8
0
  6
Continuous
 62
     1
100
AcDbLine
 10
-377.7972304447502
 20
-63.1050640045394
 30
0.0
 11
-377.7972304447502
 21
-40.10506400453943
 31
0.0
  0
LINE
  5
25B
330
1E
100
AcDbEntity
  8
0
  6
Continuous
 62
     1
100
AcDbLine
 10
-378.7972304447502
 20
-39.10506400453943
 30
0.0
 11
-395.1972304447502
 21
-39.10506400453943
 31
0.0
  0
ARC
  5
25C
330
1E
100
AcDbEntity
  8
0
  6
Continuous
 62
     1
100
AcDbCircle
 10
-378.7972304447502
 20
-40.10506400453943
 30
0.0
 40
1.0
100
AcDbArc
 50
0.0
 51
90.0
  0
LINE
  5
25D
330
1E
100
AcDbEntity
  8
0
  6
Continuous
 62
     1
100
AcDbLine
 10
-355.3972304447502
 20
-39.10506400453943
 30
0.0
 11
-378.9972304447502
 21
-39.10506400453943
 31
0.0
  0
LWPOLYLINE
  5
25E
330
1E
100
AcDbEntity
  8
0
 62
     1
100
AcDbPolyline
 90
        3
 70
     0
 43
0.0
 10
-376.5972304447502
 20
-63.1050640045394
 10
-376.5972304447502
 20
-65.6050640045394
 10
-375.7972304447502
 20
-65.6050640045394
  0
LINE
  5
263
330
1E
100
AcDbEntity
  8
0
  6
Continuous
 62
     1
100
AcDbLine
 10
-376.2972304447502
 20
-73.2050640045394
 30
0.0
 11
-377.7972304447502
 21
-73.2050640045394
 31
0.0
  0
ARC
  5
264
330
1E
100
AcDbEntity
  8
0
  6
Continuous
 62
     1
100
AcDbCircle
 10
-376.2972304447502
 20
-72.70506400453939
 30
0.0
 40
0.5
100
AcDbArc
 50
270.0
 51
0.0
  0
LINE
  5
265
330
1E
100
AcDbEntity
  8
0
  6
Continuous
 62
     1
100
AcDbLine
 10
-376.2972304447502
 20
-75.0050640045394
 30
0.0
 11
-377.7972304447502
 21
-75.0050640045394
 31
0.0
  0
ARC
  5
266
330
1E
100
AcDbEntity
  8
0
  6
Continuous
 62
     1
100
AcDbCircle
 10
-376.2972304447502
 20
-75.5050640045394
 30
0.0
 40
0.5
100
AcDbArc
 50
0.0
 51
90.0
  0
LINE
  5
267
330
1E
100
AcDbEntity
  8
0
  6
Continuous
 62
     1
100
AcDbLine
 10
-375.7972304447502
 20
-65.6050640045394
 30
0.0
 11
-375.7972304447502
 21
-72.70506400453939
 31
0.0
  0
LINE
  5
268
330
1E
100
AcDbEntity
  8
0
  6
Continuous
 62
     1
100
AcDbLine
 10
-377.7972304447502
 20
-63.1050640045394
 30
0.0
 11
-377.7972304447502
 21
-86.10506400453941
 31
0.0
  0
ARC
  5
269
330
1E
100
AcDbEntity
  8
0
  6
Continuous
 62
     1
100
AcDbCircle
 10
-378.7972304447502
 20
-86.10506400453941
 30
0.0
 40
1.0
100
AcDbArc
 50
270.0
 51
0.0
  0
LINE
  5
26A
330
1E
100
AcDbEntity
  8
0
  6
Continuous
 62
     1
100
AcDbLine
 10
-355.3972304447502
 20
-87.1050640045394
 30
0.0
 11
-378.9972304447502
 21
-87.1050640045394
 31
0.0
  0
LINE
  5
26B
330
1E
100
AcDbEntity
  8
0
  6
Continuous
 62
     1
100
AcDbLine
 10
-395.1972304447502
 20
-87.1050640045394
 30
0.0
 11
-395.1972304447502
 21
-63.1050640045394
 31
0.0
  0
LINE
  5
26C
330
1E
100
AcDbEntity
  8
0
  6
Continuous
 62
     1
100
AcDbLine
 10
-378.7972304447502
 20
-87.1050640045394
 30
0.0
 11
-395.1972304447502
 21
-87.1050640045394
 31
0.0
  0
LINE
  5
26D
330
1E
100
AcDbEntity
  8
0
  6
Continuous
 62
     1
100
AcDbLine
 10
-375.7972304447502
 20
-75.5050640045394
 30
0.0
 11
-375.7972304447502
 21
-79.6050640045394
 31
0.0
  0
LINE
  5
26E
330
1E
100
AcDbEntity
  8
0
  6
Continuous
 62
     1
100
AcDbLine
 10
-375.7972304447502
 20
-50.7050640045394
 30
0.0
 11
-375.7972304447502
 21
-46.6050640045394
 31
0.0
  0
LINE
  5
26F
330
1E
100
AcDbEntity
  8
0
  6
Continuous
 62
     1
100
AcDbLine
 10
-376.2272304447502
 20
-43.05506400453942
 30
0.0
 11
-373.3491197097502
 21
-43.05506400453942
 31
0.0
  0
LINE
  5
270
330
1E
100
AcDbEntity
  8
0
  6
Continuous
 62
     1
100
AcDbLine
 10
-377.7972304447502
 20
-43.05506400453942
 30
0.0
 11
-376.2972304447502
 21
-43.05506400453942
 31
0.0
  0
ARC
  5
271
330
1E
100
AcDbEntity
  8
0
  6
Continuous
 62
     1
100
AcDbCircle
 10
-376.2972304447502
 20
-43.55506400453942
 30
0.0
 40
0.5
100
AcDbArc
 50
0.0
 51
90.0
  0
ARC
  5
272
330
1E
100
AcDbEntity
  8
0
  6
Continuous
 62
     1
100
AcDbCircle
 10
-373.3491197097502
 20
-82.65506400453942
 30
0.0
 40
0.5
100
AcDbArc
 50
270.0
 51
359.8198251869999
  0
LINE
  5
273
330
1E
100
AcDbEntity
  8
0
  6
Continuous
 62
     1
100
AcDbLine
 10
-377.7972304447502
 20
-83.15506400453941
 30
0.0
 11
-376.2972304447502
 21
-83.15506400453941
 31
0.0
  0
ARC
  5
274
330
1E
100
AcDbEntity
  8
0
  6
Continuous
 62
     1
100
AcDbCircle
 10
-376.2972304447502
 20
-82.65506400453942
 30
0.0
 40
0.5
100
AcDbArc
 50
270.0
 51
0.0
  0
LINE
  5
275
330
1E
100
AcDbEntity
  8
0
  6
Continuous
 62
     1
100
AcDbLine
 10
-376.4072304447502
 20
-83.15506400453941
 30
0.0
 11
-373.3491197097502
 21
-83.15506400453941
 31
0.0
  0
LINE
  5
276
330
1E
100
AcDbEntity
  8
0
  6
Continuous
 62
     1
100
AcDbLine
 10
-375.7972304447502
 20
-46.6050640045394
 30
0.0
 11
-375.7972304447502
 21
-43.55506400453942
 31
0.0
  0
LINE
  5
277
330
1E
100
AcDbEntity
  8
0
  6
Continuous
 62
     1
100
AcDbLine
 10
-375.7972304447502
 20
-79.6050640045394
 30
0.0
 11
-375.7972304447502
 21
-82.65506400453942
 31
0.0
  0
LINE
  5
278
330
1E
100
AcDbEntity
  8
0
  6
Continuous
 62
     1
100
AcDbLine
 10
-375.7972304447502
 20
-44.65506400453941
 30
0.0
 11
-372.8491221817502
 21
-44.65506400453941
 31
0.0
  0
LINE
  5
279
330
1E
100
AcDbEntity
  8
0
  6
Continuous
 62
     1
100
AcDbLine
 10
-375.7972304447502
 20
-81.55506400453942
 30
0.0
 11
-372.8491221817502
 21
-81.55506400453942
 31
0.0
  0
LINE
  5
27A
330
1E
100
AcDbEntity
  8
0
  6
Continuous
 62
     1
100
AcDbLine
 10
-354.3972304447502
 20
-63.1050640045394
 30
0.0
 11
-354.3972304447502
 21
-86.10506400453941
 31
0.0
  0
ARC
  5
27B
330
1E
100
AcDbEntity
  8
0
  6
Continuous
 62
     1
100
AcDbCircle
 10
-355.3972304447502
 20
-86.10506400453941
 30
0.0
 40
1.0
100
AcDbArc
 50
270.0
 51
0.0
  0
LINE
  5
27C
330
1E
100
AcDbEntity
  8
0
  6
Continuous
 62
     1
100
AcDbLine
 10
-354.3972304447502
 20
-63.1050640045394
 30
0.0
 11
-354.3972304447502
 21
-40.10506400453943
 31
0.0
  0
ARC
  5
27D
330
1E
100
AcDbEntity
  8
0
  6
Continuous
 62
     1
100
AcDbCircle
 10
-355.3972304447502
 20
-40.10506400453943
 30
0.0
 40
1.0
100
AcDbArc
 50
0.0
 51
90.0
  0
LINE
  5
27E
330
1E
100
AcDbEntity
  8
0
  6
Continuous
 62
     1
100
AcDbLine
 10
-395.1972304447502
 20
-87.1050640045394
 30
0.0
 11
-395.1972304447502
 21
-63.1050640045394
 31
0.0
  0
LINE
  5
27F
330
1E
100
AcDbEntity
  8
0
  6
Continuous
 62
     3
100
AcDbLine
 10
-368.3972304447503
 20
-46.45506400453939
 30
0.0
 11
-375.0972304447502
 21
-46.45506400453939
 31
0.0
  0
LINE
  5
280
330
1E
100
AcDbEntity
  8
0
  6
Continuous
 62
     3
100
AcDbLine
 10
-375.0972304447502
 20
-53.65506400453941
 30
0.0
 11
-367.0972304447502
 21
-53.65506400453941
 31
0.0
  0
LINE
  5
281
330
1E
100
AcDbEntity
  8
0
  6
Continuous
 62
     3
100
AcDbLine
 10
-375.0972304447502
 20
-46.45506400453939
 30
0.0
 11
-375.0972304447502
 21
-53.65506400453941
 31
0.0
  0
LINE
  5
282
330
1E
100
AcDbEntity
  8
0
  6
Continuous
 62
     3
100
AcDbLine
 10
-374.5972304447502
 20
-46.45506400453939
 30
0.0
 11
-374.5972304447502
 21
-53.65506400453941
 31
0.0
  0
LINE
  5
283
330
1E
100
AcDbEntity
  8
0
  6
Continuous
 62
     3
100
AcDbLine
 10
-375.0972304447502
 20
-47.4550640045394
 30
0.0
 11
-374.5972304447502
 21
-47.4550640045394
 31
0.0
  0
LINE
  5
284
330
1E
100
AcDbEntity
  8
0
  6
Continuous
 62
     3
100
AcDbLine
 10
-375.0972304447502
 20
-52.65506400453941
 30
0.0
 11
-374.5972304447502
 21
-52.65506400453941
 31
0.0
  0
LINE
  5
285
330
1E
100
AcDbEntity
  8
0
  6
Continuous
 62
     3
100
AcDbLine
 10
-374.5972304447502
 20
-49.55506400453941
 30
0.0
 11
-373.5972304447502
 21
-49.55506400453941
 31
0.0
  0
LINE
  5
286
330
1E
100
AcDbEntity
  8
0
  6
Continuous
 62
     3
100
AcDbLine
 10
-373.5972304447502
 20
-49.55506400453941
 30
0.0
 11
-374.5972304447502
 21
-47.05506400453941
 31
0.0
  0
LINE
  5
287
330
1E
100
AcDbEntity
  8
0
  6
Continuous
 62
     3
100
AcDbLine
 10
-374.5972304447502
 20
-47.05506400453941
 30
0.0
 11
-372.5972304447502
 21
-47.05506400453941
 31
0.0
  0
LINE
  5
288
330
1E
100
AcDbEntity
  8
0
  6
Continuous
 62
     3
100
AcDbLine
 10
-372.5972304447502
 20
-47.05506400453941
 30
0.0
 11
-372.5972304447502
 21
-50.05506400453942
 31
0.0
  0
LINE
  5
289
330
1E
100
AcDbEntity
  8
0
  6
Continuous
 62
     3
100
AcDbLine
 10
-373.0972304447502
 20
-50.05506400453942
 30
0.0
 11
-373.0972304447502
 21
-49.05506400453941
 31
0.0
  0
LINE
  5
28A
330
1E
100
AcDbEntity
  8
0
  6
Continuous
 62
     3
100
AcDbLine
 10
-373.0972304447502
 20
-49.05506400453941
 30
0.0
 11
-372.5972304447502
 21
-49.05506400453941
 31
0.0
  0
LINE
  5
28B
330
1E
100
AcDbEntity
  8
0
  6
Continuous
 62
     3
100
AcDbLine
 10
-375.0972304447502
 20
-52.65506400453941
 30
0.0
 11
-374.5972304447502
 21
-52.65506400453941
 31
0.0
  0
LINE
  5
28C
330
1E
100
AcDbEntity
  8
0
  6
Continuous
 62
     3
100
AcDbLine
 10
-374.5972304447502
 20
-50.55506400453942
 30
0.0
 11
-373.5972304447502
 21
-50.55506400453942
 31
0.0
  0
LINE
  5
28D
330
1E
100
AcDbEntity
  8
0
  6
Continuous
 62
     3
100
AcDbLine
 10
-373.5972304447502
 20
-50.55506400453942
 30
0.0
 11
-374.5972304447502
 21
-53.05506400453942
 31
0.0
  0
LINE
  5
28E
330
1E
100
AcDbEntity
  8
0
  6
Continuous
 62
     3
100
AcDbLine
 10
-374.5972304447502
 20
-53.05506400453942
 30
0.0
 11
-372.5972304447502
 21
-53.05506400453942
 31
0.0
  0
LINE
  5
28F
330
1E
100
AcDbEntity
  8
0
  6
Continuous
 62
     3
100
AcDbLine
 10
-372.5972304447502
 20
-53.05506400453942
 30
0.0
 11
-372.5972304447502
 21
-50.05506400453942
 31
0.0
  0
LINE
  5
290
330
1E
100
AcDbEntity
  8
0
  6
Continuous
 62
     3
100
AcDbLine
 10
-373.0972304447502
 20
-50.05506400453942
 30
0.0
 11
-373.0972304447502
 21
-51.05506400453942
 31
0.0
  0
LINE
  5
291
330
1E
100
AcDbEntity
  8
0
  6
Continuous
 62
     3
100
AcDbLine
 10
-373.0972304447502
 20
-51.05506400453942
 30
0.0
 11
-372.5972304447502
 21
-51.05506400453942
 31
0.0
  0
LINE
  5
292
330
1E
100
AcDbEntity
  8
0
  6
Continuous
 62
     3
100
AcDbLine
 10
-372.5972304447502
 20
-50.05506400453942
 30
0.0
 11
-372.5972304447502
 21
-47.2550640045394
 31
0.0
  0
LINE
  5
293
330
1E
100
AcDbEntity
  8
0
  6
Continuous
 62
     3
100
AcDbLine
 10
-372.5972304447502
 20
-47.2550640045394
 30
0.0
 11
-370.5972304447502
 21
-47.2550640045394
 31
0.0
  0
LINE
  5
294
330
1E
100
AcDbEntity
  8
0
  6
Continuous
 62
     3
100
AcDbLine
 10
-370.3972304447503
 20
-50.05506400453942
 30
0.0
 11
-370.3972304447503
 21
-49.4550640045394
 31
0.0
  0
LINE
  5
295
330
1E
100
AcDbEntity
  8
0
  6
Continuous
 62
     3
100
AcDbLine
 10
-370.3972304447503
 20
-49.4550640045394
 30
0.0
 11
-370.5972304447502
 21
-47.2550640045394
 31
0.0
  0
LINE
  5
296
330
1E
100
AcDbEntity
  8
0
  6
Continuous
 62
     3
100
AcDbLine
 10
-372.5972304447502
 20
-53.05506400453942
 30
0.0
 11
-372.5972304447502
 21
-50.05506400453942
 31
0.0
  0
LINE
  5
297
330
1E
100
AcDbEntity
  8
0
  6
Continuous
 62
     3
100
AcDbLine
 10
-372.5972304447502
 20
-50.05506400453942
 30
0.0
 11
-372.5972304447502
 21
-52.8550640045394
 31
0.0
  0
LINE
  5
298
330
1E
100
AcDbEntity
  8
0
  6
Continuous
 62
     3
100
AcDbLine
 10
-372.5972304447502
 20
-52.8550640045394
 30
0.0
 11
-370.5972304447502
 21
-52.8550640045394
 31
0.0
  0
LINE
  5
299
330
1E
100
AcDbEntity
  8
0
  6
Continuous
 62
     3
100
AcDbLine
 10
-370.3972304447503
 20
-50.05506400453942
 30
0.0
 11
-370.3972304447503
 21
-50.65506400453941
 31
0.0
  0
LINE
  5
29A
330
1E
100
AcDbEntity
  8
0
  6
Continuous
 62
     3
100
AcDbLine
 10
-370.3972304447503
 20
-50.65506400453941
 30
0.0
 11
-370.5972304447502
 21
-52.8550640045394
 31
0.0
  0
LINE
  5
29B
330
1E
100
AcDbEntity
  8
0
  6
Continuous
 62
     3
100
AcDbLine
 10
-367.0972304447502
 20
-55.15506400453941
 30
0.0
 11
-375.0972304447502
 21
-55.15506400453941
 31
0.0
  0
LINE
  5
29C
330
1E
100
AcDbEntity
  8
0
  6
Continuous
 62
     3
100
AcDbLine
 10
-367.0972304447502
 20
-55.15506400453941
 30
0.0
 11
-375.0972304447502
 21
-55.15506400453941
 31
0.0
  0
LINE
  5
29D
330
1E
100
AcDbEntity
  8
0
  6
Continuous
 62
     3
100
AcDbLine
 10
-375.0972304447502
 20
-55.15506400453941
 30
0.0
 11
-375.0972304447502
 21
-62.3550640045394
 31
0.0
  0
LINE
  5
29E
330
1E
100
AcDbEntity
  8
0
  6
Continuous
 62
     3
100
AcDbLine
 10
-375.0972304447502
 20
-62.3550640045394
 30
0.0
 11
-367.0972304447502
 21
-62.3550640045394
 31
0.0
  0
LINE
  5
29F
330
1E
100
AcDbEntity
  8
0
  6
Continuous
 62
     3
100
AcDbLine
 10
-374.5972304447502
 20
-55.15506400453941
 30
0.0
 11
-374.5972304447502
 21
-62.3550640045394
 31
0.0
  0
LINE
  5
2A0
330
1E
100
AcDbEntity
  8
0
  6
Continuous
 62
     3
100
AcDbLine
 10
-375.0972304447502
 20
-56.15506400453941
 30
0.0
 11
-374.5972304447502
 21
-56.15506400453941
 31
0.0
  0
LINE
  5
2A1
330
1E
100
AcDbEntity
  8
0
  6
Continuous
 62
     3
100
AcDbLine
 10
-375.0972304447502
 20
-61.3550640045394
 30
0.0
 11
-374.5972304447502
 21
-61.3550640045394
 31
0.0
  0
LINE
  5
2A2
330
1E
100
AcDbEntity
  8
0
  6
Continuous
 62
     3
100
AcDbLine
 10
-374.5972304447502
 20
-58.2550640045394
 30
0.0
 11
-373.5972304447502
 21
-58.2550640045394
 31
0.0
  0
LINE
  5
2A3
330
1E
100
AcDbEntity
  8
0
  6
Continuous
 62
     3
100
AcDbLine
 10
-373.5972304447502
 20
-58.2550640045394
 30
0.0
 11
-374.5972304447502
 21
-55.7550640045394
 31
0.0
  0
LINE
  5
2A4
330
1E
100
AcDbEntity
  8
0
  6
Continuous
 62
     3
100
AcDbLine
 10
-374.5972304447502
 20
-55.7550640045394
 30
0.0
 11
-372.5972304447502
 21
-55.7550640045394
 31
0.0
  0
LINE
  5
2A5
330
1E
100
AcDbEntity
  8
0
  6
Continuous
 62
     3
100
AcDbLine
 10
-372.5972304447502
 20
-55.7550640045394
 30
0.0
 11
-372.5972304447502
 21
-58.7550640045394
 31
0.0
  0
LINE
  5
2A6
330
1E
100
AcDbEntity
  8
0
  6
Continuous
 62
     3
100
AcDbLine
 10
-373.0972304447502
 20
-58.7550640045394
 30
0.0
 11
-373.0972304447502
 21
-57.75506400453941
 31
0.0
  0
LINE
  5
2A7
330
1E
100
AcDbEntity
  8
0
  6
Continuous
 62
     3
100
AcDbLine
 10
-373.0972304447502
 20
-57.75506400453941
 30
0.0
 11
-372.5972304447502
 21
-57.75506400453941
 31
0.0
  0
LINE
  5
2A8
330
1E
100
AcDbEntity
  8
0
  6
Continuous
 62
     3
100
AcDbLine
 10
-375.0972304447502
 20
-61.3550640045394
 30
0.0
 11
-374.5972304447502
 21
-61.3550640045394
 31
0.0
  0
LINE
  5
2A9
330
1E
100
AcDbEntity
  8
0
  6
Continuous
 62
     3
100
AcDbLine
 10
-374.5972304447502
 20
-59.2550640045394
 30
0.0
 11
-373.5972304447502
 21
-59.2550640045394
 31
0.0
  0
LINE
  5
2AA
330
1E
100
AcDbEntity
  8
0
  6
Continuous
 62
     3
100
AcDbLine
 10
-373.5972304447502
 20
-59.2550640045394
 30
0.0
 11
-374.5972304447502
 21
-61.7550640045394
 31
0.0
  0
LINE
  5
2AB
330
1E
100
AcDbEntity
  8
0
  6
Continuous
 62
     3
100
AcDbLine
 10
-374.5972304447502
 20
-61.7550640045394
 30
0.0
 11
-372.5972304447502
 21
-61.7550640045394
 31
0.0
  0
LINE
  5
2AC
330
1E
100
AcDbEntity
  8
0
  6
Continuous
 62
     3
100
AcDbLine
 10
-372.5972304447502
 20
-61.7550640045394
 30
0.0
 11
-372.5972304447502
 21
-58.7550640045394
 31
0.0
  0
LINE
  5
2AD
330
1E
100
AcDbEntity
  8
0
  6
Continuous
 62
     3
100
AcDbLine
 10
-373.0972304447502
 20
-58.7550640045394
 30
0.0
 11
-373.0972304447502
 21
-59.75506400453941
 31
0.0
  0
LINE
  5
2AE
330
1E
100
AcDbEntity
  8
0
  6
Continuous
 62
     3
100
AcDbLine
 10
-373.0972304447502
 20
-59.75506400453941
 30
0.0
 11
-372.5972304447502
 21
-59.75506400453941
 31
0.0
  0
LINE
  5
2AF
330
1E
100
AcDbEntity
  8
0
  6
Continuous
 62
     3
100
AcDbLine
 10
-372.5972304447502
 20
-58.7550640045394
 30
0.0
 11
-372.5972304447502
 21
-55.95506400453939
 31
0.0
  0
LINE
  5
2B0
330
1E
100
AcDbEntity
  8
0
  6
Continuous
 62
     3
100
AcDbLine
 10
-372.5972304447502
 20
-55.95506400453939
 30
0.0
 11
-370.5972304447502
 21
-55.95506400453939
 31
0.0
  0
LINE
  5
2B1
330
1E
100
AcDbEntity
  8
0
  6
Continuous
 62
     3
100
AcDbLine
 10
-370.3972304447503
 20
-58.7550640045394
 30
0.0
 11
-370.3972304447503
 21
-58.15506400453941
 31
0.0
  0
LINE
  5
2B2
330
1E
100
AcDbEntity
  8
0
  6
Continuous
 62
     3
100
AcDbLine
 10
-370.3972304447503
 20
-58.15506400453941
 30
0.0
 11
-370.5972304447502
 21
-55.95506400453939
 31
0.0
  0
LINE
  5
2B3
330
1E
100
AcDbEntity
  8
0
  6
Continuous
 62
     3
100
AcDbLine
 10
-372.5972304447502
 20
-61.7550640045394
 30
0.0
 11
-372.5972304447502
 21
-58.7550640045394
 31
0.0
  0
LINE
  5
2B4
330
1E
100
AcDbEntity
  8
0
  6
Continuous
 62
     3
100
AcDbLine
 10
-372.5972304447502
 20
-58.7550640045394
 30
0.0
 11
-372.5972304447502
 21
-61.55506400453941
 31
0.0
  0
LINE
  5
2B5
330
1E
100
AcDbEntity
  8
0
  6
Continuous
 62
     3
100
AcDbLine
 10
-372.5972304447502
 20
-61.55506400453941
 30
0.0
 11
-370.5972304447502
 21
-61.55506400453941
 31
0.0
  0
LINE
  5
2B6
330
1E
100
AcDbEntity
  8
0
  6
Continuous
 62
     3
100
AcDbLine
 10
-370.3972304447503
 20
-58.7550640045394
 30
0.0
 11
-370.3972304447503
 21
-59.3550640045394
 31
0.0
  0
LINE
  5
2B7
330
1E
100
AcDbEntity
  8
0
  6
Continuous
 62
     3
100
AcDbLine
 10
-370.3972304447503
 20
-59.3550640045394
 30
0.0
 11
-370.5972304447502
 21
-61.55506400453941
 31
0.0
  0
LINE
  5
2B8
330
1E
100
AcDbEntity
  8
0
  6
Continuous
 62
     3
100
AcDbLine
 10
-368.3972304447503
 20
-62.3550640045394
 30
0.0
 11
-370.1972304447502
 21
-62.3550640045394
 31
0.0
  0
LINE
  5
2B9
330
1E
100
AcDbEntity
  8
0
  6
Continuous
 62
     3
100
AcDbLine
 10
-367.0972304447502
 20
-63.8550640045394
 30
0.0
 11
-375.0972304447502
 21
-63.8550640045394
 31
0.0
  0
LINE
  5
2BA
330
1E
100
AcDbEntity
  8
0
  6
Continuous
 62
     3
100
AcDbLine
 10
-375.0972304447502
 20
-63.8550640045394
 30
0.0
 11
-375.0972304447502
 21
-71.05506400453942
 31
0.0
  0
LINE
  5
2BB
330
1E
100
AcDbEntity
  8
0
  6
Continuous
 62
     3
100
AcDbLine
 10
-375.0972304447502
 20
-71.05506400453942
 30
0.0
 11
-368.3972304447503
 21
-71.05506400453942
 31
0.0
  0
LINE
  5
2BC
330
1E
100
AcDbEntity
  8
0
  6
Continuous
 62
     3
100
AcDbLine
 10
-374.5972304447502
 20
-63.8550640045394
 30
0.0
 11
-374.5972304447502
 21
-71.05506400453942
 31
0.0
  0
LINE
  5
2BD
330
1E
100
AcDbEntity
  8
0
  6
Continuous
 62
     3
100
AcDbLine
 10
-375.0972304447502
 20
-64.8550640045394
 30
0.0
 11
-374.5972304447502
 21
-64.8550640045394
 31
0.0
  0
LINE
  5
2BE
330
1E
100
AcDbEntity
  8
0
  6
Continuous
 62
     3
100
AcDbLine
 10
-375.0972304447502
 20
-70.05506400453942
 30
0.0
 11
-374.5972304447502
 21
-70.05506400453942
 31
0.0
  0
LINE
  5
2BF
330
1E
100
AcDbEntity
  8
0
  6
Continuous
 62
     3
100
AcDbLine
 10
-374.5972304447502
 20
-66.9550640045394
 30
0.0
 11
-373.5972304447502
 21
-66.9550640045394
 31
0.0
  0
LINE
  5
2C0
330
1E
100
AcDbEntity
  8
0
  6
Continuous
 62
     3
100
AcDbLine
 10
-373.5972304447502
 20
-66.9550640045394
 30
0.0
 11
-374.5972304447502
 21
-64.4550640045394
 31
0.0
  0
LINE
  5
2C1
330
1E
100
AcDbEntity
  8
0
  6
Continuous
 62
     3
100
AcDbLine
 10
-374.5972304447502
 20
-64.4550640045394
 30
0.0
 11
-372.5972304447502
 21
-64.4550640045394
 31
0.0
  0
LINE
  5
2C2
330
1E
100
AcDbEntity
  8
0
  6
Continuous
 62
     3
100
AcDbLine
 10
-372.5972304447502
 20
-64.4550640045394
 30
0.0
 11
-372.5972304447502
 21
-67.4550640045394
 31
0.0
  0
LINE
  5
2C3
330
1E
100
AcDbEntity
  8
0
  6
Continuous
 62
     3
100
AcDbLine
 10
-373.0972304447502
 20
-67.4550640045394
 30
0.0
 11
-373.0972304447502
 21
-66.45506400453939
 31
0.0
  0
LINE
  5
2C4
330
1E
100
AcDbEntity
  8
0
  6
Continuous
 62
     3
100
AcDbLine
 10
-373.0972304447502
 20
-66.45506400453939
 30
0.0
 11
-372.5972304447502
 21
-66.45506400453939
 31
0.0
  0
LINE
  5
2C5
330
1E
100
AcDbEntity
  8
0
  6
Continuous
 62
     3
100
AcDbLine
 10
-375.0972304447502
 20
-70.05506400453942
 30
0.0
 11
-374.5972304447502
 21
-70.05506400453942
 31
0.0
  0
LINE
  5
2C6
330
1E
100
AcDbEntity
  8
0
  6
Continuous
 62
     3
100
AcDbLine
 10
-374.5972304447502
 20
-67.95506400453939
 30
0.0
 11
-373.5972304447502
 21
-67.95506400453939
 31
0.0
  0
LINE
  5
2C7
330
1E
100
AcDbEntity
  8
0
  6
Continuous
 62
     3
100
AcDbLine
 10
-373.5972304447502
 20
-67.95506400453939
 30
0.0
 11
-374.5972304447502
 21
-70.45506400453939
 31
0.0
  0
LINE
  5
2C8
330
1E
100
AcDbEntity
  8
0
  6
Continuous
 62
     3
100
AcDbLine
 10
-374.5972304447502
 20
-70.45506400453939
 30
0.0
 11
-372.5972304447502
 21
-70.45506400453939
 31
0.0
  0
LINE
  5
2C9
330
1E
100
AcDbEntity
  8
0
  6
Continuous
 62
     3
100
AcDbLine
 10
-372.5972304447502
 20
-70.45506400453939
 30
0.0
 11
-372.5972304447502
 21
-67.4550640045394
 31
0.0
  0
LINE
  5
2CA
330
1E
100
AcDbEntity
  8
0
  6
Continuous
 62
     3
100
AcDbLine
 10
-373.0972304447502
 20
-67.4550640045394
 30
0.0
 11
-373.0972304447502
 21
-68.45506400453939
 31
0.0
  0
LINE
  5
2CB
330
1E
100
AcDbEntity
  8
0
  6
Continuous
 62
     3
100
AcDbLine
 10
-373.0972304447502
 20
-68.45506400453939
 30
0.0
 11
-372.5972304447502
 21
-68.45506400453939
 31
0.0
  0
LINE
  5
2CC
330
1E
100
AcDbEntity
  8
0
  6
Continuous
 62
     3
100
AcDbLine
 10
-372.5972304447502
 20
-67.4550640045394
 30
0.0
 11
-372.5972304447502
 21
-64.65506400453941
 31
0.0
  0
LINE
  5
2CD
330
1E
100
AcDbEntity
  8
0
  6
Continuous
 62
     3
100
AcDbLine
 10
-372.5972304447502
 20
-64.65506400453941
 30
0.0
 11
-370.5972304447502
 21
-64.65506400453941
 31
0.0
  0
LINE
  5
2CE
330
1E
100
AcDbEntity
  8
0
  6
Continuous
 62
     3
100
AcDbLine
 10
-370.3972304447503
 20
-67.4550640045394
 30
0.0
 11
-370.3972304447503
 21
-66.8550640045394
 31
0.0
  0
LINE
  5
2CF
330
1E
100
AcDbEntity
  8
0
  6
Continuous
 62
     3
100
AcDbLine
 10
-370.3972304447503
 20
-66.8550640045394
 30
0.0
 11
-370.5972304447502
 21
-64.65506400453941
 31
0.0
  0
LINE
  5
2D0
330
1E
100
AcDbEntity
  8
0
  6
Continuous
 62
     3
100
AcDbLine
 10
-372.5972304447502
 20
-70.45506400453939
 30
0.0
 11
-372.5972304447502
 21
-67.4550640045394
 31
0.0
  0
LINE
  5
2D1
330
1E
100
AcDbEntity
  8
0
  6
Continuous
 62
     3
100
AcDbLine
 10
-372.5972304447502
 20
-67.4550640045394
 30
0.0
 11
-372.5972304447502
 21
-70.25506400453941
 31
0.0
  0
LINE
  5
2D2
330
1E
100
AcDbEntity
  8
0
  6
Continuous
 62
     3
100
AcDbLine
 10
-372.5972304447502
 20
-70.25506400453941
 30
0.0
 11
-370.5972304447502
 21
-70.25506400453941
 31
0.0
  0
LINE
  5
2D3
330
1E
100
AcDbEntity
  8
0
  6
Continuous
 62
     3
100
AcDbLine
 10
-370.3972304447503
 20
-67.4550640045394
 30
0.0
 11
-370.3972304447503
 21
-68.05506400453942
 31
0.0
  0
LINE
  5
2D4
330
1E
100
AcDbEntity
  8
0
  6
Continuous
 62
     3
100
AcDbLine
 10
-370.3972304447503
 20
-68.05506400453942
 30
0.0
 11
-370.5972304447502
 21
-70.25506400453941
 31
0.0
  0
LINE
  5
2D5
330
1E
100
AcDbEntity
  8
0
  6
Continuous
 62
     3
100
AcDbLine
 10
-368.3972304447503
 20
-72.55506400453942
 30
0.0
 11
-375.0972304447502
 21
-72.55506400453942
 31
0.0
  0
LINE
  5
2D6
330
1E
100
AcDbEntity
  8
0
  6
Continuous
 62
     3
100
AcDbLine
 10
-375.0972304447502
 20
-79.75506400453941
 30
0.0
 11
-367.0972304447502
 21
-79.75506400453941
 31
0.0
  0
LINE
  5
2D7
330
1E
100
AcDbEntity
  8
0
  6
Continuous
 62
     3
100
AcDbLine
 10
-374.5972304447502
 20
-72.55506400453942
 30
0.0
 11
-374.5972304447502
 21
-79.75506400453941
 31
0.0
  0
LINE
  5
2D8
330
1E
100
AcDbEntity
  8
0
  6
Continuous
 62
     3
100
AcDbLine
 10
-375.0972304447502
 20
-72.55506400453942
 30
0.0
 11
-375.0972304447502
 21
-79.75506400453941
 31
0.0
  0
LINE
  5
2D9
330
1E
100
AcDbEntity
  8
0
  6
Continuous
 62
     3
100
AcDbLine
 10
-375.0972304447502
 20
-79.75506400453941
 30
0.0
 11
-368.3972304447503
 21
-79.75506400453941
 31
0.0
  0
LINE
  5
2DA
330
1E
100
AcDbEntity
  8
0
  6
Continuous
 62
     3
100
AcDbLine
 10
-374.5972304447502
 20
-72.55506400453942
 30
0.0
 11
-374.5972304447502
 21
-79.75506400453941
 31
0.0
  0
LINE
  5
2DB
330
1E
100
AcDbEntity
  8
0
  6
Continuous
 62
     3
100
AcDbLine
 10
-375.0972304447502
 20
-73.55506400453942
 30
0.0
 11
-374.5972304447502
 21
-73.55506400453942
 31
0.0
  0
LINE
  5
2DC
330
1E
100
AcDbEntity
  8
0
  6
Continuous
 62
     3
100
AcDbLine
 10
-375.0972304447502
 20
-78.7550640045394
 30
0.0
 11
-374.5972304447502
 21
-78.7550640045394
 31
0.0
  0
LINE
  5
2DD
330
1E
100
AcDbEntity
  8
0
  6
Continuous
 62
     3
100
AcDbLine
 10
-374.5972304447502
 20
-75.65506400453941
 30
0.0
 11
-373.5972304447502
 21
-75.65506400453941
 31
0.0
  0
LINE
  5
2DE
330
1E
100
AcDbEntity
  8
0
  6
Continuous
 62
     3
100
AcDbLine
 10
-373.5972304447502
 20
-75.65506400453941
 30
0.0
 11
-374.5972304447502
 21
-73.15506400453941
 31
0.0
  0
LINE
  5
2DF
330
1E
100
AcDbEntity
  8
0
  6
Continuous
 62
     3
100
AcDbLine
 10
-374.5972304447502
 20
-73.15506400453941
 30
0.0
 11
-372.5972304447502
 21
-73.15506400453941
 31
0.0
  0
LINE
  5
2E0
330
1E
100
AcDbEntity
  8
0
  6
Continuous
 62
     3
100
AcDbLine
 10
-372.5972304447502
 20
-73.15506400453941
 30
0.0
 11
-372.5972304447502
 21
-76.15506400453941
 31
0.0
  0
LINE
  5
2E1
330
1E
100
AcDbEntity
  8
0
  6
Continuous
 62
     3
100
AcDbLine
 10
-373.0972304447502
 20
-76.15506400453941
 30
0.0
 11
-373.0972304447502
 21
-75.15506400453941
 31
0.0
  0
LINE
  5
2E2
330
1E
100
AcDbEntity
  8
0
  6
Continuous
 62
     3
100
AcDbLine
 10
-373.0972304447502
 20
-75.15506400453941
 30
0.0
 11
-372.5972304447502
 21
-75.15506400453941
 31
0.0
  0
LINE
  5
2E3
330
1E
100
AcDbEntity
  8
0
  6
Continuous
 62
     3
100
AcDbLine
 10
-375.0972304447502
 20
-78.7550640045394
 30
0.0
 11
-374.5972304447502
 21
-78.7550640045394
 31
0.0
  0
LINE
  5
2E4
330
1E
100
AcDbEntity
  8
0
  6
Continuous
 62
     3
100
AcDbLine
 10
-374.5972304447502
 20
-76.65506400453941
 30
0.0
 11
-373.5972304447502
 21
-76.65506400453941
 31
0.0
  0
LINE
  5
2E5
330
1E
100
AcDbEntity
  8
0
  6
Continuous
 62
     3
100
AcDbLine
 10
-373.5972304447502
 20
-76.65506400453941
 30
0.0
 11
-374.5972304447502
 21
-79.15506400453941
 31
0.0
  0
LINE
  5
2E6
330
1E
100
AcDbEntity
  8
0
  6
Continuous
 62
     3
100
AcDbLine
 10
-374.5972304447502
 20
-79.15506400453941
 30
0.0
 11
-372.5972304447502
 21
-79.15506400453941
 31
0.0
  0
LINE
  5
2E7
330
1E
100
AcDbEntity
  8
0
  6
Continuous
 62
     3
100
AcDbLine
 10
-372.5972304447502
 20
-79.15506400453941
 30
0.0
 11
-372.5972304447502
 21
-76.15506400453941
 31
0.0
  0
LINE
  5
2E8
330
1E
100
AcDbEntity
  8
0
  6
Continuous
 62
     3
100
AcDbLine
 10
-373.0972304447502
 20
-76.15506400453941
 30
0.0
 11
-373.0972304447502
 21
-77.15506400453941
 31
0.0
  0
LINE
  5
2E9
330
1E
100
AcDbEntity
  8
0
  6
Continuous
 62
     3
100
AcDbLine
 10
-373.0972304447502
 20
-77.15506400453941
 30
0.0
 11
-372.5972304447502
 21
-77.15506400453941
 31
0.0
  0
LINE
  5
2EA
330
1E
100
AcDbEntity
  8
0
  6
Continuous
 62
     3
100
AcDbLine
 10
-372.5972304447502
 20
-76.15506400453941
 30
0.0
 11
-372.5972304447502
 21
-73.3550640045394
 31
0.0
  0
LINE
  5
2EB
330
1E
100
AcDbEntity
  8
0
  6
Continuous
 62
     3
100
AcDbLine
 10
-372.5972304447502
 20
-73.3550640045394
 30
0.0
 11
-370.5972304447502
 21
-73.3550640045394
 31
0.0
  0
LINE
  5
2EC
330
1E
100
AcDbEntity
  8
0
  6
Continuous
 62
     3
100
AcDbLine
 10
-370.3972304447503
 20
-76.15506400453941
 30
0.0
 11
-370.3972304447503
 21
-75.55506400453942
 31
0.0
  0
LINE
  5
2ED
330
1E
100
AcDbEntity
  8
0
  6
Continuous
 62
     3
100
AcDbLine
 10
-370.3972304447503
 20
-75.55506400453942
 30
0.0
 11
-370.5972304447502
 21
-73.3550640045394
 31
0.0
  0
LINE
  5
2EE
330
1E
100
AcDbEntity
  8
0
  6
Continuous
 62
     3
100
AcDbLine
 10
-372.5972304447502
 20
-79.15506400453941
 30
0.0
 11
-372.5972304447502
 21
-76.15506400453941
 31
0.0
  0
LINE
  5
2EF
330
1E
100
AcDbEntity
  8
0
  6
Continuous
 62
     3
100
AcDbLine
 10
-372.5972304447502
 20
-76.15506400453941
 30
0.0
 11
-372.5972304447502
 21
-78.95506400453939
 31
0.0
  0
LINE
  5
2F0
330
1E
100
AcDbEntity
  8
0
  6
Continuous
 62
     3
100
AcDbLine
 10
-372.5972304447502
 20
-78.95506400453939
 30
0.0
 11
-370.5972304447502
 21
-78.95506400453939
 31
0.0
  0
LINE
  5
2F1
330
1E
100
AcDbEntity
  8
0
  6
Continuous
 62
     3
100
AcDbLine
 10
-370.3972304447503
 20
-76.15506400453941
 30
0.0
 11
-370.3972304447503
 21
-76.7550640045394
 31
0.0
  0
LINE
  5
2F2
330
1E
100
AcDbEntity
  8
0
  6
Continuous
 62
     3
100
AcDbLine
 10
-370.3972304447503
 20
-76.7550640045394
 30
0.0
 11
-370.5972304447502
 21
-78.95506400453939
 31
0.0
  0
LINE
  5
2F3
330
1E
100
AcDbEntity
  8
0
  6
Continuous
 62
     3
100
AcDbLine
 10
-368.3972304447503
 20
-79.75506400453941
 30
0.0
 11
-370.1972304447502
 21
-79.75506400453941
 31
0.0
  0
LINE
  5
2F4
330
1E
100
AcDbEntity
  8
0
  6
Continuous
 62
     3
100
AcDbLine
 10
-367.0972304447502
 20
-53.65506400453941
 30
0.0
 11
-367.0972304447502
 21
-55.15506400453941
 31
0.0
  0
LINE
  5
2F5
330
1E
100
AcDbEntity
  8
0
  6
Continuous
 62
     3
100
AcDbLine
 10
-368.3972304447503
 20
-55.15506400453941
 30
0.0
 11
-368.3972304447503
 21
-53.65506400453941
 31
0.0
  0
LINE
  5
2F6
330
1E
100
AcDbEntity
  8
0
  6
Continuous
 62
     3
100
AcDbLine
 10
-367.0972304447502
 20
-62.3550640045394
 30
0.0
 11
-367.0972304447502
 21
-63.8550640045394
 31
0.0
  0
LINE
  5
2F7
330
1E
100
AcDbEntity
  8
0
  6
Continuous
 62
     3
100
AcDbLine
 10
-368.3972304447503
 20
-63.8550640045394
 30
0.0
 11
-368.3972304447503
 21
-62.3550640045394
 31
0.0
  0
LINE
  5
2F8
330
1E
100
AcDbEntity
  8
0
  6
Continuous
 62
     3
100
AcDbLine
 10
-370.1972304447502
 20
-62.3550640045394
 30
0.0
 11
-370.1972304447502
 21
-63.8550640045394
 31
0.0
  0
LINE
  5
2F9
330
1E
100
AcDbEntity
  8
0
  6
Continuous
 62
     3
100
AcDbLine
 10
-368.3972304447503
 20
-71.05506400453942
 30
0.0
 11
-368.3972304447503
 21
-72.55506400453942
 31
0.0
  0
LINE
  5
2FA
330
1E
100
AcDbEntity
  8
0
  6
Continuous
 62
     3
100
AcDbLine
 10
-368.3972304447503
 20
-44.9550640045394
 30
0.0
 11
-368.3972304447503
 21
-46.45506400453939
 31
0.0
  0
LINE
  5
2FB
330
1E
100
AcDbEntity
  8
0
  6
LTYPE1
 62
     3
100
AcDbLine
 10
-370.3972304447503
 20
-81.25506400453941
 30
0.0
 11
-365.3972304447502
 21
-81.25506400453941
 31
0.0
  0
LINE
  5
2FC
330
1E
100
AcDbEntity
  8
0
  6
Continuous
 62
     3
100
AcDbLine
 10
-367.0972304447502
 20
-79.75506400453941
 30
0.0
 11
-367.0972304447502
 21
-81.25506400453941
 31
0.0
  0
LINE
  5
2FD
330
1E
100
AcDbEntity
  8
0
  6
Continuous
 62
     3
100
AcDbLine
 10
-368.3972304447503
 20
-81.25506400453941
 30
0.0
 11
-368.3972304447503
 21
-79.75506400453941
 31
0.0
  0
LINE
  5
2FE
330
1E
100
AcDbEntity
  8
0
  6
LTYPE1
 62
     3
100
AcDbLine
 10
-365.3972304447502
 20
-44.9550640045394
 30
0.0
 11
-365.3972304447502
 21
-81.25506400453941
 31
0.0
  0
LINE
  5
2FF
330
1E
100
AcDbEntity
  8
0
  6
Continuous
 62
     3
100
AcDbLine
 10
-368.3972304447503
 20
-81.25506400453941
 30
0.0
 11
-368.3972304447503
 21
-79.75506400453941
 31
0.0
  0
LINE
  5
300
330
1E
100
AcDbEntity
  8
0
  6
Continuous
 62
     3
100
AcDbLine
 10
-375.0972304447502
 20
-72.55506400453942
 30
0.0
 11
-375.0972304447502
 21
-79.75506400453941
 31
0.0
  0
LINE
  5
301
330
1E
100
AcDbEntity
  8
0
  6
LTYPE1
 62
     3
100
AcDbLine
 10
-370.3972304447503
 20
-81.25506400453941
 30
0.0
 11
-370.3972304447503
 21
-44.9550640045394
 31
0.0
  0
ARC
  5
302
330
1E
100
AcDbEntity
  8
0
  6
Continuous
 62
     1
100
AcDbCircle
 10
-373.3491197097502
 20
-43.55506400453942
 30
0.0
 40
0.5
100
AcDbArc
 50
344.2133212559999
 51
90.0
  0
LINE
  5
303
330
1E
100
AcDbEntity
  8
0
  6
Continuous
 62
     1
100
AcDbLine
 10
-372.8491221817502
 20
-44.9550640045394
 30
0.0
 11
-372.8491221817502
 21
-43.5534916855394
 31
0.0
  0
LINE
  5
304
330
1E
100
AcDbEntity
  8
0
  6
Continuous
 62
     1
100
AcDbLine
 10
-372.8491221817502
 20
-82.65663632353943
 30
0.0
 11
-372.8491221817502
 21
-81.25506400453941
 31
0.0
  0
LINE
  5
305
330
1E
100
AcDbEntity
  8
0
  6
Continuous
 62
     3
100
AcDbLine
 10
-375.7972304447502
 20
-81.25506400453941
 30
0.0
 11
-367.0972304447502
 21
-81.25506400453941
 31
0.0
  0
LINE
  5
306
330
1E
100
AcDbEntity
  8
0
  6
LTYPE1
 62
     3
100
AcDbLine
 10
-365.3972304447502
 20
-44.9550640045394
 30
0.0
 11
-375.7972304447502
 21
-44.9550640045394
 31
0.0
  0
LINE
  5
307
330
1E
100
AcDbEntity
  8
0
  6
Continuous
 62
     3
100
AcDbLine
 10
-365.3972304447502
 20
-79.84828434353943
 30
0.0
 11
-354.3972304447502
 21
-79.75506400453941
 31
0.0
  0
LINE
  5
308
330
1E
100
AcDbEntity
  8
0
  6
Continuous
 62
     3
100
AcDbLine
 10
-365.3972304447502
 20
-77.86184366553939
 30
0.0
 11
-354.3972304447502
 21
-77.95506400453939
 31
0.0
  0
LINE
  5
309
330
1E
100
AcDbEntity
  8
0
  6
Continuous
 62
     3
100
AcDbLine
 10
-365.3972304447502
 20
-76.34828434353943
 30
0.0
 11
-354.3972304447502
 21
-76.2550640045394
 31
0.0
  0
LINE
  5
30A
330
1E
100
AcDbEntity
  8
0
  6
Continuous
 62
     3
100
AcDbLine
 10
-365.3972304447502
 20
-74.36184366553939
 30
0.0
 11
-354.3972304447502
 21
-74.4550640045394
 31
0.0
  0
LINE
  5
30B
330
1E
100
AcDbEntity
  8
0
  6
Continuous
 62
     3
100
AcDbLine
 10
-365.3972304447502
 20
-72.84828434353944
 30
0.0
 11
-354.3972304447502
 21
-72.75506400453941
 31
0.0
  0
LINE
  5
30C
330
1E
100
AcDbEntity
  8
0
  6
Continuous
 62
     3
100
AcDbLine
 10
-365.3972304447502
 20
-70.8618436655394
 30
0.0
 11
-354.3972304447502
 21
-70.95506400453939
 31
0.0
  0
LINE
  5
30D
330
1E
100
AcDbEntity
  8
0
  6
Continuous
 62
     3
100
AcDbLine
 10
-365.3972304447502
 20
-69.34828434353943
 30
0.0
 11
-354.3972304447502
 21
-69.2550640045394
 31
0.0
  0
LINE
  5
30E
330
1E
100
AcDbEntity
  8
0
  6
Continuous
 62
     3
100
AcDbLine
 10
-365.3972304447502
 20
-67.36184366553939
 30
0.0
 11
-354.3972304447502
 21
-67.4550640045394
 31
0.0
  0
LINE
  5
30F
330
1E
100
AcDbEntity
  8
0
  6
Continuous
 62
     3
100
AcDbLine
 10
-365.3972304447502
 20
-65.84828434353943
 30
0.0
 11
-354.3972304447502
 21
-65.7550640045394
 31
0.0
  0
LINE
  5
310
330
1E
100
AcDbEntity
  8
0
  6
Continuous
 62
     3
100
AcDbLine
 10
-365.3972304447502
 20
-63.8618436655394
 30
0.0
 11
-354.3972304447502
 21
-63.95506400453939
 31
0.0
  0
LINE
  5
311
330
1E
100
AcDbEntity
  8
0
  6
Continuous
 62
     3
100
AcDbLine
 10
-365.3972304447502
 20
-62.34828434353943
 30
0.0
 11
-354.3972304447502
 21
-62.25506400453941
 31
0.0
  0
LINE
  5
312
330
1E
100
AcDbEntity
  8
0
  6
Continuous
 62
     3
100
AcDbLine
 10
-365.3972304447502
 20
-60.36184366553939
 30
0.0
 11
-354.3972304447502
 21
-60.45506400453939
 31
0.0
  0
LINE
  5
313
330
1E
100
AcDbEntity
  8
0
  6
Continuous
 62
     3
100
AcDbLine
 10
-365.3972304447502
 20
-58.84828434353943
 30
0.0
 11
-354.3972304447502
 21
-58.7550640045394
 31
0.0
  0
LINE
  5
314
330
1E
100
AcDbEntity
  8
0
  6
Continuous
 62
     3
100
AcDbLine
 10
-365.3972304447502
 20
-56.86184366553939
 30
0.0
 11
-354.3972304447502
 21
-56.9550640045394
 31
0.0
  0
LINE
  5
315
330
1E
100
AcDbEntity
  8
0
  6
Continuous
 62
     3
100
AcDbLine
 10
-365.3972304447502
 20
-55.34828434353944
 30
0.0
 11
-354.3972304447502
 21
-55.25506400453941
 31
0.0
  0
LINE
  5
316
330
1E
100
AcDbEntity
  8
0
  6
Continuous
 62
     3
100
AcDbLine
 10
-365.3972304447502
 20
-53.3618436655394
 30
0.0
 11
-354.3972304447502
 21
-53.45506400453939
 31
0.0
  0
LINE
  5
317
330
1E
100
AcDbEntity
  8
0
  6
Continuous
 62
     3
100
AcDbLine
 10
-365.3972304447502
 20
-51.84828434353943
 30
0.0
 11
-354.3972304447502
 21
-51.7550640045394
 31
0.0
  0
LINE
  5
318
330
1E
100
AcDbEntity
  8
0
  6
Continuous
 62
     3
100
AcDbLine
 10
-365.3972304447502
 20
-49.86184366553939
 30
0.0
 11
-354.3972304447502
 21
-49.9550640045394
 31
0.0
  0
LINE
  5
319
330
1E
100
AcDbEntity
  8
0
  6
Continuous
 62
     3
100
AcDbLine
 10
-365.3972304447502
 20
-48.34828434353943
 30
0.0
 11
-354.3972304447502
 21
-48.2550640045394
 31
0.0
  0
LINE
  5
31A
330
1E
100
AcDbEntity
  8
0
  6
Continuous
 62
     3
100
AcDbLine
 10
-365.3972304447502
 20
-46.3618436655394
 30
0.0
 11
-354.3972304447502
 21
-46.45506400453939
 31
0.0
  0
POINT
  5
31B
330
1E
100
AcDbEntity
  8
0
  6
Continuous
 62
     3
100
AcDbPoint
 10
-229.3122304437502
 20
-140.7050639975394
 30
0.0
  0
LINE
  5
31C
330
1E
100
AcDbEntity
  8
0
  6
Continuous
 62
     3
100
AcDbLine
 10
-226.4631195937502
 20
-143.6958689835394
 30
0.0
 11
-226.3122304437502
 21
-160.1050639975393
 31
0.0
  0
ARC
  5
31D
330
1E
100
AcDbEntity
  8
0
  6
Continuous
 62
     3
100
AcDbCircle
 10
-319.1613835687502
 20
-143.7050639975394
 30
0.0
 40
1.0
100
AcDbArc
 50
90.0
 51
179.4731571059999
  0
LINE
  5
31E
330
1E
100
AcDbEntity
  8
0
  6
Continuous
 62
     3
100
AcDbLine
 10
-290.9122304437502
 20
-155.6050639975393
 30
0.0
 11
-291.3122304437502
 21
-160.1050639975393
 31
0.0
  0
LINE
  5
31F
330
1E
100
AcDbEntity
  8
0
  6
Continuous
 62
     3
100
AcDbLine
 10
-255.7122304437502
 20
-155.6050639975393
 30
0.0
 11
-255.3122304437502
 21
-160.1050639975393
 31
0.0
  0
LINE
  5
320
330
1E
100
AcDbEntity
  8
0
  6
Continuous
 62
     3
100
AcDbLine
 10
-255.7122304437502
 20
-155.6050639975393
 30
0.0
 11
-290.9122304437502
 21
-155.6050639975393
 31
0.0
  0
LINE
  5
321
330
1E
100
AcDbEntity
  8
0
  6
Continuous
 62
     3
100
AcDbLine
 10
-227.8122304437502
 20
-142.7050639975394
 30
0.0
 11
-227.8122304437502
 21
-141.2050639975394
 31
0.0
  0
ARC
  5
322
330
1E
100
AcDbEntity
  8
0
  6
Continuous
 62
     3
100
AcDbCircle
 10
-228.3122304437502
 20
-141.2050639975394
 30
0.0
 40
0.5
100
AcDbArc
 50
0.0
 51
90.0
  0
LINE
  5
323
330
1E
100
AcDbEntity
  8
0
  6
Continuous
 62
     3
100
AcDbLine
 10
-229.3122304437502
 20
-140.7050639975394
 30
0.0
 11
-229.3122304437502
 21
-142.7050639975394
 31
0.0
  0
LINE
  5
324
330
1E
100
AcDbEntity
  8
0
  6
Continuous
 62
     3
100
AcDbLine
 10
-228.3122304437502
 20
-140.7050639975394
 30
0.0
 11
-229.3122304437502
 21
-140.7050639975394
 31
0.0
  0
LINE
  5
325
330
1E
100
AcDbEntity
  8
0
  6
Continuous
 62
     1
100
AcDbLine
 10
-255.7122304437502
 20
-155.6050639975393
 30
0.0
 11
-290.9122304437502
 21
-155.6050639985394
 31
0.0
  0
LINE
  5
326
330
1E
100
AcDbEntity
  8
0
  6
Continuous
 62
     1
100
AcDbLine
 10
-257.2272304437502
 20
-157.6050639975393
 30
0.0
 11
-257.2272304437502
 21
-157.1050639975393
 31
0.0
  0
LINE
  5
327
330
1E
100
AcDbEntity
  8
0
  6
Continuous
 62
     1
100
AcDbLine
 10
-255.7272304437502
 20
-156.9050639975394
 30
0.0
 11
-255.7272304437502
 21
-155.8050639975394
 31
0.0
  0
LINE
  5
328
330
1E
100
AcDbEntity
  8
0
  6
Continuous
 62
     1
100
AcDbLine
 10
-255.3122304437502
 20
-160.1050639975393
 30
0.0
 11
-255.7122304437502
 21
-155.6050639975393
 31
0.0
  0
LINE
  5
329
330
1E
100
AcDbEntity
  8
0
  6
Continuous
 62
     1
100
AcDbLine
 10
-257.2272304437502
 20
-157.1050639975393
 30
0.0
 11
-255.7272304437502
 21
-156.9050639975394
 31
0.0
  0
LINE
  5
32A
330
1E
100
AcDbEntity
  8
0
  6
Continuous
 62
     1
100
AcDbLine
 10
-289.3122304437502
 20
-156.8050639985393
 30
0.0
 11
-290.9227038607502
 21
-156.8050639985393
 31
0.0
  0
LINE
  5
32B
330
1E
100
AcDbEntity
  8
0
  6
Continuous
 62
     1
100
AcDbLine
 10
-290.9227038607502
 20
-156.8050639985393
 30
0.0
 11
-290.9122304437502
 21
-155.6050639985394
 31
0.0
  0
LINE
  5
32C
330
1E
100
AcDbEntity
  8
0
  6
Continuous
 62
     1
100
AcDbLine
 10
-289.3122304437502
 20
-158.3050639985394
 30
0.0
 11
-289.3122304437502
 21
-156.8050639985393
 31
0.0
  0
LINE
  5
32D
330
1E
100
AcDbEntity
  8
0
  6
Continuous
 62
     1
100
AcDbLine
 10
-290.9497559757502
 20
-159.9050639985393
 30
0.0
 11
-291.2944526657502
 21
-159.9050639985393
 31
0.0
  0
LINE
  5
32E
330
1E
100
AcDbEntity
  8
0
  6
Continuous
 62
     1
100
AcDbLine
 10
-290.9122304437502
 20
-155.6050639985394
 30
0.0
 11
-291.3122304437502
 21
-160.1050639985394
 31
0.0
  0
LINE
  5
32F
330
1E
100
AcDbEntity
  8
0
  6
Continuous
 62
     1
100
AcDbLine
 10
-290.9497559757502
 20
-159.9050639985393
 30
0.0
 11
-289.3122304437502
 21
-158.3050639985394
 31
0.0
  0
LINE
  5
330
330
1E
100
AcDbEntity
  8
0
  6
Continuous
 62
     3
100
AcDbLine
 10
-229.3227038607502
 20
-135.2050639985393
 30
0.0
 11
-228.3227038607502
 21
-135.2050639985393
 31
0.0
  0
LINE
  5
331
330
1E
100
AcDbEntity
  8
0
  6
Continuous
 62
     3
100
AcDbLine
 10
-238.6227038607502
 20
-133.4050639985393
 30
0.0
 11
-228.3227038607502
 21
-133.4050639985393
 31
0.0
  0
LINE
  5
332
330
1E
100
AcDbEntity
  8
0
  6
Continuous
 62
     3
100
AcDbLine
 10
-229.3227038607502
 20
-140.1050639985394
 30
0.0
 11
-231.8227038607502
 21
-140.1050639985394
 31
0.0
  0
LINE
  5
333
330
1E
100
AcDbEntity
  8
0
  6
Continuous
 62
     3
100
AcDbLine
 10
-237.1227038607502
 20
-133.4050639985393
 30
0.0
 11
-237.1227038607502
 21
-132.1050639985394
 31
0.0
  0
LINE
  5
334
330
1E
100
AcDbEntity
  8
0
  6
Continuous
 62
     3
100
AcDbLine
 10
-237.1227038607502
 20
-132.1050639985394
 30
0.0
 11
-236.1227038607502
 21
-132.1050639985394
 31
0.0
  0
LINE
  5
335
330
1E
100
AcDbEntity
  8
0
  6
Continuous
 62
     3
100
AcDbLine
 10
-236.1227038607502
 20
-132.1050639985394
 30
0.0
 11
-236.1227038607502
 21
-133.4050639985393
 31
0.0
  0
LINE
  5
336
330
1E
100
AcDbEntity
  8
0
  6
Continuous
 62
     3
100
AcDbLine
 10
-228.3227038607502
 20
-135.2050639985393
 30
0.0
 11
-228.3227038607502
 21
-133.4050639985393
 31
0.0
  0
LINE
  5
337
330
1E
100
AcDbEntity
  8
0
  6
LTYPE1
 62
     3
100
AcDbLine
 10
-238.1227038607502
 20
-133.4050639985393
 30
0.0
 11
-238.1227038607502
 21
-130.4050639985393
 31
0.0
  0
LINE
  5
338
330
1E
100
AcDbEntity
  8
0
  6
LTYPE1
 62
     3
100
AcDbLine
 10
-238.1227038607502
 20
-130.4050639985393
 30
0.0
 11
-228.3227038607502
 21
-130.4050639985393
 31
0.0
  0
LINE
  5
339
330
1E
100
AcDbEntity
  8
0
  6
LTYPE1
 62
     3
100
AcDbLine
 10
-228.3227038607502
 20
-130.4050639985393
 30
0.0
 11
-227.3227038607502
 21
-130.7050639985394
 31
0.0
  0
LINE
  5
33A
330
1E
100
AcDbEntity
  8
0
  6
LTYPE1
 62
     3
100
AcDbLine
 10
-227.3227038607502
 20
-135.4050639985393
 30
0.0
 11
-227.3227038607502
 21
-130.7050639985394
 31
0.0
  0
LINE
  5
33B
330
1E
100
AcDbEntity
  8
0
  6
LTYPE1
 62
     3
100
AcDbLine
 10
-229.3227038607502
 20
-135.4050639985393
 30
0.0
 11
-227.3227038607502
 21
-135.4050639985393
 31
0.0
  0
LINE
  5
33C
330
1E
100
AcDbEntity
  8
0
  6
Continuous
 62
     3
100
AcDbLine
 10
-236.6227038607502
 20
-140.1050639985394
 30
0.0
 11
-236.6227038607502
 21
-142.7050639975394
 31
0.0
  0
LINE
  5
33D
330
1E
100
AcDbEntity
  8
0
  6
Continuous
 62
     3
100
AcDbLine
 10
-231.8227038607502
 20
-140.1050639985394
 30
0.0
 11
-231.8227038607502
 21
-142.7050639975394
 31
0.0
  0
LINE
  5
33E
330
1E
100
AcDbEntity
  8
0
  6
Continuous
 62
     3
100
AcDbLine
 10
-229.3227038607502
 20
-142.7050639975394
 30
0.0
 11
-229.3227038607502
 21
-135.2050639985393
 31
0.0
  0
LINE
  5
33F
330
1E
100
AcDbEntity
  8
0
  6
Continuous
 62
     3
100
AcDbLine
 10
-238.6227038607502
 20
-133.4050639985393
 30
0.0
 11
-238.6227038607502
 21
-137.7050639975394
 31
0.0
  0
LINE
  5
340
330
1E
100
AcDbEntity
  8
0
  6
Continuous
 62
     3
100
AcDbLine
 10
-229.3227038607502
 20
-140.1050639985394
 30
0.0
 11
-236.9622304437502
 21
-140.1050639985394
 31
0.0
  0
LINE
  5
341
330
1E
100
AcDbEntity
  8
0
  6
Continuous
 62
     3
100
AcDbLine
 10
-237.6227038607502
 20
-133.4050639985393
 30
0.0
 11
-237.6227038607502
 21
-137.7050639975394
 31
0.0
  0
ARC
  5
342
330
1E
100
AcDbEntity
  8
0
  6
Continuous
 62
     1
100
AcDbCircle
 10
-319.1569075137503
 20
-143.7050639975394
 30
0.0
 40
1.0
100
AcDbArc
 50
90.0
 51
180.0
  0
ARC
  5
343
330
1E
100
AcDbEntity
  8
0
  6
Continuous
 62
     3
100
AcDbCircle
 10
-319.1613835687502
 20
-143.7050639975394
 30
0.0
 40
1.0
100
AcDbArc
 50
90.0
 51
179.4731571059999
  0
LINE
  5
344
330
1E
100
AcDbEntity
  8
0
  6
Continuous
 62
     3
100
AcDbLine
 10
-317.3122304437502
 20
-142.7050639975394
 30
0.0
 11
-319.1613835687502
 21
-142.7050639975394
 31
0.0
  0
LINE
  5
345
330
1E
100
AcDbEntity
  8
0
  6
Continuous
 62
     3
100
AcDbLine
 10
-305.6975565307502
 20
-142.7050639975394
 30
0.0
 11
-317.3122304437502
 21
-142.7050639975394
 31
0.0
  0
LINE
  5
346
330
1E
100
AcDbEntity
  8
0
  6
Continuous
 62
     3
100
AcDbLine
 10
-305.5022304427502
 20
-67.4550640045394
 30
0.0
 11
-303.7022304427503
 21
-67.4550640045394
 31
0.0
  0
LINE
  5
347
330
1E
100
AcDbEntity
  8
0
  6
Continuous
 62
     3
100
AcDbLine
 10
-303.7022304427503
 20
-65.7550640045394
 30
0.0
 11
-305.5022304427502
 21
-65.7550640045394
 31
0.0
  0
LINE
  5
348
330
1E
100
AcDbEntity
  8
0
  6
Continuous
 62
     3
100
AcDbLine
 10
-305.5022304427502
 20
-70.95506400453939
 30
0.0
 11
-303.7022304427503
 21
-70.95506400453939
 31
0.0
  0
LINE
  5
349
330
1E
100
AcDbEntity
  8
0
  6
Continuous
 62
     3
100
AcDbLine
 10
-303.7022304427503
 20
-69.2550640045394
 30
0.0
 11
-305.5022304427502
 21
-69.2550640045394
 31
0.0
  0
LINE
  5
34A
330
1E
100
AcDbEntity
  8
0
  6
Continuous
 62
     3
100
AcDbLine
 10
-305.5022304427502
 20
-74.4550640045394
 30
0.0
 11
-303.7022304427503
 21
-74.4550640045394
 31
0.0
  0
LINE
  5
34B
330
1E
100
AcDbEntity
  8
0
  6
Continuous
 62
     3
100
AcDbLine
 10
-303.7022304427503
 20
-72.75506400453941
 30
0.0
 11
-305.5022304427502
 21
-72.75506400453941
 31
0.0
  0
LINE
  5
34C
330
1E
100
AcDbEntity
  8
0
  6
Continuous
 62
     3
100
AcDbLine
 10
-305.5022304427502
 20
-63.95506400453939
 30
0.0
 11
-303.7022304427503
 21
-63.95506400453939
 31
0.0
  0
LINE
  5
34D
330
1E
100
AcDbEntity
  8
0
  6
Continuous
 62
     3
100
AcDbLine
 10
-303.7022304427503
 20
-62.25506400453941
 30
0.0
 11
-305.5022304427502
 21
-62.25506400453941
 31
0.0
  0
LINE
  5
34E
330
1E
100
AcDbEntity
  8
0
  6
Continuous
 62
     3
100
AcDbLine
 10
-303.7022304427503
 20
-60.45506400453939
 30
0.0
 11
-305.5022304427502
 21
-60.45506400453939
 31
0.0
  0
LINE
  5
34F
330
1E
100
AcDbEntity
  8
0
  6
Continuous
 62
     3
100
AcDbLine
 10
-305.5022304427502
 20
-58.7550640045394
 30
0.0
 11
-303.7022304427503
 21
-58.7550640045394
 31
0.0
  0
LINE
  5
350
330
1E
100
AcDbEntity
  8
0
  6
Continuous
 62
     3
100
AcDbLine
 10
-305.5022304427502
 20
-55.25506400453941
 30
0.0
 11
-303.7022304427503
 21
-55.25506400453941
 31
0.0
  0
LINE
  5
351
330
1E
100
AcDbEntity
  8
0
  6
Continuous
 62
     3
100
AcDbLine
 10
-303.7022304427503
 20
-56.9550640045394
 30
0.0
 11
-305.5022304427502
 21
-56.9550640045394
 31
0.0
  0
LINE
  5
352
330
1E
100
AcDbEntity
  8
0
  6
Continuous
 62
     3
100
AcDbLine
 10
-305.5022304427502
 20
-51.7550640045394
 30
0.0
 11
-303.7022304427503
 21
-51.7550640045394
 31
0.0
  0
LINE
  5
353
330
1E
100
AcDbEntity
  8
0
  6
Continuous
 62
     3
100
AcDbLine
 10
-303.7022304427503
 20
-53.45506400453939
 30
0.0
 11
-305.5022304427502
 21
-53.45506400453939
 31
0.0
  0
LINE
  5
354
330
1E
100
AcDbEntity
  8
0
  6
Continuous
 62
     3
100
AcDbLine
 10
-305.5022304427502
 20
-48.2550640045394
 30
0.0
 11
-303.7022304427503
 21
-48.2550640045394
 31
0.0
  0
LINE
  5
355
330
1E
100
AcDbEntity
  8
0
  6
Continuous
 62
     3
100
AcDbLine
 10
-303.7022304427503
 20
-49.9550640045394
 30
0.0
 11
-305.5022304427502
 21
-49.9550640045394
 31
0.0
  0
LINE
  5
356
330
1E
100
AcDbEntity
  8
0
  6
Continuous
 62
     3
100
AcDbLine
 10
-305.5022304427502
 20
-84.95506400453939
 30
0.0
 11
-303.7022304427503
 21
-84.95506400453939
 31
0.0
  0
LINE
  5
357
330
1E
100
AcDbEntity
  8
0
  6
Continuous
 62
     3
100
AcDbLine
 10
-303.7022304427503
 20
-83.2550640045394
 30
0.0
 11
-305.5022304427502
 21
-83.2550640045394
 31
0.0
  0
LINE
  5
358
330
1E
100
AcDbEntity
  8
0
  6
Continuous
 62
     3
100
AcDbLine
 10
-305.5022304427502
 20
-81.45506400453939
 30
0.0
 11
-303.7022304427503
 21
-81.45506400453939
 31
0.0
  0
LINE
  5
359
330
1E
100
AcDbEntity
  8
0
  6
Continuous
 62
     3
100
AcDbLine
 10
-305.5022304427502
 20
-77.95506400453939
 30
0.0
 11
-303.7022304427503
 21
-77.95506400453939
 31
0.0
  0
LINE
  5
35A
330
1E
100
AcDbEntity
  8
0
  6
Continuous
 62
     3
100
AcDbLine
 10
-303.7022304427503
 20
-79.75506400453941
 30
0.0
 11
-305.5022304427502
 21
-79.75506400453941
 31
0.0
  0
LINE
  5
35B
330
1E
100
AcDbEntity
  8
0
  6
Continuous
 62
     3
100
AcDbLine
 10
-303.7022304427503
 20
-76.2550640045394
 30
0.0
 11
-305.5022304427502
 21
-76.2550640045394
 31
0.0
  0
LINE
  5
35C
330
1E
100
AcDbEntity
  8
0
  6
Continuous
 62
     3
100
AcDbLine
 10
-303.7022304427503
 20
-84.95506400453939
 30
0.0
 11
-303.7022304427503
 21
-83.2550640045394
 31
0.0
  0
LINE
  5
35D
330
1E
100
AcDbEntity
  8
0
  6
Continuous
 62
     3
100
AcDbLine
 10
-303.7022304427503
 20
-81.45506400453939
 30
0.0
 11
-303.7022304427503
 21
-79.75506400453941
 31
0.0
  0
LINE
  5
35E
330
1E
100
AcDbEntity
  8
0
  6
Continuous
 62
     3
100
AcDbLine
 10
-303.7022304427503
 20
-67.4550640045394
 30
0.0
 11
-303.7022304427503
 21
-65.7550640045394
 31
0.0
  0
LINE
  5
35F
330
1E
100
AcDbEntity
  8
0
  6
Continuous
 62
     3
100
AcDbLine
 10
-303.7022304427503
 20
-70.95506400453939
 30
0.0
 11
-303.7022304427503
 21
-69.2550640045394
 31
0.0
  0
LINE
  5
360
330
1E
100
AcDbEntity
  8
0
  6
Continuous
 62
     3
100
AcDbLine
 10
-303.7022304427503
 20
-74.4550640045394
 30
0.0
 11
-303.7022304427503
 21
-72.75506400453941
 31
0.0
  0
LINE
  5
361
330
1E
100
AcDbEntity
  8
0
  6
Continuous
 62
     3
100
AcDbLine
 10
-303.7022304427503
 20
-77.95506400453939
 30
0.0
 11
-303.7022304427503
 21
-76.2550640045394
 31
0.0
  0
LINE
  5
362
330
1E
100
AcDbEntity
  8
0
  6
Continuous
 62
     3
100
AcDbLine
 10
-303.7022304427503
 20
-63.95506400453939
 30
0.0
 11
-303.7022304427503
 21
-62.25506400453941
 31
0.0
  0
LINE
  5
363
330
1E
100
AcDbEntity
  8
0
  6
Continuous
 62
     3
100
AcDbLine
 10
-303.7022304427503
 20
-58.7550640045394
 30
0.0
 11
-303.7022304427503
 21
-60.45506400453939
 31
0.0
  0
LINE
  5
364
330
1E
100
AcDbEntity
  8
0
  6
Continuous
 62
     3
100
AcDbLine
 10
-303.7022304427503
 20
-55.25506400453941
 30
0.0
 11
-303.7022304427503
 21
-56.9550640045394
 31
0.0
  0
LINE
  5
365
330
1E
100
AcDbEntity
  8
0
  6
Continuous
 62
     3
100
AcDbLine
 10
-303.7022304427503
 20
-51.7550640045394
 30
0.0
 11
-303.7022304427503
 21
-53.45506400453939
 31
0.0
  0
LINE
  5
366
330
1E
100
AcDbEntity
  8
0
  6
Continuous
 62
     3
100
AcDbLine
 10
-303.7022304427503
 20
-48.2550640045394
 30
0.0
 11
-303.7022304427503
 21
-49.9550640045394
 31
0.0
  0
LINE
  5
367
330
1E
100
AcDbEntity
  8
0
  6
Continuous
 62
     3
100
AcDbLine
 10
-240.8022304427502
 20
-67.4550640045394
 30
0.0
 11
-242.6022304427502
 21
-67.4550640045394
 31
0.0
  0
LINE
  5
368
330
1E
100
AcDbEntity
  8
0
  6
Continuous
 62
     3
100
AcDbLine
 10
-242.6022304427502
 20
-65.7550640045394
 30
0.0
 11
-240.8022304427502
 21
-65.7550640045394
 31
0.0
  0
LINE
  5
369
330
1E
100
AcDbEntity
  8
0
  6
Continuous
 62
     3
100
AcDbLine
 10
-240.8022304427502
 20
-70.95506400453939
 30
0.0
 11
-242.6022304427502
 21
-70.95506400453939
 31
0.0
  0
LINE
  5
36A
330
1E
100
AcDbEntity
  8
0
  6
Continuous
 62
     3
100
AcDbLine
 10
-240.8022304427502
 20
-74.4550640045394
 30
0.0
 11
-242.6022304427502
 21
-74.4550640045394
 31
0.0
  0
LINE
  5
36B
330
1E
100
AcDbEntity
  8
0
  6
Continuous
 62
     3
100
AcDbLine
 10
-242.6022304427502
 20
-72.75506400453941
 30
0.0
 11
-240.8022304427502
 21
-72.75506400453941
 31
0.0
  0
LINE
  5
36C
330
1E
100
AcDbEntity
  8
0
  6
Continuous
 62
     3
100
AcDbLine
 10
-240.8022304427502
 20
-63.95506400453939
 30
0.0
 11
-242.6022304427502
 21
-63.95506400453939
 31
0.0
  0
LINE
  5
36D
330
1E
100
AcDbEntity
  8
0
  6
Continuous
 62
     3
100
AcDbLine
 10
-242.6022304427502
 20
-62.25506400453941
 30
0.0
 11
-240.8022304427502
 21
-62.25506400453941
 31
0.0
  0
LINE
  5
36E
330
1E
100
AcDbEntity
  8
0
  6
Continuous
 62
     3
100
AcDbLine
 10
-242.6022304427502
 20
-60.45506400453939
 30
0.0
 11
-240.8022304427502
 21
-60.45506400453939
 31
0.0
  0
LINE
  5
36F
330
1E
100
AcDbEntity
  8
0
  6
Continuous
 62
     3
100
AcDbLine
 10
-240.8022304427502
 20
-58.7550640045394
 30
0.0
 11
-242.6022304427502
 21
-58.7550640045394
 31
0.0
  0
LINE
  5
370
330
1E
100
AcDbEntity
  8
0
  6
Continuous
 62
     3
100
AcDbLine
 10
-240.8022304427502
 20
-55.25506400453941
 30
0.0
 11
-242.6022304427502
 21
-55.25506400453941
 31
0.0
  0
LINE
  5
371
330
1E
100
AcDbEntity
  8
0
  6
Continuous
 62
     3
100
AcDbLine
 10
-242.6022304427502
 20
-56.9550640045394
 30
0.0
 11
-240.8022304427502
 21
-56.9550640045394
 31
0.0
  0
LINE
  5
372
330
1E
100
AcDbEntity
  8
0
  6
Continuous
 62
     3
100
AcDbLine
 10
-240.8022304427502
 20
-51.7550640045394
 30
0.0
 11
-242.6022304427502
 21
-51.7550640045394
 31
0.0
  0
LINE
  5
373
330
1E
100
AcDbEntity
  8
0
  6
Continuous
 62
     3
100
AcDbLine
 10
-242.6022304427502
 20
-53.45506400453939
 30
0.0
 11
-240.8022304427502
 21
-53.45506400453939
 31
0.0
  0
LINE
  5
374
330
1E
100
AcDbEntity
  8
0
  6
Continuous
 62
     3
100
AcDbLine
 10
-240.8022304427502
 20
-48.2550640045394
 30
0.0
 11
-242.6022304427502
 21
-48.2550640045394
 31
0.0
  0
LINE
  5
375
330
1E
100
AcDbEntity
  8
0
  6
Continuous
 62
     3
100
AcDbLine
 10
-242.6022304427502
 20
-49.9550640045394
 30
0.0
 11
-240.8022304427502
 21
-49.9550640045394
 31
0.0
  0
LINE
  5
376
330
1E
100
AcDbEntity
  8
0
  6
Continuous
 62
     3
100
AcDbLine
 10
-240.8022304427502
 20
-84.95506400453939
 30
0.0
 11
-242.6022304427502
 21
-84.95506400453939
 31
0.0
  0
LINE
  5
377
330
1E
100
AcDbEntity
  8
0
  6
Continuous
 62
     3
100
AcDbLine
 10
-242.6022304427502
 20
-83.2550640045394
 30
0.0
 11
-240.8022304427502
 21
-83.2550640045394
 31
0.0
  0
LINE
  5
378
330
1E
100
AcDbEntity
  8
0
  6
Continuous
 62
     3
100
AcDbLine
 10
-240.8022304427502
 20
-81.45506400453939
 30
0.0
 11
-242.6022304427502
 21
-81.45506400453939
 31
0.0
  0
LINE
  5
379
330
1E
100
AcDbEntity
  8
0
  6
Continuous
 62
     3
100
AcDbLine
 10
-240.8022304427502
 20
-77.95506400453939
 30
0.0
 11
-242.6022304427502
 21
-77.95506400453939
 31
0.0
  0
LINE
  5
37A
330
1E
100
AcDbEntity
  8
0
  6
Continuous
 62
     3
100
AcDbLine
 10
-242.6022304427502
 20
-79.75506400453941
 30
0.0
 11
-240.8022304427502
 21
-79.75506400453941
 31
0.0
  0
LINE
  5
37B
330
1E
100
AcDbEntity
  8
0
  6
Continuous
 62
     3
100
AcDbLine
 10
-242.6022304427502
 20
-76.2550640045394
 30
0.0
 11
-240.8022304427502
 21
-76.2550640045394
 31
0.0
  0
LINE
  5
37C
330
1E
100
AcDbEntity
  8
0
  6
Continuous
 62
     3
100
AcDbLine
 10
-242.6022304427502
 20
-84.95506400453939
 30
0.0
 11
-242.6022304427502
 21
-83.2550640045394
 31
0.0
  0
LINE
  5
37D
330
1E
100
AcDbEntity
  8
0
  6
Continuous
 62
     3
100
AcDbLine
 10
-242.6022304427502
 20
-81.45506400453939
 30
0.0
 11
-242.6022304427502
 21
-79.75506400453941
 31
0.0
  0
LINE
  5
37E
330
1E
100
AcDbEntity
  8
0
  6
Continuous
 62
     3
100
AcDbLine
 10
-242.6022304427502
 20
-67.4550640045394
 30
0.0
 11
-242.6022304427502
 21
-65.7550640045394
 31
0.0
  0
LINE
  5
37F
330
1E
100
AcDbEntity
  8
0
  6
Continuous
 62
     3
100
AcDbLine
 10
-242.6022304427502
 20
-70.95506400453939
 30
0.0
 11
-242.6022304427502
 21
-69.2550640045394
 31
0.0
  0
LINE
  5
380
330
1E
100
AcDbEntity
  8
0
  6
Continuous
 62
     3
100
AcDbLine
 10
-242.6022304427502
 20
-74.4550640045394
 30
0.0
 11
-242.6022304427502
 21
-72.75506400453941
 31
0.0
  0
LINE
  5
381
330
1E
100
AcDbEntity
  8
0
  6
Continuous
 62
     3
100
AcDbLine
 10
-242.6022304427502
 20
-77.95506400453939
 30
0.0
 11
-242.6022304427502
 21
-76.2550640045394
 31
0.0
  0
LINE
  5
382
330
1E
100
AcDbEntity
  8
0
  6
Continuous
 62
     3
100
AcDbLine
 10
-242.6022304427502
 20
-63.95506400453939
 30
0.0
 11
-242.6022304427502
 21
-62.25506400453941
 31
0.0
  0
LINE
  5
383
330
1E
100
AcDbEntity
  8
0
  6
Continuous
 62
     3
100
AcDbLine
 10
-242.6022304427502
 20
-58.7550640045394
 30
0.0
 11
-242.6022304427502
 21
-60.45506400453939
 31
0.0
  0
LINE
  5
384
330
1E
100
AcDbEntity
  8
0
  6
Continuous
 62
     3
100
AcDbLine
 10
-242.6022304427502
 20
-55.25506400453941
 30
0.0
 11
-242.6022304427502
 21
-56.9550640045394
 31
0.0
  0
LINE
  5
385
330
1E
100
AcDbEntity
  8
0
  6
Continuous
 62
     3
100
AcDbLine
 10
-242.6022304427502
 20
-51.7550640045394
 30
0.0
 11
-242.6022304427502
 21
-53.45506400453939
 31
0.0
  0
LINE
  5
386
330
1E
100
AcDbEntity
  8
0
  6
Continuous
 62
     3
100
AcDbLine
 10
-242.6022304427502
 20
-48.2550640045394
 30
0.0
 11
-242.6022304427502
 21
-49.9550640045394
 31
0.0
  0
LINE
  5
387
330
1E
100
AcDbEntity
  8
0
  6
Continuous
 62
     3
100
AcDbLine
 10
-305.5022304427502
 20
-44.7550640045394
 30
0.0
 11
-303.7022304427503
 21
-44.7550640045394
 31
0.0
  0
LINE
  5
388
330
1E
100
AcDbEntity
  8
0
  6
Continuous
 62
     3
100
AcDbLine
 10
-303.7022304427503
 20
-46.45506400453939
 30
0.0
 11
-305.5022304427502
 21
-46.45506400453939
 31
0.0
  0
LINE
  5
389
330
1E
100
AcDbEntity
  8
0
  6
Continuous
 62
     3
100
AcDbLine
 10
-305.5022304427502
 20
-41.2550640045394
 30
0.0
 11
-303.7022304427503
 21
-41.2550640045394
 31
0.0
  0
LINE
  5
38A
330
1E
100
AcDbEntity
  8
0
  6
Continuous
 62
     3
100
AcDbLine
 10
-303.7022304427503
 20
-42.95506400453939
 30
0.0
 11
-305.5022304427502
 21
-42.95506400453939
 31
0.0
  0
LINE
  5
38B
330
1E
100
AcDbEntity
  8
0
  6
Continuous
 62
     3
100
AcDbLine
 10
-303.7022304427503
 20
-44.7550640045394
 30
0.0
 11
-303.7022304427503
 21
-46.45506400453939
 31
0.0
  0
LINE
  5
38C
330
1E
100
AcDbEntity
  8
0
  6
Continuous
 62
     3
100
AcDbLine
 10
-303.7022304427503
 20
-41.2550640045394
 30
0.0
 11
-303.7022304427503
 21
-42.95506400453939
 31
0.0
  0
LINE
  5
38D
330
1E
100
AcDbEntity
  8
0
  6
Continuous
 62
     3
100
AcDbLine
 10
-240.8022304427502
 20
-44.7550640045394
 30
0.0
 11
-242.6022304427502
 21
-44.7550640045394
 31
0.0
  0
LINE
  5
38E
330
1E
100
AcDbEntity
  8
0
  6
Continuous
 62
     3
100
AcDbLine
 10
-242.6022304427502
 20
-46.45506400453939
 30
0.0
 11
-240.8022304427502
 21
-46.45506400453939
 31
0.0
  0
LINE
  5
38F
330
1E
100
AcDbEntity
  8
0
  6
Continuous
 62
     3
100
AcDbLine
 10
-240.8022304427502
 20
-41.2550640045394
 30
0.0
 11
-242.6022304427502
 21
-41.2550640045394
 31
0.0
  0
LINE
  5
390
330
1E
100
AcDbEntity
  8
0
  6
Continuous
 62
     3
100
AcDbLine
 10
-242.6022304427502
 20
-42.95506400453939
 30
0.0
 11
-240.8022304427502
 21
-42.95506400453939
 31
0.0
  0
LINE
  5
391
330
1E
100
AcDbEntity
  8
0
  6
Continuous
 62
     3
100
AcDbLine
 10
-242.6022304427502
 20
-44.7550640045394
 30
0.0
 11
-242.6022304427502
 21
-46.45506400453939
 31
0.0
  0
LINE
  5
392
330
1E
100
AcDbEntity
  8
0
  6
Continuous
 62
     3
100
AcDbLine
 10
-242.6022304427502
 20
-41.2550640045394
 30
0.0
 11
-242.6022304427502
 21
-42.95506400453939
 31
0.0
  0
ARC
  5
393
330
1E
100
AcDbEntity
  8
0
  6
Continuous
 62
     3
100
AcDbCircle
 10
-302.3522304427503
 20
-41.45506400453939
 30
0.0
 40
0.5
100
AcDbArc
 50
90.0
 51
180.0
  0
ARC
  5
394
330
1E
100
AcDbEntity
  8
0
  6
Continuous
 62
     3
100
AcDbCircle
 10
-302.3522304427503
 20
-84.75506400453941
 30
0.0
 40
0.5
100
AcDbArc
 50
180.0
 51
270.0
  0
LINE
  5
395
330
1E
100
AcDbEntity
  8
0
  6
Continuous
 62
     3
100
AcDbLine
 10
-302.8522304427502
 20
-41.45506400453939
 30
0.0
 11
-302.8522304427502
 21
-84.75506400453941
 31
0.0
  0
ARC
  5
396
330
1E
100
AcDbEntity
  8
0
  6
Continuous
 62
     3
100
AcDbCircle
 10
-243.9522304427502
 20
-84.75506400453941
 30
0.0
 40
0.5
100
AcDbArc
 50
270.0
 51
0.0
  0
LINE
  5
397
330
1E
100
AcDbEntity
  8
0
  6
Continuous
 62
     3
100
AcDbLine
 10
-302.3522304427503
 20
-85.2550640045394
 30
0.0
 11
-243.9522304427502
 21
-85.2550640045394
 31
0.0
  0
LINE
  5
398
330
1E
100
AcDbEntity
  8
0
  6
Continuous
 62
     3
100
AcDbLine
 10
-243.4522304427502
 20
-45.95506400453939
 30
0.0
 11
-243.4522304427502
 21
-84.75506400453941
 31
0.0
  0
LINE
  5
399
330
1E
100
AcDbEntity
  8
0
  6
Continuous
 62
     3
100
AcDbLine
 10
-248.4522304427502
 20
-40.95506400453939
 30
0.0
 11
-302.3522304427503
 21
-40.95506400453939
 31
0.0
  0
LINE
  5
39A
330
1E
100
AcDbEntity
  8
0
  6
Continuous
 62
     3
100
AcDbLine
 10
-243.4522304427502
 20
-45.95506400453939
 30
0.0
 11
-248.4522304427502
 21
-40.95506400453939
 31
0.0
  0
LINE
  5
39B
330
1E
100
AcDbEntity
  8
0
  6
Continuous
 62
     3
100
AcDbLine
 10
-227.6522304427502
 20
-72.70506400453939
 30
0.0
 11
-227.6522304427502
 21
-63.1050640045394
 31
0.0
  0
LINE
  5
39C
330
1E
100
AcDbEntity
  8
0
  6
Continuous
 62
     3
100
AcDbLine
 10
-230.6522304427502
 20
-43.05506400453942
 30
0.0
 11
-230.6522304427502
 21
-44.05506400453941
 31
0.0
  0
LINE
  5
39D
330
1E
100
AcDbEntity
  8
0
  6
Continuous
 62
     3
100
AcDbLine
 10
-230.6522304427502
 20
-44.05506400453941
 30
0.0
 11
-233.1522304427502
 21
-44.05506400453941
 31
0.0
  0
LINE
  5
39E
330
1E
100
AcDbEntity
  8
0
  6
Continuous
 62
     3
100
AcDbLine
 10
-236.6522304427502
 20
-43.05506400453942
 30
0.0
 11
-236.6522304427502
 21
-44.55506400453941
 31
0.0
  0
LINE
  5
39F
330
1E
100
AcDbEntity
  8
0
  6
Continuous
 62
     3
100
AcDbLine
 10
-235.6522304427502
 20
-43.05506400453942
 30
0.0
 11
-235.6522304427502
 21
-44.05506400453941
 31
0.0
  0
LINE
  5
3A0
330
1E
100
AcDbEntity
  8
0
  6
Continuous
 62
     3
100
AcDbLine
 10
-235.6522304427502
 20
-44.05506400453941
 30
0.0
 11
-233.1522304427502
 21
-44.05506400453941
 31
0.0
  0
LINE
  5
3A1
330
1E
100
AcDbEntity
  8
0
  6
Continuous
 62
     3
100
AcDbLine
 10
-230.6522304427502
 20
-83.15506400453941
 30
0.0
 11
-230.6522304427502
 21
-82.15506400453941
 31
0.0
  0
LINE
  5
3A2
330
1E
100
AcDbEntity
  8
0
  6
Continuous
 62
     3
100
AcDbLine
 10
-230.6522304427502
 20
-82.15506400453941
 30
0.0
 11
-233.1522304427502
 21
-82.15506400453941
 31
0.0
  0
LINE
  5
3A3
330
1E
100
AcDbEntity
  8
0
  6
Continuous
 62
     3
100
AcDbLine
 10
-235.6522304427502
 20
-83.15506400453941
 30
0.0
 11
-235.6522304427502
 21
-82.15506400453941
 31
0.0
  0
LINE
  5
3A4
330
1E
100
AcDbEntity
  8
0
  6
Continuous
 62
     3
100
AcDbLine
 10
-235.6522304427502
 20
-82.15506400453941
 30
0.0
 11
-233.1522304427502
 21
-82.15506400453941
 31
0.0
  0
POINT
  5
3A5
330
1E
100
AcDbEntity
  8
0
  6
Continuous
 62
     3
100
AcDbPoint
 10
-230.6522304427502
 20
-83.15506400453941
 30
0.0
  0
LINE
  5
3A6
330
1E
100
AcDbEntity
  8
0
  6
Continuous
 62
     3
100
AcDbLine
 10
-230.6522304427502
 20
-83.15506400453941
 30
0.0
 11
-230.6522304427502
 21
-82.15506400453941
 31
0.0
  0
LINE
  5
3A7
330
1E
100
AcDbEntity
  8
0
  6
Continuous
 62
     3
100
AcDbLine
 10
-230.6522304427502
 20
-82.15506400453941
 30
0.0
 11
-235.6522304427502
 21
-82.15506400453941
 31
0.0
  0
LINE
  5
3A8
330
1E
100
AcDbEntity
  8
0
  6
Continuous
 62
     3
100
AcDbLine
 10
-235.6522304427502
 20
-82.15506400453941
 30
0.0
 11
-235.6522304427502
 21
-83.15506400453941
 31
0.0
  0
LINE
  5
3A9
330
1E
100
AcDbEntity
  8
0
  6
Continuous
 62
     3
100
AcDbLine
 10
-235.6522304427502
 20
-83.15506400453941
 30
0.0
 11
-236.6522304427502
 21
-83.15506400453941
 31
0.0
  0
LINE
  5
3AA
330
1E
100
AcDbEntity
  8
0
  6
Continuous
 62
     3
100
AcDbLine
 10
-229.6522304427502
 20
-83.15506400453941
 30
0.0
 11
-235.6522304427502
 21
-83.15506400453941
 31
0.0
  0
POINT
  5
3AB
330
1E
100
AcDbEntity
  8
0
  6
Continuous
 62
     3
100
AcDbPoint
 10
-230.6522304427502
 20
-43.05506400453942
 30
0.0
  0
LINE
  5
3AC
330
1E
100
AcDbEntity
  8
0
  6
Continuous
 62
     3
100
AcDbLine
 10
-230.6522304427502
 20
-43.05506400453942
 30
0.0
 11
-230.6522304427502
 21
-44.05506400453941
 31
0.0
  0
LINE
  5
3AD
330
1E
100
AcDbEntity
  8
0
  6
Continuous
 62
     3
100
AcDbLine
 10
-230.6522304427502
 20
-44.05506400453941
 30
0.0
 11
-235.6522304427502
 21
-44.05506400453941
 31
0.0
  0
LINE
  5
3AE
330
1E
100
AcDbEntity
  8
0
  6
Continuous
 62
     3
100
AcDbLine
 10
-235.6522304427502
 20
-44.05506400453941
 30
0.0
 11
-235.6522304427502
 21
-43.05506400453942
 31
0.0
  0
LINE
  5
3AF
330
1E
100
AcDbEntity
  8
0
  6
Continuous
 62
     3
100
AcDbLine
 10
-235.6522304427502
 20
-43.05506400453942
 30
0.0
 11
-236.6522304427502
 21
-43.05506400453942
 31
0.0
  0
LINE
  5
3B0
330
1E
100
AcDbEntity
  8
0
  6
Continuous
 62
     3
100
AcDbLine
 10
-229.6522304427502
 20
-43.05506400453942
 30
0.0
 11
-235.6522304427502
 21
-43.05506400453942
 31
0.0
  0
LINE
  5
3B1
330
1E
100
AcDbEntity
  8
0
  6
Continuous
 62
     3
100
AcDbLine
 10
-236.6522304427502
 20
-43.05506400453942
 30
0.0
 11
-236.6522304427502
 21
-44.65506400453941
 31
0.0
  0
LINE
  5
3B2
330
1E
100
AcDbEntity
  8
0
  6
Continuous
 62
     3
100
AcDbLine
 10
-239.0022304427502
 20
-44.65506400453941
 30
0.0
 11
-236.6522304427502
 21
-44.65506400453941
 31
0.0
  0
LINE
  5
3B3
330
1E
100
AcDbEntity
  8
0
  6
Continuous
 62
     3
100
AcDbLine
 10
-229.1522304427502
 20
-53.0050640045394
 30
0.0
 11
-228.6522304427502
 21
-53.0050640045394
 31
0.0
  0
LINE
  5
3B4
330
1E
100
AcDbEntity
  8
0
  6
Continuous
 62
     3
100
AcDbLine
 10
-229.1522304427502
 20
-73.2050640045394
 30
0.0
 11
-228.6522304427502
 21
-73.2050640045394
 31
0.0
  0
LINE
  5
3B5
330
1E
100
AcDbEntity
  8
0
  6
Continuous
 62
     3
100
AcDbLine
 10
-242.6022304427502
 20
-69.2550640045394
 30
0.0
 11
-240.8022304427502
 21
-69.2550640045394
 31
0.0
  0
LINE
  5
3B6
330
1E
100
AcDbEntity
  8
0
  6
Continuous
 62
     3
100
AcDbLine
 10
-243.8522304427502
 20
-84.85506400453941
 30
0.0
 11
-302.4522304427502
 21
-84.85506400153941
 31
0.0
  0
LINE
  5
3B7
330
1E
100
AcDbEntity
  8
0
  6
Continuous
 62
     3
100
AcDbLine
 10
-248.4522304397502
 20
-41.3550640045394
 30
0.0
 11
-302.4522304397502
 21
-41.3550640015394
 31
0.0
  0
LINE
  5
3B8
330
1E
100
AcDbEntity
  8
0
  6
Continuous
 62
     3
100
AcDbLine
 10
-302.4522304397502
 20
-41.3550640015394
 30
0.0
 11
-302.4522304427502
 21
-84.85506400153941
 31
0.0
  0
LINE
  5
3B9
330
1E
100
AcDbEntity
  8
0
  6
Continuous
 62
     3
100
AcDbLine
 10
-248.4522304397502
 20
-41.3550640045394
 30
0.0
 11
-243.8522304407502
 21
-45.95506400553938
 31
0.0
  0
LINE
  5
3BA
330
1E
100
AcDbEntity
  8
0
  6
Continuous
 62
     3
100
AcDbLine
 10
-243.8522304427502
 20
-84.85506400453941
 30
0.0
 11
-243.8522304407502
 21
-45.95506400553938
 31
0.0
  0
LINE
  5
3BB
330
1E
100
AcDbEntity
  8
0
  6
Continuous
 62
     3
100
AcDbLine
 10
-229.7022304427502
 20
-81.25506400453941
 30
0.0
 11
-239.0022304427502
 21
-81.25506400453941
 31
0.0
  0
LINE
  5
3BC
330
1E
100
AcDbEntity
  8
0
  6
Continuous
 62
     3
100
AcDbLine
 10
-239.0022304427502
 20
-81.25506400453941
 30
0.0
 11
-239.0022304427502
 21
-44.9550640045394
 31
0.0
  0
LINE
  5
3BD
330
1E
100
AcDbEntity
  8
0
  6
Continuous
 62
     3
100
AcDbLine
 10
-239.0022304427502
 20
-44.9550640045394
 30
0.0
 11
-229.7022304427502
 21
-44.9550640045394
 31
0.0
  0
LINE
  5
3BE
330
1E
100
AcDbEntity
  8
0
  6
Continuous
 62
     3
100
AcDbLine
 10
-229.7022304427502
 20
-81.25506400453941
 30
0.0
 11
-229.1022304427502
 21
-81.25506400453941
 31
0.0
  0
LINE
  5
3BF
330
1E
100
AcDbEntity
  8
0
  6
Continuous
 62
     3
100
AcDbLine
 10
-239.0022304427502
 20
-81.25506400453941
 30
0.0
 11
-237.8022304427502
 21
-81.25506400453941
 31
0.0
  0
LINE
  5
3C0
330
1E
100
AcDbEntity
  8
0
  6
Continuous
 62
     3
100
AcDbLine
 10
-229.1022304427502
 20
-81.25506400453941
 30
0.0
 11
-229.1022304427502
 21
-62.3550640045394
 31
0.0
  0
LINE
  5
3C1
330
1E
100
AcDbEntity
  8
0
  6
Continuous
 62
     3
100
AcDbLine
 10
-229.1022304427502
 20
-46.45506400453939
 30
0.0
 11
-229.1022304427502
 21
-44.9550640045394
 31
0.0
  0
LINE
  5
3C2
330
1E
100
AcDbEntity
  8
0
  6
Continuous
 62
     3
100
AcDbLine
 10
-229.1022304427502
 20
-55.15506400453941
 30
0.0
 11
-229.1022304427502
 21
-53.65506400453941
 31
0.0
  0
LINE
  5
3C3
330
1E
100
AcDbEntity
  8
0
  6
Continuous
 62
     3
100
AcDbLine
 10
-229.1022304427502
 20
-44.9550640045394
 30
0.0
 11
-229.7022304427502
 21
-44.9550640045394
 31
0.0
  0
LINE
  5
3C4
330
1E
100
AcDbEntity
  8
0
  6
Continuous
 62
     3
100
AcDbLine
 10
-237.5022304427502
 20
-76.15506400453941
 30
0.0
 11
-237.5022304427502
 21
-79.15506400453941
 31
0.0
  0
LINE
  5
3C5
330
1E
100
AcDbEntity
  8
0
  6
Continuous
 62
     3
100
AcDbLine
 10
-237.5022304427502
 20
-73.15506400453941
 30
0.0
 11
-237.5022304427502
 21
-76.65506400453941
 31
0.0
  0
CIRCLE
  5
3C6
330
1E
100
AcDbEntity
  8
0
  6
Continuous
 62
     3
100
AcDbCircle
 10
-234.5022304427502
 20
-76.15506400453941
 30
0.0
 40
2.9
  0
LINE
  5
3C7
330
1E
100
AcDbEntity
  8
0
  6
Continuous
 62
     3
100
AcDbLine
 10
-229.7022304427502
 20
-81.25506400453941
 30
0.0
 11
-229.7022304427502
 21
-44.9550640045394
 31
0.0
  0
LINE
  5
3C8
330
1E
100
AcDbEntity
  8
0
  6
Continuous
 62
     3
100
AcDbLine
 10
-239.0022304427502
 20
-81.25506400453941
 30
0.0
 11
-238.0022304427502
 21
-81.25506400453941
 31
0.0
  0
LINE
  5
3C9
330
1E
100
AcDbEntity
  8
0
  6
Continuous
 62
     3
100
AcDbLine
 10
-229.1022304427502
 20
-72.55506400453942
 30
0.0
 11
-238.0022304427502
 21
-72.55506400453942
 31
0.0
  0
LINE
  5
3CA
330
1E
100
AcDbEntity
  8
0
  6
Continuous
 62
     3
100
AcDbLine
 10
-229.1022304427502
 20
-71.05506400453942
 30
0.0
 11
-238.0022304427502
 21
-71.05506400453942
 31
0.0
  0
LINE
  5
3CB
330
1E
100
AcDbEntity
  8
0
  6
Continuous
 62
     3
100
AcDbLine
 10
-229.1022304427502
 20
-63.8550640045394
 30
0.0
 11
-238.0022304427502
 21
-63.8550640045394
 31
0.0
  0
LINE
  5
3CC
330
1E
100
AcDbEntity
  8
0
  6
Continuous
 62
     3
100
AcDbLine
 10
-229.1022304427502
 20
-62.3550640045394
 30
0.0
 11
-238.0022304427502
 21
-62.3550640045394
 31
0.0
  0
LINE
  5
3CD
330
1E
100
AcDbEntity
  8
0
  6
Continuous
 62
     3
100
AcDbLine
 10
-229.1022304427502
 20
-55.15506400453941
 30
0.0
 11
-238.0022304427502
 21
-55.15506400453941
 31
0.0
  0
LINE
  5
3CE
330
1E
100
AcDbEntity
  8
0
  6
Continuous
 62
     3
100
AcDbLine
 10
-229.1022304427502
 20
-53.65506400453941
 30
0.0
 11
-238.0022304427502
 21
-53.65506400453941
 31
0.0
  0
LINE
  5
3CF
330
1E
100
AcDbEntity
  8
0
  6
Continuous
 62
     3
100
AcDbLine
 10
-229.1022304427502
 20
-46.45506400453939
 30
0.0
 11
-238.0022304427502
 21
-46.45506400453939
 31
0.0
  0
LINE
  5
3D0
330
1E
100
AcDbEntity
  8
0
  6
Continuous
 62
     3
100
AcDbLine
 10
-237.5022304427502
 20
-79.15506400453941
 30
0.0
 11
-231.0022304427502
 21
-79.15506400453941
 31
0.0
  0
LINE
  5
3D1
330
1E
100
AcDbEntity
  8
0
  6
Continuous
 62
     3
100
AcDbLine
 10
-231.0022304427502
 20
-73.15506400453941
 30
0.0
 11
-237.5022304427502
 21
-73.15506400453941
 31
0.0
  0
LINE
  5
3D2
330
1E
100
AcDbEntity
  8
0
  6
Continuous
 62
     3
100
AcDbLine
 10
-231.0022304427502
 20
-79.15506400453941
 30
0.0
 11
-231.0022304427502
 21
-73.15506400453941
 31
0.0
  0
LINE
  5
3D3
330
1E
100
AcDbEntity
  8
0
  6
Continuous
 62
     3
100
AcDbLine
 10
-229.1022304427502
 20
-79.75506400453941
 30
0.0
 11
-238.0022304427502
 21
-79.75506400453941
 31
0.0
  0
LINE
  5
3D4
330
1E
100
AcDbEntity
  8
0
  6
Continuous
 62
     3
100
AcDbLine
 10
-238.0022304427502
 20
-79.75506400453941
 30
0.0
 11
-238.0022304427502
 21
-46.45506400453939
 31
0.0
  0
CIRCLE
  5
3D5
330
1E
100
AcDbEntity
  8
0
  6
Continuous
 62
     3
100
AcDbCircle
 10
-234.5022304427502
 20
-76.15506400453941
 30
0.0
 40
2.9
  0
LINE
  5
3D6
330
1E
100
AcDbEntity
  8
0
  6
Continuous
 62
     3
100
AcDbLine
 10
-235.2093372247502
 20
-76.15506400453941
 30
0.0
 11
-236.2699973957502
 21
-77.21572417653942
 31
0.0
  0
LINE
  5
3D7
330
1E
100
AcDbEntity
  8
0
  6
Continuous
 62
     3
100
AcDbLine
 10
-236.2699973957502
 20
-77.21572417653942
 30
0.0
 11
-235.5628906147502
 21
-77.92283095753939
 31
0.0
  0
LINE
  5
3D8
330
1E
100
AcDbEntity
  8
0
  6
Continuous
 62
     3
100
AcDbLine
 10
-235.5628906147502
 20
-77.92283095753939
 30
0.0
 11
-234.5022304427502
 21
-76.86217078553941
 31
0.0
  0
LINE
  5
3D9
330
1E
100
AcDbEntity
  8
0
  6
Continuous
 62
     3
100
AcDbLine
 10
-233.7951236617502
 20
-76.15506400453941
 30
0.0
 11
-232.7344634897503
 21
-75.0944038325394
 31
0.0
  0
LINE
  5
3DA
330
1E
100
AcDbEntity
  8
0
  6
Continuous
 62
     3
100
AcDbLine
 10
-232.7344634897503
 20
-75.0944038325394
 30
0.0
 11
-233.4415702717503
 21
-74.3872970515394
 31
0.0
  0
LINE
  5
3DB
330
1E
100
AcDbEntity
  8
0
  6
Continuous
 62
     3
100
AcDbLine
 10
-233.4415702717503
 20
-74.3872970515394
 30
0.0
 11
-234.5022304427502
 21
-75.44795722353942
 31
0.0
  0
LINE
  5
3DC
330
1E
100
AcDbEntity
  8
0
  6
Continuous
 62
     3
100
AcDbLine
 10
-234.5022304427502
 20
-76.86217078553941
 30
0.0
 11
-232.8758848467503
 21
-78.48851638253939
 31
0.0
  0
LINE
  5
3DD
330
1E
100
AcDbEntity
  8
0
  6
Continuous
 62
     3
100
AcDbLine
 10
-236.8356828207502
 20
-74.5287184075394
 30
0.0
 11
-235.2093372247502
 21
-76.15506400453941
 31
0.0
  0
LINE
  5
3DE
330
1E
100
AcDbEntity
  8
0
  6
Continuous
 62
     3
100
AcDbLine
 10
-234.5022304427502
 20
-75.44795722353942
 30
0.0
 11
-236.1285760397502
 21
-73.8216116265394
 31
0.0
  0
LINE
  5
3DF
330
1E
100
AcDbEntity
  8
0
  6
Continuous
 62
     3
100
AcDbLine
 10
-232.1687780657502
 20
-77.78140960153942
 30
0.0
 11
-233.7951236617502
 21
-76.15506400453941
 31
0.0
  0
LINE
  5
3E0
330
1E
100
AcDbEntity
  8
0
  6
Continuous
 62
     3
100
AcDbLine
 10
-232.7344634897503
 20
-77.21572417653942
 30
0.0
 11
-233.4415702717503
 21
-77.92283095753939
 31
0.0
  0
LINE
  5
3E1
330
1E
100
AcDbEntity
  8
0
  6
Continuous
 62
     3
100
AcDbLine
 10
-236.2699973957502
 20
-75.0944038325394
 30
0.0
 11
-235.5628906147502
 21
-74.3872970515394
 31
0.0
  0
LINE
  5
3E2
330
1E
100
AcDbEntity
  8
0
  6
Continuous
 62
     3
100
AcDbLine
 10
-237.5022304427502
 20
-67.4550640045394
 30
0.0
 11
-237.5022304427502
 21
-70.45506400453939
 31
0.0
  0
LINE
  5
3E3
330
1E
100
AcDbEntity
  8
0
  6
Continuous
 62
     3
100
AcDbLine
 10
-237.5022304427502
 20
-64.4550640045394
 30
0.0
 11
-237.5022304427502
 21
-67.95506400453939
 31
0.0
  0
CIRCLE
  5
3E4
330
1E
100
AcDbEntity
  8
0
  6
Continuous
 62
     3
100
AcDbCircle
 10
-234.5022304427502
 20
-67.4550640045394
 30
0.0
 40
2.9
  0
LINE
  5
3E5
330
1E
100
AcDbEntity
  8
0
  6
Continuous
 62
     3
100
AcDbLine
 10
-237.5022304427502
 20
-70.45506400453939
 30
0.0
 11
-231.0022304427502
 21
-70.45506400453939
 31
0.0
  0
LINE
  5
3E6
330
1E
100
AcDbEntity
  8
0
  6
Continuous
 62
     3
100
AcDbLine
 10
-231.0022304427502
 20
-64.4550640045394
 30
0.0
 11
-237.5022304427502
 21
-64.4550640045394
 31
0.0
  0
LINE
  5
3E7
330
1E
100
AcDbEntity
  8
0
  6
Continuous
 62
     3
100
AcDbLine
 10
-231.0022304427502
 20
-70.45506400453939
 30
0.0
 11
-231.0022304427502
 21
-64.4550640045394
 31
0.0
  0
CIRCLE
  5
3E8
330
1E
100
AcDbEntity
  8
0
  6
Continuous
 62
     3
100
AcDbCircle
 10
-234.5022304427502
 20
-67.4550640045394
 30
0.0
 40
2.9
  0
LINE
  5
3E9
330
1E
100
AcDbEntity
  8
0
  6
Continuous
 62
     3
100
AcDbLine
 10
-235.2093372247502
 20
-67.4550640045394
 30
0.0
 11
-236.2699973957502
 21
-68.5157241765394
 31
0.0
  0
LINE
  5
3EA
330
1E
100
AcDbEntity
  8
0
  6
Continuous
 62
     3
100
AcDbLine
 10
-236.2699973957502
 20
-68.5157241765394
 30
0.0
 11
-235.5628906147502
 21
-69.2228309575394
 31
0.0
  0
LINE
  5
3EB
330
1E
100
AcDbEntity
  8
0
  6
Continuous
 62
     3
100
AcDbLine
 10
-235.5628906147502
 20
-69.2228309575394
 30
0.0
 11
-234.5022304427502
 21
-68.16217078553939
 31
0.0
  0
LINE
  5
3EC
330
1E
100
AcDbEntity
  8
0
  6
Continuous
 62
     3
100
AcDbLine
 10
-233.7951236617502
 20
-67.4550640045394
 30
0.0
 11
-232.7344634897503
 21
-66.39440383253941
 31
0.0
  0
LINE
  5
3ED
330
1E
100
AcDbEntity
  8
0
  6
Continuous
 62
     3
100
AcDbLine
 10
-232.7344634897503
 20
-66.39440383253941
 30
0.0
 11
-233.4415702717503
 21
-65.68729705153941
 31
0.0
  0
LINE
  5
3EE
330
1E
100
AcDbEntity
  8
0
  6
Continuous
 62
     3
100
AcDbLine
 10
-233.4415702717503
 20
-65.68729705153941
 30
0.0
 11
-234.5022304427502
 21
-66.74795722353943
 31
0.0
  0
LINE
  5
3EF
330
1E
100
AcDbEntity
  8
0
  6
Continuous
 62
     3
100
AcDbLine
 10
-234.5022304427502
 20
-68.16217078553939
 30
0.0
 11
-232.8758848467503
 21
-69.7885163825394
 31
0.0
  0
LINE
  5
3F0
330
1E
100
AcDbEntity
  8
0
  6
Continuous
 62
     3
100
AcDbLine
 10
-236.8356828207502
 20
-65.82871840753941
 30
0.0
 11
-235.2093372247502
 21
-67.4550640045394
 31
0.0
  0
LINE
  5
3F1
330
1E
100
AcDbEntity
  8
0
  6
Continuous
 62
     3
100
AcDbLine
 10
-234.5022304427502
 20
-66.74795722353943
 30
0.0
 11
-236.1285760397502
 21
-65.12161162653942
 31
0.0
  0
LINE
  5
3F2
330
1E
100
AcDbEntity
  8
0
  6
Continuous
 62
     3
100
AcDbLine
 10
-232.1687780657502
 20
-69.0814096015394
 30
0.0
 11
-233.7951236617502
 21
-67.4550640045394
 31
0.0
  0
LINE
  5
3F3
330
1E
100
AcDbEntity
  8
0
  6
Continuous
 62
     3
100
AcDbLine
 10
-232.7344634897503
 20
-68.5157241765394
 30
0.0
 11
-233.4415702717503
 21
-69.2228309575394
 31
0.0
  0
LINE
  5
3F4
330
1E
100
AcDbEntity
  8
0
  6
Continuous
 62
     3
100
AcDbLine
 10
-236.2699973957502
 20
-66.39440383253941
 30
0.0
 11
-235.5628906147502
 21
-65.68729705153941
 31
0.0
  0
LINE
  5
3F5
330
1E
100
AcDbEntity
  8
0
  6
Continuous
 62
     3
100
AcDbLine
 10
-237.5022304427502
 20
-58.7550640045394
 30
0.0
 11
-237.5022304427502
 21
-61.7550640045394
 31
0.0
  0
LINE
  5
3F6
330
1E
100
AcDbEntity
  8
0
  6
Continuous
 62
     3
100
AcDbLine
 10
-237.5022304427502
 20
-55.7550640045394
 30
0.0
 11
-237.5022304427502
 21
-59.2550640045394
 31
0.0
  0
CIRCLE
  5
3F7
330
1E
100
AcDbEntity
  8
0
  6
Continuous
 62
     3
100
AcDbCircle
 10
-234.5022304427502
 20
-58.7550640045394
 30
0.0
 40
2.9
  0
LINE
  5
3F8
330
1E
100
AcDbEntity
  8
0
  6
Continuous
 62
     3
100
AcDbLine
 10
-237.5022304427502
 20
-61.7550640045394
 30
0.0
 11
-231.0022304427502
 21
-61.7550640045394
 31
0.0
  0
LINE
  5
3F9
330
1E
100
AcDbEntity
  8
0
  6
Continuous
 62
     3
100
AcDbLine
 10
-231.0022304427502
 20
-55.7550640045394
 30
0.0
 11
-237.5022304427502
 21
-55.7550640045394
 31
0.0
  0
LINE
  5
3FA
330
1E
100
AcDbEntity
  8
0
  6
Continuous
 62
     3
100
AcDbLine
 10
-231.0022304427502
 20
-61.7550640045394
 30
0.0
 11
-231.0022304427502
 21
-55.7550640045394
 31
0.0
  0
CIRCLE
  5
3FB
330
1E
100
AcDbEntity
  8
0
  6
Continuous
 62
     3
100
AcDbCircle
 10
-234.5022304427502
 20
-58.7550640045394
 30
0.0
 40
2.9
  0
LINE
  5
3FC
330
1E
100
AcDbEntity
  8
0
  6
Continuous
 62
     3
100
AcDbLine
 10
-235.2093372247502
 20
-58.7550640045394
 30
0.0
 11
-236.2699973957502
 21
-59.81572417653942
 31
0.0
  0
LINE
  5
3FD
330
1E
100
AcDbEntity
  8
0
  6
Continuous
 62
     3
100
AcDbLine
 10
-236.2699973957502
 20
-59.81572417653942
 30
0.0
 11
-235.5628906147502
 21
-60.52283095753941
 31
0.0
  0
LINE
  5
3FE
330
1E
100
AcDbEntity
  8
0
  6
Continuous
 62
     3
100
AcDbLine
 10
-235.5628906147502
 20
-60.52283095753941
 30
0.0
 11
-234.5022304427502
 21
-59.4621707855394
 31
0.0
  0
LINE
  5
3FF
330
1E
100
AcDbEntity
  8
0
  6
Continuous
 62
     3
100
AcDbLine
 10
-233.7951236617502
 20
-58.7550640045394
 30
0.0
 11
-232.7344634897503
 21
-57.6944038325394
 31
0.0
  0
LINE
  5
400
330
1E
100
AcDbEntity
  8
0
  6
Continuous
 62
     3
100
AcDbLine
 10
-232.7344634897503
 20
-57.6944038325394
 30
0.0
 11
-233.4415702717503
 21
-56.9872970515394
 31
0.0
  0
LINE
  5
401
330
1E
100
AcDbEntity
  8
0
  6
Continuous
 62
     3
100
AcDbLine
 10
-233.4415702717503
 20
-56.9872970515394
 30
0.0
 11
-234.5022304427502
 21
-58.04795722353941
 31
0.0
  0
LINE
  5
402
330
1E
100
AcDbEntity
  8
0
  6
Continuous
 62
     3
100
AcDbLine
 10
-234.5022304427502
 20
-59.4621707855394
 30
0.0
 11
-232.8758848467503
 21
-61.08851638253941
 31
0.0
  0
LINE
  5
403
330
1E
100
AcDbEntity
  8
0
  6
Continuous
 62
     3
100
AcDbLine
 10
-236.8356828207502
 20
-57.1287184075394
 30
0.0
 11
-235.2093372247502
 21
-58.7550640045394
 31
0.0
  0
LINE
  5
404
330
1E
100
AcDbEntity
  8
0
  6
Continuous
 62
     3
100
AcDbLine
 10
-234.5022304427502
 20
-58.04795722353941
 30
0.0
 11
-236.1285760397502
 21
-56.4216116265394
 31
0.0
  0
LINE
  5
405
330
1E
100
AcDbEntity
  8
0
  6
Continuous
 62
     3
100
AcDbLine
 10
-232.1687780657502
 20
-60.38140960153942
 30
0.0
 11
-233.7951236617502
 21
-58.7550640045394
 31
0.0
  0
LINE
  5
406
330
1E
100
AcDbEntity
  8
0
  6
Continuous
 62
     3
100
AcDbLine
 10
-232.7344634897503
 20
-59.81572417653942
 30
0.0
 11
-233.4415702717503
 21
-60.52283095753941
 31
0.0
  0
LINE
  5
407
330
1E
100
AcDbEntity
  8
0
  6
Continuous
 62
     3
100
AcDbLine
 10
-236.2699973957502
 20
-57.6944038325394
 30
0.0
 11
-235.5628906147502
 21
-56.9872970515394
 31
0.0
  0
LINE
  5
408
330
1E
100
AcDbEntity
  8
0
  6
Continuous
 62
     3
100
AcDbLine
 10
-237.5022304427502
 20
-50.05506400453942
 30
0.0
 11
-237.5022304427502
 21
-53.05506400453942
 31
0.0
  0
LINE
  5
409
330
1E
100
AcDbEntity
  8
0
  6
Continuous
 62
     3
100
AcDbLine
 10
-237.5022304427502
 20
-47.05506400453941
 30
0.0
 11
-237.5022304427502
 21
-50.55506400453942
 31
0.0
  0
CIRCLE
  5
40A
330
1E
100
AcDbEntity
  8
0
  6
Continuous
 62
     3
100
AcDbCircle
 10
-234.5022304427502
 20
-50.05506400453942
 30
0.0
 40
2.9
  0
LINE
  5
40B
330
1E
100
AcDbEntity
  8
0
  6
Continuous
 62
     3
100
AcDbLine
 10
-237.5022304427502
 20
-53.05506400453942
 30
0.0
 11
-231.0022304427502
 21
-53.05506400453942
 31
0.0
  0
LINE
  5
40C
330
1E
100
AcDbEntity
  8
0
  6
Continuous
 62
     3
100
AcDbLine
 10
-231.0022304427502
 20
-47.05506400453941
 30
0.0
 11
-237.5022304427502
 21
-47.05506400453941
 31
0.0
  0
LINE
  5
40D
330
1E
100
AcDbEntity
  8
0
  6
Continuous
 62
     3
100
AcDbLine
 10
-231.0022304427502
 20
-53.05506400453942
 30
0.0
 11
-231.0022304427502
 21
-47.05506400453941
 31
0.0
  0
CIRCLE
  5
40E
330
1E
100
AcDbEntity
  8
0
  6
Continuous
 62
     3
100
AcDbCircle
 10
-234.5022304427502
 20
-50.05506400453942
 30
0.0
 40
2.9
  0
LINE
  5
40F
330
1E
100
AcDbEntity
  8
0
  6
Continuous
 62
     3
100
AcDbLine
 10
-235.2093372247502
 20
-50.05506400453942
 30
0.0
 11
-236.2699973957502
 21
-51.1157241765394
 31
0.0
  0
LINE
  5
410
330
1E
100
AcDbEntity
  8
0
  6
Continuous
 62
     3
100
AcDbLine
 10
-236.2699973957502
 20
-51.1157241765394
 30
0.0
 11
-235.5628906147502
 21
-51.82283095753939
 31
0.0
  0
LINE
  5
411
330
1E
100
AcDbEntity
  8
0
  6
Continuous
 62
     3
100
AcDbLine
 10
-235.5628906147502
 20
-51.82283095753939
 30
0.0
 11
-234.5022304427502
 21
-50.76217078553938
 31
0.0
  0
LINE
  5
412
330
1E
100
AcDbEntity
  8
0
  6
Continuous
 62
     3
100
AcDbLine
 10
-233.7951236617502
 20
-50.05506400453942
 30
0.0
 11
-232.7344634897503
 21
-48.9944038325394
 31
0.0
  0
LINE
  5
413
330
1E
100
AcDbEntity
  8
0
  6
Continuous
 62
     3
100
AcDbLine
 10
-232.7344634897503
 20
-48.9944038325394
 30
0.0
 11
-233.4415702717503
 21
-48.28729705153941
 31
0.0
  0
LINE
  5
414
330
1E
100
AcDbEntity
  8
0
  6
Continuous
 62
     3
100
AcDbLine
 10
-233.4415702717503
 20
-48.28729705153941
 30
0.0
 11
-234.5022304427502
 21
-49.34795722353943
 31
0.0
  0
LINE
  5
415
330
1E
100
AcDbEntity
  8
0
  6
Continuous
 62
     3
100
AcDbLine
 10
-234.5022304427502
 20
-50.76217078553938
 30
0.0
 11
-232.8758848467503
 21
-52.38851638253939
 31
0.0
  0
LINE
  5
416
330
1E
100
AcDbEntity
  8
0
  6
Continuous
 62
     3
100
AcDbLine
 10
-236.8356828207502
 20
-48.4287184075394
 30
0.0
 11
-235.2093372247502
 21
-50.05506400453942
 31
0.0
  0
LINE
  5
417
330
1E
100
AcDbEntity
  8
0
  6
Continuous
 62
     3
100
AcDbLine
 10
-234.5022304427502
 20
-49.34795722353943
 30
0.0
 11
-236.1285760397502
 21
-47.72161162653941
 31
0.0
  0
LINE
  5
418
330
1E
100
AcDbEntity
  8
0
  6
Continuous
 62
     3
100
AcDbLine
 10
-232.1687780657502
 20
-51.68140960153943
 30
0.0
 11
-233.7951236617502
 21
-50.05506400453942
 31
0.0
  0
LINE
  5
419
330
1E
100
AcDbEntity
  8
0
  6
Continuous
 62
     3
100
AcDbLine
 10
-232.7344634897503
 20
-51.1157241765394
 30
0.0
 11
-233.4415702717503
 21
-51.82283095753939
 31
0.0
  0
LINE
  5
41A
330
1E
100
AcDbEntity
  8
0
  6
Continuous
 62
     3
100
AcDbLine
 10
-236.2699973957502
 20
-48.9944038325394
 30
0.0
 11
-235.5628906147502
 21
-48.28729705153941
 31
0.0
  0
LINE
  5
41B
330
1E
100
AcDbEntity
  8
0
  6
LTYPE1
 62
     3
100
AcDbLine
 10
-238.5022304427502
 20
-81.25506400453941
 30
0.0
 11
-238.5022304427502
 21
-44.9550640045394
 31
0.0
  0
LINE
  5
41C
330
1E
100
AcDbEntity
  8
0
  6
LTYPE1
 62
     3
100
AcDbLine
 10
-229.7022304427502
 20
-44.9550640045394
 30
0.0
 11
-228.7022304427502
 21
-44.9550640045394
 31
0.0
  0
LINE
  5
41D
330
1E
100
AcDbEntity
  8
0
  6
LTYPE1
 62
     3
100
AcDbLine
 10
-228.7022304427502
 20
-44.9550640045394
 30
0.0
 11
-228.7022304427502
 21
-81.25506400453941
 31
0.0
  0
LINE
  5
41E
330
1E
100
AcDbEntity
  8
0
  6
LTYPE1
 62
     3
100
AcDbLine
 10
-228.7022304427502
 20
-81.25506400453941
 30
0.0
 11
-238.5022304427502
 21
-81.25506400453941
 31
0.0
  0
LINE
  5
41F
330
1E
100
AcDbEntity
  8
0
  6
Continuous
 62
     5
100
AcDbLine
 10
-240.9122304437502
 20
-38.60506400553942
 30
0.0
 11
-240.9122304437502
 21
-33.10506400553942
 31
0.0
  0
LINE
  5
420
330
1E
100
AcDbEntity
  8
0
  6
Continuous
 62
     5
100
AcDbLine
 10
-305.7122304437502
 20
-38.60506019353943
 30
0.0
 11
-305.7122304437502
 21
-33.10506400753939
 31
0.0
  0
LINE
  5
421
330
1E
100
AcDbEntity
  8
0
  6
Continuous
 62
     5
100
AcDbLine
 10
-240.9122304437502
 20
-34.10506400553941
 30
0.0
 11
-242.8440820957502
 21
-34.62270209553941
 31
0.0
  0
LINE
  5
422
330
1E
100
AcDbEntity
  8
0
  6
Continuous
 62
     5
100
AcDbLine
 10
-240.9122304437502
 20
-34.10506400553941
 30
0.0
 11
-242.8440820957502
 21
-33.58742591553937
 31
0.0
  0
LINE
  5
423
330
1E
100
AcDbEntity
  8
0
  6
Continuous
 62
     5
100
AcDbLine
 10
-240.9122304437502
 20
-34.10506400553941
 30
0.0
 11
-305.7122304437502
 21
-34.1050640075394
 31
0.0
  0
LINE
  5
424
330
1E
100
AcDbEntity
  8
0
  6
Continuous
 62
     5
100
AcDbLine
 10
-305.7122304437502
 20
-34.1050640075394
 30
0.0
 11
-303.7803787907502
 21
-33.5874259175394
 31
0.0
  0
LINE
  5
425
330
1E
100
AcDbEntity
  8
0
  6
Continuous
 62
     5
100
AcDbLine
 10
-305.7122304437502
 20
-34.1050640075394
 30
0.0
 11
-303.7803787907502
 21
-34.62270209753938
 31
0.0
  0
TEXT
  5
426
330
1E
100
AcDbEntity
  8
0
  6
Continuous
 62
     5
100
AcDbText
 10
-276.6622304437502
 20
-33.60506400653941
 30
0.1
 40
2.0
  1
６４.５
 41
0.8
  7
KANJI1
100
AcDbText
  0
LINE
  5
427
330
1E
100
AcDbEntity
  8
0
  6
Continuous
 62
     5
100
AcDbLine
 10
-226.3122304437502
 20
-94.1050640045394
 30
0.1
 11
-228.2440820957502
 21
-93.58742591453941
 31
0.1
  0
LINE
  5
428
330
1E
100
AcDbEntity
  8
0
  6
Continuous
 62
     5
100
AcDbLine
 10
-226.3122304437502
 20
-94.1050640045394
 30
0.0
 11
-228.2440820957502
 21
-94.62270209453942
 31
0.0
  0
LINE
  5
429
330
1E
100
AcDbEntity
  8
0
  6
Continuous
 62
     5
100
AcDbLine
 10
-226.3122304427502
 20
-88.1050640045394
 30
0.0
 11
-226.3122304437502
 21
-95.10506400453939
 31
0.0
  0
LINE
  5
42A
330
1E
100
AcDbEntity
  8
0
  6
Continuous
 62
     5
100
AcDbLine
 10
-223.7272304437502
 20
-100.1050640045394
 30
0.0
 11
-225.6590820967502
 21
-99.5874259145394
 31
0.0
  0
LINE
  5
42B
330
1E
100
AcDbEntity
  8
0
  6
Continuous
 62
     5
100
AcDbLine
 10
-223.7272304437502
 20
-100.1050640045394
 30
0.0
 11
-225.6590820967502
 21
-100.6227020945394
 31
0.0
  0
TEXT
  5
42C
330
1E
100
AcDbEntity
  8
0
  6
Continuous
 62
     5
100
AcDbText
 10
-278.0697304437502
 20
-99.6050640025394
 30
0.1
 40
2.0
  1
９６～９８スライド
 41
0.8
  7
KANJI1
100
AcDbText
  0
LINE
  5
42D
330
1E
100
AcDbEntity
  8
0
  6
Continuous
 62
     5
100
AcDbLine
 10
-223.7272304437502
 20
-101.1050640045394
 30
0.1
 11
-223.7272304437502
 21
-73.1050640045394
 31
0.1
  0
ARC
  5
42E
330
1E
100
AcDbEntity
  8
0
  6
Continuous
 62
     1
100
AcDbCircle
 10
-224.7272304437502
 20
-72.1050640045394
 30
0.0
 40
1.0
100
AcDbArc
 50
270.0
 51
0.0
  0
LINE
  5
42F
330
1E
100
AcDbEntity
  8
0
  6
Continuous
 62
     1
100
AcDbLine
 10
-224.7272304437502
 20
-73.1050640045394
 30
0.0
 11
-226.3122304437502
 21
-73.1050640045394
 31
0.0
  0
LINE
  5
430
330
1E
100
AcDbEntity
  8
0
  6
Continuous
 62
     1
100
AcDbLine
 10
-223.7272304447502
 20
-54.1050640045394
 30
0.0
 11
-223.7272304437502
 21
-72.1050640045394
 31
0.0
  0
ARC
  5
431
330
1E
100
AcDbEntity
  8
0
  6
Continuous
 62
     1
100
AcDbCircle
 10
-224.7272304447502
 20
-54.1050640045394
 30
0.0
 40
1.0
100
AcDbArc
 50
0.0
 51
90.0
  0
LINE
  5
432
330
1E
100
AcDbEntity
  8
0
  6
Continuous
 62
     1
100
AcDbLine
 10
-226.3122304447502
 20
-53.1050640045394
 30
0.0
 11
-224.7272304447502
 21
-53.1050640045394
 31
0.0
  0
LINE
  5
433
330
1E
100
AcDbEntity
  8
0
  6
Continuous
 62
     1
100
AcDbLine
 10
-226.3122304457502
 20
-40.10506400453943
 30
0.0
 11
-226.3122304427502
 21
-86.10506400453941
 31
0.0
  0
LINE
  5
434
330
1E
100
AcDbEntity
  8
0
  6
Continuous
 62
     5
100
AcDbLine
 10
-223.7272304437502
 20
-101.1050640045394
 30
0.0
 11
-223.7272304437502
 21
-73.1050640045394
 31
0.0
  0
LINE
  5
435
330
1E
100
AcDbEntity
  8
0
  6
Continuous
 62
     1
100
AcDbLine
 10
-241.1022304427502
 20
-39.10506400453943
 30
0.0
 11
-227.3122304427502
 21
-39.10506400453943
 31
0.0
  0
LINE
  5
436
330
1E
100
AcDbEntity
  8
0
  6
Continuous
 62
     1
100
AcDbLine
 10
-226.3122304427502
 20
-40.10506400453943
 30
0.0
 11
-226.3122304427502
 21
-86.10506400453941
 31
0.0
  0
ARC
  5
437
330
1E
100
AcDbEntity
  8
0
  6
Continuous
 62
     1
100
AcDbCircle
 10
-227.3122304427502
 20
-40.10506400453943
 30
0.0
 40
1.0
100
AcDbArc
 50
0.0
 51
90.0
  0
LINE
  5
438
330
1E
100
AcDbEntity
  8
0
  6
Continuous
 62
     1
100
AcDbLine
 10
-304.5022304427502
 20
-39.10506400453943
 30
0.0
 11
-241.8022304427502
 21
-39.10506400453943
 31
0.0
  0
ARC
  5
439
330
1E
100
AcDbEntity
  8
0
  6
Continuous
 62
     1
100
AcDbCircle
 10
-241.8022304427502
 20
-40.10506400453943
 30
0.0
 40
1.0
100
AcDbArc
 50
0.0
 51
89.99999999899999
  0
LINE
  5
43A
330
1E
100
AcDbEntity
  8
0
  6
Continuous
 62
     1
100
AcDbLine
 10
-240.8022304427502
 20
-86.10506400453941
 30
0.0
 11
-240.8022304427502
 21
-40.10506400453943
 31
0.0
  0
LINE
  5
43B
330
1E
100
AcDbEntity
  8
0
  6
Continuous
 62
     1
100
AcDbLine
 10
-227.3122304427502
 20
-87.1050640045394
 30
0.0
 11
-241.2022304427502
 21
-87.1050640045394
 31
0.0
  0
ARC
  5
43C
330
1E
100
AcDbEntity
  8
0
  6
Continuous
 62
     1
100
AcDbCircle
 10
-227.3122304427502
 20
-86.10506400453941
 30
0.0
 40
1.0
100
AcDbArc
 50
270.0
 51
0.0
  0
LINE
  5
43D
330
1E
100
AcDbEntity
  8
0
  6
Continuous
 62
     1
100
AcDbLine
 10
-241.8022304427502
 20
-87.1050640045394
 30
0.0
 11
-304.5022304427502
 21
-87.1050640045394
 31
0.0
  0
ARC
  5
43E
330
1E
100
AcDbEntity
  8
0
  6
Continuous
 62
     1
100
AcDbCircle
 10
-241.8022304427502
 20
-86.10506400453941
 30
0.0
 40
1.0
100
AcDbArc
 50
270.0
 51
0.000000001
  0
LINE
  5
43F
330
1E
100
AcDbEntity
  8
0
  6
Continuous
 62
     1
100
AcDbLine
 10
-305.5022304427502
 20
-86.10506400453941
 30
0.0
 11
-305.5022304427502
 21
-40.10506400453943
 31
0.0
  0
ARC
  5
440
330
1E
100
AcDbEntity
  8
0
  6
Continuous
 62
     1
100
AcDbCircle
 10
-304.5022304427502
 20
-86.10506400453941
 30
0.0
 40
1.0
100
AcDbArc
 50
180.0
 51
270.0
  0
ARC
  5
441
330
1E
100
AcDbEntity
  8
0
  6
Continuous
 62
     1
100
AcDbCircle
 10
-304.5022304427502
 20
-40.10506400453943
 30
0.0
 40
1.0
100
AcDbArc
 50
90.0
 51
180.0
  0
LINE
  5
442
330
1E
100
AcDbEntity
  8
0
  6
Continuous
 62
     1
100
AcDbLine
 10
-233.1522304427502
 20
-43.05506400453942
 30
0.0
 11
-236.6522304427502
 21
-43.05506400453942
 31
0.0
  0
LINE
  5
443
330
1E
100
AcDbEntity
  8
0
  6
Continuous
 62
     1
100
AcDbLine
 10
-240.8022304427502
 20
-43.05506400453942
 30
0.0
 11
-236.6522304427502
 21
-43.05506400453942
 31
0.0
  0
LINE
  5
444
330
1E
100
AcDbEntity
  8
0
  6
Continuous
 62
     1
100
AcDbLine
 10
-233.1522304427502
 20
-43.05506400453942
 30
0.0
 11
-229.6522304427502
 21
-43.05506400453942
 31
0.0
  0
LINE
  5
445
330
1E
100
AcDbEntity
  8
0
  6
Continuous
 62
     1
100
AcDbLine
 10
-227.6522304427502
 20
-82.65506400453942
 30
0.0
 11
-227.6522304427502
 21
-43.55506400453942
 31
0.0
  0
ARC
  5
446
330
1E
100
AcDbEntity
  8
0
  6
Continuous
 62
     1
100
AcDbCircle
 10
-228.1522304427502
 20
-43.55506400453942
 30
0.0
 40
0.5
100
AcDbArc
 50
0.0
 51
90.0
  0
LINE
  5
447
330
1E
100
AcDbEntity
  8
0
  6
Continuous
 62
     1
100
AcDbLine
 10
-228.1522304427502
 20
-43.05506400453942
 30
0.0
 11
-229.9712304427502
 21
-43.05506400453942
 31
0.0
  0
LINE
  5
448
330
1E
100
AcDbEntity
  8
0
  6
Continuous
 62
     1
100
AcDbLine
 10
-229.6522304427502
 20
-83.15506400453941
 30
0.0
 11
-228.1522304427502
 21
-83.15506400453941
 31
0.0
  0
ARC
  5
449
330
1E
100
AcDbEntity
  8
0
  6
Continuous
 62
     1
100
AcDbCircle
 10
-228.1522304427502
 20
-82.65506400453942
 30
0.0
 40
0.5
100
AcDbArc
 50
270.0
 51
0.0
  0
LINE
  5
44A
330
1E
100
AcDbEntity
  8
0
  6
Continuous
 62
     1
100
AcDbLine
 10
-233.1522304427502
 20
-83.15506400453941
 30
0.0
 11
-229.6522304427502
 21
-83.15506400453941
 31
0.0
  0
LINE
  5
44B
330
1E
100
AcDbEntity
  8
0
  6
Continuous
 62
     1
100
AcDbLine
 10
-233.1522304427502
 20
-83.15506400453941
 30
0.0
 11
-236.6522304427502
 21
-83.15506400453941
 31
0.0
  0
LINE
  5
44C
330
1E
100
AcDbEntity
  8
0
  6
Continuous
 62
     1
100
AcDbLine
 10
-236.6522304427502
 20
-83.15506400453941
 30
0.0
 11
-236.6522304427502
 21
-81.6550640045394
 31
0.0
  0
LINE
  5
44D
330
1E
100
AcDbEntity
  8
0
  6
Continuous
 62
     1
100
AcDbLine
 10
-236.6522304427502
 20
-83.15506400453941
 30
0.0
 11
-240.8022304427502
 21
-83.15506400453941
 31
0.0
  0
LINE
  5
44E
330
1E
100
AcDbEntity
  8
0
  6
Continuous
 62
     1
100
AcDbLine
 10
-239.0022304427502
 20
-81.55506400453942
 30
0.0
 11
-236.6522304427502
 21
-81.55506400453942
 31
0.0
  0
LINE
  5
44F
330
1E
100
AcDbEntity
  8
0
  6
Continuous
 62
     1
100
AcDbLine
 10
-236.6522304427502
 20
-83.15506400453941
 30
0.0
 11
-236.6522304427502
 21
-81.55506400453942
 31
0.0
  0
LINE
  5
450
330
1E
100
AcDbEntity
  8
0
  6
Continuous
 62
     1
100
AcDbLine
 10
-239.0022304427502
 20
-44.65506400453941
 30
0.0
 11
-239.0022304427502
 21
-81.55506400453942
 31
0.0
  0
LINE
  5
451
330
1E
100
AcDbEntity
  8
0
  6
Continuous
 62
     1
100
AcDbLine
 10
-229.1522304427502
 20
-75.0050640045394
 30
0.0
 11
-228.1522304427502
 21
-75.0050640045394
 31
0.0
  0
ARC
  5
452
330
1E
100
AcDbEntity
  8
0
  6
Continuous
 62
     1
100
AcDbCircle
 10
-228.1522304427502
 20
-75.5050640045394
 30
0.0
 40
0.5
100
AcDbArc
 50
0.0
 51
90.0
  0
LINE
  5
453
330
1E
100
AcDbEntity
  8
0
  6
Continuous
 62
     1
100
AcDbLine
 10
-229.1522304427502
 20
-73.2050640045394
 30
0.0
 11
-228.1522304427502
 21
-73.2050640045394
 31
0.0
  0
ARC
  5
454
330
1E
100
AcDbEntity
  8
0
  6
Continuous
 62
     1
100
AcDbCircle
 10
-228.1522304427502
 20
-72.70506400453939
 30
0.0
 40
0.5
100
AcDbArc
 50
270.0
 51
0.0
  0
LINE
  5
455
330
1E
100
AcDbEntity
  8
0
  6
Continuous
 62
     1
100
AcDbLine
 10
-229.1522304427502
 20
-65.6050640045394
 30
0.0
 11
-227.6522304427502
 21
-65.6050640045394
 31
0.0
  0
LINE
  5
456
330
1E
100
AcDbEntity
  8
0
  6
Continuous
 62
     1
100
AcDbLine
 10
-229.1522304427502
 20
-60.6050640045394
 30
0.0
 11
-227.6522304427502
 21
-60.6050640045394
 31
0.0
  0
LINE
  5
457
330
1E
100
AcDbEntity
  8
0
  6
Continuous
 62
     1
100
AcDbLine
 10
-229.1522304427502
 20
-53.0050640045394
 30
0.0
 11
-228.1522304427502
 21
-53.0050640045394
 31
0.0
  0
LINE
  5
458
330
1E
100
AcDbEntity
  8
0
  6
Continuous
 62
     1
100
AcDbLine
 10
-227.6522304427502
 20
-53.50506400453941
 30
0.0
 11
-227.6522304427502
 21
-63.1050640045394
 31
0.0
  0
ARC
  5
459
330
1E
100
AcDbEntity
  8
0
  6
Continuous
 62
     1
100
AcDbCircle
 10
-228.1522304427502
 20
-53.50506400453941
 30
0.0
 40
0.5
100
AcDbArc
 50
0.0
 51
90.0
  0
LINE
  5
45A
330
1E
100
AcDbEntity
  8
0
  6
Continuous
 62
     1
100
AcDbLine
 10
-229.1522304427502
 20
-51.2050640045394
 30
0.0
 11
-228.1522304427502
 21
-51.2050640045394
 31
0.0
  0
ARC
  5
45B
330
1E
100
AcDbEntity
  8
0
  6
Continuous
 62
     1
100
AcDbCircle
 10
-228.1522304427502
 20
-50.7050640045394
 30
0.0
 40
0.5
100
AcDbArc
 50
270.0
 51
0.0
  0
LINE
  5
45C
330
1E
100
AcDbEntity
  8
0
  6
Continuous
 62
     1
100
AcDbLine
 10
-291.3122304437502
 20
-160.1050639975393
 30
0.0
 11
-320.3122304437503
 21
-160.1050639975393
 31
0.0
  0
LINE
  5
45D
330
1E
100
AcDbEntity
  8
0
  6
Continuous
 62
     1
100
AcDbLine
 10
-320.1613412937502
 20
-143.6958689835394
 30
0.0
 11
-320.3122304437503
 21
-160.1050639975393
 31
0.0
  0
LINE
  5
45E
330
1E
100
AcDbEntity
  8
0
  6
Continuous
 62
     1
100
AcDbLine
 10
-319.1522304437502
 20
-142.7050639975394
 30
0.0
 11
-305.6975565307502
 21
-142.7050639975394
 31
0.0
  0
ARC
  5
45F
330
1E
100
AcDbEntity
  8
0
  6
Continuous
 62
     1
100
AcDbCircle
 10
-319.1522304437502
 20
-143.7050639975394
 30
0.0
 40
1.0
100
AcDbArc
 50
90.0
 51
180.0
  0
LINE
  5
460
330
1E
100
AcDbEntity
  8
0
  6
Continuous
 62
     1
100
AcDbLine
 10
-305.6975565307502
 20
-142.7050639975394
 30
0.0
 11
-305.5392457447502
 21
-120.2979989555393
 31
0.0
  0
ARC
  5
461
330
1E
100
AcDbEntity
  8
0
  6
Continuous
 62
     1
100
AcDbCircle
 10
-304.5392707027502
 20
-120.3050639975394
 30
0.0
 40
1.0
100
AcDbArc
 50
90.0
 51
179.5951995979999
  0
LINE
  5
462
330
1E
100
AcDbEntity
  8
0
  6
Continuous
 62
     1
100
AcDbLine
 10
-304.5392707027502
 20
-119.3050639975394
 30
0.0
 11
-273.3122304437502
 21
-119.3050639975394
 31
0.0
  0
LINE
  5
463
330
1E
100
AcDbEntity
  8
0
  6
Continuous
 62
     1
100
AcDbLine
 10
-242.0851901847502
 20
-119.3050639975394
 30
0.0
 11
-273.3122304437502
 21
-119.3050639975394
 31
0.0
  0
LINE
  5
464
330
1E
100
AcDbEntity
  8
0
  6
Continuous
 62
     1
100
AcDbLine
 10
-240.9269043567502
 20
-142.7050639975394
 30
0.0
 11
-241.0852151427502
 21
-120.2979989555393
 31
0.0
  0
LINE
  5
465
330
1E
100
AcDbEntity
  8
0
  6
Continuous
 62
     1
100
AcDbLine
 10
-240.9269043567502
 20
-142.7050639975394
 30
0.0
 11
-229.3122304437502
 21
-142.7050639975394
 31
0.0
  0
LINE
  5
466
330
1E
100
AcDbEntity
  8
0
  6
Continuous
 62
     1
100
AcDbLine
 10
-226.3122304437502
 20
-160.1050639975393
 30
0.0
 11
-226.4675533737502
 21
-143.7050639975394
 31
0.0
  0
ARC
  5
467
330
1E
100
AcDbEntity
  8
0
  6
Continuous
 62
     1
100
AcDbCircle
 10
-227.4675533737502
 20
-143.7050639975394
 30
0.0
 40
1.0
100
AcDbArc
 50
0.0
 51
90.0
  0
ARC
  5
468
330
1E
100
AcDbEntity
  8
0
  6
Continuous
 62
     1
100
AcDbCircle
 10
-227.4630773177502
 20
-143.7050639975394
 30
0.0
 40
1.0
100
AcDbArc
 50
0.526842894
 51
90.0
  0
LINE
  5
469
330
1E
100
AcDbEntity
  8
0
  6
Continuous
 62
     1
100
AcDbLine
 10
-229.3122304437502
 20
-142.7050639975394
 30
0.0
 11
-227.4630773177502
 21
-142.7050639975394
 31
0.0
  0
LINE
  5
46A
330
1E
100
AcDbEntity
  8
0
  6
Continuous
 62
     1
100
AcDbLine
 10
-255.3122304437502
 20
-160.1050639985394
 30
0.0
 11
-226.3122304437502
 21
-160.1050639975393
 31
0.0
  0
LINE
  5
46B
330
1E
100
AcDbEntity
  8
0
  6
Continuous
 62
     1
100
AcDbLine
 10
-226.3122304437502
 20
-160.1050639975393
 30
0.0
 11
-255.3122304437502
 21
-160.1050639975393
 31
0.0
  0
LINE
  5
46C
330
1E
100
AcDbEntity
  8
0
  6
Continuous
 62
     1
100
AcDbLine
 10
-257.2272304437502
 20
-157.6050639975393
 30
0.0
 11
-255.3871827667502
 21
-159.2618503685393
 31
0.0
  0
LWPOLYLINE
  5
46D
330
1E
100
AcDbEntity
  8
0
 62
     1
100
AcDbPolyline
 90
        3
 70
     0
 43
0.0
 10
-247.0622304437502
 20
-155.6050639975393
 10
-242.5622304437502
 20
-155.6050639975393
 10
-242.5622304437502
 20
-158.1050639975393
  0
LINE
  5
472
330
1E
100
AcDbEntity
  8
0
  6
Continuous
 62
     1
100
AcDbLine
 10
-247.0622304437502
 20
-158.1050639975393
 30
0.0
 11
-247.0622304437502
 21
-155.6050639975393
 31
0.0
  0
LINE
  5
473
330
1E
100
AcDbEntity
  8
0
  6
Continuous
 62
     1
100
AcDbLine
 10
-242.5622304437502
 20
-158.1050639975393
 30
0.0
 11
-247.0622304437502
 21
-158.1050639975393
 31
0.0
  0
LWPOLYLINE
  5
474
330
1E
100
AcDbEntity
  8
0
 62
     1
100
AcDbPolyline
 90
        4
 70
     1
 43
0.0
 10
-304.0622304437503
 20
-155.6050639975393
 10
-299.5622304437503
 20
-155.6050639975393
 10
-299.5622304437503
 20
-158.1050639975393
 10
-304.0622304437503
 20
-158.1050639975393
  0
LINE
  5
47A
330
1E
100
AcDbEntity
  8
0
  6
Continuous
 62
     1
100
AcDbLine
 10
-238.6227038607502
 20
-137.7050639975394
 30
0.0
 11
-240.9622304437502
 21
-137.7050639975394
 31
0.0
  0
LINE
  5
47B
330
1E
100
AcDbEntity
  8
0
  6
Continuous
 62
     1
100
AcDbLine
 10
-240.9622304437502
 20
-137.7050639975394
 30
0.0
 11
-237.4622304437502
 21
-137.7050639975394
 31
0.0
  0
ARC
  5
47C
330
1E
100
AcDbEntity
  8
0
  6
Continuous
 62
     1
100
AcDbCircle
 10
-237.4622304437502
 20
-138.2050639975394
 30
0.0
 40
0.5
100
AcDbArc
 50
0.0
 51
90.0
  0
LINE
  5
47D
330
1E
100
AcDbEntity
  8
0
  6
Continuous
 62
     1
100
AcDbLine
 10
-236.9622304437502
 20
-138.2050639975394
 30
0.0
 11
-236.9622304437502
 21
-142.7050639975394
 31
0.0
  0
ARC
  5
47E
330
1E
100
AcDbEntity
  8
0
  6
Continuous
 62
     1
100
AcDbCircle
 10
-242.0851901847502
 20
-120.3050639975394
 30
0.0
 40
1.0
100
AcDbArc
 50
0.4048004020000001
 51
90.0
  0
TEXT
  5
47F
330
1E
100
AcDbEntity
  8
0
  6
Continuous
 62
     5
100
AcDbText
 10
-277.2622304437502
 20
-169.5050639985394
 30
0.3
 40
3.0
  1
３５.４
 41
0.6
  7
KANJI0
100
AcDbText
  0
LINE
  5
480
330
1E
100
AcDbEntity
  8
0
  6
Continuous
 62
     5
100
AcDbLine
 10
-291.2122304437502
 20
-170.5050639985394
 30
0.3
 11
-288.7974158777502
 21
-169.8580163855394
 31
0.3
  0
LINE
  5
481
330
1E
100
AcDbEntity
  8
0
  6
Continuous
 62
     5
100
AcDbLine
 10
-291.2122304437502
 20
-170.5050639985394
 30
0.0
 11
-288.7974158777502
 21
-171.1521116105394
 31
0.0
  0
LINE
  5
482
330
1E
100
AcDbEntity
  8
0
  6
Continuous
 62
     5
100
AcDbLine
 10
-255.2122304437502
 20
-170.5050639985394
 30
0.0
 11
-257.6270450097502
 21
-171.1521116105394
 31
0.0
  0
LINE
  5
483
330
1E
100
AcDbEntity
  8
0
  6
Continuous
 62
     5
100
AcDbLine
 10
-255.2122304437502
 20
-170.5050639985394
 30
0.0
 11
-257.6270450097502
 21
-169.8580163855394
 31
0.0
  0
LINE
  5
484
330
1E
100
AcDbEntity
  8
0
  6
Continuous
 62
     5
100
AcDbLine
 10
-255.2122304437502
 20
-170.5050639985394
 30
0.0
 11
-291.2122304437502
 21
-170.5050639985394
 31
0.0
  0
LINE
  5
485
330
1E
100
AcDbEntity
  8
0
  6
Continuous
 62
     5
100
AcDbLine
 10
-255.2122304437502
 20
-162.1050639975393
 30
0.0
 11
-255.2122304437502
 21
-172.5050639985394
 31
0.0
  0
LINE
  5
486
330
1E
100
AcDbEntity
  8
0
  6
Continuous
 62
     5
100
AcDbLine
 10
-291.2122304437502
 20
-162.1050639975393
 30
0.0
 11
-291.2122304437502
 21
-172.5050639985394
 31
0.0
  0
LINE
  5
487
330
1E
100
AcDbEntity
  8
0
  6
Continuous
 62
     1
100
AcDbLine
 10
-254.2285766537502
 20
-222.1050639975393
 30
0.0
 11
-254.2285766547502
 21
-202.1050639975393
 31
0.0
  0
LINE
  5
488
330
1E
100
AcDbEntity
  8
0
  6
Continuous
 62
     1
100
AcDbLine
 10
-256.8446114847503
 20
-200.8550639975394
 30
0.0
 11
-256.8446114847503
 21
-202.1050639975393
 31
0.0
  0
LINE
  5
489
330
1E
100
AcDbEntity
  8
0
  6
Continuous
 62
     1
100
AcDbLine
 10
-255.2272304427502
 20
-200.7550639975394
 30
0.0
 11
-255.2272304427502
 21
-189.6550639975393
 31
0.0
  0
LINE
  5
48A
330
1E
100
AcDbEntity
  8
0
  6
Continuous
 62
     1
100
AcDbLine
 10
-235.8272304417503
 20
-223.3550639965394
 30
0.0
 11
-234.5772304417502
 21
-222.1050639965393
 31
0.0
  0
LINE
  5
48B
330
1E
100
AcDbEntity
  8
0
  6
Continuous
 62
     1
100
AcDbLine
 10
-256.8446114837502
 20
-223.3550639975394
 30
0.0
 11
-256.8446114837502
 21
-222.1050639975393
 31
0.0
  0
LINE
  5
48C
330
1E
100
AcDbEntity
  8
0
  6
Continuous
 62
     1
100
AcDbLine
 10
-255.2272304417503
 20
-223.4550639975394
 30
0.0
 11
-255.2272304407502
 21
-234.5550639975394
 31
0.0
  0
LWPOLYLINE
  5
48D
330
1E
100
AcDbEntity
  8
0
 62
     1
100
AcDbPolyline
 90
        2
 70
     1
 43
0.0
 10
3.141492651413534E+99
 20
1.269263905633295E+99
 10
3.141492651413534E+99
 20
1.269263905633295E+99
  0
POINT
  5
491
330
1E
100
AcDbEntity
  8
0
  6
Continuous
 62
     1
100
AcDbPoint
 10
-1.470580238991736E+63
 20
-5.941616374145985E+73
 30
0.0
  0
POINT
  5
492
330
1E
100
AcDbEntity
  8
0
  6
Continuous
 62
     1
100
AcDbPoint
 10
-1.470580238991736E+63
 20
-5.941616374145985E+73
 30
0.0
  0
POINT
  5
493
330
1E
100
AcDbEntity
  8
0
  6
Continuous
 62
     1
100
AcDbPoint
 10
3.141492651413534E+99
 20
1.269263905633295E+99
 30
0.0
  0
POINT
  5
494
330
1E
100
AcDbEntity
  8
0
  6
Continuous
 62
     1
100
AcDbPoint
 10
3.141492651413534E+99
 20
1.269263905633295E+99
 30
0.0
  0
POINT
  5
495
330
1E
100
AcDbEntity
  8
0
  6
Continuous
 62
     1
100
AcDbPoint
 10
-1.470580238991736E+63
 20
-5.941616374145985E+73
 30
0.0
  0
POINT
  5
496
330
1E
100
AcDbEntity
  8
0
  6
Continuous
 62
     1
100
AcDbPoint
 10
-1.470580238991736E+63
 20
-5.941616374145985E+73
 30
0.0
  0
POINT
  5
497
330
1E
100
AcDbEntity
  8
0
  6
Continuous
 62
     1
100
AcDbPoint
 10
3.141492651413534E+99
 20
1.269263905633295E+99
 30
0.0
  0
POINT
  5
498
330
1E
100
AcDbEntity
  8
0
  6
Continuous
 62
     1
100
AcDbPoint
 10
3.141492651413534E+99
 20
1.269263905633295E+99
 30
0.0
  0
POINT
  5
499
330
1E
100
AcDbEntity
  8
0
  6
Continuous
 62
     1
100
AcDbPoint
 10
-1.470580238991736E+63
 20
-5.941616374145985E+73
 30
0.0
  0
POINT
  5
49A
330
1E
100
AcDbEntity
  8
0
  6
Continuous
 62
     1
100
AcDbPoint
 10
-1.470580238991736E+63
 20
-5.941616374145985E+73
 30
0.0
  0
POINT
  5
49B
330
1E
100
AcDbEntity
  8
0
  6
Continuous
 62
     1
100
AcDbPoint
 10
3.141492651413534E+99
 20
1.269263905633295E+99
 30
0.0
  0
POINT
  5
49C
330
1E
100
AcDbEntity
  8
0
  6
Continuous
 62
     1
100
AcDbPoint
 10
3.141492651413534E+99
 20
1.269263905633295E+99
 30
0.0
  0
POINT
  5
49D
330
1E
100
AcDbEntity
  8
0
  6
Continuous
 62
     1
100
AcDbPoint
 10
-1.470580238991736E+63
 20
-5.941616374145985E+73
 30
0.0
  0
POINT
  5
49E
330
1E
100
AcDbEntity
  8
0
  6
Continuous
 62
     1
100
AcDbPoint
 10
-1.470580238991736E+63
 20
-5.941616374145985E+73
 30
0.0
  0
POINT
  5
49F
330
1E
100
AcDbEntity
  8
0
  6
Continuous
 62
     1
100
AcDbPoint
 10
3.141492651413534E+99
 20
1.269263905633295E+99
 30
0.0
  0
POINT
  5
4A0
330
1E
100
AcDbEntity
  8
0
  6
Continuous
 62
     1
100
AcDbPoint
 10
3.141492651413534E+99
 20
1.269263905633295E+99
 30
0.0
  0
POINT
  5
4A1
330
1E
100
AcDbEntity
  8
0
  6
Continuous
 62
     1
100
AcDbPoint
 10
-1.470580238991736E+63
 20
-5.941616374145985E+73
 30
0.0
  0
POINT
  5
4A2
330
1E
100
AcDbEntity
  8
0
  6
Continuous
 62
     1
100
AcDbPoint
 10
-1.470580238991736E+63
 20
-5.941616374145985E+73
 30
0.0
  0
POINT
  5
4A3
330
1E
100
AcDbEntity
  8
0
  6
Continuous
 62
     1
100
AcDbPoint
 10
3.141492651413534E+99
 20
1.269263905633295E+99
 30
0.0
  0
POINT
  5
4A4
330
1E
100
AcDbEntity
  8
0
  6
Continuous
 62
     1
100
AcDbPoint
 10
3.141492651413534E+99
 20
1.269263905633295E+99
 30
0.0
  0
POINT
  5
4A5
330
1E
100
AcDbEntity
  8
0
  6
Continuous
 62
     1
100
AcDbPoint
 10
-1.470580238991736E+63
 20
-5.941616374145985E+73
 30
0.0
  0
POINT
  5
4A6
330
1E
100
AcDbEntity
  8
0
  6
Continuous
 62
     1
100
AcDbPoint
 10
-1.470580238991736E+63
 20
-5.941616374145985E+73
 30
0.0
  0
LWPOLYLINE
  5
4A7
330
1E
100
AcDbEntity
  8
0
 62
     1
100
AcDbPolyline
 90
        2
 70
     1
 43
0.0
 10
3.141492651413534E+99
 20
1.269263905633295E+99
 10
3.141492651413534E+99
 20
1.269263905633295E+99
  0
POINT
  5
4AB
330
1E
100
AcDbEntity
  8
0
  6
Continuous
 62
     1
100
AcDbPoint
 10
-1.470580238991736E+63
 20
-5.941616374145985E+73
 30
0.0
  0
POINT
  5
4AC
330
1E
100
AcDbEntity
  8
0
  6
Continuous
 62
     1
100
AcDbPoint
 10
-1.470580238991736E+63
 20
-5.941616374145985E+73
 30
0.0
  0
POINT
  5
4AD
330
1E
100
AcDbEntity
  8
0
  6
Continuous
 62
     1
100
AcDbPoint
 10
3.141492651413534E+99
 20
1.269263905633295E+99
 30
0.0
  0
POINT
  5
4AE
330
1E
100
AcDbEntity
  8
0
  6
Continuous
 62
     1
100
AcDbPoint
 10
3.141492651413534E+99
 20
1.269263905633295E+99
 30
0.0
  0
POINT
  5
4AF
330
1E
100
AcDbEntity
  8
0
  6
Continuous
 62
     1
100
AcDbPoint
 10
-1.470580238991736E+63
 20
-5.941616374145985E+73
 30
0.0
  0
POINT
  5
4B0
330
1E
100
AcDbEntity
  8
0
  6
Continuous
 62
     1
100
AcDbPoint
 10
-1.470580238991736E+63
 20
-5.941616374145985E+73
 30
0.0
  0
POINT
  5
4B1
330
1E
100
AcDbEntity
  8
0
  6
Continuous
 62
     1
100
AcDbPoint
 10
3.141492651413534E+99
 20
1.269263905633295E+99
 30
0.0
  0
POINT
  5
4B2
330
1E
100
AcDbEntity
  8
0
  6
Continuous
 62
     1
100
AcDbPoint
 10
3.141492651413534E+99
 20
1.269263905633295E+99
 30
0.0
  0
POINT
  5
4B3
330
1E
100
AcDbEntity
  8
0
  6
Continuous
 62
     1
100
AcDbPoint
 10
-1.470580238991736E+63
 20
-5.941616374145985E+73
 30
0.0
  0
POINT
  5
4B4
330
1E
100
AcDbEntity
  8
0
  6
Continuous
 62
     1
100
AcDbPoint
 10
-1.470580238991736E+63
 20
-5.941616374145985E+73
 30
0.0
  0
POINT
  5
4B5
330
1E
100
AcDbEntity
  8
0
  6
Continuous
 62
     1
100
AcDbPoint
 10
3.141492651413534E+99
 20
1.269263905633295E+99
 30
0.0
  0
POINT
  5
4B6
330
1E
100
AcDbEntity
  8
0
  6
Continuous
 62
     1
100
AcDbPoint
 10
3.141492651413534E+99
 20
1.269263905633295E+99
 30
0.0
  0
POINT
  5
4B7
330
1E
100
AcDbEntity
  8
0
  6
Continuous
 62
     1
100
AcDbPoint
 10
-1.470580238991736E+63
 20
-5.941616374145985E+73
 30
0.0
  0
POINT
  5
4B8
330
1E
100
AcDbEntity
  8
0
  6
Continuous
 62
     1
100
AcDbPoint
 10
-1.470580238991736E+63
 20
-5.941616374145985E+73
 30
0.0
  0
POINT
  5
4B9
330
1E
100
AcDbEntity
  8
0
  6
Continuous
 62
     1
100
AcDbPoint
 10
3.141492651413534E+99
 20
1.269263905633295E+99
 30
0.0
  0
POINT
  5
4BA
330
1E
100
AcDbEntity
  8
0
  6
Continuous
 62
     1
100
AcDbPoint
 10
3.141492651413534E+99
 20
1.269263905633295E+99
 30
0.0
  0
POINT
  5
4BB
330
1E
100
AcDbEntity
  8
0
  6
Continuous
 62
     1
100
AcDbPoint
 10
-1.470580238991736E+63
 20
-5.941616374145985E+73
 30
0.0
  0
POINT
  5
4BC
330
1E
100
AcDbEntity
  8
0
  6
Continuous
 62
     1
100
AcDbPoint
 10
-1.470580238991736E+63
 20
-5.941616374145985E+73
 30
0.0
  0
POINT
  5
4BD
330
1E
100
AcDbEntity
  8
0
  6
Continuous
 62
     1
100
AcDbPoint
 10
3.141492651413534E+99
 20
1.269263905633295E+99
 30
0.0
  0
POINT
  5
4BE
330
1E
100
AcDbEntity
  8
0
  6
Continuous
 62
     1
100
AcDbPoint
 10
3.141492651413534E+99
 20
1.269263905633295E+99
 30
0.0
  0
POINT
  5
4BF
330
1E
100
AcDbEntity
  8
0
  6
Continuous
 62
     1
100
AcDbPoint
 10
-1.470580238991736E+63
 20
-5.941616374145985E+73
 30
0.0
  0
POINT
  5
4C0
330
1E
100
AcDbEntity
  8
0
  6
Continuous
 62
     1
100
AcDbPoint
 10
-1.470580238991736E+63
 20
-5.941616374145985E+73
 30
0.0
  0
LWPOLYLINE
  5
4C1
330
1E
100
AcDbEntity
  8
0
 62
     1
100
AcDbPolyline
 90
        4
 70
     1
 43
0.0
 10
-275.7392498287502
 20
-221.7922864525394
 10
-268.7392498287502
 20
-221.7922864525394
 10
-268.7392498287502
 20
-200.7922864525394
 10
-275.7392498287502
 20
-200.7922864525394
  0
LWPOLYLINE
  5
4C7
330
1E
100
AcDbEntity
  8
0
 62
     1
100
AcDbPolyline
 90
        2
 70
     1
 43
0.0
 10
3.141492651413534E+99
 20
1.269263905633295E+99
 10
3.141492651413534E+99
 20
1.269263905633295E+99
  0
POINT
  5
4CB
330
1E
100
AcDbEntity
  8
0
  6
Continuous
 62
     1
100
AcDbPoint
 10
-1.470580238991736E+63
 20
-5.941616374145985E+73
 30
0.0
  0
POINT
  5
4CC
330
1E
100
AcDbEntity
  8
0
  6
Continuous
 62
     1
100
AcDbPoint
 10
-1.470580238991736E+63
 20
-5.941616374145985E+73
 30
0.0
  0
POINT
  5
4CD
330
1E
100
AcDbEntity
  8
0
  6
Continuous
 62
     1
100
AcDbPoint
 10
3.141492651413534E+99
 20
1.269263905633295E+99
 30
0.0
  0
POINT
  5
4CE
330
1E
100
AcDbEntity
  8
0
  6
Continuous
 62
     1
100
AcDbPoint
 10
3.141492651413534E+99
 20
1.269263905633295E+99
 30
0.0
  0
POINT
  5
4CF
330
1E
100
AcDbEntity
  8
0
  6
Continuous
 62
     1
100
AcDbPoint
 10
-1.470580238991736E+63
 20
-5.941616374145985E+73
 30
0.0
  0
POINT
  5
4D0
330
1E
100
AcDbEntity
  8
0
  6
Continuous
 62
     1
100
AcDbPoint
 10
-1.470580238991736E+63
 20
-5.941616374145985E+73
 30
0.0
  0
POINT
  5
4D1
330
1E
100
AcDbEntity
  8
0
  6
Continuous
 62
     1
100
AcDbPoint
 10
3.141492651413534E+99
 20
1.269263905633295E+99
 30
0.0
  0
POINT
  5
4D2
330
1E
100
AcDbEntity
  8
0
  6
Continuous
 62
     1
100
AcDbPoint
 10
3.141492651413534E+99
 20
1.269263905633295E+99
 30
0.0
  0
POINT
  5
4D3
330
1E
100
AcDbEntity
  8
0
  6
Continuous
 62
     1
100
AcDbPoint
 10
-1.470580238991736E+63
 20
-5.941616374145985E+73
 30
0.0
  0
POINT
  5
4D4
330
1E
100
AcDbEntity
  8
0
  6
Continuous
 62
     1
100
AcDbPoint
 10
-1.470580238991736E+63
 20
-5.941616374145985E+73
 30
0.0
  0
POINT
  5
4D5
330
1E
100
AcDbEntity
  8
0
  6
Continuous
 62
     1
100
AcDbPoint
 10
3.141492651413534E+99
 20
1.269263905633295E+99
 30
0.0
  0
POINT
  5
4D6
330
1E
100
AcDbEntity
  8
0
  6
Continuous
 62
     1
100
AcDbPoint
 10
3.141492651413534E+99
 20
1.269263905633295E+99
 30
0.0
  0
POINT
  5
4D7
330
1E
100
AcDbEntity
  8
0
  6
Continuous
 62
     1
100
AcDbPoint
 10
-1.470580238991736E+63
 20
-5.941616374145985E+73
 30
0.0
  0
POINT
  5
4D8
330
1E
100
AcDbEntity
  8
0
  6
Continuous
 62
     1
100
AcDbPoint
 10
-1.470580238991736E+63
 20
-5.941616374145985E+73
 30
0.0
  0
POINT
  5
4D9
330
1E
100
AcDbEntity
  8
0
  6
Continuous
 62
     1
100
AcDbPoint
 10
3.141492651413534E+99
 20
1.269263905633295E+99
 30
0.0
  0
POINT
  5
4DA
330
1E
100
AcDbEntity
  8
0
  6
Continuous
 62
     1
100
AcDbPoint
 10
3.141492651413534E+99
 20
1.269263905633295E+99
 30
0.0
  0
POINT
  5
4DB
330
1E
100
AcDbEntity
  8
0
  6
Continuous
 62
     1
100
AcDbPoint
 10
-1.470580238991736E+63
 20
-5.941616374145985E+73
 30
0.0
  0
POINT
  5
4DC
330
1E
100
AcDbEntity
  8
0
  6
Continuous
 62
     1
100
AcDbPoint
 10
-1.470580238991736E+63
 20
-5.941616374145985E+73
 30
0.0
  0
POINT
  5
4DD
330
1E
100
AcDbEntity
  8
0
  6
Continuous
 62
     1
100
AcDbPoint
 10
3.141492651413534E+99
 20
1.269263905633295E+99
 30
0.0
  0
POINT
  5
4DE
330
1E
100
AcDbEntity
  8
0
  6
Continuous
 62
     1
100
AcDbPoint
 10
3.141492651413534E+99
 20
1.269263905633295E+99
 30
0.0
  0
POINT
  5
4DF
330
1E
100
AcDbEntity
  8
0
  6
Continuous
 62
     1
100
AcDbPoint
 10
-1.470580238991736E+63
 20
-5.941616374145985E+73
 30
0.0
  0
POINT
  5
4E0
330
1E
100
AcDbEntity
  8
0
  6
Continuous
 62
     1
100
AcDbPoint
 10
-1.470580238991736E+63
 20
-5.941616374145985E+73
 30
0.0
  0
LWPOLYLINE
  5
4E1
330
1E
100
AcDbEntity
  8
0
 62
     1
100
AcDbPolyline
 90
        2
 70
     1
 43
0.0
 10
3.141492651413534E+99
 20
1.269263905633295E+99
 10
3.141492651413534E+99
 20
1.269263905633295E+99
  0
POINT
  5
4E5
330
1E
100
AcDbEntity
  8
0
  6
Continuous
 62
     1
100
AcDbPoint
 10
-1.470580238991736E+63
 20
-5.941616374145985E+73
 30
0.0
  0
POINT
  5
4E6
330
1E
100
AcDbEntity
  8
0
  6
Continuous
 62
     1
100
AcDbPoint
 10
-1.470580238991736E+63
 20
-5.941616374145985E+73
 30
0.0
  0
POINT
  5
4E7
330
1E
100
AcDbEntity
  8
0
  6
Continuous
 62
     1
100
AcDbPoint
 10
3.141492651413534E+99
 20
1.269263905633295E+99
 30
0.0
  0
POINT
  5
4E8
330
1E
100
AcDbEntity
  8
0
  6
Continuous
 62
     1
100
AcDbPoint
 10
3.141492651413534E+99
 20
1.269263905633295E+99
 30
0.0
  0
POINT
  5
4E9
330
1E
100
AcDbEntity
  8
0
  6
Continuous
 62
     1
100
AcDbPoint
 10
-1.470580238991736E+63
 20
-5.941616374145985E+73
 30
0.0
  0
POINT
  5
4EA
330
1E
100
AcDbEntity
  8
0
  6
Continuous
 62
     1
100
AcDbPoint
 10
-1.470580238991736E+63
 20
-5.941616374145985E+73
 30
0.0
  0
POINT
  5
4EB
330
1E
100
AcDbEntity
  8
0
  6
Continuous
 62
     1
100
AcDbPoint
 10
3.141492651413534E+99
 20
1.269263905633295E+99
 30
0.0
  0
POINT
  5
4EC
330
1E
100
AcDbEntity
  8
0
  6
Continuous
 62
     1
100
AcDbPoint
 10
3.141492651413534E+99
 20
1.269263905633295E+99
 30
0.0
  0
POINT
  5
4ED
330
1E
100
AcDbEntity
  8
0
  6
Continuous
 62
     1
100
AcDbPoint
 10
-1.470580238991736E+63
 20
-5.941616374145985E+73
 30
0.0
  0
POINT
  5
4EE
330
1E
100
AcDbEntity
  8
0
  6
Continuous
 62
     1
100
AcDbPoint
 10
-1.470580238991736E+63
 20
-5.941616374145985E+73
 30
0.0
  0
POINT
  5
4EF
330
1E
100
AcDbEntity
  8
0
  6
Continuous
 62
     1
100
AcDbPoint
 10
3.141492651413534E+99
 20
1.269263905633295E+99
 30
0.0
  0
POINT
  5
4F0
330
1E
100
AcDbEntity
  8
0
  6
Continuous
 62
     1
100
AcDbPoint
 10
3.141492651413534E+99
 20
1.269263905633295E+99
 30
0.0
  0
POINT
  5
4F1
330
1E
100
AcDbEntity
  8
0
  6
Continuous
 62
     1
100
AcDbPoint
 10
-1.470580238991736E+63
 20
-5.941616374145985E+73
 30
0.0
  0
POINT
  5
4F2
330
1E
100
AcDbEntity
  8
0
  6
Continuous
 62
     1
100
AcDbPoint
 10
-1.470580238991736E+63
 20
-5.941616374145985E+73
 30
0.0
  0
POINT
  5
4F3
330
1E
100
AcDbEntity
  8
0
  6
Continuous
 62
     1
100
AcDbPoint
 10
3.141492651413534E+99
 20
1.269263905633295E+99
 30
0.0
  0
POINT
  5
4F4
330
1E
100
AcDbEntity
  8
0
  6
Continuous
 62
     1
100
AcDbPoint
 10
3.141492651413534E+99
 20
1.269263905633295E+99
 30
0.0
  0
POINT
  5
4F5
330
1E
100
AcDbEntity
  8
0
  6
Continuous
 62
     1
100
AcDbPoint
 10
-1.470580238991736E+63
 20
-5.941616374145985E+73
 30
0.0
  0
POINT
  5
4F6
330
1E
100
AcDbEntity
  8
0
  6
Continuous
 62
     1
100
AcDbPoint
 10
-1.470580238991736E+63
 20
-5.941616374145985E+73
 30
0.0
  0
POINT
  5
4F7
330
1E
100
AcDbEntity
  8
0
  6
Continuous
 62
     1
100
AcDbPoint
 10
3.141492651413534E+99
 20
1.269263905633295E+99
 30
0.0
  0
POINT
  5
4F8
330
1E
100
AcDbEntity
  8
0
  6
Continuous
 62
     1
100
AcDbPoint
 10
3.141492651413534E+99
 20
1.269263905633295E+99
 30
0.0
  0
POINT
  5
4F9
330
1E
100
AcDbEntity
  8
0
  6
Continuous
 62
     1
100
AcDbPoint
 10
-1.470580238991736E+63
 20
-5.941616374145985E+73
 30
0.0
  0
POINT
  5
4FA
330
1E
100
AcDbEntity
  8
0
  6
Continuous
 62
     1
100
AcDbPoint
 10
-1.470580238991736E+63
 20
-5.941616374145985E+73
 30
0.0
  0
LWPOLYLINE
  5
4FB
330
1E
100
AcDbEntity
  8
0
 62
     1
100
AcDbPolyline
 90
        2
 70
     1
 43
0.0
 10
3.141492651413534E+99
 20
1.269263905633295E+99
 10
3.141492651413534E+99
 20
1.269263905633295E+99
  0
POINT
  5
4FF
330
1E
100
AcDbEntity
  8
0
  6
Continuous
 62
     1
100
AcDbPoint
 10
-1.470580238991736E+63
 20
-5.941616374145985E+73
 30
0.0
  0
POINT
  5
500
330
1E
100
AcDbEntity
  8
0
  6
Continuous
 62
     1
100
AcDbPoint
 10
-1.470580238991736E+63
 20
-5.941616374145985E+73
 30
0.0
  0
POINT
  5
501
330
1E
100
AcDbEntity
  8
0
  6
Continuous
 62
     1
100
AcDbPoint
 10
3.141492651413534E+99
 20
1.269263905633295E+99
 30
0.0
  0
POINT
  5
502
330
1E
100
AcDbEntity
  8
0
  6
Continuous
 62
     1
100
AcDbPoint
 10
3.141492651413534E+99
 20
1.269263905633295E+99
 30
0.0
  0
POINT
  5
503
330
1E
100
AcDbEntity
  8
0
  6
Continuous
 62
     1
100
AcDbPoint
 10
-1.470580238991736E+63
 20
-5.941616374145985E+73
 30
0.0
  0
POINT
  5
504
330
1E
100
AcDbEntity
  8
0
  6
Continuous
 62
     1
100
AcDbPoint
 10
-1.470580238991736E+63
 20
-5.941616374145985E+73
 30
0.0
  0
POINT
  5
505
330
1E
100
AcDbEntity
  8
0
  6
Continuous
 62
     1
100
AcDbPoint
 10
3.141492651413534E+99
 20
1.269263905633295E+99
 30
0.0
  0
POINT
  5
506
330
1E
100
AcDbEntity
  8
0
  6
Continuous
 62
     1
100
AcDbPoint
 10
3.141492651413534E+99
 20
1.269263905633295E+99
 30
0.0
  0
POINT
  5
507
330
1E
100
AcDbEntity
  8
0
  6
Continuous
 62
     1
100
AcDbPoint
 10
-1.470580238991736E+63
 20
-5.941616374145985E+73
 30
0.0
  0
POINT
  5
508
330
1E
100
AcDbEntity
  8
0
  6
Continuous
 62
     1
100
AcDbPoint
 10
-1.470580238991736E+63
 20
-5.941616374145985E+73
 30
0.0
  0
POINT
  5
509
330
1E
100
AcDbEntity
  8
0
  6
Continuous
 62
     1
100
AcDbPoint
 10
3.141492651413534E+99
 20
1.269263905633295E+99
 30
0.0
  0
POINT
  5
50A
330
1E
100
AcDbEntity
  8
0
  6
Continuous
 62
     1
100
AcDbPoint
 10
3.141492651413534E+99
 20
1.269263905633295E+99
 30
0.0
  0
POINT
  5
50B
330
1E
100
AcDbEntity
  8
0
  6
Continuous
 62
     1
100
AcDbPoint
 10
-1.470580238991736E+63
 20
-5.941616374145985E+73
 30
0.0
  0
POINT
  5
50C
330
1E
100
AcDbEntity
  8
0
  6
Continuous
 62
     1
100
AcDbPoint
 10
-1.470580238991736E+63
 20
-5.941616374145985E+73
 30
0.0
  0
POINT
  5
50D
330
1E
100
AcDbEntity
  8
0
  6
Continuous
 62
     1
100
AcDbPoint
 10
3.141492651413534E+99
 20
1.269263905633295E+99
 30
0.0
  0
POINT
  5
50E
330
1E
100
AcDbEntity
  8
0
  6
Continuous
 62
     1
100
AcDbPoint
 10
3.141492651413534E+99
 20
1.269263905633295E+99
 30
0.0
  0
POINT
  5
50F
330
1E
100
AcDbEntity
  8
0
  6
Continuous
 62
     1
100
AcDbPoint
 10
-1.470580238991736E+63
 20
-5.941616374145985E+73
 30
0.0
  0
POINT
  5
510
330
1E
100
AcDbEntity
  8
0
  6
Continuous
 62
     1
100
AcDbPoint
 10
-1.470580238991736E+63
 20
-5.941616374145985E+73
 30
0.0
  0
POINT
  5
511
330
1E
100
AcDbEntity
  8
0
  6
Continuous
 62
     1
100
AcDbPoint
 10
3.141492651413534E+99
 20
1.269263905633295E+99
 30
0.0
  0
POINT
  5
512
330
1E
100
AcDbEntity
  8
0
  6
Continuous
 62
     1
100
AcDbPoint
 10
3.141492651413534E+99
 20
1.269263905633295E+99
 30
0.0
  0
POINT
  5
513
330
1E
100
AcDbEntity
  8
0
  6
Continuous
 62
     1
100
AcDbPoint
 10
-1.470580238991736E+63
 20
-5.941616374145985E+73
 30
0.0
  0
POINT
  5
514
330
1E
100
AcDbEntity
  8
0
  6
Continuous
 62
     1
100
AcDbPoint
 10
-1.470580238991736E+63
 20
-5.941616374145985E+73
 30
0.0
  0
LWPOLYLINE
  5
515
330
1E
100
AcDbEntity
  8
0
 62
     1
100
AcDbPolyline
 90
        2
 70
     1
 43
0.0
 10
3.141492651413534E+99
 20
1.269263905633295E+99
 10
3.141492651413534E+99
 20
1.269263905633295E+99
  0
POINT
  5
519
330
1E
100
AcDbEntity
  8
0
  6
Continuous
 62
     1
100
AcDbPoint
 10
-1.470580238991736E+63
 20
-5.941616374145985E+73
 30
0.0
  0
POINT
  5
51A
330
1E
100
AcDbEntity
  8
0
  6
Continuous
 62
     1
100
AcDbPoint
 10
-1.470580238991736E+63
 20
-5.941616374145985E+73
 30
0.0
  0
POINT
  5
51B
330
1E
100
AcDbEntity
  8
0
  6
Continuous
 62
     1
100
AcDbPoint
 10
3.141492651413534E+99
 20
1.269263905633295E+99
 30
0.0
  0
POINT
  5
51C
330
1E
100
AcDbEntity
  8
0
  6
Continuous
 62
     1
100
AcDbPoint
 10
3.141492651413534E+99
 20
1.269263905633295E+99
 30
0.0
  0
POINT
  5
51D
330
1E
100
AcDbEntity
  8
0
  6
Continuous
 62
     1
100
AcDbPoint
 10
-1.470580238991736E+63
 20
-5.941616374145985E+73
 30
0.0
  0
POINT
  5
51E
330
1E
100
AcDbEntity
  8
0
  6
Continuous
 62
     1
100
AcDbPoint
 10
-1.470580238991736E+63
 20
-5.941616374145985E+73
 30
0.0
  0
POINT
  5
51F
330
1E
100
AcDbEntity
  8
0
  6
Continuous
 62
     1
100
AcDbPoint
 10
3.141492651413534E+99
 20
1.269263905633295E+99
 30
0.0
  0
POINT
  5
520
330
1E
100
AcDbEntity
  8
0
  6
Continuous
 62
     1
100
AcDbPoint
 10
3.141492651413534E+99
 20
1.269263905633295E+99
 30
0.0
  0
POINT
  5
521
330
1E
100
AcDbEntity
  8
0
  6
Continuous
 62
     1
100
AcDbPoint
 10
-1.470580238991736E+63
 20
-5.941616374145985E+73
 30
0.0
  0
POINT
  5
522
330
1E
100
AcDbEntity
  8
0
  6
Continuous
 62
     1
100
AcDbPoint
 10
-1.470580238991736E+63
 20
-5.941616374145985E+73
 30
0.0
  0
POINT
  5
523
330
1E
100
AcDbEntity
  8
0
  6
Continuous
 62
     1
100
AcDbPoint
 10
3.141492651413534E+99
 20
1.269263905633295E+99
 30
0.0
  0
POINT
  5
524
330
1E
100
AcDbEntity
  8
0
  6
Continuous
 62
     1
100
AcDbPoint
 10
3.141492651413534E+99
 20
1.269263905633295E+99
 30
0.0
  0
POINT
  5
525
330
1E
100
AcDbEntity
  8
0
  6
Continuous
 62
     1
100
AcDbPoint
 10
-1.470580238991736E+63
 20
-5.941616374145985E+73
 30
0.0
  0
POINT
  5
526
330
1E
100
AcDbEntity
  8
0
  6
Continuous
 62
     1
100
AcDbPoint
 10
-1.470580238991736E+63
 20
-5.941616374145985E+73
 30
0.0
  0
POINT
  5
527
330
1E
100
AcDbEntity
  8
0
  6
Continuous
 62
     1
100
AcDbPoint
 10
3.141492651413534E+99
 20
1.269263905633295E+99
 30
0.0
  0
POINT
  5
528
330
1E
100
AcDbEntity
  8
0
  6
Continuous
 62
     1
100
AcDbPoint
 10
3.141492651413534E+99
 20
1.269263905633295E+99
 30
0.0
  0
POINT
  5
529
330
1E
100
AcDbEntity
  8
0
  6
Continuous
 62
     1
100
AcDbPoint
 10
-1.470580238991736E+63
 20
-5.941616374145985E+73
 30
0.0
  0
POINT
  5
52A
330
1E
100
AcDbEntity
  8
0
  6
Continuous
 62
     1
100
AcDbPoint
 10
-1.470580238991736E+63
 20
-5.941616374145985E+73
 30
0.0
  0
POINT
  5
52B
330
1E
100
AcDbEntity
  8
0
  6
Continuous
 62
     1
100
AcDbPoint
 10
3.141492651413534E+99
 20
1.269263905633295E+99
 30
0.0
  0
POINT
  5
52C
330
1E
100
AcDbEntity
  8
0
  6
Continuous
 62
     1
100
AcDbPoint
 10
3.141492651413534E+99
 20
1.269263905633295E+99
 30
0.0
  0
POINT
  5
52D
330
1E
100
AcDbEntity
  8
0
  6
Continuous
 62
     1
100
AcDbPoint
 10
-1.470580238991736E+63
 20
-5.941616374145985E+73
 30
0.0
  0
POINT
  5
52E
330
1E
100
AcDbEntity
  8
0
  6
Continuous
 62
     1
100
AcDbPoint
 10
-1.470580238991736E+63
 20
-5.941616374145985E+73
 30
0.0
  0
LWPOLYLINE
  5
52F
330
1E
100
AcDbEntity
  8
0
 62
     1
100
AcDbPolyline
 90
        2
 70
     1
 43
0.0
 10
3.141492651413534E+99
 20
1.269263905633295E+99
 10
3.141492651413534E+99
 20
1.269263905633295E+99
  0
POINT
  5
533
330
1E
100
AcDbEntity
  8
0
  6
Continuous
 62
     1
100
AcDbPoint
 10
-1.470580238991736E+63
 20
-5.941616374145985E+73
 30
0.0
  0
POINT
  5
534
330
1E
100
AcDbEntity
  8
0
  6
Continuous
 62
     1
100
AcDbPoint
 10
-1.470580238991736E+63
 20
-5.941616374145985E+73
 30
0.0
  0
POINT
  5
535
330
1E
100
AcDbEntity
  8
0
  6
Continuous
 62
     1
100
AcDbPoint
 10
3.141492651413534E+99
 20
1.269263905633295E+99
 30
0.0
  0
POINT
  5
536
330
1E
100
AcDbEntity
  8
0
  6
Continuous
 62
     1
100
AcDbPoint
 10
3.141492651413534E+99
 20
1.269263905633295E+99
 30
0.0
  0
POINT
  5
537
330
1E
100
AcDbEntity
  8
0
  6
Continuous
 62
     1
100
AcDbPoint
 10
-1.470580238991736E+63
 20
-5.941616374145985E+73
 30
0.0
  0
POINT
  5
538
330
1E
100
AcDbEntity
  8
0
  6
Continuous
 62
     1
100
AcDbPoint
 10
-1.470580238991736E+63
 20
-5.941616374145985E+73
 30
0.0
  0
POINT
  5
539
330
1E
100
AcDbEntity
  8
0
  6
Continuous
 62
     1
100
AcDbPoint
 10
3.141492651413534E+99
 20
1.269263905633295E+99
 30
0.0
  0
POINT
  5
53A
330
1E
100
AcDbEntity
  8
0
  6
Continuous
 62
     1
100
AcDbPoint
 10
3.141492651413534E+99
 20
1.269263905633295E+99
 30
0.0
  0
POINT
  5
53B
330
1E
100
AcDbEntity
  8
0
  6
Continuous
 62
     1
100
AcDbPoint
 10
-1.470580238991736E+63
 20
-5.941616374145985E+73
 30
0.0
  0
POINT
  5
53C
330
1E
100
AcDbEntity
  8
0
  6
Continuous
 62
     1
100
AcDbPoint
 10
-1.470580238991736E+63
 20
-5.941616374145985E+73
 30
0.0
  0
POINT
  5
53D
330
1E
100
AcDbEntity
  8
0
  6
Continuous
 62
     1
100
AcDbPoint
 10
3.141492651413534E+99
 20
1.269263905633295E+99
 30
0.0
  0
POINT
  5
53E
330
1E
100
AcDbEntity
  8
0
  6
Continuous
 62
     1
100
AcDbPoint
 10
3.141492651413534E+99
 20
1.269263905633295E+99
 30
0.0
  0
POINT
  5
53F
330
1E
100
AcDbEntity
  8
0
  6
Continuous
 62
     1
100
AcDbPoint
 10
-1.470580238991736E+63
 20
-5.941616374145985E+73
 30
0.0
  0
POINT
  5
540
330
1E
100
AcDbEntity
  8
0
  6
Continuous
 62
     1
100
AcDbPoint
 10
-1.470580238991736E+63
 20
-5.941616374145985E+73
 30
0.0
  0
POINT
  5
541
330
1E
100
AcDbEntity
  8
0
  6
Continuous
 62
     1
100
AcDbPoint
 10
3.141492651413534E+99
 20
1.269263905633295E+99
 30
0.0
  0
POINT
  5
542
330
1E
100
AcDbEntity
  8
0
  6
Continuous
 62
     1
100
AcDbPoint
 10
3.141492651413534E+99
 20
1.269263905633295E+99
 30
0.0
  0
POINT
  5
543
330
1E
100
AcDbEntity
  8
0
  6
Continuous
 62
     1
100
AcDbPoint
 10
-1.470580238991736E+63
 20
-5.941616374145985E+73
 30
0.0
  0
POINT
  5
544
330
1E
100
AcDbEntity
  8
0
  6
Continuous
 62
     1
100
AcDbPoint
 10
-1.470580238991736E+63
 20
-5.941616374145985E+73
 30
0.0
  0
POINT
  5
545
330
1E
100
AcDbEntity
  8
0
  6
Continuous
 62
     1
100
AcDbPoint
 10
3.141492651413534E+99
 20
1.269263905633295E+99
 30
0.0
  0
POINT
  5
546
330
1E
100
AcDbEntity
  8
0
  6
Continuous
 62
     1
100
AcDbPoint
 10
3.141492651413534E+99
 20
1.269263905633295E+99
 30
0.0
  0
POINT
  5
547
330
1E
100
AcDbEntity
  8
0
  6
Continuous
 62
     1
100
AcDbPoint
 10
-1.470580238991736E+63
 20
-5.941616374145985E+73
 30
0.0
  0
POINT
  5
548
330
1E
100
AcDbEntity
  8
0
  6
Continuous
 62
     1
100
AcDbPoint
 10
-1.470580238991736E+63
 20
-5.941616374145985E+73
 30
0.0
  0
LWPOLYLINE
  5
549
330
1E
100
AcDbEntity
  8
0
 62
     1
100
AcDbPolyline
 90
        2
 70
     1
 43
0.0
 10
3.141492651413534E+99
 20
1.269263905633295E+99
 10
3.141492651413534E+99
 20
1.269263905633295E+99
  0
POINT
  5
54D
330
1E
100
AcDbEntity
  8
0
  6
Continuous
 62
     1
100
AcDbPoint
 10
-1.470580238991736E+63
 20
-5.941616374145985E+73
 30
0.0
  0
POINT
  5
54E
330
1E
100
AcDbEntity
  8
0
  6
Continuous
 62
     1
100
AcDbPoint
 10
-1.470580238991736E+63
 20
-5.941616374145985E+73
 30
0.0
  0
POINT
  5
54F
330
1E
100
AcDbEntity
  8
0
  6
Continuous
 62
     1
100
AcDbPoint
 10
3.141492651413534E+99
 20
1.269263905633295E+99
 30
0.0
  0
POINT
  5
550
330
1E
100
AcDbEntity
  8
0
  6
Continuous
 62
     1
100
AcDbPoint
 10
3.141492651413534E+99
 20
1.269263905633295E+99
 30
0.0
  0
POINT
  5
551
330
1E
100
AcDbEntity
  8
0
  6
Continuous
 62
     1
100
AcDbPoint
 10
-1.470580238991736E+63
 20
-5.941616374145985E+73
 30
0.0
  0
POINT
  5
552
330
1E
100
AcDbEntity
  8
0
  6
Continuous
 62
     1
100
AcDbPoint
 10
-1.470580238991736E+63
 20
-5.941616374145985E+73
 30
0.0
  0
POINT
  5
553
330
1E
100
AcDbEntity
  8
0
  6
Continuous
 62
     1
100
AcDbPoint
 10
3.141492651413534E+99
 20
1.269263905633295E+99
 30
0.0
  0
POINT
  5
554
330
1E
100
AcDbEntity
  8
0
  6
Continuous
 62
     1
100
AcDbPoint
 10
3.141492651413534E+99
 20
1.269263905633295E+99
 30
0.0
  0
POINT
  5
555
330
1E
100
AcDbEntity
  8
0
  6
Continuous
 62
     1
100
AcDbPoint
 10
-1.470580238991736E+63
 20
-5.941616374145985E+73
 30
0.0
  0
POINT
  5
556
330
1E
100
AcDbEntity
  8
0
  6
Continuous
 62
     1
100
AcDbPoint
 10
-1.470580238991736E+63
 20
-5.941616374145985E+73
 30
0.0
  0
POINT
  5
557
330
1E
100
AcDbEntity
  8
0
  6
Continuous
 62
     1
100
AcDbPoint
 10
3.141492651413534E+99
 20
1.269263905633295E+99
 30
0.0
  0
POINT
  5
558
330
1E
100
AcDbEntity
  8
0
  6
Continuous
 62
     1
100
AcDbPoint
 10
3.141492651413534E+99
 20
1.269263905633295E+99
 30
0.0
  0
POINT
  5
559
330
1E
100
AcDbEntity
  8
0
  6
Continuous
 62
     1
100
AcDbPoint
 10
-1.470580238991736E+63
 20
-5.941616374145985E+73
 30
0.0
  0
POINT
  5
55A
330
1E
100
AcDbEntity
  8
0
  6
Continuous
 62
     1
100
AcDbPoint
 10
-1.470580238991736E+63
 20
-5.941616374145985E+73
 30
0.0
  0
POINT
  5
55B
330
1E
100
AcDbEntity
  8
0
  6
Continuous
 62
     1
100
AcDbPoint
 10
3.141492651413534E+99
 20
1.269263905633295E+99
 30
0.0
  0
POINT
  5
55C
330
1E
100
AcDbEntity
  8
0
  6
Continuous
 62
     1
100
AcDbPoint
 10
3.141492651413534E+99
 20
1.269263905633295E+99
 30
0.0
  0
POINT
  5
55D
330
1E
100
AcDbEntity
  8
0
  6
Continuous
 62
     1
100
AcDbPoint
 10
-1.470580238991736E+63
 20
-5.941616374145985E+73
 30
0.0
  0
POINT
  5
55E
330
1E
100
AcDbEntity
  8
0
  6
Continuous
 62
     1
100
AcDbPoint
 10
-1.470580238991736E+63
 20
-5.941616374145985E+73
 30
0.0
  0
POINT
  5
55F
330
1E
100
AcDbEntity
  8
0
  6
Continuous
 62
     1
100
AcDbPoint
 10
3.141492651413534E+99
 20
1.269263905633295E+99
 30
0.0
  0
POINT
  5
560
330
1E
100
AcDbEntity
  8
0
  6
Continuous
 62
     1
100
AcDbPoint
 10
3.141492651413534E+99
 20
1.269263905633295E+99
 30
0.0
  0
POINT
  5
561
330
1E
100
AcDbEntity
  8
0
  6
Continuous
 62
     1
100
AcDbPoint
 10
-1.470580238991736E+63
 20
-5.941616374145985E+73
 30
0.0
  0
POINT
  5
562
330
1E
100
AcDbEntity
  8
0
  6
Continuous
 62
     1
100
AcDbPoint
 10
-1.470580238991736E+63
 20
-5.941616374145985E+73
 30
0.0
  0
LWPOLYLINE
  5
563
330
1E
100
AcDbEntity
  8
0
 62
     1
100
AcDbPolyline
 90
        2
 70
     1
 43
0.0
 10
3.141492651413534E+99
 20
1.269263905633295E+99
 10
3.141492651413534E+99
 20
1.269263905633295E+99
  0
POINT
  5
567
330
1E
100
AcDbEntity
  8
0
  6
Continuous
 62
     1
100
AcDbPoint
 10
-1.470580238991736E+63
 20
-5.941616374145985E+73
 30
0.0
  0
POINT
  5
568
330
1E
100
AcDbEntity
  8
0
  6
Continuous
 62
     1
100
AcDbPoint
 10
-1.470580238991736E+63
 20
-5.941616374145985E+73
 30
0.0
  0
POINT
  5
569
330
1E
100
AcDbEntity
  8
0
  6
Continuous
 62
     1
100
AcDbPoint
 10
3.141492651413534E+99
 20
1.269263905633295E+99
 30
0.0
  0
POINT
  5
56A
330
1E
100
AcDbEntity
  8
0
  6
Continuous
 62
     1
100
AcDbPoint
 10
3.141492651413534E+99
 20
1.269263905633295E+99
 30
0.0
  0
POINT
  5
56B
330
1E
100
AcDbEntity
  8
0
  6
Continuous
 62
     1
100
AcDbPoint
 10
-1.470580238991736E+63
 20
-5.941616374145985E+73
 30
0.0
  0
POINT
  5
56C
330
1E
100
AcDbEntity
  8
0
  6
Continuous
 62
     1
100
AcDbPoint
 10
-1.470580238991736E+63
 20
-5.941616374145985E+73
 30
0.0
  0
POINT
  5
56D
330
1E
100
AcDbEntity
  8
0
  6
Continuous
 62
     1
100
AcDbPoint
 10
3.141492651413534E+99
 20
1.269263905633295E+99
 30
0.0
  0
POINT
  5
56E
330
1E
100
AcDbEntity
  8
0
  6
Continuous
 62
     1
100
AcDbPoint
 10
3.141492651413534E+99
 20
1.269263905633295E+99
 30
0.0
  0
POINT
  5
56F
330
1E
100
AcDbEntity
  8
0
  6
Continuous
 62
     1
100
AcDbPoint
 10
-1.470580238991736E+63
 20
-5.941616374145985E+73
 30
0.0
  0
POINT
  5
570
330
1E
100
AcDbEntity
  8
0
  6
Continuous
 62
     1
100
AcDbPoint
 10
-1.470580238991736E+63
 20
-5.941616374145985E+73
 30
0.0
  0
POINT
  5
571
330
1E
100
AcDbEntity
  8
0
  6
Continuous
 62
     1
100
AcDbPoint
 10
3.141492651413534E+99
 20
1.269263905633295E+99
 30
0.0
  0
POINT
  5
572
330
1E
100
AcDbEntity
  8
0
  6
Continuous
 62
     1
100
AcDbPoint
 10
3.141492651413534E+99
 20
1.269263905633295E+99
 30
0.0
  0
POINT
  5
573
330
1E
100
AcDbEntity
  8
0
  6
Continuous
 62
     1
100
AcDbPoint
 10
-1.470580238991736E+63
 20
-5.941616374145985E+73
 30
0.0
  0
POINT
  5
574
330
1E
100
AcDbEntity
  8
0
  6
Continuous
 62
     1
100
AcDbPoint
 10
-1.470580238991736E+63
 20
-5.941616374145985E+73
 30
0.0
  0
POINT
  5
575
330
1E
100
AcDbEntity
  8
0
  6
Continuous
 62
     1
100
AcDbPoint
 10
3.141492651413534E+99
 20
1.269263905633295E+99
 30
0.0
  0
POINT
  5
576
330
1E
100
AcDbEntity
  8
0
  6
Continuous
 62
     1
100
AcDbPoint
 10
3.141492651413534E+99
 20
1.269263905633295E+99
 30
0.0
  0
POINT
  5
577
330
1E
100
AcDbEntity
  8
0
  6
Continuous
 62
     1
100
AcDbPoint
 10
-1.470580238991736E+63
 20
-5.941616374145985E+73
 30
0.0
  0
POINT
  5
578
330
1E
100
AcDbEntity
  8
0
  6
Continuous
 62
     1
100
AcDbPoint
 10
-1.470580238991736E+63
 20
-5.941616374145985E+73
 30
0.0
  0
POINT
  5
579
330
1E
100
AcDbEntity
  8
0
  6
Continuous
 62
     1
100
AcDbPoint
 10
3.141492651413534E+99
 20
1.269263905633295E+99
 30
0.0
  0
POINT
  5
57A
330
1E
100
AcDbEntity
  8
0
  6
Continuous
 62
     1
100
AcDbPoint
 10
3.141492651413534E+99
 20
1.269263905633295E+99
 30
0.0
  0
POINT
  5
57B
330
1E
100
AcDbEntity
  8
0
  6
Continuous
 62
     1
100
AcDbPoint
 10
-1.470580238991736E+63
 20
-5.941616374145985E+73
 30
0.0
  0
POINT
  5
57C
330
1E
100
AcDbEntity
  8
0
  6
Continuous
 62
     1
100
AcDbPoint
 10
-1.470580238991736E+63
 20
-5.941616374145985E+73
 30
0.0
  0
LINE
  5
57D
330
1E
100
AcDbEntity
  8
0
  6
Continuous
 62
     3
100
AcDbLine
 10
-305.5022304427502
 20
-67.4550640045394
 30
0.0
 11
-303.7022304427503
 21
-67.4550640045394
 31
0.0
  0
LINE
  5
57E
330
1E
100
AcDbEntity
  8
0
  6
Continuous
 62
     3
100
AcDbLine
 10
-303.7022304427503
 20
-65.7550640045394
 30
0.0
 11
-305.5022304427502
 21
-65.7550640045394
 31
0.0
  0
LINE
  5
57F
330
1E
100
AcDbEntity
  8
0
  6
Continuous
 62
     3
100
AcDbLine
 10
-305.5022304427502
 20
-70.95506400453939
 30
0.0
 11
-303.7022304427503
 21
-70.95506400453939
 31
0.0
  0
LINE
  5
580
330
1E
100
AcDbEntity
  8
0
  6
Continuous
 62
     3
100
AcDbLine
 10
-303.7022304427503
 20
-69.2550640045394
 30
0.0
 11
-305.5022304427502
 21
-69.2550640045394
 31
0.0
  0
LINE
  5
581
330
1E
100
AcDbEntity
  8
0
  6
Continuous
 62
     3
100
AcDbLine
 10
-305.5022304427502
 20
-74.4550640045394
 30
0.0
 11
-303.7022304427503
 21
-74.4550640045394
 31
0.0
  0
LINE
  5
582
330
1E
100
AcDbEntity
  8
0
  6
Continuous
 62
     3
100
AcDbLine
 10
-303.7022304427503
 20
-72.75506400453941
 30
0.0
 11
-305.5022304427502
 21
-72.75506400453941
 31
0.0
  0
LINE
  5
583
330
1E
100
AcDbEntity
  8
0
  6
Continuous
 62
     3
100
AcDbLine
 10
-305.5022304427502
 20
-63.95506400453939
 30
0.0
 11
-303.7022304427503
 21
-63.95506400453939
 31
0.0
  0
LINE
  5
584
330
1E
100
AcDbEntity
  8
0
  6
Continuous
 62
     3
100
AcDbLine
 10
-303.7022304427503
 20
-62.25506400453941
 30
0.0
 11
-305.5022304427502
 21
-62.25506400453941
 31
0.0
  0
LINE
  5
585
330
1E
100
AcDbEntity
  8
0
  6
Continuous
 62
     3
100
AcDbLine
 10
-303.7022304427503
 20
-60.45506400453939
 30
0.0
 11
-305.5022304427502
 21
-60.45506400453939
 31
0.0
  0
LINE
  5
586
330
1E
100
AcDbEntity
  8
0
  6
Continuous
 62
     3
100
AcDbLine
 10
-305.5022304427502
 20
-58.7550640045394
 30
0.0
 11
-303.7022304427503
 21
-58.7550640045394
 31
0.0
  0
LINE
  5
587
330
1E
100
AcDbEntity
  8
0
  6
Continuous
 62
     3
100
AcDbLine
 10
-305.5022304427502
 20
-55.25506400453941
 30
0.0
 11
-303.7022304427503
 21
-55.25506400453941
 31
0.0
  0
LINE
  5
588
330
1E
100
AcDbEntity
  8
0
  6
Continuous
 62
     3
100
AcDbLine
 10
-303.7022304427503
 20
-56.9550640045394
 30
0.0
 11
-305.5022304427502
 21
-56.9550640045394
 31
0.0
  0
LINE
  5
589
330
1E
100
AcDbEntity
  8
0
  6
Continuous
 62
     3
100
AcDbLine
 10
-305.5022304427502
 20
-51.7550640045394
 30
0.0
 11
-303.7022304427503
 21
-51.7550640045394
 31
0.0
  0
LINE
  5
58A
330
1E
100
AcDbEntity
  8
0
  6
Continuous
 62
     3
100
AcDbLine
 10
-303.7022304427503
 20
-53.45506400453939
 30
0.0
 11
-305.5022304427502
 21
-53.45506400453939
 31
0.0
  0
LINE
  5
58B
330
1E
100
AcDbEntity
  8
0
  6
Continuous
 62
     3
100
AcDbLine
 10
-305.5022304427502
 20
-48.2550640045394
 30
0.0
 11
-303.7022304427503
 21
-48.2550640045394
 31
0.0
  0
LINE
  5
58C
330
1E
100
AcDbEntity
  8
0
  6
Continuous
 62
     3
100
AcDbLine
 10
-303.7022304427503
 20
-49.9550640045394
 30
0.0
 11
-305.5022304427502
 21
-49.9550640045394
 31
0.0
  0
LINE
  5
58D
330
1E
100
AcDbEntity
  8
0
  6
Continuous
 62
     3
100
AcDbLine
 10
-305.5022304427502
 20
-84.95506400453939
 30
0.0
 11
-303.7022304427503
 21
-84.95506400453939
 31
0.0
  0
LINE
  5
58E
330
1E
100
AcDbEntity
  8
0
  6
Continuous
 62
     3
100
AcDbLine
 10
-303.7022304427503
 20
-83.2550640045394
 30
0.0
 11
-305.5022304427502
 21
-83.2550640045394
 31
0.0
  0
LINE
  5
58F
330
1E
100
AcDbEntity
  8
0
  6
Continuous
 62
     3
100
AcDbLine
 10
-305.5022304427502
 20
-81.45506400453939
 30
0.0
 11
-303.7022304427503
 21
-81.45506400453939
 31
0.0
  0
LINE
  5
590
330
1E
100
AcDbEntity
  8
0
  6
Continuous
 62
     3
100
AcDbLine
 10
-305.5022304427502
 20
-77.95506400453939
 30
0.0
 11
-303.7022304427503
 21
-77.95506400453939
 31
0.0
  0
LINE
  5
591
330
1E
100
AcDbEntity
  8
0
  6
Continuous
 62
     3
100
AcDbLine
 10
-303.7022304427503
 20
-79.75506400453941
 30
0.0
 11
-305.5022304427502
 21
-79.75506400453941
 31
0.0
  0
LINE
  5
592
330
1E
100
AcDbEntity
  8
0
  6
Continuous
 62
     3
100
AcDbLine
 10
-303.7022304427503
 20
-76.2550640045394
 30
0.0
 11
-305.5022304427502
 21
-76.2550640045394
 31
0.0
  0
LINE
  5
593
330
1E
100
AcDbEntity
  8
0
  6
Continuous
 62
     3
100
AcDbLine
 10
-303.7022304427503
 20
-84.95506400453939
 30
0.0
 11
-303.7022304427503
 21
-83.2550640045394
 31
0.0
  0
LINE
  5
594
330
1E
100
AcDbEntity
  8
0
  6
Continuous
 62
     3
100
AcDbLine
 10
-303.7022304427503
 20
-81.45506400453939
 30
0.0
 11
-303.7022304427503
 21
-79.75506400453941
 31
0.0
  0
LINE
  5
595
330
1E
100
AcDbEntity
  8
0
  6
Continuous
 62
     3
100
AcDbLine
 10
-303.7022304427503
 20
-67.4550640045394
 30
0.0
 11
-303.7022304427503
 21
-65.7550640045394
 31
0.0
  0
LINE
  5
596
330
1E
100
AcDbEntity
  8
0
  6
Continuous
 62
     3
100
AcDbLine
 10
-303.7022304427503
 20
-70.95506400453939
 30
0.0
 11
-303.7022304427503
 21
-69.2550640045394
 31
0.0
  0
LINE
  5
597
330
1E
100
AcDbEntity
  8
0
  6
Continuous
 62
     3
100
AcDbLine
 10
-303.7022304427503
 20
-74.4550640045394
 30
0.0
 11
-303.7022304427503
 21
-72.75506400453941
 31
0.0
  0
LINE
  5
598
330
1E
100
AcDbEntity
  8
0
  6
Continuous
 62
     3
100
AcDbLine
 10
-303.7022304427503
 20
-77.95506400453939
 30
0.0
 11
-303.7022304427503
 21
-76.2550640045394
 31
0.0
  0
LINE
  5
599
330
1E
100
AcDbEntity
  8
0
  6
Continuous
 62
     3
100
AcDbLine
 10
-303.7022304427503
 20
-63.95506400453939
 30
0.0
 11
-303.7022304427503
 21
-62.25506400453941
 31
0.0
  0
LINE
  5
59A
330
1E
100
AcDbEntity
  8
0
  6
Continuous
 62
     3
100
AcDbLine
 10
-303.7022304427503
 20
-58.7550640045394
 30
0.0
 11
-303.7022304427503
 21
-60.45506400453939
 31
0.0
  0
LINE
  5
59B
330
1E
100
AcDbEntity
  8
0
  6
Continuous
 62
     3
100
AcDbLine
 10
-303.7022304427503
 20
-55.25506400453941
 30
0.0
 11
-303.7022304427503
 21
-56.9550640045394
 31
0.0
  0
LINE
  5
59C
330
1E
100
AcDbEntity
  8
0
  6
Continuous
 62
     3
100
AcDbLine
 10
-303.7022304427503
 20
-51.7550640045394
 30
0.0
 11
-303.7022304427503
 21
-53.45506400453939
 31
0.0
  0
LINE
  5
59D
330
1E
100
AcDbEntity
  8
0
  6
Continuous
 62
     3
100
AcDbLine
 10
-303.7022304427503
 20
-48.2550640045394
 30
0.0
 11
-303.7022304427503
 21
-49.9550640045394
 31
0.0
  0
LINE
  5
59E
330
1E
100
AcDbEntity
  8
0
  6
Continuous
 62
     3
100
AcDbLine
 10
-305.5022304427502
 20
-44.7550640045394
 30
0.0
 11
-303.7022304427503
 21
-44.7550640045394
 31
0.0
  0
LINE
  5
59F
330
1E
100
AcDbEntity
  8
0
  6
Continuous
 62
     3
100
AcDbLine
 10
-303.7022304427503
 20
-46.45506400453939
 30
0.0
 11
-305.5022304427502
 21
-46.45506400453939
 31
0.0
  0
LINE
  5
5A0
330
1E
100
AcDbEntity
  8
0
  6
Continuous
 62
     3
100
AcDbLine
 10
-305.5022304427502
 20
-41.2550640045394
 30
0.0
 11
-303.7022304427503
 21
-41.2550640045394
 31
0.0
  0
LINE
  5
5A1
330
1E
100
AcDbEntity
  8
0
  6
Continuous
 62
     3
100
AcDbLine
 10
-303.7022304427503
 20
-42.95506400453939
 30
0.0
 11
-305.5022304427502
 21
-42.95506400453939
 31
0.0
  0
LINE
  5
5A2
330
1E
100
AcDbEntity
  8
0
  6
Continuous
 62
     3
100
AcDbLine
 10
-303.7022304427503
 20
-44.7550640045394
 30
0.0
 11
-303.7022304427503
 21
-46.45506400453939
 31
0.0
  0
LINE
  5
5A3
330
1E
100
AcDbEntity
  8
0
  6
Continuous
 62
     3
100
AcDbLine
 10
-303.7022304427503
 20
-41.2550640045394
 30
0.0
 11
-303.7022304427503
 21
-42.95506400453939
 31
0.0
  0
LINE
  5
5A4
330
1E
100
AcDbEntity
  8
0
  6
Continuous
 62
     3
100
AcDbLine
 10
-302.8522304427502
 20
-41.45506400453939
 30
0.0
 11
-302.8522304427502
 21
-84.75506400453941
 31
0.0
  0
POINT
  5
5A5
330
1E
100
AcDbEntity
  8
0
  6
Continuous
 62
     3
100
AcDbPoint
 10
-315.6522304427502
 20
-43.05506400453942
 30
0.0
  0
LINE
  5
5A6
330
1E
100
AcDbEntity
  8
0
  6
Continuous
 62
     3
100
AcDbLine
 10
-315.6522304427502
 20
-43.05506400453942
 30
0.0
 11
-315.6522304427502
 21
-44.05506400453941
 31
0.0
  0
LINE
  5
5A7
330
1E
100
AcDbEntity
  8
0
  6
Continuous
 62
     3
100
AcDbLine
 10
-315.6522304427502
 20
-44.05506400453941
 30
0.0
 11
-310.6522304427502
 21
-44.05506400453941
 31
0.0
  0
LINE
  5
5A8
330
1E
100
AcDbEntity
  8
0
  6
Continuous
 62
     3
100
AcDbLine
 10
-310.6522304427502
 20
-44.05506400453941
 30
0.0
 11
-310.6522304427502
 21
-43.05506400453942
 31
0.0
  0
LINE
  5
5A9
330
1E
100
AcDbEntity
  8
0
  6
Continuous
 62
     3
100
AcDbLine
 10
-310.6522304427502
 20
-43.05506400453942
 30
0.0
 11
-309.6522304427502
 21
-43.05506400453942
 31
0.0
  0
POINT
  5
5AA
330
1E
100
AcDbEntity
  8
0
  6
Continuous
 62
     3
100
AcDbPoint
 10
-315.6522304427502
 20
-83.15506400453941
 30
0.0
  0
LINE
  5
5AB
330
1E
100
AcDbEntity
  8
0
  6
Continuous
 62
     3
100
AcDbLine
 10
-315.6522304427502
 20
-83.15506400453941
 30
0.0
 11
-315.6522304427502
 21
-82.15506400453941
 31
0.0
  0
LINE
  5
5AC
330
1E
100
AcDbEntity
  8
0
  6
Continuous
 62
     3
100
AcDbLine
 10
-315.6522304427502
 20
-82.15506400453941
 30
0.0
 11
-310.6522304427502
 21
-82.15506400453941
 31
0.0
  0
LINE
  5
5AD
330
1E
100
AcDbEntity
  8
0
  6
Continuous
 62
     3
100
AcDbLine
 10
-310.6522304427502
 20
-82.15506400453941
 30
0.0
 11
-310.6522304427502
 21
-83.15506400453941
 31
0.0
  0
LINE
  5
5AE
330
1E
100
AcDbEntity
  8
0
  6
Continuous
 62
     3
100
AcDbLine
 10
-310.6522304427502
 20
-83.15506400453941
 30
0.0
 11
-309.6522304427502
 21
-83.15506400453941
 31
0.0
  0
LINE
  5
5AF
330
1E
100
AcDbEntity
  8
0
  6
Continuous
 62
     3
100
AcDbLine
 10
-316.6522304427502
 20
-83.15506400453941
 30
0.0
 11
-310.6522304427502
 21
-83.15506400453941
 31
0.0
  0
LINE
  5
5B0
330
1E
100
AcDbEntity
  8
0
  6
Continuous
 62
     3
100
AcDbLine
 10
-309.6522304427502
 20
-83.15506400453941
 30
0.0
 11
-309.6522304427502
 21
-81.55506400453942
 31
0.0
  0
LINE
  5
5B1
330
1E
100
AcDbEntity
  8
0
  6
Continuous
 62
     3
100
AcDbLine
 10
-317.1522304427502
 20
-53.0050640045394
 30
0.0
 11
-317.6522304427502
 21
-53.0050640045394
 31
0.0
  0
LINE
  5
5B2
330
1E
100
AcDbEntity
  8
0
  6
Continuous
 62
     3
100
AcDbLine
 10
-316.6022304427503
 20
-44.9550640045394
 30
0.0
 11
-307.3022304427502
 21
-44.9550640045394
 31
0.0
  0
LINE
  5
5B3
330
1E
100
AcDbEntity
  8
0
  6
Continuous
 62
     3
100
AcDbLine
 10
-307.3022304427502
 20
-44.9550640045394
 30
0.0
 11
-307.3022304427502
 21
-81.25506400453941
 31
0.0
  0
LINE
  5
5B4
330
1E
100
AcDbEntity
  8
0
  6
Continuous
 62
     3
100
AcDbLine
 10
-307.3022304427502
 20
-81.25506400453941
 30
0.0
 11
-316.6022304427503
 21
-81.25506400453941
 31
0.0
  0
LINE
  5
5B5
330
1E
100
AcDbEntity
  8
0
  6
Continuous
 62
     3
100
AcDbLine
 10
-316.6022304427503
 20
-44.9550640045394
 30
0.0
 11
-317.2022304427503
 21
-44.9550640045394
 31
0.0
  0
LINE
  5
5B6
330
1E
100
AcDbEntity
  8
0
  6
Continuous
 62
     3
100
AcDbLine
 10
-307.3022304427502
 20
-44.9550640045394
 30
0.0
 11
-308.5022304427502
 21
-44.9550640045394
 31
0.0
  0
LINE
  5
5B7
330
1E
100
AcDbEntity
  8
0
  6
Continuous
 62
     3
100
AcDbLine
 10
-317.2022304427503
 20
-44.9550640045394
 30
0.0
 11
-317.2022304427503
 21
-63.8550640045394
 31
0.0
  0
LINE
  5
5B8
330
1E
100
AcDbEntity
  8
0
  6
Continuous
 62
     3
100
AcDbLine
 10
-317.2022304427503
 20
-79.75506400453941
 30
0.0
 11
-317.2022304427503
 21
-81.25506400453941
 31
0.0
  0
LINE
  5
5B9
330
1E
100
AcDbEntity
  8
0
  6
Continuous
 62
     3
100
AcDbLine
 10
-317.2022304427503
 20
-71.05506400453942
 30
0.0
 11
-317.2022304427503
 21
-72.55506400453942
 31
0.0
  0
LINE
  5
5BA
330
1E
100
AcDbEntity
  8
0
  6
Continuous
 62
     3
100
AcDbLine
 10
-317.2022304427503
 20
-81.25506400453941
 30
0.0
 11
-316.6022304427503
 21
-81.25506400453941
 31
0.0
  0
LINE
  5
5BB
330
1E
100
AcDbEntity
  8
0
  6
Continuous
 62
     3
100
AcDbLine
 10
-308.8022304427502
 20
-50.05506400453942
 30
0.0
 11
-308.8022304427502
 21
-47.05506400453941
 31
0.0
  0
LINE
  5
5BC
330
1E
100
AcDbEntity
  8
0
  6
Continuous
 62
     3
100
AcDbLine
 10
-308.8022304427502
 20
-53.05506400453942
 30
0.0
 11
-308.8022304427502
 21
-49.55506400453941
 31
0.0
  0
CIRCLE
  5
5BD
330
1E
100
AcDbEntity
  8
0
  6
Continuous
 62
     3
100
AcDbCircle
 10
-311.8022304427502
 20
-50.05506400453942
 30
0.0
 40
2.9
  0
LINE
  5
5BE
330
1E
100
AcDbEntity
  8
0
  6
Continuous
 62
     3
100
AcDbLine
 10
-316.6022304427503
 20
-44.9550640045394
 30
0.0
 11
-316.6022304427503
 21
-81.25506400453941
 31
0.0
  0
LINE
  5
5BF
330
1E
100
AcDbEntity
  8
0
  6
Continuous
 62
     3
100
AcDbLine
 10
-307.3022304427502
 20
-44.9550640045394
 30
0.0
 11
-308.3022304427502
 21
-44.9550640045394
 31
0.0
  0
LINE
  5
5C0
330
1E
100
AcDbEntity
  8
0
  6
Continuous
 62
     3
100
AcDbLine
 10
-317.2022304427503
 20
-53.65506400453941
 30
0.0
 11
-308.3022304427502
 21
-53.65506400453941
 31
0.0
  0
LINE
  5
5C1
330
1E
100
AcDbEntity
  8
0
  6
Continuous
 62
     3
100
AcDbLine
 10
-317.2022304427503
 20
-55.15506400453941
 30
0.0
 11
-308.3022304427502
 21
-55.15506400453941
 31
0.0
  0
LINE
  5
5C2
330
1E
100
AcDbEntity
  8
0
  6
Continuous
 62
     3
100
AcDbLine
 10
-317.2022304427503
 20
-62.3550640045394
 30
0.0
 11
-308.3022304427502
 21
-62.3550640045394
 31
0.0
  0
LINE
  5
5C3
330
1E
100
AcDbEntity
  8
0
  6
Continuous
 62
     3
100
AcDbLine
 10
-317.2022304427503
 20
-63.8550640045394
 30
0.0
 11
-308.3022304427502
 21
-63.8550640045394
 31
0.0
  0
LINE
  5
5C4
330
1E
100
AcDbEntity
  8
0
  6
Continuous
 62
     3
100
AcDbLine
 10
-317.2022304427503
 20
-71.05506400453942
 30
0.0
 11
-308.3022304427502
 21
-71.05506400453942
 31
0.0
  0
LINE
  5
5C5
330
1E
100
AcDbEntity
  8
0
  6
Continuous
 62
     3
100
AcDbLine
 10
-317.2022304427503
 20
-72.55506400453942
 30
0.0
 11
-308.3022304427502
 21
-72.55506400453942
 31
0.0
  0
LINE
  5
5C6
330
1E
100
AcDbEntity
  8
0
  6
Continuous
 62
     3
100
AcDbLine
 10
-317.2022304427503
 20
-79.75506400453941
 30
0.0
 11
-308.3022304427502
 21
-79.75506400453941
 31
0.0
  0
LINE
  5
5C7
330
1E
100
AcDbEntity
  8
0
  6
Continuous
 62
     3
100
AcDbLine
 10
-308.8022304427502
 20
-47.05506400453941
 30
0.0
 11
-315.3022304427502
 21
-47.05506400453941
 31
0.0
  0
LINE
  5
5C8
330
1E
100
AcDbEntity
  8
0
  6
Continuous
 62
     3
100
AcDbLine
 10
-315.3022304427502
 20
-53.05506400453942
 30
0.0
 11
-308.8022304427502
 21
-53.05506400453942
 31
0.0
  0
LINE
  5
5C9
330
1E
100
AcDbEntity
  8
0
  6
Continuous
 62
     3
100
AcDbLine
 10
-315.3022304427502
 20
-47.05506400453941
 30
0.0
 11
-315.3022304427502
 21
-53.05506400453942
 31
0.0
  0
LINE
  5
5CA
330
1E
100
AcDbEntity
  8
0
  6
Continuous
 62
     3
100
AcDbLine
 10
-317.2022304427503
 20
-46.45506400453939
 30
0.0
 11
-308.3022304427502
 21
-46.45506400453939
 31
0.0
  0
LINE
  5
5CB
330
1E
100
AcDbEntity
  8
0
  6
Continuous
 62
     3
100
AcDbLine
 10
-308.3022304427502
 20
-46.45506400453939
 30
0.0
 11
-308.3022304427502
 21
-79.75506400453941
 31
0.0
  0
CIRCLE
  5
5CC
330
1E
100
AcDbEntity
  8
0
  6
Continuous
 62
     3
100
AcDbCircle
 10
-311.8022304427502
 20
-50.05506400453942
 30
0.0
 40
2.9
  0
LINE
  5
5CD
330
1E
100
AcDbEntity
  8
0
  6
Continuous
 62
     3
100
AcDbLine
 10
-311.0951236617502
 20
-50.05506400453942
 30
0.0
 11
-310.0344634897502
 21
-48.9944038325394
 31
0.0
  0
LINE
  5
5CE
330
1E
100
AcDbEntity
  8
0
  6
Continuous
 62
     3
100
AcDbLine
 10
-310.0344634897502
 20
-48.9944038325394
 30
0.0
 11
-310.7415702717502
 21
-48.28729705153941
 31
0.0
  0
LINE
  5
5CF
330
1E
100
AcDbEntity
  8
0
  6
Continuous
 62
     3
100
AcDbLine
 10
-310.7415702717502
 20
-48.28729705153941
 30
0.0
 11
-311.8022304427502
 21
-49.34795722353943
 31
0.0
  0
LINE
  5
5D0
330
1E
100
AcDbEntity
  8
0
  6
Continuous
 62
     3
100
AcDbLine
 10
-312.5093372247503
 20
-50.05506400453942
 30
0.0
 11
-313.5699973957502
 21
-51.1157241765394
 31
0.0
  0
LINE
  5
5D1
330
1E
100
AcDbEntity
  8
0
  6
Continuous
 62
     3
100
AcDbLine
 10
-313.5699973957502
 20
-51.1157241765394
 30
0.0
 11
-312.8628906147503
 21
-51.82283095753939
 31
0.0
  0
LINE
  5
5D2
330
1E
100
AcDbEntity
  8
0
  6
Continuous
 62
     3
100
AcDbLine
 10
-312.8628906147503
 20
-51.82283095753939
 30
0.0
 11
-311.8022304427502
 21
-50.76217078553938
 31
0.0
  0
LINE
  5
5D3
330
1E
100
AcDbEntity
  8
0
  6
Continuous
 62
     3
100
AcDbLine
 10
-311.8022304427502
 20
-49.34795722353943
 30
0.0
 11
-313.4285760397502
 21
-47.72161162653941
 31
0.0
  0
LINE
  5
5D4
330
1E
100
AcDbEntity
  8
0
  6
Continuous
 62
     3
100
AcDbLine
 10
-309.4687780657502
 20
-51.68140960153943
 30
0.0
 11
-311.0951236617502
 21
-50.05506400453942
 31
0.0
  0
LINE
  5
5D5
330
1E
100
AcDbEntity
  8
0
  6
Continuous
 62
     3
100
AcDbLine
 10
-311.8022304427502
 20
-50.76217078553938
 30
0.0
 11
-310.1758848467502
 21
-52.38851638253939
 31
0.0
  0
LINE
  5
5D6
330
1E
100
AcDbEntity
  8
0
  6
Continuous
 62
     3
100
AcDbLine
 10
-314.1356828207502
 20
-48.4287184075394
 30
0.0
 11
-312.5093372247503
 21
-50.05506400453942
 31
0.0
  0
LINE
  5
5D7
330
1E
100
AcDbEntity
  8
0
  6
Continuous
 62
     3
100
AcDbLine
 10
-313.5699973957502
 20
-48.9944038325394
 30
0.0
 11
-312.8628906147503
 21
-48.28729705153941
 31
0.0
  0
LINE
  5
5D8
330
1E
100
AcDbEntity
  8
0
  6
Continuous
 62
     3
100
AcDbLine
 10
-310.0344634897502
 20
-51.1157241765394
 30
0.0
 11
-310.7415702717502
 21
-51.82283095753939
 31
0.0
  0
LINE
  5
5D9
330
1E
100
AcDbEntity
  8
0
  6
Continuous
 62
     3
100
AcDbLine
 10
-308.8022304427502
 20
-58.7550640045394
 30
0.0
 11
-308.8022304427502
 21
-55.7550640045394
 31
0.0
  0
LINE
  5
5DA
330
1E
100
AcDbEntity
  8
0
  6
Continuous
 62
     3
100
AcDbLine
 10
-308.8022304427502
 20
-61.7550640045394
 30
0.0
 11
-308.8022304427502
 21
-58.2550640045394
 31
0.0
  0
CIRCLE
  5
5DB
330
1E
100
AcDbEntity
  8
0
  6
Continuous
 62
     3
100
AcDbCircle
 10
-311.8022304427502
 20
-58.7550640045394
 30
0.0
 40
2.9
  0
LINE
  5
5DC
330
1E
100
AcDbEntity
  8
0
  6
Continuous
 62
     3
100
AcDbLine
 10
-308.8022304427502
 20
-55.7550640045394
 30
0.0
 11
-315.3022304427502
 21
-55.7550640045394
 31
0.0
  0
LINE
  5
5DD
330
1E
100
AcDbEntity
  8
0
  6
Continuous
 62
     3
100
AcDbLine
 10
-315.3022304427502
 20
-61.7550640045394
 30
0.0
 11
-308.8022304427502
 21
-61.7550640045394
 31
0.0
  0
LINE
  5
5DE
330
1E
100
AcDbEntity
  8
0
  6
Continuous
 62
     3
100
AcDbLine
 10
-315.3022304427502
 20
-55.7550640045394
 30
0.0
 11
-315.3022304427502
 21
-61.7550640045394
 31
0.0
  0
CIRCLE
  5
5DF
330
1E
100
AcDbEntity
  8
0
  6
Continuous
 62
     3
100
AcDbCircle
 10
-311.8022304427502
 20
-58.7550640045394
 30
0.0
 40
2.9
  0
LINE
  5
5E0
330
1E
100
AcDbEntity
  8
0
  6
Continuous
 62
     3
100
AcDbLine
 10
-311.0951236617502
 20
-58.7550640045394
 30
0.0
 11
-310.0344634897502
 21
-57.6944038325394
 31
0.0
  0
LINE
  5
5E1
330
1E
100
AcDbEntity
  8
0
  6
Continuous
 62
     3
100
AcDbLine
 10
-310.0344634897502
 20
-57.6944038325394
 30
0.0
 11
-310.7415702717502
 21
-56.9872970515394
 31
0.0
  0
LINE
  5
5E2
330
1E
100
AcDbEntity
  8
0
  6
Continuous
 62
     3
100
AcDbLine
 10
-310.7415702717502
 20
-56.9872970515394
 30
0.0
 11
-311.8022304427502
 21
-58.04795722353941
 31
0.0
  0
LINE
  5
5E3
330
1E
100
AcDbEntity
  8
0
  6
Continuous
 62
     3
100
AcDbLine
 10
-312.5093372247503
 20
-58.7550640045394
 30
0.0
 11
-313.5699973957502
 21
-59.81572417653942
 31
0.0
  0
LINE
  5
5E4
330
1E
100
AcDbEntity
  8
0
  6
Continuous
 62
     3
100
AcDbLine
 10
-313.5699973957502
 20
-59.81572417653942
 30
0.0
 11
-312.8628906147503
 21
-60.52283095753941
 31
0.0
  0
LINE
  5
5E5
330
1E
100
AcDbEntity
  8
0
  6
Continuous
 62
     3
100
AcDbLine
 10
-312.8628906147503
 20
-60.52283095753941
 30
0.0
 11
-311.8022304427502
 21
-59.4621707855394
 31
0.0
  0
LINE
  5
5E6
330
1E
100
AcDbEntity
  8
0
  6
Continuous
 62
     3
100
AcDbLine
 10
-311.8022304427502
 20
-58.04795722353941
 30
0.0
 11
-313.4285760397502
 21
-56.4216116265394
 31
0.0
  0
LINE
  5
5E7
330
1E
100
AcDbEntity
  8
0
  6
Continuous
 62
     3
100
AcDbLine
 10
-309.4687780657502
 20
-60.38140960153942
 30
0.0
 11
-311.0951236617502
 21
-58.7550640045394
 31
0.0
  0
LINE
  5
5E8
330
1E
100
AcDbEntity
  8
0
  6
Continuous
 62
     3
100
AcDbLine
 10
-311.8022304427502
 20
-59.4621707855394
 30
0.0
 11
-310.1758848467502
 21
-61.08851638253941
 31
0.0
  0
LINE
  5
5E9
330
1E
100
AcDbEntity
  8
0
  6
Continuous
 62
     3
100
AcDbLine
 10
-314.1356828207502
 20
-57.1287184075394
 30
0.0
 11
-312.5093372247503
 21
-58.7550640045394
 31
0.0
  0
LINE
  5
5EA
330
1E
100
AcDbEntity
  8
0
  6
Continuous
 62
     3
100
AcDbLine
 10
-313.5699973957502
 20
-57.6944038325394
 30
0.0
 11
-312.8628906147503
 21
-56.9872970515394
 31
0.0
  0
LINE
  5
5EB
330
1E
100
AcDbEntity
  8
0
  6
Continuous
 62
     3
100
AcDbLine
 10
-310.0344634897502
 20
-59.81572417653942
 30
0.0
 11
-310.7415702717502
 21
-60.52283095753941
 31
0.0
  0
LINE
  5
5EC
330
1E
100
AcDbEntity
  8
0
  6
Continuous
 62
     3
100
AcDbLine
 10
-308.8022304427502
 20
-67.4550640045394
 30
0.0
 11
-308.8022304427502
 21
-64.4550640045394
 31
0.0
  0
LINE
  5
5ED
330
1E
100
AcDbEntity
  8
0
  6
Continuous
 62
     3
100
AcDbLine
 10
-308.8022304427502
 20
-70.45506400453939
 30
0.0
 11
-308.8022304427502
 21
-66.9550640045394
 31
0.0
  0
CIRCLE
  5
5EE
330
1E
100
AcDbEntity
  8
0
  6
Continuous
 62
     3
100
AcDbCircle
 10
-311.8022304427502
 20
-67.4550640045394
 30
0.0
 40
2.9
  0
LINE
  5
5EF
330
1E
100
AcDbEntity
  8
0
  6
Continuous
 62
     3
100
AcDbLine
 10
-308.8022304427502
 20
-64.4550640045394
 30
0.0
 11
-315.3022304427502
 21
-64.4550640045394
 31
0.0
  0
LINE
  5
5F0
330
1E
100
AcDbEntity
  8
0
  6
Continuous
 62
     3
100
AcDbLine
 10
-315.3022304427502
 20
-70.45506400453939
 30
0.0
 11
-308.8022304427502
 21
-70.45506400453939
 31
0.0
  0
LINE
  5
5F1
330
1E
100
AcDbEntity
  8
0
  6
Continuous
 62
     3
100
AcDbLine
 10
-315.3022304427502
 20
-64.4550640045394
 30
0.0
 11
-315.3022304427502
 21
-70.45506400453939
 31
0.0
  0
CIRCLE
  5
5F2
330
1E
100
AcDbEntity
  8
0
  6
Continuous
 62
     3
100
AcDbCircle
 10
-311.8022304427502
 20
-67.4550640045394
 30
0.0
 40
2.9
  0
LINE
  5
5F3
330
1E
100
AcDbEntity
  8
0
  6
Continuous
 62
     3
100
AcDbLine
 10
-311.0951236617502
 20
-67.4550640045394
 30
0.0
 11
-310.0344634897502
 21
-66.39440383253941
 31
0.0
  0
LINE
  5
5F4
330
1E
100
AcDbEntity
  8
0
  6
Continuous
 62
     3
100
AcDbLine
 10
-310.0344634897502
 20
-66.39440383253941
 30
0.0
 11
-310.7415702717502
 21
-65.68729705153941
 31
0.0
  0
LINE
  5
5F5
330
1E
100
AcDbEntity
  8
0
  6
Continuous
 62
     3
100
AcDbLine
 10
-310.7415702717502
 20
-65.68729705153941
 30
0.0
 11
-311.8022304427502
 21
-66.74795722353943
 31
0.0
  0
LINE
  5
5F6
330
1E
100
AcDbEntity
  8
0
  6
Continuous
 62
     3
100
AcDbLine
 10
-312.5093372247503
 20
-67.4550640045394
 30
0.0
 11
-313.5699973957502
 21
-68.5157241765394
 31
0.0
  0
LINE
  5
5F7
330
1E
100
AcDbEntity
  8
0
  6
Continuous
 62
     3
100
AcDbLine
 10
-313.5699973957502
 20
-68.5157241765394
 30
0.0
 11
-312.8628906147503
 21
-69.2228309575394
 31
0.0
  0
LINE
  5
5F8
330
1E
100
AcDbEntity
  8
0
  6
Continuous
 62
     3
100
AcDbLine
 10
-312.8628906147503
 20
-69.2228309575394
 30
0.0
 11
-311.8022304427502
 21
-68.16217078553939
 31
0.0
  0
LINE
  5
5F9
330
1E
100
AcDbEntity
  8
0
  6
Continuous
 62
     3
100
AcDbLine
 10
-311.8022304427502
 20
-66.74795722353943
 30
0.0
 11
-313.4285760397502
 21
-65.12161162653942
 31
0.0
  0
LINE
  5
5FA
330
1E
100
AcDbEntity
  8
0
  6
Continuous
 62
     3
100
AcDbLine
 10
-309.4687780657502
 20
-69.0814096015394
 30
0.0
 11
-311.0951236617502
 21
-67.4550640045394
 31
0.0
  0
LINE
  5
5FB
330
1E
100
AcDbEntity
  8
0
  6
Continuous
 62
     3
100
AcDbLine
 10
-311.8022304427502
 20
-68.16217078553939
 30
0.0
 11
-310.1758848467502
 21
-69.7885163825394
 31
0.0
  0
LINE
  5
5FC
330
1E
100
AcDbEntity
  8
0
  6
Continuous
 62
     3
100
AcDbLine
 10
-314.1356828207502
 20
-65.82871840753941
 30
0.0
 11
-312.5093372247503
 21
-67.4550640045394
 31
0.0
  0
LINE
  5
5FD
330
1E
100
AcDbEntity
  8
0
  6
Continuous
 62
     3
100
AcDbLine
 10
-313.5699973957502
 20
-66.39440383253941
 30
0.0
 11
-312.8628906147503
 21
-65.68729705153941
 31
0.0
  0
LINE
  5
5FE
330
1E
100
AcDbEntity
  8
0
  6
Continuous
 62
     3
100
AcDbLine
 10
-310.0344634897502
 20
-68.5157241765394
 30
0.0
 11
-310.7415702717502
 21
-69.2228309575394
 31
0.0
  0
LINE
  5
5FF
330
1E
100
AcDbEntity
  8
0
  6
Continuous
 62
     3
100
AcDbLine
 10
-308.8022304427502
 20
-76.15506400453941
 30
0.0
 11
-308.8022304427502
 21
-73.15506400453941
 31
0.0
  0
LINE
  5
600
330
1E
100
AcDbEntity
  8
0
  6
Continuous
 62
     3
100
AcDbLine
 10
-308.8022304427502
 20
-79.15506400453941
 30
0.0
 11
-308.8022304427502
 21
-75.65506400453941
 31
0.0
  0
CIRCLE
  5
601
330
1E
100
AcDbEntity
  8
0
  6
Continuous
 62
     3
100
AcDbCircle
 10
-311.8022304427502
 20
-76.15506400453941
 30
0.0
 40
2.9
  0
LINE
  5
602
330
1E
100
AcDbEntity
  8
0
  6
Continuous
 62
     3
100
AcDbLine
 10
-308.8022304427502
 20
-73.15506400453941
 30
0.0
 11
-315.3022304427502
 21
-73.15506400453941
 31
0.0
  0
LINE
  5
603
330
1E
100
AcDbEntity
  8
0
  6
Continuous
 62
     3
100
AcDbLine
 10
-315.3022304427502
 20
-79.15506400453941
 30
0.0
 11
-308.8022304427502
 21
-79.15506400453941
 31
0.0
  0
LINE
  5
604
330
1E
100
AcDbEntity
  8
0
  6
Continuous
 62
     3
100
AcDbLine
 10
-315.3022304427502
 20
-73.15506400453941
 30
0.0
 11
-315.3022304427502
 21
-79.15506400453941
 31
0.0
  0
CIRCLE
  5
605
330
1E
100
AcDbEntity
  8
0
  6
Continuous
 62
     3
100
AcDbCircle
 10
-311.8022304427502
 20
-76.15506400453941
 30
0.0
 40
2.9
  0
LINE
  5
606
330
1E
100
AcDbEntity
  8
0
  6
Continuous
 62
     3
100
AcDbLine
 10
-311.0951236617502
 20
-76.15506400453941
 30
0.0
 11
-310.0344634897502
 21
-75.0944038325394
 31
0.0
  0
LINE
  5
607
330
1E
100
AcDbEntity
  8
0
  6
Continuous
 62
     3
100
AcDbLine
 10
-310.0344634897502
 20
-75.0944038325394
 30
0.0
 11
-310.7415702717502
 21
-74.3872970515394
 31
0.0
  0
LINE
  5
608
330
1E
100
AcDbEntity
  8
0
  6
Continuous
 62
     3
100
AcDbLine
 10
-310.7415702717502
 20
-74.3872970515394
 30
0.0
 11
-311.8022304427502
 21
-75.44795722353942
 31
0.0
  0
LINE
  5
609
330
1E
100
AcDbEntity
  8
0
  6
Continuous
 62
     3
100
AcDbLine
 10
-312.5093372247503
 20
-76.15506400453941
 30
0.0
 11
-313.5699973957502
 21
-77.21572417653942
 31
0.0
  0
LINE
  5
60A
330
1E
100
AcDbEntity
  8
0
  6
Continuous
 62
     3
100
AcDbLine
 10
-313.5699973957502
 20
-77.21572417653942
 30
0.0
 11
-312.8628906147503
 21
-77.92283095753939
 31
0.0
  0
LINE
  5
60B
330
1E
100
AcDbEntity
  8
0
  6
Continuous
 62
     3
100
AcDbLine
 10
-312.8628906147503
 20
-77.92283095753939
 30
0.0
 11
-311.8022304427502
 21
-76.86217078553941
 31
0.0
  0
LINE
  5
60C
330
1E
100
AcDbEntity
  8
0
  6
Continuous
 62
     3
100
AcDbLine
 10
-311.8022304427502
 20
-75.44795722353942
 30
0.0
 11
-313.4285760397502
 21
-73.8216116265394
 31
0.0
  0
LINE
  5
60D
330
1E
100
AcDbEntity
  8
0
  6
Continuous
 62
     3
100
AcDbLine
 10
-309.4687780657502
 20
-77.78140960153942
 30
0.0
 11
-311.0951236617502
 21
-76.15506400453941
 31
0.0
  0
LINE
  5
60E
330
1E
100
AcDbEntity
  8
0
  6
Continuous
 62
     3
100
AcDbLine
 10
-311.8022304427502
 20
-76.86217078553941
 30
0.0
 11
-310.1758848467502
 21
-78.48851638253939
 31
0.0
  0
LINE
  5
60F
330
1E
100
AcDbEntity
  8
0
  6
Continuous
 62
     3
100
AcDbLine
 10
-314.1356828207502
 20
-74.5287184075394
 30
0.0
 11
-312.5093372247503
 21
-76.15506400453941
 31
0.0
  0
LINE
  5
610
330
1E
100
AcDbEntity
  8
0
  6
Continuous
 62
     3
100
AcDbLine
 10
-313.5699973957502
 20
-75.0944038325394
 30
0.0
 11
-312.8628906147503
 21
-74.3872970515394
 31
0.0
  0
LINE
  5
611
330
1E
100
AcDbEntity
  8
0
  6
Continuous
 62
     3
100
AcDbLine
 10
-310.0344634897502
 20
-77.21572417653942
 30
0.0
 11
-310.7415702717502
 21
-77.92283095753939
 31
0.0
  0
LINE
  5
612
330
1E
100
AcDbEntity
  8
0
  6
LTYPE1
 62
     3
100
AcDbLine
 10
-307.8022304427502
 20
-44.9550640045394
 30
0.0
 11
-307.8022304427502
 21
-81.25506400453941
 31
0.0
  0
LINE
  5
613
330
1E
100
AcDbEntity
  8
0
  6
LTYPE1
 62
     3
100
AcDbLine
 10
-316.6022304427503
 20
-81.25506400453941
 30
0.0
 11
-317.6022304427502
 21
-81.25506400453941
 31
0.0
  0
LINE
  5
614
330
1E
100
AcDbEntity
  8
0
  6
LTYPE1
 62
     3
100
AcDbLine
 10
-317.6022304427502
 20
-81.25506400453941
 30
0.0
 11
-317.6022304427502
 21
-44.9550640045394
 31
0.0
  0
LINE
  5
615
330
1E
100
AcDbEntity
  8
0
  6
LTYPE1
 62
     3
100
AcDbLine
 10
-317.6022304427502
 20
-44.9550640045394
 30
0.0
 11
-307.8022304427502
 21
-44.9550640045394
 31
0.0
  0
LINE
  5
616
330
1E
100
AcDbEntity
  8
0
  6
Continuous
 62
     1
100
AcDbLine
 10
-305.2022304427503
 20
-87.1050640045394
 30
0.0
 11
-318.9922304427502
 21
-87.1050640045394
 31
0.0
  0
LINE
  5
617
330
1E
100
AcDbEntity
  8
0
  6
Continuous
 62
     1
100
AcDbLine
 10
-305.5022304427502
 20
-86.10506400453941
 30
0.0
 11
-305.5022304427502
 21
-40.10506400453943
 31
0.0
  0
ARC
  5
618
330
1E
100
AcDbEntity
  8
0
  6
Continuous
 62
     1
100
AcDbCircle
 10
-304.5022304427502
 20
-86.10506400453941
 30
0.0
 40
1.0
100
AcDbArc
 50
180.0
 51
270.0
  0
ARC
  5
619
330
1E
100
AcDbEntity
  8
0
  6
Continuous
 62
     1
100
AcDbCircle
 10
-318.9922304427502
 20
-86.10506400453941
 30
0.0
 40
1.0
100
AcDbArc
 50
180.0
 51
270.0
  0
LINE
  5
61A
330
1E
100
AcDbEntity
  8
0
  6
Continuous
 62
     1
100
AcDbLine
 10
-318.9922304427502
 20
-39.10506400453943
 30
0.0
 11
-305.1022304427502
 21
-39.10506400453943
 31
0.0
  0
ARC
  5
61B
330
1E
100
AcDbEntity
  8
0
  6
Continuous
 62
     1
100
AcDbCircle
 10
-318.9922304427502
 20
-40.10506400453943
 30
0.0
 40
1.0
100
AcDbArc
 50
90.0
 51
180.0
  0
ARC
  5
61C
330
1E
100
AcDbEntity
  8
0
  6
Continuous
 62
     1
100
AcDbCircle
 10
-304.5022304427502
 20
-40.10506400453943
 30
0.0
 40
1.0
100
AcDbArc
 50
90.0
 51
180.0
  0
LINE
  5
61D
330
1E
100
AcDbEntity
  8
0
  6
Continuous
 62
     1
100
AcDbLine
 10
-309.6522304427502
 20
-43.05506400453942
 30
0.0
 11
-305.5022304427502
 21
-43.05506400453942
 31
0.0
  0
LINE
  5
61E
330
1E
100
AcDbEntity
  8
0
  6
Continuous
 62
     1
100
AcDbLine
 10
-313.1522304427502
 20
-43.05506400453942
 30
0.0
 11
-309.6522304427502
 21
-43.05506400453942
 31
0.0
  0
LINE
  5
61F
330
1E
100
AcDbEntity
  8
0
  6
Continuous
 62
     1
100
AcDbLine
 10
-313.1522304427502
 20
-43.05506400453942
 30
0.0
 11
-316.6522304427502
 21
-43.05506400453942
 31
0.0
  0
LINE
  5
620
330
1E
100
AcDbEntity
  8
0
  6
Continuous
 62
     1
100
AcDbLine
 10
-316.6522304427502
 20
-43.05506400453942
 30
0.0
 11
-310.6522304427502
 21
-43.05506400453942
 31
0.0
  0
LINE
  5
621
330
1E
100
AcDbEntity
  8
0
  6
Continuous
 62
     1
100
AcDbLine
 10
-316.6522304427502
 20
-43.05506400453942
 30
0.0
 11
-318.1522304427502
 21
-43.05506400453942
 31
0.0
  0
ARC
  5
622
330
1E
100
AcDbEntity
  8
0
  6
Continuous
 62
     1
100
AcDbCircle
 10
-318.1522304427502
 20
-43.55506400453942
 30
0.0
 40
0.5
100
AcDbArc
 50
90.0
 51
180.0
  0
ARC
  5
623
330
1E
100
AcDbEntity
  8
0
  6
Continuous
 62
     1
100
AcDbCircle
 10
-318.1522304427502
 20
-82.65506400453942
 30
0.0
 40
0.5
100
AcDbArc
 50
180.0
 51
270.0
  0
LINE
  5
624
330
1E
100
AcDbEntity
  8
0
  6
Continuous
 62
     1
100
AcDbLine
 10
-318.1522304427502
 20
-83.15506400453941
 30
0.0
 11
-316.3332304427502
 21
-83.15506400453941
 31
0.0
  0
LINE
  5
625
330
1E
100
AcDbEntity
  8
0
  6
Continuous
 62
     1
100
AcDbLine
 10
-313.1522304427502
 20
-83.15506400453941
 30
0.0
 11
-316.6522304427502
 21
-83.15506400453941
 31
0.0
  0
LINE
  5
626
330
1E
100
AcDbEntity
  8
0
  6
Continuous
 62
     1
100
AcDbLine
 10
-313.1522304427502
 20
-83.15506400453941
 30
0.0
 11
-309.6522304427502
 21
-83.15506400453941
 31
0.0
  0
LINE
  5
627
330
1E
100
AcDbEntity
  8
0
  6
Continuous
 62
     1
100
AcDbLine
 10
-305.5022304427502
 20
-83.15506400453941
 30
0.0
 11
-309.6522304427502
 21
-83.15506400453941
 31
0.0
  0
LINE
  5
628
330
1E
100
AcDbEntity
  8
0
  6
Continuous
 62
     1
100
AcDbLine
 10
-309.6522304427502
 20
-83.15506400453941
 30
0.0
 11
-309.6522304427502
 21
-81.6550640045394
 31
0.0
  0
LINE
  5
629
330
1E
100
AcDbEntity
  8
0
  6
Continuous
 62
     1
100
AcDbLine
 10
-307.3022304427502
 20
-81.55506400453942
 30
0.0
 11
-309.6522304427502
 21
-81.55506400453942
 31
0.0
  0
LINE
  5
62A
330
1E
100
AcDbEntity
  8
0
  6
Continuous
 62
     1
100
AcDbLine
 10
-307.3022304427502
 20
-81.55506400453942
 30
0.0
 11
-307.3022304427502
 21
-44.65506400453941
 31
0.0
  0
LINE
  5
62B
330
1E
100
AcDbEntity
  8
0
  6
Continuous
 62
     1
100
AcDbLine
 10
-309.6522304427502
 20
-43.05506400453942
 30
0.0
 11
-309.6522304427502
 21
-44.55506400453941
 31
0.0
  0
LINE
  5
62C
330
1E
100
AcDbEntity
  8
0
  6
Continuous
 62
     1
100
AcDbLine
 10
-310.6522304427502
 20
-43.05506400453942
 30
0.0
 11
-310.6522304427502
 21
-44.05506400453941
 31
0.0
  0
LINE
  5
62D
330
1E
100
AcDbEntity
  8
0
  6
Continuous
 62
     1
100
AcDbLine
 10
-310.6522304427502
 20
-44.05506400453941
 30
0.0
 11
-313.1522304427502
 21
-44.05506400453941
 31
0.0
  0
LINE
  5
62E
330
1E
100
AcDbEntity
  8
0
  6
Continuous
 62
     1
100
AcDbLine
 10
-315.6522304427502
 20
-44.05506400453941
 30
0.0
 11
-313.1522304427502
 21
-44.05506400453941
 31
0.0
  0
LINE
  5
62F
330
1E
100
AcDbEntity
  8
0
  6
Continuous
 62
     1
100
AcDbLine
 10
-315.6522304427502
 20
-43.05506400453942
 30
0.0
 11
-315.6522304427502
 21
-44.05506400453941
 31
0.0
  0
LINE
  5
630
330
1E
100
AcDbEntity
  8
0
  6
Continuous
 62
     1
100
AcDbLine
 10
-307.3022304427502
 20
-44.65506400453941
 30
0.0
 11
-309.6522304427502
 21
-44.65506400453941
 31
0.0
  0
LINE
  5
631
330
1E
100
AcDbEntity
  8
0
  6
Continuous
 62
     1
100
AcDbLine
 10
-309.6522304427502
 20
-43.05506400453942
 30
0.0
 11
-309.6522304427502
 21
-44.65506400453941
 31
0.0
  0
LINE
  5
632
330
1E
100
AcDbEntity
  8
0
  6
Continuous
 62
     1
100
AcDbLine
 10
-310.6522304427502
 20
-83.15506400453941
 30
0.0
 11
-310.6522304427502
 21
-82.15506400453941
 31
0.0
  0
LINE
  5
633
330
1E
100
AcDbEntity
  8
0
  6
Continuous
 62
     1
100
AcDbLine
 10
-310.6522304427502
 20
-82.15506400453941
 30
0.0
 11
-313.1522304427502
 21
-82.15506400453941
 31
0.0
  0
LINE
  5
634
330
1E
100
AcDbEntity
  8
0
  6
Continuous
 62
     1
100
AcDbLine
 10
-315.6522304427502
 20
-82.15506400453941
 30
0.0
 11
-313.1522304427502
 21
-82.15506400453941
 31
0.0
  0
LINE
  5
635
330
1E
100
AcDbEntity
  8
0
  6
Continuous
 62
     1
100
AcDbLine
 10
-315.6522304427502
 20
-83.15506400453941
 30
0.0
 11
-315.6522304427502
 21
-82.15506400453941
 31
0.0
  0
LINE
  5
636
330
1E
100
AcDbEntity
  8
0
  6
Continuous
 62
     1
100
AcDbLine
 10
-317.1522304427502
 20
-51.2050640045394
 30
0.0
 11
-318.1522304427502
 21
-51.2050640045394
 31
0.0
  0
ARC
  5
637
330
1E
100
AcDbEntity
  8
0
  6
Continuous
 62
     1
100
AcDbCircle
 10
-318.1522304427502
 20
-50.7050640045394
 30
0.0
 40
0.5
100
AcDbArc
 50
180.0
 51
270.0
  0
LINE
  5
638
330
1E
100
AcDbEntity
  8
0
  6
Continuous
 62
     1
100
AcDbLine
 10
-317.1522304427502
 20
-53.0050640045394
 30
0.0
 11
-318.1522304427502
 21
-53.0050640045394
 31
0.0
  0
LINE
  5
639
330
1E
100
AcDbEntity
  8
0
  6
Continuous
 62
     1
100
AcDbLine
 10
-318.6522304427502
 20
-53.50506400453941
 30
0.0
 11
-318.6522304427502
 21
-63.1050640045394
 31
0.0
  0
ARC
  5
63A
330
1E
100
AcDbEntity
  8
0
  6
Continuous
 62
     1
100
AcDbCircle
 10
-318.1522304427502
 20
-53.50506400453941
 30
0.0
 40
0.5
100
AcDbArc
 50
90.0
 51
180.0
  0
LINE
  5
63B
330
1E
100
AcDbEntity
  8
0
  6
Continuous
 62
     1
100
AcDbLine
 10
-317.1522304427502
 20
-60.6050640045394
 30
0.0
 11
-318.6522304427502
 21
-60.6050640045394
 31
0.0
  0
LINE
  5
63C
330
1E
100
AcDbEntity
  8
0
  6
Continuous
 62
     3
100
AcDbLine
 10
-307.8022304427502
 20
-44.9550640045394
 30
0.0
 11
-307.8022304427502
 21
-45.70506400453939
 31
0.0
  0
LINE
  5
63D
330
1E
100
AcDbEntity
  8
0
  6
Continuous
 62
     3
100
AcDbLine
 10
-308.3022304427502
 20
-53.65506400453941
 30
0.0
 11
-308.3022304427502
 21
-54.40506400453941
 31
0.0
  0
LINE
  5
63E
330
1E
100
AcDbEntity
  8
0
  6
Continuous
 62
     3
100
AcDbLine
 10
-308.3022304427502
 20
-71.05506400453942
 30
0.0
 11
-308.3022304427502
 21
-71.80506400453942
 31
0.0
  0
LINE
  5
63F
330
1E
100
AcDbEntity
  8
0
  6
Continuous
 62
     3
100
AcDbLine
 10
-321.3022304447503
 20
-84.9050640055394
 30
0.0
 11
-321.3022304427502
 21
-65.00506400553939
 31
0.0
  0
LINE
  5
640
330
1E
100
AcDbEntity
  8
0
  6
Continuous
 62
     3
100
AcDbLine
 10
-321.3022304427502
 20
-69.20506400453939
 30
0.0
 11
-321.3022304427502
 21
-66.2050640045394
 31
0.0
  0
LINE
  5
641
330
1E
100
AcDbEntity
  8
0
  6
Continuous
 62
     3
100
AcDbLine
 10
-321.3022304427502
 20
-66.2050640045394
 30
0.0
 11
-318.3022304427503
 21
-64.20506400453939
 31
0.0
  0
LINE
  5
642
330
1E
100
AcDbEntity
  8
0
  6
Continuous
 62
     3
100
AcDbLine
 10
-318.3022304427503
 20
-70.7050640045394
 30
0.0
 11
-318.3022304427503
 21
-64.20506400453939
 31
0.0
  0
LINE
  5
643
330
1E
100
AcDbEntity
  8
0
  6
Continuous
 62
     3
100
AcDbLine
 10
-318.3022304427503
 20
-70.7050640045394
 30
0.0
 11
-321.3022304427502
 21
-69.20506400453939
 31
0.0
  0
LINE
  5
644
330
1E
100
AcDbEntity
  8
0
  6
Continuous
 62
     3
100
AcDbLine
 10
-316.3022304427502
 20
-70.7050640045394
 30
0.0
 11
-318.3022304427503
 21
-70.7050640045394
 31
0.0
  0
CIRCLE
  5
645
330
1E
100
AcDbEntity
  8
0
  6
Continuous
 62
     3
100
AcDbCircle
 10
-311.8022304427502
 20
-67.4550640045394
 30
0.0
 40
1.85
  0
LINE
  5
646
330
1E
100
AcDbEntity
  8
0
  6
Continuous
 62
     3
100
AcDbLine
 10
-308.3022304427502
 20
-65.20506495853942
 30
0.0
 11
-309.3022304427502
 21
-64.20506495853942
 31
0.0
  0
LINE
  5
647
330
1E
100
AcDbEntity
  8
0
  6
Continuous
 62
     3
100
AcDbLine
 10
-309.3022304427502
 20
-70.70506400553938
 30
0.0
 11
-308.3022304427502
 21
-69.70506400553938
 31
0.0
  0
LINE
  5
648
330
1E
100
AcDbEntity
  8
0
  6
Continuous
 62
     3
100
AcDbLine
 10
-318.3022304427503
 20
-64.20506400453939
 30
0.0
 11
-316.3022304427502
 21
-64.20506400453939
 31
0.0
  0
LINE
  5
649
330
1E
100
AcDbEntity
  8
0
  6
Continuous
 62
     3
100
AcDbLine
 10
-317.3022304427502
 20
-64.20506400453939
 30
0.0
 11
-309.3022304427502
 21
-64.20506400553938
 31
0.0
  0
LINE
  5
64A
330
1E
100
AcDbEntity
  8
0
  6
Continuous
 62
     3
100
AcDbLine
 10
-309.3022304427502
 20
-70.70506400553938
 30
0.0
 11
-317.3022304427502
 21
-70.7050640045394
 31
0.0
  0
LINE
  5
64B
330
1E
100
AcDbEntity
  8
0
  6
Continuous
 62
     3
100
AcDbLine
 10
-309.4522304437503
 20
-72.70506400553938
 30
0.0
 11
-310.3522304437502
 21
-72.70506400553938
 31
0.0
  0
LINE
  5
64C
330
1E
100
AcDbEntity
  8
0
  6
Continuous
 62
     3
100
AcDbLine
 10
-309.8522304437502
 20
-72.70506400553938
 30
0.0
 11
-310.3522304437502
 21
-72.70506400553938
 31
0.0
  0
LINE
  5
64D
330
1E
100
AcDbEntity
  8
0
  6
Continuous
 62
     3
100
AcDbLine
 10
-309.4522304447502
 20
-79.20506400553938
 30
0.0
 11
-308.3022304447503
 21
-78.05506400553937
 31
0.0
  0
LINE
  5
64E
330
1E
100
AcDbEntity
  8
0
  6
Continuous
 62
     3
100
AcDbLine
 10
-310.3522304447502
 20
-79.20506400553938
 30
0.0
 11
-309.4522304447502
 21
-79.20506400553938
 31
0.0
  0
LINE
  5
64F
330
1E
100
AcDbEntity
  8
0
  6
Continuous
 62
     3
100
AcDbLine
 10
-310.8522304447502
 20
-79.20506400553938
 30
0.0
 11
-309.8522304447502
 21
-79.20506400553938
 31
0.0
  0
LINE
  5
650
330
1E
100
AcDbEntity
  8
0
  6
Continuous
 62
     3
100
AcDbLine
 10
-315.8022304427502
 20
-79.20506400453939
 30
0.0
 11
-310.8522304447502
 21
-79.20506400553938
 31
0.0
  0
ARC
  5
651
330
1E
100
AcDbEntity
  8
0
  6
Continuous
 62
     3
100
AcDbCircle
 10
-311.8022304447503
 20
-75.95506400453939
 30
0.0
 40
1.85
100
AcDbArc
 50
90.0
 51
270.0000000179999
  0
LINE
  5
652
330
1E
100
AcDbEntity
  8
0
  6
Continuous
 62
     3
100
AcDbLine
 10
-318.3022304447503
 20
-79.20506400453939
 30
0.0
 11
-314.8022304427502
 21
-79.20506400453939
 31
0.0
  0
LINE
  5
653
330
1E
100
AcDbEntity
  8
0
  6
Continuous
 62
     3
100
AcDbLine
 10
-308.3022304447503
 20
-78.05506400553937
 30
0.0
 11
-308.3022304447503
 21
-77.80506400553938
 31
0.0
  0
LINE
  5
654
330
1E
100
AcDbEntity
  8
0
  6
Continuous
 62
     3
100
AcDbLine
 10
-309.4522304447502
 20
-79.20506400553938
 30
0.0
 11
-308.3022304447503
 21
-78.05506400553937
 31
0.0
  0
LINE
  5
655
330
1E
100
AcDbEntity
  8
0
  6
Continuous
 62
     3
100
AcDbLine
 10
-310.3522304447502
 20
-79.20506400553938
 30
0.0
 11
-309.4522304447502
 21
-79.20506400553938
 31
0.0
  0
LINE
  5
656
330
1E
100
AcDbEntity
  8
0
  6
Continuous
 62
     3
100
AcDbLine
 10
-310.6022304447502
 20
-79.20506400553938
 30
0.0
 11
-309.8522304447502
 21
-79.20506400553938
 31
0.0
  0
LINE
  5
657
330
1E
100
AcDbEntity
  8
0
  6
Continuous
 62
     3
100
AcDbLine
 10
-308.3022304437502
 20
-74.10506400553939
 30
0.0
 11
-308.3022304437502
 21
-73.85506400553939
 31
0.0
  0
LINE
  5
658
330
1E
100
AcDbEntity
  8
0
  6
Continuous
 62
     3
100
AcDbLine
 10
-308.3022304437502
 20
-73.85506400553939
 30
0.0
 11
-309.4522304437503
 21
-72.70506400553938
 31
0.0
  0
LINE
  5
659
330
1E
100
AcDbEntity
  8
0
  6
Continuous
 62
     3
100
AcDbLine
 10
-309.4522304437503
 20
-72.70506400553938
 30
0.0
 11
-310.3522304437502
 21
-72.70506400553938
 31
0.0
  0
LINE
  5
65A
330
1E
100
AcDbEntity
  8
0
  6
Continuous
 62
     3
100
AcDbLine
 10
-309.8522304437502
 20
-72.70506400553938
 30
0.0
 11
-310.3522304437502
 21
-72.70506400553938
 31
0.0
  0
LINE
  5
65B
330
1E
100
AcDbEntity
  8
0
  6
Continuous
 62
     3
100
AcDbLine
 10
-310.3522304437502
 20
-72.70506400553938
 30
0.0
 11
-310.7522304447502
 21
-72.70506400553938
 31
0.0
  0
LINE
  5
65C
330
1E
100
AcDbEntity
  8
0
  6
Continuous
 62
     3
100
AcDbLine
 10
-311.8022304447503
 20
-74.1050640045394
 30
0.0
 11
-308.3022304437502
 21
-74.1050640045394
 31
0.0
  0
LINE
  5
65D
330
1E
100
AcDbEntity
  8
0
  6
Continuous
 62
     3
100
AcDbLine
 10
-311.8022304437502
 20
-77.80506400453941
 30
0.0
 11
-308.3022304447503
 21
-77.80506400453941
 31
0.0
  0
LINE
  5
65E
330
1E
100
AcDbEntity
  8
0
  6
Continuous
 62
     3
100
AcDbLine
 10
-310.3522304437502
 20
-72.70506400553938
 30
0.0
 11
-318.3022304437502
 21
-72.70506400453939
 31
0.0
  0
LINE
  5
65F
330
1E
100
AcDbEntity
  8
0
  6
Continuous
 62
     3
100
AcDbLine
 10
-321.3022304447503
 20
-80.7050640045394
 30
0.0
 11
-318.3022304437502
 21
-72.70506400453939
 31
0.0
  0
LINE
  5
660
330
1E
100
AcDbEntity
  8
0
  6
Continuous
 62
     3
100
AcDbLine
 10
-308.3022304427502
 20
-65.20506495853942
 30
0.0
 11
-308.3022304427502
 21
-69.70506400553938
 31
0.0
  0
LINE
  5
661
330
1E
100
AcDbEntity
  8
0
  6
Continuous
 62
     3
100
AcDbLine
 10
-321.3022304447503
 20
-83.70506400453939
 30
0.0
 11
-318.3022304447503
 21
-79.20506400453939
 31
0.0
  0
LINE
  5
662
330
1E
100
AcDbEntity
  8
0
  6
Continuous
 62
     3
100
AcDbLine
 10
-318.3022304447503
 20
-79.20506400453939
 30
0.0
 11
-318.3022304437502
 21
-72.70506400453939
 31
0.0
  0
LINE
  5
663
330
1E
100
AcDbEntity
  8
0
  6
Continuous
 62
     3
100
AcDbLine
 10
-333.2522304427502
 20
-63.95506399653942
 30
0.0
 11
-333.2522304457502
 21
-85.95506399653942
 31
0.0
  0
LINE
  5
664
330
1E
100
AcDbEntity
  8
0
  6
Continuous
 62
     3
100
AcDbLine
 10
-321.2522304427502
 20
-63.75506399853941
 30
0.0
 11
-333.2522304427502
 21
-63.95506399653942
 31
0.0
  0
LINE
  5
665
330
1E
100
AcDbEntity
  8
0
  6
Continuous
 62
     3
100
AcDbLine
 10
-321.2522304457502
 20
-86.15506399853941
 30
0.0
 11
-321.2522304427502
 21
-63.75506399853941
 31
0.0
  0
LINE
  5
666
330
1E
100
AcDbEntity
  8
0
  6
Continuous
 62
     3
100
AcDbLine
 10
-333.2522304457502
 20
-85.95506399653942
 30
0.0
 11
-321.2522304457502
 21
-86.15506399853941
 31
0.0
  0
LINE
  5
667
330
1E
100
AcDbEntity
  8
0
  6
Continuous
 62
     1
100
AcDbLine
 10
-319.9922304427502
 20
-65.33173067153942
 30
0.0
 11
-319.9922304427502
 21
-40.10506400453943
 31
0.0
  0
LINE
  5
668
330
1E
100
AcDbEntity
  8
0
  6
Continuous
 62
     1
100
AcDbLine
 10
-318.6522304427502
 20
-43.55506400453942
 30
0.0
 11
-318.6522304427502
 21
-64.43839733853943
 31
0.0
  0
LINE
  5
669
330
1E
100
AcDbEntity
  8
0
  6
Continuous
 62
     1
100
AcDbLine
 10
-318.6522304427502
 20
-64.43839733853943
 30
0.0
 11
-318.6522304427502
 21
-63.1050640045394
 31
0.0
  0
LINE
  5
66A
330
1E
100
AcDbEntity
  8
0
  6
Continuous
 62
     1
100
AcDbLine
 10
-318.6522304427502
 20
-72.70506400453939
 30
0.0
 11
-318.6522304427502
 21
-70.53006400453941
 31
0.0
  0
LINE
  5
66B
330
1E
100
AcDbEntity
  8
0
  6
Continuous
 62
     1
100
AcDbLine
 10
-319.9922304427502
 20
-77.21173066853942
 30
0.0
 11
-319.9922304427502
 21
-69.86006400453939
 31
0.0
  0
LINE
  5
66C
330
1E
100
AcDbEntity
  8
0
  6
Continuous
 62
     1
100
AcDbLine
 10
-319.9922304427502
 20
-86.10506400453941
 30
0.0
 11
-319.9922304427502
 21
-81.97673066853942
 31
0.0
  0
LINE
  5
66D
330
1E
100
AcDbEntity
  8
0
  6
Continuous
 62
     1
100
AcDbLine
 10
-318.6522304427502
 20
-79.7300640025394
 30
0.0
 11
-318.6522304427502
 21
-82.65506400453942
 31
0.0
  0
LINE
  5
66E
330
1E
100
AcDbEntity
  8
0
  6
Continuous
 62
     1
100
AcDbLine
 10
-318.6522304427502
 20
-70.53006400453941
 30
0.0
 11
-318.6522304427502
 21
-73.63839733653941
 31
0.0
  0
ARC
  5
66F
330
1E
100
AcDbEntity
  8
0
  6
Continuous
 62
     1
100
AcDbCircle
 10
-318.1522304427502
 20
-72.70506400453939
 30
0.0
 40
0.5
100
AcDbArc
 50
180.0
 51
233.13010229
  0
ARC
  5
670
330
1E
100
AcDbEntity
  8
0
  6
Continuous
 62
     3
100
AcDbCircle
 10
-319.1613835687502
 20
-143.7050639975394
 30
0.0
 40
1.0
100
AcDbArc
 50
90.0
 51
179.4731571059999
  0
LINE
  5
671
330
1E
100
AcDbEntity
  8
0
  6
Continuous
 62
     3
100
AcDbLine
 10
-318.8122304437503
 20
-141.2050639975394
 30
0.0
 11
-318.8122304437503
 21
-142.7050639975394
 31
0.0
  0
ARC
  5
672
330
1E
100
AcDbEntity
  8
0
  6
Continuous
 62
     3
100
AcDbCircle
 10
-318.3122304437503
 20
-141.2050639975394
 30
0.0
 40
0.5
100
AcDbArc
 50
89.99989071700003
 51
180.0
  0
POINT
  5
673
330
1E
100
AcDbEntity
  8
0
  6
Continuous
 62
     3
100
AcDbPoint
 10
-317.3122304437502
 20
-140.7050639975394
 30
0.0
  0
LINE
  5
674
330
1E
100
AcDbEntity
  8
0
  6
Continuous
 62
     3
100
AcDbLine
 10
-317.3122304437502
 20
-140.7050639975394
 30
0.0
 11
-317.3122304437502
 21
-142.7050639975394
 31
0.0
  0
LINE
  5
675
330
1E
100
AcDbEntity
  8
0
  6
Continuous
 62
     3
100
AcDbLine
 10
-318.3122304437503
 20
-140.7050639975394
 30
0.0
 11
-317.3122304437502
 21
-140.7050639975394
 31
0.0
  0
ARC
  5
676
330
1E
100
AcDbEntity
  8
0
  6
Continuous
 62
     1
100
AcDbCircle
 10
-319.1569075137503
 20
-143.7050639975394
 30
0.0
 40
1.0
100
AcDbArc
 50
90.0
 51
180.0
  0
POINT
  5
677
330
1E
100
AcDbEntity
  8
0
  6
Continuous
 62
     3
100
AcDbPoint
 10
-317.3122304437502
 20
-140.7050639975394
 30
0.0
  0
ARC
  5
678
330
1E
100
AcDbEntity
  8
0
  6
Continuous
 62
     3
100
AcDbCircle
 10
-319.1613835687502
 20
-143.7050639975394
 30
0.0
 40
1.0
100
AcDbArc
 50
90.0
 51
179.4731571059999
  0
LINE
  5
679
330
1E
100
AcDbEntity
  8
0
  6
Continuous
 62
     3
100
AcDbLine
 10
-318.8122304437503
 20
-142.7050639975394
 30
0.0
 11
-318.8122304437503
 21
-141.2050639975394
 31
0.0
  0
ARC
  5
67A
330
1E
100
AcDbEntity
  8
0
  6
Continuous
 62
     3
100
AcDbCircle
 10
-318.3122304437503
 20
-141.2050639975394
 30
0.0
 40
0.5
100
AcDbArc
 50
90.0
 51
180.0
  0
LINE
  5
67B
330
1E
100
AcDbEntity
  8
0
  6
Continuous
 62
     3
100
AcDbLine
 10
-317.3122304437502
 20
-140.7050639975394
 30
0.0
 11
-317.3122304437502
 21
-142.7050639975394
 31
0.0
  0
LINE
  5
67C
330
1E
100
AcDbEntity
  8
0
  6
Continuous
 62
     3
100
AcDbLine
 10
-318.3122304437503
 20
-140.7050639975394
 30
0.0
 11
-317.3122304437502
 21
-140.7050639975394
 31
0.0
  0
LINE
  5
67D
330
1E
100
AcDbEntity
  8
0
  6
Continuous
 62
     3
100
AcDbLine
 10
-317.3017570267502
 20
-135.2050639985393
 30
0.0
 11
-318.3017570267502
 21
-135.2050639985393
 31
0.0
  0
LINE
  5
67E
330
1E
100
AcDbEntity
  8
0
  6
Continuous
 62
     3
100
AcDbLine
 10
-308.0017570267502
 20
-133.4050639985393
 30
0.0
 11
-318.3017570267502
 21
-133.4050639985393
 31
0.0
  0
LINE
  5
67F
330
1E
100
AcDbEntity
  8
0
  6
Continuous
 62
     3
100
AcDbLine
 10
-317.3017570267502
 20
-140.1050639985394
 30
0.0
 11
-314.8017570267502
 21
-140.1050639985394
 31
0.0
  0
LINE
  5
680
330
1E
100
AcDbEntity
  8
0
  6
Continuous
 62
     3
100
AcDbLine
 10
-309.5017570267502
 20
-133.4050639985393
 30
0.0
 11
-309.5017570267502
 21
-132.1050639985394
 31
0.0
  0
LINE
  5
681
330
1E
100
AcDbEntity
  8
0
  6
Continuous
 62
     3
100
AcDbLine
 10
-309.5017570267502
 20
-132.1050639985394
 30
0.0
 11
-310.5017570267502
 21
-132.1050639985394
 31
0.0
  0
LINE
  5
682
330
1E
100
AcDbEntity
  8
0
  6
Continuous
 62
     3
100
AcDbLine
 10
-310.5017570267502
 20
-132.1050639985394
 30
0.0
 11
-310.5017570267502
 21
-133.4050639985393
 31
0.0
  0
LINE
  5
683
330
1E
100
AcDbEntity
  8
0
  6
Continuous
 62
     3
100
AcDbLine
 10
-318.3017570267502
 20
-135.2050639985393
 30
0.0
 11
-318.3017570267502
 21
-133.4050639985393
 31
0.0
  0
LINE
  5
684
330
1E
100
AcDbEntity
  8
0
  6
LTYPE1
 62
     3
100
AcDbLine
 10
-308.5017570267503
 20
-133.4050639985393
 30
0.0
 11
-308.5017570267503
 21
-130.4050639985393
 31
0.0
  0
LINE
  5
685
330
1E
100
AcDbEntity
  8
0
  6
LTYPE1
 62
     3
100
AcDbLine
 10
-308.5017570267503
 20
-130.4050639985393
 30
0.0
 11
-318.3017570267502
 21
-130.4050639985393
 31
0.0
  0
LINE
  5
686
330
1E
100
AcDbEntity
  8
0
  6
LTYPE1
 62
     3
100
AcDbLine
 10
-318.3017570267502
 20
-130.4050639985393
 30
0.0
 11
-319.3017570267502
 21
-130.7050639985394
 31
0.0
  0
LINE
  5
687
330
1E
100
AcDbEntity
  8
0
  6
LTYPE1
 62
     3
100
AcDbLine
 10
-319.3017570267502
 20
-135.4050639985393
 30
0.0
 11
-319.3017570267502
 21
-130.7050639985394
 31
0.0
  0
LINE
  5
688
330
1E
100
AcDbEntity
  8
0
  6
LTYPE1
 62
     3
100
AcDbLine
 10
-317.3017570267502
 20
-135.4050639985393
 30
0.0
 11
-319.3017570267502
 21
-135.4050639985393
 31
0.0
  0
LINE
  5
689
330
1E
100
AcDbEntity
  8
0
  6
Continuous
 62
     3
100
AcDbLine
 10
-317.3122304437502
 20
-142.7050639975394
 30
0.0
 11
-319.1613835687502
 21
-142.7050639975394
 31
0.0
  0
LINE
  5
68A
330
1E
100
AcDbEntity
  8
0
  6
Continuous
 62
     3
100
AcDbLine
 10
-305.6975565307502
 20
-142.7050639975394
 30
0.0
 11
-317.3122304437502
 21
-142.7050639975394
 31
0.0
  0
LINE
  5
68B
330
1E
100
AcDbEntity
  8
0
  6
Continuous
 62
     3
100
AcDbLine
 10
-310.0017570267502
 20
-140.1050639985394
 30
0.0
 11
-310.0017570267502
 21
-142.7050639975394
 31
0.0
  0
LINE
  5
68C
330
1E
100
AcDbEntity
  8
0
  6
Continuous
 62
     3
100
AcDbLine
 10
-314.8017570267502
 20
-140.1050639985394
 30
0.0
 11
-314.8017570267502
 21
-142.7050639975394
 31
0.0
  0
LINE
  5
68D
330
1E
100
AcDbEntity
  8
0
  6
Continuous
 62
     3
100
AcDbLine
 10
-317.3017570267502
 20
-142.7050639975394
 30
0.0
 11
-317.3017570267502
 21
-135.2050639985393
 31
0.0
  0
LINE
  5
68E
330
1E
100
AcDbEntity
  8
0
  6
Continuous
 62
     3
100
AcDbLine
 10
-308.0017570267502
 20
-133.4050639985393
 30
0.0
 11
-308.0017570267502
 21
-137.7050639975394
 31
0.0
  0
LINE
  5
68F
330
1E
100
AcDbEntity
  8
0
  6
Continuous
 62
     3
100
AcDbLine
 10
-317.3017570267502
 20
-140.1050639985394
 30
0.0
 11
-309.6622304437502
 21
-140.1050639985394
 31
0.0
  0
LINE
  5
690
330
1E
100
AcDbEntity
  8
0
  6
Continuous
 62
     3
100
AcDbLine
 10
-309.0017570267503
 20
-133.4050639985393
 30
0.0
 11
-309.0017570267503
 21
-137.7050639975394
 31
0.0
  0
LINE
  5
691
330
1E
100
AcDbEntity
  8
0
  6
Continuous
 62
     3
100
AcDbLine
 10
-305.6622304437502
 20
-137.7050639975394
 30
0.0
 11
-309.1622304437502
 21
-137.7050639975394
 31
0.0
  0
LINE
  5
692
330
1E
100
AcDbEntity
  8
0
  6
Continuous
 62
     1
100
AcDbLine
 10
-319.1522304437502
 20
-142.7050639975394
 30
0.0
 11
-305.6975565307502
 21
-142.7050639975394
 31
0.0
  0
ARC
  5
693
330
1E
100
AcDbEntity
  8
0
  6
Continuous
 62
     1
100
AcDbCircle
 10
-319.1522304437502
 20
-143.7050639975394
 30
0.0
 40
1.0
100
AcDbArc
 50
90.0
 51
180.0
  0
LINE
  5
694
330
1E
100
AcDbEntity
  8
0
  6
Continuous
 62
     1
100
AcDbLine
 10
-308.0017570267502
 20
-137.7050639975394
 30
0.0
 11
-305.6622304437502
 21
-137.7050639975394
 31
0.0
  0
LINE
  5
695
330
1E
100
AcDbEntity
  8
0
  6
Continuous
 62
     1
100
AcDbLine
 10
-309.6622304437502
 20
-138.2050639975394
 30
0.0
 11
-309.6622304437502
 21
-142.7050639975394
 31
0.0
  0
ARC
  5
696
330
1E
100
AcDbEntity
  8
0
  6
Continuous
 62
     1
100
AcDbCircle
 10
-309.1622304437502
 20
-138.2050639975394
 30
0.0
 40
0.5
100
AcDbArc
 50
90.0
 51
180.0
  0
LINE
  5
697
330
1E
100
AcDbEntity
  8
2
  6
Continuous
 62
     3
100
AcDbLine
 10
-323.0017570257503
 20
-144.3050639995394
 30
0.0
 11
-320.0017570267502
 21
-139.3050639995394
 31
0.0
  0
LINE
  5
698
330
1E
100
AcDbEntity
  8
2
  6
Continuous
 62
     3
100
AcDbLine
 10
-322.5488047227502
 20
-145.1050639995394
 30
0.0
 11
-319.5488047227502
 21
-140.1050639995394
 31
0.0
  0
LINE
  5
699
330
1E
100
AcDbEntity
  8
2
  6
Continuous
 62
     3
100
AcDbLine
 10
-322.5442001827502
 20
-145.1050639995394
 30
0.0
 11
-323.0017570257503
 21
-145.1050639995394
 31
0.0
  0
LINE
  5
69A
330
1E
100
AcDbEntity
  8
0
  6
Continuous
 62
     3
100
AcDbLine
 10
-323.0017570257503
 20
-147.1550639995394
 30
0.0
 11
-323.0017570257503
 21
-142.2550639995394
 31
0.0
  0
LINE
  5
69B
330
1E
100
AcDbEntity
  8
2
  6
Continuous
 62
     3
100
AcDbLine
 10
-320.0017570267502
 20
-139.3050639995394
 30
0.0
 11
-310.0017570267502
 21
-139.3050639985393
 31
0.0
  0
LINE
  5
69C
330
1E
100
AcDbEntity
  8
2
  6
Continuous
 62
     3
100
AcDbLine
 10
-310.0017570267502
 20
-140.1050639985394
 30
0.0
 11
-319.5442001827502
 21
-140.1050639995394
 31
0.0
  0
LINE
  5
69D
330
1E
100
AcDbEntity
  8
0
  6
Continuous
 62
     3
100
AcDbLine
 10
-310.0017570267502
 20
-140.1050639985394
 30
0.0
 11
-310.0017570267502
 21
-139.3050639985393
 31
0.0
  0
LINE
  5
69E
330
1E
100
AcDbEntity
  8
0
  6
Continuous
 62
     3
100
AcDbLine
 10
-334.9517570257502
 20
-141.2050640085394
 30
0.0
 11
-334.9517570247502
 21
-148.2050640085394
 31
0.0
  0
LINE
  5
69F
330
1E
100
AcDbEntity
  8
0
  6
Continuous
 62
     3
100
AcDbLine
 10
-322.9517570247502
 20
-141.0050640085394
 30
0.0
 11
-322.9517570257502
 21
-142.2050640065394
 31
0.0
  0
LINE
  5
6A0
330
1E
100
AcDbEntity
  8
0
  6
Continuous
 62
     3
100
AcDbLine
 10
-322.9517570247502
 20
-141.0050640085394
 30
0.0
 11
-334.9517570257502
 21
-141.2050640085394
 31
0.0
  0
LINE
  5
6A1
330
1E
100
AcDbEntity
  8
0
  6
Continuous
 62
     3
100
AcDbLine
 10
-322.9517570247502
 20
-147.2050640065394
 30
0.0
 11
-322.9517570247502
 21
-148.4050640065394
 31
0.0
  0
LINE
  5
6A2
330
1E
100
AcDbEntity
  8
0
  6
Continuous
 62
     3
100
AcDbLine
 10
-334.9517570247502
 20
-148.2050640085394
 30
0.0
 11
-322.9517570247502
 21
-148.4050640065394
 31
0.0
  0
LINE
  5
6A3
330
1E
100
AcDbEntity
  8
0
  6
Continuous
 62
     5
100
AcDbLine
 10
-320.3122304427502
 20
-88.10506400053938
 30
0.0
 11
-320.3122304437503
 21
-101.1050640005393
 31
0.0
  0
LINE
  5
6A4
330
1E
100
AcDbEntity
  8
0
  6
Continuous
 62
     5
100
AcDbLine
 10
-320.3122304437503
 20
-100.1050640005393
 30
0.0
 11
-318.3803787907502
 21
-100.6227020915394
 31
0.0
  0
LINE
  5
6A5
330
1E
100
AcDbEntity
  8
0
  6
Continuous
 62
     5
100
AcDbLine
 10
-320.3122304437503
 20
-100.1050640005393
 30
0.0
 11
-318.3803787907502
 21
-99.5874259105394
 31
0.0
  0
LINE
  5
6A6
330
1E
100
AcDbEntity
  8
0
  6
Continuous
 62
     5
100
AcDbLine
 10
-226.3122304437502
 20
-94.1050640045394
 30
0.0
 11
-320.3122304437503
 21
-94.10506400053938
 31
0.0
  0
LINE
  5
6A7
330
1E
100
AcDbEntity
  8
0
  6
Continuous
 62
     5
100
AcDbLine
 10
-320.3122304437503
 20
-94.10506400053938
 30
0.0
 11
-318.3803787907502
 21
-94.62270209153942
 31
0.0
  0
LINE
  5
6A8
330
1E
100
AcDbEntity
  8
0
  6
Continuous
 62
     5
100
AcDbLine
 10
-320.3122304437503
 20
-94.10506400053938
 30
0.0
 11
-318.3803787907502
 21
-93.58742591053939
 31
0.0
  0
LINE
  5
6A9
330
1E
100
AcDbEntity
  8
0
  6
Continuous
 62
     5
100
AcDbLine
 10
-320.3122304427502
 20
-88.10506400053938
 30
0.0
 11
-320.3122304437503
 21
-101.1050640005393
 31
0.0
  0
LINE
  5
6AA
330
1E
100
AcDbEntity
  8
0
  6
Continuous
 62
     5
100
AcDbLine
 10
-320.3122304437503
 20
-100.1050640005393
 30
0.0
 11
-318.3803787907502
 21
-100.6227020915394
 31
0.0
  0
LINE
  5
6AB
330
1E
100
AcDbEntity
  8
0
  6
Continuous
 62
     5
100
AcDbLine
 10
-320.3122304437503
 20
-100.1050640005393
 30
0.0
 11
-318.3803787907502
 21
-99.5874259105394
 31
0.0
  0
LINE
  5
6AC
330
1E
100
AcDbEntity
  8
0
  6
Continuous
 62
     5
100
AcDbLine
 10
-320.3122304437503
 20
-100.1050640005393
 30
0.0
 11
-223.7272304437502
 21
-100.1050640045394
 31
0.0
  0
LINE
  5
6AD
330
1E
100
AcDbEntity
  8
0
  6
Continuous
 62
     5
100
AcDbLine
 10
-320.3122304437503
 20
-100.1050640005393
 30
0.0
 11
-322.7270450097502
 21
-99.45801638753941
 31
0.0
  0
LINE
  5
6AE
330
1E
100
AcDbEntity
  8
0
  6
Continuous
 62
     5
100
AcDbLine
 10
-320.3122304437503
 20
-100.1050640005393
 30
0.0
 11
-322.7270450097502
 21
-100.7521116135394
 31
0.0
  0
LINE
  5
6AF
330
1E
100
AcDbEntity
  8
0
  6
Continuous
 62
     5
100
AcDbLine
 10
-320.3122304437503
 20
-100.1050640005393
 30
0.0
 11
-333.2522304457502
 21
-100.1050640005393
 31
0.0
  0
LINE
  5
6B0
330
1E
100
AcDbEntity
  8
0
  6
Continuous
 62
     5
100
AcDbLine
 10
-333.2522304457502
 20
-86.95506399653941
 30
0.0
 11
-333.2522304457502
 21
-102.1050640005393
 31
0.0
  0
LINE
  5
6B1
330
1E
100
AcDbEntity
  8
0
  6
Continuous
 62
     5
100
AcDbLine
 10
-333.2522304457502
 20
-100.1050640005393
 30
0.0
 11
-330.8374158797502
 21
-100.7521116135394
 31
0.0
  0
LINE
  5
6B2
330
1E
100
AcDbEntity
  8
0
  6
Continuous
 62
     5
100
AcDbLine
 10
-333.2522304457502
 20
-100.1050640005393
 30
0.0
 11
-330.8374158797502
 21
-99.45801638753941
 31
0.0
  0
TEXT
  5
6B3
330
1E
100
AcDbEntity
  8
0
  6
Continuous
 62
     5
100
AcDbText
 10
-330.9622304437502
 20
-99.6050640025394
 30
0.1
 40
2.0
  1
１８ＭＡＸ
 41
0.8
  7
KANJI1
100
AcDbText
  0
TEXT
  5
6B4
330
1E
100
AcDbEntity
  8
0
  6
Continuous
 62
     3
100
AcDbText
 10
-351.6122304437502
 20
-129.8050639975394
 30
0.3
 40
3.0
  1
温度センサー
 41
0.9
  7
KANJI2
100
AcDbText
  0
LINE
  5
6B5
330
1E
100
AcDbEntity
  8
0
  6
Continuous
 62
     5
100
AcDbLine
 10
-339.3122304437503
 20
-130.8050639975394
 30
0.3
 11
-351.6122304437502
 21
-130.8050639975394
 31
0.3
  0
LINE
  5
6B6
330
1E
100
AcDbEntity
  8
0
  6
Continuous
 62
     5
100
AcDbLine
 10
-329.8122304437502
 20
-145.3050639975394
 30
0.0
 11
-330.5943820547502
 21
-142.9305663965394
 31
0.0
  0
LINE
  5
6B7
330
1E
100
AcDbEntity
  8
0
  6
Continuous
 62
     5
100
AcDbLine
 10
-329.8122304437502
 20
-145.3050639975394
 30
0.0
 11
-331.6768424097503
 21
-143.6397645595393
 31
0.0
  0
LINE
  5
6B8
330
1E
100
AcDbEntity
  8
0
  6
Continuous
 62
     5
100
AcDbLine
 10
-329.8122304437502
 20
-145.3050639975394
 30
0.0
 11
-339.3122304437503
 21
-130.8050639975394
 31
0.0
  0
ENDSEC
  0
SECTION
  2
OBJECTS
  0
DICTIONARY
  5
C
330
0
100
AcDbDictionary
281
     1
  3
ACAD_GROUP
350
D
  3
ACAD_PLOTSTYLENAME
350
E
  3
ACAD_MLINESTYLE
350
16
  3
ACAD_PLOTSETTINGS
350
18
  3
ACAD_LAYOUT
350
19
  0
DICTIONARY
  5
D
102
{ACAD_REACTORS
330
C
102
}
330
C
100
AcDbDictionary
281
     1
  0
ACDBDICTIONARYWDFLT
  5
E
102
{ACAD_REACTORS
330
C
102
}
330
C
100
AcDbDictionary
281
     1
  3
Normal
350
F
100
AcDbDictionaryWithDefault
340
F
  0
DICTIONARY
  5
16
102
{ACAD_REACTORS
330
C
102
}
330
C
100
AcDbDictionary
281
     1
  3
Standard
350
17
  0
DICTIONARY
  5
18
102
{ACAD_REACTORS
330
C
102
}
330
C
100
AcDbDictionary
281
     1
  0
DICTIONARY
  5
19
102
{ACAD_REACTORS
330
C
102
}
330
C
100
AcDbDictionary
281
     1
  3
ﾚｲｱｳﾄ1
350
1D
  3
Model
350
21
  0
ACDBPLACEHOLDER
  5
F
102
{ACAD_REACTORS
330
E
102
}
330
E
  0
MLINESTYLE
  5
17
102
{ACAD_REACTORS
330
16
102
}
330
16
100
AcDbMlineStyle
  2
STANDARD
 70
     0
  3

 62
   256
 51
90.0
 52
90.0
 71
     2
 49
0.5
 62
   256
  6
BYLAYER
 49
-0.5
 62
   256
  6
BYLAYER
  0
LAYOUT
  5
1D
102
{ACAD_REACTORS
330
19
102
}
330
19
100
AcDbPlotSettings
  1

  2
Canon LASER SHOT LBP-880
  4

  6

 40
0.0
 41
0.0
 42
0.0
 43
0.0
 44
0.0
 45
0.0
 46
0.0
 47
0.0
 48
0.0
 49
0.0
140
0.0
141
0.0
142
1.0
143
1.0
 70
   688
 72
     0
 73
     0
 74
     5
  7

 75
    16
147
1.0
148
0.0
149
0.0
100
AcDbLayout
  1
ﾚｲｱｳﾄ1
 70
     1
 71
     1
 10
0.0
 20
0.0
 11
12.0
 21
9.0
 12
0.0
 22
0.0
 32
0.0
 14
1.000000000000000E+20
 24
1.000000000000000E+20
 34
1.000000000000000E+20
 15
-1.000000000000000E+20
 25
-1.000000000000000E+20
 35
-1.000000000000000E+20
146
0.0
 13
0.0
 23
0.0
 33
0.0
 16
1.0
 26
0.0
 36
0.0
 17
0.0
 27
1.0
 37
0.0
 76
     0
330
1A
  0
LAYOUT
  5
21
102
{ACAD_REACTORS
330
19
102
}
330
19
100
AcDbPlotSettings
  1

  2
Canon LASER SHOT LBP-880
  4

  6

 40
0.0
 41
0.0
 42
0.0
 43
0.0
 44
0.0
 45
0.0
 46
0.0
 47
0.0
 48
0.0
 49
0.0
140
0.0
141
0.0
142
1.0
143
1.0
 70
  1712
 72
     0
 73
     0
 74
     0
  7

 75
     0
147
1.0
148
0.0
149
0.0
100
AcDbLayout
  1
Model
 70
     1
 71
     0
 10
0.0
 20
0.0
 11
12.0
 21
9.0
 12
0.0
 22
0.0
 32
0.0
 14
0.0
 24
0.0
 34
0.0
 15
0.0
 25
0.0
 35
0.0
146
0.0
 13
0.0
 23
0.0
 33
0.0
 16
1.0
 26
0.0
 36
0.0
 17
0.0
 27
1.0
 37
0.0
 76
     0
330
1E
  0
ENDSEC
  0
EOF
