  0
SECTION
  2
HEADER
  9
$ACADVER
  1
AC1015
  9
$ACADMAINTVER
 70
     6
  9
$DWGCODEPAGE
  3
ANSI_932
  9
$INSBASE
 10
0.0
 20
0.0
 30
0.0
  9
$EXTMIN
 10
-1.470580238991736E+63
 20
-5.941616374145985E+73
 30
-1.399999999999999
  9
$EXTMAX
 10
3.141492651413532E+99
 20
1.269263905633295E+99
 30
0.1
  9
$LIMMIN
 10
0.0
 20
0.0
  9
$LIMMAX
 10
12.0
 20
9.0
  9
$ORTHOMODE
 70
     0
  9
$REGENMODE
 70
     1
  9
$FILLMODE
 70
     1
  9
$QTEXTMODE
 70
     0
  9
$MIRRTEXT
 70
     1
  9
$LTSCALE
 40
1.0
  9
$ATTMODE
 70
     1
  9
$TEXTSIZE
 40
0.2
  9
$TRACEWID
 40
0.05
  9
$TEXTSTYLE
  7
STANDARD
  9
$CLAYER
  8
0
  9
$CELTYPE
  6
CONTINUOUS
  9
$CECOLOR
 62
   256
  9
$CELTSCALE
 40
1.0
  9
$DISPSILH
 70
     0
  9
$DIMSCALE
 40
1.0
  9
$DIMASZ
 40
0.18
  9
$DIMEXO
 40
0.0625
  9
$DIMDLI
 40
0.38
  9
$DIMRND
 40
0.0
  9
$DIMDLE
 40
0.0
  9
$DIMEXE
 40
0.18
  9
$DIMTP
 40
0.0
  9
$DIMTM
 40
0.0
  9
$DIMTXT
 40
0.18
  9
$DIMCEN
 40
0.09
  9
$DIMTSZ
 40
0.0
  9
$DIMTOL
 70
     0
  9
$DIMLIM
 70
     0
  9
$DIMTIH
 70
     1
  9
$DIMTOH
 70
     1
  9
$DIMSE1
 70
     0
  9
$DIMSE2
 70
     0
  9
$DIMTAD
 70
     0
  9
$DIMZIN
 70
     0
  9
$DIMBLK
  1

  9
$DIMASO
 70
     1
  9
$DIMSHO
 70
     1
  9
$DIMPOST
  1

  9
$DIMAPOST
  1

  9
$DIMALT
 70
     0
  9
$DIMALTD
 70
     2
  9
$DIMALTF
 40
25.4
  9
$DIMLFAC
 40
1.0
  9
$DIMTOFL
 70
     0
  9
$DIMTVP
 40
0.0
  9
$DIMTIX
 70
     0
  9
$DIMSOXD
 70
     0
  9
$DIMSAH
 70
     0
  9
$DIMBLK1
  1

  9
$DIMBLK2
  1

  9
$DIMSTYLE
  2
STANDARD
  9
$DIMCLRD
 70
     0
  9
$DIMCLRE
 70
     0
  9
$DIMCLRT
 70
     0
  9
$DIMTFAC
 40
1.0
  9
$DIMGAP
 40
0.09
  9
$DIMJUST
 70
     0
  9
$DIMSD1
 70
     0
  9
$DIMSD2
 70
     0
  9
$DIMTOLJ
 70
     1
  9
$DIMTZIN
 70
     0
  9
$DIMALTZ
 70
     0
  9
$DIMALTTZ
 70
     0
  9
$DIMUPT
 70
     0
  9
$DIMDEC
 70
     4
  9
$DIMTDEC
 70
     4
  9
$DIMALTU
 70
     2
  9
$DIMALTTD
 70
     2
  9
$DIMTXSTY
  7
STANDARD
  9
$DIMAUNIT
 70
     0
  9
$DIMADEC
 70
     0
  9
$DIMALTRND
 40
0.0
  9
$DIMAZIN
 70
     0
  9
$DIMDSEP
 70
    46
  9
$DIMATFIT
 70
     3
  9
$DIMFRAC
 70
     0
  9
$DIMLDRBLK
  1

  9
$DIMLUNIT
 70
     2
  9
$DIMLWD
 70
    -2
  9
$DIMLWE
 70
    -2
  9
$DIMTMOVE
 70
     0
  9
$LUNITS
 70
     2
  9
$LUPREC
 70
     4
  9
$SKETCHINC
 40
0.1
  9
$FILLETRAD
 40
0.0
  9
$AUNITS
 70
     0
  9
$AUPREC
 70
     0
  9
$MENU
  1
.
  9
$ELEVATION
 40
0.0
  9
$PELEVATION
 40
0.0
  9
$THICKNESS
 40
0.0
  9
$LIMCHECK
 70
     0
  9
$CHAMFERA
 40
0.0
  9
$CHAMFERB
 40
0.0
  9
$CHAMFERC
 40
0.0
  9
$CHAMFERD
 40
0.0
  9
$SKPOLY
 70
     0
  9
$TDCREATE
 40
2452153.733997755
  9
$TDUCREATE
 40
2452153.358997754
  9
$TDUPDATE
 40
2452706.353051389
  9
$TDUUPDATE
 40
2452705.978051389
  9
$TDINDWG
 40
0.0031968750
  9
$TDUSRTIMER
 40
0.0031957176
  9
$USRTIMER
 70
     1
  9
$ANGBASE
 50
0.0
  9
$ANGDIR
 70
     0
  9
$PDMODE
 70
     0
  9
$PDSIZE
 40
0.0
  9
$PLINEWID
 40
0.0
  9
$SPLFRAME
 70
     0
  9
$SPLINETYPE
 70
     6
  9
$SPLINESEGS
 70
     8
  9
$HANDSEED
  5
1311
  9
$SURFTAB1
 70
     6
  9
$SURFTAB2
 70
     6
  9
$SURFTYPE
 70
     6
  9
$SURFU
 70
     6
  9
$SURFV
 70
     6
  9
$UCSBASE
  2

  9
$UCSNAME
  2

  9
$UCSORG
 10
0.0
 20
0.0
 30
0.0
  9
$UCSXDIR
 10
1.0
 20
0.0
 30
0.0
  9
$UCSYDIR
 10
0.0
 20
1.0
 30
0.0
  9
$UCSORTHOREF
  2

  9
$UCSORTHOVIEW
 70
     0
  9
$UCSORGTOP
 10
0.0
 20
0.0
 30
0.0
  9
$UCSORGBOTTOM
 10
0.0
 20
0.0
 30
0.0
  9
$UCSORGLEFT
 10
0.0
 20
0.0
 30
0.0
  9
$UCSORGRIGHT
 10
0.0
 20
0.0
 30
0.0
  9
$UCSORGFRONT
 10
0.0
 20
0.0
 30
0.0
  9
$UCSORGBACK
 10
0.0
 20
0.0
 30
0.0
  9
$PUCSBASE
  2

  9
$PUCSNAME
  2

  9
$PUCSORG
 10
0.0
 20
0.0
 30
0.0
  9
$PUCSXDIR
 10
1.0
 20
0.0
 30
0.0
  9
$PUCSYDIR
 10
0.0
 20
1.0
 30
0.0
  9
$PUCSORTHOREF
  2

  9
$PUCSORTHOVIEW
 70
     0
  9
$PUCSORGTOP
 10
0.0
 20
0.0
 30
0.0
  9
$PUCSORGBOTTOM
 10
0.0
 20
0.0
 30
0.0
  9
$PUCSORGLEFT
 10
0.0
 20
0.0
 30
0.0
  9
$PUCSORGRIGHT
 10
0.0
 20
0.0
 30
0.0
  9
$PUCSORGFRONT
 10
0.0
 20
0.0
 30
0.0
  9
$PUCSORGBACK
 10
0.0
 20
0.0
 30
0.0
  9
$USERI1
 70
     0
  9
$USERI2
 70
     0
  9
$USERI3
 70
     0
  9
$USERI4
 70
     0
  9
$USERI5
 70
     0
  9
$USERR1
 40
0.0
  9
$USERR2
 40
0.0
  9
$USERR3
 40
0.0
  9
$USERR4
 40
0.0
  9
$USERR5
 40
0.0
  9
$WORLDVIEW
 70
     1
  9
$SHADEDGE
 70
     3
  9
$SHADEDIF
 70
    70
  9
$TILEMODE
 70
     1
  9
$MAXACTVP
 70
    64
  9
$PINSBASE
 10
0.0
 20
0.0
 30
0.0
  9
$PLIMCHECK
 70
     0
  9
$PEXTMIN
 10
1.000000000000000E+20
 20
1.000000000000000E+20
 30
1.000000000000000E+20
  9
$PEXTMAX
 10
-1.000000000000000E+20
 20
-1.000000000000000E+20
 30
-1.000000000000000E+20
  9
$PLIMMIN
 10
0.0
 20
0.0
  9
$PLIMMAX
 10
12.0
 20
9.0
  9
$UNITMODE
 70
     0
  9
$VISRETAIN
 70
     1
  9
$PLINEGEN
 70
     0
  9
$PSLTSCALE
 70
     1
  9
$TREEDEPTH
 70
  3020
  9
$CMLSTYLE
  2
Standard
  9
$CMLJUST
 70
     0
  9
$CMLSCALE
 40
1.0
  9
$PROXYGRAPHICS
 70
     1
  9
$MEASUREMENT
 70
     0
  9
$CELWEIGHT
370
    -1
  9
$ENDCAPS
280
     0
  9
$JOINSTYLE
280
     0
  9
$LWDISPLAY
290
     0
  9
$INSUNITS
 70
     0
  9
$HYPERLINKBASE
  1

  9
$STYLESHEET
  1

  9
$XEDIT
290
     1
  9
$CEPSNTYPE
380
     0
  9
$PSTYLEMODE
290
     1
  9
$FINGERPRINTGUID
  2
{2EF32BDE-1483-4CCB-B6C9-FAA2BFCA8321}
  9
$VERSIONGUID
  2
{38807162-D239-421D-B642-222A947F27CE}
  9
$EXTNAMES
290
     1
  9
$PSVPSCALE
 40
0.0
  9
$OLESTARTUP
290
     0
  0
ENDSEC
  0
SECTION
  2
CLASSES
  0
CLASS
  1
ACDBDICTIONARYWDFLT
  2
AcDbDictionaryWithDefault
  3
AutoCAD 2000
 90
        0
280
     0
281
     0
  0
CLASS
  1
ACDBPLACEHOLDER
  2
AcDbPlaceHolder
  3
AutoCAD 2000
 90
        0
280
     0
281
     0
  0
CLASS
  1
LAYOUT
  2
AcDbLayout
  3
AutoCAD 2000
 90
        0
280
     0
281
     0
  0
ENDSEC
  0
SECTION
  2
TABLES
  0
TABLE
  2
VPORT
  5
CBA
330
0
100
AcDbSymbolTable
 70
     2
  0
VPORT
  5
1310
330
CBA
100
AcDbSymbolTableRecord
100
AcDbViewportTableRecord
  2
*Active
 70
     0
 10
0.0
 20
0.0
 11
1.0
 21
1.0
 12
195.9369596574935
 22
156.9254680614539
 13
0.0
 23
0.0
 14
1.0
 24
1.0
 15
0.0
 25
0.0
 16
0.0
 26
0.0
 36
1.0
 17
0.0
 27
0.0
 37
0.0
 40
274.9048754632531
 41
1.761278195488721
 42
50.0
 43
0.0
 44
0.0
 50
0.0
 51
0.0
 71
     0
 72
   100
 73
     1
 74
     1
 75
     0
 76
     0
 77
     0
 78
     0
281
     0
 65
     1
110
0.0
120
0.0
130
0.0
111
1.0
121
0.0
131
0.0
112
0.0
122
1.0
132
0.0
 79
     0
146
0.0
  0
ENDTAB
  0
TABLE
  2
LTYPE
  5
CB7
330
0
100
AcDbSymbolTable
 70
     1
  0
LTYPE
  5
CC5
330
CB7
100
AcDbSymbolTableRecord
100
AcDbLinetypeTableRecord
  2
ByBlock
 70
     0
  3

 72
    65
 73
     0
 40
0.0
  0
LTYPE
  5
CC6
330
CB7
100
AcDbSymbolTableRecord
100
AcDbLinetypeTableRecord
  2
ByLayer
 70
     0
  3

 72
    65
 73
     0
 40
0.0
  0
LTYPE
  5
CC7
330
CB7
100
AcDbSymbolTableRecord
100
AcDbLinetypeTableRecord
  2
CONTINUOUS
 70
     0
  3
Solid line
 72
    65
 73
     0
 40
0.0
  0
ENDTAB
  0
TABLE
  2
LAYER
  5
CB4
330
0
100
AcDbSymbolTable
 70
   128
  0
LAYER
  5
CC2
330
CB4
100
AcDbSymbolTableRecord
100
AcDbLayerTableRecord
  2
0
 70
     0
 62
     7
  6
CONTINUOUS
370
    -3
390
CC1
  0
LAYER
  5
CD5
330
CB4
100
AcDbSymbolTableRecord
100
AcDbLayerTableRecord
  2
1
 70
     0
 62
     7
  6
CONTINUOUS
370
    -3
390
CC1
  0
LAYER
  5
CD6
330
CB4
100
AcDbSymbolTableRecord
100
AcDbLayerTableRecord
  2
2
 70
     0
 62
     7
  6
CONTINUOUS
370
    -3
390
CC1
  0
LAYER
  5
CD7
330
CB4
100
AcDbSymbolTableRecord
100
AcDbLayerTableRecord
  2
3
 70
     0
 62
     7
  6
CONTINUOUS
370
    -3
390
CC1
  0
LAYER
  5
CD8
330
CB4
100
AcDbSymbolTableRecord
100
AcDbLayerTableRecord
  2
4
 70
     0
 62
     7
  6
CONTINUOUS
370
    -3
390
CC1
  0
LAYER
  5
CD9
330
CB4
100
AcDbSymbolTableRecord
100
AcDbLayerTableRecord
  2
5
 70
     0
 62
     7
  6
CONTINUOUS
370
    -3
390
CC1
  0
LAYER
  5
CDA
330
CB4
100
AcDbSymbolTableRecord
100
AcDbLayerTableRecord
  2
6
 70
     0
 62
     7
  6
CONTINUOUS
370
    -3
390
CC1
  0
LAYER
  5
CDB
330
CB4
100
AcDbSymbolTableRecord
100
AcDbLayerTableRecord
  2
7
 70
     0
 62
     7
  6
CONTINUOUS
370
    -3
390
CC1
  0
LAYER
  5
CDC
330
CB4
100
AcDbSymbolTableRecord
100
AcDbLayerTableRecord
  2
8
 70
     0
 62
     7
  6
CONTINUOUS
370
    -3
390
CC1
  0
LAYER
  5
CDD
330
CB4
100
AcDbSymbolTableRecord
100
AcDbLayerTableRecord
  2
9
 70
     0
 62
     7
  6
CONTINUOUS
370
    -3
390
CC1
  0
LAYER
  5
CDE
330
CB4
100
AcDbSymbolTableRecord
100
AcDbLayerTableRecord
  2
10
 70
     0
 62
     7
  6
CONTINUOUS
370
    -3
390
CC1
  0
LAYER
  5
CDF
330
CB4
100
AcDbSymbolTableRecord
100
AcDbLayerTableRecord
  2
11
 70
     0
 62
     7
  6
CONTINUOUS
370
    -3
390
CC1
  0
LAYER
  5
CE0
330
CB4
100
AcDbSymbolTableRecord
100
AcDbLayerTableRecord
  2
12
 70
     0
 62
     7
  6
CONTINUOUS
370
    -3
390
CC1
  0
LAYER
  5
CE1
330
CB4
100
AcDbSymbolTableRecord
100
AcDbLayerTableRecord
  2
13
 70
     0
 62
     7
  6
CONTINUOUS
370
    -3
390
CC1
  0
LAYER
  5
CE2
330
CB4
100
AcDbSymbolTableRecord
100
AcDbLayerTableRecord
  2
14
 70
     0
 62
     7
  6
CONTINUOUS
370
    -3
390
CC1
  0
LAYER
  5
CE3
330
CB4
100
AcDbSymbolTableRecord
100
AcDbLayerTableRecord
  2
15
 70
     0
 62
     7
  6
CONTINUOUS
370
    -3
390
CC1
  0
LAYER
  5
CE4
330
CB4
100
AcDbSymbolTableRecord
100
AcDbLayerTableRecord
  2
16
 70
     0
 62
     7
  6
CONTINUOUS
370
    -3
390
CC1
  0
LAYER
  5
CE5
330
CB4
100
AcDbSymbolTableRecord
100
AcDbLayerTableRecord
  2
17
 70
     0
 62
     7
  6
CONTINUOUS
370
    -3
390
CC1
  0
LAYER
  5
CE6
330
CB4
100
AcDbSymbolTableRecord
100
AcDbLayerTableRecord
  2
18
 70
     0
 62
     7
  6
CONTINUOUS
370
    -3
390
CC1
  0
LAYER
  5
CE7
330
CB4
100
AcDbSymbolTableRecord
100
AcDbLayerTableRecord
  2
19
 70
     0
 62
     7
  6
CONTINUOUS
370
    -3
390
CC1
  0
LAYER
  5
CE8
330
CB4
100
AcDbSymbolTableRecord
100
AcDbLayerTableRecord
  2
20
 70
     0
 62
     7
  6
CONTINUOUS
370
    -3
390
CC1
  0
LAYER
  5
CE9
330
CB4
100
AcDbSymbolTableRecord
100
AcDbLayerTableRecord
  2
21
 70
     0
 62
     7
  6
CONTINUOUS
370
    -3
390
CC1
  0
LAYER
  5
CEA
330
CB4
100
AcDbSymbolTableRecord
100
AcDbLayerTableRecord
  2
22
 70
     0
 62
     7
  6
CONTINUOUS
370
    -3
390
CC1
  0
LAYER
  5
CEB
330
CB4
100
AcDbSymbolTableRecord
100
AcDbLayerTableRecord
  2
23
 70
     0
 62
     7
  6
CONTINUOUS
370
    -3
390
CC1
  0
LAYER
  5
CEC
330
CB4
100
AcDbSymbolTableRecord
100
AcDbLayerTableRecord
  2
24
 70
     0
 62
     7
  6
CONTINUOUS
370
    -3
390
CC1
  0
LAYER
  5
CED
330
CB4
100
AcDbSymbolTableRecord
100
AcDbLayerTableRecord
  2
25
 70
     0
 62
     7
  6
CONTINUOUS
370
    -3
390
CC1
  0
LAYER
  5
CEE
330
CB4
100
AcDbSymbolTableRecord
100
AcDbLayerTableRecord
  2
26
 70
     0
 62
     7
  6
CONTINUOUS
370
    -3
390
CC1
  0
LAYER
  5
CEF
330
CB4
100
AcDbSymbolTableRecord
100
AcDbLayerTableRecord
  2
27
 70
     0
 62
     7
  6
CONTINUOUS
370
    -3
390
CC1
  0
LAYER
  5
CF0
330
CB4
100
AcDbSymbolTableRecord
100
AcDbLayerTableRecord
  2
28
 70
     0
 62
     7
  6
CONTINUOUS
370
    -3
390
CC1
  0
LAYER
  5
CF1
330
CB4
100
AcDbSymbolTableRecord
100
AcDbLayerTableRecord
  2
29
 70
     0
 62
     7
  6
CONTINUOUS
370
    -3
390
CC1
  0
LAYER
  5
CF2
330
CB4
100
AcDbSymbolTableRecord
100
AcDbLayerTableRecord
  2
30
 70
     0
 62
     7
  6
CONTINUOUS
370
    -3
390
CC1
  0
LAYER
  5
CF3
330
CB4
100
AcDbSymbolTableRecord
100
AcDbLayerTableRecord
  2
31
 70
     0
 62
     7
  6
CONTINUOUS
370
    -3
390
CC1
  0
LAYER
  5
CF4
330
CB4
100
AcDbSymbolTableRecord
100
AcDbLayerTableRecord
  2
32
 70
     0
 62
     7
  6
CONTINUOUS
370
    -3
390
CC1
  0
LAYER
  5
CF5
330
CB4
100
AcDbSymbolTableRecord
100
AcDbLayerTableRecord
  2
33
 70
     0
 62
     7
  6
CONTINUOUS
370
    -3
390
CC1
  0
LAYER
  5
CF6
330
CB4
100
AcDbSymbolTableRecord
100
AcDbLayerTableRecord
  2
34
 70
     0
 62
     7
  6
CONTINUOUS
370
    -3
390
CC1
  0
LAYER
  5
CF7
330
CB4
100
AcDbSymbolTableRecord
100
AcDbLayerTableRecord
  2
35
 70
     0
 62
     7
  6
CONTINUOUS
370
    -3
390
CC1
  0
LAYER
  5
CF8
330
CB4
100
AcDbSymbolTableRecord
100
AcDbLayerTableRecord
  2
36
 70
     0
 62
     7
  6
CONTINUOUS
370
    -3
390
CC1
  0
LAYER
  5
CF9
330
CB4
100
AcDbSymbolTableRecord
100
AcDbLayerTableRecord
  2
37
 70
     0
 62
     7
  6
CONTINUOUS
370
    -3
390
CC1
  0
LAYER
  5
CFA
330
CB4
100
AcDbSymbolTableRecord
100
AcDbLayerTableRecord
  2
38
 70
     0
 62
     7
  6
CONTINUOUS
370
    -3
390
CC1
  0
LAYER
  5
CFB
330
CB4
100
AcDbSymbolTableRecord
100
AcDbLayerTableRecord
  2
39
 70
     0
 62
     7
  6
CONTINUOUS
370
    -3
390
CC1
  0
LAYER
  5
CFC
330
CB4
100
AcDbSymbolTableRecord
100
AcDbLayerTableRecord
  2
40
 70
     0
 62
     7
  6
CONTINUOUS
370
    -3
390
CC1
  0
LAYER
  5
CFD
330
CB4
100
AcDbSymbolTableRecord
100
AcDbLayerTableRecord
  2
41
 70
     0
 62
     7
  6
CONTINUOUS
370
    -3
390
CC1
  0
LAYER
  5
CFE
330
CB4
100
AcDbSymbolTableRecord
100
AcDbLayerTableRecord
  2
42
 70
     0
 62
     7
  6
CONTINUOUS
370
    -3
390
CC1
  0
LAYER
  5
CFF
330
CB4
100
AcDbSymbolTableRecord
100
AcDbLayerTableRecord
  2
43
 70
     0
 62
     7
  6
CONTINUOUS
370
    -3
390
CC1
  0
LAYER
  5
D00
330
CB4
100
AcDbSymbolTableRecord
100
AcDbLayerTableRecord
  2
44
 70
     0
 62
     7
  6
CONTINUOUS
370
    -3
390
CC1
  0
LAYER
  5
D01
330
CB4
100
AcDbSymbolTableRecord
100
AcDbLayerTableRecord
  2
45
 70
     0
 62
     7
  6
CONTINUOUS
370
    -3
390
CC1
  0
LAYER
  5
D02
330
CB4
100
AcDbSymbolTableRecord
100
AcDbLayerTableRecord
  2
46
 70
     0
 62
     7
  6
CONTINUOUS
370
    -3
390
CC1
  0
LAYER
  5
D03
330
CB4
100
AcDbSymbolTableRecord
100
AcDbLayerTableRecord
  2
47
 70
     0
 62
     7
  6
CONTINUOUS
370
    -3
390
CC1
  0
LAYER
  5
D04
330
CB4
100
AcDbSymbolTableRecord
100
AcDbLayerTableRecord
  2
48
 70
     0
 62
     7
  6
CONTINUOUS
370
    -3
390
CC1
  0
LAYER
  5
D05
330
CB4
100
AcDbSymbolTableRecord
100
AcDbLayerTableRecord
  2
49
 70
     0
 62
     7
  6
CONTINUOUS
370
    -3
390
CC1
  0
LAYER
  5
D06
330
CB4
100
AcDbSymbolTableRecord
100
AcDbLayerTableRecord
  2
50
 70
     0
 62
     7
  6
CONTINUOUS
370
    -3
390
CC1
  0
LAYER
  5
D07
330
CB4
100
AcDbSymbolTableRecord
100
AcDbLayerTableRecord
  2
51
 70
     0
 62
     7
  6
CONTINUOUS
370
    -3
390
CC1
  0
LAYER
  5
D08
330
CB4
100
AcDbSymbolTableRecord
100
AcDbLayerTableRecord
  2
52
 70
     0
 62
     7
  6
CONTINUOUS
370
    -3
390
CC1
  0
LAYER
  5
D09
330
CB4
100
AcDbSymbolTableRecord
100
AcDbLayerTableRecord
  2
53
 70
     0
 62
     7
  6
CONTINUOUS
370
    -3
390
CC1
  0
LAYER
  5
D0A
330
CB4
100
AcDbSymbolTableRecord
100
AcDbLayerTableRecord
  2
54
 70
     0
 62
     7
  6
CONTINUOUS
370
    -3
390
CC1
  0
LAYER
  5
D0B
330
CB4
100
AcDbSymbolTableRecord
100
AcDbLayerTableRecord
  2
55
 70
     0
 62
     7
  6
CONTINUOUS
370
    -3
390
CC1
  0
LAYER
  5
D0C
330
CB4
100
AcDbSymbolTableRecord
100
AcDbLayerTableRecord
  2
56
 70
     0
 62
     7
  6
CONTINUOUS
370
    -3
390
CC1
  0
LAYER
  5
D0D
330
CB4
100
AcDbSymbolTableRecord
100
AcDbLayerTableRecord
  2
57
 70
     0
 62
     7
  6
CONTINUOUS
370
    -3
390
CC1
  0
LAYER
  5
D0E
330
CB4
100
AcDbSymbolTableRecord
100
AcDbLayerTableRecord
  2
58
 70
     0
 62
     7
  6
CONTINUOUS
370
    -3
390
CC1
  0
LAYER
  5
D0F
330
CB4
100
AcDbSymbolTableRecord
100
AcDbLayerTableRecord
  2
59
 70
     0
 62
     7
  6
CONTINUOUS
370
    -3
390
CC1
  0
LAYER
  5
D10
330
CB4
100
AcDbSymbolTableRecord
100
AcDbLayerTableRecord
  2
60
 70
     0
 62
     7
  6
CONTINUOUS
370
    -3
390
CC1
  0
LAYER
  5
D11
330
CB4
100
AcDbSymbolTableRecord
100
AcDbLayerTableRecord
  2
61
 70
     0
 62
     7
  6
CONTINUOUS
370
    -3
390
CC1
  0
LAYER
  5
D12
330
CB4
100
AcDbSymbolTableRecord
100
AcDbLayerTableRecord
  2
62
 70
     0
 62
     7
  6
CONTINUOUS
370
    -3
390
CC1
  0
LAYER
  5
D13
330
CB4
100
AcDbSymbolTableRecord
100
AcDbLayerTableRecord
  2
63
 70
     0
 62
     7
  6
CONTINUOUS
370
    -3
390
CC1
  0
LAYER
  5
D14
330
CB4
100
AcDbSymbolTableRecord
100
AcDbLayerTableRecord
  2
64
 70
     0
 62
     7
  6
CONTINUOUS
370
    -3
390
CC1
  0
LAYER
  5
D15
330
CB4
100
AcDbSymbolTableRecord
100
AcDbLayerTableRecord
  2
65
 70
     0
 62
     7
  6
CONTINUOUS
370
    -3
390
CC1
  0
LAYER
  5
D16
330
CB4
100
AcDbSymbolTableRecord
100
AcDbLayerTableRecord
  2
66
 70
     0
 62
     7
  6
CONTINUOUS
370
    -3
390
CC1
  0
LAYER
  5
D17
330
CB4
100
AcDbSymbolTableRecord
100
AcDbLayerTableRecord
  2
67
 70
     0
 62
     7
  6
CONTINUOUS
370
    -3
390
CC1
  0
LAYER
  5
D18
330
CB4
100
AcDbSymbolTableRecord
100
AcDbLayerTableRecord
  2
68
 70
     0
 62
     7
  6
CONTINUOUS
370
    -3
390
CC1
  0
LAYER
  5
D19
330
CB4
100
AcDbSymbolTableRecord
100
AcDbLayerTableRecord
  2
69
 70
     0
 62
     7
  6
CONTINUOUS
370
    -3
390
CC1
  0
LAYER
  5
D1A
330
CB4
100
AcDbSymbolTableRecord
100
AcDbLayerTableRecord
  2
70
 70
     0
 62
     7
  6
CONTINUOUS
370
    -3
390
CC1
  0
LAYER
  5
D1B
330
CB4
100
AcDbSymbolTableRecord
100
AcDbLayerTableRecord
  2
71
 70
     0
 62
     7
  6
CONTINUOUS
370
    -3
390
CC1
  0
LAYER
  5
D1C
330
CB4
100
AcDbSymbolTableRecord
100
AcDbLayerTableRecord
  2
72
 70
     0
 62
     7
  6
CONTINUOUS
370
    -3
390
CC1
  0
LAYER
  5
D1D
330
CB4
100
AcDbSymbolTableRecord
100
AcDbLayerTableRecord
  2
73
 70
     0
 62
     7
  6
CONTINUOUS
370
    -3
390
CC1
  0
LAYER
  5
D1E
330
CB4
100
AcDbSymbolTableRecord
100
AcDbLayerTableRecord
  2
74
 70
     0
 62
     7
  6
CONTINUOUS
370
    -3
390
CC1
  0
LAYER
  5
D1F
330
CB4
100
AcDbSymbolTableRecord
100
AcDbLayerTableRecord
  2
75
 70
     0
 62
     7
  6
CONTINUOUS
370
    -3
390
CC1
  0
LAYER
  5
D20
330
CB4
100
AcDbSymbolTableRecord
100
AcDbLayerTableRecord
  2
76
 70
     0
 62
     7
  6
CONTINUOUS
370
    -3
390
CC1
  0
LAYER
  5
D21
330
CB4
100
AcDbSymbolTableRecord
100
AcDbLayerTableRecord
  2
77
 70
     0
 62
     7
  6
CONTINUOUS
370
    -3
390
CC1
  0
LAYER
  5
D22
330
CB4
100
AcDbSymbolTableRecord
100
AcDbLayerTableRecord
  2
78
 70
     0
 62
     7
  6
CONTINUOUS
370
    -3
390
CC1
  0
LAYER
  5
D23
330
CB4
100
AcDbSymbolTableRecord
100
AcDbLayerTableRecord
  2
79
 70
     0
 62
     7
  6
CONTINUOUS
370
    -3
390
CC1
  0
LAYER
  5
D24
330
CB4
100
AcDbSymbolTableRecord
100
AcDbLayerTableRecord
  2
80
 70
     0
 62
     7
  6
CONTINUOUS
370
    -3
390
CC1
  0
LAYER
  5
D25
330
CB4
100
AcDbSymbolTableRecord
100
AcDbLayerTableRecord
  2
81
 70
     0
 62
     7
  6
CONTINUOUS
370
    -3
390
CC1
  0
LAYER
  5
D26
330
CB4
100
AcDbSymbolTableRecord
100
AcDbLayerTableRecord
  2
82
 70
     0
 62
     7
  6
CONTINUOUS
370
    -3
390
CC1
  0
LAYER
  5
D27
330
CB4
100
AcDbSymbolTableRecord
100
AcDbLayerTableRecord
  2
83
 70
     0
 62
     7
  6
CONTINUOUS
370
    -3
390
CC1
  0
LAYER
  5
D28
330
CB4
100
AcDbSymbolTableRecord
100
AcDbLayerTableRecord
  2
84
 70
     0
 62
     7
  6
CONTINUOUS
370
    -3
390
CC1
  0
LAYER
  5
D29
330
CB4
100
AcDbSymbolTableRecord
100
AcDbLayerTableRecord
  2
85
 70
     0
 62
     7
  6
CONTINUOUS
370
    -3
390
CC1
  0
LAYER
  5
D2A
330
CB4
100
AcDbSymbolTableRecord
100
AcDbLayerTableRecord
  2
86
 70
     0
 62
     7
  6
CONTINUOUS
370
    -3
390
CC1
  0
LAYER
  5
D2B
330
CB4
100
AcDbSymbolTableRecord
100
AcDbLayerTableRecord
  2
87
 70
     0
 62
     7
  6
CONTINUOUS
370
    -3
390
CC1
  0
LAYER
  5
D2C
330
CB4
100
AcDbSymbolTableRecord
100
AcDbLayerTableRecord
  2
88
 70
     0
 62
     7
  6
CONTINUOUS
370
    -3
390
CC1
  0
LAYER
  5
D2D
330
CB4
100
AcDbSymbolTableRecord
100
AcDbLayerTableRecord
  2
89
 70
     0
 62
     7
  6
CONTINUOUS
370
    -3
390
CC1
  0
LAYER
  5
D2E
330
CB4
100
AcDbSymbolTableRecord
100
AcDbLayerTableRecord
  2
90
 70
     0
 62
     7
  6
CONTINUOUS
370
    -3
390
CC1
  0
LAYER
  5
D2F
330
CB4
100
AcDbSymbolTableRecord
100
AcDbLayerTableRecord
  2
91
 70
     0
 62
     7
  6
CONTINUOUS
370
    -3
390
CC1
  0
LAYER
  5
D30
330
CB4
100
AcDbSymbolTableRecord
100
AcDbLayerTableRecord
  2
92
 70
     0
 62
     7
  6
CONTINUOUS
370
    -3
390
CC1
  0
LAYER
  5
D31
330
CB4
100
AcDbSymbolTableRecord
100
AcDbLayerTableRecord
  2
93
 70
     0
 62
     7
  6
CONTINUOUS
370
    -3
390
CC1
  0
LAYER
  5
D32
330
CB4
100
AcDbSymbolTableRecord
100
AcDbLayerTableRecord
  2
94
 70
     0
 62
     7
  6
CONTINUOUS
370
    -3
390
CC1
  0
LAYER
  5
D33
330
CB4
100
AcDbSymbolTableRecord
100
AcDbLayerTableRecord
  2
95
 70
     0
 62
     7
  6
CONTINUOUS
370
    -3
390
CC1
  0
LAYER
  5
D34
330
CB4
100
AcDbSymbolTableRecord
100
AcDbLayerTableRecord
  2
96
 70
     0
 62
     7
  6
CONTINUOUS
370
    -3
390
CC1
  0
LAYER
  5
D35
330
CB4
100
AcDbSymbolTableRecord
100
AcDbLayerTableRecord
  2
97
 70
     0
 62
     7
  6
CONTINUOUS
370
    -3
390
CC1
  0
LAYER
  5
D36
330
CB4
100
AcDbSymbolTableRecord
100
AcDbLayerTableRecord
  2
98
 70
     0
 62
     7
  6
CONTINUOUS
370
    -3
390
CC1
  0
LAYER
  5
D37
330
CB4
100
AcDbSymbolTableRecord
100
AcDbLayerTableRecord
  2
99
 70
     0
 62
     7
  6
CONTINUOUS
370
    -3
390
CC1
  0
LAYER
  5
D38
330
CB4
100
AcDbSymbolTableRecord
100
AcDbLayerTableRecord
  2
100
 70
     0
 62
     7
  6
CONTINUOUS
370
    -3
390
CC1
  0
LAYER
  5
D39
330
CB4
100
AcDbSymbolTableRecord
100
AcDbLayerTableRecord
  2
101
 70
     0
 62
     7
  6
CONTINUOUS
370
    -3
390
CC1
  0
LAYER
  5
D3A
330
CB4
100
AcDbSymbolTableRecord
100
AcDbLayerTableRecord
  2
102
 70
     0
 62
     7
  6
CONTINUOUS
370
    -3
390
CC1
  0
LAYER
  5
D3B
330
CB4
100
AcDbSymbolTableRecord
100
AcDbLayerTableRecord
  2
103
 70
     0
 62
     7
  6
CONTINUOUS
370
    -3
390
CC1
  0
LAYER
  5
D3C
330
CB4
100
AcDbSymbolTableRecord
100
AcDbLayerTableRecord
  2
104
 70
     0
 62
     7
  6
CONTINUOUS
370
    -3
390
CC1
  0
LAYER
  5
D3D
330
CB4
100
AcDbSymbolTableRecord
100
AcDbLayerTableRecord
  2
105
 70
     0
 62
     7
  6
CONTINUOUS
370
    -3
390
CC1
  0
LAYER
  5
D3E
330
CB4
100
AcDbSymbolTableRecord
100
AcDbLayerTableRecord
  2
106
 70
     0
 62
     7
  6
CONTINUOUS
370
    -3
390
CC1
  0
LAYER
  5
D3F
330
CB4
100
AcDbSymbolTableRecord
100
AcDbLayerTableRecord
  2
107
 70
     0
 62
     7
  6
CONTINUOUS
370
    -3
390
CC1
  0
LAYER
  5
D40
330
CB4
100
AcDbSymbolTableRecord
100
AcDbLayerTableRecord
  2
108
 70
     0
 62
     7
  6
CONTINUOUS
370
    -3
390
CC1
  0
LAYER
  5
D41
330
CB4
100
AcDbSymbolTableRecord
100
AcDbLayerTableRecord
  2
109
 70
     0
 62
     7
  6
CONTINUOUS
370
    -3
390
CC1
  0
LAYER
  5
D42
330
CB4
100
AcDbSymbolTableRecord
100
AcDbLayerTableRecord
  2
110
 70
     0
 62
     7
  6
CONTINUOUS
370
    -3
390
CC1
  0
LAYER
  5
D43
330
CB4
100
AcDbSymbolTableRecord
100
AcDbLayerTableRecord
  2
111
 70
     0
 62
     7
  6
CONTINUOUS
370
    -3
390
CC1
  0
LAYER
  5
D44
330
CB4
100
AcDbSymbolTableRecord
100
AcDbLayerTableRecord
  2
112
 70
     0
 62
     7
  6
CONTINUOUS
370
    -3
390
CC1
  0
LAYER
  5
D45
330
CB4
100
AcDbSymbolTableRecord
100
AcDbLayerTableRecord
  2
113
 70
     0
 62
     7
  6
CONTINUOUS
370
    -3
390
CC1
  0
LAYER
  5
D46
330
CB4
100
AcDbSymbolTableRecord
100
AcDbLayerTableRecord
  2
114
 70
     0
 62
     7
  6
CONTINUOUS
370
    -3
390
CC1
  0
LAYER
  5
D47
330
CB4
100
AcDbSymbolTableRecord
100
AcDbLayerTableRecord
  2
115
 70
     0
 62
     7
  6
CONTINUOUS
370
    -3
390
CC1
  0
LAYER
  5
D48
330
CB4
100
AcDbSymbolTableRecord
100
AcDbLayerTableRecord
  2
116
 70
     0
 62
     7
  6
CONTINUOUS
370
    -3
390
CC1
  0
LAYER
  5
D49
330
CB4
100
AcDbSymbolTableRecord
100
AcDbLayerTableRecord
  2
117
 70
     0
 62
     7
  6
CONTINUOUS
370
    -3
390
CC1
  0
LAYER
  5
D4A
330
CB4
100
AcDbSymbolTableRecord
100
AcDbLayerTableRecord
  2
118
 70
     0
 62
     7
  6
CONTINUOUS
370
    -3
390
CC1
  0
LAYER
  5
D4B
330
CB4
100
AcDbSymbolTableRecord
100
AcDbLayerTableRecord
  2
119
 70
     0
 62
     7
  6
CONTINUOUS
370
    -3
390
CC1
  0
LAYER
  5
D4C
330
CB4
100
AcDbSymbolTableRecord
100
AcDbLayerTableRecord
  2
120
 70
     0
 62
     7
  6
CONTINUOUS
370
    -3
390
CC1
  0
LAYER
  5
D4D
330
CB4
100
AcDbSymbolTableRecord
100
AcDbLayerTableRecord
  2
121
 70
     0
 62
     7
  6
CONTINUOUS
370
    -3
390
CC1
  0
LAYER
  5
D4E
330
CB4
100
AcDbSymbolTableRecord
100
AcDbLayerTableRecord
  2
122
 70
     0
 62
     7
  6
CONTINUOUS
370
    -3
390
CC1
  0
LAYER
  5
D4F
330
CB4
100
AcDbSymbolTableRecord
100
AcDbLayerTableRecord
  2
123
 70
     0
 62
     7
  6
CONTINUOUS
370
    -3
390
CC1
  0
LAYER
  5
D50
330
CB4
100
AcDbSymbolTableRecord
100
AcDbLayerTableRecord
  2
124
 70
     0
 62
     7
  6
CONTINUOUS
370
    -3
390
CC1
  0
LAYER
  5
D51
330
CB4
100
AcDbSymbolTableRecord
100
AcDbLayerTableRecord
  2
125
 70
     0
 62
     7
  6
CONTINUOUS
370
    -3
390
CC1
  0
LAYER
  5
D52
330
CB4
100
AcDbSymbolTableRecord
100
AcDbLayerTableRecord
  2
126
 70
     0
 62
     7
  6
CONTINUOUS
370
    -3
390
CC1
  0
LAYER
  5
D53
330
CB4
100
AcDbSymbolTableRecord
100
AcDbLayerTableRecord
  2
127
 70
     0
 62
     7
  6
CONTINUOUS
370
    -3
390
CC1
  0
ENDTAB
  0
TABLE
  2
STYLE
  5
CB5
330
0
100
AcDbSymbolTable
 70
     6
  0
STYLE
  5
CC3
330
CB5
100
AcDbSymbolTableRecord
100
AcDbTextStyleTableRecord
  2
STANDARD
 70
     0
 40
0.0
 41
1.0
 50
0.0
 71
     0
 42
0.2
  3
txt
  4

  0
STYLE
  5
D54
330
CB5
100
AcDbSymbolTableRecord
100
AcDbTextStyleTableRecord
  2
KANJI0
 70
     0
 40
2.0
 41
0.8
 50
0.0
 71
     0
 42
2.0
  3
txt
  4
bigfont
  0
STYLE
  5
D55
330
CB5
100
AcDbSymbolTableRecord
100
AcDbTextStyleTableRecord
  2
KANJI1
 70
     0
 40
3.0
 41
1.0
 50
0.0
 71
     0
 42
3.0
  3
txt
  4
bigfont
  0
STYLE
  5
D56
330
CB5
100
AcDbSymbolTableRecord
100
AcDbTextStyleTableRecord
  2
KANJI2
 70
     0
 40
3.0
 41
1.0
 50
0.0
 71
     0
 42
3.0
  3
txt
  4
bigfont
  0
STYLE
  5
D57
330
CB5
100
AcDbSymbolTableRecord
100
AcDbTextStyleTableRecord
  2
KANJI3
 70
     0
 40
5.0
 41
0.8
 50
0.0
 71
     0
 42
5.0
  3
txt
  4
bigfont
  0
STYLE
  5
D58
330
CB5
100
AcDbSymbolTableRecord
100
AcDbTextStyleTableRecord
  2
KANJI4
 70
     0
 40
2.5
 41
0.8
 50
0.0
 71
     0
 42
2.5
  3
txt
  4
bigfont
  0
ENDTAB
  0
TABLE
  2
VIEW
  5
CB8
330
0
100
AcDbSymbolTable
 70
     0
  0
ENDTAB
  0
TABLE
  2
UCS
  5
CB9
330
0
100
AcDbSymbolTable
 70
     0
  0
ENDTAB
  0
TABLE
  2
APPID
  5
CBB
330
0
100
AcDbSymbolTable
 70
     1
  0
APPID
  5
CC4
330
CBB
100
AcDbSymbolTableRecord
100
AcDbRegAppTableRecord
  2
ACAD
 70
     0
  0
ENDTAB
  0
TABLE
  2
DIMSTYLE
  5
CBC
330
0
100
AcDbSymbolTable
 70
     1
100
AcDbDimStyleTable
 71
     0
  0
DIMSTYLE
105
D59
330
CBC
100
AcDbSymbolTableRecord
100
AcDbDimStyleTableRecord
  2
STANDARD
 70
     0
279
     2
340
CC3
  0
ENDTAB
  0
TABLE
  2
BLOCK_RECORD
  5
CB3
330
0
100
AcDbSymbolTable
 70
     2
  0
BLOCK_RECORD
  5
CD0
330
CB3
100
AcDbSymbolTableRecord
100
AcDbBlockTableRecord
  2
*Model_Space
340
CD3
  0
BLOCK_RECORD
  5
CCC
330
CB3
100
AcDbSymbolTableRecord
100
AcDbBlockTableRecord
  2
*Paper_Space
340
CCF
  0
BLOCK_RECORD
  5
D5C
330
CB3
100
AcDbSymbolTableRecord
100
AcDbBlockTableRecord
  2
$MODEL_SPACE
340
0
  0
BLOCK_RECORD
  5
D5F
330
CB3
100
AcDbSymbolTableRecord
100
AcDbBlockTableRecord
  2
$PAPER_SPACE
340
0
  0
ENDTAB
  0
ENDSEC
  0
SECTION
  2
BLOCKS
  0
BLOCK
  5
CD1
330
CD0
100
AcDbEntity
  8
0
100
AcDbBlockBegin
  2
*Model_Space
 70
     0
 10
0.0
 20
0.0
 30
0.0
  3
*Model_Space
  1

  0
ENDBLK
  5
CD2
330
CD0
100
AcDbEntity
  8
0
100
AcDbBlockEnd
  0
BLOCK
  5
CCD
330
CCC
100
AcDbEntity
 67
     1
  8
0
100
AcDbBlockBegin
  2
*Paper_Space
 70
     0
 10
0.0
 20
0.0
 30
0.0
  3
*Paper_Space
  1

  0
ENDBLK
  5
CCE
330
CCC
100
AcDbEntity
 67
     1
  8
0
100
AcDbBlockEnd
  0
BLOCK
  5
D5D
330
D5C
100
AcDbEntity
  8
0
100
AcDbBlockBegin
  2
$MODEL_SPACE
 70
     0
 10
0.0
 20
0.0
 30
0.0
  3
$MODEL_SPACE
  1

  0
ENDBLK
  5
D5E
330
D5C
100
AcDbEntity
  8
0
100
AcDbBlockEnd
  0
BLOCK
  5
D60
330
D5F
100
AcDbEntity
  8
0
100
AcDbBlockBegin
  2
$PAPER_SPACE
 70
     0
 10
0.0
 20
0.0
 30
0.0
  3
$PAPER_SPACE
  1

  0
ENDBLK
  5
D61
330
D5F
100
AcDbEntity
  8
0
100
AcDbBlockEnd
  0
ENDSEC
  0
SECTION
  2
ENTITIES
  0
LINE
  5
D62
330
CD0
100
AcDbEntity
  8
0
  6
Continuous
 62
     3
100
AcDbLine
 10
126.915
 20
95.350000001
 30
0.0
 11
126.915000001
 21
106.450000001
 31
0.0
  0
LINE
  5
D63
330
CD0
100
AcDbEntity
  8
0
  6
Continuous
 62
     3
100
AcDbLine
 10
125.916346212
 20
74.000000001
 30
0.0
 11
125.916346213
 21
94.000000001
 31
0.0
  0
LINE
  5
D64
330
CD0
100
AcDbEntity
  8
0
  6
Continuous
 62
     3
100
AcDbLine
 10
128.5323810419999
 20
72.750000001
 30
0.0
 11
128.5323810419999
 21
74.000000001
 31
0.0
  0
LINE
  5
D65
330
CD0
100
AcDbEntity
  8
0
  6
Continuous
 62
     3
100
AcDbLine
 10
128.5323810429999
 20
95.250000001
 30
0.0
 11
128.5323810429999
 21
94.000000001
 31
0.0
  0
LINE
  5
D66
330
CD0
100
AcDbEntity
  8
0
  6
Continuous
 62
     3
100
AcDbLine
 10
174.700000007
 20
255.1499999979998
 30
0.0
 11
115.300000007
 21
255.1500000009998
 31
0.0
  0
LINE
  5
D67
330
CD0
100
AcDbEntity
  8
0
  6
Continuous
 62
     3
100
AcDbLine
 10
174.7000000049999
 20
210.8499999979999
 30
0.0
 11
174.700000007
 21
255.1499999979998
 31
0.0
  0
LINE
  5
D68
330
CD0
100
AcDbEntity
  8
0
  6
Continuous
 62
     3
100
AcDbLine
 10
115.300000007
 20
255.1500000009998
 30
0.0
 11
115.300000005
 21
215.850000001
 31
0.0
  0
LINE
  5
D69
330
CD0
100
AcDbEntity
  8
0
  6
Continuous
 62
     3
100
AcDbLine
 10
120.300000005
 20
210.8500000009998
 30
0.0
 11
174.7000000049999
 21
210.8499999979999
 31
0.0
  0
LINE
  5
D6A
330
CD0
100
AcDbEntity
  8
0
  6
Continuous
 62
     3
100
AcDbLine
 10
114.100000006
 20
232.250366326
 30
0.0
 11
112.600000006
 21
232.2500000009996
 31
0.0
  0
LINE
  5
D6B
330
CD0
100
AcDbEntity
  8
0
  6
Continuous
 62
     3
100
AcDbLine
 10
114.100000006
 20
233.854633677
 30
0.0
 11
112.600000006
 21
233.8550000009996
 31
0.0
  0
LINE
  5
D6C
330
CD0
100
AcDbEntity
  8
0
  6
Continuous
 62
     3
100
AcDbLine
 10
112.600000006
 20
232.1450000009998
 30
0.0
 11
114.100000006
 21
232.1453663259996
 31
0.0
  0
LINE
  5
D6D
330
CD0
100
AcDbEntity
  8
0
  6
Continuous
 62
     3
100
AcDbLine
 10
114.100000006
 20
233.7496336759997
 30
0.0
 11
112.600000006
 21
233.7500000009999
 31
0.0
  0
LINE
  5
D6E
330
CD0
100
AcDbEntity
  8
0
  6
Continuous
 62
     3
100
AcDbLine
 10
182.500000007
 20
253.0499999979999
 30
0.0
 11
182.500000007
 21
252.049999998
 31
0.0
  0
LINE
  5
D6F
330
CD0
100
AcDbEntity
  8
0
  6
Continuous
 62
     3
100
AcDbLine
 10
182.500000007
 20
252.049999998
 30
0.0
 11
187.500000007
 21
252.049999998
 31
0.0
  0
LINE
  5
D70
330
CD0
100
AcDbEntity
  8
0
  6
Continuous
 62
     3
100
AcDbLine
 10
187.500000007
 20
252.049999998
 30
0.0
 11
187.500000007
 21
253.0499999979999
 31
0.0
  0
LINE
  5
D71
330
CD0
100
AcDbEntity
  8
0
  6
Continuous
 62
     3
100
AcDbLine
 10
182.500000005
 20
213.9499999979999
 30
0.0
 11
182.500000005
 21
212.9499999979999
 31
0.0
  0
LINE
  5
D72
330
CD0
100
AcDbEntity
  8
0
  6
Continuous
 62
     3
100
AcDbLine
 10
187.500000005
 20
213.9499999979999
 30
0.0
 11
182.500000005
 21
213.9499999979999
 31
0.0
  0
LINE
  5
D73
330
CD0
100
AcDbEntity
  8
0
  6
Continuous
 62
     3
100
AcDbLine
 10
187.500000005
 20
212.9499999979999
 30
0.0
 11
187.500000005
 21
213.9499999979999
 31
0.0
  0
LINE
  5
D74
330
CD0
100
AcDbEntity
  8
0
  6
Continuous
 62
     3
100
AcDbLine
 10
114.100000006
 20
232.1453663259996
 30
0.0
 11
114.100000006
 21
233.854633677
 31
0.0
  0
LINE
  5
D75
330
CD0
100
AcDbEntity
  8
0
  6
Continuous
 62
     3
100
AcDbLine
 10
114.100000007
 20
253.145732652
 30
0.0
 11
114.100000007
 21
254.855000002
 31
0.0
  0
LINE
  5
D76
330
CD0
100
AcDbEntity
  8
0
  6
Continuous
 62
     3
100
AcDbLine
 10
175.9000000059999
 20
237.249267348
 30
0.0
 11
177.4000000059999
 21
237.249633673
 31
0.0
  0
LINE
  5
D77
330
CD0
100
AcDbEntity
  8
0
  6
Continuous
 62
     3
100
AcDbLine
 10
177.4000000059999
 20
237.354633673
 30
0.0
 11
175.9000000059999
 21
237.3542673479998
 31
0.0
  0
LINE
  5
D78
330
CD0
100
AcDbEntity
  8
0
  6
Continuous
 62
     3
100
AcDbLine
 10
114.100000007
 20
254.7500000009996
 30
0.0
 11
112.600000007
 21
254.750366327
 31
0.0
  0
LINE
  5
D79
330
CD0
100
AcDbEntity
  8
0
  6
Continuous
 62
     3
100
AcDbLine
 10
112.600000007
 20
253.145366327
 30
0.0
 11
114.100000007
 21
253.145732652
 31
0.0
  0
LINE
  5
D7A
330
CD0
100
AcDbEntity
  8
0
  6
Continuous
 62
     3
100
AcDbLine
 10
114.100000007
 20
254.855000002
 30
0.0
 11
112.600000007
 21
254.855366327
 31
0.0
  0
LINE
  5
D7B
330
CD0
100
AcDbEntity
  8
0
  6
Continuous
 62
     3
100
AcDbLine
 10
175.9000000059999
 20
235.7499999979999
 30
0.0
 11
177.4000000059999
 21
235.749633673
 31
0.0
  0
LINE
  5
D7C
330
CD0
100
AcDbEntity
  8
0
  6
Continuous
 62
     3
100
AcDbLine
 10
175.9000000059999
 20
237.3542673479998
 30
0.0
 11
175.9000000059999
 21
235.644999997
 31
0.0
  0
LINE
  5
D7D
330
CD0
100
AcDbEntity
  8
0
  6
Continuous
 62
     3
100
AcDbLine
 10
175.9000000059999
 20
230.2492673479999
 30
0.0
 11
177.4000000059999
 21
230.2496336729999
 31
0.0
  0
LINE
  5
D7E
330
CD0
100
AcDbEntity
  8
0
  6
Continuous
 62
     3
100
AcDbLine
 10
114.100000007
 20
253.2507326509999
 30
0.0
 11
112.600000007
 21
253.2503663269998
 31
0.0
  0
LINE
  5
D7F
330
CD0
100
AcDbEntity
  8
0
  6
Continuous
 62
     3
100
AcDbLine
 10
114.100000007
 20
249.645732652
 30
0.0
 11
114.100000007
 21
251.3550000019999
 31
0.0
  0
LINE
  5
D80
330
CD0
100
AcDbEntity
  8
0
  6
Continuous
 62
     3
100
AcDbLine
 10
114.100000007
 20
251.2500000009999
 30
0.0
 11
112.600000007
 21
251.2503663269999
 31
0.0
  0
LINE
  5
D81
330
CD0
100
AcDbEntity
  8
0
  6
Continuous
 62
     3
100
AcDbLine
 10
177.4000000059999
 20
230.354633673
 30
0.0
 11
175.9000000059999
 21
230.3542673479998
 31
0.0
  0
LINE
  5
D82
330
CD0
100
AcDbEntity
  8
0
  6
Continuous
 62
     3
100
AcDbLine
 10
112.600000007
 20
249.645366327
 30
0.0
 11
114.100000007
 21
249.645732652
 31
0.0
  0
LINE
  5
D83
330
CD0
100
AcDbEntity
  8
0
  6
Continuous
 62
     3
100
AcDbLine
 10
114.100000007
 20
251.3550000019999
 30
0.0
 11
112.600000007
 21
251.355366327
 31
0.0
  0
LINE
  5
D84
330
CD0
100
AcDbEntity
  8
0
  6
Continuous
 62
     3
100
AcDbLine
 10
114.100000007
 20
249.750732651
 30
0.0
 11
112.600000007
 21
249.7503663269998
 31
0.0
  0
LINE
  5
D85
330
CD0
100
AcDbEntity
  8
0
  6
Continuous
 62
     3
100
AcDbLine
 10
114.100000006
 20
246.145732652
 30
0.0
 11
114.100000006
 21
247.8550000019998
 31
0.0
  0
LINE
  5
D86
330
CD0
100
AcDbEntity
  8
0
  6
Continuous
 62
     3
100
AcDbLine
 10
114.100000006
 20
247.750000001
 30
0.0
 11
112.600000006
 21
247.7503663269998
 31
0.0
  0
LINE
  5
D87
330
CD0
100
AcDbEntity
  8
0
  6
Continuous
 62
     3
100
AcDbLine
 10
175.9000000059999
 20
228.749999998
 30
0.0
 11
177.4000000059999
 21
228.749633673
 31
0.0
  0
LINE
  5
D88
330
CD0
100
AcDbEntity
  8
0
  6
Continuous
 62
     3
100
AcDbLine
 10
181.0000000049998
 20
217.4999999979996
 30
0.0
 11
189.000000005
 21
217.4999999979996
 31
0.0
  0
LINE
  5
D89
330
CD0
100
AcDbEntity
  8
0
  6
Continuous
 62
     3
100
AcDbLine
 10
120.300000005
 20
210.8500000009998
 30
0.0
 11
115.300000005
 21
215.850000001
 31
0.0
  0
LINE
  5
D8A
330
CD0
100
AcDbEntity
  8
0
  6
Continuous
 62
     3
100
AcDbLine
 10
175.9000000059999
 20
230.3542673479998
 30
0.0
 11
175.9000000059999
 21
228.644999997
 31
0.0
  0
LINE
  5
D8B
330
CD0
100
AcDbEntity
  8
0
  6
Continuous
 62
     3
100
AcDbLine
 10
175.9000000059999
 20
240.7492673479999
 30
0.0
 11
177.4000000059999
 21
240.7496336729999
 31
0.0
  0
LINE
  5
D8C
330
CD0
100
AcDbEntity
  8
0
  6
Continuous
 62
     3
100
AcDbLine
 10
175.9000000059999
 20
239.144999997
 30
0.0
 11
177.4000000059999
 21
239.144633673
 31
0.0
  0
LINE
  5
D8D
330
CD0
100
AcDbEntity
  8
0
  6
Continuous
 62
     3
100
AcDbLine
 10
177.4000000059999
 20
240.854633673
 30
0.0
 11
175.9000000059999
 21
240.8542673479998
 31
0.0
  0
LINE
  5
D8E
330
CD0
100
AcDbEntity
  8
0
  6
Continuous
 62
     3
100
AcDbLine
 10
175.9000000059999
 20
239.249999998
 30
0.0
 11
177.4000000059999
 21
239.249633673
 31
0.0
  0
LINE
  5
D8F
330
CD0
100
AcDbEntity
  8
0
  6
Continuous
 62
     3
100
AcDbLine
 10
102.500000007
 20
253.050000002
 30
0.0
 11
102.500000007
 21
252.050000002
 31
0.0
  0
LINE
  5
D90
330
CD0
100
AcDbEntity
  8
0
  6
Continuous
 62
     3
100
AcDbLine
 10
175.9000000059999
 20
240.8542673479998
 30
0.0
 11
175.9000000059999
 21
239.144999997
 31
0.0
  0
LINE
  5
D91
330
CD0
100
AcDbEntity
  8
0
  6
Continuous
 62
     3
100
AcDbLine
 10
175.9000000059999
 20
244.2492673479996
 30
0.0
 11
177.4000000059999
 21
244.249633673
 31
0.0
  0
LINE
  5
D92
330
CD0
100
AcDbEntity
  8
0
  6
Continuous
 62
     3
100
AcDbLine
 10
112.600000006
 20
246.1453663269999
 30
0.0
 11
114.100000006
 21
246.145732652
 31
0.0
  0
LINE
  5
D93
330
CD0
100
AcDbEntity
  8
0
  6
Continuous
 62
     3
100
AcDbLine
 10
114.100000006
 20
247.8550000019998
 30
0.0
 11
112.600000006
 21
247.855366327
 31
0.0
  0
LINE
  5
D94
330
CD0
100
AcDbEntity
  8
0
  6
Continuous
 62
     3
100
AcDbLine
 10
114.100000006
 20
246.2507326509999
 30
0.0
 11
112.600000006
 21
246.250366327
 31
0.0
  0
LINE
  5
D95
330
CD0
100
AcDbEntity
  8
0
  6
Continuous
 62
     3
100
AcDbLine
 10
175.9000000059999
 20
242.6449999969999
 30
0.0
 11
177.4000000059999
 21
242.6446336729999
 31
0.0
  0
LINE
  5
D96
330
CD0
100
AcDbEntity
  8
0
  6
Continuous
 62
     3
100
AcDbLine
 10
177.4000000059999
 20
244.3546336729998
 30
0.0
 11
175.9000000059999
 21
244.3542673479998
 31
0.0
  0
LINE
  5
D97
330
CD0
100
AcDbEntity
  8
0
  6
Continuous
 62
     3
100
AcDbLine
 10
175.9000000059999
 20
242.7499999979999
 30
0.0
 11
177.4000000059999
 21
242.7496336729999
 31
0.0
  0
LINE
  5
D98
330
CD0
100
AcDbEntity
  8
0
  6
Continuous
 62
     3
100
AcDbLine
 10
114.100000006
 20
242.645732652
 30
0.0
 11
114.100000006
 21
244.355000002
 31
0.0
  0
LINE
  5
D99
330
CD0
100
AcDbEntity
  8
0
  6
Continuous
 62
     3
100
AcDbLine
 10
114.100000006
 20
244.2500000009999
 30
0.0
 11
112.600000006
 21
244.250366327
 31
0.0
  0
LINE
  5
D9A
330
CD0
100
AcDbEntity
  8
0
  6
Continuous
 62
     3
100
AcDbLine
 10
112.600000006
 20
242.645366327
 30
0.0
 11
114.100000006
 21
242.645732652
 31
0.0
  0
LINE
  5
D9B
330
CD0
100
AcDbEntity
  8
0
  6
Continuous
 62
     3
100
AcDbLine
 10
175.9000000059999
 20
244.3542673479998
 30
0.0
 11
175.9000000059999
 21
242.6449999969999
 31
0.0
  0
LINE
  5
D9C
330
CD0
100
AcDbEntity
  8
0
  6
Continuous
 62
     3
100
AcDbLine
 10
175.9000000059999
 20
247.749267348
 30
0.0
 11
177.4000000059999
 21
247.749633673
 31
0.0
  0
LINE
  5
D9D
330
CD0
100
AcDbEntity
  8
0
  6
Continuous
 62
     3
100
AcDbLine
 10
175.9000000059999
 20
246.144999997
 30
0.0
 11
177.4000000059999
 21
246.1446336729999
 31
0.0
  0
LINE
  5
D9E
330
CD0
100
AcDbEntity
  8
0
  6
Continuous
 62
     3
100
AcDbLine
 10
114.100000006
 20
244.355000002
 30
0.0
 11
112.600000006
 21
244.355366327
 31
0.0
  0
LINE
  5
D9F
330
CD0
100
AcDbEntity
  8
0
  6
Continuous
 62
     3
100
AcDbLine
 10
189.000000005
 20
217.4999999979996
 30
0.0
 11
189.000000007
 21
248.4999999979996
 31
0.0
  0
LINE
  5
DA0
330
CD0
100
AcDbEntity
  8
0
  6
Continuous
 62
     3
100
AcDbLine
 10
114.100000006
 20
242.7507326509999
 30
0.0
 11
112.600000006
 21
242.750366327
 31
0.0
  0
LINE
  5
DA1
330
CD0
100
AcDbEntity
  8
0
  6
Continuous
 62
     3
100
AcDbLine
 10
114.100000006
 20
239.145732652
 30
0.0
 11
114.100000006
 21
240.8550000019999
 31
0.0
  0
LINE
  5
DA2
330
CD0
100
AcDbEntity
  8
0
  6
Continuous
 62
     3
100
AcDbLine
 10
177.4000000059999
 20
247.854633673
 30
0.0
 11
175.9000000059999
 21
247.8542673479998
 31
0.0
  0
LINE
  5
DA3
330
CD0
100
AcDbEntity
  8
0
  6
Continuous
 62
     3
100
AcDbLine
 10
175.9000000059999
 20
246.2499999979999
 30
0.0
 11
177.4000000059999
 21
246.249633673
 31
0.0
  0
LINE
  5
DA4
330
CD0
100
AcDbEntity
  8
0
  6
Continuous
 62
     3
100
AcDbLine
 10
175.9000000059999
 20
247.8542673479998
 30
0.0
 11
175.9000000059999
 21
246.144999997
 31
0.0
  0
LINE
  5
DA5
330
CD0
100
AcDbEntity
  8
0
  6
Continuous
 62
     3
100
AcDbLine
 10
114.100000006
 20
240.7500000009999
 30
0.0
 11
112.600000006
 21
240.7503663269998
 31
0.0
  0
LINE
  5
DA6
330
CD0
100
AcDbEntity
  8
0
  6
Continuous
 62
     3
100
AcDbLine
 10
112.600000006
 20
239.145366327
 30
0.0
 11
114.100000006
 21
239.145732652
 31
0.0
  0
LINE
  5
DA7
330
CD0
100
AcDbEntity
  8
0
  6
Continuous
 62
     3
100
AcDbLine
 10
114.100000006
 20
240.8550000019999
 30
0.0
 11
112.600000006
 21
240.855366327
 31
0.0
  0
LINE
  5
DA8
330
CD0
100
AcDbEntity
  8
0
  6
Continuous
 62
     3
100
AcDbLine
 10
175.900000007
 20
251.249267348
 30
0.0
 11
177.400000007
 21
251.2496336729999
 31
0.0
  0
LINE
  5
DA9
330
CD0
100
AcDbEntity
  8
0
  6
Continuous
 62
     3
100
AcDbLine
 10
175.900000007
 20
249.644999997
 30
0.0
 11
177.400000007
 21
249.644633673
 31
0.0
  0
LINE
  5
DAA
330
CD0
100
AcDbEntity
  8
0
  6
Continuous
 62
     3
100
AcDbLine
 10
177.400000007
 20
251.354633673
 30
0.0
 11
175.900000007
 21
251.3542673479998
 31
0.0
  0
LINE
  5
DAB
330
CD0
100
AcDbEntity
  8
0
  6
Continuous
 62
     3
100
AcDbLine
 10
114.100000006
 20
239.250732651
 30
0.0
 11
112.600000006
 21
239.2503663269998
 31
0.0
  0
LINE
  5
DAC
330
CD0
100
AcDbEntity
  8
0
  6
Continuous
 62
     3
100
AcDbLine
 10
114.100000005
 20
211.145732652
 30
0.0
 11
114.100000005
 21
212.855000002
 31
0.0
  0
LINE
  5
DAD
330
CD0
100
AcDbEntity
  8
0
  6
Continuous
 62
     3
100
AcDbLine
 10
114.100000005
 20
212.7500000009999
 30
0.0
 11
112.600000005
 21
212.750366327
 31
0.0
  0
LINE
  5
DAE
330
CD0
100
AcDbEntity
  8
0
  6
Continuous
 62
     3
100
AcDbLine
 10
175.900000007
 20
249.749999998
 30
0.0
 11
177.400000007
 21
249.749633673
 31
0.0
  0
LINE
  5
DAF
330
CD0
100
AcDbEntity
  8
0
  6
Continuous
 62
     3
100
AcDbLine
 10
175.900000007
 20
251.3542673479998
 30
0.0
 11
175.900000007
 21
249.644999997
 31
0.0
  0
LINE
  5
DB0
330
CD0
100
AcDbEntity
  8
0
  6
Continuous
 62
     3
100
AcDbLine
 10
175.900000007
 20
254.7492673479996
 30
0.0
 11
177.400000007
 21
254.749633673
 31
0.0
  0
LINE
  5
DB1
330
CD0
100
AcDbEntity
  8
0
  6
Continuous
 62
     3
100
AcDbLine
 10
102.500000007
 20
252.050000002
 30
0.0
 11
107.500000007
 21
252.050000002
 31
0.0
  0
LINE
  5
DB2
330
CD0
100
AcDbEntity
  8
0
  6
Continuous
 62
     3
100
AcDbLine
 10
107.500000007
 20
252.050000002
 30
0.0
 11
107.500000007
 21
253.050000002
 31
0.0
  0
LINE
  5
DB3
330
CD0
100
AcDbEntity
  8
0
  6
Continuous
 62
     3
100
AcDbLine
 10
175.9000000059999
 20
235.644999997
 30
0.0
 11
177.4000000059999
 21
235.6446336729999
 31
0.0
  0
LINE
  5
DB4
330
CD0
100
AcDbEntity
  8
0
  6
Continuous
 62
     3
100
AcDbLine
 10
112.600000005
 20
211.145366327
 30
0.0
 11
114.100000005
 21
211.145732652
 31
0.0
  0
LINE
  5
DB5
330
CD0
100
AcDbEntity
  8
0
  6
Continuous
 62
     3
100
AcDbLine
 10
107.5000000049999
 20
212.950000002
 30
0.0
 11
107.5000000049999
 21
213.9500000019999
 31
0.0
  0
LINE
  5
DB6
330
CD0
100
AcDbEntity
  8
0
  6
Continuous
 62
     3
100
AcDbLine
 10
114.100000005
 20
212.855000002
 30
0.0
 11
112.600000005
 21
212.8553663269999
 31
0.0
  0
LINE
  5
DB7
330
CD0
100
AcDbEntity
  8
0
  6
Continuous
 62
     3
100
AcDbLine
 10
114.100000005
 20
211.2507326509996
 30
0.0
 11
112.600000005
 21
211.250366327
 31
0.0
  0
LINE
  5
DB8
330
CD0
100
AcDbEntity
  8
0
  6
Continuous
 62
     3
100
AcDbLine
 10
114.100000005
 20
214.645732652
 30
0.0
 11
114.100000005
 21
216.3550000019998
 31
0.0
  0
LINE
  5
DB9
330
CD0
100
AcDbEntity
  8
0
  6
Continuous
 62
     3
100
AcDbLine
 10
114.100000005
 20
216.250000001
 30
0.0
 11
112.600000005
 21
216.2503663269998
 31
0.0
  0
LINE
  5
DBA
330
CD0
100
AcDbEntity
  8
0
  6
Continuous
 62
     3
100
AcDbLine
 10
112.600000005
 20
214.6453663269999
 30
0.0
 11
114.100000005
 21
214.645732652
 31
0.0
  0
LINE
  5
DBB
330
CD0
100
AcDbEntity
  8
0
  6
Continuous
 62
     3
100
AcDbLine
 10
114.100000005
 20
216.3550000019998
 30
0.0
 11
112.600000005
 21
216.355366327
 31
0.0
  0
LINE
  5
DBC
330
CD0
100
AcDbEntity
  8
0
  6
Continuous
 62
     3
100
AcDbLine
 10
114.100000005
 20
214.7507326509999
 30
0.0
 11
112.600000005
 21
214.750366327
 31
0.0
  0
LINE
  5
DBD
330
CD0
100
AcDbEntity
  8
0
  6
Continuous
 62
     3
100
AcDbLine
 10
114.100000005
 20
218.145732652
 30
0.0
 11
114.100000005
 21
219.855000002
 31
0.0
  0
LINE
  5
DBE
330
CD0
100
AcDbEntity
  8
0
  6
Continuous
 62
     3
100
AcDbLine
 10
114.100000005
 20
219.7500000009996
 30
0.0
 11
112.600000005
 21
219.750366327
 31
0.0
  0
LINE
  5
DBF
330
CD0
100
AcDbEntity
  8
0
  6
Continuous
 62
     3
100
AcDbLine
 10
112.600000005
 20
218.145366327
 30
0.0
 11
114.100000005
 21
218.145732652
 31
0.0
  0
LINE
  5
DC0
330
CD0
100
AcDbEntity
  8
0
  6
Continuous
 62
     3
100
AcDbLine
 10
114.100000005
 20
219.855000002
 30
0.0
 11
112.600000005
 21
219.855366327
 31
0.0
  0
LINE
  5
DC1
330
CD0
100
AcDbEntity
  8
0
  6
Continuous
 62
     3
100
AcDbLine
 10
114.100000005
 20
218.250732651
 30
0.0
 11
112.600000005
 21
218.2503663269999
 31
0.0
  0
LINE
  5
DC2
330
CD0
100
AcDbEntity
  8
0
  6
Continuous
 62
     3
100
AcDbLine
 10
114.100000005
 20
221.645732652
 30
0.0
 11
114.100000005
 21
223.355000002
 31
0.0
  0
LINE
  5
DC3
330
CD0
100
AcDbEntity
  8
0
  6
Continuous
 62
     3
100
AcDbLine
 10
114.100000005
 20
223.2500000009999
 30
0.0
 11
112.600000005
 21
223.250366327
 31
0.0
  0
LINE
  5
DC4
330
CD0
100
AcDbEntity
  8
0
  6
Continuous
 62
     3
100
AcDbLine
 10
112.600000005
 20
221.645366327
 30
0.0
 11
114.100000005
 21
221.645732652
 31
0.0
  0
LINE
  5
DC5
330
CD0
100
AcDbEntity
  8
0
  6
Continuous
 62
     3
100
AcDbLine
 10
114.100000005
 20
223.355000002
 30
0.0
 11
112.600000005
 21
223.355366327
 31
0.0
  0
LINE
  5
DC6
330
CD0
100
AcDbEntity
  8
0
  6
Continuous
 62
     3
100
AcDbLine
 10
114.100000005
 20
221.7507326509996
 30
0.0
 11
112.600000005
 21
221.750366327
 31
0.0
  0
LINE
  5
DC7
330
CD0
100
AcDbEntity
  8
0
  6
Continuous
 62
     3
100
AcDbLine
 10
114.100000005
 20
225.145732652
 30
0.0
 11
114.100000005
 21
226.8550000019998
 31
0.0
  0
LINE
  5
DC8
330
CD0
100
AcDbEntity
  8
0
  6
Continuous
 62
     3
100
AcDbLine
 10
114.100000005
 20
226.750000001
 30
0.0
 11
112.600000005
 21
226.7503663269998
 31
0.0
  0
LINE
  5
DC9
330
CD0
100
AcDbEntity
  8
0
  6
Continuous
 62
     3
100
AcDbLine
 10
112.600000005
 20
225.1453663269999
 30
0.0
 11
114.100000005
 21
225.145732652
 31
0.0
  0
LINE
  5
DCA
330
CD0
100
AcDbEntity
  8
0
  6
Continuous
 62
     3
100
AcDbLine
 10
114.100000005
 20
226.8550000019998
 30
0.0
 11
112.600000005
 21
226.855366327
 31
0.0
  0
LINE
  5
DCB
330
CD0
100
AcDbEntity
  8
0
  6
Continuous
 62
     3
100
AcDbLine
 10
114.100000005
 20
225.2507326509999
 30
0.0
 11
112.600000005
 21
225.250366327
 31
0.0
  0
LINE
  5
DCC
330
CD0
100
AcDbEntity
  8
0
  6
Continuous
 62
     3
100
AcDbLine
 10
114.100000006
 20
235.645732652
 30
0.0
 11
114.100000006
 21
237.3550000019998
 31
0.0
  0
LINE
  5
DCD
330
CD0
100
AcDbEntity
  8
0
  6
Continuous
 62
     3
100
AcDbLine
 10
114.100000006
 20
237.250000001
 30
0.0
 11
112.600000006
 21
237.2503663269998
 31
0.0
  0
LINE
  5
DCE
330
CD0
100
AcDbEntity
  8
0
  6
Continuous
 62
     3
100
AcDbLine
 10
112.600000006
 20
235.6453663269999
 30
0.0
 11
114.100000006
 21
235.645732652
 31
0.0
  0
LINE
  5
DCF
330
CD0
100
AcDbEntity
  8
0
  6
Continuous
 62
     3
100
AcDbLine
 10
114.100000006
 20
237.3550000019998
 30
0.0
 11
112.600000006
 21
237.355366327
 31
0.0
  0
LINE
  5
DD0
330
CD0
100
AcDbEntity
  8
0
  6
Continuous
 62
     3
100
AcDbLine
 10
114.100000006
 20
235.7507326509999
 30
0.0
 11
112.600000006
 21
235.750366327
 31
0.0
  0
LINE
  5
DD1
330
CD0
100
AcDbEntity
  8
0
  6
Continuous
 62
     3
100
AcDbLine
 10
114.100000006
 20
228.645732652
 30
0.0
 11
114.100000006
 21
230.3550000019999
 31
0.0
  0
LINE
  5
DD2
330
CD0
100
AcDbEntity
  8
0
  6
Continuous
 62
     3
100
AcDbLine
 10
114.100000006
 20
230.2500000009996
 30
0.0
 11
112.600000006
 21
230.250366327
 31
0.0
  0
LINE
  5
DD3
330
CD0
100
AcDbEntity
  8
0
  6
Continuous
 62
     3
100
AcDbLine
 10
112.600000006
 20
228.645366327
 30
0.0
 11
114.100000006
 21
228.645732652
 31
0.0
  0
LINE
  5
DD4
330
CD0
100
AcDbEntity
  8
0
  6
Continuous
 62
     3
100
AcDbLine
 10
114.100000006
 20
230.3550000019999
 30
0.0
 11
112.600000006
 21
230.355366327
 31
0.0
  0
LINE
  5
DD5
330
CD0
100
AcDbEntity
  8
0
  6
Continuous
 62
     3
100
AcDbLine
 10
114.100000006
 20
228.750732651
 30
0.0
 11
112.600000006
 21
228.7503663269998
 31
0.0
  0
LINE
  5
DD6
330
CD0
100
AcDbEntity
  8
0
  6
Continuous
 62
     3
100
AcDbLine
 10
175.900000007
 20
253.1449999969999
 30
0.0
 11
177.400000007
 21
253.1446336729999
 31
0.0
  0
LINE
  5
DD7
330
CD0
100
AcDbEntity
  8
0
  6
Continuous
 62
     3
100
AcDbLine
 10
177.400000007
 20
254.8546336729998
 30
0.0
 11
175.900000007
 21
254.8542673479998
 31
0.0
  0
LINE
  5
DD8
330
CD0
100
AcDbEntity
  8
0
  6
Continuous
 62
     3
100
AcDbLine
 10
175.900000007
 20
253.249999998
 30
0.0
 11
177.400000007
 21
253.2496336729999
 31
0.0
  0
LINE
  5
DD9
330
CD0
100
AcDbEntity
  8
0
  6
Continuous
 62
     3
100
AcDbLine
 10
175.900000007
 20
254.8542673479998
 30
0.0
 11
175.900000007
 21
253.1449999969999
 31
0.0
  0
LINE
  5
DDA
330
CD0
100
AcDbEntity
  8
0
  6
Continuous
 62
     3
100
AcDbLine
 10
175.900000005
 20
226.749267348
 30
0.0
 11
177.400000005
 21
226.749633673
 31
0.0
  0
LINE
  5
DDB
330
CD0
100
AcDbEntity
  8
0
  6
Continuous
 62
     3
100
AcDbLine
 10
175.900000005
 20
225.144999997
 30
0.0
 11
177.400000005
 21
225.1446336729999
 31
0.0
  0
LINE
  5
DDC
330
CD0
100
AcDbEntity
  8
0
  6
Continuous
 62
     3
100
AcDbLine
 10
177.400000005
 20
226.854633673
 30
0.0
 11
175.900000005
 21
226.8542673479998
 31
0.0
  0
LINE
  5
DDD
330
CD0
100
AcDbEntity
  8
0
  6
Continuous
 62
     3
100
AcDbLine
 10
175.900000005
 20
225.2499999979999
 30
0.0
 11
177.400000005
 21
225.249633673
 31
0.0
  0
LINE
  5
DDE
330
CD0
100
AcDbEntity
  8
0
  6
Continuous
 62
     3
100
AcDbLine
 10
175.900000005
 20
226.8542673479998
 30
0.0
 11
175.900000005
 21
225.144999997
 31
0.0
  0
LINE
  5
DDF
330
CD0
100
AcDbEntity
  8
0
  6
Continuous
 62
     3
100
AcDbLine
 10
175.900000005
 20
223.2492673479999
 30
0.0
 11
177.400000005
 21
223.249633673
 31
0.0
  0
LINE
  5
DE0
330
CD0
100
AcDbEntity
  8
0
  6
Continuous
 62
     3
100
AcDbLine
 10
175.900000005
 20
221.644999997
 30
0.0
 11
177.400000005
 21
221.6446336729999
 31
0.0
  0
LINE
  5
DE1
330
CD0
100
AcDbEntity
  8
0
  6
Continuous
 62
     3
100
AcDbLine
 10
177.400000005
 20
223.3546336729999
 30
0.0
 11
175.900000005
 21
223.3542673479998
 31
0.0
  0
LINE
  5
DE2
330
CD0
100
AcDbEntity
  8
0
  6
Continuous
 62
     3
100
AcDbLine
 10
175.900000005
 20
221.7499999979996
 30
0.0
 11
177.400000005
 21
221.749633673
 31
0.0
  0
LINE
  5
DE3
330
CD0
100
AcDbEntity
  8
0
  6
Continuous
 62
     3
100
AcDbLine
 10
175.900000005
 20
223.3542673479998
 30
0.0
 11
175.900000005
 21
221.644999997
 31
0.0
  0
LINE
  5
DE4
330
CD0
100
AcDbEntity
  8
0
  6
Continuous
 62
     3
100
AcDbLine
 10
175.900000005
 20
219.7492673479996
 30
0.0
 11
177.400000005
 21
219.7496336729999
 31
0.0
  0
LINE
  5
DE5
330
CD0
100
AcDbEntity
  8
0
  6
Continuous
 62
     3
100
AcDbLine
 10
175.900000005
 20
218.144999997
 30
0.0
 11
177.400000005
 21
218.144633673
 31
0.0
  0
LINE
  5
DE6
330
CD0
100
AcDbEntity
  8
0
  6
Continuous
 62
     3
100
AcDbLine
 10
177.400000005
 20
219.854633673
 30
0.0
 11
175.900000005
 21
219.8542673479998
 31
0.0
  0
LINE
  5
DE7
330
CD0
100
AcDbEntity
  8
0
  6
Continuous
 62
     3
100
AcDbLine
 10
175.900000005
 20
218.249999998
 30
0.0
 11
177.400000005
 21
218.249633673
 31
0.0
  0
LINE
  5
DE8
330
CD0
100
AcDbEntity
  8
0
  6
Continuous
 62
     3
100
AcDbLine
 10
175.900000005
 20
219.8542673479998
 30
0.0
 11
175.900000005
 21
218.144999997
 31
0.0
  0
LINE
  5
DE9
330
CD0
100
AcDbEntity
  8
0
  6
Continuous
 62
     3
100
AcDbLine
 10
175.900000005
 20
216.249267348
 30
0.0
 11
177.400000005
 21
216.249633673
 31
0.0
  0
LINE
  5
DEA
330
CD0
100
AcDbEntity
  8
0
  6
Continuous
 62
     3
100
AcDbLine
 10
175.900000005
 20
214.644999997
 30
0.0
 11
177.400000005
 21
214.6446336729999
 31
0.0
  0
LINE
  5
DEB
330
CD0
100
AcDbEntity
  8
0
  6
Continuous
 62
     3
100
AcDbLine
 10
177.400000005
 20
216.354633673
 30
0.0
 11
175.900000005
 21
216.3542673479998
 31
0.0
  0
LINE
  5
DEC
330
CD0
100
AcDbEntity
  8
0
  6
Continuous
 62
     3
100
AcDbLine
 10
175.900000005
 20
214.7499999979999
 30
0.0
 11
177.400000005
 21
214.749633673
 31
0.0
  0
LINE
  5
DED
330
CD0
100
AcDbEntity
  8
0
  6
Continuous
 62
     3
100
AcDbLine
 10
175.900000005
 20
216.3542673479998
 30
0.0
 11
175.900000005
 21
214.644999997
 31
0.0
  0
LINE
  5
DEE
330
CD0
100
AcDbEntity
  8
0
  6
Continuous
 62
     3
100
AcDbLine
 10
175.900000005
 20
212.7492673479999
 30
0.0
 11
177.400000005
 21
212.749633673
 31
0.0
  0
LINE
  5
DEF
330
CD0
100
AcDbEntity
  8
0
  6
Continuous
 62
     3
100
AcDbLine
 10
175.900000005
 20
211.144999997
 30
0.0
 11
177.400000005
 21
211.1446336729999
 31
0.0
  0
LINE
  5
DF0
330
CD0
100
AcDbEntity
  8
0
  6
Continuous
 62
     3
100
AcDbLine
 10
177.400000005
 20
212.8546336729999
 30
0.0
 11
175.900000005
 21
212.8542673479997
 31
0.0
  0
LINE
  5
DF1
330
CD0
100
AcDbEntity
  8
0
  6
Continuous
 62
     3
100
AcDbLine
 10
175.900000005
 20
211.2499999979996
 30
0.0
 11
177.400000005
 21
211.249633673
 31
0.0
  0
LINE
  5
DF2
330
CD0
100
AcDbEntity
  8
0
  6
Continuous
 62
     3
100
AcDbLine
 10
175.900000005
 20
212.8542673479997
 30
0.0
 11
175.900000005
 21
211.144999997
 31
0.0
  0
LINE
  5
DF3
330
CD0
100
AcDbEntity
  8
0
  6
Continuous
 62
     3
100
AcDbLine
 10
175.9000000059999
 20
233.8546336729999
 30
0.0
 11
175.9000000059999
 21
232.1453663229996
 31
0.0
  0
LINE
  5
DF4
330
CD0
100
AcDbEntity
  8
0
  6
Continuous
 62
     3
100
AcDbLine
 10
175.9000000059999
 20
232.250366324
 30
0.0
 11
177.4000000059999
 21
232.249999999
 31
0.0
  0
LINE
  5
DF5
330
CD0
100
AcDbEntity
  8
0
  6
Continuous
 62
     3
100
AcDbLine
 10
177.4000000059999
 20
233.854999999
 30
0.0
 11
175.9000000059999
 21
233.8546336729999
 31
0.0
  0
LINE
  5
DF6
330
CD0
100
AcDbEntity
  8
0
  6
Continuous
 62
     3
100
AcDbLine
 10
175.9000000059999
 20
232.1453663229996
 30
0.0
 11
177.4000000059999
 21
232.144999999
 31
0.0
  0
LINE
  5
DF7
330
CD0
100
AcDbEntity
  8
0
  6
Continuous
 62
     3
100
AcDbLine
 10
175.9000000059999
 20
233.749633674
 30
0.0
 11
177.4000000059999
 21
233.749999999
 31
0.0
  0
LINE
  5
DF8
330
CD0
100
AcDbEntity
  8
0
  6
Continuous
 62
     3
100
AcDbLine
 10
107.5000000049999
 20
213.9500000019999
 30
0.0
 11
102.500000005
 21
213.9500000019999
 31
0.0
  0
LINE
  5
DF9
330
CD0
100
AcDbEntity
  8
0
  6
Continuous
 62
     3
100
AcDbLine
 10
102.500000005
 20
213.9500000019999
 30
0.0
 11
102.500000005
 21
212.950000002
 31
0.0
  0
LINE
  5
DFA
330
CD0
100
AcDbEntity
  8
0
  6
Continuous
 62
     3
100
AcDbLine
 10
175.9000000059999
 20
228.644999997
 30
0.0
 11
177.4000000059999
 21
228.644633673
 31
0.0
  0
LINE
  5
DFB
330
CD0
100
AcDbEntity
  8
0
  6
Continuous
 62
     3
100
AcDbLine
 10
101.000000007
 20
248.500000002
 30
0.0
 11
101.000000005
 21
217.500000002
 31
0.0
  0
LINE
  5
DFC
330
CD0
100
AcDbEntity
  8
0
  6
Continuous
 62
     3
100
AcDbLine
 10
179.9600000059998
 20
248.4999999979996
 30
0.0
 11
179.960000005
 21
217.4999999979996
 31
0.0
  0
LINE
  5
DFD
330
CD0
100
AcDbEntity
  8
0
  6
Continuous
 62
     3
100
AcDbLine
 10
182.7600000049999
 20
217.4999999979996
 30
0.0
 11
182.7600000059996
 21
248.4999999979996
 31
0.0
  0
LINE
  5
DFE
330
CD0
100
AcDbEntity
  8
0
  6
Continuous
 62
     3
100
AcDbLine
 10
188.3600000059998
 20
248.4999999979996
 30
0.0
 11
188.360000005
 21
217.4999999979996
 31
0.0
  0
LINE
  5
DFF
330
CD0
100
AcDbEntity
  8
0
  6
Continuous
 62
     3
100
AcDbLine
 10
190.000000006
 20
248.4999999979996
 30
0.0
 11
190.000000005
 21
217.4999999979996
 31
0.0
  0
LINE
  5
E00
330
CD0
100
AcDbEntity
  8
0
  6
Continuous
 62
     3
100
AcDbLine
 10
190.800000005
 20
217.4999999979996
 30
0.0
 11
190.8000000059998
 21
248.4999999979996
 31
0.0
  0
CIRCLE
  5
E01
330
CD0
100
AcDbEntity
  8
0
  6
Continuous
 62
     3
100
AcDbCircle
 10
185.1600000059999
 20
235.5399999979999
 30
0.0
 40
2.0
  0
CIRCLE
  5
E02
330
CD0
100
AcDbEntity
  8
0
  6
Continuous
 62
     3
100
AcDbCircle
 10
185.1600000059999
 20
235.5399999979999
 30
0.0
 40
1.8
  0
LINE
  5
E03
330
CD0
100
AcDbEntity
  8
0
  6
Continuous
 62
     3
100
AcDbLine
 10
185.4100000059996
 20
237.3225543449999
 30
0.0
 11
185.4100000059996
 21
233.757445651
 31
0.0
  0
LINE
  5
E04
330
CD0
100
AcDbEntity
  8
0
  6
Continuous
 62
     3
100
AcDbLine
 10
184.9100000059999
 20
237.3225543449999
 30
0.0
 11
184.9100000059999
 21
233.757445651
 31
0.0
  0
CIRCLE
  5
E05
330
CD0
100
AcDbEntity
  8
0
  6
Continuous
 62
     3
100
AcDbCircle
 10
185.1600000059999
 20
230.459999998
 30
0.0
 40
2.0
  0
CIRCLE
  5
E06
330
CD0
100
AcDbEntity
  8
0
  6
Continuous
 62
     3
100
AcDbCircle
 10
185.1600000059999
 20
230.459999998
 30
0.0
 40
1.8
  0
LINE
  5
E07
330
CD0
100
AcDbEntity
  8
0
  6
Continuous
 62
     3
100
AcDbLine
 10
185.4100000059996
 20
232.242554345
 30
0.0
 11
185.4100000059996
 21
228.6774456509998
 31
0.0
  0
LINE
  5
E08
330
CD0
100
AcDbEntity
  8
0
  6
Continuous
 62
     3
100
AcDbLine
 10
184.9100000059999
 20
232.242554345
 30
0.0
 11
184.9100000059999
 21
228.6774456509998
 31
0.0
  0
CIRCLE
  5
E09
330
CD0
100
AcDbEntity
  8
0
  6
Continuous
 62
     3
100
AcDbCircle
 10
185.160000005
 20
225.379999998
 30
0.0
 40
2.0
  0
CIRCLE
  5
E0A
330
CD0
100
AcDbEntity
  8
0
  6
Continuous
 62
     3
100
AcDbCircle
 10
185.160000005
 20
225.379999998
 30
0.0
 40
1.8
  0
LINE
  5
E0B
330
CD0
100
AcDbEntity
  8
0
  6
Continuous
 62
     3
100
AcDbLine
 10
185.4100000059996
 20
227.1625543449999
 30
0.0
 11
185.410000005
 21
223.5974456509999
 31
0.0
  0
LINE
  5
E0C
330
CD0
100
AcDbEntity
  8
0
  6
Continuous
 62
     3
100
AcDbLine
 10
184.9100000059999
 20
227.1625543449999
 30
0.0
 11
184.9100000049998
 21
223.5974456509999
 31
0.0
  0
CIRCLE
  5
E0D
330
CD0
100
AcDbEntity
  8
0
  6
Continuous
 62
     3
100
AcDbCircle
 10
185.160000005
 20
220.299999998
 30
0.0
 40
2.0
  0
CIRCLE
  5
E0E
330
CD0
100
AcDbEntity
  8
0
  6
Continuous
 62
     3
100
AcDbCircle
 10
185.160000005
 20
220.299999998
 30
0.0
 40
1.8
  0
LINE
  5
E0F
330
CD0
100
AcDbEntity
  8
0
  6
Continuous
 62
     3
100
AcDbLine
 10
185.410000005
 20
222.082554345
 30
0.0
 11
185.410000005
 21
218.5174456509998
 31
0.0
  0
LINE
  5
E10
330
CD0
100
AcDbEntity
  8
0
  6
Continuous
 62
     3
100
AcDbLine
 10
184.9100000049998
 20
222.082554345
 30
0.0
 11
184.9100000049998
 21
218.5174456509998
 31
0.0
  0
CIRCLE
  5
E11
330
CD0
100
AcDbEntity
  8
0
  6
Continuous
 62
     3
100
AcDbCircle
 10
185.1600000059999
 20
240.619999998
 30
0.0
 40
2.0
  0
LINE
  5
E12
330
CD0
100
AcDbEntity
  8
0
  6
Continuous
 62
     3
100
AcDbLine
 10
185.4100000059996
 20
242.4025543449999
 30
0.0
 11
185.4100000059996
 21
238.8374456509999
 31
0.0
  0
LINE
  5
E13
330
CD0
100
AcDbEntity
  8
0
  6
Continuous
 62
     3
100
AcDbLine
 10
184.9100000059999
 20
242.4025543449999
 30
0.0
 11
184.9100000059999
 21
238.8374456509999
 31
0.0
  0
CIRCLE
  5
E14
330
CD0
100
AcDbEntity
  8
0
  6
Continuous
 62
     3
100
AcDbCircle
 10
185.1600000059999
 20
240.619999998
 30
0.0
 40
1.8
  0
CIRCLE
  5
E15
330
CD0
100
AcDbEntity
  8
0
  6
Continuous
 62
     3
100
AcDbCircle
 10
185.1600000059999
 20
245.6999999979999
 30
0.0
 40
2.0
  0
CIRCLE
  5
E16
330
CD0
100
AcDbEntity
  8
0
  6
Continuous
 62
     3
100
AcDbCircle
 10
185.1600000059999
 20
245.6999999979999
 30
0.0
 40
1.8
  0
LINE
  5
E17
330
CD0
100
AcDbEntity
  8
0
  6
Continuous
 62
     3
100
AcDbLine
 10
185.4100000059996
 20
247.482554345
 30
0.0
 11
185.4100000059996
 21
243.9174456509996
 31
0.0
  0
LINE
  5
E18
330
CD0
100
AcDbEntity
  8
0
  6
Continuous
 62
     3
100
AcDbLine
 10
184.9100000059999
 20
247.482554345
 30
0.0
 11
184.9100000059999
 21
243.9174456509996
 31
0.0
  0
LINE
  5
E19
330
CD0
100
AcDbEntity
  8
0
  6
Continuous
 62
     3
100
AcDbLine
 10
110.040000006
 20
248.500000002
 30
0.0
 11
110.040000005
 21
217.500000002
 31
0.0
  0
LINE
  5
E1A
330
CD0
100
AcDbEntity
  8
0
  6
Continuous
 62
     3
100
AcDbLine
 10
107.240000005
 20
217.500000002
 30
0.0
 11
107.240000006
 21
248.500000002
 31
0.0
  0
LINE
  5
E1B
330
CD0
100
AcDbEntity
  8
0
  6
Continuous
 62
     3
100
AcDbLine
 10
101.640000006
 20
248.500000002
 30
0.0
 11
101.6400000049999
 21
217.500000002
 31
0.0
  0
LINE
  5
E1C
330
CD0
100
AcDbEntity
  8
0
  6
Continuous
 62
     3
100
AcDbLine
 10
100.000000006
 20
248.500000002
 30
0.0
 11
100.000000005
 21
217.500000002
 31
0.0
  0
LINE
  5
E1D
330
CD0
100
AcDbEntity
  8
0
  6
Continuous
 62
     3
100
AcDbLine
 10
99.20000000500001
 20
217.500000002
 30
0.0
 11
99.20000000600001
 21
248.500000002
 31
0.0
  0
CIRCLE
  5
E1E
330
CD0
100
AcDbEntity
  8
0
  6
Continuous
 62
     3
100
AcDbCircle
 10
104.840000006
 20
230.460000002
 30
0.0
 40
2.0
  0
CIRCLE
  5
E1F
330
CD0
100
AcDbEntity
  8
0
  6
Continuous
 62
     3
100
AcDbCircle
 10
104.840000006
 20
230.460000002
 30
0.0
 40
1.8
  0
LINE
  5
E20
330
CD0
100
AcDbEntity
  8
0
  6
Continuous
 62
     3
100
AcDbLine
 10
104.590000006
 20
232.242554349
 30
0.0
 11
104.590000006
 21
228.677445655
 31
0.0
  0
LINE
  5
E21
330
CD0
100
AcDbEntity
  8
0
  6
Continuous
 62
     3
100
AcDbLine
 10
105.0900000059999
 20
232.242554349
 30
0.0
 11
105.0900000059999
 21
228.677445655
 31
0.0
  0
CIRCLE
  5
E22
330
CD0
100
AcDbEntity
  8
0
  6
Continuous
 62
     3
100
AcDbCircle
 10
104.840000005
 20
225.380000002
 30
0.0
 40
2.0
  0
CIRCLE
  5
E23
330
CD0
100
AcDbEntity
  8
0
  6
Continuous
 62
     3
100
AcDbCircle
 10
104.840000005
 20
225.380000002
 30
0.0
 40
1.8
  0
LINE
  5
E24
330
CD0
100
AcDbEntity
  8
0
  6
Continuous
 62
     3
100
AcDbLine
 10
104.590000006
 20
227.1625543489998
 30
0.0
 11
104.590000005
 21
223.597445655
 31
0.0
  0
LINE
  5
E25
330
CD0
100
AcDbEntity
  8
0
  6
Continuous
 62
     3
100
AcDbLine
 10
105.0900000059999
 20
227.1625543489998
 30
0.0
 11
105.0900000049997
 21
223.597445655
 31
0.0
  0
CIRCLE
  5
E26
330
CD0
100
AcDbEntity
  8
0
  6
Continuous
 62
     3
100
AcDbCircle
 10
104.840000005
 20
220.300000002
 30
0.0
 40
2.0
  0
CIRCLE
  5
E27
330
CD0
100
AcDbEntity
  8
0
  6
Continuous
 62
     3
100
AcDbCircle
 10
104.840000005
 20
220.300000002
 30
0.0
 40
1.8
  0
LINE
  5
E28
330
CD0
100
AcDbEntity
  8
0
  6
Continuous
 62
     3
100
AcDbLine
 10
104.590000005
 20
222.082554349
 30
0.0
 11
104.590000005
 21
218.5174456549999
 31
0.0
  0
LINE
  5
E29
330
CD0
100
AcDbEntity
  8
0
  6
Continuous
 62
     3
100
AcDbLine
 10
105.0900000049997
 20
222.082554349
 30
0.0
 11
105.0900000049997
 21
218.5174456549999
 31
0.0
  0
CIRCLE
  5
E2A
330
CD0
100
AcDbEntity
  8
0
  6
Continuous
 62
     3
100
AcDbCircle
 10
104.840000006
 20
235.5400000019999
 30
0.0
 40
2.0
  0
CIRCLE
  5
E2B
330
CD0
100
AcDbEntity
  8
0
  6
Continuous
 62
     3
100
AcDbCircle
 10
104.840000006
 20
235.5400000019999
 30
0.0
 40
1.8
  0
LINE
  5
E2C
330
CD0
100
AcDbEntity
  8
0
  6
Continuous
 62
     3
100
AcDbLine
 10
104.590000006
 20
237.322554349
 30
0.0
 11
104.590000006
 21
233.757445655
 31
0.0
  0
LINE
  5
E2D
330
CD0
100
AcDbEntity
  8
0
  6
Continuous
 62
     3
100
AcDbLine
 10
105.0900000059999
 20
237.322554349
 30
0.0
 11
105.0900000059999
 21
233.757445655
 31
0.0
  0
CIRCLE
  5
E2E
330
CD0
100
AcDbEntity
  8
0
  6
Continuous
 62
     3
100
AcDbCircle
 10
104.840000006
 20
240.620000002
 30
0.0
 40
2.0
  0
LINE
  5
E2F
330
CD0
100
AcDbEntity
  8
0
  6
Continuous
 62
     3
100
AcDbLine
 10
104.590000006
 20
242.4025543489999
 30
0.0
 11
104.590000006
 21
238.837445655
 31
0.0
  0
LINE
  5
E30
330
CD0
100
AcDbEntity
  8
0
  6
Continuous
 62
     3
100
AcDbLine
 10
105.0900000059999
 20
242.4025543489999
 30
0.0
 11
105.0900000059999
 21
238.837445655
 31
0.0
  0
CIRCLE
  5
E31
330
CD0
100
AcDbEntity
  8
0
  6
Continuous
 62
     3
100
AcDbCircle
 10
104.840000006
 20
240.620000002
 30
0.0
 40
1.8
  0
CIRCLE
  5
E32
330
CD0
100
AcDbEntity
  8
0
  6
Continuous
 62
     3
100
AcDbCircle
 10
104.840000006
 20
245.7000000019998
 30
0.0
 40
2.0
  0
CIRCLE
  5
E33
330
CD0
100
AcDbEntity
  8
0
  6
Continuous
 62
     3
100
AcDbCircle
 10
104.840000006
 20
245.7000000019998
 30
0.0
 40
1.8
  0
LINE
  5
E34
330
CD0
100
AcDbEntity
  8
0
  6
Continuous
 62
     3
100
AcDbLine
 10
104.590000006
 20
247.482554349
 30
0.0
 11
104.590000006
 21
243.9174456549999
 31
0.0
  0
LINE
  5
E35
330
CD0
100
AcDbEntity
  8
0
  6
Continuous
 62
     3
100
AcDbLine
 10
105.0900000059999
 20
247.482554349
 30
0.0
 11
105.0900000059999
 21
243.9174456549999
 31
0.0
  0
LINE
  5
E36
330
CD0
100
AcDbEntity
  8
0
  6
Continuous
 62
     3
100
AcDbLine
 10
95.41500000499999
 20
222.0000026999999
 30
0.0
 11
95.41500000399999
 21
195.000000002
 31
0.0
  0
LINE
  5
E37
330
CD0
100
AcDbEntity
  8
0
  6
Continuous
 62
     3
100
AcDbLine
 10
95.41500000399999
 20
196.000000002
 30
0.0
 11
97.346851657
 21
195.482361912
 31
0.0
  0
LINE
  5
E38
330
CD0
100
AcDbEntity
  8
0
  6
Continuous
 62
     3
100
AcDbLine
 10
95.41500000399999
 20
196.000000002
 30
0.0
 11
97.346851657
 21
196.517638092
 31
0.0
  0
LINE
  5
E39
330
CD0
100
AcDbEntity
  8
0
  6
Continuous
 62
     3
100
AcDbLine
 10
95.41500000399999
 20
196.000000002
 30
0.0
 11
192.000000004
 21
195.9999999979999
 31
0.0
  0
LINE
  5
E3A
330
CD0
100
AcDbEntity
  8
0
  6
Continuous
 62
     3
100
AcDbLine
 10
192.000000004
 20
195.9999999979999
 30
0.0
 11
190.068148352
 21
196.5176380879999
 31
0.0
  0
LINE
  5
E3B
330
CD0
100
AcDbEntity
  8
0
  6
Continuous
 62
     3
100
AcDbLine
 10
192.000000004
 20
195.9999999979999
 30
0.0
 11
190.0681483509996
 21
195.482361908
 31
0.0
  0
LINE
  5
E3C
330
CD0
100
AcDbEntity
  8
0
  6
Continuous
 62
     3
100
AcDbLine
 10
192.000000005
 20
208.000002695
 30
0.0
 11
192.000000004
 21
194.9999999979999
 31
0.0
  0
LINE
  5
E3D
330
CD0
100
AcDbEntity
  8
0
  6
Continuous
 62
     3
100
AcDbLine
 10
192.000000004
 20
202.000002695
 30
0.0
 11
190.068148352
 21
202.517640785
 31
0.0
  0
LINE
  5
E3E
330
CD0
100
AcDbEntity
  8
0
  6
Continuous
 62
     3
100
AcDbLine
 10
192.000000004
 20
202.000002695
 30
0.0
 11
190.068148352
 21
201.4823646049999
 31
0.0
  0
LINE
  5
E3F
330
CD0
100
AcDbEntity
  8
0
  6
Continuous
 62
     3
100
AcDbLine
 10
192.000000004
 20
202.000002695
 30
0.0
 11
98.000000004
 21
202.000002699
 31
0.0
  0
LINE
  5
E40
330
CD0
100
AcDbEntity
  8
0
  6
Continuous
 62
     3
100
AcDbLine
 10
98.000000004
 20
202.000002699
 30
0.0
 11
99.93185165700001
 21
201.4823646079999
 31
0.0
  0
LINE
  5
E41
330
CD0
100
AcDbEntity
  8
0
  6
Continuous
 62
     3
100
AcDbLine
 10
98.000000004
 20
202.000002699
 30
0.0
 11
99.93185165700001
 21
202.517640789
 31
0.0
  0
LINE
  5
E42
330
CD0
100
AcDbEntity
  8
0
  6
Continuous
 62
     3
100
AcDbLine
 10
98.000000005
 20
208.000002699
 30
0.0
 11
98.000000004
 21
201.000002699
 31
0.0
  0
TEXT
  5
E43
330
CD0
100
AcDbEntity
  8
0
  6
Continuous
 62
     3
100
AcDbText
 10
143.350000004
 20
202.500002697
 30
0.1
 40
2.0
  1
９４
 41
0.8
  7
KANJI0
100
AcDbText
  0
LINE
  5
E44
330
CD0
100
AcDbEntity
  8
0
  6
Continuous
 62
     3
100
AcDbLine
 10
112.600000007
 20
257.500000002
 30
0.1
 11
112.600000007
 21
263.000000002
 31
0.1
  0
LINE
  5
E45
330
CD0
100
AcDbEntity
  8
0
  6
Continuous
 62
     3
100
AcDbLine
 10
112.600000007
 20
262.000000002
 30
0.0
 11
114.5318516599999
 21
261.482361911
 31
0.0
  0
LINE
  5
E46
330
CD0
100
AcDbEntity
  8
0
  6
Continuous
 62
     3
100
AcDbLine
 10
112.600000007
 20
262.000000002
 30
0.0
 11
114.5318516599999
 21
262.517638092
 31
0.0
  0
LINE
  5
E47
330
CD0
100
AcDbEntity
  8
0
  6
Continuous
 62
     3
100
AcDbLine
 10
112.600000007
 20
262.000000002
 30
0.0
 11
177.400000007
 21
261.999999999
 31
0.0
  0
LINE
  5
E48
330
CD0
100
AcDbEntity
  8
0
  6
Continuous
 62
     3
100
AcDbLine
 10
177.400000007
 20
261.999999999
 30
0.0
 11
175.468148355
 21
262.517638089
 31
0.0
  0
LINE
  5
E49
330
CD0
100
AcDbEntity
  8
0
  6
Continuous
 62
     3
100
AcDbLine
 10
177.400000007
 20
261.999999999
 30
0.0
 11
175.468148355
 21
261.482361909
 31
0.0
  0
LINE
  5
E4A
330
CD0
100
AcDbEntity
  8
0
  6
Continuous
 62
     3
100
AcDbLine
 10
177.400000007
 20
257.5000038129999
 30
0.0
 11
177.400000007
 21
262.999999999
 31
0.0
  0
TEXT
  5
E4B
330
CD0
100
AcDbEntity
  8
0
  6
Continuous
 62
     3
100
AcDbText
 10
141.650000007
 20
262.5
 30
0.1
 40
2.0
  1
６４.８
 41
0.8
  7
KANJI0
100
AcDbText
  0
LINE
  5
E4C
330
CD0
100
AcDbEntity
  8
0
  6
Continuous
 62
     3
100
AcDbLine
 10
200.000000002
 20
135.9999999979999
 30
0.1
 11
200.517638092
 21
137.9318516499999
 31
0.1
  0
LINE
  5
E4D
330
CD0
100
AcDbEntity
  8
0
  6
Continuous
 62
     3
100
AcDbLine
 10
200.000000002
 20
135.9999999979999
 30
0.0
 11
199.482361912
 21
137.9318516499999
 31
0.0
  0
LINE
  5
E4E
330
CD0
100
AcDbEntity
  8
0
  6
Continuous
 62
     3
100
AcDbLine
 10
200.000000002
 20
135.9999999979999
 30
0.0
 11
200.000000003
 21
175.999926558
 31
0.0
  0
LINE
  5
E4F
330
CD0
100
AcDbEntity
  8
0
  6
Continuous
 62
     3
100
AcDbLine
 10
200.000000003
 20
175.999926558
 30
0.0
 11
199.482361913
 21
174.068074906
 31
0.0
  0
LINE
  5
E50
330
CD0
100
AcDbEntity
  8
0
  6
Continuous
 62
     3
100
AcDbLine
 10
200.000000003
 20
175.999926558
 30
0.0
 11
200.517638093
 21
174.068074906
 31
0.0
  0
LINE
  5
E51
330
CD0
100
AcDbEntity
  8
0
  6
Continuous
 62
     3
100
AcDbLine
 10
189.2050857579999
 20
175.999926559
 30
0.0
 11
201.0000000029999
 21
175.999926558
 31
0.0
  0
TEXT
  5
E52
330
CD0
100
AcDbEntity
  8
0
  6
Continuous
 62
     3
100
AcDbText
 10
199.500000002
 20
154.3499632779998
 30
0.1
 40
2.0
  1
４０
 50
90.0
 41
0.8
  7
KANJI0
100
AcDbText
  0
LINE
  5
E53
330
CD0
100
AcDbEntity
  8
0
  6
Continuous
 62
     3
100
AcDbLine
 10
207.000000002
 20
135.9999999979999
 30
0.1
 11
207.5176380919999
 21
137.9318516499999
 31
0.1
  0
LINE
  5
E54
330
CD0
100
AcDbEntity
  8
0
  6
Continuous
 62
     3
100
AcDbLine
 10
207.000000002
 20
135.9999999979999
 30
0.0
 11
206.482361912
 21
137.9318516499999
 31
0.0
  0
LINE
  5
E55
330
CD0
100
AcDbEntity
  8
0
  6
Continuous
 62
     3
100
AcDbLine
 10
207.000000002
 20
135.9999999979999
 30
0.0
 11
207.0000000029998
 21
176.7999999979998
 31
0.0
  0
LINE
  5
E56
330
CD0
100
AcDbEntity
  8
0
  6
Continuous
 62
     3
100
AcDbLine
 10
207.0000000029998
 20
176.7999999979998
 30
0.0
 11
206.482361913
 21
174.868148345
 31
0.0
  0
LINE
  5
E57
330
CD0
100
AcDbEntity
  8
0
  6
Continuous
 62
     3
100
AcDbLine
 10
207.0000000029998
 20
176.7999999979998
 30
0.0
 11
207.5176380929999
 21
174.868148345
 31
0.0
  0
LINE
  5
E58
330
CD0
100
AcDbEntity
  8
0
  6
Continuous
 62
     3
100
AcDbLine
 10
178.2167137709998
 20
176.799999999
 30
0.0
 11
208.000000003
 21
176.799999997
 31
0.0
  0
LINE
  5
E59
330
CD0
100
AcDbEntity
  8
0
  6
Continuous
 62
     3
100
AcDbLine
 10
193.000000002
 20
135.9999999979999
 30
0.0
 11
208.000000002
 21
135.999999997
 31
0.0
  0
LINE
  5
E5A
330
CD0
100
AcDbEntity
  8
0
  6
Continuous
 62
     3
100
AcDbLine
 10
193.0000000009999
 20
107.9999999979998
 30
0.0
 11
202.000000001
 21
107.9999999979998
 31
0.0
  0
LINE
  5
E5B
330
CD0
100
AcDbEntity
  8
0
  6
Continuous
 62
     3
100
AcDbLine
 10
201.0000000009996
 20
107.9999999979998
 30
0.0
 11
200.48236191
 21
106.068148345
 31
0.0
  0
LINE
  5
E5C
330
CD0
100
AcDbEntity
  8
0
  6
Continuous
 62
     3
100
AcDbLine
 10
201.0000000009996
 20
107.9999999979998
 30
0.0
 11
201.5176380909998
 21
106.068148345
 31
0.0
  0
LINE
  5
E5D
330
CD0
100
AcDbEntity
  8
0
  6
Continuous
 62
     3
100
AcDbLine
 10
201.0000000009996
 20
107.9999999979998
 30
0.0
 11
200.999999999
 21
59.99999999799999
 31
0.0
  0
LINE
  5
E5E
330
CD0
100
AcDbEntity
  8
0
  6
Continuous
 62
     3
100
AcDbLine
 10
200.999999999
 20
59.99999999799999
 30
0.0
 11
201.5176380889998
 21
61.93185165
 31
0.0
  0
LINE
  5
E5F
330
CD0
100
AcDbEntity
  8
0
  6
Continuous
 62
     3
100
AcDbLine
 10
200.999999999
 20
59.99999999799999
 30
0.0
 11
200.482361909
 21
61.93185165
 31
0.0
  0
LINE
  5
E60
330
CD0
100
AcDbEntity
  8
0
  6
Continuous
 62
     3
100
AcDbLine
 10
192.999999999
 20
59.99999999799999
 30
0.0
 11
201.999999999
 21
59.99999999799999
 31
0.0
  0
TEXT
  5
E61
330
CD0
100
AcDbEntity
  8
0
  6
Continuous
 62
     3
100
AcDbText
 10
200.4999999999999
 20
82.34999999800001
 30
0.1
 40
2.0
  1
４８
 50
90.0
 41
0.8
  7
KANJI0
100
AcDbText
  0
LINE
  5
E62
330
CD0
100
AcDbEntity
  8
0
  6
Continuous
 62
     3
100
AcDbLine
 10
94.41500067499999
 20
94.000000003
 30
0.1
 11
89.41500067499999
 21
94.000000003
 31
0.1
  0
LINE
  5
E63
330
CD0
100
AcDbEntity
  8
0
  6
Continuous
 62
     3
100
AcDbLine
 10
90.41500067500001
 20
94.000000003
 30
0.0
 11
89.89736258399998
 21
92.06814835100001
 31
0.0
  0
LINE
  5
E64
330
CD0
100
AcDbEntity
  8
0
  6
Continuous
 62
     3
100
AcDbLine
 10
90.41500067500001
 20
94.000000003
 30
0.0
 11
90.932638765
 21
92.06814835000001
 31
0.0
  0
LINE
  5
E65
330
CD0
100
AcDbEntity
  8
0
  6
Continuous
 62
     3
100
AcDbLine
 10
90.41500067500001
 20
94.000000003
 30
0.0
 11
90.41500067399999
 21
74.00000000299998
 31
0.0
  0
LINE
  5
E66
330
CD0
100
AcDbEntity
  8
0
  6
Continuous
 62
     3
100
AcDbLine
 10
90.41500067399999
 20
74.00000000299998
 30
0.0
 11
90.932638764
 21
75.93185165600001
 31
0.0
  0
LINE
  5
E67
330
CD0
100
AcDbEntity
  8
0
  6
Continuous
 62
     3
100
AcDbLine
 10
90.41500067399999
 20
74.00000000299998
 30
0.0
 11
89.89736258399998
 21
75.93185165600001
 31
0.0
  0
LINE
  5
E68
330
CD0
100
AcDbEntity
  8
0
  6
Continuous
 62
     3
100
AcDbLine
 10
94.41500067399998
 20
74.00000000299998
 30
0.0
 11
89.41500067399998
 21
74.00000000299998
 31
0.0
  0
TEXT
  5
E69
330
CD0
100
AcDbEntity
  8
0
  6
Continuous
 62
     3
100
AcDbText
 10
89.915000674
 20
82.35000000300001
 30
0.1
 40
2.0
  1
２０
 50
90.0
 41
0.8
  7
KANJI0
100
AcDbText
  0
LINE
  5
E6A
330
CD0
100
AcDbEntity
  8
0
  6
Continuous
 62
     3
100
AcDbLine
 10
84.551119667
 20
211.1628541159998
 30
0.1
 11
84.551119667
 21
212.836481407
 31
0.1
  0
LINE
  5
E6B
330
CD0
100
AcDbEntity
  8
0
  6
Continuous
 62
     3
100
AcDbLine
 10
74.74987841799998
 20
212.749911264
 30
0.0
 11
86.55111966700001
 21
212.8546336769999
 31
0.0
  0
LINE
  5
E6C
330
CD0
100
AcDbEntity
  8
0
  6
Continuous
 62
     3
100
AcDbLine
 10
86.55111966700001
 20
211.145366327
 30
0.0
 11
74.74987841799998
 21
211.2500887409999
 31
0.0
  0
LINE
  5
E6D
330
CD0
100
AcDbEntity
  8
0
  6
Continuous
 62
     3
100
AcDbLine
 10
74.74987841799998
 20
211.250000002
 30
0.0
 11
74.74987841799998
 21
212.7500000019999
 31
0.0
  0
LINE
  5
E6E
330
CD0
100
AcDbEntity
  8
0
  6
Continuous
 62
     3
100
AcDbLine
 10
84.551119667
 20
214.6628541159997
 30
0.0
 11
84.551119667
 21
216.3364814069999
 31
0.0
  0
LINE
  5
E6F
330
CD0
100
AcDbEntity
  8
0
  6
Continuous
 62
     3
100
AcDbLine
 10
74.74987841799998
 20
216.249911264
 30
0.0
 11
86.55111966700001
 21
216.354633677
 31
0.0
  0
LINE
  5
E70
330
CD0
100
AcDbEntity
  8
0
  6
Continuous
 62
     3
100
AcDbLine
 10
86.55111966700001
 20
214.6453663269999
 30
0.0
 11
74.74987841799998
 21
214.750088741
 31
0.0
  0
LINE
  5
E71
330
CD0
100
AcDbEntity
  8
0
  6
Continuous
 62
     3
100
AcDbLine
 10
74.74987841799998
 20
214.7500000019999
 30
0.0
 11
74.74987841799998
 21
216.250000002
 31
0.0
  0
LINE
  5
E72
330
CD0
100
AcDbEntity
  8
0
  6
Continuous
 62
     3
100
AcDbLine
 10
84.551119669
 20
253.1628541159998
 30
0.0
 11
84.551119669
 21
254.836481407
 31
0.0
  0
LINE
  5
E73
330
CD0
100
AcDbEntity
  8
0
  6
Continuous
 62
     3
100
AcDbLine
 10
74.74987841899999
 20
254.749911264
 30
0.0
 11
86.55111966899998
 21
254.854633677
 31
0.0
  0
LINE
  5
E74
330
CD0
100
AcDbEntity
  8
0
  6
Continuous
 62
     3
100
AcDbLine
 10
86.55111966899998
 20
253.145366327
 30
0.0
 11
74.74987841899999
 21
253.2500887409999
 31
0.0
  0
LINE
  5
E75
330
CD0
100
AcDbEntity
  8
0
  6
Continuous
 62
     3
100
AcDbLine
 10
74.74987841899999
 20
253.250000002
 30
0.0
 11
74.74987841899999
 21
254.750000002
 31
0.0
  0
LINE
  5
E76
330
CD0
100
AcDbEntity
  8
0
  6
Continuous
 62
     3
100
AcDbLine
 10
84.551119669
 20
249.6628541159997
 30
0.0
 11
84.551119669
 21
251.336481407
 31
0.0
  0
LINE
  5
E77
330
CD0
100
AcDbEntity
  8
0
  6
Continuous
 62
     3
100
AcDbLine
 10
74.74987841899999
 20
251.249911264
 30
0.0
 11
86.55111966899998
 21
251.354633677
 31
0.0
  0
LINE
  5
E78
330
CD0
100
AcDbEntity
  8
0
  6
Continuous
 62
     3
100
AcDbLine
 10
86.55111966899998
 20
249.645366327
 30
0.0
 11
74.74987841899999
 21
249.7500887409996
 31
0.0
  0
LINE
  5
E79
330
CD0
100
AcDbEntity
  8
0
  6
Continuous
 62
     3
100
AcDbLine
 10
74.74987841899999
 20
249.750000002
 30
0.0
 11
74.74987841899999
 21
251.250000002
 31
0.0
  0
LINE
  5
E7A
330
CD0
100
AcDbEntity
  8
0
  6
Continuous
 62
     3
100
AcDbLine
 10
63.15111966699999
 20
221.260000003
 30
0.0
 11
63.15111966799999
 21
222.7600000029996
 31
0.0
  0
LINE
  5
E7B
330
CD0
100
AcDbEntity
  8
0
  6
Continuous
 62
     3
100
AcDbLine
 10
63.15111966799999
 20
244.740000003
 30
0.0
 11
63.15111966799999
 21
243.2400000029999
 31
0.0
  0
LINE
  5
E7C
330
CD0
100
AcDbEntity
  8
0
  6
Continuous
 62
     3
100
AcDbLine
 10
66.65111966800001
 20
244.740000003
 30
0.0
 11
66.65111966899999
 21
248.240000003
 31
0.0
  0
LINE
  5
E7D
330
CD0
100
AcDbEntity
  8
0
  6
Continuous
 62
     3
100
AcDbLine
 10
66.65111966800001
 20
222.7600000029996
 30
0.0
 11
66.65111966800001
 21
243.2400000029999
 31
0.0
  0
LINE
  5
E7E
330
CD0
100
AcDbEntity
  8
0
  6
Continuous
 62
     3
100
AcDbLine
 10
66.651119667
 20
217.7600000029999
 30
0.0
 11
66.651119667
 21
221.260000003
 31
0.0
  0
LINE
  5
E7F
330
CD0
100
AcDbEntity
  8
0
  6
Continuous
 62
     3
100
AcDbLine
 10
74.301119669
 20
247.2000000019999
 30
0.0
 11
74.301119668
 21
244.200000002
 31
0.0
  0
LINE
  5
E80
330
CD0
100
AcDbEntity
  8
0
  6
Continuous
 62
     3
100
AcDbLine
 10
74.301119668
 20
244.200000002
 30
0.0
 11
77.301119668
 21
244.200000002
 31
0.0
  0
LINE
  5
E81
330
CD0
100
AcDbEntity
  8
0
  6
Continuous
 62
     3
100
AcDbLine
 10
77.301119668
 20
244.200000002
 30
0.0
 11
77.301119669
 21
247.2000000019999
 31
0.0
  0
LINE
  5
E82
330
CD0
100
AcDbEntity
  8
0
  6
Continuous
 62
     3
100
AcDbLine
 10
77.301119669
 20
247.2000000019999
 30
0.0
 11
74.301119669
 21
247.2000000019999
 31
0.0
  0
LINE
  5
E83
330
CD0
100
AcDbEntity
  8
0
  6
Continuous
 62
     3
100
AcDbLine
 10
74.301119669
 20
247.2000000019999
 30
0.0
 11
73.051119669
 21
247.7000000019998
 31
0.0
  0
LINE
  5
E84
330
CD0
100
AcDbEntity
  8
0
  6
Continuous
 62
     3
100
AcDbLine
 10
73.051119668
 20
243.7000000019998
 30
0.0
 11
74.301119668
 21
244.200000002
 31
0.0
  0
LINE
  5
E85
330
CD0
100
AcDbEntity
  8
0
  6
Continuous
 62
     3
100
AcDbLine
 10
77.301119668
 20
244.200000002
 30
0.0
 11
78.551119668
 21
243.7000000019998
 31
0.0
  0
LINE
  5
E86
330
CD0
100
AcDbEntity
  8
0
  6
Continuous
 62
     3
100
AcDbLine
 10
77.301119669
 20
247.2000000019999
 30
0.0
 11
78.551119669
 21
247.7000000019998
 31
0.0
  0
LINE
  5
E87
330
CD0
100
AcDbEntity
  8
0
  6
Continuous
 62
     3
100
AcDbLine
 10
74.301119668
 20
242.120000002
 30
0.0
 11
74.301119668
 21
239.1200000019999
 31
0.0
  0
LINE
  5
E88
330
CD0
100
AcDbEntity
  8
0
  6
Continuous
 62
     3
100
AcDbLine
 10
74.301119668
 20
239.1200000019999
 30
0.0
 11
77.301119668
 21
239.1200000019999
 31
0.0
  0
LINE
  5
E89
330
CD0
100
AcDbEntity
  8
0
  6
Continuous
 62
     3
100
AcDbLine
 10
77.301119668
 20
239.1200000019999
 30
0.0
 11
77.301119668
 21
242.120000002
 31
0.0
  0
LINE
  5
E8A
330
CD0
100
AcDbEntity
  8
0
  6
Continuous
 62
     3
100
AcDbLine
 10
77.301119668
 20
242.120000002
 30
0.0
 11
74.301119668
 21
242.120000002
 31
0.0
  0
LINE
  5
E8B
330
CD0
100
AcDbEntity
  8
0
  6
Continuous
 62
     3
100
AcDbLine
 10
74.301119668
 20
242.120000002
 30
0.0
 11
73.051119668
 21
242.620000002
 31
0.0
  0
LINE
  5
E8C
330
CD0
100
AcDbEntity
  8
0
  6
Continuous
 62
     3
100
AcDbLine
 10
73.051119668
 20
238.620000002
 30
0.0
 11
74.301119668
 21
239.1200000019999
 31
0.0
  0
LINE
  5
E8D
330
CD0
100
AcDbEntity
  8
0
  6
Continuous
 62
     3
100
AcDbLine
 10
77.301119668
 20
239.1200000019999
 30
0.0
 11
78.551119668
 21
238.620000002
 31
0.0
  0
LINE
  5
E8E
330
CD0
100
AcDbEntity
  8
0
  6
Continuous
 62
     3
100
AcDbLine
 10
77.301119668
 20
242.120000002
 30
0.0
 11
78.551119668
 21
242.620000002
 31
0.0
  0
LINE
  5
E8F
330
CD0
100
AcDbEntity
  8
0
  6
Continuous
 62
     3
100
AcDbLine
 10
74.301119668
 20
237.040000002
 30
0.0
 11
74.301119668
 21
234.040000002
 31
0.0
  0
LINE
  5
E90
330
CD0
100
AcDbEntity
  8
0
  6
Continuous
 62
     3
100
AcDbLine
 10
74.301119668
 20
234.040000002
 30
0.0
 11
77.301119668
 21
234.040000002
 31
0.0
  0
LINE
  5
E91
330
CD0
100
AcDbEntity
  8
0
  6
Continuous
 62
     3
100
AcDbLine
 10
77.301119668
 20
234.040000002
 30
0.0
 11
77.301119668
 21
237.040000002
 31
0.0
  0
LINE
  5
E92
330
CD0
100
AcDbEntity
  8
0
  6
Continuous
 62
     3
100
AcDbLine
 10
77.301119668
 20
237.040000002
 30
0.0
 11
74.301119668
 21
237.040000002
 31
0.0
  0
LINE
  5
E93
330
CD0
100
AcDbEntity
  8
0
  6
Continuous
 62
     3
100
AcDbLine
 10
74.301119668
 20
237.040000002
 30
0.0
 11
73.051119668
 21
237.5400000019999
 31
0.0
  0
LINE
  5
E94
330
CD0
100
AcDbEntity
  8
0
  6
Continuous
 62
     3
100
AcDbLine
 10
73.051119668
 20
233.5400000019999
 30
0.0
 11
74.301119668
 21
234.040000002
 31
0.0
  0
LINE
  5
E95
330
CD0
100
AcDbEntity
  8
0
  6
Continuous
 62
     3
100
AcDbLine
 10
77.301119668
 20
234.040000002
 30
0.0
 11
78.551119668
 21
233.5400000019999
 31
0.0
  0
LINE
  5
E96
330
CD0
100
AcDbEntity
  8
0
  6
Continuous
 62
     3
100
AcDbLine
 10
77.301119668
 20
237.040000002
 30
0.0
 11
78.551119668
 21
237.5400000019999
 31
0.0
  0
LINE
  5
E97
330
CD0
100
AcDbEntity
  8
0
  6
Continuous
 62
     3
100
AcDbLine
 10
74.301119667
 20
221.800000002
 30
0.0
 11
74.301119667
 21
218.800000002
 31
0.0
  0
LINE
  5
E98
330
CD0
100
AcDbEntity
  8
0
  6
Continuous
 62
     3
100
AcDbLine
 10
74.301119667
 20
218.800000002
 30
0.0
 11
77.301119667
 21
218.800000002
 31
0.0
  0
LINE
  5
E99
330
CD0
100
AcDbEntity
  8
0
  6
Continuous
 62
     3
100
AcDbLine
 10
77.301119667
 20
218.800000002
 30
0.0
 11
77.301119667
 21
221.800000002
 31
0.0
  0
LINE
  5
E9A
330
CD0
100
AcDbEntity
  8
0
  6
Continuous
 62
     3
100
AcDbLine
 10
77.301119667
 20
221.800000002
 30
0.0
 11
74.301119667
 21
221.800000002
 31
0.0
  0
LINE
  5
E9B
330
CD0
100
AcDbEntity
  8
0
  6
Continuous
 62
     3
100
AcDbLine
 10
74.301119667
 20
221.800000002
 30
0.0
 11
73.051119668
 21
222.300000002
 31
0.0
  0
LINE
  5
E9C
330
CD0
100
AcDbEntity
  8
0
  6
Continuous
 62
     3
100
AcDbLine
 10
73.051119667
 20
218.300000002
 30
0.0
 11
74.301119667
 21
218.800000002
 31
0.0
  0
LINE
  5
E9D
330
CD0
100
AcDbEntity
  8
0
  6
Continuous
 62
     3
100
AcDbLine
 10
77.301119667
 20
218.800000002
 30
0.0
 11
78.551119667
 21
218.300000002
 31
0.0
  0
LINE
  5
E9E
330
CD0
100
AcDbEntity
  8
0
  6
Continuous
 62
     3
100
AcDbLine
 10
77.301119667
 20
221.800000002
 30
0.0
 11
78.551119668
 21
222.300000002
 31
0.0
  0
LINE
  5
E9F
330
CD0
100
AcDbEntity
  8
0
  6
Continuous
 62
     3
100
AcDbLine
 10
74.301119668
 20
231.960000002
 30
0.0
 11
74.301119668
 21
228.960000002
 31
0.0
  0
LINE
  5
EA0
330
CD0
100
AcDbEntity
  8
0
  6
Continuous
 62
     3
100
AcDbLine
 10
74.301119668
 20
228.960000002
 30
0.0
 11
77.301119668
 21
228.960000002
 31
0.0
  0
LINE
  5
EA1
330
CD0
100
AcDbEntity
  8
0
  6
Continuous
 62
     3
100
AcDbLine
 10
77.301119668
 20
228.960000002
 30
0.0
 11
77.301119668
 21
231.960000002
 31
0.0
  0
LINE
  5
EA2
330
CD0
100
AcDbEntity
  8
0
  6
Continuous
 62
     3
100
AcDbLine
 10
77.301119668
 20
231.960000002
 30
0.0
 11
74.301119668
 21
231.960000002
 31
0.0
  0
LINE
  5
EA3
330
CD0
100
AcDbEntity
  8
0
  6
Continuous
 62
     3
100
AcDbLine
 10
74.301119668
 20
231.960000002
 30
0.0
 11
73.051119668
 21
232.460000002
 31
0.0
  0
LINE
  5
EA4
330
CD0
100
AcDbEntity
  8
0
  6
Continuous
 62
     3
100
AcDbLine
 10
73.051119668
 20
228.460000002
 30
0.0
 11
74.301119668
 21
228.960000002
 31
0.0
  0
LINE
  5
EA5
330
CD0
100
AcDbEntity
  8
0
  6
Continuous
 62
     3
100
AcDbLine
 10
77.301119668
 20
228.960000002
 30
0.0
 11
78.551119668
 21
228.460000002
 31
0.0
  0
LINE
  5
EA6
330
CD0
100
AcDbEntity
  8
0
  6
Continuous
 62
     3
100
AcDbLine
 10
77.301119668
 20
231.960000002
 30
0.0
 11
78.551119668
 21
232.460000002
 31
0.0
  0
LINE
  5
EA7
330
CD0
100
AcDbEntity
  8
0
  6
Continuous
 62
     3
100
AcDbLine
 10
74.301119668
 20
226.880000002
 30
0.0
 11
74.301119668
 21
223.8800000019999
 31
0.0
  0
LINE
  5
EA8
330
CD0
100
AcDbEntity
  8
0
  6
Continuous
 62
     3
100
AcDbLine
 10
74.301119668
 20
223.8800000019999
 30
0.0
 11
77.301119668
 21
223.8800000019999
 31
0.0
  0
LINE
  5
EA9
330
CD0
100
AcDbEntity
  8
0
  6
Continuous
 62
     3
100
AcDbLine
 10
77.301119668
 20
223.8800000019999
 30
0.0
 11
77.301119668
 21
226.880000002
 31
0.0
  0
LINE
  5
EAA
330
CD0
100
AcDbEntity
  8
0
  6
Continuous
 62
     3
100
AcDbLine
 10
77.301119668
 20
226.880000002
 30
0.0
 11
74.301119668
 21
226.880000002
 31
0.0
  0
LINE
  5
EAB
330
CD0
100
AcDbEntity
  8
0
  6
Continuous
 62
     3
100
AcDbLine
 10
74.301119668
 20
226.880000002
 30
0.0
 11
73.051119668
 21
227.380000002
 31
0.0
  0
LINE
  5
EAC
330
CD0
100
AcDbEntity
  8
0
  6
Continuous
 62
     3
100
AcDbLine
 10
73.051119668
 20
223.380000002
 30
0.0
 11
74.301119668
 21
223.8800000019999
 31
0.0
  0
LINE
  5
EAD
330
CD0
100
AcDbEntity
  8
0
  6
Continuous
 62
     3
100
AcDbLine
 10
77.301119668
 20
223.8800000019999
 30
0.0
 11
78.551119668
 21
223.380000002
 31
0.0
  0
LINE
  5
EAE
330
CD0
100
AcDbEntity
  8
0
  6
Continuous
 62
     3
100
AcDbLine
 10
77.301119668
 20
226.880000002
 30
0.0
 11
78.551119668
 21
227.380000002
 31
0.0
  0
LINE
  5
EAF
330
CD0
100
AcDbEntity
  8
0
  6
Continuous
 62
     3
100
AcDbLine
 10
79.551119669
 20
248.240000002
 30
0.0
 11
79.55111966699999
 21
217.7600000019999
 31
0.0
  0
LINE
  5
EB0
330
CD0
100
AcDbEntity
  8
0
  6
Continuous
 62
     3
100
AcDbLine
 10
86.55111966799999
 20
246.1453663269999
 30
0.0
 11
85.75111966799999
 21
246.155127559
 31
0.0
  0
LINE
  5
EB1
330
CD0
100
AcDbEntity
  8
0
  6
Continuous
 62
     3
100
AcDbLine
 10
85.75111966899999
 20
247.844872445
 30
0.0
 11
86.55111966799999
 21
247.854633677
 31
0.0
  0
LINE
  5
EB2
330
CD0
100
AcDbEntity
  8
0
  6
Continuous
 62
     3
100
AcDbLine
 10
85.75111966799999
 20
244.344872445
 30
0.0
 11
86.55111966799999
 21
244.354633677
 31
0.0
  0
LINE
  5
EB3
330
CD0
100
AcDbEntity
  8
0
  6
Continuous
 62
     3
100
AcDbLine
 10
86.55111966799999
 20
242.645366327
 30
0.0
 11
85.75111966799999
 21
242.655127559
 31
0.0
  0
LINE
  5
EB4
330
CD0
100
AcDbEntity
  8
0
  6
Continuous
 62
     3
100
AcDbLine
 10
85.75111966799999
 20
240.8448724449999
 30
0.0
 11
86.55111966799999
 21
240.854633677
 31
0.0
  0
LINE
  5
EB5
330
CD0
100
AcDbEntity
  8
0
  6
Continuous
 62
     3
100
AcDbLine
 10
86.55111966799999
 20
239.145366327
 30
0.0
 11
85.75111966799999
 21
239.155127559
 31
0.0
  0
LINE
  5
EB6
330
CD0
100
AcDbEntity
  8
0
  6
Continuous
 62
     3
100
AcDbLine
 10
85.75111966799999
 20
237.3448724449999
 30
0.0
 11
86.55111966799999
 21
237.354633677
 31
0.0
  0
LINE
  5
EB7
330
CD0
100
AcDbEntity
  8
0
  6
Continuous
 62
     3
100
AcDbLine
 10
86.55111966799999
 20
235.6453663269999
 30
0.0
 11
85.75111966799999
 21
235.655127559
 31
0.0
  0
LINE
  5
EB8
330
CD0
100
AcDbEntity
  8
0
  6
Continuous
 62
     3
100
AcDbLine
 10
85.75111966799999
 20
233.844872445
 30
0.0
 11
86.55111966799999
 21
233.854633677
 31
0.0
  0
LINE
  5
EB9
330
CD0
100
AcDbEntity
  8
0
  6
Continuous
 62
     3
100
AcDbLine
 10
86.55111966799999
 20
232.145366327
 30
0.0
 11
85.75111966799999
 21
232.155127559
 31
0.0
  0
LINE
  5
EBA
330
CD0
100
AcDbEntity
  8
0
  6
Continuous
 62
     3
100
AcDbLine
 10
85.75111966799999
 20
230.3448724449999
 30
0.0
 11
86.55111966799999
 21
230.354633677
 31
0.0
  0
LINE
  5
EBB
330
CD0
100
AcDbEntity
  8
0
  6
Continuous
 62
     3
100
AcDbLine
 10
86.55111966799999
 20
228.645366327
 30
0.0
 11
85.75111966799999
 21
228.655127559
 31
0.0
  0
LINE
  5
EBC
330
CD0
100
AcDbEntity
  8
0
  6
Continuous
 62
     3
100
AcDbLine
 10
85.75111966799999
 20
226.8448724449999
 30
0.0
 11
86.55111966799999
 21
226.854633677
 31
0.0
  0
LINE
  5
EBD
330
CD0
100
AcDbEntity
  8
0
  6
Continuous
 62
     3
100
AcDbLine
 10
86.55111966799999
 20
225.1453663269999
 30
0.0
 11
85.75111966799999
 21
225.155127559
 31
0.0
  0
LINE
  5
EBE
330
CD0
100
AcDbEntity
  8
0
  6
Continuous
 62
     3
100
AcDbLine
 10
85.75111966799999
 20
223.344872445
 30
0.0
 11
86.55111966799999
 21
223.354633677
 31
0.0
  0
LINE
  5
EBF
330
CD0
100
AcDbEntity
  8
0
  6
Continuous
 62
     3
100
AcDbLine
 10
86.55111966799999
 20
221.645366327
 30
0.0
 11
85.75111966699997
 21
221.655127559
 31
0.0
  0
LINE
  5
EC0
330
CD0
100
AcDbEntity
  8
0
  6
Continuous
 62
     3
100
AcDbLine
 10
85.75111966699997
 20
219.8448724449999
 30
0.0
 11
86.55111966700001
 21
219.854633677
 31
0.0
  0
LINE
  5
EC1
330
CD0
100
AcDbEntity
  8
0
  6
Continuous
 62
     3
100
AcDbLine
 10
86.55111966700001
 20
218.145366327
 30
0.0
 11
85.75111966699997
 21
218.155127559
 31
0.0
  0
LINE
  5
EC2
330
CD0
100
AcDbEntity
  8
0
  6
Continuous
 62
     3
100
AcDbLine
 10
83.951119667
 20
217.7600000019999
 30
0.0
 11
83.951119669
 21
248.240000002
 31
0.0
  0
LINE
  5
EC3
330
CD0
100
AcDbEntity
  8
0
  6
Continuous
 62
     3
100
AcDbLine
 10
83.55111966699999
 20
218.2600000019998
 30
0.0
 11
83.551119669
 21
247.740000002
 31
0.0
  0
LINE
  5
EC4
330
CD0
100
AcDbEntity
  8
0
  6
Continuous
 62
     3
100
AcDbLine
 10
83.551119669
 20
247.740000002
 30
0.0
 11
79.551119669
 21
247.740000002
 31
0.0
  0
LINE
  5
EC5
330
CD0
100
AcDbEntity
  8
0
  6
Continuous
 62
     3
100
AcDbLine
 10
79.55111966699999
 20
218.2600000019998
 30
0.0
 11
83.55111966699999
 21
218.2600000019998
 31
0.0
  0
LINE
  5
EC6
330
CD0
100
AcDbEntity
  8
0
  6
Continuous
 62
     1
100
AcDbLine
 10
112.600000007
 20
256.000000002
 30
0.0
 11
112.600000005
 21
210.000000002
 31
0.0
  0
ARC
  5
EC7
330
CD0
100
AcDbEntity
  8
0
  6
Continuous
 62
     1
100
AcDbCircle
 10
113.6000000049999
 20
210.000000002
 30
0.0
 40
1.0
100
AcDbArc
 50
180.0
 51
270.0
  0
ARC
  5
EC8
330
CD0
100
AcDbEntity
  8
0
  6
Continuous
 62
     1
100
AcDbCircle
 10
99.000000005
 20
210.000000002
 30
0.0
 40
1.0
100
AcDbArc
 50
180.0
 51
270.0
  0
ARC
  5
EC9
330
CD0
100
AcDbEntity
  8
0
  6
Continuous
 62
     1
100
AcDbCircle
 10
96.415000005
 20
224.000000002
 30
0.0
 40
1.0
100
AcDbArc
 50
180.0
 51
270.0
  0
LINE
  5
ECA
330
CD0
100
AcDbEntity
  8
0
  6
Continuous
 62
     1
100
AcDbLine
 10
96.415000005
 20
223.0000000019999
 30
0.0
 11
98.000000005
 21
223.0000000019999
 31
0.0
  0
LINE
  5
ECB
330
CD0
100
AcDbEntity
  8
0
  6
Continuous
 62
     1
100
AcDbLine
 10
95.41500000600001
 20
242.0000000019999
 30
0.0
 11
95.41500000499999
 21
224.000000002
 31
0.0
  0
ARC
  5
ECC
330
CD0
100
AcDbEntity
  8
0
  6
Continuous
 62
     1
100
AcDbCircle
 10
96.415000006
 20
242.0000000019999
 30
0.0
 40
1.0
100
AcDbArc
 50
90.0
 51
180.0
  0
LINE
  5
ECD
330
CD0
100
AcDbEntity
  8
0
  6
Continuous
 62
     1
100
AcDbLine
 10
98.000000006
 20
243.000000002
 30
0.0
 11
96.415000006
 21
243.000000002
 31
0.0
  0
ARC
  5
ECE
330
CD0
100
AcDbEntity
  8
0
  6
Continuous
 62
     1
100
AcDbCircle
 10
99.00000000700002
 20
256.000000002
 30
0.0
 40
1.0
100
AcDbArc
 50
90.0
 51
180.0
  0
ARC
  5
ECF
330
CD0
100
AcDbEntity
  8
0
  6
Continuous
 62
     1
100
AcDbCircle
 10
191.000000007
 20
255.999999998
 30
0.0
 40
1.0
100
AcDbArc
 50
0.0
 51
90.0
  0
ARC
  5
ED0
330
CD0
100
AcDbEntity
  8
0
  6
Continuous
 62
     1
100
AcDbCircle
 10
191.000000005
 20
209.999999998
 30
0.0
 40
1.0
100
AcDbArc
 50
270.0
 51
0.0
  0
ARC
  5
ED1
330
CD0
100
AcDbEntity
  8
0
  6
Continuous
 62
     1
100
AcDbCircle
 10
176.400000005
 20
209.999999998
 30
0.0
 40
1.0
100
AcDbArc
 50
270.0
 51
0.0
  0
LINE
  5
ED2
330
CD0
100
AcDbEntity
  8
0
  6
Continuous
 62
     1
100
AcDbLine
 10
99.000000005
 20
209.000000002
 30
0.0
 11
191.000000005
 21
208.9999999979996
 31
0.0
  0
LINE
  5
ED3
330
CD0
100
AcDbEntity
  8
0
  6
Continuous
 62
     1
100
AcDbLine
 10
101.500000007
 20
253.050000002
 30
0.0
 11
101.500000007
 21
251.050000002
 31
0.0
  0
LINE
  5
ED4
330
CD0
100
AcDbEntity
  8
0
  6
Continuous
 62
     1
100
AcDbLine
 10
108.500000007
 20
253.050000002
 30
0.0
 11
101.500000007
 21
253.050000002
 31
0.0
  0
LINE
  5
ED5
330
CD0
100
AcDbEntity
  8
0
  6
Continuous
 62
     1
100
AcDbLine
 10
101.500000007
 20
251.050000002
 30
0.0
 11
108.500000007
 21
251.050000002
 31
0.0
  0
LINE
  5
ED6
330
CD0
100
AcDbEntity
  8
0
  6
Continuous
 62
     1
100
AcDbLine
 10
108.500000007
 20
251.050000002
 30
0.0
 11
108.500000007
 21
253.050000002
 31
0.0
  0
LINE
  5
ED7
330
CD0
100
AcDbEntity
  8
0
  6
Continuous
 62
     1
100
AcDbLine
 10
109.000000007
 20
248.500000002
 30
0.0
 11
109.000000007
 21
250.000000002
 31
0.0
  0
ARC
  5
ED8
330
CD0
100
AcDbEntity
  8
0
  6
Continuous
 62
     1
100
AcDbCircle
 10
100.000000007
 20
249.500000002
 30
0.0
 40
0.5
100
AcDbArc
 50
90.0
 51
180.0
  0
LINE
  5
ED9
330
CD0
100
AcDbEntity
  8
0
  6
Continuous
 62
     1
100
AcDbLine
 10
99.50000000700001
 20
248.500000002
 30
0.0
 11
99.50000000700001
 21
249.500000002
 31
0.0
  0
LINE
  5
EDA
330
CD0
100
AcDbEntity
  8
0
  6
Continuous
 62
     1
100
AcDbLine
 10
100.000000007
 20
250.000000002
 30
0.0
 11
112.600000007
 21
250.000000002
 31
0.0
  0
ARC
  5
EDB
330
CD0
100
AcDbEntity
  8
0
  6
Continuous
 62
     1
100
AcDbCircle
 10
100.000000005
 20
216.500000002
 30
0.0
 40
0.5
100
AcDbArc
 50
180.0
 51
270.0
  0
LINE
  5
EDC
330
CD0
100
AcDbEntity
  8
0
  6
Continuous
 62
     1
100
AcDbLine
 10
100.000000005
 20
216.000000002
 30
0.0
 11
112.600000005
 21
216.000000002
 31
0.0
  0
LINE
  5
EDD
330
CD0
100
AcDbEntity
  8
0
  6
Continuous
 62
     1
100
AcDbLine
 10
99.50000000500001
 20
216.500000002
 30
0.0
 11
99.50000000500001
 21
217.500000002
 31
0.0
  0
LINE
  5
EDE
330
CD0
100
AcDbEntity
  8
0
  6
Continuous
 62
     1
100
AcDbLine
 10
109.000000005
 20
217.500000002
 30
0.0
 11
109.000000005
 21
216.000000002
 31
0.0
  0
LINE
  5
EDF
330
CD0
100
AcDbEntity
  8
0
  6
Continuous
 62
     1
100
AcDbLine
 10
108.5000000049999
 20
214.950000002
 30
0.0
 11
101.500000005
 21
214.950000002
 31
0.0
  0
LINE
  5
EE0
330
CD0
100
AcDbEntity
  8
0
  6
Continuous
 62
     1
100
AcDbLine
 10
108.5000000049999
 20
212.950000002
 30
0.0
 11
108.5000000049999
 21
214.950000002
 31
0.0
  0
LINE
  5
EE1
330
CD0
100
AcDbEntity
  8
0
  6
Continuous
 62
     1
100
AcDbLine
 10
101.500000005
 20
212.950000002
 30
0.0
 11
108.5000000049999
 21
212.950000002
 31
0.0
  0
LINE
  5
EE2
330
CD0
100
AcDbEntity
  8
0
  6
Continuous
 62
     1
100
AcDbLine
 10
101.500000005
 20
214.950000002
 30
0.0
 11
101.500000005
 21
212.950000002
 31
0.0
  0
LINE
  5
EE3
330
CD0
100
AcDbEntity
  8
0
  6
Continuous
 62
     1
100
AcDbLine
 10
111.040000006
 20
248.500000002
 30
0.0
 11
111.040000005
 21
217.500000002
 31
0.0
  0
LINE
  5
EE4
330
CD0
100
AcDbEntity
  8
0
  6
Continuous
 62
     1
100
AcDbLine
 10
101.000000005
 20
217.500000002
 30
0.0
 11
109.000000005
 21
217.500000002
 31
0.0
  0
LINE
  5
EE5
330
CD0
100
AcDbEntity
  8
0
  6
Continuous
 62
     1
100
AcDbLine
 10
111.040000005
 20
217.500000002
 30
0.0
 11
98.20000000500002
 21
217.500000002
 31
0.0
  0
LINE
  5
EE6
330
CD0
100
AcDbEntity
  8
0
  6
Continuous
 62
     1
100
AcDbLine
 10
109.000000007
 20
248.500000002
 30
0.0
 11
101.000000007
 21
248.500000002
 31
0.0
  0
LINE
  5
EE7
330
CD0
100
AcDbEntity
  8
0
  6
Continuous
 62
     1
100
AcDbLine
 10
98.20000000600003
 20
248.500000002
 30
0.0
 11
111.040000006
 21
248.500000002
 31
0.0
  0
LINE
  5
EE8
330
CD0
100
AcDbEntity
  8
0
  6
Continuous
 62
     1
100
AcDbLine
 10
98.20000000500002
 20
217.500000002
 30
0.0
 11
98.20000000600003
 21
248.500000002
 31
0.0
  0
LINE
  5
EE9
330
CD0
100
AcDbEntity
  8
0
  6
Continuous
 62
     1
100
AcDbLine
 10
98.00000000700002
 20
256.000000002
 30
0.0
 11
98.000000005
 21
210.000000002
 31
0.0
  0
LINE
  5
EEA
330
CD0
100
AcDbEntity
  8
0
  6
Continuous
 62
     1
100
AcDbLine
 10
181.500000007
 20
251.0499999979999
 30
0.0
 11
188.500000007
 21
251.0499999979999
 31
0.0
  0
LINE
  5
EEB
330
CD0
100
AcDbEntity
  8
0
  6
Continuous
 62
     1
100
AcDbLine
 10
181.500000007
 20
253.0499999979999
 30
0.0
 11
181.500000007
 21
251.0499999979999
 31
0.0
  0
LINE
  5
EEC
330
CD0
100
AcDbEntity
  8
0
  6
Continuous
 62
     1
100
AcDbLine
 10
188.500000007
 20
251.0499999979999
 30
0.0
 11
188.500000007
 21
253.0499999979999
 31
0.0
  0
LINE
  5
EED
330
CD0
100
AcDbEntity
  8
0
  6
Continuous
 62
     1
100
AcDbLine
 10
188.500000007
 20
253.0499999979999
 30
0.0
 11
181.500000007
 21
253.0499999979999
 31
0.0
  0
ARC
  5
EEE
330
CD0
100
AcDbEntity
  8
0
  6
Continuous
 62
     1
100
AcDbCircle
 10
176.400000007
 20
255.999999998
 30
0.0
 40
1.0
100
AcDbArc
 50
0.0
 51
90.0
  0
LINE
  5
EEF
330
CD0
100
AcDbEntity
  8
0
  6
Continuous
 62
     1
100
AcDbLine
 10
177.400000005
 20
209.999999998
 30
0.0
 11
177.400000007
 21
255.999999998
 31
0.0
  0
LINE
  5
EF0
330
CD0
100
AcDbEntity
  8
0
  6
Continuous
 62
     1
100
AcDbLine
 10
181.500000005
 20
212.9499999979999
 30
0.0
 11
188.5000000049998
 21
212.9499999979999
 31
0.0
  0
LINE
  5
EF1
330
CD0
100
AcDbEntity
  8
0
  6
Continuous
 62
     1
100
AcDbLine
 10
181.500000005
 20
214.9499999979999
 30
0.0
 11
181.500000005
 21
212.9499999979999
 31
0.0
  0
LINE
  5
EF2
330
CD0
100
AcDbEntity
  8
0
  6
Continuous
 62
     1
100
AcDbLine
 10
188.5000000049998
 20
212.9499999979999
 30
0.0
 11
188.5000000049998
 21
214.9499999979999
 31
0.0
  0
LINE
  5
EF3
330
CD0
100
AcDbEntity
  8
0
  6
Continuous
 62
     1
100
AcDbLine
 10
188.5000000049998
 20
214.9499999979999
 30
0.0
 11
181.500000005
 21
214.9499999979999
 31
0.0
  0
ARC
  5
EF4
330
CD0
100
AcDbEntity
  8
0
  6
Continuous
 62
     1
100
AcDbCircle
 10
190.000000005
 20
216.499999998
 30
0.0
 40
0.5
100
AcDbArc
 50
270.0
 51
0.0
  0
LINE
  5
EF5
330
CD0
100
AcDbEntity
  8
0
  6
Continuous
 62
     1
100
AcDbLine
 10
190.000000005
 20
215.999999998
 30
0.0
 11
177.400000005
 21
215.999999998
 31
0.0
  0
LINE
  5
EF6
330
CD0
100
AcDbEntity
  8
0
  6
Continuous
 62
     1
100
AcDbLine
 10
190.500000005
 20
217.4999999979996
 30
0.0
 11
190.500000005
 21
216.499999998
 31
0.0
  0
LINE
  5
EF7
330
CD0
100
AcDbEntity
  8
0
  6
Continuous
 62
     1
100
AcDbLine
 10
181.0000000049998
 20
217.4999999979996
 30
0.0
 11
181.0000000049998
 21
215.999999998
 31
0.0
  0
LINE
  5
EF8
330
CD0
100
AcDbEntity
  8
0
  6
Continuous
 62
     1
100
AcDbLine
 10
178.9600000059998
 20
248.4999999979996
 30
0.0
 11
178.960000005
 21
217.4999999979996
 31
0.0
  0
LINE
  5
EF9
330
CD0
100
AcDbEntity
  8
0
  6
Continuous
 62
     1
100
AcDbLine
 10
178.960000005
 20
217.4999999979996
 30
0.0
 11
191.8000000049999
 21
217.4999999979996
 31
0.0
  0
LINE
  5
EFA
330
CD0
100
AcDbEntity
  8
0
  6
Continuous
 62
     1
100
AcDbLine
 10
189.000000007
 20
248.4999999979996
 30
0.0
 11
181.0000000069998
 21
248.4999999979996
 31
0.0
  0
LINE
  5
EFB
330
CD0
100
AcDbEntity
  8
0
  6
Continuous
 62
     1
100
AcDbLine
 10
191.8000000059998
 20
248.4999999979996
 30
0.0
 11
178.9600000059998
 21
248.4999999979996
 31
0.0
  0
ARC
  5
EFC
330
CD0
100
AcDbEntity
  8
0
  6
Continuous
 62
     1
100
AcDbCircle
 10
190.000000007
 20
249.499999998
 30
0.0
 40
0.5
100
AcDbArc
 50
0.0
 51
90.0
  0
LINE
  5
EFD
330
CD0
100
AcDbEntity
  8
0
  6
Continuous
 62
     1
100
AcDbLine
 10
190.000000007
 20
249.9999999979999
 30
0.0
 11
177.400000007
 21
249.9999999979999
 31
0.0
  0
LINE
  5
EFE
330
CD0
100
AcDbEntity
  8
0
  6
Continuous
 62
     1
100
AcDbLine
 10
190.500000007
 20
249.499999998
 30
0.0
 11
190.500000007
 21
248.4999999979996
 31
0.0
  0
LINE
  5
EFF
330
CD0
100
AcDbEntity
  8
0
  6
Continuous
 62
     1
100
AcDbLine
 10
181.0000000069998
 20
248.4999999979996
 30
0.0
 11
181.0000000069998
 21
249.9999999979999
 31
0.0
  0
LINE
  5
F00
330
CD0
100
AcDbEntity
  8
0
  6
Continuous
 62
     1
100
AcDbLine
 10
191.8000000049999
 20
217.4999999979996
 30
0.0
 11
191.8000000059998
 21
248.4999999979996
 31
0.0
  0
LINE
  5
F01
330
CD0
100
AcDbEntity
  8
0
  6
Continuous
 62
     1
100
AcDbLine
 10
192.000000005
 20
209.999999998
 30
0.0
 11
192.000000007
 21
255.999999998
 31
0.0
  0
ARC
  5
F02
330
CD0
100
AcDbEntity
  8
0
  6
Continuous
 62
     1
100
AcDbCircle
 10
113.600000007
 20
256.000000002
 30
0.0
 40
1.0
100
AcDbArc
 50
90.0
 51
180.0
  0
LINE
  5
F03
330
CD0
100
AcDbEntity
  8
0
  6
Continuous
 62
     1
100
AcDbLine
 10
191.000000007
 20
256.9999999979996
 30
0.0
 11
99.00000000700002
 21
257.000000002
 31
0.0
  0
LINE
  5
F04
330
CD0
100
AcDbEntity
  8
0
  6
Continuous
 62
     1
100
AcDbLine
 10
45.75111966899999
 20
257.0000000029998
 30
0.0
 11
45.75111966699997
 21
209.0000000029998
 31
0.0
  0
LINE
  5
F05
330
CD0
100
AcDbEntity
  8
0
  6
Continuous
 62
     1
100
AcDbLine
 10
50.251119668
 20
243.2000000029999
 30
0.0
 11
45.751119668
 21
243.2000000029999
 31
0.0
  0
LINE
  5
F06
330
CD0
100
AcDbEntity
  8
0
  6
Continuous
 62
     1
100
AcDbLine
 10
50.251119668
 20
222.8000000029997
 30
0.0
 11
50.251119668
 21
243.2000000029999
 31
0.0
  0
LINE
  5
F07
330
CD0
100
AcDbEntity
  8
0
  6
Continuous
 62
     1
100
AcDbLine
 10
45.751119668
 20
222.8000000029997
 30
0.0
 11
50.251119668
 21
222.8000000029997
 31
0.0
  0
LINE
  5
F08
330
CD0
100
AcDbEntity
  8
0
  6
Continuous
 62
     1
100
AcDbLine
 10
45.75111966699997
 20
209.0000000029998
 30
0.0
 11
85.551119667
 21
209.000000002
 31
0.0
  0
ARC
  5
F09
330
CD0
100
AcDbEntity
  8
0
  6
Continuous
 62
     1
100
AcDbCircle
 10
62.151119669
 20
256.0000000029999
 30
0.0
 40
1.0
100
AcDbArc
 50
0.0
 51
90.0
  0
LINE
  5
F0A
330
CD0
100
AcDbEntity
  8
0
  6
Continuous
 62
     1
100
AcDbLine
 10
86.55111966700001
 20
210.000000002
 30
0.0
 11
86.55111966899998
 21
256.000000002
 31
0.0
  0
ARC
  5
F0B
330
CD0
100
AcDbEntity
  8
0
  6
Continuous
 62
     1
100
AcDbCircle
 10
85.551119669
 20
256.000000002
 30
0.0
 40
1.0
100
AcDbArc
 50
0.0
 51
90.0
  0
LINE
  5
F0C
330
CD0
100
AcDbEntity
  8
0
  6
Continuous
 62
     1
100
AcDbLine
 10
85.551119669
 20
257.000000002
 30
0.0
 11
45.75111966899999
 21
257.0000000029998
 31
0.0
  0
ARC
  5
F0D
330
CD0
100
AcDbEntity
  8
0
  6
Continuous
 62
     1
100
AcDbCircle
 10
85.551119667
 20
210.000000002
 30
0.0
 40
1.0
100
AcDbArc
 50
270.0
 51
0.0
  0
LINE
  5
F0E
330
CD0
100
AcDbEntity
  8
0
  6
Continuous
 62
     1
100
AcDbLine
 10
79.55111966699999
 20
217.7600000019999
 30
0.0
 11
85.75111966699997
 21
217.7600000019999
 31
0.0
  0
LINE
  5
F0F
330
CD0
100
AcDbEntity
  8
0
  6
Continuous
 62
     1
100
AcDbLine
 10
85.75111966699997
 20
217.7600000019999
 30
0.0
 11
85.75111966899999
 21
248.240000002
 31
0.0
  0
LINE
  5
F10
330
CD0
100
AcDbEntity
  8
0
  6
Continuous
 62
     1
100
AcDbLine
 10
68.151119667
 20
217.7600000029999
 30
0.0
 11
72.05111966699999
 21
217.7600000019999
 31
0.0
  0
LINE
  5
F11
330
CD0
100
AcDbEntity
  8
0
  6
Continuous
 62
     1
100
AcDbLine
 10
72.05111966699999
 20
217.7600000019999
 30
0.0
 11
79.55111966699999
 21
217.7600000019999
 31
0.0
  0
LINE
  5
F12
330
CD0
100
AcDbEntity
  8
0
  6
Continuous
 62
     1
100
AcDbLine
 10
72.051119669
 20
248.240000002
 30
0.0
 11
72.05111966699999
 21
217.7600000019999
 31
0.0
  0
LINE
  5
F13
330
CD0
100
AcDbEntity
  8
0
  6
Continuous
 62
     1
100
AcDbLine
 10
85.75111966899999
 20
248.240000002
 30
0.0
 11
68.15111966899999
 21
248.240000003
 31
0.0
  0
ARC
  5
F14
330
CD0
100
AcDbEntity
  8
0
  6
Continuous
 62
     1
100
AcDbCircle
 10
62.151119667
 20
210.000000003
 30
0.0
 40
1.0
100
AcDbArc
 50
270.0
 51
0.0
  0
LINE
  5
F15
330
CD0
100
AcDbEntity
  8
0
  6
Continuous
 62
     1
100
AcDbLine
 10
63.15111966699999
 20
210.000000003
 30
0.0
 11
63.15111966899999
 21
256.0000000029999
 31
0.0
  0
LINE
  5
F16
330
CD0
100
AcDbEntity
  8
0
  6
Continuous
 62
     1
100
AcDbLine
 10
63.15111966699999
 20
216.000000003
 30
0.0
 11
67.65111966700001
 21
216.000000003
 31
0.0
  0
ARC
  5
F17
330
CD0
100
AcDbEntity
  8
0
  6
Continuous
 62
     1
100
AcDbCircle
 10
67.65111966700001
 20
216.500000003
 30
0.0
 40
0.5
100
AcDbArc
 50
270.0
 51
0.0
  0
LINE
  5
F18
330
CD0
100
AcDbEntity
  8
0
  6
Continuous
 62
     1
100
AcDbLine
 10
68.151119667
 20
216.500000003
 30
0.0
 11
68.151119667
 21
217.7600000029999
 31
0.0
  0
ARC
  5
F19
330
CD0
100
AcDbEntity
  8
0
  6
Continuous
 62
     1
100
AcDbCircle
 10
64.651119667
 20
216.500000003
 30
0.0
 40
0.5
100
AcDbArc
 50
270.0
 51
0.0
  0
LINE
  5
F1A
330
CD0
100
AcDbEntity
  8
0
  6
Continuous
 62
     1
100
AcDbLine
 10
68.151119667
 20
217.7600000029999
 30
0.0
 11
65.15111966700001
 21
217.7600000029999
 31
0.0
  0
ARC
  5
F1B
330
CD0
100
AcDbEntity
  8
0
  6
Continuous
 62
     1
100
AcDbCircle
 10
64.65111966800001
 20
220.6000000029999
 30
0.0
 40
0.5
100
AcDbArc
 50
0.0
 51
90.0
  0
LINE
  5
F1C
330
CD0
100
AcDbEntity
  8
0
  6
Continuous
 62
     1
100
AcDbLine
 10
64.65111966800001
 20
221.1000000029996
 30
0.0
 11
63.15111966799999
 21
221.1000000029996
 31
0.0
  0
LINE
  5
F1D
330
CD0
100
AcDbEntity
  8
0
  6
Continuous
 62
     1
100
AcDbLine
 10
68.151119667
 20
221.260000003
 30
0.0
 11
63.15111966699999
 21
221.260000003
 31
0.0
  0
LINE
  5
F1E
330
CD0
100
AcDbEntity
  8
0
  6
Continuous
 62
     1
100
AcDbLine
 10
68.15111966899999
 20
248.240000003
 30
0.0
 11
68.151119667
 21
217.7600000029999
 31
0.0
  0
LINE
  5
F1F
330
CD0
100
AcDbEntity
  8
0
  6
Continuous
 62
     1
100
AcDbLine
 10
63.15111966799999
 20
222.900000003
 30
0.0
 11
64.65111966800001
 21
222.900000003
 31
0.0
  0
LINE
  5
F20
330
CD0
100
AcDbEntity
  8
0
  6
Continuous
 62
     1
100
AcDbLine
 10
63.15111966799999
 20
222.7600000029996
 30
0.0
 11
68.151119668
 21
222.7600000029996
 31
0.0
  0
LINE
  5
F21
330
CD0
100
AcDbEntity
  8
0
  6
Continuous
 62
     1
100
AcDbLine
 10
64.351119668
 20
230.500000003
 30
0.0
 11
64.351119668
 21
235.5000000029999
 31
0.0
  0
LINE
  5
F22
330
CD0
100
AcDbEntity
  8
0
  6
Continuous
 62
     1
100
AcDbLine
 10
65.15111966800001
 20
230.500000003
 30
0.0
 11
64.351119668
 21
230.500000003
 31
0.0
  0
LINE
  5
F23
330
CD0
100
AcDbEntity
  8
0
  6
Continuous
 62
     1
100
AcDbLine
 10
64.351119668
 20
235.5000000029999
 30
0.0
 11
65.15111966800001
 21
235.5000000029999
 31
0.0
  0
LINE
  5
F24
330
CD0
100
AcDbEntity
  8
0
  6
Continuous
 62
     1
100
AcDbLine
 10
67.651119669
 20
250.5000000029999
 30
0.0
 11
63.15111966899999
 21
250.5000000029999
 31
0.0
  0
ARC
  5
F25
330
CD0
100
AcDbEntity
  8
0
  6
Continuous
 62
     1
100
AcDbCircle
 10
67.651119669
 20
250.000000003
 30
0.0
 40
0.5
100
AcDbArc
 50
0.0
 51
90.0
  0
LINE
  5
F26
330
CD0
100
AcDbEntity
  8
0
  6
Continuous
 62
     1
100
AcDbLine
 10
68.151119668
 20
248.240000003
 30
0.0
 11
68.15111966899999
 21
250.000000003
 31
0.0
  0
LINE
  5
F27
330
CD0
100
AcDbEntity
  8
0
  6
Continuous
 62
     1
100
AcDbLine
 10
65.151119669
 20
248.240000003
 30
0.0
 11
68.15111966899999
 21
248.240000003
 31
0.0
  0
ARC
  5
F28
330
CD0
100
AcDbEntity
  8
0
  6
Continuous
 62
     1
100
AcDbCircle
 10
64.651119669
 20
250.000000003
 30
0.0
 40
0.5
100
AcDbArc
 50
0.0
 51
90.0
  0
ARC
  5
F29
330
CD0
100
AcDbEntity
  8
0
  6
Continuous
 62
     1
100
AcDbCircle
 10
64.65111966800001
 20
245.400000003
 30
0.0
 40
0.5
100
AcDbArc
 50
270.0
 51
0.0
  0
LINE
  5
F2A
330
CD0
100
AcDbEntity
  8
0
  6
Continuous
 62
     1
100
AcDbLine
 10
65.15111966800001
 20
244.740000003
 30
0.0
 11
65.151119669
 21
248.240000003
 31
0.0
  0
LINE
  5
F2B
330
CD0
100
AcDbEntity
  8
0
  6
Continuous
 62
     1
100
AcDbLine
 10
65.15111966800001
 20
245.400000003
 30
0.0
 11
65.151119669
 21
250.000000003
 31
0.0
  0
LINE
  5
F2C
330
CD0
100
AcDbEntity
  8
0
  6
Continuous
 62
     1
100
AcDbLine
 10
63.15111966799999
 20
244.900000003
 30
0.0
 11
64.65111966800001
 21
244.900000003
 31
0.0
  0
LINE
  5
F2D
330
CD0
100
AcDbEntity
  8
0
  6
Continuous
 62
     1
100
AcDbLine
 10
68.151119668
 20
244.740000003
 30
0.0
 11
63.15111966799999
 21
244.740000003
 31
0.0
  0
LINE
  5
F2E
330
CD0
100
AcDbEntity
  8
0
  6
Continuous
 62
     1
100
AcDbLine
 10
65.15111966800001
 20
235.5000000029999
 30
0.0
 11
65.15111966800001
 21
242.600000003
 31
0.0
  0
LINE
  5
F2F
330
CD0
100
AcDbEntity
  8
0
  6
Continuous
 62
     1
100
AcDbLine
 10
64.65111966800001
 20
243.100000003
 30
0.0
 11
63.15111966799999
 21
243.100000003
 31
0.0
  0
ARC
  5
F30
330
CD0
100
AcDbEntity
  8
0
  6
Continuous
 62
     1
100
AcDbCircle
 10
64.65111966800001
 20
242.600000003
 30
0.0
 40
0.5
100
AcDbArc
 50
0.0
 51
90.0
  0
LINE
  5
F31
330
CD0
100
AcDbEntity
  8
0
  6
Continuous
 62
     1
100
AcDbLine
 10
63.15111966799999
 20
243.2400000029999
 30
0.0
 11
68.151119668
 21
243.2400000029999
 31
0.0
  0
LINE
  5
F32
330
CD0
100
AcDbEntity
  8
0
  6
Continuous
 62
     1
100
AcDbLine
 10
65.15111966800001
 20
223.4000000029999
 30
0.0
 11
65.15111966800001
 21
230.500000003
 31
0.0
  0
ARC
  5
F33
330
CD0
100
AcDbEntity
  8
0
  6
Continuous
 62
     1
100
AcDbCircle
 10
64.65111966800001
 20
223.4000000029999
 30
0.0
 40
0.5
100
AcDbArc
 50
270.0
 51
0.0
  0
LINE
  5
F34
330
CD0
100
AcDbEntity
  8
0
  6
Continuous
 62
     1
100
AcDbLine
 10
65.15111966800001
 20
222.7600000029996
 30
0.0
 11
65.15111966800001
 21
243.2400000029999
 31
0.0
  0
LINE
  5
F35
330
CD0
100
AcDbEntity
  8
0
  6
Continuous
 62
     1
100
AcDbLine
 10
65.15111966700001
 20
217.7600000029999
 30
0.0
 11
65.15111966700001
 21
221.260000003
 31
0.0
  0
LINE
  5
F36
330
CD0
100
AcDbEntity
  8
0
  6
Continuous
 62
     1
100
AcDbLine
 10
65.15111966700001
 20
216.500000003
 30
0.0
 11
65.15111966800001
 21
220.6000000029999
 31
0.0
  0
LINE
  5
F37
330
CD0
100
AcDbEntity
  8
0
  6
Continuous
 62
     1
100
AcDbLine
 10
73.051119669
 20
247.7000000019998
 30
0.0
 11
73.051119668
 21
243.7000000019998
 31
0.0
  0
LINE
  5
F38
330
CD0
100
AcDbEntity
  8
0
  6
Continuous
 62
     1
100
AcDbLine
 10
73.051119668
 20
243.7000000019998
 30
0.0
 11
78.551119668
 21
243.7000000019998
 31
0.0
  0
LINE
  5
F39
330
CD0
100
AcDbEntity
  8
0
  6
Continuous
 62
     1
100
AcDbLine
 10
78.551119668
 20
242.620000002
 30
0.0
 11
73.051119668
 21
242.620000002
 31
0.0
  0
LINE
  5
F3A
330
CD0
100
AcDbEntity
  8
0
  6
Continuous
 62
     1
100
AcDbLine
 10
78.551119668
 20
243.7000000019998
 30
0.0
 11
78.551119669
 21
247.7000000019998
 31
0.0
  0
LINE
  5
F3B
330
CD0
100
AcDbEntity
  8
0
  6
Continuous
 62
     1
100
AcDbLine
 10
78.551119669
 20
247.7000000019998
 30
0.0
 11
73.051119669
 21
247.7000000019998
 31
0.0
  0
LINE
  5
F3C
330
CD0
100
AcDbEntity
  8
0
  6
Continuous
 62
     1
100
AcDbLine
 10
78.551119668
 20
238.620000002
 30
0.0
 11
78.551119668
 21
242.620000002
 31
0.0
  0
LINE
  5
F3D
330
CD0
100
AcDbEntity
  8
0
  6
Continuous
 62
     1
100
AcDbLine
 10
73.051119668
 20
238.620000002
 30
0.0
 11
78.551119668
 21
238.620000002
 31
0.0
  0
LINE
  5
F3E
330
CD0
100
AcDbEntity
  8
0
  6
Continuous
 62
     1
100
AcDbLine
 10
73.051119668
 20
242.620000002
 30
0.0
 11
73.051119668
 21
238.620000002
 31
0.0
  0
LINE
  5
F3F
330
CD0
100
AcDbEntity
  8
0
  6
Continuous
 62
     1
100
AcDbLine
 10
73.051119668
 20
237.5400000019999
 30
0.0
 11
73.051119668
 21
233.5400000019999
 31
0.0
  0
LINE
  5
F40
330
CD0
100
AcDbEntity
  8
0
  6
Continuous
 62
     1
100
AcDbLine
 10
78.551119668
 20
237.5400000019999
 30
0.0
 11
73.051119668
 21
237.5400000019999
 31
0.0
  0
LINE
  5
F41
330
CD0
100
AcDbEntity
  8
0
  6
Continuous
 62
     1
100
AcDbLine
 10
78.551119668
 20
233.5400000019999
 30
0.0
 11
78.551119668
 21
237.5400000019999
 31
0.0
  0
LINE
  5
F42
330
CD0
100
AcDbEntity
  8
0
  6
Continuous
 62
     1
100
AcDbLine
 10
73.051119668
 20
233.5400000019999
 30
0.0
 11
78.551119668
 21
233.5400000019999
 31
0.0
  0
LINE
  5
F43
330
CD0
100
AcDbEntity
  8
0
  6
Continuous
 62
     1
100
AcDbLine
 10
78.551119668
 20
232.460000002
 30
0.0
 11
73.051119668
 21
232.460000002
 31
0.0
  0
LINE
  5
F44
330
CD0
100
AcDbEntity
  8
0
  6
Continuous
 62
     1
100
AcDbLine
 10
73.051119668
 20
232.460000002
 30
0.0
 11
73.051119668
 21
228.460000002
 31
0.0
  0
LINE
  5
F45
330
CD0
100
AcDbEntity
  8
0
  6
Continuous
 62
     1
100
AcDbLine
 10
78.551119668
 20
228.460000002
 30
0.0
 11
78.551119668
 21
232.460000002
 31
0.0
  0
LINE
  5
F46
330
CD0
100
AcDbEntity
  8
0
  6
Continuous
 62
     1
100
AcDbLine
 10
73.051119668
 20
228.460000002
 30
0.0
 11
78.551119668
 21
228.460000002
 31
0.0
  0
LINE
  5
F47
330
CD0
100
AcDbEntity
  8
0
  6
Continuous
 62
     1
100
AcDbLine
 10
78.551119668
 20
227.380000002
 30
0.0
 11
73.051119668
 21
227.380000002
 31
0.0
  0
LINE
  5
F48
330
CD0
100
AcDbEntity
  8
0
  6
Continuous
 62
     1
100
AcDbLine
 10
78.551119668
 20
223.380000002
 30
0.0
 11
78.551119668
 21
227.380000002
 31
0.0
  0
LINE
  5
F49
330
CD0
100
AcDbEntity
  8
0
  6
Continuous
 62
     1
100
AcDbLine
 10
73.051119668
 20
227.380000002
 30
0.0
 11
73.051119668
 21
223.380000002
 31
0.0
  0
LINE
  5
F4A
330
CD0
100
AcDbEntity
  8
0
  6
Continuous
 62
     1
100
AcDbLine
 10
78.551119668
 20
222.300000002
 30
0.0
 11
73.051119668
 21
222.300000002
 31
0.0
  0
LINE
  5
F4B
330
CD0
100
AcDbEntity
  8
0
  6
Continuous
 62
     1
100
AcDbLine
 10
73.051119668
 20
223.380000002
 30
0.0
 11
78.551119668
 21
223.380000002
 31
0.0
  0
LINE
  5
F4C
330
CD0
100
AcDbEntity
  8
0
  6
Continuous
 62
     1
100
AcDbLine
 10
78.551119667
 20
218.300000002
 30
0.0
 11
78.551119668
 21
222.300000002
 31
0.0
  0
LINE
  5
F4D
330
CD0
100
AcDbEntity
  8
0
  6
Continuous
 62
     1
100
AcDbLine
 10
73.051119667
 20
218.300000002
 30
0.0
 11
78.551119667
 21
218.300000002
 31
0.0
  0
LINE
  5
F4E
330
CD0
100
AcDbEntity
  8
0
  6
Continuous
 62
     1
100
AcDbLine
 10
73.051119668
 20
222.300000002
 30
0.0
 11
73.051119667
 21
218.300000002
 31
0.0
  0
TEXT
  5
F4F
330
CD0
100
AcDbEntity
  8
0
  6
Continuous
 62
     1
100
AcDbText
 10
80.04111966899998
 20
247.2600000019999
 30
0.0
 40
3.0
  1
７
 50
270.0
  7
KANJI1
100
AcDbText
  0
TEXT
  5
F50
330
CD0
100
AcDbEntity
  8
0
  6
Continuous
 62
     1
100
AcDbText
 10
80.04111966800001
 20
242.180000002
 30
0.0
 40
3.0
  1
８
 50
270.0
  7
KANJI1
100
AcDbText
  0
TEXT
  5
F51
330
CD0
100
AcDbEntity
  8
0
  6
Continuous
 62
     1
100
AcDbText
 10
80.04111966800001
 20
237.1000000019999
 30
0.0
 40
3.0
  1
９
 50
270.0
  7
KANJI1
100
AcDbText
  0
TEXT
  5
F52
330
CD0
100
AcDbEntity
  8
0
  6
Continuous
 62
     1
100
AcDbText
 10
80.04111966800001
 20
228.040000002
 30
-1.399999999999999
 40
3.0
  1
11
 50
270.0
  7
KANJI2
100
AcDbText
  0
TEXT
  5
F53
330
CD0
100
AcDbEntity
  8
0
  6
Continuous
 62
     1
100
AcDbText
 10
80.04111966800001
 20
233.120000002
 30
-1.399999999999999
 40
3.0
  1
10
 50
270.0
  7
KANJI2
100
AcDbText
  0
TEXT
  5
F54
330
CD0
100
AcDbEntity
  8
0
  6
Continuous
 62
     1
100
AcDbText
 10
80.04111966800001
 20
223.160000002
 30
-1.399999999999999
 40
3.0
  1
12
 50
270.0
  7
KANJI2
100
AcDbText
  0
LINE
  5
F55
330
CD0
100
AcDbEntity
  8
0
  6
Continuous
 62
     1
100
AcDbLine
 10
177.216711864
 20
175.799999999
 30
-1.399999999999999
 11
177.310909061
 21
165.008758749
 31
-1.399999999999999
  0
ARC
  5
F56
330
CD0
100
AcDbEntity
  8
0
  6
Continuous
 62
     1
100
AcDbCircle
 10
176.216711864
 20
175.799999999
 30
0.0
 40
1.0
100
AcDbArc
 50
0.0
 51
90.0
  0
LINE
  5
F57
330
CD0
100
AcDbEntity
  8
0
  6
Continuous
 62
     1
100
AcDbLine
 10
177.310909061
 20
165.008758749
 30
0.0
 11
177.400000002
 21
153.3999999989999
 31
0.0
  0
LINE
  5
F58
330
CD0
100
AcDbEntity
  8
0
  6
Continuous
 62
     1
100
AcDbLine
 10
181.0000000029999
 20
158.3999999989998
 30
0.0
 11
177.361627704
 21
158.3999999989998
 31
0.0
  0
LINE
  5
F59
330
CD0
100
AcDbEntity
  8
0
  6
Continuous
 62
     1
100
AcDbLine
 10
192.000000002
 20
135.9999999979999
 30
0.0
 11
191.8452637849999
 21
152.399999998
 31
0.0
  0
ARC
  5
F5A
330
CD0
100
AcDbEntity
  8
0
  6
Continuous
 62
     1
100
AcDbCircle
 10
190.8452637849999
 20
152.399999998
 30
0.0
 40
1.0
100
AcDbArc
 50
0.0
 51
90.0
  0
LINE
  5
F5B
330
CD0
100
AcDbEntity
  8
0
  6
Continuous
 62
     1
100
AcDbLine
 10
190.500000002
 20
153.3999999979998
 30
0.0
 11
190.500000002
 21
154.8999999979998
 31
0.0
  0
LINE
  5
F5C
330
CD0
100
AcDbEntity
  8
0
  6
Continuous
 62
     1
100
AcDbLine
 10
190.8452637849999
 20
153.3999999979998
 30
0.0
 11
177.400000002
 21
153.3999999989999
 31
0.0
  0
ARC
  5
F5D
330
CD0
100
AcDbEntity
  8
0
  6
Continuous
 62
     1
100
AcDbCircle
 10
190.000000002
 20
154.8999999979998
 30
0.0
 40
0.5
100
AcDbArc
 50
0.0
 51
90.0
  0
LINE
  5
F5E
330
CD0
100
AcDbEntity
  8
0
  6
Continuous
 62
     1
100
AcDbLine
 10
190.000000002
 20
155.399999998
 30
0.0
 11
181.000000002
 21
155.3999999989999
 31
0.0
  0
LINE
  5
F5F
330
CD0
100
AcDbEntity
  8
0
  6
Continuous
 62
     1
100
AcDbLine
 10
191.3950857579999
 20
155.5999265589998
 30
0.0
 11
190.500000002
 21
154.406478885
 31
0.0
  0
LINE
  5
F60
330
CD0
100
AcDbEntity
  8
0
  6
Continuous
 62
     1
100
AcDbLine
 10
191.6450857579999
 20
162.299926559
 30
0.0
 11
190.6450857579999
 21
162.299926559
 31
0.0
  0
LINE
  5
F61
330
CD0
100
AcDbEntity
  8
0
  6
Continuous
 62
     1
100
AcDbLine
 10
191.6450857579999
 20
158.5999265589999
 30
0.0
 11
191.6450857579999
 21
162.299926559
 31
0.0
  0
LINE
  5
F62
330
CD0
100
AcDbEntity
  8
0
  6
Continuous
 62
     1
100
AcDbLine
 10
191.3950857579999
 20
158.5999265589999
 30
0.0
 11
191.3950857579999
 21
155.5999265589998
 31
0.0
  0
LINE
  5
F63
330
CD0
100
AcDbEntity
  8
0
  6
Continuous
 62
     1
100
AcDbLine
 10
188.1450857579999
 20
156.899926559
 30
0.0
 11
188.1450857579999
 21
155.3999265589999
 31
0.0
  0
LINE
  5
F64
330
CD0
100
AcDbEntity
  8
0
  6
Continuous
 62
     1
100
AcDbLine
 10
189.8450857579999
 20
155.3999265589999
 30
0.0
 11
189.8450857579999
 21
156.899926559
 31
0.0
  0
LINE
  5
F65
330
CD0
100
AcDbEntity
  8
0
  6
Continuous
 62
     1
100
AcDbLine
 10
188.1450857579999
 20
156.899926559
 30
0.0
 11
188.3450857579999
 21
158.3999265589999
 31
0.0
  0
LINE
  5
F66
330
CD0
100
AcDbEntity
  8
0
  6
Continuous
 62
     1
100
AcDbLine
 10
189.3450857579999
 20
158.3999265589999
 30
0.0
 11
189.8450857579999
 21
156.899926559
 31
0.0
  0
LINE
  5
F67
330
CD0
100
AcDbEntity
  8
0
  6
Continuous
 62
     1
100
AcDbLine
 10
189.895085758
 20
158.5999999979998
 30
0.0
 11
189.895085758
 21
155.3999265589999
 31
0.0
  0
LINE
  5
F68
330
CD0
100
AcDbEntity
  8
0
  6
Continuous
 62
     1
100
AcDbLine
 10
187.9844976929998
 20
158.5999999979998
 30
0.0
 11
187.9844976929998
 21
155.399999998
 31
0.0
  0
LINE
  5
F69
330
CD0
100
AcDbEntity
  8
0
  6
Continuous
 62
     1
100
AcDbLine
 10
189.3450857579999
 20
158.3999265589999
 30
0.0
 11
188.3450857579999
 21
158.3999265589999
 31
0.0
  0
LINE
  5
F6A
330
CD0
100
AcDbEntity
  8
0
  6
Continuous
 62
     1
100
AcDbLine
 10
191.644497693
 20
158.5999999979998
 30
0.0
 11
187.9844976929998
 21
158.5999999979998
 31
0.0
  0
LINE
  5
F6B
330
CD0
100
AcDbEntity
  8
0
  6
Continuous
 62
     1
100
AcDbLine
 10
181.2044976929998
 20
158.3999999989998
 30
0.0
 11
182.9044976929999
 21
158.399999998
 31
0.0
  0
LINE
  5
F6C
330
CD0
100
AcDbEntity
  8
0
  6
Continuous
 62
     1
100
AcDbLine
 10
182.9044976929999
 20
158.399999998
 30
0.0
 11
182.9044976929999
 21
155.399999998
 31
0.0
  0
LINE
  5
F6D
330
CD0
100
AcDbEntity
  8
0
  6
Continuous
 62
     1
100
AcDbLine
 10
178.804497693
 20
158.599999999
 30
0.0
 11
183.004497693
 21
158.5999999979998
 31
0.0
  0
LINE
  5
F6E
330
CD0
100
AcDbEntity
  8
0
  6
Continuous
 62
     1
100
AcDbLine
 10
183.004497693
 20
158.5999999979998
 30
0.0
 11
183.004497693
 21
155.399999998
 31
0.0
  0
LINE
  5
F6F
330
CD0
100
AcDbEntity
  8
0
  6
Continuous
 62
     1
100
AcDbLine
 10
181.2044976929998
 20
155.3999999989999
 30
0.0
 11
181.2044976929998
 21
158.3999999989998
 31
0.0
  0
LINE
  5
F70
330
CD0
100
AcDbEntity
  8
0
  6
Continuous
 62
     1
100
AcDbLine
 10
181.000000002
 20
155.3999999989999
 30
0.0
 11
181.0000000029999
 21
158.3999999989998
 31
0.0
  0
LINE
  5
F71
330
CD0
100
AcDbEntity
  8
0
  6
Continuous
 62
     1
100
AcDbLine
 10
188.2050857579999
 20
174.199926559
 30
0.0
 11
189.8450857579999
 21
169.799926559
 31
0.0
  0
LINE
  5
F72
330
CD0
100
AcDbEntity
  8
0
  6
Continuous
 62
     1
100
AcDbLine
 10
190.6450857579999
 20
169.799926559
 30
0.0
 11
190.6450857579999
 21
162.299926559
 31
0.0
  0
LINE
  5
F73
330
CD0
100
AcDbEntity
  8
0
  6
Continuous
 62
     1
100
AcDbLine
 10
189.8450857579999
 20
169.799926559
 30
0.0
 11
190.6450857579999
 21
169.799926559
 31
0.0
  0
LINE
  5
F74
330
CD0
100
AcDbEntity
  8
0
  6
Continuous
 62
     1
100
AcDbLine
 10
179.8050857579999
 20
162.299926559
 30
0.0
 11
178.805085758
 21
162.299926559
 31
0.0
  0
LINE
  5
F75
330
CD0
100
AcDbEntity
  8
0
  6
Continuous
 62
     1
100
AcDbLine
 10
178.805085758
 20
162.299926559
 30
0.0
 11
178.805085758
 21
158.5999265589999
 31
0.0
  0
LINE
  5
F76
330
CD0
100
AcDbEntity
  8
0
  6
Continuous
 62
     1
100
AcDbLine
 10
179.8050857579999
 20
175.799926559
 30
0.0
 11
179.8050857579999
 21
162.299926559
 31
0.0
  0
LINE
  5
F77
330
CD0
100
AcDbEntity
  8
0
  6
Continuous
 62
     1
100
AcDbLine
 10
182.605085758
 20
175.999926559
 30
0.0
 11
182.605085758
 21
175.799926559
 31
0.0
  0
LINE
  5
F78
330
CD0
100
AcDbEntity
  8
0
  6
Continuous
 62
     1
100
AcDbLine
 10
188.2050857579999
 20
175.999926559
 30
0.0
 11
182.605085758
 21
175.999926559
 31
0.0
  0
LINE
  5
F79
330
CD0
100
AcDbEntity
  8
0
  6
Continuous
 62
     1
100
AcDbLine
 10
188.2050857579999
 20
175.999926559
 30
0.0
 11
188.2050857579999
 21
174.199926559
 31
0.0
  0
LINE
  5
F7A
330
CD0
100
AcDbEntity
  8
0
  6
Continuous
 62
     1
100
AcDbLine
 10
182.605085758
 20
175.799926559
 30
0.0
 11
179.8050857579999
 21
175.799926559
 31
0.0
  0
LINE
  5
F7B
330
CD0
100
AcDbEntity
  8
0
  6
Continuous
 62
     1
100
AcDbLine
 10
171.250000002
 20
140.4999999989998
 30
0.0
 11
175.750000002
 21
140.4999999989998
 31
0.0
  0
LINE
  5
F7C
330
CD0
100
AcDbEntity
  8
0
  6
Continuous
 62
     1
100
AcDbLine
 10
171.250000002
 20
137.9999999989999
 30
0.0
 11
171.250000002
 21
140.4999999989998
 31
0.0
  0
LINE
  5
F7D
330
CD0
100
AcDbEntity
  8
0
  6
Continuous
 62
     1
100
AcDbLine
 10
175.750000002
 20
137.9999999989999
 30
0.0
 11
171.250000002
 21
137.9999999989999
 31
0.0
  0
LINE
  5
F7E
330
CD0
100
AcDbEntity
  8
0
  6
Continuous
 62
     1
100
AcDbLine
 10
175.750000002
 20
140.4999999989998
 30
0.0
 11
175.750000002
 21
137.9999999989999
 31
0.0
  0
LINE
  5
F7F
330
CD0
100
AcDbEntity
  8
0
  6
Continuous
 62
     1
100
AcDbLine
 10
127.400000002
 20
140.500000001
 30
0.0
 11
162.600000002
 21
140.4999999989998
 31
0.0
  0
LINE
  5
F80
330
CD0
100
AcDbEntity
  8
0
  6
Continuous
 62
     1
100
AcDbLine
 10
114.250000002
 20
140.500000001
 30
0.0
 11
114.250000002
 21
138.000000001
 31
0.0
  0
LINE
  5
F81
330
CD0
100
AcDbEntity
  8
0
  6
Continuous
 62
     1
100
AcDbLine
 10
114.250000002
 20
138.000000001
 30
0.0
 11
118.750000002
 21
138.000000001
 31
0.0
  0
LINE
  5
F82
330
CD0
100
AcDbEntity
  8
0
  6
Continuous
 62
     1
100
AcDbLine
 10
118.750000002
 20
138.000000001
 30
0.0
 11
118.750000002
 21
140.500000001
 31
0.0
  0
LINE
  5
F83
330
CD0
100
AcDbEntity
  8
0
  6
Continuous
 62
     1
100
AcDbLine
 10
118.750000002
 20
140.500000001
 30
0.0
 11
114.250000002
 21
140.500000001
 31
0.0
  0
LINE
  5
F84
330
CD0
100
AcDbEntity
  8
0
  6
Continuous
 62
     1
100
AcDbLine
 10
128.915000002
 20
138.5
 30
0.0
 11
127.0749523239999
 21
136.84321363
 31
0.0
  0
LINE
  5
F85
330
CD0
100
AcDbEntity
  8
0
  6
Continuous
 62
     1
100
AcDbLine
 10
128.915000002
 20
138.5
 30
0.0
 11
128.915000002
 21
139.0
 31
0.0
  0
LINE
  5
F86
330
CD0
100
AcDbEntity
  8
0
  6
Continuous
 62
     1
100
AcDbLine
 10
127.415000002
 20
139.1999999999999
 30
0.0
 11
127.415000002
 21
140.3
 31
0.0
  0
LINE
  5
F87
330
CD0
100
AcDbEntity
  8
0
  6
Continuous
 62
     1
100
AcDbLine
 10
128.915000002
 20
139.0
 30
0.0
 11
127.415000002
 21
139.1999999999999
 31
0.0
  0
LINE
  5
F88
330
CD0
100
AcDbEntity
  8
0
  6
Continuous
 62
     1
100
AcDbLine
 10
98.000000002
 20
136.000000002
 30
0.0
 11
98.155322932
 21
152.400000002
 31
0.0
  0
LINE
  5
F89
330
CD0
100
AcDbEntity
  8
0
  6
Continuous
 62
     1
100
AcDbLine
 10
95.415000002
 20
136.000000002
 30
0.0
 11
98.000000002
 21
136.000000002
 31
0.0
  0
LINE
  5
F8A
330
CD0
100
AcDbEntity
  8
0
  6
Continuous
 62
     1
100
AcDbLine
 10
98.000000002
 20
140.300000002
 30
0.0
 11
95.415000002
 21
140.300000002
 31
0.0
  0
LINE
  5
F8B
330
CD0
100
AcDbEntity
  8
0
  6
Continuous
 62
     1
100
AcDbLine
 10
95.415000002
 20
136.000000002
 30
0.0
 11
95.415000002
 21
140.300000002
 31
0.0
  0
LINE
  5
F8C
330
CD0
100
AcDbEntity
  8
0
  6
Continuous
 62
     1
100
AcDbLine
 10
99.15532293200001
 20
153.400000002
 30
0.0
 11
112.600000002
 21
153.4000000009999
 31
0.0
  0
ARC
  5
F8D
330
CD0
100
AcDbEntity
  8
0
  6
Continuous
 62
     1
100
AcDbCircle
 10
99.15532293200001
 20
152.400000002
 30
0.0
 40
1.0
100
AcDbArc
 50
90.0
 51
180.0
  0
ARC
  5
F8E
330
CD0
100
AcDbEntity
  8
0
  6
Continuous
 62
     1
100
AcDbCircle
 10
100.000000002
 20
154.900000002
 30
0.0
 40
0.5
100
AcDbArc
 50
90.0
 51
180.0
  0
LINE
  5
F8F
330
CD0
100
AcDbEntity
  8
0
  6
Continuous
 62
     1
100
AcDbLine
 10
99.50000000200001
 20
153.400000002
 30
0.0
 11
99.50000000200001
 21
154.900000002
 31
0.0
  0
ARC
  5
F90
330
CD0
100
AcDbEntity
  8
0
  6
Continuous
 62
     1
100
AcDbCircle
 10
100.000000002
 20
154.900000002
 30
0.0
 40
0.5
100
AcDbArc
 50
90.0
 51
180.0
  0
LINE
  5
F91
330
CD0
100
AcDbEntity
  8
0
  6
Continuous
 62
     1
100
AcDbLine
 10
108.795502312
 20
155.400000001
 30
0.0
 11
108.795502312
 21
158.400000001
 31
0.0
  0
LINE
  5
F92
330
CD0
100
AcDbEntity
  8
0
  6
Continuous
 62
     1
100
AcDbLine
 10
108.795502312
 20
158.400000001
 30
0.0
 11
107.095502312
 21
158.400000001
 31
0.0
  0
LINE
  5
F93
330
CD0
100
AcDbEntity
  8
0
  6
Continuous
 62
     1
100
AcDbLine
 10
107.095502312
 20
158.400000001
 30
0.0
 11
107.095502312
 21
155.400000001
 31
0.0
  0
LINE
  5
F94
330
CD0
100
AcDbEntity
  8
0
  6
Continuous
 62
     1
100
AcDbLine
 10
106.995502312
 20
158.600000001
 30
0.0
 11
106.995502312
 21
155.400000001
 31
0.0
  0
LINE
  5
F95
330
CD0
100
AcDbEntity
  8
0
  6
Continuous
 62
     1
100
AcDbLine
 10
102.015502312
 20
158.600000002
 30
0.0
 11
102.015502312
 21
155.400000002
 31
0.0
  0
LINE
  5
F96
330
CD0
100
AcDbEntity
  8
0
  6
Continuous
 62
     1
100
AcDbLine
 10
98.35550231200002
 20
158.600000002
 30
0.0
 11
102.015502312
 21
158.600000002
 31
0.0
  0
LINE
  5
F97
330
CD0
100
AcDbEntity
  8
0
  6
Continuous
 62
     1
100
AcDbLine
 10
101.854914247
 20
156.899926562
 30
0.0
 11
101.854914247
 21
155.399926562
 31
0.0
  0
LINE
  5
F98
330
CD0
100
AcDbEntity
  8
0
  6
Continuous
 62
     1
100
AcDbLine
 10
100.154914247
 20
155.399926562
 30
0.0
 11
100.154914247
 21
156.899926562
 31
0.0
  0
LINE
  5
F99
330
CD0
100
AcDbEntity
  8
0
  6
Continuous
 62
     1
100
AcDbLine
 10
100.654914247
 20
158.399926562
 30
0.0
 11
101.654914247
 21
158.399926562
 31
0.0
  0
LINE
  5
F9A
330
CD0
100
AcDbEntity
  8
0
  6
Continuous
 62
     1
100
AcDbLine
 10
101.854914247
 20
156.899926562
 30
0.0
 11
101.654914247
 21
158.399926562
 31
0.0
  0
LINE
  5
F9B
330
CD0
100
AcDbEntity
  8
0
  6
Continuous
 62
     1
100
AcDbLine
 10
100.654914247
 20
158.399926562
 30
0.0
 11
100.154914247
 21
156.899926562
 31
0.0
  0
LINE
  5
F9C
330
CD0
100
AcDbEntity
  8
0
  6
Continuous
 62
     1
100
AcDbLine
 10
98.60491424700001
 20
158.599926562
 30
0.0
 11
98.60491424700001
 21
155.599926562
 31
0.0
  0
LINE
  5
F9D
330
CD0
100
AcDbEntity
  8
0
  6
Continuous
 62
     1
100
AcDbLine
 10
98.60491424700001
 20
155.599926562
 30
0.0
 11
99.50000000200001
 21
154.406478889
 31
0.0
  0
LINE
  5
F9E
330
CD0
100
AcDbEntity
  8
0
  6
Continuous
 62
     1
100
AcDbLine
 10
100.104914247
 20
158.600000002
 30
0.0
 11
100.104914247
 21
155.399926562
 31
0.0
  0
LINE
  5
F9F
330
CD0
100
AcDbEntity
  8
0
  6
Continuous
 62
     1
100
AcDbLine
 10
98.35491424700002
 20
158.599926562
 30
0.0
 11
98.35491424799998
 21
162.299926562
 31
0.0
  0
LINE
  5
FA0
330
CD0
100
AcDbEntity
  8
0
  6
Continuous
 62
     1
100
AcDbLine
 10
112.6890909549999
 20
165.008758752
 30
0.0
 11
112.600000002
 21
153.4000000009999
 31
0.0
  0
LINE
  5
FA1
330
CD0
100
AcDbEntity
  8
0
  6
Continuous
 62
     1
100
AcDbLine
 10
110.1949142479998
 20
162.299926562
 30
0.0
 11
111.1949142479998
 21
162.299926562
 31
0.0
  0
LINE
  5
FA2
330
CD0
100
AcDbEntity
  8
0
  6
Continuous
 62
     1
100
AcDbLine
 10
111.1949142479998
 20
162.299926562
 30
0.0
 11
111.194914247
 21
158.599926562
 31
0.0
  0
LINE
  5
FA3
330
CD0
100
AcDbEntity
  8
0
  6
Continuous
 62
     1
100
AcDbLine
 10
110.1949142479998
 20
175.799926562
 30
0.0
 11
110.1949142479998
 21
162.299926562
 31
0.0
  0
LINE
  5
FA4
330
CD0
100
AcDbEntity
  8
0
  6
Continuous
 62
     1
100
AcDbLine
 10
109.000000003
 20
158.400000001
 30
0.0
 11
112.638372301
 21
158.400000001
 31
0.0
  0
LINE
  5
FA5
330
CD0
100
AcDbEntity
  8
0
  6
Continuous
 62
     1
100
AcDbLine
 10
100.000000002
 20
155.400000002
 30
0.0
 11
109.000000002
 21
155.400000001
 31
0.0
  0
LINE
  5
FA6
330
CD0
100
AcDbEntity
  8
0
  6
Continuous
 62
     1
100
AcDbLine
 10
109.000000002
 20
155.400000001
 30
0.0
 11
109.000000003
 21
158.400000001
 31
0.0
  0
LINE
  5
FA7
330
CD0
100
AcDbEntity
  8
0
  6
Continuous
 62
     1
100
AcDbLine
 10
111.1955023119999
 20
158.600000001
 30
0.0
 11
106.995502312
 21
158.600000001
 31
0.0
  0
LINE
  5
FA8
330
CD0
100
AcDbEntity
  8
0
  6
Continuous
 62
     1
100
AcDbLine
 10
114.3443523009999
 20
176.8000000009998
 30
0.0
 11
113.783288143
 21
176.8000000009998
 31
0.0
  0
ARC
  5
FA9
330
CD0
100
AcDbEntity
  8
0
  6
Continuous
 62
     1
100
AcDbCircle
 10
113.783288143
 20
175.8000000009998
 30
0.0
 40
1.0
100
AcDbArc
 50
90.0
 51
180.0
  0
LINE
  5
FAA
330
CD0
100
AcDbEntity
  8
0
  6
Continuous
 62
     1
100
AcDbLine
 10
113.783288143
 20
176.8000000009998
 30
0.0
 11
176.216711864
 21
176.799999999
 31
0.0
  0
LINE
  5
FAB
330
CD0
100
AcDbEntity
  8
0
  6
Continuous
 62
     1
100
AcDbLine
 10
112.783288143
 20
175.8000000009998
 30
0.0
 11
112.6890909549999
 21
165.008758752
 31
0.0
  0
LINE
  5
FAC
330
CD0
100
AcDbEntity
  8
0
  6
Continuous
 62
     1
100
AcDbLine
 10
107.3949142479998
 20
175.999926562
 30
0.0
 11
107.3949142479998
 21
175.799926562
 31
0.0
  0
LINE
  5
FAD
330
CD0
100
AcDbEntity
  8
0
  6
Continuous
 62
     1
100
AcDbLine
 10
107.3949142479998
 20
175.799926562
 30
0.0
 11
110.1949142479998
 21
175.799926562
 31
0.0
  0
LINE
  5
FAE
330
CD0
100
AcDbEntity
  8
0
  6
Continuous
 62
     1
100
AcDbLine
 10
101.794914248
 20
175.999926562
 30
0.0
 11
107.3949142479998
 21
175.999926562
 31
0.0
  0
LINE
  5
FAF
330
CD0
100
AcDbEntity
  8
0
  6
Continuous
 62
     1
100
AcDbLine
 10
101.794914248
 20
175.999926562
 30
0.0
 11
101.794914248
 21
174.199926562
 31
0.0
  0
LINE
  5
FB0
330
CD0
100
AcDbEntity
  8
0
  6
Continuous
 62
     1
100
AcDbLine
 10
98.35491424799998
 20
162.299926562
 30
0.0
 11
99.35491424799998
 21
162.299926562
 31
0.0
  0
LINE
  5
FB1
330
CD0
100
AcDbEntity
  8
0
  6
Continuous
 62
     1
100
AcDbLine
 10
100.154914248
 20
169.799926562
 30
0.0
 11
99.35491424799998
 21
169.799926562
 31
0.0
  0
LINE
  5
FB2
330
CD0
100
AcDbEntity
  8
0
  6
Continuous
 62
     1
100
AcDbLine
 10
101.794914248
 20
174.199926562
 30
0.0
 11
100.154914248
 21
169.799926562
 31
0.0
  0
LINE
  5
FB3
330
CD0
100
AcDbEntity
  8
0
  6
Continuous
 62
     1
100
AcDbLine
 10
99.35491424799998
 20
169.799926562
 30
0.0
 11
99.35491424799998
 21
162.299926562
 31
0.0
  0
ARC
  5
FB4
330
CD0
100
AcDbEntity
  8
0
  6
Continuous
 62
     1
100
AcDbCircle
 10
191.0000000009999
 20
106.999999998
 30
0.0
 40
1.0
100
AcDbArc
 50
0.0
 51
89.99999999899998
  0
LINE
  5
FB5
330
CD0
100
AcDbEntity
  8
0
  6
Continuous
 62
     1
100
AcDbLine
 10
192.0000000009999
 20
106.999999998
 30
0.0
 11
191.999999999
 21
60.999999998
 31
0.0
  0
ARC
  5
FB6
330
CD0
100
AcDbEntity
  8
0
  6
Continuous
 62
     1
100
AcDbCircle
 10
190.999999999
 20
60.999999998
 30
0.0
 40
1.0
100
AcDbArc
 50
270.0
 51
0.000000001
  0
LINE
  5
FB7
330
CD0
100
AcDbEntity
  8
0
  6
Continuous
 62
     1
100
AcDbLine
 10
170.4999999989999
 20
61.54999999899999
 30
0.0
 11
170.4999999989999
 21
62.54999999899999
 31
0.0
  0
LINE
  5
FB8
330
CD0
100
AcDbEntity
  8
0
  6
Continuous
 62
     1
100
AcDbLine
 10
170.4999999989999
 20
62.54999999899999
 30
0.0
 11
176.499999999
 21
62.54999999899999
 31
0.0
  0
LINE
  5
FB9
330
CD0
100
AcDbEntity
  8
0
  6
Continuous
 62
     1
100
AcDbLine
 10
176.499999999
 20
62.54999999899999
 30
0.0
 11
176.499999999
 21
61.54999999899999
 31
0.0
  0
ARC
  5
FBA
330
CD0
100
AcDbEntity
  8
0
  6
Continuous
 62
     1
100
AcDbCircle
 10
189.334999999
 20
62.549999998
 30
0.0
 40
1.0
100
AcDbArc
 50
270.0
 51
0.0
  0
LINE
  5
FBB
330
CD0
100
AcDbEntity
  8
0
  6
Continuous
 62
     1
100
AcDbLine
 10
190.335000001
 20
105.4499999979997
 30
0.0
 11
190.334999999
 21
62.549999998
 31
0.0
  0
LINE
  5
FBC
330
CD0
100
AcDbEntity
  8
0
  6
Continuous
 62
     1
100
AcDbLine
 10
190.499999999
 20
61.499999998
 30
0.0
 11
190.500000001
 21
106.4999999979998
 31
0.0
  0
LINE
  5
FBD
330
CD0
100
AcDbEntity
  8
0
  6
Continuous
 62
     1
100
AcDbLine
 10
100.665000001
 20
106.4500000029999
 30
0.0
 11
189.335000001
 21
106.449999998
 31
0.0
  0
ARC
  5
FBE
330
CD0
100
AcDbEntity
  8
0
  6
Continuous
 62
     1
100
AcDbCircle
 10
189.335000001
 20
105.4499999979997
 30
0.0
 40
1.0
100
AcDbArc
 50
0.000000001
 51
90.0
  0
LINE
  5
FBF
330
CD0
100
AcDbEntity
  8
0
  6
Continuous
 62
     1
100
AcDbLine
 10
190.500000001
 20
106.4999999979998
 30
0.0
 11
99.50000000100001
 21
106.5000000029999
 31
0.0
  0
LINE
  5
FC0
330
CD0
100
AcDbEntity
  8
0
  6
Continuous
 62
     1
100
AcDbLine
 10
176.5000000009996
 20
106.449999999
 30
0.0
 11
176.5000000009996
 21
105.4499999989999
 31
0.0
  0
LINE
  5
FC1
330
CD0
100
AcDbEntity
  8
0
  6
Continuous
 62
     1
100
AcDbLine
 10
176.5000000009996
 20
105.4499999989999
 30
0.0
 11
170.500000001
 21
105.4499999989999
 31
0.0
  0
LINE
  5
FC2
330
CD0
100
AcDbEntity
  8
0
  6
Continuous
 62
     1
100
AcDbLine
 10
170.500000001
 20
105.4499999989999
 30
0.0
 11
170.500000001
 21
106.449999999
 31
0.0
  0
LINE
  5
FC3
330
CD0
100
AcDbEntity
  8
0
  6
Continuous
 62
     1
100
AcDbLine
 10
162.5850000009999
 20
103.7
 30
0.0
 11
160.9850000009998
 21
103.7
 31
0.0
  0
LINE
  5
FC4
330
CD0
100
AcDbEntity
  8
0
  6
Continuous
 62
     1
100
AcDbLine
 10
160.985
 20
95.7
 30
0.0
 11
162.5849999999998
 21
95.7
 31
0.0
  0
LINE
  5
FC5
330
CD0
100
AcDbEntity
  8
0
  6
Continuous
 62
     1
100
AcDbLine
 10
160.485000001
 20
104.2
 30
0.0
 11
162.5850000009999
 21
104.2
 31
0.0
  0
LINE
  5
FC6
330
CD0
100
AcDbEntity
  8
0
  6
Continuous
 62
     1
100
AcDbLine
 10
160.485
 20
95.20000000000001
 30
0.0
 11
162.5849999999998
 21
95.20000000000001
 31
0.0
  0
LINE
  5
FC7
330
CD0
100
AcDbEntity
  8
0
  6
Continuous
 62
     1
100
AcDbLine
 10
160.9850000009998
 20
103.7
 30
0.0
 11
160.985
 21
95.7
 31
0.0
  0
LINE
  5
FC8
330
CD0
100
AcDbEntity
  8
0
  6
Continuous
 62
     1
100
AcDbLine
 10
160.485
 20
95.20000000000001
 30
0.0
 11
160.485000001
 21
104.2
 31
0.0
  0
LINE
  5
FC9
330
CD0
100
AcDbEntity
  8
0
  6
Continuous
 62
     1
100
AcDbLine
 10
160.485
 20
89.74999999999999
 30
0.0
 11
160.485
 21
93.25000000000001
 31
0.0
  0
LINE
  5
FCA
330
CD0
100
AcDbEntity
  8
0
  6
Continuous
 62
     1
100
AcDbLine
 10
160.485
 20
93.25000000000001
 30
0.0
 11
158.585
 21
93.25000000000001
 31
0.0
  0
LINE
  5
FCB
330
CD0
100
AcDbEntity
  8
0
  6
Continuous
 62
     1
100
AcDbLine
 10
158.585
 20
93.25000000000001
 30
0.0
 11
158.585
 21
89.74999999999999
 31
0.0
  0
LINE
  5
FCC
330
CD0
100
AcDbEntity
  8
0
  6
Continuous
 62
     1
100
AcDbLine
 10
158.585
 20
89.74999999999999
 30
0.0
 11
160.485
 21
89.74999999999999
 31
0.0
  0
LINE
  5
FCD
330
CD0
100
AcDbEntity
  8
0
  6
Continuous
 62
     1
100
AcDbLine
 10
160.485
 20
78.25
 30
0.0
 11
160.4849999989999
 21
74.75
 31
0.0
  0
LINE
  5
FCE
330
CD0
100
AcDbEntity
  8
0
  6
Continuous
 62
     1
100
AcDbLine
 10
160.4849999989999
 20
74.75
 30
0.0
 11
158.5849999989999
 21
74.75
 31
0.0
  0
LINE
  5
FCF
330
CD0
100
AcDbEntity
  8
0
  6
Continuous
 62
     1
100
AcDbLine
 10
158.5849999989999
 20
74.75
 30
0.0
 11
158.585
 21
78.25
 31
0.0
  0
LINE
  5
FD0
330
CD0
100
AcDbEntity
  8
0
  6
Continuous
 62
     1
100
AcDbLine
 10
158.585
 20
78.25
 30
0.0
 11
160.485
 21
78.25
 31
0.0
  0
LINE
  5
FD1
330
CD0
100
AcDbEntity
  8
0
  6
Continuous
 62
     1
100
AcDbLine
 10
160.9849999989999
 20
64.29999999999998
 30
0.0
 11
160.9849999989999
 21
72.29999999999998
 31
0.0
  0
LINE
  5
FD2
330
CD0
100
AcDbEntity
  8
0
  6
Continuous
 62
     1
100
AcDbLine
 10
160.9849999989999
 20
72.29999999999998
 30
0.0
 11
162.5849999989999
 21
72.29999999999998
 31
0.0
  0
LINE
  5
FD3
330
CD0
100
AcDbEntity
  8
0
  6
Continuous
 62
     1
100
AcDbLine
 10
160.4849999989999
 20
63.79999999999999
 30
0.0
 11
160.4849999989999
 21
72.79999999999998
 31
0.0
  0
LINE
  5
FD4
330
CD0
100
AcDbEntity
  8
0
  6
Continuous
 62
     1
100
AcDbLine
 10
160.4849999989999
 20
72.79999999999998
 30
0.0
 11
162.5849999989999
 21
72.79999999999998
 31
0.0
  0
LINE
  5
FD5
330
CD0
100
AcDbEntity
  8
0
  6
Continuous
 62
     1
100
AcDbLine
 10
162.5849999989999
 20
64.29999999999998
 30
0.0
 11
160.9849999989999
 21
64.29999999999998
 31
0.0
  0
LINE
  5
FD6
330
CD0
100
AcDbEntity
  8
0
  6
Continuous
 62
     1
100
AcDbLine
 10
160.4849999989999
 20
63.79999999999999
 30
0.0
 11
162.5849999989999
 21
63.79999999999999
 31
0.0
  0
LINE
  5
FD7
330
CD0
100
AcDbEntity
  8
0
  6
Continuous
 62
     1
100
AcDbLine
 10
162.5850000009999
 20
106.45
 30
0.0
 11
162.5849999989999
 21
61.55
 31
0.0
  0
ARC
  5
FD8
330
CD0
100
AcDbEntity
  8
0
  6
Continuous
 62
     1
100
AcDbCircle
 10
120.165
 20
83.00000000199998
 30
0.0
 40
2.0
100
AcDbArc
 50
179.9999999989998
 51
270.0
  0
LINE
  5
FD9
330
CD0
100
AcDbEntity
  8
0
  6
Continuous
 62
     1
100
AcDbLine
 10
120.165
 20
81.00000000199999
 30
0.0
 11
122.915
 21
81.00000000199999
 31
0.0
  0
ARC
  5
FDA
330
CD0
100
AcDbEntity
  8
0
  6
Continuous
 62
     1
100
AcDbCircle
 10
122.915
 20
83.00000000199998
 30
0.0
 40
2.0
100
AcDbArc
 50
270.0
 51
336.153311249
  0
LINE
  5
FDB
330
CD0
100
AcDbEntity
  8
0
  6
Continuous
 62
     1
100
AcDbLine
 10
124.9149999999999
 20
83.50000000100001
 30
0.0
 11
124.9149999999999
 21
84.50000000100002
 31
0.0
  0
ARC
  5
FDC
330
CD0
100
AcDbEntity
  8
0
  6
Continuous
 62
     1
100
AcDbCircle
 10
119.815
 20
83.50000000199999
 30
0.0
 40
5.099999999999996
100
AcDbArc
 50
270.0
 51
0.0
  0
ARC
  5
FDD
330
CD0
100
AcDbEntity
  8
0
  6
Continuous
 62
     1
100
AcDbCircle
 10
119.815
 20
84.50000000199999
 30
0.0
 40
5.099999999999996
100
AcDbArc
 50
0.0
 51
90.0
  0
ARC
  5
FDE
330
CD0
100
AcDbEntity
  8
0
  6
Continuous
 62
     1
100
AcDbCircle
 10
115.015
 20
83.50000000199999
 30
0.0
 40
5.099999999999996
100
AcDbArc
 50
180.0
 51
270.0
  0
ARC
  5
FDF
330
CD0
100
AcDbEntity
  8
0
  6
Continuous
 62
     1
100
AcDbCircle
 10
114.665
 20
83.00000000199998
 30
0.0
 40
2.0
100
AcDbArc
 50
270.0
 51
0.0
  0
LINE
  5
FE0
330
CD0
100
AcDbEntity
  8
0
  6
Continuous
 62
     1
100
AcDbLine
 10
114.665
 20
81.00000000199999
 30
0.0
 11
111.915
 21
81.00000000199999
 31
0.0
  0
ARC
  5
FE1
330
CD0
100
AcDbEntity
  8
0
  6
Continuous
 62
     1
100
AcDbCircle
 10
111.915
 20
83.00000000199998
 30
0.0
 40
2.0
100
AcDbArc
 50
203.8466887509999
 51
270.0
  0
LINE
  5
FE2
330
CD0
100
AcDbEntity
  8
0
  6
Continuous
 62
     1
100
AcDbLine
 10
115.014999999
 20
78.40000000199998
 30
0.0
 11
119.815
 21
78.40000000199998
 31
0.0
  0
LINE
  5
FE3
330
CD0
100
AcDbEntity
  8
0
  6
Continuous
 62
     1
100
AcDbLine
 10
109.915
 20
83.50000000199999
 30
0.0
 11
109.915
 21
84.50000000199999
 31
0.0
  0
ARC
  5
FE4
330
CD0
100
AcDbEntity
  8
0
  6
Continuous
 62
     1
100
AcDbCircle
 10
115.015
 20
84.50000000199999
 30
0.0
 40
5.099999999999996
100
AcDbArc
 50
90.0
 51
180.0
  0
LINE
  5
FE5
330
CD0
100
AcDbEntity
  8
0
  6
Continuous
 62
     1
100
AcDbLine
 10
118.565
 20
88.05000000200001
 30
0.0
 11
118.565
 21
87.050000002
 31
0.0
  0
LINE
  5
FE6
330
CD0
100
AcDbEntity
  8
0
  6
Continuous
 62
     1
100
AcDbLine
 10
116.2649999999999
 20
88.05000000200001
 30
0.0
 11
116.2649999999999
 21
87.050000002
 31
0.0
  0
ARC
  5
FE7
330
CD0
100
AcDbEntity
  8
0
  6
Continuous
 62
     1
100
AcDbCircle
 10
117.415
 20
87.550000002
 30
0.0
 40
1.1
100
AcDbArc
 50
312.98588608
 51
227.01411392
  0
ARC
  5
FE8
330
CD0
100
AcDbEntity
  8
0
  6
Continuous
 62
     1
100
AcDbCircle
 10
117.415
 20
87.050000002
 30
0.0
 40
1.149999999999999
100
AcDbArc
 50
310.705706831
 51
0.0
  0
ARC
  5
FE9
330
CD0
100
AcDbEntity
  8
0
  6
Continuous
 62
     1
100
AcDbCircle
 10
117.415
 20
87.050000002
 30
0.0
 40
1.149999999999999
100
AcDbArc
 50
180.0
 51
229.294293169
  0
LINE
  5
FEA
330
CD0
100
AcDbEntity
  8
0
  6
Continuous
 62
     1
100
AcDbLine
 10
118.165
 20
83.00000000199998
 30
0.0
 11
118.165
 21
86.745326155
 31
0.0
  0
LINE
  5
FEB
330
CD0
100
AcDbEntity
  8
0
  6
Continuous
 62
     1
100
AcDbLine
 10
116.665
 20
86.745326155
 30
0.0
 11
116.665
 21
83.00000000199998
 31
0.0
  0
LINE
  5
FEC
330
CD0
100
AcDbEntity
  8
0
  6
Continuous
 62
     1
100
AcDbLine
 10
119.815
 20
89.600000002
 30
0.0
 11
115.015
 21
89.600000002
 31
0.0
  0
ARC
  5
FED
330
CD0
100
AcDbEntity
  8
0
  6
Continuous
 62
     1
100
AcDbCircle
 10
117.415
 20
88.05000000200001
 30
0.0
 40
1.149999999999999
100
AcDbArc
 50
0.0
 51
180.0
  0
LINE
  5
FEE
330
CD0
100
AcDbEntity
  8
0
  6
Continuous
 62
     1
100
AcDbLine
 10
113.499999999
 20
61.550000002
 30
0.0
 11
113.499999999
 21
62.55000000199999
 31
0.0
  0
LINE
  5
FEF
330
CD0
100
AcDbEntity
  8
0
  6
Continuous
 62
     1
100
AcDbLine
 10
113.499999999
 20
62.55000000199999
 30
0.0
 11
119.499999999
 21
62.55000000199999
 31
0.0
  0
LINE
  5
FF0
330
CD0
100
AcDbEntity
  8
0
  6
Continuous
 62
     1
100
AcDbLine
 10
119.499999999
 20
62.55000000199999
 30
0.0
 11
119.499999999
 21
61.550000002
 31
0.0
  0
ARC
  5
FF1
330
CD0
100
AcDbEntity
  8
0
  6
Continuous
 62
     1
100
AcDbCircle
 10
100.664999999
 20
62.550000003
 30
0.0
 40
1.0
100
AcDbArc
 50
180.0
 51
270.0
  0
ARC
  5
FF2
330
CD0
100
AcDbEntity
  8
0
  6
Continuous
 62
     1
100
AcDbCircle
 10
98.999999999
 20
61.000000003
 30
0.0
 40
1.0
100
AcDbArc
 50
180.0
 51
270.0
  0
LINE
  5
FF3
330
CD0
100
AcDbEntity
  8
0
  6
Continuous
 62
     1
100
AcDbLine
 10
99.66499999900001
 20
62.550000003
 30
0.0
 11
99.66499999900001
 21
74.00000000299998
 31
0.0
  0
LINE
  5
FF4
330
CD0
100
AcDbEntity
  8
0
  6
Continuous
 62
     1
100
AcDbLine
 10
99.49999999900001
 20
74.00000000299998
 30
0.0
 11
99.49999999900001
 21
61.500000003
 31
0.0
  0
LINE
  5
FF5
330
CD0
100
AcDbEntity
  8
0
  6
Continuous
 62
     1
100
AcDbLine
 10
97.999999999
 20
61.000000003
 30
0.0
 11
97.999999999
 21
74.00000000299998
 31
0.0
  0
LINE
  5
FF6
330
CD0
100
AcDbEntity
  8
0
  6
Continuous
 62
     1
100
AcDbLine
 10
190.999999999
 20
59.99999999799999
 30
0.0
 11
98.999999999
 21
60.000000003
 31
0.0
  0
LINE
  5
FF7
330
CD0
100
AcDbEntity
  8
0
  6
Continuous
 62
     1
100
AcDbLine
 10
189.334999999
 20
61.54999999800001
 30
0.0
 11
100.664999999
 21
61.550000003
 31
0.0
  0
LINE
  5
FF8
330
CD0
100
AcDbEntity
  8
0
  6
Continuous
 62
     1
100
AcDbLine
 10
99.49999999900001
 20
61.500000003
 30
0.0
 11
190.499999999
 21
61.499999998
 31
0.0
  0
LINE
  5
FF9
330
CD0
100
AcDbEntity
  8
0
  6
Continuous
 62
     1
100
AcDbLine
 10
128.914999999
 20
72.750000001
 30
0.0
 11
128.915
 21
95.250000001
 31
0.0
  0
LINE
  5
FFA
330
CD0
100
AcDbEntity
  8
0
  6
Continuous
 62
     3
100
AcDbLine
 10
126.9149999989999
 20
72.65000000100001
 30
0.0
 11
126.9149999989999
 21
61.550000001
 31
0.0
  0
LINE
  5
FFB
330
CD0
100
AcDbEntity
  8
0
  6
Continuous
 62
     1
100
AcDbLine
 10
127.414999999
 20
72.65000000100001
 30
0.0
 11
126.414999999
 21
72.65000000100001
 31
0.0
  0
LINE
  5
FFC
330
CD0
100
AcDbEntity
  8
0
  6
Continuous
 62
     1
100
AcDbLine
 10
128.914999999
 20
72.750000001
 30
0.0
 11
126.414999999
 21
72.750000001
 31
0.0
  0
LINE
  5
FFD
330
CD0
100
AcDbEntity
  8
0
  6
Continuous
 62
     1
100
AcDbLine
 10
127.414999999
 20
72.65000000100001
 30
0.0
 11
127.414999999
 21
61.550000001
 31
0.0
  0
LINE
  5
FFE
330
CD0
100
AcDbEntity
  8
0
  6
Continuous
 62
     1
100
AcDbLine
 10
126.414999999
 20
72.65000000100001
 30
0.0
 11
126.414999999
 21
73.90000000100001
 31
0.0
  0
LINE
  5
FFF
330
CD0
100
AcDbEntity
  8
0
  6
Continuous
 62
     1
100
AcDbLine
 10
127.415000001
 20
106.450000001
 30
0.0
 11
127.415
 21
95.350000001
 31
0.0
  0
LINE
  5
1000
330
CD0
100
AcDbEntity
  8
0
  6
Continuous
 62
     1
100
AcDbLine
 10
107.515
 20
94.100000002
 30
0.0
 11
126.415
 21
94.100000001
 31
0.0
  0
LINE
  5
1001
330
CD0
100
AcDbEntity
  8
0
  6
Continuous
 62
     1
100
AcDbLine
 10
127.415
 20
95.350000001
 30
0.0
 11
126.415
 21
95.350000001
 31
0.0
  0
LINE
  5
1002
330
CD0
100
AcDbEntity
  8
0
  6
Continuous
 62
     1
100
AcDbLine
 10
128.915
 20
95.250000001
 30
0.0
 11
126.415
 21
95.250000001
 31
0.0
  0
LINE
  5
1003
330
CD0
100
AcDbEntity
  8
0
  6
Continuous
 62
     1
100
AcDbLine
 10
126.415
 20
95.350000001
 30
0.0
 11
126.415
 21
94.100000001
 31
0.0
  0
LINE
  5
1004
330
CD0
100
AcDbEntity
  8
0
  6
Continuous
 62
     1
100
AcDbLine
 10
113.500000001
 20
106.450000002
 30
0.0
 11
113.500000001
 21
105.450000002
 31
0.0
  0
LINE
  5
1005
330
CD0
100
AcDbEntity
  8
0
  6
Continuous
 62
     1
100
AcDbLine
 10
113.500000001
 20
105.450000002
 30
0.0
 11
119.500000001
 21
105.450000002
 31
0.0
  0
LINE
  5
1006
330
CD0
100
AcDbEntity
  8
0
  6
Continuous
 62
     1
100
AcDbLine
 10
119.500000001
 20
105.450000002
 30
0.0
 11
119.500000001
 21
106.450000002
 31
0.0
  0
ARC
  5
1007
330
CD0
100
AcDbEntity
  8
0
  6
Continuous
 62
     1
100
AcDbCircle
 10
100.665000001
 20
105.4500000029999
 30
0.0
 40
1.0
100
AcDbArc
 50
90.0
 51
180.0
  0
LINE
  5
1008
330
CD0
100
AcDbEntity
  8
0
  6
Continuous
 62
     1
100
AcDbLine
 10
99.66500000000001
 20
94.000000003
 30
0.0
 11
99.66500000100001
 21
105.4500000029999
 31
0.0
  0
LINE
  5
1009
330
CD0
100
AcDbEntity
  8
0
  6
Continuous
 62
     1
100
AcDbLine
 10
99.50000000100001
 20
106.5000000029999
 30
0.0
 11
99.50000000000001
 21
94.000000003
 31
0.0
  0
LINE
  5
100A
330
CD0
100
AcDbEntity
  8
0
  6
Continuous
 62
     1
100
AcDbLine
 10
103.515
 20
95.350000002
 30
0.0
 11
102.265000004
 21
94.100000003
 31
0.0
  0
LINE
  5
100B
330
CD0
100
AcDbEntity
  8
0
  6
Continuous
 62
     1
100
AcDbLine
 10
107.515
 20
95.350000002
 30
0.0
 11
103.515
 21
95.350000002
 31
0.0
  0
LINE
  5
100C
330
CD0
100
AcDbEntity
  8
0
  6
Continuous
 62
     1
100
AcDbLine
 10
107.515
 20
95.350000002
 30
0.0
 11
107.515
 21
94.100000002
 31
0.0
  0
LINE
  5
100D
330
CD0
100
AcDbEntity
  8
0
  6
Continuous
 62
     1
100
AcDbLine
 10
99.66500000000001
 20
94.100000003
 30
0.0
 11
102.265000004
 21
94.100000003
 31
0.0
  0
LINE
  5
100E
330
CD0
100
AcDbEntity
  8
0
  6
Continuous
 62
     1
100
AcDbLine
 10
128.5323810429999
 20
94.000000001
 30
0.0
 11
98.0
 21
94.000000003
 31
0.0
  0
LINE
  5
100F
330
CD0
100
AcDbEntity
  8
0
  6
Continuous
 62
     1
100
AcDbLine
 10
103.514999999
 20
72.650000002
 30
0.0
 11
102.265000003
 21
73.900000003
 31
0.0
  0
LINE
  5
1010
330
CD0
100
AcDbEntity
  8
0
  6
Continuous
 62
     1
100
AcDbLine
 10
99.66499999900001
 20
73.900000003
 30
0.0
 11
102.265000003
 21
73.900000003
 31
0.0
  0
LINE
  5
1011
330
CD0
100
AcDbEntity
  8
0
  6
Continuous
 62
     1
100
AcDbLine
 10
107.514999999
 20
72.650000002
 30
0.0
 11
103.514999999
 21
72.650000002
 31
0.0
  0
LINE
  5
1012
330
CD0
100
AcDbEntity
  8
0
  6
Continuous
 62
     1
100
AcDbLine
 10
107.514999999
 20
72.650000002
 30
0.0
 11
107.514999999
 21
73.900000002
 31
0.0
  0
LINE
  5
1013
330
CD0
100
AcDbEntity
  8
0
  6
Continuous
 62
     1
100
AcDbLine
 10
107.514999999
 20
73.900000002
 30
0.0
 11
126.414999999
 21
73.90000000100001
 31
0.0
  0
LINE
  5
1014
330
CD0
100
AcDbEntity
  8
0
  6
Continuous
 62
     1
100
AcDbLine
 10
97.999999999
 20
74.00000000299998
 30
0.0
 11
128.5323810419999
 21
74.000000001
 31
0.0
  0
ARC
  5
1015
330
CD0
100
AcDbEntity
  8
0
  6
Continuous
 62
     1
100
AcDbCircle
 10
96.414999999
 20
75.00000000299998
 30
0.0
 40
1.0
100
AcDbArc
 50
180.0
 51
270.0
  0
LINE
  5
1016
330
CD0
100
AcDbEntity
  8
0
  6
Continuous
 62
     1
100
AcDbLine
 10
95.415
 20
93.000000003
 30
0.0
 11
95.414999999
 21
75.00000000299998
 31
0.0
  0
ARC
  5
1017
330
CD0
100
AcDbEntity
  8
0
  6
Continuous
 62
     1
100
AcDbCircle
 10
96.415
 20
93.000000003
 30
0.0
 40
1.0
100
AcDbArc
 50
90.0
 51
180.0
  0
LINE
  5
1018
330
CD0
100
AcDbEntity
  8
0
  6
Continuous
 62
     1
100
AcDbLine
 10
98.0
 20
94.000000003
 30
0.0
 11
96.415
 21
94.000000003
 31
0.0
  0
LINE
  5
1019
330
CD0
100
AcDbEntity
  8
0
  6
Continuous
 62
     1
100
AcDbLine
 10
96.414999999
 20
74.00000000299998
 30
0.0
 11
97.999999999
 21
74.00000000299998
 31
0.0
  0
LINE
  5
101A
330
CD0
100
AcDbEntity
  8
0
  6
Continuous
 62
     1
100
AcDbLine
 10
98.0
 20
94.000000003
 30
0.0
 11
98.000000001
 21
107.000000003
 31
0.0
  0
ARC
  5
101B
330
CD0
100
AcDbEntity
  8
0
  6
Continuous
 62
     1
100
AcDbCircle
 10
99.000000001
 20
107.000000003
 30
0.0
 40
1.0
100
AcDbArc
 50
90.0
 51
180.0
  0
LINE
  5
101C
330
CD0
100
AcDbEntity
  8
0
  6
Continuous
 62
     1
100
AcDbLine
 10
99.000000001
 20
108.000000003
 30
0.0
 11
191.0000000009999
 21
107.9999999979998
 31
0.0
  0
LINE
  5
101D
330
CD0
100
AcDbEntity
  8
0
  6
Continuous
 62
     3
100
AcDbLine
 10
107.514999999
 20
72.75000000199999
 30
0.0
 11
106.264999999
 21
74.00000000199999
 31
0.0
  0
LINE
  5
101E
330
CD0
100
AcDbEntity
  8
0
  6
Continuous
 62
     3
100
AcDbLine
 10
107.515
 20
95.250000002
 30
0.0
 11
106.265
 21
94.000000002
 31
0.0
  0
LINE
  5
101F
330
CD0
100
AcDbEntity
  8
0
  6
Continuous
 62
     3
100
AcDbLine
 10
180.8050857579999
 20
161.299926559
 30
0.0
 11
180.8050857579999
 21
160.5999265589999
 31
0.0
  0
LINE
  5
1020
330
CD0
100
AcDbEntity
  8
0
  6
Continuous
 62
     3
100
AcDbLine
 10
180.8050857579999
 20
160.5999265589999
 30
0.0
 11
179.8050857579999
 21
160.5999265589999
 31
0.0
  0
LINE
  5
1021
330
CD0
100
AcDbEntity
  8
0
  6
Continuous
 62
     3
100
AcDbLine
 10
179.8050857579999
 20
160.5999265589999
 30
0.0
 11
179.8050857579999
 21
162.299926559
 31
0.0
  0
LINE
  5
1022
330
CD0
100
AcDbEntity
  8
0
  6
Continuous
 62
     3
100
AcDbLine
 10
190.6450857579999
 20
162.299926559
 30
0.0
 11
190.6450857579999
 21
160.5999265589999
 31
0.0
  0
LINE
  5
1023
330
CD0
100
AcDbEntity
  8
0
  6
Continuous
 62
     3
100
AcDbLine
 10
190.6450857579999
 20
160.5999265589999
 30
0.0
 11
189.6450857579999
 21
160.5999265589999
 31
0.0
  0
LINE
  5
1024
330
CD0
100
AcDbEntity
  8
0
  6
Continuous
 62
     3
100
AcDbLine
 10
189.6450857579999
 20
160.5999265589999
 30
0.0
 11
189.6450857579999
 21
161.299926559
 31
0.0
  0
LINE
  5
1025
330
CD0
100
AcDbEntity
  8
0
  6
Continuous
 62
     3
100
AcDbLine
 10
189.6450857579999
 20
161.299926559
 30
0.0
 11
180.8050857579999
 21
161.299926559
 31
0.0
  0
LINE
  5
1026
330
CD0
100
AcDbEntity
  8
0
  6
Continuous
 62
     3
100
AcDbLine
 10
109.1949142479998
 20
161.299926562
 30
0.0
 11
109.1949142479998
 21
160.599926562
 31
0.0
  0
LINE
  5
1027
330
CD0
100
AcDbEntity
  8
0
  6
Continuous
 62
     3
100
AcDbLine
 10
109.1949142479998
 20
160.599926562
 30
0.0
 11
110.1949142479998
 21
160.599926562
 31
0.0
  0
LINE
  5
1028
330
CD0
100
AcDbEntity
  8
0
  6
Continuous
 62
     3
100
AcDbLine
 10
110.1949142479998
 20
160.599926562
 30
0.0
 11
110.1949142479998
 21
162.299926562
 31
0.0
  0
LINE
  5
1029
330
CD0
100
AcDbEntity
  8
0
  6
Continuous
 62
     3
100
AcDbLine
 10
99.35491424799998
 20
162.299926562
 30
0.0
 11
99.35491424799998
 21
160.599926562
 31
0.0
  0
LINE
  5
102A
330
CD0
100
AcDbEntity
  8
0
  6
Continuous
 62
     3
100
AcDbLine
 10
99.35491424799998
 20
160.599926562
 30
0.0
 11
100.3549142479998
 21
160.599926562
 31
0.0
  0
LINE
  5
102B
330
CD0
100
AcDbEntity
  8
0
  6
Continuous
 62
     3
100
AcDbLine
 10
100.3549142479998
 20
160.599926562
 30
0.0
 11
100.3549142479998
 21
161.299926562
 31
0.0
  0
LINE
  5
102C
330
CD0
100
AcDbEntity
  8
0
  6
Continuous
 62
     3
100
AcDbLine
 10
100.3549142479998
 20
161.299926562
 30
0.0
 11
109.1949142479998
 21
161.299926562
 31
0.0
  0
ARC
  5
102D
330
CD0
100
AcDbEntity
  8
0
  6
Continuous
 62
     3
100
AcDbCircle
 10
159.100000002
 20
140.4999999989998
 30
0.0
 40
0.5
100
AcDbArc
 50
180.0
 51
270.0
  0
LINE
  5
102E
330
CD0
100
AcDbEntity
  8
0
  6
Continuous
 62
     3
100
AcDbLine
 10
159.100000002
 20
139.9999999989999
 30
0.0
 11
160.600000002
 21
140.4999999989998
 31
0.0
  0
LINE
  5
102F
330
CD0
100
AcDbEntity
  8
0
  6
Continuous
 62
     1
100
AcDbLine
 10
161.000000002
 20
139.299999999
 30
0.0
 11
162.6104734189999
 21
139.299999999
 31
0.0
  0
LINE
  5
1030
330
CD0
100
AcDbEntity
  8
0
  6
Continuous
 62
     1
100
AcDbLine
 10
162.6104734189999
 20
139.299999999
 30
0.0
 11
162.600000002
 21
140.4999999989998
 31
0.0
  0
LINE
  5
1031
330
CD0
100
AcDbEntity
  8
0
  6
Continuous
 62
     1
100
AcDbLine
 10
161.000000002
 20
137.7999999989999
 30
0.0
 11
161.000000002
 21
139.299999999
 31
0.0
  0
LINE
  5
1032
330
CD0
100
AcDbEntity
  8
0
  6
Continuous
 62
     1
100
AcDbLine
 10
162.637525533
 20
136.199999999
 30
0.0
 11
162.982222224
 21
136.199999999
 31
0.0
  0
LINE
  5
1033
330
CD0
100
AcDbEntity
  8
0
  6
Continuous
 62
     1
100
AcDbLine
 10
162.637525533
 20
136.199999999
 30
0.0
 11
161.000000002
 21
137.7999999989999
 31
0.0
  0
LINE
  5
1034
330
CD0
100
AcDbEntity
  8
0
  6
Continuous
 62
     3
100
AcDbLine
 10
162.6104734189999
 20
139.299999999
 30
0.0
 11
162.637525533
 21
136.199999999
 31
0.0
  0
POINT
  5
1035
330
CD0
100
AcDbEntity
  8
0
  6
Continuous
 62
     1
100
AcDbPoint
 10
3.141492651413532E+99
 20
1.269263905633295E+99
 30
0.0
  0
POINT
  5
1036
330
CD0
100
AcDbEntity
  8
0
  6
Continuous
 62
     1
100
AcDbPoint
 10
3.141492651413532E+99
 20
1.269263905633295E+99
 30
0.0
  0
POINT
  5
1037
330
CD0
100
AcDbEntity
  8
0
  6
Continuous
 62
     1
100
AcDbPoint
 10
-1.470580238991736E+63
 20
-5.941616374145985E+73
 30
0.0
  0
POINT
  5
1038
330
CD0
100
AcDbEntity
  8
0
  6
Continuous
 62
     1
100
AcDbPoint
 10
-1.470580238991736E+63
 20
-5.941616374145985E+73
 30
0.0
  0
POINT
  5
1039
330
CD0
100
AcDbEntity
  8
0
  6
Continuous
 62
     1
100
AcDbPoint
 10
3.141492651413532E+99
 20
1.269263905633295E+99
 30
0.0
  0
POINT
  5
103A
330
CD0
100
AcDbEntity
  8
0
  6
Continuous
 62
     1
100
AcDbPoint
 10
3.141492651413532E+99
 20
1.269263905633295E+99
 30
0.0
  0
POINT
  5
103B
330
CD0
100
AcDbEntity
  8
0
  6
Continuous
 62
     1
100
AcDbPoint
 10
-1.470580238991736E+63
 20
-5.941616374145985E+73
 30
0.0
  0
POINT
  5
103C
330
CD0
100
AcDbEntity
  8
0
  6
Continuous
 62
     1
100
AcDbPoint
 10
-1.470580238991736E+63
 20
-5.941616374145985E+73
 30
0.0
  0
POINT
  5
103D
330
CD0
100
AcDbEntity
  8
0
  6
Continuous
 62
     1
100
AcDbPoint
 10
3.141492651413532E+99
 20
1.269263905633295E+99
 30
0.0
  0
POINT
  5
103E
330
CD0
100
AcDbEntity
  8
0
  6
Continuous
 62
     1
100
AcDbPoint
 10
3.141492651413532E+99
 20
1.269263905633295E+99
 30
0.0
  0
POINT
  5
103F
330
CD0
100
AcDbEntity
  8
0
  6
Continuous
 62
     1
100
AcDbPoint
 10
-1.470580238991736E+63
 20
-5.941616374145985E+73
 30
0.0
  0
POINT
  5
1040
330
CD0
100
AcDbEntity
  8
0
  6
Continuous
 62
     1
100
AcDbPoint
 10
-1.470580238991736E+63
 20
-5.941616374145985E+73
 30
0.0
  0
POINT
  5
1041
330
CD0
100
AcDbEntity
  8
0
  6
Continuous
 62
     1
100
AcDbPoint
 10
3.141492651413532E+99
 20
1.269263905633295E+99
 30
0.0
  0
POINT
  5
1042
330
CD0
100
AcDbEntity
  8
0
  6
Continuous
 62
     1
100
AcDbPoint
 10
3.141492651413532E+99
 20
1.269263905633295E+99
 30
0.0
  0
POINT
  5
1043
330
CD0
100
AcDbEntity
  8
0
  6
Continuous
 62
     1
100
AcDbPoint
 10
-1.470580238991736E+63
 20
-5.941616374145985E+73
 30
0.0
  0
POINT
  5
1044
330
CD0
100
AcDbEntity
  8
0
  6
Continuous
 62
     1
100
AcDbPoint
 10
-1.470580238991736E+63
 20
-5.941616374145985E+73
 30
0.0
  0
POINT
  5
1045
330
CD0
100
AcDbEntity
  8
0
  6
Continuous
 62
     1
100
AcDbPoint
 10
3.141492651413532E+99
 20
1.269263905633295E+99
 30
0.0
  0
POINT
  5
1046
330
CD0
100
AcDbEntity
  8
0
  6
Continuous
 62
     1
100
AcDbPoint
 10
3.141492651413532E+99
 20
1.269263905633295E+99
 30
0.0
  0
POINT
  5
1047
330
CD0
100
AcDbEntity
  8
0
  6
Continuous
 62
     1
100
AcDbPoint
 10
-1.470580238991736E+63
 20
-5.941616374145985E+73
 30
0.0
  0
POINT
  5
1048
330
CD0
100
AcDbEntity
  8
0
  6
Continuous
 62
     1
100
AcDbPoint
 10
-1.470580238991736E+63
 20
-5.941616374145985E+73
 30
0.0
  0
POINT
  5
1049
330
CD0
100
AcDbEntity
  8
0
  6
Continuous
 62
     1
100
AcDbPoint
 10
3.141492651413532E+99
 20
1.269263905633295E+99
 30
0.0
  0
POINT
  5
104A
330
CD0
100
AcDbEntity
  8
0
  6
Continuous
 62
     1
100
AcDbPoint
 10
3.141492651413532E+99
 20
1.269263905633295E+99
 30
0.0
  0
POINT
  5
104B
330
CD0
100
AcDbEntity
  8
0
  6
Continuous
 62
     1
100
AcDbPoint
 10
-1.470580238991736E+63
 20
-5.941616374145985E+73
 30
0.0
  0
POINT
  5
104C
330
CD0
100
AcDbEntity
  8
0
  6
Continuous
 62
     1
100
AcDbPoint
 10
-1.470580238991736E+63
 20
-5.941616374145985E+73
 30
0.0
  0
LINE
  5
104D
330
CD0
100
AcDbEntity
  8
0
  6
Continuous
 62
     3
100
AcDbLine
 10
307.191111114
 20
138.15
 30
0.0
 11
308.532381045
 21
138.15
 31
0.0
  0
LINE
  5
104E
330
CD0
100
AcDbEntity
  8
0
  6
Continuous
 62
     3
100
AcDbLine
 10
387.0000000019998
 20
135.999999996
 30
0.0
 11
387.517638093
 21
137.9318516479999
 31
0.0
  0
LINE
  5
104F
330
CD0
100
AcDbEntity
  8
0
  6
Continuous
 62
     3
100
AcDbLine
 10
387.0000000019998
 20
135.999999996
 30
0.0
 11
386.482361912
 21
137.9318516479999
 31
0.0
  0
LINE
  5
1050
330
CD0
100
AcDbEntity
  8
0
  6
Continuous
 62
     3
100
AcDbLine
 10
387.0000000019998
 20
135.999999996
 30
0.0
 11
387.000000005
 21
176.7999999959999
 31
0.0
  0
LINE
  5
1051
330
CD0
100
AcDbEntity
  8
0
  6
Continuous
 62
     3
100
AcDbLine
 10
387.000000005
 20
176.7999999959999
 30
0.0
 11
386.482361915
 21
174.8681483429996
 31
0.0
  0
LINE
  5
1052
330
CD0
100
AcDbEntity
  8
0
  6
Continuous
 62
     3
100
AcDbLine
 10
387.000000005
 20
176.7999999959999
 30
0.0
 11
387.517638095
 21
174.8681483429996
 31
0.0
  0
LINE
  5
1053
330
CD0
100
AcDbEntity
  8
0
  6
Continuous
 62
     3
100
AcDbLine
 10
358.216713773
 20
176.799999997
 30
0.0
 11
388.000000005
 21
176.7999999959999
 31
0.0
  0
LINE
  5
1054
330
CD0
100
AcDbEntity
  8
0
  6
Continuous
 62
     3
100
AcDbLine
 10
373.0000000019998
 20
135.999999997
 30
0.0
 11
388.0000000019998
 21
135.999999996
 31
0.0
  0
LINE
  5
1055
330
CD0
100
AcDbEntity
  8
0
  6
Continuous
 62
     1
100
AcDbLine
 10
357.2167118649998
 20
175.799999997
 30
0.0
 11
357.3109090619999
 21
165.0087587479999
 31
0.0
  0
ARC
  5
1056
330
CD0
100
AcDbEntity
  8
0
  6
Continuous
 62
     1
100
AcDbCircle
 10
356.2167118649998
 20
175.799999998
 30
0.0
 40
1.0
100
AcDbArc
 50
0.0
 51
90.0
  0
LINE
  5
1057
330
CD0
100
AcDbEntity
  8
0
  6
Continuous
 62
     1
100
AcDbLine
 10
357.3109090619999
 20
165.0087587479999
 30
0.0
 11
357.4000000039997
 21
153.3999999969999
 31
0.0
  0
LINE
  5
1058
330
CD0
100
AcDbEntity
  8
0
  6
Continuous
 62
     1
100
AcDbLine
 10
372.0000000019998
 20
135.999999997
 30
0.0
 11
371.845263786
 21
152.399999997
 31
0.0
  0
ARC
  5
1059
330
CD0
100
AcDbEntity
  8
0
  6
Continuous
 62
     1
100
AcDbCircle
 10
370.8452637859999
 20
152.399999997
 30
0.0
 40
1.0
100
AcDbArc
 50
0.0
 51
90.0
  0
LINE
  5
105A
330
CD0
100
AcDbEntity
  8
0
  6
Continuous
 62
     1
100
AcDbLine
 10
370.500000004
 20
153.3999999969999
 30
0.0
 11
370.500000004
 21
154.899999997
 31
0.0
  0
LINE
  5
105B
330
CD0
100
AcDbEntity
  8
0
  6
Continuous
 62
     1
100
AcDbLine
 10
370.8452637859999
 20
153.3999999969999
 30
0.0
 11
357.4000000039997
 21
153.3999999969999
 31
0.0
  0
LINE
  5
105C
330
CD0
100
AcDbEntity
  8
0
  6
Continuous
 62
     1
100
AcDbLine
 10
371.395085759
 20
155.599926557
 30
0.0
 11
370.500000004
 21
154.406478884
 31
0.0
  0
LINE
  5
105D
330
CD0
100
AcDbEntity
  8
0
  6
Continuous
 62
     1
100
AcDbLine
 10
371.395085759
 20
158.599926557
 30
0.0
 11
371.395085759
 21
155.599926557
 31
0.0
  0
LINE
  5
105E
330
CD0
100
AcDbEntity
  8
0
  6
Continuous
 62
     1
100
AcDbLine
 10
358.805085759
 20
162.2999265579998
 30
0.0
 11
358.805085759
 21
158.5999265579999
 31
0.0
  0
LINE
  5
105F
330
CD0
100
AcDbEntity
  8
0
  6
Continuous
 62
     1
100
AcDbLine
 10
351.250000003
 20
140.499999998
 30
0.0
 11
355.750000003
 21
140.499999998
 31
0.0
  0
LINE
  5
1060
330
CD0
100
AcDbEntity
  8
0
  6
Continuous
 62
     1
100
AcDbLine
 10
351.250000003
 20
137.9999999979999
 30
0.0
 11
351.250000003
 21
140.499999998
 31
0.0
  0
LINE
  5
1061
330
CD0
100
AcDbEntity
  8
0
  6
Continuous
 62
     1
100
AcDbLine
 10
355.750000003
 20
137.9999999979999
 30
0.0
 11
351.250000003
 21
137.9999999979999
 31
0.0
  0
LINE
  5
1062
330
CD0
100
AcDbEntity
  8
0
  6
Continuous
 62
     1
100
AcDbLine
 10
355.750000003
 20
140.499999998
 30
0.0
 11
355.750000003
 21
137.9999999979999
 31
0.0
  0
LINE
  5
1063
330
CD0
100
AcDbEntity
  8
0
  6
Continuous
 62
     1
100
AcDbLine
 10
307.400000003
 20
140.5
 30
0.0
 11
342.600000003
 21
140.499999998
 31
0.0
  0
LINE
  5
1064
330
CD0
100
AcDbEntity
  8
0
  6
Continuous
 62
     1
100
AcDbLine
 10
294.2500000029998
 20
140.500000001
 30
0.0
 11
294.2500000029998
 21
138.000000001
 31
0.0
  0
LINE
  5
1065
330
CD0
100
AcDbEntity
  8
0
  6
Continuous
 62
     1
100
AcDbLine
 10
294.2500000029998
 20
138.000000001
 30
0.0
 11
298.7500000029998
 21
138.000000001
 31
0.0
  0
LINE
  5
1066
330
CD0
100
AcDbEntity
  8
0
  6
Continuous
 62
     1
100
AcDbLine
 10
298.7500000029998
 20
138.000000001
 30
0.0
 11
298.7500000029998
 21
140.500000001
 31
0.0
  0
LINE
  5
1067
330
CD0
100
AcDbEntity
  8
0
  6
Continuous
 62
     1
100
AcDbLine
 10
298.7500000029998
 20
140.500000001
 30
0.0
 11
294.2500000029998
 21
140.500000001
 31
0.0
  0
LINE
  5
1068
330
CD0
100
AcDbEntity
  8
0
  6
Continuous
 62
     1
100
AcDbLine
 10
308.915000003
 20
138.5
 30
0.0
 11
307.074952325
 21
136.8432136289999
 31
0.0
  0
LINE
  5
1069
330
CD0
100
AcDbEntity
  8
0
  6
Continuous
 62
     1
100
AcDbLine
 10
308.915000003
 20
138.5
 30
0.0
 11
308.915000003
 21
139.0
 31
0.0
  0
LINE
  5
106A
330
CD0
100
AcDbEntity
  8
0
  6
Continuous
 62
     1
100
AcDbLine
 10
307.4150000029998
 20
139.1999999999999
 30
0.0
 11
307.4150000029998
 21
140.3
 31
0.0
  0
LINE
  5
106B
330
CD0
100
AcDbEntity
  8
0
  6
Continuous
 62
     1
100
AcDbLine
 10
307.000000002
 20
136.0
 30
0.0
 11
307.400000003
 21
140.5
 31
0.0
  0
LINE
  5
106C
330
CD0
100
AcDbEntity
  8
0
  6
Continuous
 62
     1
100
AcDbLine
 10
308.915000003
 20
139.0
 30
0.0
 11
307.4150000029998
 21
139.1999999999999
 31
0.0
  0
LINE
  5
106D
330
CD0
100
AcDbEntity
  8
0
  6
Continuous
 62
     1
100
AcDbLine
 10
278.000000002
 20
136.000000002
 30
0.0
 11
278.155322933
 21
152.400000002
 31
0.0
  0
LINE
  5
106E
330
CD0
100
AcDbEntity
  8
0
  6
Continuous
 62
     1
100
AcDbLine
 10
275.415000003
 20
136.000000002
 30
0.0
 11
278.000000002
 21
136.000000002
 31
0.0
  0
LINE
  5
106F
330
CD0
100
AcDbEntity
  8
0
  6
Continuous
 62
     1
100
AcDbLine
 10
278.0000000029999
 20
140.300000002
 30
0.0
 11
275.415000003
 21
140.300000002
 31
0.0
  0
LINE
  5
1070
330
CD0
100
AcDbEntity
  8
0
  6
Continuous
 62
     1
100
AcDbLine
 10
275.415000003
 20
136.000000002
 30
0.0
 11
275.415000003
 21
140.300000002
 31
0.0
  0
LINE
  5
1071
330
CD0
100
AcDbEntity
  8
0
  6
Continuous
 62
     1
100
AcDbLine
 10
307.000000002
 20
136.0
 30
0.0
 11
278.000000002
 21
136.000000002
 31
0.0
  0
LINE
  5
1072
330
CD0
100
AcDbEntity
  8
0
  6
Continuous
 62
     1
100
AcDbLine
 10
279.1553229329999
 20
153.400000002
 30
0.0
 11
292.600000004
 21
153.4000000009999
 31
0.0
  0
ARC
  5
1073
330
CD0
100
AcDbEntity
  8
0
  6
Continuous
 62
     1
100
AcDbCircle
 10
279.1553229329999
 20
152.400000002
 30
0.0
 40
1.0
100
AcDbArc
 50
90.0
 51
180.0
  0
LINE
  5
1074
330
CD0
100
AcDbEntity
  8
0
  6
Continuous
 62
     1
100
AcDbLine
 10
279.500000004
 20
153.400000002
 30
0.0
 11
279.500000004
 21
154.900000002
 31
0.0
  0
LINE
  5
1075
330
CD0
100
AcDbEntity
  8
0
  6
Continuous
 62
     1
100
AcDbLine
 10
292.6890909559998
 20
165.008758752
 30
0.0
 11
292.600000004
 21
153.4000000009999
 31
0.0
  0
LINE
  5
1076
330
CD0
100
AcDbEntity
  8
0
  6
Continuous
 62
     1
100
AcDbLine
 10
291.194914249
 20
162.299926562
 30
0.0
 11
291.194914249
 21
158.599926562
 31
0.0
  0
LINE
  5
1077
330
CD0
100
AcDbEntity
  8
0
  6
Continuous
 62
     1
100
AcDbLine
 10
294.344352303
 20
176.8000000009998
 30
0.0
 11
293.7832881449998
 21
176.8000000009998
 31
0.0
  0
ARC
  5
1078
330
CD0
100
AcDbEntity
  8
0
  6
Continuous
 62
     1
100
AcDbCircle
 10
293.783288144
 20
175.8000000009998
 30
0.0
 40
1.0
100
AcDbArc
 50
90.0
 51
180.0
  0
LINE
  5
1079
330
CD0
100
AcDbEntity
  8
0
  6
Continuous
 62
     1
100
AcDbLine
 10
293.7832881449998
 20
176.8000000009998
 30
0.0
 11
356.2167118649998
 21
176.7999999979998
 31
0.0
  0
LINE
  5
107A
330
CD0
100
AcDbEntity
  8
0
  6
Continuous
 62
     1
100
AcDbLine
 10
292.783288144
 20
175.8000000009998
 30
0.0
 11
292.6890909559998
 21
165.008758752
 31
0.0
  0
ARC
  5
107B
330
CD0
100
AcDbEntity
  8
0
  6
Continuous
 62
     3
100
AcDbCircle
 10
339.100000003
 20
140.4999999989998
 30
0.0
 40
0.5
100
AcDbArc
 50
180.0
 51
270.0
  0
LINE
  5
107C
330
CD0
100
AcDbEntity
  8
0
  6
Continuous
 62
     3
100
AcDbLine
 10
339.100000003
 20
139.9999999989999
 30
0.0
 11
340.600000003
 21
140.499999998
 31
0.0
  0
LINE
  5
107D
330
CD0
100
AcDbEntity
  8
0
  6
Continuous
 62
     1
100
AcDbLine
 10
341.0000000029998
 20
139.299999998
 30
0.0
 11
342.6104734199999
 21
139.299999998
 31
0.0
  0
LINE
  5
107E
330
CD0
100
AcDbEntity
  8
0
  6
Continuous
 62
     1
100
AcDbLine
 10
342.6104734199999
 20
139.299999998
 30
0.0
 11
342.600000003
 21
140.499999998
 31
0.0
  0
LINE
  5
107F
330
CD0
100
AcDbEntity
  8
0
  6
Continuous
 62
     1
100
AcDbLine
 10
341.0000000029998
 20
137.799999998
 30
0.0
 11
341.0000000029998
 21
139.299999998
 31
0.0
  0
LINE
  5
1080
330
CD0
100
AcDbEntity
  8
0
  6
Continuous
 62
     1
100
AcDbLine
 10
343.000000002
 20
135.9999999979999
 30
0.0
 11
372.0000000019998
 21
135.999999997
 31
0.0
  0
LINE
  5
1081
330
CD0
100
AcDbEntity
  8
0
  6
Continuous
 62
     1
100
AcDbLine
 10
342.637525534
 20
136.1999999979998
 30
0.0
 11
342.9822222249998
 21
136.1999999979998
 31
0.0
  0
LINE
  5
1082
330
CD0
100
AcDbEntity
  8
0
  6
Continuous
 62
     1
100
AcDbLine
 10
342.600000003
 20
140.499999998
 30
0.0
 11
343.000000002
 21
135.9999999979999
 31
0.0
  0
LINE
  5
1083
330
CD0
100
AcDbEntity
  8
0
  6
Continuous
 62
     1
100
AcDbLine
 10
342.637525534
 20
136.1999999979998
 30
0.0
 11
341.0000000029998
 21
137.799999998
 31
0.0
  0
LINE
  5
1084
330
CD0
100
AcDbEntity
  8
0
  6
Continuous
 62
     3
100
AcDbLine
 10
342.6104734199999
 20
139.299999998
 30
0.0
 11
342.637525534
 21
136.1999999979998
 31
0.0
  0
LINE
  5
1085
330
CD0
100
AcDbEntity
  8
0
  6
Continuous
 62
     1
100
AcDbLine
 10
290.250000004
 20
162.299926562
 30
0.0
 11
291.194914249
 21
162.299926562
 31
0.0
  0
LINE
  5
1086
330
CD0
100
AcDbEntity
  8
0
  6
Continuous
 62
     1
100
AcDbLine
 10
290.250000004
 20
158.400000001
 30
0.0
 11
292.6383723029998
 21
158.400000001
 31
0.0
  0
LINE
  5
1087
330
CD0
100
AcDbEntity
  8
0
  6
Continuous
 62
     1
100
AcDbLine
 10
291.195502313
 20
158.600000001
 30
0.0
 11
290.250000004
 21
158.600000001
 31
0.0
  0
ARC
  5
1088
330
CD0
100
AcDbEntity
  8
0
  6
Continuous
 62
     1
100
AcDbCircle
 10
280.000000004
 20
154.900000002
 30
0.0
 40
0.5
100
AcDbArc
 50
120.0000000089999
 51
180.0
  0
ARC
  5
1089
330
CD0
100
AcDbEntity
  8
0
  6
Continuous
 62
     1
100
AcDbCircle
 10
280.000000004
 20
154.900000002
 30
0.0
 40
0.5
100
AcDbArc
 50
120.0000000089999
 51
180.0
  0
LINE
  5
108A
330
CD0
100
AcDbEntity
  8
0
  6
Continuous
 62
     1
100
AcDbLine
 10
280.009234964
 20
177.9547493479998
 30
0.0
 11
290.250000004
 21
178.400000002
 31
0.0
  0
ARC
  5
108B
330
CD0
100
AcDbEntity
  8
0
  6
Continuous
 62
     1
100
AcDbCircle
 10
280.0743908
 20
176.456165111
 30
0.0
 40
1.5
100
AcDbArc
 50
92.48955292199999
 51
177.954591512
  0
LINE
  5
108C
330
CD0
100
AcDbEntity
  8
0
  6
Continuous
 62
     1
100
AcDbLine
 10
278.375000004
 20
170.900000002
 30
0.0
 11
278.5753465179999
 21
176.5097024059998
 31
0.0
  0
LINE
  5
108D
330
CD0
100
AcDbEntity
  8
0
  6
Continuous
 62
     1
100
AcDbLine
 10
290.250000004
 20
153.400000002
 30
0.0
 11
290.250000004
 21
178.400000002
 31
0.0
  0
LINE
  5
108E
330
CD0
100
AcDbEntity
  8
0
  6
Continuous
 62
     1
100
AcDbLine
 10
278.604914249
 20
158.5999265629998
 30
0.0
 11
278.604914249
 21
155.5999265629998
 31
0.0
  0
LINE
  5
108F
330
CD0
100
AcDbEntity
  8
0
  6
Continuous
 62
     1
100
AcDbLine
 10
278.604914249
 20
155.5999265629998
 30
0.0
 11
279.500000004
 21
154.406478889
 31
0.0
  0
LINE
  5
1090
330
CD0
100
AcDbEntity
  8
0
  6
Continuous
 62
     1
100
AcDbLine
 10
279.750000004
 20
153.400000002
 30
0.0
 11
279.750000004
 21
159.4031926059996
 31
0.0
  0
LINE
  5
1091
330
CD0
100
AcDbEntity
  8
0
  6
Continuous
 62
     1
100
AcDbLine
 10
279.750000004
 20
159.4031926059996
 30
0.0
 11
278.375000004
 21
159.4031926059996
 31
0.0
  0
LINE
  5
1092
330
CD0
100
AcDbEntity
  8
0
  6
Continuous
 62
     1
100
AcDbLine
 10
278.3555023129998
 20
158.600000002
 30
0.0
 11
279.750000004
 21
158.600000002
 31
0.0
  0
LINE
  5
1093
330
CD0
100
AcDbEntity
  8
0
  6
Continuous
 62
     1
100
AcDbLine
 10
278.354914249
 20
158.5999265629998
 30
0.0
 11
278.354914249
 21
159.4031926059996
 31
0.0
  0
LINE
  5
1094
330
CD0
100
AcDbEntity
  8
0
  6
Continuous
 62
     1
100
AcDbLine
 10
278.375000004
 20
159.4031926059996
 30
0.0
 11
278.375000004
 21
170.778192606
 31
0.0
  0
LINE
  5
1095
330
CD0
100
AcDbEntity
  8
0
  6
Continuous
 62
     1
100
AcDbLine
 10
369.9907650459999
 20
177.9547493459998
 30
0.0
 11
359.750000006
 21
178.4000000009999
 31
0.0
  0
ARC
  5
1096
330
CD0
100
AcDbEntity
  8
0
  6
Continuous
 62
     1
100
AcDbCircle
 10
369.92560921
 20
176.456165109
 30
0.0
 40
1.5
100
AcDbArc
 50
2.045408488
 51
87.510447078
  0
LINE
  5
1097
330
CD0
100
AcDbEntity
  8
0
  6
Continuous
 62
     1
100
AcDbLine
 10
371.625000006
 20
170.9
 30
0.0
 11
371.4246534909999
 21
176.509702405
 31
0.0
  0
LINE
  5
1098
330
CD0
100
AcDbEntity
  8
0
  6
Continuous
 62
     1
100
AcDbLine
 10
359.750000005
 20
153.4000000009999
 30
0.0
 11
359.750000006
 21
178.4000000009999
 31
0.0
  0
LINE
  5
1099
330
CD0
100
AcDbEntity
  8
0
  6
Continuous
 62
     1
100
AcDbLine
 10
371.625000006
 20
159.4031926049999
 30
0.0
 11
371.625000006
 21
170.778192605
 31
0.0
  0
LINE
  5
109A
330
CD0
100
AcDbEntity
  8
0
  6
Continuous
 62
     1
100
AcDbLine
 10
370.250000005
 20
153.3999999999998
 30
0.0
 11
370.250000006
 21
159.4031926049999
 31
0.0
  0
LINE
  5
109B
330
CD0
100
AcDbEntity
  8
0
  6
Continuous
 62
     1
100
AcDbLine
 10
370.250000006
 20
159.4031926049999
 30
0.0
 11
371.625000006
 21
159.4031926049999
 31
0.0
  0
LINE
  5
109C
330
CD0
100
AcDbEntity
  8
0
  6
Continuous
 62
     1
100
AcDbLine
 10
371.644497694
 20
158.599999997
 30
0.0
 11
370.250000005
 21
158.599999997
 31
0.0
  0
LINE
  5
109D
330
CD0
100
AcDbEntity
  8
0
  6
Continuous
 62
     1
100
AcDbLine
 10
371.645085759
 20
158.599926557
 30
0.0
 11
371.645085759
 21
159.4031926049999
 31
0.0
  0
ARC
  5
109E
330
CD0
100
AcDbEntity
  8
0
  6
Continuous
 62
     1
100
AcDbCircle
 10
370.000000004
 20
154.899999997
 30
0.0
 40
0.5
100
AcDbArc
 50
0.0
 51
59.99999976300001
  0
LINE
  5
109F
330
CD0
100
AcDbEntity
  8
0
  6
Continuous
 62
     1
100
AcDbLine
 10
358.804497694
 20
158.599999997
 30
0.0
 11
359.750000005
 21
158.599999997
 31
0.0
  0
LINE
  5
10A0
330
CD0
100
AcDbEntity
  8
0
  6
Continuous
 62
     1
100
AcDbLine
 10
359.750000005
 20
158.399999997
 30
0.0
 11
357.361627705
 21
158.399999997
 31
0.0
  0
LINE
  5
10A1
330
CD0
100
AcDbEntity
  8
0
  6
Continuous
 62
     1
100
AcDbLine
 10
359.750000006
 20
162.2999265579998
 30
0.0
 11
358.805085759
 21
162.2999265579998
 31
0.0
  0
LINE
  5
10A2
330
CD0
100
AcDbEntity
  8
0
  6
Continuous
 62
     3
100
AcDbLine
 10
380.0000000019998
 20
135.999999996
 30
0.0
 11
380.517638093
 21
137.9318516479999
 31
0.0
  0
LINE
  5
10A3
330
CD0
100
AcDbEntity
  8
0
  6
Continuous
 62
     3
100
AcDbLine
 10
380.0000000019998
 20
135.999999996
 30
0.0
 11
379.4823619119998
 21
137.9318516479999
 31
0.0
  0
LINE
  5
10A4
330
CD0
100
AcDbEntity
  8
0
  6
Continuous
 62
     3
100
AcDbLine
 10
380.0000000019998
 20
135.999999996
 30
0.0
 11
380.000000003
 21
178.3999999999998
 31
0.0
  0
LINE
  5
10A5
330
CD0
100
AcDbEntity
  8
0
  6
Continuous
 62
     3
100
AcDbLine
 10
380.000000003
 20
178.3999999999998
 30
0.0
 11
379.482361913
 21
176.4681483479996
 31
0.0
  0
LINE
  5
10A6
330
CD0
100
AcDbEntity
  8
0
  6
Continuous
 62
     3
100
AcDbLine
 10
380.000000003
 20
178.3999999999998
 30
0.0
 11
380.517638093
 21
176.4681483479996
 31
0.0
  0
LINE
  5
10A7
330
CD0
100
AcDbEntity
  8
0
  6
Continuous
 62
     3
100
AcDbLine
 10
360.7500000059999
 20
178.3999999999998
 30
0.0
 11
381.000000003
 21
178.3999999999998
 31
0.0
  0
LINE
  5
10A8
330
CD0
100
AcDbEntity
  8
0
  6
Continuous
 62
     3
100
AcDbLine
 10
354.70000001
 20
106.149999991
 30
0.0
 11
295.30000001
 21
106.149999995
 31
0.0
  0
LINE
  5
10A9
330
CD0
100
AcDbEntity
  8
0
  6
Continuous
 62
     3
100
AcDbLine
 10
354.7000000069999
 20
61.849999991
 30
0.0
 11
354.70000001
 21
106.149999991
 31
0.0
  0
LINE
  5
10AA
330
CD0
100
AcDbEntity
  8
0
  6
Continuous
 62
     3
100
AcDbLine
 10
295.30000001
 20
106.149999995
 30
0.0
 11
295.3000000069998
 21
66.849999995
 31
0.0
  0
LINE
  5
10AB
330
CD0
100
AcDbEntity
  8
0
  6
Continuous
 62
     3
100
AcDbLine
 10
300.300000007
 20
61.84999999399999
 30
0.0
 11
354.7000000069999
 21
61.849999991
 31
0.0
  0
LINE
  5
10AC
330
CD0
100
AcDbEntity
  8
0
  6
Continuous
 62
     3
100
AcDbLine
 10
294.1000000079998
 20
83.25036631899996
 30
0.0
 11
292.600000008
 21
83.24999999399999
 31
0.0
  0
LINE
  5
10AD
330
CD0
100
AcDbEntity
  8
0
  6
Continuous
 62
     3
100
AcDbLine
 10
294.100000009
 20
84.85463366999999
 30
0.0
 11
292.600000009
 21
84.85499999399998
 31
0.0
  0
LINE
  5
10AE
330
CD0
100
AcDbEntity
  8
0
  6
Continuous
 62
     3
100
AcDbLine
 10
292.600000008
 20
83.144999994
 30
0.0
 11
294.1000000079998
 21
83.14536631999997
 31
0.0
  0
LINE
  5
10AF
330
CD0
100
AcDbEntity
  8
0
  6
Continuous
 62
     3
100
AcDbLine
 10
294.100000009
 20
84.74963366899999
 30
0.0
 11
292.600000009
 21
84.74999999399999
 31
0.0
  0
LINE
  5
10B0
330
CD0
100
AcDbEntity
  8
0
  6
Continuous
 62
     3
100
AcDbLine
 10
362.50000001
 20
104.0499999899999
 30
0.0
 11
362.50000001
 21
103.0499999899999
 31
0.0
  0
LINE
  5
10B1
330
CD0
100
AcDbEntity
  8
0
  6
Continuous
 62
     3
100
AcDbLine
 10
362.50000001
 20
103.0499999899999
 30
0.0
 11
367.50000001
 21
103.0499999899999
 31
0.0
  0
LINE
  5
10B2
330
CD0
100
AcDbEntity
  8
0
  6
Continuous
 62
     3
100
AcDbLine
 10
367.50000001
 20
103.0499999899999
 30
0.0
 11
367.50000001
 21
104.0499999899999
 31
0.0
  0
LINE
  5
10B3
330
CD0
100
AcDbEntity
  8
0
  6
Continuous
 62
     3
100
AcDbLine
 10
362.500000007
 20
64.94999999
 30
0.0
 11
362.500000007
 21
63.94999999
 31
0.0
  0
LINE
  5
10B4
330
CD0
100
AcDbEntity
  8
0
  6
Continuous
 62
     3
100
AcDbLine
 10
367.5000000069998
 20
64.94999999
 30
0.0
 11
362.500000007
 21
64.94999999
 31
0.0
  0
LINE
  5
10B5
330
CD0
100
AcDbEntity
  8
0
  6
Continuous
 62
     3
100
AcDbLine
 10
367.5000000069998
 20
63.94999999
 30
0.0
 11
367.5000000069998
 21
64.94999999
 31
0.0
  0
LINE
  5
10B6
330
CD0
100
AcDbEntity
  8
0
  6
Continuous
 62
     3
100
AcDbLine
 10
294.1000000079998
 20
83.14536631999997
 30
0.0
 11
294.100000009
 21
84.85463366999999
 31
0.0
  0
LINE
  5
10B7
330
CD0
100
AcDbEntity
  8
0
  6
Continuous
 62
     3
100
AcDbLine
 10
294.1000000099998
 20
104.1457326459999
 30
0.0
 11
294.1000000099998
 21
105.854999996
 31
0.0
  0
LINE
  5
10B8
330
CD0
100
AcDbEntity
  8
0
  6
Continuous
 62
     3
100
AcDbLine
 10
355.900000009
 20
88.24926734100001
 30
0.0
 11
357.4000000089997
 21
88.249633665
 31
0.0
  0
LINE
  5
10B9
330
CD0
100
AcDbEntity
  8
0
  6
Continuous
 62
     3
100
AcDbLine
 10
357.4000000089997
 20
88.35463366499999
 30
0.0
 11
355.900000009
 21
88.35426734
 31
0.0
  0
LINE
  5
10BA
330
CD0
100
AcDbEntity
  8
0
  6
Continuous
 62
     3
100
AcDbLine
 10
294.1000000099998
 20
105.7499999949999
 30
0.0
 11
292.6000000099998
 21
105.7503663199997
 31
0.0
  0
LINE
  5
10BB
330
CD0
100
AcDbEntity
  8
0
  6
Continuous
 62
     3
100
AcDbLine
 10
292.6000000099998
 20
104.1453663199996
 30
0.0
 11
294.1000000099998
 21
104.1457326459999
 31
0.0
  0
LINE
  5
10BC
330
CD0
100
AcDbEntity
  8
0
  6
Continuous
 62
     3
100
AcDbLine
 10
294.1000000099998
 20
105.854999996
 30
0.0
 11
292.6000000099998
 21
105.85536632
 31
0.0
  0
LINE
  5
10BD
330
CD0
100
AcDbEntity
  8
0
  6
Continuous
 62
     3
100
AcDbLine
 10
355.900000009
 20
86.74999999099998
 30
0.0
 11
357.4000000089997
 21
86.749633665
 31
0.0
  0
LINE
  5
10BE
330
CD0
100
AcDbEntity
  8
0
  6
Continuous
 62
     3
100
AcDbLine
 10
355.900000009
 20
88.35426734
 30
0.0
 11
355.900000009
 21
86.64499999
 31
0.0
  0
LINE
  5
10BF
330
CD0
100
AcDbEntity
  8
0
  6
Continuous
 62
     3
100
AcDbLine
 10
355.900000008
 20
81.249267341
 30
0.0
 11
357.400000008
 21
81.24963366500002
 31
0.0
  0
LINE
  5
10C0
330
CD0
100
AcDbEntity
  8
0
  6
Continuous
 62
     3
100
AcDbLine
 10
294.1000000099998
 20
104.2507326449999
 30
0.0
 11
292.6000000099998
 21
104.2503663199999
 31
0.0
  0
LINE
  5
10C1
330
CD0
100
AcDbEntity
  8
0
  6
Continuous
 62
     3
100
AcDbLine
 10
294.1000000099998
 20
100.645732646
 30
0.0
 11
294.1000000099998
 21
102.3549999959999
 31
0.0
  0
LINE
  5
10C2
330
CD0
100
AcDbEntity
  8
0
  6
Continuous
 62
     3
100
AcDbLine
 10
294.1000000099998
 20
102.2499999949999
 30
0.0
 11
292.6000000099998
 21
102.2503663199999
 31
0.0
  0
LINE
  5
10C3
330
CD0
100
AcDbEntity
  8
0
  6
Continuous
 62
     3
100
AcDbLine
 10
357.400000008
 20
81.35463366499998
 30
0.0
 11
355.900000008
 21
81.35426734000002
 31
0.0
  0
LINE
  5
10C4
330
CD0
100
AcDbEntity
  8
0
  6
Continuous
 62
     3
100
AcDbLine
 10
292.6000000099998
 20
100.6453663199998
 30
0.0
 11
294.1000000099998
 21
100.645732646
 31
0.0
  0
LINE
  5
10C5
330
CD0
100
AcDbEntity
  8
0
  6
Continuous
 62
     3
100
AcDbLine
 10
294.1000000099998
 20
102.3549999959999
 30
0.0
 11
292.6000000099998
 21
102.3553663199999
 31
0.0
  0
LINE
  5
10C6
330
CD0
100
AcDbEntity
  8
0
  6
Continuous
 62
     3
100
AcDbLine
 10
294.1000000099998
 20
100.750732645
 30
0.0
 11
292.6000000099998
 21
100.75036632
 31
0.0
  0
LINE
  5
10C7
330
CD0
100
AcDbEntity
  8
0
  6
Continuous
 62
     3
100
AcDbLine
 10
294.100000009
 20
97.14573264600005
 30
0.0
 11
294.1000000099998
 21
98.854999996
 31
0.0
  0
LINE
  5
10C8
330
CD0
100
AcDbEntity
  8
0
  6
Continuous
 62
     3
100
AcDbLine
 10
294.1000000099998
 20
98.74999999499999
 30
0.0
 11
292.6000000099998
 21
98.75036632
 31
0.0
  0
LINE
  5
10C9
330
CD0
100
AcDbEntity
  8
0
  6
Continuous
 62
     3
100
AcDbLine
 10
355.900000008
 20
79.74999999100001
 30
0.0
 11
357.400000008
 21
79.749633665
 31
0.0
  0
LINE
  5
10CA
330
CD0
100
AcDbEntity
  8
0
  6
Continuous
 62
     3
100
AcDbLine
 10
300.300000007
 20
61.84999999399999
 30
0.0
 11
295.3000000069998
 21
66.849999995
 31
0.0
  0
LINE
  5
10CB
330
CD0
100
AcDbEntity
  8
0
  6
Continuous
 62
     3
100
AcDbLine
 10
355.900000008
 20
81.35426734000002
 30
0.0
 11
355.900000008
 21
79.64499999
 31
0.0
  0
LINE
  5
10CC
330
CD0
100
AcDbEntity
  8
0
  6
Continuous
 62
     3
100
AcDbLine
 10
355.900000009
 20
91.74926734100001
 30
0.0
 11
357.4000000089997
 21
91.749633665
 31
0.0
  0
LINE
  5
10CD
330
CD0
100
AcDbEntity
  8
0
  6
Continuous
 62
     3
100
AcDbLine
 10
355.900000009
 20
90.14499998999999
 30
0.0
 11
357.4000000089997
 21
90.14463366500001
 31
0.0
  0
LINE
  5
10CE
330
CD0
100
AcDbEntity
  8
0
  6
Continuous
 62
     3
100
AcDbLine
 10
357.4000000089997
 20
91.854633665
 30
0.0
 11
355.900000009
 21
91.85426734000001
 31
0.0
  0
LINE
  5
10CF
330
CD0
100
AcDbEntity
  8
0
  6
Continuous
 62
     3
100
AcDbLine
 10
355.900000009
 20
90.24999999100002
 30
0.0
 11
357.4000000089997
 21
90.24963366500001
 31
0.0
  0
LINE
  5
10D0
330
CD0
100
AcDbEntity
  8
0
  6
Continuous
 62
     3
100
AcDbLine
 10
355.900000009
 20
91.85426734000001
 30
0.0
 11
355.900000009
 21
90.14499998999999
 31
0.0
  0
LINE
  5
10D1
330
CD0
100
AcDbEntity
  8
0
  6
Continuous
 62
     3
100
AcDbLine
 10
355.900000009
 20
95.24926734100001
 30
0.0
 11
357.4000000089997
 21
95.24963366500001
 31
0.0
  0
LINE
  5
10D2
330
CD0
100
AcDbEntity
  8
0
  6
Continuous
 62
     3
100
AcDbLine
 10
292.600000009
 20
97.14536631999999
 30
0.0
 11
294.100000009
 21
97.14573264600005
 31
0.0
  0
LINE
  5
10D3
330
CD0
100
AcDbEntity
  8
0
  6
Continuous
 62
     3
100
AcDbLine
 10
294.1000000099998
 20
98.854999996
 30
0.0
 11
292.6000000099998
 21
98.85536632
 31
0.0
  0
LINE
  5
10D4
330
CD0
100
AcDbEntity
  8
0
  6
Continuous
 62
     3
100
AcDbLine
 10
294.100000009
 20
97.250732645
 30
0.0
 11
292.600000009
 21
97.25036632
 31
0.0
  0
LINE
  5
10D5
330
CD0
100
AcDbEntity
  8
0
  6
Continuous
 62
     3
100
AcDbLine
 10
355.900000009
 20
93.64499999000001
 30
0.0
 11
357.4000000089997
 21
93.644633665
 31
0.0
  0
LINE
  5
10D6
330
CD0
100
AcDbEntity
  8
0
  6
Continuous
 62
     3
100
AcDbLine
 10
357.4000000089997
 20
95.354633665
 30
0.0
 11
355.900000009
 21
95.35426734000001
 31
0.0
  0
LINE
  5
10D7
330
CD0
100
AcDbEntity
  8
0
  6
Continuous
 62
     3
100
AcDbLine
 10
355.900000009
 20
93.74999999100001
 30
0.0
 11
357.4000000089997
 21
93.74963366500001
 31
0.0
  0
LINE
  5
10D8
330
CD0
100
AcDbEntity
  8
0
  6
Continuous
 62
     3
100
AcDbLine
 10
294.100000009
 20
93.645732646
 30
0.0
 11
294.100000009
 21
95.354999996
 31
0.0
  0
LINE
  5
10D9
330
CD0
100
AcDbEntity
  8
0
  6
Continuous
 62
     3
100
AcDbLine
 10
294.100000009
 20
95.249999995
 30
0.0
 11
292.600000009
 21
95.25036632
 31
0.0
  0
LINE
  5
10DA
330
CD0
100
AcDbEntity
  8
0
  6
Continuous
 62
     3
100
AcDbLine
 10
292.600000009
 20
93.64536632
 30
0.0
 11
294.100000009
 21
93.645732646
 31
0.0
  0
LINE
  5
10DB
330
CD0
100
AcDbEntity
  8
0
  6
Continuous
 62
     3
100
AcDbLine
 10
355.900000009
 20
95.35426734000001
 30
0.0
 11
355.900000009
 21
93.64499999000001
 31
0.0
  0
LINE
  5
10DC
330
CD0
100
AcDbEntity
  8
0
  6
Continuous
 62
     3
100
AcDbLine
 10
355.9000000099998
 20
98.749267341
 30
0.0
 11
357.4000000099998
 21
98.74963366500001
 31
0.0
  0
LINE
  5
10DD
330
CD0
100
AcDbEntity
  8
0
  6
Continuous
 62
     3
100
AcDbLine
 10
355.900000009
 20
97.14499999
 30
0.0
 11
357.4000000089997
 21
97.144633665
 31
0.0
  0
LINE
  5
10DE
330
CD0
100
AcDbEntity
  8
0
  6
Continuous
 62
     3
100
AcDbLine
 10
294.100000009
 20
95.354999996
 30
0.0
 11
292.600000009
 21
95.35536632000001
 31
0.0
  0
LINE
  5
10DF
330
CD0
100
AcDbEntity
  8
0
  6
Continuous
 62
     3
100
AcDbLine
 10
294.100000009
 20
93.75073264500001
 30
0.0
 11
292.600000009
 21
93.75036632
 31
0.0
  0
LINE
  5
10E0
330
CD0
100
AcDbEntity
  8
0
  6
Continuous
 62
     3
100
AcDbLine
 10
294.100000009
 20
90.145732646
 30
0.0
 11
294.100000009
 21
91.85499999600001
 31
0.0
  0
LINE
  5
10E1
330
CD0
100
AcDbEntity
  8
0
  6
Continuous
 62
     3
100
AcDbLine
 10
357.4000000099998
 20
98.85463366499999
 30
0.0
 11
355.9000000099998
 21
98.85426734000001
 31
0.0
  0
LINE
  5
10E2
330
CD0
100
AcDbEntity
  8
0
  6
Continuous
 62
     3
100
AcDbLine
 10
355.900000009
 20
97.24999999100001
 30
0.0
 11
357.4000000089997
 21
97.249633665
 31
0.0
  0
LINE
  5
10E3
330
CD0
100
AcDbEntity
  8
0
  6
Continuous
 62
     3
100
AcDbLine
 10
355.9000000099998
 20
98.85426734000001
 30
0.0
 11
355.900000009
 21
97.14499999
 31
0.0
  0
LINE
  5
10E4
330
CD0
100
AcDbEntity
  8
0
  6
Continuous
 62
     3
100
AcDbLine
 10
294.100000009
 20
91.749999995
 30
0.0
 11
292.600000009
 21
91.75036631999999
 31
0.0
  0
LINE
  5
10E5
330
CD0
100
AcDbEntity
  8
0
  6
Continuous
 62
     3
100
AcDbLine
 10
292.600000009
 20
90.14536632
 30
0.0
 11
294.100000009
 21
90.145732646
 31
0.0
  0
LINE
  5
10E6
330
CD0
100
AcDbEntity
  8
0
  6
Continuous
 62
     3
100
AcDbLine
 10
294.100000009
 20
91.85499999600001
 30
0.0
 11
292.600000009
 21
91.85536631999999
 31
0.0
  0
LINE
  5
10E7
330
CD0
100
AcDbEntity
  8
0
  6
Continuous
 62
     3
100
AcDbLine
 10
355.9000000099998
 20
102.249267341
 30
0.0
 11
357.4000000099998
 21
102.249633665
 31
0.0
  0
LINE
  5
10E8
330
CD0
100
AcDbEntity
  8
0
  6
Continuous
 62
     3
100
AcDbLine
 10
355.9000000099998
 20
100.64499999
 30
0.0
 11
357.4000000099998
 21
100.644633665
 31
0.0
  0
LINE
  5
10E9
330
CD0
100
AcDbEntity
  8
0
  6
Continuous
 62
     3
100
AcDbLine
 10
357.4000000099998
 20
102.3546336649997
 30
0.0
 11
355.9000000099998
 21
102.35426734
 31
0.0
  0
LINE
  5
10EA
330
CD0
100
AcDbEntity
  8
0
  6
Continuous
 62
     3
100
AcDbLine
 10
294.100000009
 20
90.25073264499999
 30
0.0
 11
292.600000009
 21
90.25036632
 31
0.0
  0
LINE
  5
10EB
330
CD0
100
AcDbEntity
  8
0
  6
Continuous
 62
     3
100
AcDbLine
 10
294.100000007
 20
62.14573264600001
 30
0.0
 11
294.100000007
 21
63.854999996
 31
0.0
  0
LINE
  5
10EC
330
CD0
100
AcDbEntity
  8
0
  6
Continuous
 62
     3
100
AcDbLine
 10
294.100000007
 20
63.749999995
 30
0.0
 11
292.600000007
 21
63.75036632
 31
0.0
  0
LINE
  5
10ED
330
CD0
100
AcDbEntity
  8
0
  6
Continuous
 62
     3
100
AcDbLine
 10
355.9000000099998
 20
100.749999991
 30
0.0
 11
357.4000000099998
 21
100.749633665
 31
0.0
  0
LINE
  5
10EE
330
CD0
100
AcDbEntity
  8
0
  6
Continuous
 62
     3
100
AcDbLine
 10
355.9000000099998
 20
102.35426734
 30
0.0
 11
355.9000000099998
 21
100.64499999
 31
0.0
  0
LINE
  5
10EF
330
CD0
100
AcDbEntity
  8
0
  6
Continuous
 62
     3
100
AcDbLine
 10
355.9000000099998
 20
105.749267341
 30
0.0
 11
357.4000000099998
 21
105.749633665
 31
0.0
  0
LINE
  5
10F0
330
CD0
100
AcDbEntity
  8
0
  6
Continuous
 62
     3
100
AcDbLine
 10
355.900000009
 20
86.64499999
 30
0.0
 11
357.4000000089997
 21
86.64463366499999
 31
0.0
  0
LINE
  5
10F1
330
CD0
100
AcDbEntity
  8
0
  6
Continuous
 62
     3
100
AcDbLine
 10
292.600000007
 20
62.14536632
 30
0.0
 11
294.100000007
 21
62.14573264600001
 31
0.0
  0
LINE
  5
10F2
330
CD0
100
AcDbEntity
  8
0
  6
Continuous
 62
     3
100
AcDbLine
 10
294.100000007
 20
63.854999996
 30
0.0
 11
292.600000007
 21
63.85536632
 31
0.0
  0
LINE
  5
10F3
330
CD0
100
AcDbEntity
  8
0
  6
Continuous
 62
     3
100
AcDbLine
 10
294.100000007
 20
62.250732645
 30
0.0
 11
292.600000007
 21
62.25036632
 31
0.0
  0
LINE
  5
10F4
330
CD0
100
AcDbEntity
  8
0
  6
Continuous
 62
     3
100
AcDbLine
 10
294.100000007
 20
65.64573264599999
 30
0.0
 11
294.100000007
 21
67.354999996
 31
0.0
  0
LINE
  5
10F5
330
CD0
100
AcDbEntity
  8
0
  6
Continuous
 62
     3
100
AcDbLine
 10
294.100000007
 20
67.24999999499999
 30
0.0
 11
292.600000007
 21
67.25036632
 31
0.0
  0
LINE
  5
10F6
330
CD0
100
AcDbEntity
  8
0
  6
Continuous
 62
     3
100
AcDbLine
 10
292.600000007
 20
65.64536631999999
 30
0.0
 11
294.100000007
 21
65.64573264599999
 31
0.0
  0
LINE
  5
10F7
330
CD0
100
AcDbEntity
  8
0
  6
Continuous
 62
     3
100
AcDbLine
 10
294.100000007
 20
67.354999996
 30
0.0
 11
292.600000007
 21
67.35536632
 31
0.0
  0
LINE
  5
10F8
330
CD0
100
AcDbEntity
  8
0
  6
Continuous
 62
     3
100
AcDbLine
 10
294.100000007
 20
65.750732645
 30
0.0
 11
292.600000007
 21
65.75036631999998
 31
0.0
  0
LINE
  5
10F9
330
CD0
100
AcDbEntity
  8
0
  6
Continuous
 62
     3
100
AcDbLine
 10
294.100000007
 20
69.145732646
 30
0.0
 11
294.1000000079998
 21
70.854999996
 31
0.0
  0
LINE
  5
10FA
330
CD0
100
AcDbEntity
  8
0
  6
Continuous
 62
     3
100
AcDbLine
 10
294.1000000079998
 20
70.749999995
 30
0.0
 11
292.600000008
 21
70.75036631999998
 31
0.0
  0
LINE
  5
10FB
330
CD0
100
AcDbEntity
  8
0
  6
Continuous
 62
     3
100
AcDbLine
 10
292.600000007
 20
69.14536631999999
 30
0.0
 11
294.100000007
 21
69.145732646
 31
0.0
  0
LINE
  5
10FC
330
CD0
100
AcDbEntity
  8
0
  6
Continuous
 62
     3
100
AcDbLine
 10
294.1000000079998
 20
70.854999996
 30
0.0
 11
292.600000008
 21
70.85536632
 31
0.0
  0
LINE
  5
10FD
330
CD0
100
AcDbEntity
  8
0
  6
Continuous
 62
     3
100
AcDbLine
 10
294.100000007
 20
69.25073264499999
 30
0.0
 11
292.600000007
 21
69.25036632
 31
0.0
  0
LINE
  5
10FE
330
CD0
100
AcDbEntity
  8
0
  6
Continuous
 62
     3
100
AcDbLine
 10
294.1000000079998
 20
72.645732646
 30
0.0
 11
294.1000000079998
 21
74.35499999600001
 31
0.0
  0
LINE
  5
10FF
330
CD0
100
AcDbEntity
  8
0
  6
Continuous
 62
     3
100
AcDbLine
 10
294.1000000079998
 20
74.24999999499998
 30
0.0
 11
292.600000008
 21
74.25036632
 31
0.0
  0
LINE
  5
1100
330
CD0
100
AcDbEntity
  8
0
  6
Continuous
 62
     3
100
AcDbLine
 10
292.600000008
 20
72.64536631999998
 30
0.0
 11
294.1000000079998
 21
72.645732646
 31
0.0
  0
LINE
  5
1101
330
CD0
100
AcDbEntity
  8
0
  6
Continuous
 62
     3
100
AcDbLine
 10
294.1000000079998
 20
74.35499999600001
 30
0.0
 11
292.600000008
 21
74.35536632
 31
0.0
  0
LINE
  5
1102
330
CD0
100
AcDbEntity
  8
0
  6
Continuous
 62
     3
100
AcDbLine
 10
294.1000000079998
 20
72.750732645
 30
0.0
 11
292.600000008
 21
72.75036631999999
 31
0.0
  0
LINE
  5
1103
330
CD0
100
AcDbEntity
  8
0
  6
Continuous
 62
     3
100
AcDbLine
 10
294.1000000079998
 20
76.145732646
 30
0.0
 11
294.1000000079998
 21
77.854999996
 31
0.0
  0
LINE
  5
1104
330
CD0
100
AcDbEntity
  8
0
  6
Continuous
 62
     3
100
AcDbLine
 10
294.1000000079998
 20
77.74999999499998
 30
0.0
 11
292.600000008
 21
77.75036631999999
 31
0.0
  0
LINE
  5
1105
330
CD0
100
AcDbEntity
  8
0
  6
Continuous
 62
     3
100
AcDbLine
 10
292.600000008
 20
76.14536631999998
 30
0.0
 11
294.1000000079998
 21
76.145732646
 31
0.0
  0
LINE
  5
1106
330
CD0
100
AcDbEntity
  8
0
  6
Continuous
 62
     3
100
AcDbLine
 10
294.1000000079998
 20
77.854999996
 30
0.0
 11
292.600000008
 21
77.85536632
 31
0.0
  0
LINE
  5
1107
330
CD0
100
AcDbEntity
  8
0
  6
Continuous
 62
     3
100
AcDbLine
 10
294.1000000079998
 20
76.250732645
 30
0.0
 11
292.600000008
 21
76.25036632
 31
0.0
  0
LINE
  5
1108
330
CD0
100
AcDbEntity
  8
0
  6
Continuous
 62
     3
100
AcDbLine
 10
294.100000009
 20
86.64573264599999
 30
0.0
 11
294.100000009
 21
88.35499999600001
 31
0.0
  0
LINE
  5
1109
330
CD0
100
AcDbEntity
  8
0
  6
Continuous
 62
     3
100
AcDbLine
 10
294.100000009
 20
88.24999999499999
 30
0.0
 11
292.600000009
 21
88.25036631999996
 31
0.0
  0
LINE
  5
110A
330
CD0
100
AcDbEntity
  8
0
  6
Continuous
 62
     3
100
AcDbLine
 10
292.600000009
 20
86.64536631999999
 30
0.0
 11
294.100000009
 21
86.64573264599999
 31
0.0
  0
LINE
  5
110B
330
CD0
100
AcDbEntity
  8
0
  6
Continuous
 62
     3
100
AcDbLine
 10
294.100000009
 20
88.35499999600001
 30
0.0
 11
292.600000009
 21
88.35536632
 31
0.0
  0
LINE
  5
110C
330
CD0
100
AcDbEntity
  8
0
  6
Continuous
 62
     3
100
AcDbLine
 10
294.100000009
 20
86.75073264499998
 30
0.0
 11
292.600000009
 21
86.75036631999999
 31
0.0
  0
LINE
  5
110D
330
CD0
100
AcDbEntity
  8
0
  6
Continuous
 62
     3
100
AcDbLine
 10
294.1000000079998
 20
79.645732646
 30
0.0
 11
294.1000000079998
 21
81.354999996
 31
0.0
  0
LINE
  5
110E
330
CD0
100
AcDbEntity
  8
0
  6
Continuous
 62
     3
100
AcDbLine
 10
294.1000000079998
 20
81.24999999499998
 30
0.0
 11
292.600000008
 21
81.25036632
 31
0.0
  0
LINE
  5
110F
330
CD0
100
AcDbEntity
  8
0
  6
Continuous
 62
     3
100
AcDbLine
 10
292.600000008
 20
79.64536631999997
 30
0.0
 11
294.1000000079998
 21
79.645732646
 31
0.0
  0
LINE
  5
1110
330
CD0
100
AcDbEntity
  8
0
  6
Continuous
 62
     3
100
AcDbLine
 10
294.1000000079998
 20
81.354999996
 30
0.0
 11
292.600000008
 21
81.35536632
 31
0.0
  0
LINE
  5
1111
330
CD0
100
AcDbEntity
  8
0
  6
Continuous
 62
     3
100
AcDbLine
 10
294.1000000079998
 20
79.750732645
 30
0.0
 11
292.600000008
 21
79.75036632
 31
0.0
  0
LINE
  5
1112
330
CD0
100
AcDbEntity
  8
0
  6
Continuous
 62
     3
100
AcDbLine
 10
355.9000000099998
 20
104.1449999899999
 30
0.0
 11
357.4000000099998
 21
104.1446336649999
 31
0.0
  0
LINE
  5
1113
330
CD0
100
AcDbEntity
  8
0
  6
Continuous
 62
     3
100
AcDbLine
 10
357.4000000099998
 20
105.8546336649996
 30
0.0
 11
355.9000000099998
 21
105.85426734
 31
0.0
  0
LINE
  5
1114
330
CD0
100
AcDbEntity
  8
0
  6
Continuous
 62
     3
100
AcDbLine
 10
355.9000000099998
 20
104.249999991
 30
0.0
 11
357.4000000099998
 21
104.2496336649999
 31
0.0
  0
LINE
  5
1115
330
CD0
100
AcDbEntity
  8
0
  6
Continuous
 62
     3
100
AcDbLine
 10
355.9000000099998
 20
105.85426734
 30
0.0
 11
355.9000000099998
 21
104.1449999899999
 31
0.0
  0
LINE
  5
1116
330
CD0
100
AcDbEntity
  8
0
  6
Continuous
 62
     3
100
AcDbLine
 10
355.900000008
 20
77.74926734100001
 30
0.0
 11
357.400000008
 21
77.749633665
 31
0.0
  0
LINE
  5
1117
330
CD0
100
AcDbEntity
  8
0
  6
Continuous
 62
     3
100
AcDbLine
 10
355.900000008
 20
76.14499999
 30
0.0
 11
357.400000008
 21
76.144633665
 31
0.0
  0
LINE
  5
1118
330
CD0
100
AcDbEntity
  8
0
  6
Continuous
 62
     3
100
AcDbLine
 10
357.400000008
 20
77.85463366499998
 30
0.0
 11
355.900000008
 21
77.85426734000002
 31
0.0
  0
LINE
  5
1119
330
CD0
100
AcDbEntity
  8
0
  6
Continuous
 62
     3
100
AcDbLine
 10
355.900000008
 20
76.24999999100001
 30
0.0
 11
357.400000008
 21
76.24963366500002
 31
0.0
  0
LINE
  5
111A
330
CD0
100
AcDbEntity
  8
0
  6
Continuous
 62
     3
100
AcDbLine
 10
355.900000008
 20
77.85426734000002
 30
0.0
 11
355.900000008
 21
76.14499999
 31
0.0
  0
LINE
  5
111B
330
CD0
100
AcDbEntity
  8
0
  6
Continuous
 62
     3
100
AcDbLine
 10
355.900000008
 20
74.24926734100001
 30
0.0
 11
357.400000008
 21
74.249633665
 31
0.0
  0
LINE
  5
111C
330
CD0
100
AcDbEntity
  8
0
  6
Continuous
 62
     3
100
AcDbLine
 10
355.900000008
 20
72.64499999
 30
0.0
 11
357.400000008
 21
72.644633665
 31
0.0
  0
LINE
  5
111D
330
CD0
100
AcDbEntity
  8
0
  6
Continuous
 62
     3
100
AcDbLine
 10
357.400000008
 20
74.35463366499998
 30
0.0
 11
355.900000008
 21
74.35426734
 31
0.0
  0
LINE
  5
111E
330
CD0
100
AcDbEntity
  8
0
  6
Continuous
 62
     3
100
AcDbLine
 10
355.900000008
 20
72.74999999100001
 30
0.0
 11
357.400000008
 21
72.749633665
 31
0.0
  0
LINE
  5
111F
330
CD0
100
AcDbEntity
  8
0
  6
Continuous
 62
     3
100
AcDbLine
 10
355.900000008
 20
74.35426734
 30
0.0
 11
355.900000008
 21
72.64499999
 31
0.0
  0
LINE
  5
1120
330
CD0
100
AcDbEntity
  8
0
  6
Continuous
 62
     3
100
AcDbLine
 10
355.900000008
 20
70.749267341
 30
0.0
 11
357.400000008
 21
70.74963366500002
 31
0.0
  0
LINE
  5
1121
330
CD0
100
AcDbEntity
  8
0
  6
Continuous
 62
     3
100
AcDbLine
 10
355.9000000069999
 20
69.14499999
 30
0.0
 11
357.4000000069996
 21
69.144633665
 31
0.0
  0
LINE
  5
1122
330
CD0
100
AcDbEntity
  8
0
  6
Continuous
 62
     3
100
AcDbLine
 10
357.400000008
 20
70.85463366499998
 30
0.0
 11
355.900000008
 21
70.85426734000002
 31
0.0
  0
LINE
  5
1123
330
CD0
100
AcDbEntity
  8
0
  6
Continuous
 62
     3
100
AcDbLine
 10
355.9000000069999
 20
69.24999999100001
 30
0.0
 11
357.4000000069996
 21
69.249633665
 31
0.0
  0
LINE
  5
1124
330
CD0
100
AcDbEntity
  8
0
  6
Continuous
 62
     3
100
AcDbLine
 10
355.900000008
 20
70.85426734000002
 30
0.0
 11
355.9000000069999
 21
69.14499999
 31
0.0
  0
LINE
  5
1125
330
CD0
100
AcDbEntity
  8
0
  6
Continuous
 62
     3
100
AcDbLine
 10
355.9000000069999
 20
67.24926734100001
 30
0.0
 11
357.4000000069996
 21
67.249633665
 31
0.0
  0
LINE
  5
1126
330
CD0
100
AcDbEntity
  8
0
  6
Continuous
 62
     3
100
AcDbLine
 10
355.9000000069999
 20
65.64499999
 30
0.0
 11
357.4000000069996
 21
65.644633665
 31
0.0
  0
LINE
  5
1127
330
CD0
100
AcDbEntity
  8
0
  6
Continuous
 62
     3
100
AcDbLine
 10
357.4000000069996
 20
67.35463366499999
 30
0.0
 11
355.9000000069999
 21
67.35426734
 31
0.0
  0
LINE
  5
1128
330
CD0
100
AcDbEntity
  8
0
  6
Continuous
 62
     3
100
AcDbLine
 10
355.9000000069999
 20
65.749999991
 30
0.0
 11
357.4000000069996
 21
65.749633665
 31
0.0
  0
LINE
  5
1129
330
CD0
100
AcDbEntity
  8
0
  6
Continuous
 62
     3
100
AcDbLine
 10
355.9000000069999
 20
67.35426734
 30
0.0
 11
355.9000000069999
 21
65.64499999
 31
0.0
  0
LINE
  5
112A
330
CD0
100
AcDbEntity
  8
0
  6
Continuous
 62
     3
100
AcDbLine
 10
355.9000000069999
 20
63.749267341
 30
0.0
 11
357.4000000069996
 21
63.749633665
 31
0.0
  0
LINE
  5
112B
330
CD0
100
AcDbEntity
  8
0
  6
Continuous
 62
     3
100
AcDbLine
 10
355.9000000069999
 20
62.14499999
 30
0.0
 11
357.4000000069996
 21
62.144633665
 31
0.0
  0
LINE
  5
112C
330
CD0
100
AcDbEntity
  8
0
  6
Continuous
 62
     3
100
AcDbLine
 10
357.4000000069996
 20
63.854633665
 30
0.0
 11
355.9000000069999
 21
63.85426734
 31
0.0
  0
LINE
  5
112D
330
CD0
100
AcDbEntity
  8
0
  6
Continuous
 62
     3
100
AcDbLine
 10
355.9000000069999
 20
62.249999991
 30
0.0
 11
357.4000000069996
 21
62.24963366499999
 31
0.0
  0
LINE
  5
112E
330
CD0
100
AcDbEntity
  8
0
  6
Continuous
 62
     3
100
AcDbLine
 10
355.9000000069999
 20
63.85426734
 30
0.0
 11
355.9000000069999
 21
62.14499999
 31
0.0
  0
LINE
  5
112F
330
CD0
100
AcDbEntity
  8
0
  6
Continuous
 62
     3
100
AcDbLine
 10
355.900000009
 20
84.85463366599999
 30
0.0
 11
355.900000008
 21
83.14536631600001
 31
0.0
  0
LINE
  5
1130
330
CD0
100
AcDbEntity
  8
0
  6
Continuous
 62
     3
100
AcDbLine
 10
355.900000008
 20
83.25036631699999
 30
0.0
 11
357.400000008
 21
83.24999999099999
 31
0.0
  0
LINE
  5
1131
330
CD0
100
AcDbEntity
  8
0
  6
Continuous
 62
     3
100
AcDbLine
 10
357.4000000089997
 20
84.85499999099998
 30
0.0
 11
355.900000009
 21
84.85463366599999
 31
0.0
  0
LINE
  5
1132
330
CD0
100
AcDbEntity
  8
0
  6
Continuous
 62
     3
100
AcDbLine
 10
355.900000008
 20
83.14536631600001
 30
0.0
 11
357.400000008
 21
83.144999991
 31
0.0
  0
LINE
  5
1133
330
CD0
100
AcDbEntity
  8
0
  6
Continuous
 62
     3
100
AcDbLine
 10
355.900000009
 20
84.749633667
 30
0.0
 11
357.4000000089997
 21
84.74999999100001
 31
0.0
  0
LINE
  5
1134
330
CD0
100
AcDbEntity
  8
0
  6
Continuous
 62
     3
100
AcDbLine
 10
355.900000008
 20
79.64499999
 30
0.0
 11
357.400000008
 21
79.644633665
 31
0.0
  0
LINE
  5
1135
330
CD0
100
AcDbEntity
  8
0
  6
Continuous
 62
     3
100
AcDbLine
 10
275.415000008
 20
73.000002694
 30
0.0
 11
275.4150000059999
 21
45.999999996
 31
0.0
  0
LINE
  5
1136
330
CD0
100
AcDbEntity
  8
0
  6
Continuous
 62
     3
100
AcDbLine
 10
275.4150000059999
 20
46.99999999600001
 30
0.0
 11
277.346851659
 21
46.48236190499999
 31
0.0
  0
LINE
  5
1137
330
CD0
100
AcDbEntity
  8
0
  6
Continuous
 62
     3
100
AcDbLine
 10
275.4150000059999
 20
46.99999999600001
 30
0.0
 11
277.346851659
 21
47.517638086
 31
0.0
  0
LINE
  5
1138
330
CD0
100
AcDbEntity
  8
0
  6
Continuous
 62
     3
100
AcDbLine
 10
275.4150000059999
 20
46.99999999600001
 30
0.0
 11
372.000000006
 21
46.99999999
 31
0.0
  0
LINE
  5
1139
330
CD0
100
AcDbEntity
  8
0
  6
Continuous
 62
     3
100
AcDbLine
 10
372.000000006
 20
46.99999999
 30
0.0
 11
370.068148354
 21
47.51763807999998
 31
0.0
  0
LINE
  5
113A
330
CD0
100
AcDbEntity
  8
0
  6
Continuous
 62
     3
100
AcDbLine
 10
372.000000006
 20
46.99999999
 30
0.0
 11
370.068148353
 21
46.4823619
 31
0.0
  0
LINE
  5
113B
330
CD0
100
AcDbEntity
  8
0
  6
Continuous
 62
     3
100
AcDbLine
 10
372.0000000069998
 20
59.000002687
 30
0.0
 11
372.000000006
 21
45.99999999
 31
0.0
  0
LINE
  5
113C
330
CD0
100
AcDbEntity
  8
0
  6
Continuous
 62
     3
100
AcDbLine
 10
372.000000006
 20
53.00000268699999
 30
0.0
 11
370.068148354
 21
53.517640777
 31
0.0
  0
LINE
  5
113D
330
CD0
100
AcDbEntity
  8
0
  6
Continuous
 62
     3
100
AcDbLine
 10
372.000000006
 20
53.00000268699999
 30
0.0
 11
370.068148354
 21
52.482364597
 31
0.0
  0
LINE
  5
113E
330
CD0
100
AcDbEntity
  8
0
  6
Continuous
 62
     3
100
AcDbLine
 10
372.000000006
 20
53.00000268699999
 30
0.0
 11
278.0000000059997
 21
53.00000269199999
 31
0.0
  0
LINE
  5
113F
330
CD0
100
AcDbEntity
  8
0
  6
Continuous
 62
     3
100
AcDbLine
 10
278.0000000059997
 20
53.00000269199999
 30
0.0
 11
279.931851659
 21
52.482364602
 31
0.0
  0
LINE
  5
1140
330
CD0
100
AcDbEntity
  8
0
  6
Continuous
 62
     3
100
AcDbLine
 10
278.0000000059997
 20
53.00000269199999
 30
0.0
 11
279.931851659
 21
53.517640783
 31
0.0
  0
LINE
  5
1141
330
CD0
100
AcDbEntity
  8
0
  6
Continuous
 62
     3
100
AcDbLine
 10
278.0000000069998
 20
59.00000269199999
 30
0.0
 11
278.0000000059997
 21
52.000002692
 31
0.0
  0
TEXT
  5
1142
330
CD0
100
AcDbEntity
  8
0
  6
Continuous
 62
     3
100
AcDbText
 10
323.3500000059996
 20
53.50000269
 30
0.1
 40
2.0
  1
９４
 41
0.8
  7
KANJI0
100
AcDbText
  0
LINE
  5
1143
330
CD0
100
AcDbEntity
  8
0
  6
Continuous
 62
     3
100
AcDbLine
 10
292.6000000099998
 20
108.4999999949999
 30
0.1
 11
292.6000000109998
 21
113.9999999949999
 31
0.1
  0
LINE
  5
1144
330
CD0
100
AcDbEntity
  8
0
  6
Continuous
 62
     3
100
AcDbLine
 10
292.6000000099998
 20
112.9999999949999
 30
0.0
 11
294.5318516629999
 21
112.482361905
 31
0.0
  0
LINE
  5
1145
330
CD0
100
AcDbEntity
  8
0
  6
Continuous
 62
     3
100
AcDbLine
 10
292.6000000099998
 20
112.9999999949999
 30
0.0
 11
294.5318516629999
 21
113.5176380849999
 31
0.0
  0
LINE
  5
1146
330
CD0
100
AcDbEntity
  8
0
  6
Continuous
 62
     3
100
AcDbLine
 10
292.6000000099998
 20
112.9999999949999
 30
0.0
 11
357.4000000099998
 21
112.999999991
 31
0.0
  0
LINE
  5
1147
330
CD0
100
AcDbEntity
  8
0
  6
Continuous
 62
     3
100
AcDbLine
 10
357.4000000099998
 20
112.999999991
 30
0.0
 11
355.468148358
 21
113.5176380809999
 31
0.0
  0
LINE
  5
1148
330
CD0
100
AcDbEntity
  8
0
  6
Continuous
 62
     3
100
AcDbLine
 10
357.4000000099998
 20
112.999999991
 30
0.0
 11
355.468148358
 21
112.482361901
 31
0.0
  0
LINE
  5
1149
330
CD0
100
AcDbEntity
  8
0
  6
Continuous
 62
     3
100
AcDbLine
 10
357.4000000099998
 20
108.500003805
 30
0.0
 11
357.4000000109999
 21
113.999999991
 31
0.0
  0
LINE
  5
114A
330
CD0
100
AcDbEntity
  8
0
  6
Continuous
 62
     3
100
AcDbLine
 10
264.551119669
 20
62.16285411
 30
0.0
 11
264.5511196699998
 21
63.836481401
 31
0.0
  0
LINE
  5
114B
330
CD0
100
AcDbEntity
  8
0
  6
Continuous
 62
     3
100
AcDbLine
 10
254.74987842
 20
63.74991125800001
 30
0.0
 11
266.5511196699998
 21
63.854633671
 31
0.0
  0
LINE
  5
114C
330
CD0
100
AcDbEntity
  8
0
  6
Continuous
 62
     3
100
AcDbLine
 10
266.551119669
 20
62.145366321
 30
0.0
 11
254.74987842
 21
62.250088735
 31
0.0
  0
LINE
  5
114D
330
CD0
100
AcDbEntity
  8
0
  6
Continuous
 62
     3
100
AcDbLine
 10
254.74987842
 20
62.24999999699999
 30
0.0
 11
254.74987842
 21
63.74999999699999
 31
0.0
  0
LINE
  5
114E
330
CD0
100
AcDbEntity
  8
0
  6
Continuous
 62
     3
100
AcDbLine
 10
264.551119672
 20
104.1628541099999
 30
0.0
 11
264.551119672
 21
105.8364814009999
 31
0.0
  0
LINE
  5
114F
330
CD0
100
AcDbEntity
  8
0
  6
Continuous
 62
     3
100
AcDbLine
 10
254.749878423
 20
105.7499112579999
 30
0.0
 11
266.551119672
 21
105.854633671
 31
0.0
  0
LINE
  5
1150
330
CD0
100
AcDbEntity
  8
0
  6
Continuous
 62
     3
100
AcDbLine
 10
266.551119672
 20
104.1453663209999
 30
0.0
 11
254.749878422
 21
104.250088735
 31
0.0
  0
LINE
  5
1151
330
CD0
100
AcDbEntity
  8
0
  6
Continuous
 62
     3
100
AcDbLine
 10
254.749878422
 20
104.2499999969999
 30
0.0
 11
254.749878423
 21
105.749999997
 31
0.0
  0
LINE
  5
1152
330
CD0
100
AcDbEntity
  8
0
  6
Continuous
 62
     3
100
AcDbLine
 10
243.15111967
 20
72.25999999699999
 30
0.0
 11
243.15111967
 21
73.75999999699999
 31
0.0
  0
LINE
  5
1153
330
CD0
100
AcDbEntity
  8
0
  6
Continuous
 62
     3
100
AcDbLine
 10
243.1511196709998
 20
95.73999999700001
 30
0.0
 11
243.1511196709998
 21
94.23999999700001
 31
0.0
  0
LINE
  5
1154
330
CD0
100
AcDbEntity
  8
0
  6
Continuous
 62
     3
100
AcDbLine
 10
246.6511196709998
 20
95.73999999700001
 30
0.0
 11
246.651119672
 21
99.23999999700001
 31
0.0
  0
LINE
  5
1155
330
CD0
100
AcDbEntity
  8
0
  6
Continuous
 62
     3
100
AcDbLine
 10
246.65111967
 20
73.75999999699999
 30
0.0
 11
246.6511196709998
 21
94.23999999700001
 31
0.0
  0
LINE
  5
1156
330
CD0
100
AcDbEntity
  8
0
  6
Continuous
 62
     3
100
AcDbLine
 10
246.65111967
 20
68.75999999699999
 30
0.0
 11
246.65111967
 21
72.25999999699999
 31
0.0
  0
LINE
  5
1157
330
CD0
100
AcDbEntity
  8
0
  6
Continuous
 62
     3
100
AcDbLine
 10
254.301119672
 20
98.19999999700002
 30
0.0
 11
254.3011196709996
 21
95.19999999700001
 31
0.0
  0
LINE
  5
1158
330
CD0
100
AcDbEntity
  8
0
  6
Continuous
 62
     3
100
AcDbLine
 10
254.3011196709996
 20
95.19999999700001
 30
0.0
 11
257.301119671
 21
95.19999999600001
 31
0.0
  0
LINE
  5
1159
330
CD0
100
AcDbEntity
  8
0
  6
Continuous
 62
     3
100
AcDbLine
 10
257.301119671
 20
95.19999999600001
 30
0.0
 11
257.301119672
 21
98.199999996
 31
0.0
  0
LINE
  5
115A
330
CD0
100
AcDbEntity
  8
0
  6
Continuous
 62
     3
100
AcDbLine
 10
257.301119672
 20
98.199999996
 30
0.0
 11
254.301119672
 21
98.19999999700002
 31
0.0
  0
LINE
  5
115B
330
CD0
100
AcDbEntity
  8
0
  6
Continuous
 62
     3
100
AcDbLine
 10
254.301119672
 20
98.19999999700002
 30
0.0
 11
253.051119672
 21
98.699999997
 31
0.0
  0
LINE
  5
115C
330
CD0
100
AcDbEntity
  8
0
  6
Continuous
 62
     3
100
AcDbLine
 10
253.051119671
 20
94.699999997
 30
0.0
 11
254.3011196709996
 21
95.19999999700001
 31
0.0
  0
LINE
  5
115D
330
CD0
100
AcDbEntity
  8
0
  6
Continuous
 62
     3
100
AcDbLine
 10
257.301119671
 20
95.19999999600001
 30
0.0
 11
258.5511196709999
 21
94.699999996
 31
0.0
  0
LINE
  5
115E
330
CD0
100
AcDbEntity
  8
0
  6
Continuous
 62
     3
100
AcDbLine
 10
257.301119672
 20
98.199999996
 30
0.0
 11
258.551119672
 21
98.699999996
 31
0.0
  0
LINE
  5
115F
330
CD0
100
AcDbEntity
  8
0
  6
Continuous
 62
     3
100
AcDbLine
 10
254.3011196709996
 20
93.11999999700001
 30
0.0
 11
254.3011196709996
 21
90.119999997
 31
0.0
  0
LINE
  5
1160
330
CD0
100
AcDbEntity
  8
0
  6
Continuous
 62
     3
100
AcDbLine
 10
254.3011196709996
 20
90.119999997
 30
0.0
 11
257.301119671
 21
90.119999996
 31
0.0
  0
LINE
  5
1161
330
CD0
100
AcDbEntity
  8
0
  6
Continuous
 62
     3
100
AcDbLine
 10
257.301119671
 20
90.119999996
 30
0.0
 11
257.301119671
 21
93.11999999600001
 31
0.0
  0
LINE
  5
1162
330
CD0
100
AcDbEntity
  8
0
  6
Continuous
 62
     3
100
AcDbLine
 10
257.301119671
 20
93.11999999600001
 30
0.0
 11
254.3011196709996
 21
93.11999999700001
 31
0.0
  0
LINE
  5
1163
330
CD0
100
AcDbEntity
  8
0
  6
Continuous
 62
     3
100
AcDbLine
 10
254.3011196709996
 20
93.11999999700001
 30
0.0
 11
253.051119671
 21
93.61999999700001
 31
0.0
  0
LINE
  5
1164
330
CD0
100
AcDbEntity
  8
0
  6
Continuous
 62
     3
100
AcDbLine
 10
253.051119671
 20
89.61999999700001
 30
0.0
 11
254.3011196709996
 21
90.119999997
 31
0.0
  0
LINE
  5
1165
330
CD0
100
AcDbEntity
  8
0
  6
Continuous
 62
     3
100
AcDbLine
 10
257.301119671
 20
90.119999996
 30
0.0
 11
258.5511196709999
 21
89.61999999600001
 31
0.0
  0
LINE
  5
1166
330
CD0
100
AcDbEntity
  8
0
  6
Continuous
 62
     3
100
AcDbLine
 10
257.301119671
 20
93.11999999600001
 30
0.0
 11
258.5511196709999
 21
93.619999996
 31
0.0
  0
LINE
  5
1167
330
CD0
100
AcDbEntity
  8
0
  6
Continuous
 62
     3
100
AcDbLine
 10
254.3011196709996
 20
88.03999999700002
 30
0.0
 11
254.3011196709996
 21
85.03999999699999
 31
0.0
  0
LINE
  5
1168
330
CD0
100
AcDbEntity
  8
0
  6
Continuous
 62
     3
100
AcDbLine
 10
254.3011196709996
 20
85.03999999699999
 30
0.0
 11
257.301119671
 21
85.03999999600003
 31
0.0
  0
LINE
  5
1169
330
CD0
100
AcDbEntity
  8
0
  6
Continuous
 62
     3
100
AcDbLine
 10
257.301119671
 20
85.03999999600003
 30
0.0
 11
257.301119671
 21
88.039999996
 31
0.0
  0
LINE
  5
116A
330
CD0
100
AcDbEntity
  8
0
  6
Continuous
 62
     3
100
AcDbLine
 10
257.301119671
 20
88.039999996
 30
0.0
 11
254.3011196709996
 21
88.03999999700002
 31
0.0
  0
LINE
  5
116B
330
CD0
100
AcDbEntity
  8
0
  6
Continuous
 62
     3
100
AcDbLine
 10
254.3011196709996
 20
88.03999999700002
 30
0.0
 11
253.051119671
 21
88.53999999699999
 31
0.0
  0
LINE
  5
116C
330
CD0
100
AcDbEntity
  8
0
  6
Continuous
 62
     3
100
AcDbLine
 10
253.051119671
 20
84.539999997
 30
0.0
 11
254.3011196709996
 21
85.03999999699999
 31
0.0
  0
LINE
  5
116D
330
CD0
100
AcDbEntity
  8
0
  6
Continuous
 62
     3
100
AcDbLine
 10
257.301119671
 20
85.03999999600003
 30
0.0
 11
258.5511196709999
 21
84.539999996
 31
0.0
  0
LINE
  5
116E
330
CD0
100
AcDbEntity
  8
0
  6
Continuous
 62
     3
100
AcDbLine
 10
257.301119671
 20
88.039999996
 30
0.0
 11
258.5511196709999
 21
88.539999996
 31
0.0
  0
LINE
  5
116F
330
CD0
100
AcDbEntity
  8
0
  6
Continuous
 62
     3
100
AcDbLine
 10
254.3011196699999
 20
72.799999997
 30
0.0
 11
254.3011196699999
 21
69.799999997
 31
0.0
  0
LINE
  5
1170
330
CD0
100
AcDbEntity
  8
0
  6
Continuous
 62
     3
100
AcDbLine
 10
254.3011196699999
 20
69.799999997
 30
0.0
 11
257.30111967
 21
69.799999996
 31
0.0
  0
LINE
  5
1171
330
CD0
100
AcDbEntity
  8
0
  6
Continuous
 62
     3
100
AcDbLine
 10
257.30111967
 20
69.799999996
 30
0.0
 11
257.30111967
 21
72.79999999599998
 31
0.0
  0
LINE
  5
1172
330
CD0
100
AcDbEntity
  8
0
  6
Continuous
 62
     3
100
AcDbLine
 10
257.30111967
 20
72.79999999599998
 30
0.0
 11
254.3011196699999
 21
72.799999997
 31
0.0
  0
LINE
  5
1173
330
CD0
100
AcDbEntity
  8
0
  6
Continuous
 62
     3
100
AcDbLine
 10
254.3011196699999
 20
72.799999997
 30
0.0
 11
253.05111967
 21
73.299999997
 31
0.0
  0
LINE
  5
1174
330
CD0
100
AcDbEntity
  8
0
  6
Continuous
 62
     3
100
AcDbLine
 10
253.05111967
 20
69.299999997
 30
0.0
 11
254.3011196699999
 21
69.799999997
 31
0.0
  0
LINE
  5
1175
330
CD0
100
AcDbEntity
  8
0
  6
Continuous
 62
     3
100
AcDbLine
 10
257.30111967
 20
69.799999996
 30
0.0
 11
258.55111967
 21
69.29999999599999
 31
0.0
  0
LINE
  5
1176
330
CD0
100
AcDbEntity
  8
0
  6
Continuous
 62
     3
100
AcDbLine
 10
257.30111967
 20
72.79999999599998
 30
0.0
 11
258.55111967
 21
73.29999999599998
 31
0.0
  0
LINE
  5
1177
330
CD0
100
AcDbEntity
  8
0
  6
Continuous
 62
     3
100
AcDbLine
 10
254.3011196709996
 20
82.95999999699999
 30
0.0
 11
254.3011196699999
 21
79.95999999699998
 31
0.0
  0
LINE
  5
1178
330
CD0
100
AcDbEntity
  8
0
  6
Continuous
 62
     3
100
AcDbLine
 10
254.3011196699999
 20
79.95999999699998
 30
0.0
 11
257.30111967
 21
79.95999999600001
 31
0.0
  0
LINE
  5
1179
330
CD0
100
AcDbEntity
  8
0
  6
Continuous
 62
     3
100
AcDbLine
 10
257.30111967
 20
79.95999999600001
 30
0.0
 11
257.301119671
 21
82.95999999600001
 31
0.0
  0
LINE
  5
117A
330
CD0
100
AcDbEntity
  8
0
  6
Continuous
 62
     3
100
AcDbLine
 10
257.301119671
 20
82.95999999600001
 30
0.0
 11
254.3011196709996
 21
82.95999999699999
 31
0.0
  0
LINE
  5
117B
330
CD0
100
AcDbEntity
  8
0
  6
Continuous
 62
     3
100
AcDbLine
 10
254.3011196709996
 20
82.95999999699999
 30
0.0
 11
253.051119671
 21
83.45999999699998
 31
0.0
  0
LINE
  5
117C
330
CD0
100
AcDbEntity
  8
0
  6
Continuous
 62
     3
100
AcDbLine
 10
253.05111967
 20
79.45999999699998
 30
0.0
 11
254.3011196699999
 21
79.95999999699998
 31
0.0
  0
LINE
  5
117D
330
CD0
100
AcDbEntity
  8
0
  6
Continuous
 62
     3
100
AcDbLine
 10
257.30111967
 20
79.95999999600001
 30
0.0
 11
258.55111967
 21
79.45999999600001
 31
0.0
  0
LINE
  5
117E
330
CD0
100
AcDbEntity
  8
0
  6
Continuous
 62
     3
100
AcDbLine
 10
257.301119671
 20
82.95999999600001
 30
0.0
 11
258.5511196709999
 21
83.45999999600001
 31
0.0
  0
LINE
  5
117F
330
CD0
100
AcDbEntity
  8
0
  6
Continuous
 62
     3
100
AcDbLine
 10
254.3011196699999
 20
77.879999997
 30
0.0
 11
254.3011196699999
 21
74.879999997
 31
0.0
  0
LINE
  5
1180
330
CD0
100
AcDbEntity
  8
0
  6
Continuous
 62
     3
100
AcDbLine
 10
254.3011196699999
 20
74.879999997
 30
0.0
 11
257.30111967
 21
74.87999999600001
 31
0.0
  0
LINE
  5
1181
330
CD0
100
AcDbEntity
  8
0
  6
Continuous
 62
     3
100
AcDbLine
 10
257.30111967
 20
74.87999999600001
 30
0.0
 11
257.30111967
 21
77.87999999600001
 31
0.0
  0
LINE
  5
1182
330
CD0
100
AcDbEntity
  8
0
  6
Continuous
 62
     3
100
AcDbLine
 10
257.30111967
 20
77.87999999600001
 30
0.0
 11
254.3011196699999
 21
77.879999997
 31
0.0
  0
LINE
  5
1183
330
CD0
100
AcDbEntity
  8
0
  6
Continuous
 62
     3
100
AcDbLine
 10
254.3011196699999
 20
77.879999997
 30
0.0
 11
253.05111967
 21
78.379999997
 31
0.0
  0
LINE
  5
1184
330
CD0
100
AcDbEntity
  8
0
  6
Continuous
 62
     3
100
AcDbLine
 10
253.05111967
 20
74.379999997
 30
0.0
 11
254.3011196699999
 21
74.879999997
 31
0.0
  0
LINE
  5
1185
330
CD0
100
AcDbEntity
  8
0
  6
Continuous
 62
     3
100
AcDbLine
 10
257.30111967
 20
74.87999999600001
 30
0.0
 11
258.55111967
 21
74.37999999600001
 31
0.0
  0
LINE
  5
1186
330
CD0
100
AcDbEntity
  8
0
  6
Continuous
 62
     3
100
AcDbLine
 10
257.30111967
 20
77.87999999600001
 30
0.0
 11
258.55111967
 21
78.37999999599998
 31
0.0
  0
LINE
  5
1187
330
CD0
100
AcDbEntity
  8
0
  6
Continuous
 62
     3
100
AcDbLine
 10
259.551119672
 20
99.23999999600004
 30
0.0
 11
259.5511196699998
 21
68.75999999600001
 31
0.0
  0
LINE
  5
1188
330
CD0
100
AcDbEntity
  8
0
  6
Continuous
 62
     1
100
AcDbLine
 10
292.6000000099998
 20
106.999999995
 30
0.0
 11
292.600000007
 21
60.999999995
 31
0.0
  0
ARC
  5
1189
330
CD0
100
AcDbEntity
  8
0
  6
Continuous
 62
     1
100
AcDbCircle
 10
293.6000000069999
 20
60.999999995
 30
0.0
 40
1.0
100
AcDbArc
 50
180.0
 51
270.0
  0
ARC
  5
118A
330
CD0
100
AcDbEntity
  8
0
  6
Continuous
 62
     1
100
AcDbCircle
 10
279.000000007
 20
60.99999999600001
 30
0.0
 40
1.0
100
AcDbArc
 50
180.0
 51
270.0
  0
ARC
  5
118B
330
CD0
100
AcDbEntity
  8
0
  6
Continuous
 62
     1
100
AcDbCircle
 10
276.4150000079999
 20
74.99999999599999
 30
0.0
 40
1.0
100
AcDbArc
 50
180.0
 51
270.0
  0
LINE
  5
118C
330
CD0
100
AcDbEntity
  8
0
  6
Continuous
 62
     1
100
AcDbLine
 10
276.4150000079999
 20
73.999999996
 30
0.0
 11
278.0000000079999
 21
73.999999996
 31
0.0
  0
LINE
  5
118D
330
CD0
100
AcDbEntity
  8
0
  6
Continuous
 62
     1
100
AcDbLine
 10
275.415000009
 20
92.999999996
 30
0.0
 11
275.415000008
 21
74.99999999599999
 31
0.0
  0
ARC
  5
118E
330
CD0
100
AcDbEntity
  8
0
  6
Continuous
 62
     1
100
AcDbCircle
 10
276.415000009
 20
92.999999996
 30
0.0
 40
1.0
100
AcDbArc
 50
90.0
 51
180.0
  0
LINE
  5
118F
330
CD0
100
AcDbEntity
  8
0
  6
Continuous
 62
     1
100
AcDbLine
 10
278.000000009
 20
93.999999996
 30
0.0
 11
276.415000009
 21
93.999999996
 31
0.0
  0
ARC
  5
1190
330
CD0
100
AcDbEntity
  8
0
  6
Continuous
 62
     1
100
AcDbCircle
 10
279.00000001
 20
106.999999996
 30
0.0
 40
1.0
100
AcDbArc
 50
90.0
 51
180.0
  0
ARC
  5
1191
330
CD0
100
AcDbEntity
  8
0
  6
Continuous
 62
     1
100
AcDbCircle
 10
371.0000000099998
 20
106.99999999
 30
0.0
 40
1.0
100
AcDbArc
 50
0.0
 51
90.0
  0
ARC
  5
1192
330
CD0
100
AcDbEntity
  8
0
  6
Continuous
 62
     1
100
AcDbCircle
 10
371.0000000069998
 20
60.99999999
 30
0.0
 40
1.0
100
AcDbArc
 50
270.0
 51
0.0
  0
ARC
  5
1193
330
CD0
100
AcDbEntity
  8
0
  6
Continuous
 62
     1
100
AcDbCircle
 10
356.4000000069999
 20
60.999999991
 30
0.0
 40
1.0
100
AcDbArc
 50
270.0
 51
0.0
  0
LINE
  5
1194
330
CD0
100
AcDbEntity
  8
0
  6
Continuous
 62
     1
100
AcDbLine
 10
279.000000007
 20
59.999999996
 30
0.0
 11
371.0000000069998
 21
59.99999998999999
 31
0.0
  0
LINE
  5
1195
330
CD0
100
AcDbEntity
  8
0
  6
Continuous
 62
     1
100
AcDbLine
 10
278.00000001
 20
106.999999996
 30
0.0
 11
278.0000000069998
 21
60.99999999600001
 31
0.0
  0
LINE
  5
1196
330
CD0
100
AcDbEntity
  8
0
  6
Continuous
 62
     1
100
AcDbLine
 10
368.50000001
 20
104.0499999899999
 30
0.0
 11
361.50000001
 21
104.0499999899999
 31
0.0
  0
ARC
  5
1197
330
CD0
100
AcDbEntity
  8
0
  6
Continuous
 62
     1
100
AcDbCircle
 10
356.40000001
 20
106.999999991
 30
0.0
 40
1.0
100
AcDbArc
 50
0.0
 51
90.0
  0
LINE
  5
1198
330
CD0
100
AcDbEntity
  8
0
  6
Continuous
 62
     1
100
AcDbLine
 10
357.4000000069996
 20
60.99999999
 30
0.0
 11
357.4000000099998
 21
106.99999999
 31
0.0
  0
LINE
  5
1199
330
CD0
100
AcDbEntity
  8
0
  6
Continuous
 62
     1
100
AcDbLine
 10
361.5000000069998
 20
63.94999999
 30
0.0
 11
368.500000007
 21
63.94999999
 31
0.0
  0
LINE
  5
119A
330
CD0
100
AcDbEntity
  8
0
  6
Continuous
 62
     1
100
AcDbLine
 10
358.9600000089999
 20
99.49999999
 30
0.0
 11
358.960000008
 21
68.49999999000001
 31
0.0
  0
LINE
  5
119B
330
CD0
100
AcDbEntity
  8
0
  6
Continuous
 62
     1
100
AcDbLine
 10
371.800000008
 20
68.499999989
 30
0.0
 11
371.800000009
 21
99.499999989
 31
0.0
  0
LINE
  5
119C
330
CD0
100
AcDbEntity
  8
0
  6
Continuous
 62
     1
100
AcDbLine
 10
372.0000000069998
 20
60.99999998899999
 30
0.0
 11
372.00000001
 21
106.999999989
 31
0.0
  0
ARC
  5
119D
330
CD0
100
AcDbEntity
  8
0
  6
Continuous
 62
     1
100
AcDbCircle
 10
293.6000000099998
 20
106.999999995
 30
0.0
 40
1.0
100
AcDbArc
 50
90.0
 51
180.0
  0
LINE
  5
119E
330
CD0
100
AcDbEntity
  8
0
  6
Continuous
 62
     1
100
AcDbLine
 10
371.0000000099998
 20
107.99999999
 30
0.0
 11
279.00000001
 21
107.999999996
 31
0.0
  0
LINE
  5
119F
330
CD0
100
AcDbEntity
  8
0
  6
Continuous
 62
     1
100
AcDbLine
 10
225.751119672
 20
107.9999999979998
 30
0.0
 11
225.751119669
 21
59.99999999799999
 31
0.0
  0
LINE
  5
11A0
330
CD0
100
AcDbEntity
  8
0
  6
Continuous
 62
     1
100
AcDbLine
 10
230.2511196709999
 20
94.19999999799999
 30
0.0
 11
225.7511196709999
 21
94.19999999799999
 31
0.0
  0
LINE
  5
11A1
330
CD0
100
AcDbEntity
  8
0
  6
Continuous
 62
     1
100
AcDbLine
 10
230.25111967
 20
73.799999998
 30
0.0
 11
230.2511196709999
 21
94.19999999799999
 31
0.0
  0
LINE
  5
11A2
330
CD0
100
AcDbEntity
  8
0
  6
Continuous
 62
     1
100
AcDbLine
 10
225.75111967
 20
73.799999998
 30
0.0
 11
230.25111967
 21
73.799999998
 31
0.0
  0
LINE
  5
11A3
330
CD0
100
AcDbEntity
  8
0
  6
Continuous
 62
     1
100
AcDbLine
 10
225.751119669
 20
59.99999999799999
 30
0.0
 11
265.551119669
 21
59.999999996
 31
0.0
  0
ARC
  5
11A4
330
CD0
100
AcDbEntity
  8
0
  6
Continuous
 62
     1
100
AcDbCircle
 10
242.151119672
 20
106.999999997
 30
0.0
 40
1.0
100
AcDbArc
 50
0.0
 51
90.0
  0
ARC
  5
11A5
330
CD0
100
AcDbEntity
  8
0
  6
Continuous
 62
     1
100
AcDbCircle
 10
265.551119672
 20
106.999999996
 30
0.0
 40
1.0
100
AcDbArc
 50
0.0
 51
90.0
  0
LINE
  5
11A6
330
CD0
100
AcDbEntity
  8
0
  6
Continuous
 62
     1
100
AcDbLine
 10
265.551119672
 20
107.999999996
 30
0.0
 11
225.751119672
 21
107.9999999979998
 31
0.0
  0
ARC
  5
11A7
330
CD0
100
AcDbEntity
  8
0
  6
Continuous
 62
     1
100
AcDbCircle
 10
265.551119669
 20
60.99999999600001
 30
0.0
 40
1.0
100
AcDbArc
 50
270.0
 51
0.0
  0
LINE
  5
11A8
330
CD0
100
AcDbEntity
  8
0
  6
Continuous
 62
     1
100
AcDbLine
 10
248.15111967
 20
68.75999999699999
 30
0.0
 11
252.0511196699999
 21
68.75999999699999
 31
0.0
  0
LINE
  5
11A9
330
CD0
100
AcDbEntity
  8
0
  6
Continuous
 62
     1
100
AcDbLine
 10
252.0511196699999
 20
68.75999999699999
 30
0.0
 11
259.5511196699998
 21
68.75999999600001
 31
0.0
  0
LINE
  5
11AA
330
CD0
100
AcDbEntity
  8
0
  6
Continuous
 62
     1
100
AcDbLine
 10
252.051119672
 20
99.23999999700001
 30
0.0
 11
252.0511196699999
 21
68.75999999699999
 31
0.0
  0
ARC
  5
11AB
330
CD0
100
AcDbEntity
  8
0
  6
Continuous
 62
     1
100
AcDbCircle
 10
242.151119669
 20
60.99999999699999
 30
0.0
 40
1.0
100
AcDbArc
 50
270.0
 51
0.0
  0
LINE
  5
11AC
330
CD0
100
AcDbEntity
  8
0
  6
Continuous
 62
     1
100
AcDbLine
 10
243.151119669
 20
60.99999999699999
 30
0.0
 11
243.151119672
 21
106.999999997
 31
0.0
  0
LINE
  5
11AD
330
CD0
100
AcDbEntity
  8
0
  6
Continuous
 62
     1
100
AcDbLine
 10
243.15111967
 20
66.99999999700001
 30
0.0
 11
247.65111967
 21
66.99999999700001
 31
0.0
  0
ARC
  5
11AE
330
CD0
100
AcDbEntity
  8
0
  6
Continuous
 62
     1
100
AcDbCircle
 10
247.65111967
 20
67.499999997
 30
0.0
 40
0.5
100
AcDbArc
 50
270.0
 51
0.0
  0
LINE
  5
11AF
330
CD0
100
AcDbEntity
  8
0
  6
Continuous
 62
     1
100
AcDbLine
 10
248.15111967
 20
67.499999997
 30
0.0
 11
248.15111967
 21
68.75999999699999
 31
0.0
  0
ARC
  5
11B0
330
CD0
100
AcDbEntity
  8
0
  6
Continuous
 62
     1
100
AcDbCircle
 10
244.65111967
 20
67.499999997
 30
0.0
 40
0.5
100
AcDbArc
 50
270.0
 51
0.0
  0
LINE
  5
11B1
330
CD0
100
AcDbEntity
  8
0
  6
Continuous
 62
     1
100
AcDbLine
 10
248.15111967
 20
68.75999999699999
 30
0.0
 11
245.15111967
 21
68.75999999699999
 31
0.0
  0
ARC
  5
11B2
330
CD0
100
AcDbEntity
  8
0
  6
Continuous
 62
     1
100
AcDbCircle
 10
244.65111967
 20
71.599999997
 30
0.0
 40
0.5
100
AcDbArc
 50
0.0
 51
90.0
  0
LINE
  5
11B3
330
CD0
100
AcDbEntity
  8
0
  6
Continuous
 62
     1
100
AcDbLine
 10
244.65111967
 20
72.09999999699999
 30
0.0
 11
243.15111967
 21
72.09999999699999
 31
0.0
  0
LINE
  5
11B4
330
CD0
100
AcDbEntity
  8
0
  6
Continuous
 62
     1
100
AcDbLine
 10
248.15111967
 20
72.25999999699999
 30
0.0
 11
243.15111967
 21
72.25999999699999
 31
0.0
  0
LINE
  5
11B5
330
CD0
100
AcDbEntity
  8
0
  6
Continuous
 62
     1
100
AcDbLine
 10
248.151119672
 20
99.23999999700001
 30
0.0
 11
248.15111967
 21
68.75999999699999
 31
0.0
  0
LINE
  5
11B6
330
CD0
100
AcDbEntity
  8
0
  6
Continuous
 62
     1
100
AcDbLine
 10
243.15111967
 20
73.89999999699999
 30
0.0
 11
244.65111967
 21
73.89999999699999
 31
0.0
  0
LINE
  5
11B7
330
CD0
100
AcDbEntity
  8
0
  6
Continuous
 62
     1
100
AcDbLine
 10
243.15111967
 20
73.75999999699999
 30
0.0
 11
248.15111967
 21
73.75999999699999
 31
0.0
  0
LINE
  5
11B8
330
CD0
100
AcDbEntity
  8
0
  6
Continuous
 62
     1
100
AcDbLine
 10
244.3511196709996
 20
81.499999997
 30
0.0
 11
244.3511196709996
 21
86.499999997
 31
0.0
  0
LINE
  5
11B9
330
CD0
100
AcDbEntity
  8
0
  6
Continuous
 62
     1
100
AcDbLine
 10
245.1511196709998
 20
81.499999997
 30
0.0
 11
244.3511196709996
 21
81.499999997
 31
0.0
  0
LINE
  5
11BA
330
CD0
100
AcDbEntity
  8
0
  6
Continuous
 62
     1
100
AcDbLine
 10
244.3511196709996
 20
86.499999997
 30
0.0
 11
245.1511196709998
 21
86.499999997
 31
0.0
  0
LINE
  5
11BB
330
CD0
100
AcDbEntity
  8
0
  6
Continuous
 62
     1
100
AcDbLine
 10
247.651119672
 20
101.499999997
 30
0.0
 11
243.151119672
 21
101.499999997
 31
0.0
  0
ARC
  5
11BC
330
CD0
100
AcDbEntity
  8
0
  6
Continuous
 62
     1
100
AcDbCircle
 10
247.651119672
 20
100.999999997
 30
0.0
 40
0.5
100
AcDbArc
 50
0.0
 51
90.0
  0
LINE
  5
11BD
330
CD0
100
AcDbEntity
  8
0
  6
Continuous
 62
     1
100
AcDbLine
 10
248.151119672
 20
99.23999999700001
 30
0.0
 11
248.151119672
 21
100.999999997
 31
0.0
  0
LINE
  5
11BE
330
CD0
100
AcDbEntity
  8
0
  6
Continuous
 62
     1
100
AcDbLine
 10
245.151119672
 20
99.23999999700001
 30
0.0
 11
248.151119672
 21
99.23999999700001
 31
0.0
  0
ARC
  5
11BF
330
CD0
100
AcDbEntity
  8
0
  6
Continuous
 62
     1
100
AcDbCircle
 10
244.651119672
 20
100.999999997
 30
0.0
 40
0.5
100
AcDbArc
 50
0.0
 51
90.0
  0
ARC
  5
11C0
330
CD0
100
AcDbEntity
  8
0
  6
Continuous
 62
     1
100
AcDbCircle
 10
244.6511196709998
 20
96.39999999700002
 30
0.0
 40
0.5
100
AcDbArc
 50
270.0
 51
0.0
  0
LINE
  5
11C1
330
CD0
100
AcDbEntity
  8
0
  6
Continuous
 62
     1
100
AcDbLine
 10
245.1511196709998
 20
95.73999999700001
 30
0.0
 11
245.151119672
 21
99.23999999700001
 31
0.0
  0
LINE
  5
11C2
330
CD0
100
AcDbEntity
  8
0
  6
Continuous
 62
     1
100
AcDbLine
 10
245.1511196709998
 20
96.39999999700002
 30
0.0
 11
245.151119672
 21
100.999999997
 31
0.0
  0
LINE
  5
11C3
330
CD0
100
AcDbEntity
  8
0
  6
Continuous
 62
     1
100
AcDbLine
 10
243.1511196709998
 20
95.89999999700001
 30
0.0
 11
244.6511196709998
 21
95.89999999700001
 31
0.0
  0
LINE
  5
11C4
330
CD0
100
AcDbEntity
  8
0
  6
Continuous
 62
     1
100
AcDbLine
 10
248.1511196709998
 20
95.73999999700001
 30
0.0
 11
243.1511196709998
 21
95.73999999700001
 31
0.0
  0
LINE
  5
11C5
330
CD0
100
AcDbEntity
  8
0
  6
Continuous
 62
     1
100
AcDbLine
 10
245.1511196709998
 20
86.499999997
 30
0.0
 11
245.1511196709998
 21
93.59999999700001
 31
0.0
  0
LINE
  5
11C6
330
CD0
100
AcDbEntity
  8
0
  6
Continuous
 62
     1
100
AcDbLine
 10
244.6511196709998
 20
94.09999999700001
 30
0.0
 11
243.1511196709998
 21
94.09999999700001
 31
0.0
  0
ARC
  5
11C7
330
CD0
100
AcDbEntity
  8
0
  6
Continuous
 62
     1
100
AcDbCircle
 10
244.6511196709998
 20
93.59999999700001
 30
0.0
 40
0.5
100
AcDbArc
 50
0.0
 51
90.0
  0
LINE
  5
11C8
330
CD0
100
AcDbEntity
  8
0
  6
Continuous
 62
     1
100
AcDbLine
 10
243.1511196709998
 20
94.23999999700001
 30
0.0
 11
248.1511196709998
 21
94.23999999700001
 31
0.0
  0
LINE
  5
11C9
330
CD0
100
AcDbEntity
  8
0
  6
Continuous
 62
     1
100
AcDbLine
 10
245.15111967
 20
74.39999999699999
 30
0.0
 11
245.1511196709998
 21
81.499999997
 31
0.0
  0
ARC
  5
11CA
330
CD0
100
AcDbEntity
  8
0
  6
Continuous
 62
     1
100
AcDbCircle
 10
244.65111967
 20
74.39999999699999
 30
0.0
 40
0.5
100
AcDbArc
 50
270.0
 51
0.0
  0
LINE
  5
11CB
330
CD0
100
AcDbEntity
  8
0
  6
Continuous
 62
     1
100
AcDbLine
 10
245.15111967
 20
73.75999999699999
 30
0.0
 11
245.1511196709998
 21
94.23999999700001
 31
0.0
  0
LINE
  5
11CC
330
CD0
100
AcDbEntity
  8
0
  6
Continuous
 62
     1
100
AcDbLine
 10
245.15111967
 20
68.75999999699999
 30
0.0
 11
245.15111967
 21
72.25999999699999
 31
0.0
  0
LINE
  5
11CD
330
CD0
100
AcDbEntity
  8
0
  6
Continuous
 62
     1
100
AcDbLine
 10
245.15111967
 20
67.499999997
 30
0.0
 11
245.15111967
 21
71.599999997
 31
0.0
  0
LINE
  5
11CE
330
CD0
100
AcDbEntity
  8
0
  6
Continuous
 62
     1
100
AcDbLine
 10
253.051119672
 20
98.699999997
 30
0.0
 11
253.051119671
 21
94.699999997
 31
0.0
  0
LINE
  5
11CF
330
CD0
100
AcDbEntity
  8
0
  6
Continuous
 62
     1
100
AcDbLine
 10
253.051119671
 20
94.699999997
 30
0.0
 11
258.5511196709999
 21
94.699999996
 31
0.0
  0
LINE
  5
11D0
330
CD0
100
AcDbEntity
  8
0
  6
Continuous
 62
     1
100
AcDbLine
 10
258.5511196709999
 20
93.619999996
 30
0.0
 11
253.051119671
 21
93.61999999700001
 31
0.0
  0
LINE
  5
11D1
330
CD0
100
AcDbEntity
  8
0
  6
Continuous
 62
     1
100
AcDbLine
 10
258.5511196709999
 20
94.699999996
 30
0.0
 11
258.551119672
 21
98.699999996
 31
0.0
  0
LINE
  5
11D2
330
CD0
100
AcDbEntity
  8
0
  6
Continuous
 62
     1
100
AcDbLine
 10
258.551119672
 20
98.699999996
 30
0.0
 11
253.051119672
 21
98.699999997
 31
0.0
  0
LINE
  5
11D3
330
CD0
100
AcDbEntity
  8
0
  6
Continuous
 62
     1
100
AcDbLine
 10
258.5511196709999
 20
89.61999999600001
 30
0.0
 11
258.5511196709999
 21
93.619999996
 31
0.0
  0
LINE
  5
11D4
330
CD0
100
AcDbEntity
  8
0
  6
Continuous
 62
     1
100
AcDbLine
 10
253.051119671
 20
89.61999999700001
 30
0.0
 11
258.5511196709999
 21
89.61999999600001
 31
0.0
  0
LINE
  5
11D5
330
CD0
100
AcDbEntity
  8
0
  6
Continuous
 62
     1
100
AcDbLine
 10
253.051119671
 20
93.61999999700001
 30
0.0
 11
253.051119671
 21
89.61999999700001
 31
0.0
  0
LINE
  5
11D6
330
CD0
100
AcDbEntity
  8
0
  6
Continuous
 62
     1
100
AcDbLine
 10
253.051119671
 20
88.53999999699999
 30
0.0
 11
253.051119671
 21
84.539999997
 31
0.0
  0
LINE
  5
11D7
330
CD0
100
AcDbEntity
  8
0
  6
Continuous
 62
     1
100
AcDbLine
 10
258.5511196709999
 20
88.539999996
 30
0.0
 11
253.051119671
 21
88.53999999699999
 31
0.0
  0
LINE
  5
11D8
330
CD0
100
AcDbEntity
  8
0
  6
Continuous
 62
     1
100
AcDbLine
 10
258.5511196709999
 20
84.539999996
 30
0.0
 11
258.5511196709999
 21
88.539999996
 31
0.0
  0
LINE
  5
11D9
330
CD0
100
AcDbEntity
  8
0
  6
Continuous
 62
     1
100
AcDbLine
 10
253.051119671
 20
84.539999997
 30
0.0
 11
258.5511196709999
 21
84.539999996
 31
0.0
  0
LINE
  5
11DA
330
CD0
100
AcDbEntity
  8
0
  6
Continuous
 62
     1
100
AcDbLine
 10
258.5511196709999
 20
83.45999999600001
 30
0.0
 11
253.051119671
 21
83.45999999699998
 31
0.0
  0
LINE
  5
11DB
330
CD0
100
AcDbEntity
  8
0
  6
Continuous
 62
     1
100
AcDbLine
 10
253.051119671
 20
83.45999999699998
 30
0.0
 11
253.05111967
 21
79.45999999699998
 31
0.0
  0
LINE
  5
11DC
330
CD0
100
AcDbEntity
  8
0
  6
Continuous
 62
     1
100
AcDbLine
 10
258.55111967
 20
79.45999999600001
 30
0.0
 11
258.5511196709999
 21
83.45999999600001
 31
0.0
  0
LINE
  5
11DD
330
CD0
100
AcDbEntity
  8
0
  6
Continuous
 62
     1
100
AcDbLine
 10
253.05111967
 20
79.45999999699998
 30
0.0
 11
258.55111967
 21
79.45999999600001
 31
0.0
  0
LINE
  5
11DE
330
CD0
100
AcDbEntity
  8
0
  6
Continuous
 62
     1
100
AcDbLine
 10
258.55111967
 20
78.37999999599998
 30
0.0
 11
253.05111967
 21
78.379999997
 31
0.0
  0
LINE
  5
11DF
330
CD0
100
AcDbEntity
  8
0
  6
Continuous
 62
     1
100
AcDbLine
 10
258.55111967
 20
74.37999999600001
 30
0.0
 11
258.55111967
 21
78.37999999599998
 31
0.0
  0
LINE
  5
11E0
330
CD0
100
AcDbEntity
  8
0
  6
Continuous
 62
     1
100
AcDbLine
 10
253.05111967
 20
78.379999997
 30
0.0
 11
253.05111967
 21
74.379999997
 31
0.0
  0
LINE
  5
11E1
330
CD0
100
AcDbEntity
  8
0
  6
Continuous
 62
     1
100
AcDbLine
 10
258.55111967
 20
73.29999999599998
 30
0.0
 11
253.05111967
 21
73.299999997
 31
0.0
  0
LINE
  5
11E2
330
CD0
100
AcDbEntity
  8
0
  6
Continuous
 62
     1
100
AcDbLine
 10
253.05111967
 20
74.379999997
 30
0.0
 11
258.55111967
 21
74.37999999600001
 31
0.0
  0
LINE
  5
11E3
330
CD0
100
AcDbEntity
  8
0
  6
Continuous
 62
     1
100
AcDbLine
 10
258.55111967
 20
69.29999999599999
 30
0.0
 11
258.55111967
 21
73.29999999599998
 31
0.0
  0
LINE
  5
11E4
330
CD0
100
AcDbEntity
  8
0
  6
Continuous
 62
     1
100
AcDbLine
 10
253.05111967
 20
69.299999997
 30
0.0
 11
258.55111967
 21
69.29999999599999
 31
0.0
  0
LINE
  5
11E5
330
CD0
100
AcDbEntity
  8
0
  6
Continuous
 62
     1
100
AcDbLine
 10
253.05111967
 20
73.299999997
 30
0.0
 11
253.05111967
 21
69.299999997
 31
0.0
  0
LINE
  5
11E6
330
CD0
100
AcDbEntity
  8
0
  6
Continuous
 62
     1
100
AcDbLine
 10
359.910000009
 20
100.99999999
 30
0.0
 11
357.4000000099998
 21
100.99999999
 31
0.0
  0
LINE
  5
11E7
330
CD0
100
AcDbEntity
  8
0
  6
Continuous
 62
     1
100
AcDbLine
 10
368.50000001
 20
102.8765217289999
 30
0.0
 11
368.50000001
 21
104.0499999899999
 31
0.0
  0
LINE
  5
11E8
330
CD0
100
AcDbEntity
  8
0
  6
Continuous
 62
     1
100
AcDbLine
 10
361.50000001
 20
104.0499999899999
 30
0.0
 11
361.50000001
 21
103.180869555
 31
0.0
  0
LINE
  5
11E9
330
CD0
100
AcDbEntity
  8
0
  6
Continuous
 62
     1
100
AcDbLine
 10
359.910000009
 20
99.49999999
 30
0.0
 11
358.9600000089999
 21
99.49999999
 31
0.0
  0
LINE
  5
11EA
330
CD0
100
AcDbEntity
  8
0
  6
Continuous
 62
     1
100
AcDbLine
 10
358.960000008
 20
68.49999999000001
 30
0.0
 11
359.910000008
 21
68.49999999000001
 31
0.0
  0
LINE
  5
11EB
330
CD0
100
AcDbEntity
  8
0
  6
Continuous
 62
     1
100
AcDbLine
 10
359.910000008
 20
66.99999999
 30
0.0
 11
357.4000000069996
 21
66.99999999
 31
0.0
  0
LINE
  5
11EC
330
CD0
100
AcDbEntity
  8
0
  6
Continuous
 62
     1
100
AcDbLine
 10
361.5000000069998
 20
64.81913042399999
 30
0.0
 11
361.5000000069998
 21
63.94999999
 31
0.0
  0
LINE
  5
11ED
330
CD0
100
AcDbEntity
  8
0
  6
Continuous
 62
     1
100
AcDbLine
 10
368.500000007
 20
63.94999999
 30
0.0
 11
368.500000007
 21
65.12347825
 31
0.0
  0
LINE
  5
11EE
330
CD0
100
AcDbEntity
  8
0
  6
Continuous
 62
     1
100
AcDbLine
 10
371.410000008
 20
68.499999989
 30
0.0
 11
371.800000008
 21
68.499999989
 31
0.0
  0
LINE
  5
11EF
330
CD0
100
AcDbEntity
  8
0
  6
Continuous
 62
     1
100
AcDbLine
 10
371.800000009
 20
99.499999989
 30
0.0
 11
371.410000009
 21
99.499999989
 31
0.0
  0
LINE
  5
11F0
330
CD0
100
AcDbEntity
  8
0
  6
Continuous
 62
     3
100
AcDbLine
 10
287.50000001
 20
104.049999992
 30
0.0
 11
287.50000001
 21
103.049999992
 31
0.0
  0
LINE
  5
11F1
330
CD0
100
AcDbEntity
  8
0
  6
Continuous
 62
     3
100
AcDbLine
 10
287.50000001
 20
103.049999992
 30
0.0
 11
282.50000001
 21
103.049999991
 31
0.0
  0
LINE
  5
11F2
330
CD0
100
AcDbEntity
  8
0
  6
Continuous
 62
     3
100
AcDbLine
 10
282.50000001
 20
103.049999991
 30
0.0
 11
282.50000001
 21
104.049999991
 31
0.0
  0
LINE
  5
11F3
330
CD0
100
AcDbEntity
  8
0
  6
Continuous
 62
     3
100
AcDbLine
 10
287.500000011
 20
64.949999992
 30
0.0
 11
287.500000011
 21
63.94999999199999
 31
0.0
  0
LINE
  5
11F4
330
CD0
100
AcDbEntity
  8
0
  6
Continuous
 62
     3
100
AcDbLine
 10
282.500000011
 20
64.949999991
 30
0.0
 11
287.500000011
 21
64.949999992
 31
0.0
  0
LINE
  5
11F5
330
CD0
100
AcDbEntity
  8
0
  6
Continuous
 62
     3
100
AcDbLine
 10
282.500000011
 20
63.94999999100001
 30
0.0
 11
282.500000011
 21
64.949999991
 31
0.0
  0
LINE
  5
11F6
330
CD0
100
AcDbEntity
  8
0
  6
Continuous
 62
     1
100
AcDbLine
 10
281.5000000099999
 20
104.049999991
 30
0.0
 11
288.50000001
 21
104.049999992
 31
0.0
  0
LINE
  5
11F7
330
CD0
100
AcDbEntity
  8
0
  6
Continuous
 62
     1
100
AcDbLine
 10
288.500000011
 20
63.94999999199999
 30
0.0
 11
281.500000011
 21
63.94999999100001
 31
0.0
  0
LINE
  5
11F8
330
CD0
100
AcDbEntity
  8
0
  6
Continuous
 62
     1
100
AcDbLine
 10
291.0400000109996
 20
99.49999999200002
 30
0.0
 11
291.0400000109996
 21
68.499999992
 31
0.0
  0
LINE
  5
11F9
330
CD0
100
AcDbEntity
  8
0
  6
Continuous
 62
     1
100
AcDbLine
 10
278.200000011
 20
68.49999999100001
 30
0.0
 11
278.200000011
 21
99.499999991
 31
0.0
  0
LINE
  5
11FA
330
CD0
100
AcDbEntity
  8
0
  6
Continuous
 62
     1
100
AcDbLine
 10
290.0900000109998
 20
100.999999992
 30
0.0
 11
292.6000000099998
 21
100.999999992
 31
0.0
  0
LINE
  5
11FB
330
CD0
100
AcDbEntity
  8
0
  6
Continuous
 62
     1
100
AcDbLine
 10
281.5000000099999
 20
102.8765217299997
 30
0.0
 11
281.5000000099999
 21
104.049999991
 31
0.0
  0
LINE
  5
11FC
330
CD0
100
AcDbEntity
  8
0
  6
Continuous
 62
     1
100
AcDbLine
 10
288.50000001
 20
104.049999992
 30
0.0
 11
288.50000001
 21
103.180869556
 31
0.0
  0
LINE
  5
11FD
330
CD0
100
AcDbEntity
  8
0
  6
Continuous
 62
     1
100
AcDbLine
 10
290.0900000109998
 20
99.49999999200002
 30
0.0
 11
291.0400000109996
 21
99.49999999200002
 31
0.0
  0
LINE
  5
11FE
330
CD0
100
AcDbEntity
  8
0
  6
Continuous
 62
     1
100
AcDbLine
 10
291.0400000109996
 20
68.499999992
 30
0.0
 11
290.0900000109998
 21
68.499999992
 31
0.0
  0
LINE
  5
11FF
330
CD0
100
AcDbEntity
  8
0
  6
Continuous
 62
     1
100
AcDbLine
 10
290.0900000109998
 20
66.999999992
 30
0.0
 11
292.6000000109998
 21
66.999999992
 31
0.0
  0
LINE
  5
1200
330
CD0
100
AcDbEntity
  8
0
  6
Continuous
 62
     1
100
AcDbLine
 10
288.500000011
 20
64.819130426
 30
0.0
 11
288.500000011
 21
63.94999999199999
 31
0.0
  0
LINE
  5
1201
330
CD0
100
AcDbEntity
  8
0
  6
Continuous
 62
     1
100
AcDbLine
 10
281.500000011
 20
63.94999999100001
 30
0.0
 11
281.500000011
 21
65.12347825199999
 31
0.0
  0
LINE
  5
1202
330
CD0
100
AcDbEntity
  8
0
  6
Continuous
 62
     1
100
AcDbLine
 10
278.5900000109999
 20
68.49999999100001
 30
0.0
 11
278.200000011
 21
68.49999999100001
 31
0.0
  0
LINE
  5
1203
330
CD0
100
AcDbEntity
  8
0
  6
Continuous
 62
     1
100
AcDbLine
 10
278.200000011
 20
99.499999991
 30
0.0
 11
278.5900000109999
 21
99.499999991
 31
0.0
  0
LINE
  5
1204
330
CD0
100
AcDbEntity
  8
0
  6
Continuous
 62
     1
100
AcDbLine
 10
290.0900000109998
 20
64.74999999100001
 30
0.0
 11
280.0248441739999
 21
65.187615462
 31
0.0
  0
LINE
  5
1205
330
CD0
100
AcDbEntity
  8
0
  6
Continuous
 62
     1
100
AcDbLine
 10
290.0900000109998
 20
103.249999991
 30
0.0
 11
290.0900000109998
 21
64.74999999100001
 31
0.0
  0
LINE
  5
1206
330
CD0
100
AcDbEntity
  8
0
  6
Continuous
 62
     1
100
AcDbLine
 10
278.5900000109999
 20
101.3138002829998
 30
0.0
 11
278.5900000109999
 21
66.6861997
 31
0.0
  0
ARC
  5
1207
330
CD0
100
AcDbEntity
  8
0
  6
Continuous
 62
     1
100
AcDbCircle
 10
280.0900000109999
 20
66.6861997
 30
0.0
 40
1.5
100
AcDbArc
 50
180.0
 51
267.510447079
  0
LINE
  5
1208
330
CD0
100
AcDbEntity
  8
0
  6
Continuous
 62
     1
100
AcDbLine
 10
290.0900000109998
 20
103.249999991
 30
0.0
 11
280.0248441749999
 21
102.8123845199999
 31
0.0
  0
ARC
  5
1209
330
CD0
100
AcDbEntity
  8
0
  6
Continuous
 62
     1
100
AcDbCircle
 10
280.0900000109999
 20
101.3138002829998
 30
0.0
 40
1.5
100
AcDbArc
 50
92.48955292199999
 51
180.0
  0
LINE
  5
120A
330
CD0
100
AcDbEntity
  8
0
  6
Continuous
 62
     1
100
AcDbLine
 10
359.910000009
 20
103.24999999
 30
0.0
 11
369.975155845
 21
102.8123845179998
 31
0.0
  0
ARC
  5
120B
330
CD0
100
AcDbEntity
  8
0
  6
Continuous
 62
     1
100
AcDbCircle
 10
369.910000009
 20
101.313800281
 30
0.0
 40
1.5
100
AcDbArc
 50
0.0
 51
87.510447078
  0
LINE
  5
120C
330
CD0
100
AcDbEntity
  8
0
  6
Continuous
 62
     1
100
AcDbLine
 10
359.910000009
 20
103.24999999
 30
0.0
 11
359.910000008
 21
64.74999999000001
 31
0.0
  0
LINE
  5
120D
330
CD0
100
AcDbEntity
  8
0
  6
Continuous
 62
     1
100
AcDbLine
 10
371.410000009
 20
101.313800281
 30
0.0
 11
371.410000008
 21
66.68619969799999
 31
0.0
  0
LINE
  5
120E
330
CD0
100
AcDbEntity
  8
0
  6
Continuous
 62
     1
100
AcDbLine
 10
359.910000008
 20
64.74999999000001
 30
0.0
 11
369.975155844
 21
65.18761546100001
 31
0.0
  0
ARC
  5
120F
330
CD0
100
AcDbEntity
  8
0
  6
Continuous
 62
     1
100
AcDbCircle
 10
369.910000008
 20
66.68619969799999
 30
0.0
 40
1.5
100
AcDbArc
 50
272.4895529209999
 51
0.0
  0
LINE
  5
1210
330
CD0
100
AcDbEntity
  8
0
  6
Continuous
 62
     3
100
AcDbLine
 10
267.65111967
 20
66.749999996
 30
0.0
 11
267.6511196709999
 21
83.94999999600001
 31
0.0
  0
ARC
  5
1211
330
CD0
100
AcDbEntity
  8
0
  6
Continuous
 62
     3
100
AcDbCircle
 10
266.15111967
 20
66.749999996
 30
0.0
 40
1.5
100
AcDbArc
 50
270.0
 51
0.0
  0
LINE
  5
1212
330
CD0
100
AcDbEntity
  8
0
  6
Continuous
 62
     3
100
AcDbLine
 10
267.6511196709999
 20
101.249998647
 30
0.0
 11
267.6511196709999
 21
84.04999999599999
 31
0.0
  0
ARC
  5
1213
330
CD0
100
AcDbEntity
  8
0
  6
Continuous
 62
     3
100
AcDbCircle
 10
266.151119671
 20
101.2499999959999
 30
0.0
 40
1.5
100
AcDbArc
 50
359.999948484
 51
90.0
  0
LINE
  5
1214
330
CD0
100
AcDbEntity
  8
0
  6
Continuous
 62
     3
100
AcDbLine
 10
243.15111967
 20
65.249999996
 30
0.0
 11
266.15111967
 21
65.249999996
 31
0.0
  0
ARC
  5
1215
330
CD0
100
AcDbEntity
  8
0
  6
Continuous
 62
     3
100
AcDbCircle
 10
266.151119671
 20
101.2499999959999
 30
0.0
 40
1.5
100
AcDbArc
 50
359.999948484
 51
90.0
  0
LINE
  5
1216
330
CD0
100
AcDbEntity
  8
0
  6
Continuous
 62
     3
100
AcDbLine
 10
243.151119672
 20
102.749999996
 30
0.0
 11
266.151119671
 21
102.749999996
 31
0.0
  0
LINE
  5
1217
330
CD0
100
AcDbEntity
  8
0
  6
Continuous
 62
     1
100
AcDbLine
 10
259.5511196699998
 20
68.75999999600001
 30
0.0
 11
260.646055578
 21
68.75999999600001
 31
0.0
  0
LINE
  5
1218
330
CD0
100
AcDbEntity
  8
0
  6
Continuous
 62
     3
100
AcDbLine
 10
259.5511196699998
 20
69.25999999600001
 30
0.0
 11
260.65111967
 21
69.25999999600001
 31
0.0
  0
LINE
  5
1219
330
CD0
100
AcDbEntity
  8
0
  6
Continuous
 62
     3
100
AcDbLine
 10
260.651119671
 20
98.73999999600002
 30
0.0
 11
259.551119672
 21
98.73999999600002
 31
0.0
  0
LINE
  5
121A
330
CD0
100
AcDbEntity
  8
0
  6
Continuous
 62
     1
100
AcDbLine
 10
260.651119671
 20
99.23999999600004
 30
0.0
 11
248.151119672
 21
99.23999999700001
 31
0.0
  0
LINE
  5
121B
330
CD0
100
AcDbEntity
  8
0
  6
Continuous
 62
     1
100
AcDbLine
 10
266.551119672
 20
103.186491669
 30
0.0
 11
266.551119672
 21
106.999999996
 31
0.0
  0
LINE
  5
121C
330
CD0
100
AcDbEntity
  8
0
  6
Continuous
 62
     1
100
AcDbLine
 10
266.551119669
 20
60.99999999600001
 30
0.0
 11
266.5511196699998
 21
64.81350832300001
 31
0.0
  0
LINE
  5
121D
330
CD0
100
AcDbEntity
  8
0
  6
Continuous
 62
     1
100
AcDbLine
 10
243.15111967
 20
64.749999996
 30
0.0
 11
266.0511196699999
 21
64.749999996
 31
0.0
  0
LINE
  5
121E
330
CD0
100
AcDbEntity
  8
0
  6
Continuous
 62
     1
100
AcDbLine
 10
249.15111967
 20
66.310982018
 30
0.0
 11
249.15111967
 21
65.249999996
 31
0.0
  0
LINE
  5
121F
330
CD0
100
AcDbEntity
  8
0
  6
Continuous
 62
     1
100
AcDbLine
 10
243.15111967
 20
66.24999999599999
 30
0.0
 11
249.15111967
 21
66.24999999599999
 31
0.0
  0
ARC
  5
1220
330
CD0
100
AcDbEntity
  8
0
  6
Continuous
 62
     1
100
AcDbCircle
 10
249.65111967
 20
66.310982018
 30
0.0
 40
0.5
100
AcDbArc
 50
97.43140797100005
 51
180.0
  0
ARC
  5
1221
330
CD0
100
AcDbEntity
  8
0
  6
Continuous
 62
     1
100
AcDbCircle
 10
266.0511196699999
 20
66.749999996
 30
0.0
 40
2.0
100
AcDbArc
 50
270.0
 51
0.0
  0
LINE
  5
1222
330
CD0
100
AcDbEntity
  8
0
  6
Continuous
 62
     1
100
AcDbLine
 10
268.0511196699999
 20
66.749999996
 30
0.0
 11
268.0511196709999
 21
83.99226694499999
 31
0.0
  0
LINE
  5
1223
330
CD0
100
AcDbEntity
  8
0
  6
Continuous
 62
     1
100
AcDbLine
 10
260.65111967
 20
68.68901797399999
 30
0.0
 11
260.651119671
 21
83.999999996
 31
0.0
  0
ARC
  5
1224
330
CD0
100
AcDbEntity
  8
0
  6
Continuous
 62
     1
100
AcDbCircle
 10
260.15111967
 20
68.68901797399999
 30
0.0
 40
0.5
100
AcDbArc
 50
277.4314079709997
 51
0.0
  0
LINE
  5
1225
330
CD0
100
AcDbEntity
  8
0
  6
Continuous
 62
     1
100
AcDbLine
 10
260.2157892619998
 20
68.193217769
 30
0.0
 11
249.5864500779999
 21
66.806782223
 31
0.0
  0
LINE
  5
1226
330
CD0
100
AcDbEntity
  8
0
  6
Continuous
 62
     1
100
AcDbLine
 10
260.651119671
 20
99.31098085000002
 30
0.0
 11
260.651119671
 21
83.999999996
 31
0.0
  0
LINE
  5
1227
330
CD0
100
AcDbEntity
  8
0
  6
Continuous
 62
     1
100
AcDbLine
 10
268.0511196709999
 20
101.249999042
 30
0.0
 11
268.0511196709999
 21
84.00773304700001
 31
0.0
  0
LINE
  5
1228
330
CD0
100
AcDbEntity
  8
0
  6
Continuous
 62
     1
100
AcDbLine
 10
260.2157892629999
 20
99.80678222299999
 30
0.0
 11
249.586450079
 21
101.193217769
 31
0.0
  0
ARC
  5
1229
330
CD0
100
AcDbEntity
  8
0
  6
Continuous
 62
     1
100
AcDbCircle
 10
260.151119671
 20
99.31098201799999
 30
0.0
 40
0.5
100
AcDbArc
 50
359.999866156
 51
82.56859202900001
  0
ARC
  5
122A
330
CD0
100
AcDbEntity
  8
0
  6
Continuous
 62
     1
100
AcDbCircle
 10
266.0511196709999
 20
101.2499999959999
 30
0.0
 40
2.0
100
AcDbArc
 50
359.99997268
 51
90.0
  0
ARC
  5
122B
330
CD0
100
AcDbEntity
  8
0
  6
Continuous
 62
     1
100
AcDbCircle
 10
266.0511196709999
 20
101.2499999959999
 30
0.0
 40
2.0
100
AcDbArc
 50
359.99997268
 51
90.0
  0
LINE
  5
122C
330
CD0
100
AcDbEntity
  8
0
  6
Continuous
 62
     1
100
AcDbLine
 10
243.1511196709998
 20
103.2499999959999
 30
0.0
 11
266.0511196709999
 21
103.2499999959999
 31
0.0
  0
LINE
  5
122D
330
CD0
100
AcDbEntity
  8
0
  6
Continuous
 62
     1
100
AcDbLine
 10
249.1511196709998
 20
101.689017975
 30
0.0
 11
249.1511196709998
 21
102.749999996
 31
0.0
  0
ARC
  5
122E
330
CD0
100
AcDbEntity
  8
0
  6
Continuous
 62
     1
100
AcDbCircle
 10
249.6511196709997
 20
101.689017975
 30
0.0
 40
0.5
100
AcDbArc
 50
180.0
 51
262.568592029
  0
LINE
  5
122F
330
CD0
100
AcDbEntity
  8
0
  6
Continuous
 62
     1
100
AcDbLine
 10
243.151119672
 20
101.749999996
 30
0.0
 11
249.1511196709998
 21
101.749999996
 31
0.0
  0
LINE
  5
1230
330
CD0
100
AcDbEntity
  8
0
  6
Continuous
 62
     3
100
AcDbLine
 10
205.4490011239998
 20
254.837145884
 30
0.0
 11
205.4490011239998
 21
253.1635185929999
 31
0.0
  0
LINE
  5
1231
330
CD0
100
AcDbEntity
  8
0
  6
Continuous
 62
     3
100
AcDbLine
 10
215.250242373
 20
253.2500887359999
 30
0.0
 11
203.4490011239998
 21
253.1453663229999
 31
0.0
  0
LINE
  5
1232
330
CD0
100
AcDbEntity
  8
0
  6
Continuous
 62
     3
100
AcDbLine
 10
203.4490011239998
 20
254.8546336729998
 30
0.0
 11
215.250242373
 21
254.749911259
 31
0.0
  0
LINE
  5
1233
330
CD0
100
AcDbEntity
  8
0
  6
Continuous
 62
     3
100
AcDbLine
 10
215.250242373
 20
254.7499999969998
 30
0.0
 11
215.250242373
 21
253.249999997
 31
0.0
  0
LINE
  5
1234
330
CD0
100
AcDbEntity
  8
0
  6
Continuous
 62
     3
100
AcDbLine
 10
205.4490011239998
 20
251.337145884
 30
0.0
 11
205.4490011239998
 21
249.6635185929999
 31
0.0
  0
LINE
  5
1235
330
CD0
100
AcDbEntity
  8
0
  6
Continuous
 62
     3
100
AcDbLine
 10
215.250242373
 20
249.7500887359996
 30
0.0
 11
203.4490011239998
 21
249.645366323
 31
0.0
  0
LINE
  5
1236
330
CD0
100
AcDbEntity
  8
0
  6
Continuous
 62
     3
100
AcDbLine
 10
203.4490011239998
 20
251.354633673
 30
0.0
 11
215.250242373
 21
251.249911259
 31
0.0
  0
LINE
  5
1237
330
CD0
100
AcDbEntity
  8
0
  6
Continuous
 62
     3
100
AcDbLine
 10
215.250242373
 20
251.249999997
 30
0.0
 11
215.250242373
 21
249.749999997
 31
0.0
  0
LINE
  5
1238
330
CD0
100
AcDbEntity
  8
0
  6
Continuous
 62
     3
100
AcDbLine
 10
205.4490011219999
 20
212.837145884
 30
0.0
 11
205.4490011219999
 21
211.1635185929999
 31
0.0
  0
LINE
  5
1239
330
CD0
100
AcDbEntity
  8
0
  6
Continuous
 62
     3
100
AcDbLine
 10
215.250242372
 20
211.2500887359999
 30
0.0
 11
203.4490011219999
 21
211.1453663229996
 31
0.0
  0
LINE
  5
123A
330
CD0
100
AcDbEntity
  8
0
  6
Continuous
 62
     3
100
AcDbLine
 10
203.4490011219999
 20
212.8546336729999
 30
0.0
 11
215.250242372
 21
212.749911259
 31
0.0
  0
LINE
  5
123B
330
CD0
100
AcDbEntity
  8
0
  6
Continuous
 62
     3
100
AcDbLine
 10
215.250242372
 20
212.7499999969999
 30
0.0
 11
215.250242372
 21
211.249999997
 31
0.0
  0
LINE
  5
123C
330
CD0
100
AcDbEntity
  8
0
  6
Continuous
 62
     3
100
AcDbLine
 10
205.4490011219999
 20
216.337145884
 30
0.0
 11
205.4490011219999
 21
214.663518593
 31
0.0
  0
LINE
  5
123D
330
CD0
100
AcDbEntity
  8
0
  6
Continuous
 62
     3
100
AcDbLine
 10
215.250242372
 20
214.7500887359999
 30
0.0
 11
203.4490011219999
 21
214.6453663229999
 31
0.0
  0
LINE
  5
123E
330
CD0
100
AcDbEntity
  8
0
  6
Continuous
 62
     3
100
AcDbLine
 10
203.4490011219999
 20
216.354633673
 30
0.0
 11
215.250242372
 21
216.249911259
 31
0.0
  0
LINE
  5
123F
330
CD0
100
AcDbEntity
  8
0
  6
Continuous
 62
     3
100
AcDbLine
 10
215.250242372
 20
216.249999997
 30
0.0
 11
215.250242372
 21
214.7499999969999
 31
0.0
  0
LINE
  5
1240
330
CD0
100
AcDbEntity
  8
0
  6
Continuous
 62
     3
100
AcDbLine
 10
226.849001124
 20
244.739999997
 30
0.0
 11
226.849001124
 21
243.239999997
 31
0.0
  0
LINE
  5
1241
330
CD0
100
AcDbEntity
  8
0
  6
Continuous
 62
     3
100
AcDbLine
 10
226.8490011229999
 20
221.259999997
 30
0.0
 11
226.8490011229999
 21
222.7599999969998
 31
0.0
  0
LINE
  5
1242
330
CD0
100
AcDbEntity
  8
0
  6
Continuous
 62
     3
100
AcDbLine
 10
223.3490011229999
 20
221.259999997
 30
0.0
 11
223.349001122
 21
217.7599999969998
 31
0.0
  0
LINE
  5
1243
330
CD0
100
AcDbEntity
  8
0
  6
Continuous
 62
     3
100
AcDbLine
 10
223.349001124
 20
243.239999997
 30
0.0
 11
223.3490011229999
 21
222.7599999969998
 31
0.0
  0
LINE
  5
1244
330
CD0
100
AcDbEntity
  8
0
  6
Continuous
 62
     3
100
AcDbLine
 10
223.349001124
 20
248.239999997
 30
0.0
 11
223.349001124
 21
244.739999997
 31
0.0
  0
LINE
  5
1245
330
CD0
100
AcDbEntity
  8
0
  6
Continuous
 62
     3
100
AcDbLine
 10
215.699001122
 20
218.799999997
 30
0.0
 11
215.699001123
 21
221.799999997
 31
0.0
  0
LINE
  5
1246
330
CD0
100
AcDbEntity
  8
0
  6
Continuous
 62
     3
100
AcDbLine
 10
215.699001123
 20
221.799999997
 30
0.0
 11
212.6990011229996
 21
221.799999997
 31
0.0
  0
LINE
  5
1247
330
CD0
100
AcDbEntity
  8
0
  6
Continuous
 62
     3
100
AcDbLine
 10
212.6990011229996
 20
221.799999997
 30
0.0
 11
212.699001122
 21
218.799999997
 31
0.0
  0
LINE
  5
1248
330
CD0
100
AcDbEntity
  8
0
  6
Continuous
 62
     3
100
AcDbLine
 10
212.699001122
 20
218.799999997
 30
0.0
 11
215.699001122
 21
218.799999997
 31
0.0
  0
LINE
  5
1249
330
CD0
100
AcDbEntity
  8
0
  6
Continuous
 62
     3
100
AcDbLine
 10
215.699001122
 20
218.799999997
 30
0.0
 11
216.949001122
 21
218.299999997
 31
0.0
  0
LINE
  5
124A
330
CD0
100
AcDbEntity
  8
0
  6
Continuous
 62
     3
100
AcDbLine
 10
216.9490011229999
 20
222.299999997
 30
0.0
 11
215.699001123
 21
221.799999997
 31
0.0
  0
LINE
  5
124B
330
CD0
100
AcDbEntity
  8
0
  6
Continuous
 62
     3
100
AcDbLine
 10
212.6990011229996
 20
221.799999997
 30
0.0
 11
211.449001123
 21
222.299999997
 31
0.0
  0
LINE
  5
124C
330
CD0
100
AcDbEntity
  8
0
  6
Continuous
 62
     3
100
AcDbLine
 10
212.699001122
 20
218.799999997
 30
0.0
 11
211.449001122
 21
218.299999997
 31
0.0
  0
LINE
  5
124D
330
CD0
100
AcDbEntity
  8
0
  6
Continuous
 62
     3
100
AcDbLine
 10
215.699001123
 20
223.8799999969999
 30
0.0
 11
215.699001123
 21
226.879999997
 31
0.0
  0
LINE
  5
124E
330
CD0
100
AcDbEntity
  8
0
  6
Continuous
 62
     3
100
AcDbLine
 10
215.699001123
 20
226.879999997
 30
0.0
 11
212.6990011229996
 21
226.879999997
 31
0.0
  0
LINE
  5
124F
330
CD0
100
AcDbEntity
  8
0
  6
Continuous
 62
     3
100
AcDbLine
 10
212.6990011229996
 20
226.879999997
 30
0.0
 11
212.6990011229996
 21
223.8799999969999
 31
0.0
  0
LINE
  5
1250
330
CD0
100
AcDbEntity
  8
0
  6
Continuous
 62
     3
100
AcDbLine
 10
212.6990011229996
 20
223.8799999969999
 30
0.0
 11
215.699001123
 21
223.8799999969999
 31
0.0
  0
LINE
  5
1251
330
CD0
100
AcDbEntity
  8
0
  6
Continuous
 62
     3
100
AcDbLine
 10
215.699001123
 20
223.8799999969999
 30
0.0
 11
216.9490011229999
 21
223.379999997
 31
0.0
  0
LINE
  5
1252
330
CD0
100
AcDbEntity
  8
0
  6
Continuous
 62
     3
100
AcDbLine
 10
216.9490011229999
 20
227.379999997
 30
0.0
 11
215.699001123
 21
226.879999997
 31
0.0
  0
LINE
  5
1253
330
CD0
100
AcDbEntity
  8
0
  6
Continuous
 62
     3
100
AcDbLine
 10
212.6990011229996
 20
226.879999997
 30
0.0
 11
211.449001123
 21
227.379999997
 31
0.0
  0
LINE
  5
1254
330
CD0
100
AcDbEntity
  8
0
  6
Continuous
 62
     3
100
AcDbLine
 10
212.6990011229996
 20
223.8799999969999
 30
0.0
 11
211.449001123
 21
223.379999997
 31
0.0
  0
LINE
  5
1255
330
CD0
100
AcDbEntity
  8
0
  6
Continuous
 62
     3
100
AcDbLine
 10
215.699001123
 20
228.959999997
 30
0.0
 11
215.699001123
 21
231.959999997
 31
0.0
  0
LINE
  5
1256
330
CD0
100
AcDbEntity
  8
0
  6
Continuous
 62
     3
100
AcDbLine
 10
215.699001123
 20
231.959999997
 30
0.0
 11
212.6990011229996
 21
231.959999997
 31
0.0
  0
LINE
  5
1257
330
CD0
100
AcDbEntity
  8
0
  6
Continuous
 62
     3
100
AcDbLine
 10
212.6990011229996
 20
231.959999997
 30
0.0
 11
212.6990011229996
 21
228.959999997
 31
0.0
  0
LINE
  5
1258
330
CD0
100
AcDbEntity
  8
0
  6
Continuous
 62
     3
100
AcDbLine
 10
212.6990011229996
 20
228.959999997
 30
0.0
 11
215.699001123
 21
228.959999997
 31
0.0
  0
LINE
  5
1259
330
CD0
100
AcDbEntity
  8
0
  6
Continuous
 62
     3
100
AcDbLine
 10
215.699001123
 20
228.959999997
 30
0.0
 11
216.9490011229999
 21
228.459999997
 31
0.0
  0
LINE
  5
125A
330
CD0
100
AcDbEntity
  8
0
  6
Continuous
 62
     3
100
AcDbLine
 10
216.9490011229999
 20
232.459999997
 30
0.0
 11
215.699001123
 21
231.959999997
 31
0.0
  0
LINE
  5
125B
330
CD0
100
AcDbEntity
  8
0
  6
Continuous
 62
     3
100
AcDbLine
 10
212.6990011229996
 20
231.959999997
 30
0.0
 11
211.449001123
 21
232.459999997
 31
0.0
  0
LINE
  5
125C
330
CD0
100
AcDbEntity
  8
0
  6
Continuous
 62
     3
100
AcDbLine
 10
212.6990011229996
 20
228.959999997
 30
0.0
 11
211.449001123
 21
228.459999997
 31
0.0
  0
LINE
  5
125D
330
CD0
100
AcDbEntity
  8
0
  6
Continuous
 62
     3
100
AcDbLine
 10
215.699001124
 20
244.199999997
 30
0.0
 11
215.699001124
 21
247.199999997
 31
0.0
  0
LINE
  5
125E
330
CD0
100
AcDbEntity
  8
0
  6
Continuous
 62
     3
100
AcDbLine
 10
215.699001124
 20
247.199999997
 30
0.0
 11
212.699001124
 21
247.199999997
 31
0.0
  0
LINE
  5
125F
330
CD0
100
AcDbEntity
  8
0
  6
Continuous
 62
     3
100
AcDbLine
 10
212.699001124
 20
247.199999997
 30
0.0
 11
212.699001124
 21
244.199999997
 31
0.0
  0
LINE
  5
1260
330
CD0
100
AcDbEntity
  8
0
  6
Continuous
 62
     3
100
AcDbLine
 10
212.699001124
 20
244.199999997
 30
0.0
 11
215.699001124
 21
244.199999997
 31
0.0
  0
LINE
  5
1261
330
CD0
100
AcDbEntity
  8
0
  6
Continuous
 62
     3
100
AcDbLine
 10
215.699001124
 20
244.199999997
 30
0.0
 11
216.949001124
 21
243.699999997
 31
0.0
  0
LINE
  5
1262
330
CD0
100
AcDbEntity
  8
0
  6
Continuous
 62
     3
100
AcDbLine
 10
216.949001124
 20
247.699999997
 30
0.0
 11
215.699001124
 21
247.199999997
 31
0.0
  0
LINE
  5
1263
330
CD0
100
AcDbEntity
  8
0
  6
Continuous
 62
     3
100
AcDbLine
 10
212.699001124
 20
247.199999997
 30
0.0
 11
211.449001124
 21
247.699999997
 31
0.0
  0
LINE
  5
1264
330
CD0
100
AcDbEntity
  8
0
  6
Continuous
 62
     3
100
AcDbLine
 10
212.699001124
 20
244.199999997
 30
0.0
 11
211.449001124
 21
243.699999997
 31
0.0
  0
LINE
  5
1265
330
CD0
100
AcDbEntity
  8
0
  6
Continuous
 62
     3
100
AcDbLine
 10
215.699001123
 20
234.0399999969998
 30
0.0
 11
215.699001123
 21
237.039999997
 31
0.0
  0
LINE
  5
1266
330
CD0
100
AcDbEntity
  8
0
  6
Continuous
 62
     3
100
AcDbLine
 10
215.699001123
 20
237.039999997
 30
0.0
 11
212.6990011229996
 21
237.039999997
 31
0.0
  0
LINE
  5
1267
330
CD0
100
AcDbEntity
  8
0
  6
Continuous
 62
     3
100
AcDbLine
 10
212.6990011229996
 20
237.039999997
 30
0.0
 11
212.6990011229996
 21
234.0399999969998
 31
0.0
  0
LINE
  5
1268
330
CD0
100
AcDbEntity
  8
0
  6
Continuous
 62
     3
100
AcDbLine
 10
212.6990011229996
 20
234.0399999969998
 30
0.0
 11
215.699001123
 21
234.0399999969998
 31
0.0
  0
LINE
  5
1269
330
CD0
100
AcDbEntity
  8
0
  6
Continuous
 62
     3
100
AcDbLine
 10
215.699001123
 20
234.0399999969998
 30
0.0
 11
216.9490011229999
 21
233.5399999969999
 31
0.0
  0
LINE
  5
126A
330
CD0
100
AcDbEntity
  8
0
  6
Continuous
 62
     3
100
AcDbLine
 10
216.9490011229999
 20
237.5399999969999
 30
0.0
 11
215.699001123
 21
237.039999997
 31
0.0
  0
LINE
  5
126B
330
CD0
100
AcDbEntity
  8
0
  6
Continuous
 62
     3
100
AcDbLine
 10
212.6990011229996
 20
237.039999997
 30
0.0
 11
211.449001123
 21
237.5399999969999
 31
0.0
  0
LINE
  5
126C
330
CD0
100
AcDbEntity
  8
0
  6
Continuous
 62
     3
100
AcDbLine
 10
212.6990011229996
 20
234.0399999969998
 30
0.0
 11
211.449001123
 21
233.5399999969999
 31
0.0
  0
LINE
  5
126D
330
CD0
100
AcDbEntity
  8
0
  6
Continuous
 62
     3
100
AcDbLine
 10
215.699001123
 20
239.1199999969999
 30
0.0
 11
215.699001124
 21
242.119999997
 31
0.0
  0
LINE
  5
126E
330
CD0
100
AcDbEntity
  8
0
  6
Continuous
 62
     3
100
AcDbLine
 10
215.699001124
 20
242.119999997
 30
0.0
 11
212.699001124
 21
242.119999997
 31
0.0
  0
LINE
  5
126F
330
CD0
100
AcDbEntity
  8
0
  6
Continuous
 62
     3
100
AcDbLine
 10
212.699001124
 20
242.119999997
 30
0.0
 11
212.6990011229996
 21
239.1199999969999
 31
0.0
  0
LINE
  5
1270
330
CD0
100
AcDbEntity
  8
0
  6
Continuous
 62
     3
100
AcDbLine
 10
212.6990011229996
 20
239.1199999969999
 30
0.0
 11
215.699001123
 21
239.1199999969999
 31
0.0
  0
LINE
  5
1271
330
CD0
100
AcDbEntity
  8
0
  6
Continuous
 62
     3
100
AcDbLine
 10
215.699001123
 20
239.1199999969999
 30
0.0
 11
216.9490011229999
 21
238.619999997
 31
0.0
  0
LINE
  5
1272
330
CD0
100
AcDbEntity
  8
0
  6
Continuous
 62
     3
100
AcDbLine
 10
216.949001124
 20
242.619999997
 30
0.0
 11
215.699001124
 21
242.119999997
 31
0.0
  0
LINE
  5
1273
330
CD0
100
AcDbEntity
  8
0
  6
Continuous
 62
     3
100
AcDbLine
 10
212.699001124
 20
242.119999997
 30
0.0
 11
211.449001124
 21
242.619999997
 31
0.0
  0
LINE
  5
1274
330
CD0
100
AcDbEntity
  8
0
  6
Continuous
 62
     3
100
AcDbLine
 10
212.6990011229996
 20
239.1199999969999
 30
0.0
 11
211.449001123
 21
238.619999997
 31
0.0
  0
LINE
  5
1275
330
CD0
100
AcDbEntity
  8
0
  6
Continuous
 62
     3
100
AcDbLine
 10
210.449001122
 20
217.7599999969998
 30
0.0
 11
210.449001124
 21
248.239999997
 31
0.0
  0
LINE
  5
1276
330
CD0
100
AcDbEntity
  8
0
  6
Continuous
 62
     3
100
AcDbLine
 10
203.4490011229999
 20
219.854633673
 30
0.0
 11
204.2490011229999
 21
219.8448724409998
 31
0.0
  0
LINE
  5
1277
330
CD0
100
AcDbEntity
  8
0
  6
Continuous
 62
     3
100
AcDbLine
 10
204.2490011219999
 20
218.1551275549999
 30
0.0
 11
203.4490011229999
 21
218.145366323
 31
0.0
  0
LINE
  5
1278
330
CD0
100
AcDbEntity
  8
0
  6
Continuous
 62
     3
100
AcDbLine
 10
204.2490011229999
 20
221.655127555
 30
0.0
 11
203.4490011229999
 21
221.6453663229996
 31
0.0
  0
LINE
  5
1279
330
CD0
100
AcDbEntity
  8
0
  6
Continuous
 62
     3
100
AcDbLine
 10
203.4490011229999
 20
223.3546336729999
 30
0.0
 11
204.2490011229999
 21
223.3448724409998
 31
0.0
  0
LINE
  5
127A
330
CD0
100
AcDbEntity
  8
0
  6
Continuous
 62
     3
100
AcDbLine
 10
204.2490011229999
 20
225.155127555
 30
0.0
 11
203.4490011229999
 21
225.1453663229999
 31
0.0
  0
LINE
  5
127B
330
CD0
100
AcDbEntity
  8
0
  6
Continuous
 62
     3
100
AcDbLine
 10
203.4490011229999
 20
226.854633673
 30
0.0
 11
204.2490011229999
 21
226.8448724409998
 31
0.0
  0
LINE
  5
127C
330
CD0
100
AcDbEntity
  8
0
  6
Continuous
 62
     3
100
AcDbLine
 10
204.2490011229999
 20
228.6551275549999
 30
0.0
 11
203.4490011229999
 21
228.645366323
 31
0.0
  0
LINE
  5
127D
330
CD0
100
AcDbEntity
  8
0
  6
Continuous
 62
     3
100
AcDbLine
 10
203.4490011229999
 20
230.354633673
 30
0.0
 11
204.2490011229999
 21
230.3448724409998
 31
0.0
  0
LINE
  5
127E
330
CD0
100
AcDbEntity
  8
0
  6
Continuous
 62
     3
100
AcDbLine
 10
204.2490011229999
 20
232.155127555
 30
0.0
 11
203.4490011229999
 21
232.1453663229996
 31
0.0
  0
LINE
  5
127F
330
CD0
100
AcDbEntity
  8
0
  6
Continuous
 62
     3
100
AcDbLine
 10
203.4490011229999
 20
233.8546336729999
 30
0.0
 11
204.2490011229999
 21
233.8448724409998
 31
0.0
  0
LINE
  5
1280
330
CD0
100
AcDbEntity
  8
0
  6
Continuous
 62
     3
100
AcDbLine
 10
204.2490011229999
 20
235.655127555
 30
0.0
 11
203.4490011229999
 21
235.6453663229999
 31
0.0
  0
LINE
  5
1281
330
CD0
100
AcDbEntity
  8
0
  6
Continuous
 62
     3
100
AcDbLine
 10
203.4490011229999
 20
237.354633673
 30
0.0
 11
204.2490011229999
 21
237.3448724409996
 31
0.0
  0
LINE
  5
1282
330
CD0
100
AcDbEntity
  8
0
  6
Continuous
 62
     3
100
AcDbLine
 10
204.2490011229999
 20
239.1551275549999
 30
0.0
 11
203.4490011229999
 21
239.145366323
 31
0.0
  0
LINE
  5
1283
330
CD0
100
AcDbEntity
  8
0
  6
Continuous
 62
     3
100
AcDbLine
 10
203.4490011239998
 20
240.854633673
 30
0.0
 11
204.249001124
 21
240.8448724409998
 31
0.0
  0
LINE
  5
1284
330
CD0
100
AcDbEntity
  8
0
  6
Continuous
 62
     3
100
AcDbLine
 10
204.249001124
 20
242.655127555
 30
0.0
 11
203.4490011239998
 21
242.6453663229996
 31
0.0
  0
LINE
  5
1285
330
CD0
100
AcDbEntity
  8
0
  6
Continuous
 62
     3
100
AcDbLine
 10
203.4490011239998
 20
244.3546336729998
 30
0.0
 11
204.249001124
 21
244.344872441
 31
0.0
  0
LINE
  5
1286
330
CD0
100
AcDbEntity
  8
0
  6
Continuous
 62
     3
100
AcDbLine
 10
204.249001124
 20
246.155127555
 30
0.0
 11
203.4490011239998
 21
246.1453663229999
 31
0.0
  0
LINE
  5
1287
330
CD0
100
AcDbEntity
  8
0
  6
Continuous
 62
     3
100
AcDbLine
 10
203.4490011239998
 20
247.854633673
 30
0.0
 11
204.249001124
 21
247.8448724409996
 31
0.0
  0
LINE
  5
1288
330
CD0
100
AcDbEntity
  8
0
  6
Continuous
 62
     3
100
AcDbLine
 10
206.049001124
 20
248.239999998
 30
0.0
 11
206.049001122
 21
217.7599999979999
 31
0.0
  0
LINE
  5
1289
330
CD0
100
AcDbEntity
  8
0
  6
Continuous
 62
     3
100
AcDbLine
 10
206.449001124
 20
247.739999998
 30
0.0
 11
206.449001122
 21
218.2599999979999
 31
0.0
  0
LINE
  5
128A
330
CD0
100
AcDbEntity
  8
0
  6
Continuous
 62
     3
100
AcDbLine
 10
206.449001122
 20
218.2599999979999
 30
0.0
 11
210.449001122
 21
218.2599999969998
 31
0.0
  0
LINE
  5
128B
330
CD0
100
AcDbEntity
  8
0
  6
Continuous
 62
     3
100
AcDbLine
 10
210.449001124
 20
247.739999997
 30
0.0
 11
206.449001124
 21
247.739999998
 31
0.0
  0
LINE
  5
128C
330
CD0
100
AcDbEntity
  8
0
  6
Continuous
 62
     1
100
AcDbLine
 10
244.249001122
 20
208.9999999959996
 30
0.0
 11
244.249001124
 21
256.9999999959998
 31
0.0
  0
LINE
  5
128D
330
CD0
100
AcDbEntity
  8
0
  6
Continuous
 62
     1
100
AcDbLine
 10
244.249001124
 20
256.9999999959998
 30
0.0
 11
204.449001124
 21
256.9999999979996
 31
0.0
  0
ARC
  5
128E
330
CD0
100
AcDbEntity
  8
0
  6
Continuous
 62
     1
100
AcDbCircle
 10
227.849001122
 20
209.999999997
 30
0.0
 40
1.0
100
AcDbArc
 50
180.0
 51
270.0
  0
LINE
  5
128F
330
CD0
100
AcDbEntity
  8
0
  6
Continuous
 62
     1
100
AcDbLine
 10
203.4490011239998
 20
255.999999998
 30
0.0
 11
203.4490011219999
 21
209.999999998
 31
0.0
  0
ARC
  5
1290
330
CD0
100
AcDbEntity
  8
0
  6
Continuous
 62
     1
100
AcDbCircle
 10
204.449001122
 20
209.999999998
 30
0.0
 40
1.0
100
AcDbArc
 50
180.0
 51
270.0
  0
LINE
  5
1291
330
CD0
100
AcDbEntity
  8
0
  6
Continuous
 62
     1
100
AcDbLine
 10
204.449001122
 20
208.9999999979996
 30
0.0
 11
244.249001122
 21
208.9999999959996
 31
0.0
  0
ARC
  5
1292
330
CD0
100
AcDbEntity
  8
0
  6
Continuous
 62
     1
100
AcDbCircle
 10
204.449001124
 20
255.999999998
 30
0.0
 40
1.0
100
AcDbArc
 50
90.0
 51
180.0
  0
LINE
  5
1293
330
CD0
100
AcDbEntity
  8
0
  6
Continuous
 62
     1
100
AcDbLine
 10
210.449001124
 20
248.239999997
 30
0.0
 11
204.249001124
 21
248.239999998
 31
0.0
  0
LINE
  5
1294
330
CD0
100
AcDbEntity
  8
0
  6
Continuous
 62
     1
100
AcDbLine
 10
204.249001124
 20
248.239999998
 30
0.0
 11
204.2490011219999
 21
217.7599999979999
 31
0.0
  0
LINE
  5
1295
330
CD0
100
AcDbEntity
  8
0
  6
Continuous
 62
     1
100
AcDbLine
 10
221.849001124
 20
248.239999997
 30
0.0
 11
217.9490011239998
 21
248.239999997
 31
0.0
  0
LINE
  5
1296
330
CD0
100
AcDbEntity
  8
0
  6
Continuous
 62
     1
100
AcDbLine
 10
217.9490011239998
 20
248.239999997
 30
0.0
 11
210.449001124
 21
248.239999997
 31
0.0
  0
LINE
  5
1297
330
CD0
100
AcDbEntity
  8
0
  6
Continuous
 62
     1
100
AcDbLine
 10
217.9490011219999
 20
217.7599999969998
 30
0.0
 11
217.9490011239998
 21
248.239999997
 31
0.0
  0
LINE
  5
1298
330
CD0
100
AcDbEntity
  8
0
  6
Continuous
 62
     1
100
AcDbLine
 10
204.2490011219999
 20
217.7599999979999
 30
0.0
 11
221.849001122
 21
217.7599999969998
 31
0.0
  0
ARC
  5
1299
330
CD0
100
AcDbEntity
  8
0
  6
Continuous
 62
     1
100
AcDbCircle
 10
227.849001124
 20
255.999999997
 30
0.0
 40
1.0
100
AcDbArc
 50
90.0
 51
180.0
  0
LINE
  5
129A
330
CD0
100
AcDbEntity
  8
0
  6
Continuous
 62
     1
100
AcDbLine
 10
226.849001124
 20
255.999999997
 30
0.0
 11
226.8490011219999
 21
209.999999997
 31
0.0
  0
LINE
  5
129B
330
CD0
100
AcDbEntity
  8
0
  6
Continuous
 62
     1
100
AcDbLine
 10
226.849001124
 20
249.9999999969999
 30
0.0
 11
222.349001124
 21
249.9999999969999
 31
0.0
  0
ARC
  5
129C
330
CD0
100
AcDbEntity
  8
0
  6
Continuous
 62
     1
100
AcDbCircle
 10
222.349001124
 20
249.499999997
 30
0.0
 40
0.5
100
AcDbArc
 50
90.0
 51
180.0
  0
LINE
  5
129D
330
CD0
100
AcDbEntity
  8
0
  6
Continuous
 62
     1
100
AcDbLine
 10
221.849001124
 20
249.499999997
 30
0.0
 11
221.849001124
 21
248.239999997
 31
0.0
  0
ARC
  5
129E
330
CD0
100
AcDbEntity
  8
0
  6
Continuous
 62
     1
100
AcDbCircle
 10
225.349001124
 20
249.499999997
 30
0.0
 40
0.5
100
AcDbArc
 50
90.0
 51
180.0
  0
LINE
  5
129F
330
CD0
100
AcDbEntity
  8
0
  6
Continuous
 62
     1
100
AcDbLine
 10
221.849001124
 20
248.239999997
 30
0.0
 11
224.849001124
 21
248.239999997
 31
0.0
  0
ARC
  5
12A0
330
CD0
100
AcDbEntity
  8
0
  6
Continuous
 62
     1
100
AcDbCircle
 10
225.349001124
 20
245.399999997
 30
0.0
 40
0.5
100
AcDbArc
 50
180.0
 51
270.0
  0
LINE
  5
12A1
330
CD0
100
AcDbEntity
  8
0
  6
Continuous
 62
     1
100
AcDbLine
 10
225.349001124
 20
244.899999997
 30
0.0
 11
226.849001124
 21
244.899999997
 31
0.0
  0
LINE
  5
12A2
330
CD0
100
AcDbEntity
  8
0
  6
Continuous
 62
     1
100
AcDbLine
 10
221.849001124
 20
244.739999997
 30
0.0
 11
226.849001124
 21
244.739999997
 31
0.0
  0
LINE
  5
12A3
330
CD0
100
AcDbEntity
  8
0
  6
Continuous
 62
     1
100
AcDbLine
 10
221.849001122
 20
217.7599999969998
 30
0.0
 11
221.849001124
 21
248.239999997
 31
0.0
  0
LINE
  5
12A4
330
CD0
100
AcDbEntity
  8
0
  6
Continuous
 62
     1
100
AcDbLine
 10
226.849001124
 20
243.099999997
 30
0.0
 11
225.349001124
 21
243.099999997
 31
0.0
  0
LINE
  5
12A5
330
CD0
100
AcDbEntity
  8
0
  6
Continuous
 62
     1
100
AcDbLine
 10
226.849001124
 20
243.239999997
 30
0.0
 11
221.849001124
 21
243.239999997
 31
0.0
  0
LINE
  5
12A6
330
CD0
100
AcDbEntity
  8
0
  6
Continuous
 62
     1
100
AcDbLine
 10
225.6490011229999
 20
235.4999999969999
 30
0.0
 11
225.6490011229999
 21
230.499999997
 31
0.0
  0
LINE
  5
12A7
330
CD0
100
AcDbEntity
  8
0
  6
Continuous
 62
     1
100
AcDbLine
 10
224.8490011229999
 20
235.4999999969999
 30
0.0
 11
225.6490011229999
 21
235.4999999969999
 31
0.0
  0
LINE
  5
12A8
330
CD0
100
AcDbEntity
  8
0
  6
Continuous
 62
     1
100
AcDbLine
 10
225.6490011229999
 20
230.499999997
 30
0.0
 11
224.8490011229999
 21
230.499999997
 31
0.0
  0
LINE
  5
12A9
330
CD0
100
AcDbEntity
  8
0
  6
Continuous
 62
     1
100
AcDbLine
 10
222.349001122
 20
215.499999997
 30
0.0
 11
226.8490011219999
 21
215.499999997
 31
0.0
  0
ARC
  5
12AA
330
CD0
100
AcDbEntity
  8
0
  6
Continuous
 62
     1
100
AcDbCircle
 10
222.349001122
 20
215.999999997
 30
0.0
 40
0.5
100
AcDbArc
 50
180.0
 51
270.0
  0
LINE
  5
12AB
330
CD0
100
AcDbEntity
  8
0
  6
Continuous
 62
     1
100
AcDbLine
 10
221.849001123
 20
217.7599999969998
 30
0.0
 11
221.849001122
 21
215.999999997
 31
0.0
  0
LINE
  5
12AC
330
CD0
100
AcDbEntity
  8
0
  6
Continuous
 62
     1
100
AcDbLine
 10
224.8490011219999
 20
217.7599999969998
 30
0.0
 11
221.849001122
 21
217.7599999969998
 31
0.0
  0
ARC
  5
12AD
330
CD0
100
AcDbEntity
  8
0
  6
Continuous
 62
     1
100
AcDbCircle
 10
225.349001122
 20
215.999999997
 30
0.0
 40
0.5
100
AcDbArc
 50
180.0
 51
270.0
  0
ARC
  5
12AE
330
CD0
100
AcDbEntity
  8
0
  6
Continuous
 62
     1
100
AcDbCircle
 10
225.3490011229996
 20
220.5999999969999
 30
0.0
 40
0.5
100
AcDbArc
 50
90.0
 51
180.0
  0
LINE
  5
12AF
330
CD0
100
AcDbEntity
  8
0
  6
Continuous
 62
     1
100
AcDbLine
 10
224.8490011229999
 20
221.259999997
 30
0.0
 11
224.8490011219999
 21
217.7599999969998
 31
0.0
  0
LINE
  5
12B0
330
CD0
100
AcDbEntity
  8
0
  6
Continuous
 62
     1
100
AcDbLine
 10
224.8490011229999
 20
220.5999999969999
 30
0.0
 11
224.8490011219999
 21
215.999999997
 31
0.0
  0
LINE
  5
12B1
330
CD0
100
AcDbEntity
  8
0
  6
Continuous
 62
     1
100
AcDbLine
 10
226.8490011229999
 20
221.0999999969998
 30
0.0
 11
225.3490011229996
 21
221.0999999969998
 31
0.0
  0
LINE
  5
12B2
330
CD0
100
AcDbEntity
  8
0
  6
Continuous
 62
     1
100
AcDbLine
 10
221.849001123
 20
221.259999997
 30
0.0
 11
226.8490011229999
 21
221.259999997
 31
0.0
  0
LINE
  5
12B3
330
CD0
100
AcDbEntity
  8
0
  6
Continuous
 62
     1
100
AcDbLine
 10
224.8490011229999
 20
230.499999997
 30
0.0
 11
224.8490011229999
 21
223.3999999969999
 31
0.0
  0
LINE
  5
12B4
330
CD0
100
AcDbEntity
  8
0
  6
Continuous
 62
     1
100
AcDbLine
 10
225.3490011229996
 20
222.899999997
 30
0.0
 11
226.8490011229999
 21
222.899999997
 31
0.0
  0
ARC
  5
12B5
330
CD0
100
AcDbEntity
  8
0
  6
Continuous
 62
     1
100
AcDbCircle
 10
225.3490011229996
 20
223.3999999969999
 30
0.0
 40
0.5
100
AcDbArc
 50
180.0
 51
270.0
  0
LINE
  5
12B6
330
CD0
100
AcDbEntity
  8
0
  6
Continuous
 62
     1
100
AcDbLine
 10
226.8490011229999
 20
222.7599999969998
 30
0.0
 11
221.849001123
 21
222.7599999969998
 31
0.0
  0
LINE
  5
12B7
330
CD0
100
AcDbEntity
  8
0
  6
Continuous
 62
     1
100
AcDbLine
 10
224.849001124
 20
242.599999997
 30
0.0
 11
224.8490011229999
 21
235.4999999969999
 31
0.0
  0
ARC
  5
12B8
330
CD0
100
AcDbEntity
  8
0
  6
Continuous
 62
     1
100
AcDbCircle
 10
225.349001124
 20
242.599999997
 30
0.0
 40
0.5
100
AcDbArc
 50
90.0
 51
180.0
  0
LINE
  5
12B9
330
CD0
100
AcDbEntity
  8
0
  6
Continuous
 62
     1
100
AcDbLine
 10
224.849001124
 20
243.239999997
 30
0.0
 11
224.8490011229999
 21
222.7599999969998
 31
0.0
  0
LINE
  5
12BA
330
CD0
100
AcDbEntity
  8
0
  6
Continuous
 62
     1
100
AcDbLine
 10
224.849001124
 20
248.239999997
 30
0.0
 11
224.849001124
 21
244.739999997
 31
0.0
  0
LINE
  5
12BB
330
CD0
100
AcDbEntity
  8
0
  6
Continuous
 62
     1
100
AcDbLine
 10
224.849001124
 20
249.499999997
 30
0.0
 11
224.849001124
 21
245.399999997
 31
0.0
  0
LINE
  5
12BC
330
CD0
100
AcDbEntity
  8
0
  6
Continuous
 62
     1
100
AcDbLine
 10
216.949001122
 20
218.299999997
 30
0.0
 11
216.9490011229999
 21
222.299999997
 31
0.0
  0
LINE
  5
12BD
330
CD0
100
AcDbEntity
  8
0
  6
Continuous
 62
     1
100
AcDbLine
 10
216.9490011229999
 20
222.299999997
 30
0.0
 11
211.449001123
 21
222.299999997
 31
0.0
  0
LINE
  5
12BE
330
CD0
100
AcDbEntity
  8
0
  6
Continuous
 62
     1
100
AcDbLine
 10
211.449001123
 20
223.379999997
 30
0.0
 11
216.9490011229999
 21
223.379999997
 31
0.0
  0
LINE
  5
12BF
330
CD0
100
AcDbEntity
  8
0
  6
Continuous
 62
     1
100
AcDbLine
 10
211.449001123
 20
222.299999997
 30
0.0
 11
211.449001122
 21
218.299999997
 31
0.0
  0
LINE
  5
12C0
330
CD0
100
AcDbEntity
  8
0
  6
Continuous
 62
     1
100
AcDbLine
 10
211.449001122
 20
218.299999997
 30
0.0
 11
216.949001122
 21
218.299999997
 31
0.0
  0
LINE
  5
12C1
330
CD0
100
AcDbEntity
  8
0
  6
Continuous
 62
     1
100
AcDbLine
 10
211.449001123
 20
227.379999997
 30
0.0
 11
211.449001123
 21
223.379999997
 31
0.0
  0
LINE
  5
12C2
330
CD0
100
AcDbEntity
  8
0
  6
Continuous
 62
     1
100
AcDbLine
 10
216.9490011229999
 20
227.379999997
 30
0.0
 11
211.449001123
 21
227.379999997
 31
0.0
  0
LINE
  5
12C3
330
CD0
100
AcDbEntity
  8
0
  6
Continuous
 62
     1
100
AcDbLine
 10
216.9490011229999
 20
223.379999997
 30
0.0
 11
216.9490011229999
 21
227.379999997
 31
0.0
  0
LINE
  5
12C4
330
CD0
100
AcDbEntity
  8
0
  6
Continuous
 62
     1
100
AcDbLine
 10
216.9490011229999
 20
228.459999997
 30
0.0
 11
216.9490011229999
 21
232.459999997
 31
0.0
  0
LINE
  5
12C5
330
CD0
100
AcDbEntity
  8
0
  6
Continuous
 62
     1
100
AcDbLine
 10
211.449001123
 20
228.459999997
 30
0.0
 11
216.9490011229999
 21
228.459999997
 31
0.0
  0
LINE
  5
12C6
330
CD0
100
AcDbEntity
  8
0
  6
Continuous
 62
     1
100
AcDbLine
 10
211.449001123
 20
232.459999997
 30
0.0
 11
211.449001123
 21
228.459999997
 31
0.0
  0
LINE
  5
12C7
330
CD0
100
AcDbEntity
  8
0
  6
Continuous
 62
     1
100
AcDbLine
 10
216.9490011229999
 20
232.459999997
 30
0.0
 11
211.449001123
 21
232.459999997
 31
0.0
  0
LINE
  5
12C8
330
CD0
100
AcDbEntity
  8
0
  6
Continuous
 62
     1
100
AcDbLine
 10
211.449001123
 20
233.5399999969999
 30
0.0
 11
216.9490011229999
 21
233.5399999969999
 31
0.0
  0
LINE
  5
12C9
330
CD0
100
AcDbEntity
  8
0
  6
Continuous
 62
     1
100
AcDbLine
 10
216.9490011229999
 20
233.5399999969999
 30
0.0
 11
216.9490011229999
 21
237.5399999969999
 31
0.0
  0
LINE
  5
12CA
330
CD0
100
AcDbEntity
  8
0
  6
Continuous
 62
     1
100
AcDbLine
 10
211.449001123
 20
237.5399999969999
 30
0.0
 11
211.449001123
 21
233.5399999969999
 31
0.0
  0
LINE
  5
12CB
330
CD0
100
AcDbEntity
  8
0
  6
Continuous
 62
     1
100
AcDbLine
 10
216.9490011229999
 20
237.5399999969999
 30
0.0
 11
211.449001123
 21
237.5399999969999
 31
0.0
  0
LINE
  5
12CC
330
CD0
100
AcDbEntity
  8
0
  6
Continuous
 62
     1
100
AcDbLine
 10
211.449001123
 20
238.619999997
 30
0.0
 11
216.9490011229999
 21
238.619999997
 31
0.0
  0
LINE
  5
12CD
330
CD0
100
AcDbEntity
  8
0
  6
Continuous
 62
     1
100
AcDbLine
 10
211.449001124
 20
242.619999997
 30
0.0
 11
211.449001123
 21
238.619999997
 31
0.0
  0
LINE
  5
12CE
330
CD0
100
AcDbEntity
  8
0
  6
Continuous
 62
     1
100
AcDbLine
 10
216.9490011229999
 20
238.619999997
 30
0.0
 11
216.949001124
 21
242.619999997
 31
0.0
  0
LINE
  5
12CF
330
CD0
100
AcDbEntity
  8
0
  6
Continuous
 62
     1
100
AcDbLine
 10
211.449001124
 20
243.699999997
 30
0.0
 11
216.949001124
 21
243.699999997
 31
0.0
  0
LINE
  5
12D0
330
CD0
100
AcDbEntity
  8
0
  6
Continuous
 62
     1
100
AcDbLine
 10
216.949001124
 20
242.619999997
 30
0.0
 11
211.449001124
 21
242.619999997
 31
0.0
  0
LINE
  5
12D1
330
CD0
100
AcDbEntity
  8
0
  6
Continuous
 62
     1
100
AcDbLine
 10
211.449001124
 20
247.699999997
 30
0.0
 11
211.449001124
 21
243.699999997
 31
0.0
  0
LINE
  5
12D2
330
CD0
100
AcDbEntity
  8
0
  6
Continuous
 62
     1
100
AcDbLine
 10
216.949001124
 20
247.699999997
 30
0.0
 11
211.449001124
 21
247.699999997
 31
0.0
  0
LINE
  5
12D3
330
CD0
100
AcDbEntity
  8
0
  6
Continuous
 62
     1
100
AcDbLine
 10
216.949001124
 20
243.699999997
 30
0.0
 11
216.949001124
 21
247.699999997
 31
0.0
  0
LINE
  5
12D4
330
CD0
100
AcDbEntity
  8
0
  6
Continuous
 62
     3
100
AcDbLine
 10
274.9150000029998
 20
136.000000002
 30
0.0
 11
269.0
 21
136.000000002
 31
0.0
  0
LINE
  5
12D5
330
CD0
100
AcDbEntity
  8
0
  6
Continuous
 62
     3
100
AcDbLine
 10
270.0
 20
136.000000002
 30
0.0
 11
269.48236191
 21
134.06814835
 31
0.0
  0
LINE
  5
12D6
330
CD0
100
AcDbEntity
  8
0
  6
Continuous
 62
     3
100
AcDbLine
 10
270.0
 20
136.000000002
 30
0.0
 11
270.5176380899998
 21
134.06814835
 31
0.0
  0
LINE
  5
12D7
330
CD0
100
AcDbEntity
  8
0
  6
Continuous
 62
     3
100
AcDbLine
 10
270.0
 20
133.000000002
 30
0.0
 11
270.0
 21
136.000000002
 31
0.0
  0
LINE
  5
12D8
330
CD0
100
AcDbEntity
  8
0
  6
Continuous
 62
     3
100
AcDbLine
 10
270.0
 20
136.000000002
 30
0.0
 11
270.0
 21
140.300000002
 31
0.0
  0
LINE
  5
12D9
330
CD0
100
AcDbEntity
  8
0
  6
Continuous
 62
     3
100
AcDbLine
 10
270.0
 20
140.300000002
 30
0.0
 11
270.0
 21
149.300000002
 31
0.0
  0
LINE
  5
12DA
330
CD0
100
AcDbEntity
  8
0
  6
Continuous
 62
     3
100
AcDbLine
 10
270.0
 20
140.300000002
 30
0.0
 11
270.5176380899998
 21
142.231851655
 31
0.0
  0
LINE
  5
12DB
330
CD0
100
AcDbEntity
  8
0
  6
Continuous
 62
     3
100
AcDbLine
 10
270.0
 20
140.300000002
 30
0.0
 11
269.48236191
 21
142.231851655
 31
0.0
  0
LINE
  5
12DC
330
CD0
100
AcDbEntity
  8
0
  6
Continuous
 62
     3
100
AcDbLine
 10
274.9150000029998
 20
140.300000002
 30
0.0
 11
269.0
 21
140.300000002
 31
0.0
  0
TEXT
  5
12DD
330
CD0
100
AcDbEntity
  8
0
  6
Continuous
 62
     1
100
AcDbText
 10
209.959001122
 20
218.739999998
 30
0.0
 40
3.0
  1
６
 50
90.0
  7
KANJI1
100
AcDbText
  0
TEXT
  5
12DE
330
CD0
100
AcDbEntity
  8
0
  6
Continuous
 62
     1
100
AcDbText
 10
209.9590011229998
 20
223.8199999979999
 30
0.0
 40
3.0
  1
５
 50
90.0
  7
KANJI1
100
AcDbText
  0
TEXT
  5
12DF
330
CD0
100
AcDbEntity
  8
0
  6
Continuous
 62
     1
100
AcDbText
 10
209.9590011229998
 20
228.899999998
 30
0.0
 40
3.0
  1
４
 50
90.0
  7
KANJI1
100
AcDbText
  0
TEXT
  5
12E0
330
CD0
100
AcDbEntity
  8
0
  6
Continuous
 62
     1
100
AcDbText
 10
209.9590011229998
 20
233.9799999979999
 30
0.0
 40
3.0
  1
３
 50
90.0
  7
KANJI1
100
AcDbText
  0
TEXT
  5
12E1
330
CD0
100
AcDbEntity
  8
0
  6
Continuous
 62
     1
100
AcDbText
 10
209.9590011229998
 20
239.059999998
 30
0.0
 40
3.0
  1
２
 50
90.0
  7
KANJI1
100
AcDbText
  0
TEXT
  5
12E2
330
CD0
100
AcDbEntity
  8
0
  6
Continuous
 62
     1
100
AcDbText
 10
209.959001124
 20
244.1399999979998
 30
0.0
 40
3.0
  1
１
 50
90.0
  7
KANJI1
100
AcDbText
  0
ARC
  5
12E3
330
CD0
100
AcDbEntity
  8
0
  6
Continuous
 62
     1
100
AcDbCircle
 10
220.0
 20
198.0
 30
0.0
 40
2.0
100
AcDbArc
 50
90.0
 51
180.0000000009999
  0
LINE
  5
12E4
330
CD0
100
AcDbEntity
  8
0
  6
Continuous
 62
     1
100
AcDbLine
 10
218.0
 20
198.0
 30
0.0
 11
218.0
 21
42.0
 31
0.0
  0
ARC
  5
12E5
330
CD0
100
AcDbEntity
  8
0
  6
Continuous
 62
     1
100
AcDbCircle
 10
220.0
 20
42.0
 30
0.0
 40
2.0
100
AcDbArc
 50
180.0000000009999
 51
270.0
  0
LINE
  5
12E6
330
CD0
100
AcDbEntity
  8
0
  6
Continuous
 62
     1
100
AcDbLine
 10
220.0
 20
40.0
 30
0.0
 11
394.0
 21
40.0
 31
0.0
  0
ARC
  5
12E7
330
CD0
100
AcDbEntity
  8
0
  6
Continuous
 62
     1
100
AcDbCircle
 10
394.0
 20
42.0
 30
0.0
 40
2.0
100
AcDbArc
 50
270.0
 51
0.0
  0
LINE
  5
12E8
330
CD0
100
AcDbEntity
  8
0
  6
Continuous
 62
     1
100
AcDbLine
 10
394.0
 20
200.0
 30
0.0
 11
220.0
 21
200.0
 31
0.0
  0
LINE
  5
12E9
330
CD0
100
AcDbEntity
  8
0
  6
Continuous
 62
     1
100
AcDbLine
 10
396.0
 20
42.0
 30
0.0
 11
396.0
 21
198.0
 31
0.0
  0
ARC
  5
12EA
330
CD0
100
AcDbEntity
  8
0
  6
Continuous
 62
     1
100
AcDbCircle
 10
394.0
 20
198.0
 30
0.0
 40
2.0
100
AcDbArc
 50
0.0
 51
90.0
  0
TEXT
  5
12EB
330
CD0
100
AcDbEntity
  8
0
  6
Continuous
 62
     1
100
AcDbText
 10
234.0
 20
164.0
 30
0.0
 40
5.0
  1
端子カバー付
 41
0.8
  7
KANJI3
100
AcDbText
  0
TEXT
  5
12EC
330
CD0
100
AcDbEntity
  8
0
  6
Continuous
 62
     3
100
AcDbText
 10
138.1575000039999
 20
196.5
 30
0.1
 40
2.0
  1
９６～９８スライド
 41
0.8
  7
KANJI0
100
AcDbText
  0
TEXT
  5
12ED
330
CD0
100
AcDbEntity
  8
0
  6
Continuous
 62
     3
100
AcDbText
 10
206.5000000019999
 20
154.549999998
 30
0.1
 40
2.0
  1
４１
 50
90.0
 41
0.8
  7
KANJI0
100
AcDbText
  0
LINE
  5
12EE
330
CD0
100
AcDbEntity
  8
0
  6
Continuous
 62
     3
100
AcDbLine
 10
127.400000002
 20
141.500000001
 30
0.1
 11
127.400000002
 21
145.5499999979998
 31
0.1
  0
LINE
  5
12EF
330
CD0
100
AcDbEntity
  8
0
  6
Continuous
 62
     3
100
AcDbLine
 10
127.400000002
 20
143.549999998
 30
0.0
 11
129.814814568
 21
142.9029523849998
 31
0.0
  0
LINE
  5
12F0
330
CD0
100
AcDbEntity
  8
0
  6
Continuous
 62
     3
100
AcDbLine
 10
127.400000002
 20
143.549999998
 30
0.0
 11
129.814814568
 21
144.19704761
 31
0.0
  0
LINE
  5
12F1
330
CD0
100
AcDbEntity
  8
0
  6
Continuous
 62
     3
100
AcDbLine
 10
127.400000002
 20
143.549999998
 30
0.0
 11
162.600000002
 21
143.549999998
 31
0.0
  0
LINE
  5
12F2
330
CD0
100
AcDbEntity
  8
0
  6
Continuous
 62
     3
100
AcDbLine
 10
162.600000002
 20
143.549999998
 30
0.0
 11
160.185185436
 21
144.19704761
 31
0.0
  0
LINE
  5
12F3
330
CD0
100
AcDbEntity
  8
0
  6
Continuous
 62
     3
100
AcDbLine
 10
162.600000002
 20
143.549999998
 30
0.0
 11
160.185185436
 21
142.9029523849998
 31
0.0
  0
LINE
  5
12F4
330
CD0
100
AcDbEntity
  8
0
  6
Continuous
 62
     3
100
AcDbLine
 10
162.600000002
 20
141.4999999989998
 30
0.0
 11
162.600000002
 21
145.5499999979998
 31
0.0
  0
LINE
  5
12F5
330
CD0
100
AcDbEntity
  8
0
  6
Continuous
 62
     3
100
AcDbLine
 10
127.000000002
 20
136.000000001
 30
0.0
 11
127.400000002
 21
140.500000001
 31
0.0
  0
LINE
  5
12F6
330
CD0
100
AcDbEntity
  8
0
  6
Continuous
 62
     3
100
AcDbLine
 10
127.000000002
 20
136.000000001
 30
0.0
 11
98.000000002
 21
136.000000002
 31
0.0
  0
LINE
  5
12F7
330
CD0
100
AcDbEntity
  8
0
  6
Continuous
 62
     3
100
AcDbLine
 10
163.000000002
 20
135.9999999989998
 30
0.0
 11
192.000000002
 21
135.9999999979999
 31
0.0
  0
LINE
  5
12F8
330
CD0
100
AcDbEntity
  8
0
  6
Continuous
 62
     3
100
AcDbLine
 10
162.600000002
 20
140.4999999989998
 30
0.0
 11
163.000000002
 21
135.9999999989998
 31
0.0
  0
LINE
  5
12F9
330
CD0
100
AcDbEntity
  8
0
  6
Continuous
 62
     3
100
AcDbLine
 10
127.000000002
 20
135.000000001
 30
0.0
 11
127.000000002
 21
129.15
 31
0.0
  0
LINE
  5
12FA
330
CD0
100
AcDbEntity
  8
0
  6
Continuous
 62
     3
100
AcDbLine
 10
127.000000002
 20
131.15
 30
0.0
 11
129.414814567
 21
130.5029523879998
 31
0.0
  0
LINE
  5
12FB
330
CD0
100
AcDbEntity
  8
0
  6
Continuous
 62
     3
100
AcDbLine
 10
127.000000002
 20
131.15
 30
0.0
 11
129.414814567
 21
131.7970476129999
 31
0.0
  0
LINE
  5
12FC
330
CD0
100
AcDbEntity
  8
0
  6
Continuous
 62
     3
100
AcDbLine
 10
127.000000002
 20
131.15
 30
0.0
 11
163.000000002
 21
131.15
 31
0.0
  0
LINE
  5
12FD
330
CD0
100
AcDbEntity
  8
0
  6
Continuous
 62
     3
100
AcDbLine
 10
163.000000002
 20
131.15
 30
0.0
 11
160.585185436
 21
131.7970476129999
 31
0.0
  0
LINE
  5
12FE
330
CD0
100
AcDbEntity
  8
0
  6
Continuous
 62
     3
100
AcDbLine
 10
163.000000002
 20
131.15
 30
0.0
 11
160.585185436
 21
130.5029523879998
 31
0.0
  0
LINE
  5
12FF
330
CD0
100
AcDbEntity
  8
0
  6
Continuous
 62
     3
100
AcDbLine
 10
163.000000002
 20
134.9999999989998
 30
0.0
 11
163.000000002
 21
129.15
 31
0.0
  0
TEXT
  5
1300
330
CD0
100
AcDbEntity
  8
0
  6
Continuous
 62
     3
100
AcDbText
 10
269.4999999999997
 20
143.300000002
 30
0.0
 40
2.5
  1
４.５
 50
90.0
 41
0.8
  7
KANJI4
100
AcDbText
  0
TEXT
  5
1301
330
CD0
100
AcDbEntity
  8
0
  6
Continuous
 62
     3
100
AcDbText
 10
321.6500000099998
 20
113.499999993
 30
0.1
 40
2.0
  1
６４.５
 41
0.8
  7
KANJI0
100
AcDbText
  0
TEXT
  5
1302
330
CD0
100
AcDbEntity
  8
0
  6
Continuous
 62
     3
100
AcDbText
 10
317.657500004
 20
47.5
 30
0.1
 40
2.0
  1
９６～９８スライド
 41
0.8
  7
KANJI0
100
AcDbText
  0
TEXT
  5
1303
330
CD0
100
AcDbEntity
  8
0
  6
Continuous
 62
     3
100
AcDbText
 10
141.850000004
 20
144.500002697
 30
0.1
 40
2.0
  1
３５.２
 41
0.8
  7
KANJI0
100
AcDbText
  0
TEXT
  5
1304
330
CD0
100
AcDbEntity
  8
0
  6
Continuous
 62
     3
100
AcDbText
 10
141.850000004
 20
132.000002697
 30
0.1
 40
2.0
  1
３５.４
 41
0.8
  7
KANJI0
100
AcDbText
  0
LINE
  5
1305
330
CD0
100
AcDbEntity
  8
0
  6
Continuous
 62
     6
100
AcDbLine
 10
94.849664944
 20
595.856822211
 30
0.1
 11
276.449664944
 21
595.8568222
 31
0.1
  0
LINE
  5
1306
330
CD0
100
AcDbEntity
  8
0
  6
Continuous
 62
     1
100
AcDbLine
 10
78.864664944
 20
595.856822212
 30
0.0
 11
94.864664944
 21
595.856822211
 31
0.0
  0
TEXT
  5
1307
330
CD0
100
AcDbEntity
  8
0
  6
Continuous
 62
     3
100
AcDbText
 10
386.500000003
 20
153.0499999959999
 30
0.1
 40
2.0
  1
４１
 50
90.0
 41
0.8
  7
KANJI0
100
AcDbText
  0
TEXT
  5
1308
330
CD0
100
AcDbEntity
  8
0
  6
Continuous
 62
     3
100
AcDbText
 10
379.500000003
 20
153.1999999979998
 30
0.0
 40
2.5
  1
４２.５
 50
90.0
 41
0.8
  7
KANJI4
100
AcDbText
  0
ENDSEC
  0
SECTION
  2
OBJECTS
  0
DICTIONARY
  5
CBE
330
0
100
AcDbDictionary
281
     1
  3
ACAD_GROUP
350
CBF
  3
ACAD_PLOTSTYLENAME
350
CC0
  3
ACAD_MLINESTYLE
350
CC8
  3
ACAD_PLOTSETTINGS
350
CCA
  3
ACAD_LAYOUT
350
CCB
  0
DICTIONARY
  5
CBF
102
{ACAD_REACTORS
330
CBE
102
}
330
CBE
100
AcDbDictionary
281
     1
  0
ACDBDICTIONARYWDFLT
  5
CC0
102
{ACAD_REACTORS
330
CBE
102
}
330
CBE
100
AcDbDictionary
281
     1
  3
Normal
350
CC1
100
AcDbDictionaryWithDefault
340
CC1
  0
DICTIONARY
  5
CC8
102
{ACAD_REACTORS
330
CBE
102
}
330
CBE
100
AcDbDictionary
281
     1
  3
Standard
350
CC9
  0
DICTIONARY
  5
CCA
102
{ACAD_REACTORS
330
CBE
102
}
330
CBE
100
AcDbDictionary
281
     1
  0
DICTIONARY
  5
CCB
102
{ACAD_REACTORS
330
CBE
102
}
330
CBE
100
AcDbDictionary
281
     1
  3
ﾚｲｱｳﾄ1
350
CCF
  3
Model
350
CD3
  0
ACDBPLACEHOLDER
  5
CC1
102
{ACAD_REACTORS
330
CC0
102
}
330
CC0
  0
MLINESTYLE
  5
CC9
102
{ACAD_REACTORS
330
CC8
102
}
330
CC8
100
AcDbMlineStyle
  2
STANDARD
 70
     0
  3

 62
   256
 51
90.0
 52
90.0
 71
     2
 49
0.5
 62
   256
  6
BYLAYER
 49
-0.5
 62
   256
  6
BYLAYER
  0
LAYOUT
  5
CCF
102
{ACAD_REACTORS
330
CCB
102
}
330
CCB
100
AcDbPlotSettings
  1

  2
Canon LASER SHOT LBP-880
  4

  6

 40
0.0
 41
0.0
 42
0.0
 43
0.0
 44
0.0
 45
0.0
 46
0.0
 47
0.0
 48
0.0
 49
0.0
140
0.0
141
0.0
142
1.0
143
1.0
 70
   688
 72
     0
 73
     0
 74
     5
  7

 75
    16
147
1.0
148
0.0
149
0.0
100
AcDbLayout
  1
ﾚｲｱｳﾄ1
 70
     1
 71
     1
 10
0.0
 20
0.0
 11
12.0
 21
9.0
 12
0.0
 22
0.0
 32
0.0
 14
1.000000000000000E+20
 24
1.000000000000000E+20
 34
1.000000000000000E+20
 15
-1.000000000000000E+20
 25
-1.000000000000000E+20
 35
-1.000000000000000E+20
146
0.0
 13
0.0
 23
0.0
 33
0.0
 16
1.0
 26
0.0
 36
0.0
 17
0.0
 27
1.0
 37
0.0
 76
     0
330
CCC
  0
LAYOUT
  5
CD3
102
{ACAD_REACTORS
330
CCB
102
}
330
CCB
100
AcDbPlotSettings
  1

  2
Canon LASER SHOT LBP-880
  4

  6

 40
0.0
 41
0.0
 42
0.0
 43
0.0
 44
0.0
 45
0.0
 46
0.0
 47
0.0
 48
0.0
 49
0.0
140
0.0
141
0.0
142
1.0
143
1.0
 70
  1712
 72
     0
 73
     0
 74
     0
  7

 75
     0
147
1.0
148
0.0
149
0.0
100
AcDbLayout
  1
Model
 70
     1
 71
     0
 10
0.0
 20
0.0
 11
12.0
 21
9.0
 12
0.0
 22
0.0
 32
0.0
 14
0.0
 24
0.0
 34
0.0
 15
0.0
 25
0.0
 35
0.0
146
0.0
 13
0.0
 23
0.0
 33
0.0
 16
1.0
 26
0.0
 36
0.0
 17
0.0
 27
1.0
 37
0.0
 76
     0
330
CD0
  0
ENDSEC
  0
EOF
