  0
SECTION
  2
HEADER
  9
$ACADVER
  1
AC1015
  9
$ACADMAINTVER
 70
     6
  9
$DWGCODEPAGE
  3
ANSI_932
  9
$INSBASE
 10
0.0
 20
0.0
 30
0.0
  9
$EXTMIN
 10
-732.6864622774142
 20
-294.6253048272632
 30
-0.0015258207003583
  9
$EXTMAX
 10
-488.9639283029408
 20
-90.0344693635526
 30
0.3005981798057959
  9
$LIMMIN
 10
0.0
 20
0.0
  9
$LIMMAX
 10
420.0
 20
297.0
  9
$ORTHOMODE
 70
     0
  9
$REGENMODE
 70
     1
  9
$FILLMODE
 70
     1
  9
$QTEXTMODE
 70
     0
  9
$MIRRTEXT
 70
     1
  9
$LTSCALE
 40
1.0
  9
$ATTMODE
 70
     1
  9
$TEXTSIZE
 40
0.2
  9
$TRACEWID
 40
0.05
  9
$TEXTSTYLE
  7
STANDARD
  9
$CLAYER
  8
0
  9
$CELTYPE
  6
CONTINUOUS
  9
$CECOLOR
 62
   256
  9
$CELTSCALE
 40
1.0
  9
$DISPSILH
 70
     0
  9
$DIMSCALE
 40
1.0
  9
$DIMASZ
 40
0.18
  9
$DIMEXO
 40
0.0625
  9
$DIMDLI
 40
0.38
  9
$DIMRND
 40
0.0
  9
$DIMDLE
 40
0.0
  9
$DIMEXE
 40
0.18
  9
$DIMTP
 40
0.0
  9
$DIMTM
 40
0.0
  9
$DIMTXT
 40
0.18
  9
$DIMCEN
 40
0.09
  9
$DIMTSZ
 40
0.0
  9
$DIMTOL
 70
     0
  9
$DIMLIM
 70
     0
  9
$DIMTIH
 70
     1
  9
$DIMTOH
 70
     1
  9
$DIMSE1
 70
     0
  9
$DIMSE2
 70
     0
  9
$DIMTAD
 70
     0
  9
$DIMZIN
 70
     0
  9
$DIMBLK
  1

  9
$DIMASO
 70
     1
  9
$DIMSHO
 70
     1
  9
$DIMPOST
  1

  9
$DIMAPOST
  1

  9
$DIMALT
 70
     0
  9
$DIMALTD
 70
     2
  9
$DIMALTF
 40
25.4
  9
$DIMLFAC
 40
1.0
  9
$DIMTOFL
 70
     0
  9
$DIMTVP
 40
0.0
  9
$DIMTIX
 70
     0
  9
$DIMSOXD
 70
     0
  9
$DIMSAH
 70
     0
  9
$DIMBLK1
  1

  9
$DIMBLK2
  1

  9
$DIMSTYLE
  2
Standard
  9
$DIMCLRD
 70
     0
  9
$DIMCLRE
 70
     0
  9
$DIMCLRT
 70
     0
  9
$DIMTFAC
 40
1.0
  9
$DIMGAP
 40
0.09
  9
$DIMJUST
 70
     0
  9
$DIMSD1
 70
     0
  9
$DIMSD2
 70
     0
  9
$DIMTOLJ
 70
     1
  9
$DIMTZIN
 70
     0
  9
$DIMALTZ
 70
     0
  9
$DIMALTTZ
 70
     0
  9
$DIMUPT
 70
     0
  9
$DIMDEC
 70
     4
  9
$DIMTDEC
 70
     4
  9
$DIMALTU
 70
     2
  9
$DIMALTTD
 70
     2
  9
$DIMTXSTY
  7
STANDARD
  9
$DIMAUNIT
 70
     0
  9
$DIMADEC
 70
     0
  9
$DIMALTRND
 40
0.0
  9
$DIMAZIN
 70
     0
  9
$DIMDSEP
 70
    46
  9
$DIMATFIT
 70
     3
  9
$DIMFRAC
 70
     0
  9
$DIMLDRBLK
  1

  9
$DIMLUNIT
 70
     2
  9
$DIMLWD
 70
    -2
  9
$DIMLWE
 70
    -2
  9
$DIMTMOVE
 70
     0
  9
$LUNITS
 70
     2
  9
$LUPREC
 70
     4
  9
$SKETCHINC
 40
0.1
  9
$FILLETRAD
 40
0.0
  9
$AUNITS
 70
     0
  9
$AUPREC
 70
     0
  9
$MENU
  1
.
  9
$ELEVATION
 40
0.0
  9
$PELEVATION
 40
0.0
  9
$THICKNESS
 40
0.0
  9
$LIMCHECK
 70
     0
  9
$CHAMFERA
 40
0.0
  9
$CHAMFERB
 40
0.0
  9
$CHAMFERC
 40
0.0
  9
$CHAMFERD
 40
0.0
  9
$SKPOLY
 70
     0
  9
$TDCREATE
 40
2452699.732280787
  9
$TDUCREATE
 40
2452699.357280787
  9
$TDUPDATE
 40
2452699.743218171
  9
$TDUUPDATE
 40
2452699.368218171
  9
$TDINDWG
 40
0.0109386574
  9
$TDUSRTIMER
 40
0.0109386574
  9
$USRTIMER
 70
     1
  9
$ANGBASE
 50
0.0
  9
$ANGDIR
 70
     0
  9
$PDMODE
 70
     0
  9
$PDSIZE
 40
0.0
  9
$PLINEWID
 40
0.0
  9
$SPLFRAME
 70
     0
  9
$SPLINETYPE
 70
     6
  9
$SPLINESEGS
 70
     8
  9
$HANDSEED
  5
661
  9
$SURFTAB1
 70
     6
  9
$SURFTAB2
 70
     6
  9
$SURFTYPE
 70
     6
  9
$SURFU
 70
     6
  9
$SURFV
 70
     6
  9
$UCSBASE
  2

  9
$UCSNAME
  2

  9
$UCSORG
 10
0.0
 20
0.0
 30
0.0
  9
$UCSXDIR
 10
1.0
 20
0.0
 30
0.0
  9
$UCSYDIR
 10
0.0
 20
1.0
 30
0.0
  9
$UCSORTHOREF
  2

  9
$UCSORTHOVIEW
 70
     0
  9
$UCSORGTOP
 10
0.0
 20
0.0
 30
0.0
  9
$UCSORGBOTTOM
 10
0.0
 20
0.0
 30
0.0
  9
$UCSORGLEFT
 10
0.0
 20
0.0
 30
0.0
  9
$UCSORGRIGHT
 10
0.0
 20
0.0
 30
0.0
  9
$UCSORGFRONT
 10
0.0
 20
0.0
 30
0.0
  9
$UCSORGBACK
 10
0.0
 20
0.0
 30
0.0
  9
$PUCSBASE
  2

  9
$PUCSNAME
  2

  9
$PUCSORG
 10
0.0
 20
0.0
 30
0.0
  9
$PUCSXDIR
 10
1.0
 20
0.0
 30
0.0
  9
$PUCSYDIR
 10
0.0
 20
1.0
 30
0.0
  9
$PUCSORTHOREF
  2

  9
$PUCSORTHOVIEW
 70
     0
  9
$PUCSORGTOP
 10
0.0
 20
0.0
 30
0.0
  9
$PUCSORGBOTTOM
 10
0.0
 20
0.0
 30
0.0
  9
$PUCSORGLEFT
 10
0.0
 20
0.0
 30
0.0
  9
$PUCSORGRIGHT
 10
0.0
 20
0.0
 30
0.0
  9
$PUCSORGFRONT
 10
0.0
 20
0.0
 30
0.0
  9
$PUCSORGBACK
 10
0.0
 20
0.0
 30
0.0
  9
$USERI1
 70
     0
  9
$USERI2
 70
     0
  9
$USERI3
 70
     0
  9
$USERI4
 70
     0
  9
$USERI5
 70
     0
  9
$USERR1
 40
0.0
  9
$USERR2
 40
0.0
  9
$USERR3
 40
0.0
  9
$USERR4
 40
0.0
  9
$USERR5
 40
0.0
  9
$WORLDVIEW
 70
     1
  9
$SHADEDGE
 70
     3
  9
$SHADEDIF
 70
    70
  9
$TILEMODE
 70
     1
  9
$MAXACTVP
 70
    64
  9
$PINSBASE
 10
0.0
 20
0.0
 30
0.0
  9
$PLIMCHECK
 70
     0
  9
$PEXTMIN
 10
1.000000000000000E+20
 20
1.000000000000000E+20
 30
1.000000000000000E+20
  9
$PEXTMAX
 10
-1.000000000000000E+20
 20
-1.000000000000000E+20
 30
-1.000000000000000E+20
  9
$PLIMMIN
 10
0.0
 20
0.0
  9
$PLIMMAX
 10
12.0
 20
9.0
  9
$UNITMODE
 70
     0
  9
$VISRETAIN
 70
     1
  9
$PLINEGEN
 70
     0
  9
$PSLTSCALE
 70
     1
  9
$TREEDEPTH
 70
  3020
  9
$CMLSTYLE
  2
Standard
  9
$CMLJUST
 70
     0
  9
$CMLSCALE
 40
1.0
  9
$PROXYGRAPHICS
 70
     1
  9
$MEASUREMENT
 70
     0
  9
$CELWEIGHT
370
    -1
  9
$ENDCAPS
280
     0
  9
$JOINSTYLE
280
     0
  9
$LWDISPLAY
290
     0
  9
$INSUNITS
 70
     0
  9
$HYPERLINKBASE
  1

  9
$STYLESHEET
  1

  9
$XEDIT
290
     1
  9
$CEPSNTYPE
380
     0
  9
$PSTYLEMODE
290
     1
  9
$FINGERPRINTGUID
  2
{76100E05-A902-4DD8-BC61-6F7B0A60BECC}
  9
$VERSIONGUID
  2
{3DF93680-1DF2-47C2-9A33-6A77174023BC}
  9
$EXTNAMES
290
     1
  9
$PSVPSCALE
 40
0.0
  9
$OLESTARTUP
290
     0
  0
ENDSEC
  0
SECTION
  2
CLASSES
  0
CLASS
  1
ACDBDICTIONARYWDFLT
  2
AcDbDictionaryWithDefault
  3
AutoCAD 2000
 90
        0
280
     0
281
     0
  0
CLASS
  1
ACDBPLACEHOLDER
  2
AcDbPlaceHolder
  3
AutoCAD 2000
 90
        0
280
     0
281
     0
  0
CLASS
  1
LAYOUT
  2
AcDbLayout
  3
AutoCAD 2000
 90
        0
280
     0
281
     0
  0
ENDSEC
  0
SECTION
  2
TABLES
  0
TABLE
  2
VPORT
  5
8
330
0
100
AcDbSymbolTable
 70
     2
  0
VPORT
  5
660
330
8
100
AcDbSymbolTableRecord
100
AcDbViewportTableRecord
  2
*Active
 70
     0
 10
0.0
 20
0.0
 11
1.0
 21
1.0
 12
-582.8565594526939
 22
-176.2176573681861
 13
0.0
 23
0.0
 14
1.0
 24
1.0
 15
0.0
 25
0.0
 16
0.0
 26
0.0
 36
1.0
 17
0.0
 27
0.0
 37
0.0
 40
249.2657420719449
 41
1.761278195488721
 42
50.0
 43
0.0
 44
0.0
 50
0.0
 51
0.0
 71
     0
 72
   100
 73
     1
 74
     1
 75
     0
 76
     0
 77
     0
 78
     0
281
     0
 65
     1
110
0.0
120
0.0
130
0.0
111
1.0
121
0.0
131
0.0
112
0.0
122
1.0
132
0.0
 79
     0
146
0.0
  0
ENDTAB
  0
TABLE
  2
LTYPE
  5
5
330
0
100
AcDbSymbolTable
 70
     2
  0
LTYPE
  5
13
330
5
100
AcDbSymbolTableRecord
100
AcDbLinetypeTableRecord
  2
ByBlock
 70
     0
  3

 72
    65
 73
     0
 40
0.0
  0
LTYPE
  5
14
330
5
100
AcDbSymbolTableRecord
100
AcDbLinetypeTableRecord
  2
ByLayer
 70
     0
  3

 72
    65
 73
     0
 40
0.0
  0
LTYPE
  5
15
330
5
100
AcDbSymbolTableRecord
100
AcDbLinetypeTableRecord
  2
CONTINUOUS
 70
     0
  3
Solid line
 72
    65
 73
     0
 40
0.0
  0
LTYPE
  5
22
330
5
100
AcDbSymbolTableRecord
100
AcDbLinetypeTableRecord
  2
LTYPE1
 70
     0
  3
CENTER
 72
    65
 73
     4
 40
15.0
 49
10.5
 74
     0
 49
-1.5
 74
     0
 49
1.5
 74
     0
 49
-1.5
 74
     0
  0
ENDTAB
  0
TABLE
  2
LAYER
  5
2
330
0
100
AcDbSymbolTable
 70
   128
  0
LAYER
  5
10
330
2
100
AcDbSymbolTableRecord
100
AcDbLayerTableRecord
  2
0
 70
     0
 62
     7
  6
CONTINUOUS
370
    -3
390
F
  0
LAYER
  5
23
330
2
100
AcDbSymbolTableRecord
100
AcDbLayerTableRecord
  2
1
 70
     0
 62
     7
  6
CONTINUOUS
370
    -3
390
F
  0
LAYER
  5
24
330
2
100
AcDbSymbolTableRecord
100
AcDbLayerTableRecord
  2
2
 70
     0
 62
     7
  6
CONTINUOUS
370
    -3
390
F
  0
LAYER
  5
25
330
2
100
AcDbSymbolTableRecord
100
AcDbLayerTableRecord
  2
3
 70
     0
 62
     7
  6
CONTINUOUS
370
    -3
390
F
  0
LAYER
  5
26
330
2
100
AcDbSymbolTableRecord
100
AcDbLayerTableRecord
  2
4
 70
     0
 62
     7
  6
CONTINUOUS
370
    -3
390
F
  0
LAYER
  5
27
330
2
100
AcDbSymbolTableRecord
100
AcDbLayerTableRecord
  2
5
 70
     0
 62
     7
  6
CONTINUOUS
370
    -3
390
F
  0
LAYER
  5
28
330
2
100
AcDbSymbolTableRecord
100
AcDbLayerTableRecord
  2
6
 70
     0
 62
     7
  6
CONTINUOUS
370
    -3
390
F
  0
LAYER
  5
29
330
2
100
AcDbSymbolTableRecord
100
AcDbLayerTableRecord
  2
7
 70
     0
 62
     7
  6
CONTINUOUS
370
    -3
390
F
  0
LAYER
  5
2A
330
2
100
AcDbSymbolTableRecord
100
AcDbLayerTableRecord
  2
8
 70
     0
 62
     7
  6
CONTINUOUS
370
    -3
390
F
  0
LAYER
  5
2B
330
2
100
AcDbSymbolTableRecord
100
AcDbLayerTableRecord
  2
9
 70
     0
 62
     7
  6
CONTINUOUS
370
    -3
390
F
  0
LAYER
  5
2C
330
2
100
AcDbSymbolTableRecord
100
AcDbLayerTableRecord
  2
10
 70
     0
 62
     7
  6
CONTINUOUS
370
    -3
390
F
  0
LAYER
  5
2D
330
2
100
AcDbSymbolTableRecord
100
AcDbLayerTableRecord
  2
11
 70
     0
 62
     7
  6
CONTINUOUS
370
    -3
390
F
  0
LAYER
  5
2E
330
2
100
AcDbSymbolTableRecord
100
AcDbLayerTableRecord
  2
12
 70
     0
 62
     7
  6
CONTINUOUS
370
    -3
390
F
  0
LAYER
  5
2F
330
2
100
AcDbSymbolTableRecord
100
AcDbLayerTableRecord
  2
13
 70
     0
 62
     7
  6
CONTINUOUS
370
    -3
390
F
  0
LAYER
  5
30
330
2
100
AcDbSymbolTableRecord
100
AcDbLayerTableRecord
  2
14
 70
     0
 62
     7
  6
CONTINUOUS
370
    -3
390
F
  0
LAYER
  5
31
330
2
100
AcDbSymbolTableRecord
100
AcDbLayerTableRecord
  2
15
 70
     0
 62
     7
  6
CONTINUOUS
370
    -3
390
F
  0
LAYER
  5
32
330
2
100
AcDbSymbolTableRecord
100
AcDbLayerTableRecord
  2
16
 70
     0
 62
     7
  6
CONTINUOUS
370
    -3
390
F
  0
LAYER
  5
33
330
2
100
AcDbSymbolTableRecord
100
AcDbLayerTableRecord
  2
17
 70
     0
 62
     7
  6
CONTINUOUS
370
    -3
390
F
  0
LAYER
  5
34
330
2
100
AcDbSymbolTableRecord
100
AcDbLayerTableRecord
  2
18
 70
     0
 62
     7
  6
CONTINUOUS
370
    -3
390
F
  0
LAYER
  5
35
330
2
100
AcDbSymbolTableRecord
100
AcDbLayerTableRecord
  2
19
 70
     0
 62
     7
  6
CONTINUOUS
370
    -3
390
F
  0
LAYER
  5
36
330
2
100
AcDbSymbolTableRecord
100
AcDbLayerTableRecord
  2
20
 70
     0
 62
     7
  6
CONTINUOUS
370
    -3
390
F
  0
LAYER
  5
37
330
2
100
AcDbSymbolTableRecord
100
AcDbLayerTableRecord
  2
21
 70
     0
 62
     7
  6
CONTINUOUS
370
    -3
390
F
  0
LAYER
  5
38
330
2
100
AcDbSymbolTableRecord
100
AcDbLayerTableRecord
  2
22
 70
     0
 62
     7
  6
CONTINUOUS
370
    -3
390
F
  0
LAYER
  5
39
330
2
100
AcDbSymbolTableRecord
100
AcDbLayerTableRecord
  2
23
 70
     0
 62
     7
  6
CONTINUOUS
370
    -3
390
F
  0
LAYER
  5
3A
330
2
100
AcDbSymbolTableRecord
100
AcDbLayerTableRecord
  2
24
 70
     0
 62
     7
  6
CONTINUOUS
370
    -3
390
F
  0
LAYER
  5
3B
330
2
100
AcDbSymbolTableRecord
100
AcDbLayerTableRecord
  2
25
 70
     0
 62
     7
  6
CONTINUOUS
370
    -3
390
F
  0
LAYER
  5
3C
330
2
100
AcDbSymbolTableRecord
100
AcDbLayerTableRecord
  2
26
 70
     0
 62
     7
  6
CONTINUOUS
370
    -3
390
F
  0
LAYER
  5
3D
330
2
100
AcDbSymbolTableRecord
100
AcDbLayerTableRecord
  2
27
 70
     0
 62
     7
  6
CONTINUOUS
370
    -3
390
F
  0
LAYER
  5
3E
330
2
100
AcDbSymbolTableRecord
100
AcDbLayerTableRecord
  2
28
 70
     0
 62
     7
  6
CONTINUOUS
370
    -3
390
F
  0
LAYER
  5
3F
330
2
100
AcDbSymbolTableRecord
100
AcDbLayerTableRecord
  2
29
 70
     0
 62
     7
  6
CONTINUOUS
370
    -3
390
F
  0
LAYER
  5
40
330
2
100
AcDbSymbolTableRecord
100
AcDbLayerTableRecord
  2
30
 70
     0
 62
     7
  6
CONTINUOUS
370
    -3
390
F
  0
LAYER
  5
41
330
2
100
AcDbSymbolTableRecord
100
AcDbLayerTableRecord
  2
31
 70
     0
 62
     7
  6
CONTINUOUS
370
    -3
390
F
  0
LAYER
  5
42
330
2
100
AcDbSymbolTableRecord
100
AcDbLayerTableRecord
  2
32
 70
     0
 62
     7
  6
CONTINUOUS
370
    -3
390
F
  0
LAYER
  5
43
330
2
100
AcDbSymbolTableRecord
100
AcDbLayerTableRecord
  2
33
 70
     0
 62
     7
  6
CONTINUOUS
370
    -3
390
F
  0
LAYER
  5
44
330
2
100
AcDbSymbolTableRecord
100
AcDbLayerTableRecord
  2
34
 70
     0
 62
     7
  6
CONTINUOUS
370
    -3
390
F
  0
LAYER
  5
45
330
2
100
AcDbSymbolTableRecord
100
AcDbLayerTableRecord
  2
35
 70
     0
 62
     7
  6
CONTINUOUS
370
    -3
390
F
  0
LAYER
  5
46
330
2
100
AcDbSymbolTableRecord
100
AcDbLayerTableRecord
  2
36
 70
     0
 62
     7
  6
CONTINUOUS
370
    -3
390
F
  0
LAYER
  5
47
330
2
100
AcDbSymbolTableRecord
100
AcDbLayerTableRecord
  2
37
 70
     0
 62
     7
  6
CONTINUOUS
370
    -3
390
F
  0
LAYER
  5
48
330
2
100
AcDbSymbolTableRecord
100
AcDbLayerTableRecord
  2
38
 70
     0
 62
     7
  6
CONTINUOUS
370
    -3
390
F
  0
LAYER
  5
49
330
2
100
AcDbSymbolTableRecord
100
AcDbLayerTableRecord
  2
39
 70
     0
 62
     7
  6
CONTINUOUS
370
    -3
390
F
  0
LAYER
  5
4A
330
2
100
AcDbSymbolTableRecord
100
AcDbLayerTableRecord
  2
40
 70
     0
 62
     7
  6
CONTINUOUS
370
    -3
390
F
  0
LAYER
  5
4B
330
2
100
AcDbSymbolTableRecord
100
AcDbLayerTableRecord
  2
41
 70
     0
 62
     7
  6
CONTINUOUS
370
    -3
390
F
  0
LAYER
  5
4C
330
2
100
AcDbSymbolTableRecord
100
AcDbLayerTableRecord
  2
42
 70
     0
 62
     7
  6
CONTINUOUS
370
    -3
390
F
  0
LAYER
  5
4D
330
2
100
AcDbSymbolTableRecord
100
AcDbLayerTableRecord
  2
43
 70
     0
 62
     7
  6
CONTINUOUS
370
    -3
390
F
  0
LAYER
  5
4E
330
2
100
AcDbSymbolTableRecord
100
AcDbLayerTableRecord
  2
44
 70
     0
 62
     7
  6
CONTINUOUS
370
    -3
390
F
  0
LAYER
  5
4F
330
2
100
AcDbSymbolTableRecord
100
AcDbLayerTableRecord
  2
45
 70
     0
 62
     7
  6
CONTINUOUS
370
    -3
390
F
  0
LAYER
  5
50
330
2
100
AcDbSymbolTableRecord
100
AcDbLayerTableRecord
  2
46
 70
     0
 62
     7
  6
CONTINUOUS
370
    -3
390
F
  0
LAYER
  5
51
330
2
100
AcDbSymbolTableRecord
100
AcDbLayerTableRecord
  2
47
 70
     0
 62
     7
  6
CONTINUOUS
370
    -3
390
F
  0
LAYER
  5
52
330
2
100
AcDbSymbolTableRecord
100
AcDbLayerTableRecord
  2
48
 70
     0
 62
     7
  6
CONTINUOUS
370
    -3
390
F
  0
LAYER
  5
53
330
2
100
AcDbSymbolTableRecord
100
AcDbLayerTableRecord
  2
49
 70
     0
 62
     7
  6
CONTINUOUS
370
    -3
390
F
  0
LAYER
  5
54
330
2
100
AcDbSymbolTableRecord
100
AcDbLayerTableRecord
  2
50
 70
     0
 62
     7
  6
CONTINUOUS
370
    -3
390
F
  0
LAYER
  5
55
330
2
100
AcDbSymbolTableRecord
100
AcDbLayerTableRecord
  2
51
 70
     0
 62
     7
  6
CONTINUOUS
370
    -3
390
F
  0
LAYER
  5
56
330
2
100
AcDbSymbolTableRecord
100
AcDbLayerTableRecord
  2
52
 70
     0
 62
     7
  6
CONTINUOUS
370
    -3
390
F
  0
LAYER
  5
57
330
2
100
AcDbSymbolTableRecord
100
AcDbLayerTableRecord
  2
53
 70
     0
 62
     7
  6
CONTINUOUS
370
    -3
390
F
  0
LAYER
  5
58
330
2
100
AcDbSymbolTableRecord
100
AcDbLayerTableRecord
  2
54
 70
     0
 62
     7
  6
CONTINUOUS
370
    -3
390
F
  0
LAYER
  5
59
330
2
100
AcDbSymbolTableRecord
100
AcDbLayerTableRecord
  2
55
 70
     0
 62
     7
  6
CONTINUOUS
370
    -3
390
F
  0
LAYER
  5
5A
330
2
100
AcDbSymbolTableRecord
100
AcDbLayerTableRecord
  2
56
 70
     0
 62
     7
  6
CONTINUOUS
370
    -3
390
F
  0
LAYER
  5
5B
330
2
100
AcDbSymbolTableRecord
100
AcDbLayerTableRecord
  2
57
 70
     0
 62
     7
  6
CONTINUOUS
370
    -3
390
F
  0
LAYER
  5
5C
330
2
100
AcDbSymbolTableRecord
100
AcDbLayerTableRecord
  2
58
 70
     0
 62
     7
  6
CONTINUOUS
370
    -3
390
F
  0
LAYER
  5
5D
330
2
100
AcDbSymbolTableRecord
100
AcDbLayerTableRecord
  2
59
 70
     0
 62
     7
  6
CONTINUOUS
370
    -3
390
F
  0
LAYER
  5
5E
330
2
100
AcDbSymbolTableRecord
100
AcDbLayerTableRecord
  2
60
 70
     0
 62
     7
  6
CONTINUOUS
370
    -3
390
F
  0
LAYER
  5
5F
330
2
100
AcDbSymbolTableRecord
100
AcDbLayerTableRecord
  2
61
 70
     0
 62
     7
  6
CONTINUOUS
370
    -3
390
F
  0
LAYER
  5
60
330
2
100
AcDbSymbolTableRecord
100
AcDbLayerTableRecord
  2
62
 70
     0
 62
     7
  6
CONTINUOUS
370
    -3
390
F
  0
LAYER
  5
61
330
2
100
AcDbSymbolTableRecord
100
AcDbLayerTableRecord
  2
63
 70
     0
 62
     7
  6
CONTINUOUS
370
    -3
390
F
  0
LAYER
  5
62
330
2
100
AcDbSymbolTableRecord
100
AcDbLayerTableRecord
  2
64
 70
     0
 62
     7
  6
CONTINUOUS
370
    -3
390
F
  0
LAYER
  5
63
330
2
100
AcDbSymbolTableRecord
100
AcDbLayerTableRecord
  2
65
 70
     0
 62
     7
  6
CONTINUOUS
370
    -3
390
F
  0
LAYER
  5
64
330
2
100
AcDbSymbolTableRecord
100
AcDbLayerTableRecord
  2
66
 70
     0
 62
     7
  6
CONTINUOUS
370
    -3
390
F
  0
LAYER
  5
65
330
2
100
AcDbSymbolTableRecord
100
AcDbLayerTableRecord
  2
67
 70
     0
 62
     7
  6
CONTINUOUS
370
    -3
390
F
  0
LAYER
  5
66
330
2
100
AcDbSymbolTableRecord
100
AcDbLayerTableRecord
  2
68
 70
     0
 62
     7
  6
CONTINUOUS
370
    -3
390
F
  0
LAYER
  5
67
330
2
100
AcDbSymbolTableRecord
100
AcDbLayerTableRecord
  2
69
 70
     0
 62
     7
  6
CONTINUOUS
370
    -3
390
F
  0
LAYER
  5
68
330
2
100
AcDbSymbolTableRecord
100
AcDbLayerTableRecord
  2
70
 70
     0
 62
     7
  6
CONTINUOUS
370
    -3
390
F
  0
LAYER
  5
69
330
2
100
AcDbSymbolTableRecord
100
AcDbLayerTableRecord
  2
71
 70
     0
 62
     7
  6
CONTINUOUS
370
    -3
390
F
  0
LAYER
  5
6A
330
2
100
AcDbSymbolTableRecord
100
AcDbLayerTableRecord
  2
72
 70
     0
 62
     7
  6
CONTINUOUS
370
    -3
390
F
  0
LAYER
  5
6B
330
2
100
AcDbSymbolTableRecord
100
AcDbLayerTableRecord
  2
73
 70
     0
 62
     7
  6
CONTINUOUS
370
    -3
390
F
  0
LAYER
  5
6C
330
2
100
AcDbSymbolTableRecord
100
AcDbLayerTableRecord
  2
74
 70
     0
 62
     7
  6
CONTINUOUS
370
    -3
390
F
  0
LAYER
  5
6D
330
2
100
AcDbSymbolTableRecord
100
AcDbLayerTableRecord
  2
75
 70
     0
 62
     7
  6
CONTINUOUS
370
    -3
390
F
  0
LAYER
  5
6E
330
2
100
AcDbSymbolTableRecord
100
AcDbLayerTableRecord
  2
76
 70
     0
 62
     7
  6
CONTINUOUS
370
    -3
390
F
  0
LAYER
  5
6F
330
2
100
AcDbSymbolTableRecord
100
AcDbLayerTableRecord
  2
77
 70
     0
 62
     7
  6
CONTINUOUS
370
    -3
390
F
  0
LAYER
  5
70
330
2
100
AcDbSymbolTableRecord
100
AcDbLayerTableRecord
  2
78
 70
     0
 62
     7
  6
CONTINUOUS
370
    -3
390
F
  0
LAYER
  5
71
330
2
100
AcDbSymbolTableRecord
100
AcDbLayerTableRecord
  2
79
 70
     0
 62
     7
  6
CONTINUOUS
370
    -3
390
F
  0
LAYER
  5
72
330
2
100
AcDbSymbolTableRecord
100
AcDbLayerTableRecord
  2
80
 70
     0
 62
     7
  6
CONTINUOUS
370
    -3
390
F
  0
LAYER
  5
73
330
2
100
AcDbSymbolTableRecord
100
AcDbLayerTableRecord
  2
81
 70
     0
 62
     7
  6
CONTINUOUS
370
    -3
390
F
  0
LAYER
  5
74
330
2
100
AcDbSymbolTableRecord
100
AcDbLayerTableRecord
  2
82
 70
     0
 62
     7
  6
CONTINUOUS
370
    -3
390
F
  0
LAYER
  5
75
330
2
100
AcDbSymbolTableRecord
100
AcDbLayerTableRecord
  2
83
 70
     0
 62
     7
  6
CONTINUOUS
370
    -3
390
F
  0
LAYER
  5
76
330
2
100
AcDbSymbolTableRecord
100
AcDbLayerTableRecord
  2
84
 70
     0
 62
     7
  6
CONTINUOUS
370
    -3
390
F
  0
LAYER
  5
77
330
2
100
AcDbSymbolTableRecord
100
AcDbLayerTableRecord
  2
85
 70
     0
 62
     7
  6
CONTINUOUS
370
    -3
390
F
  0
LAYER
  5
78
330
2
100
AcDbSymbolTableRecord
100
AcDbLayerTableRecord
  2
86
 70
     0
 62
     7
  6
CONTINUOUS
370
    -3
390
F
  0
LAYER
  5
79
330
2
100
AcDbSymbolTableRecord
100
AcDbLayerTableRecord
  2
87
 70
     0
 62
     7
  6
CONTINUOUS
370
    -3
390
F
  0
LAYER
  5
7A
330
2
100
AcDbSymbolTableRecord
100
AcDbLayerTableRecord
  2
88
 70
     0
 62
     7
  6
CONTINUOUS
370
    -3
390
F
  0
LAYER
  5
7B
330
2
100
AcDbSymbolTableRecord
100
AcDbLayerTableRecord
  2
89
 70
     0
 62
     7
  6
CONTINUOUS
370
    -3
390
F
  0
LAYER
  5
7C
330
2
100
AcDbSymbolTableRecord
100
AcDbLayerTableRecord
  2
90
 70
     0
 62
     7
  6
CONTINUOUS
370
    -3
390
F
  0
LAYER
  5
7D
330
2
100
AcDbSymbolTableRecord
100
AcDbLayerTableRecord
  2
91
 70
     0
 62
     7
  6
CONTINUOUS
370
    -3
390
F
  0
LAYER
  5
7E
330
2
100
AcDbSymbolTableRecord
100
AcDbLayerTableRecord
  2
92
 70
     0
 62
     7
  6
CONTINUOUS
370
    -3
390
F
  0
LAYER
  5
7F
330
2
100
AcDbSymbolTableRecord
100
AcDbLayerTableRecord
  2
93
 70
     0
 62
     7
  6
CONTINUOUS
370
    -3
390
F
  0
LAYER
  5
80
330
2
100
AcDbSymbolTableRecord
100
AcDbLayerTableRecord
  2
94
 70
     0
 62
     7
  6
CONTINUOUS
370
    -3
390
F
  0
LAYER
  5
81
330
2
100
AcDbSymbolTableRecord
100
AcDbLayerTableRecord
  2
95
 70
     0
 62
     7
  6
CONTINUOUS
370
    -3
390
F
  0
LAYER
  5
82
330
2
100
AcDbSymbolTableRecord
100
AcDbLayerTableRecord
  2
96
 70
     0
 62
     7
  6
CONTINUOUS
370
    -3
390
F
  0
LAYER
  5
83
330
2
100
AcDbSymbolTableRecord
100
AcDbLayerTableRecord
  2
97
 70
     0
 62
     7
  6
CONTINUOUS
370
    -3
390
F
  0
LAYER
  5
84
330
2
100
AcDbSymbolTableRecord
100
AcDbLayerTableRecord
  2
98
 70
     0
 62
     7
  6
CONTINUOUS
370
    -3
390
F
  0
LAYER
  5
85
330
2
100
AcDbSymbolTableRecord
100
AcDbLayerTableRecord
  2
99
 70
     0
 62
     7
  6
CONTINUOUS
370
    -3
390
F
  0
LAYER
  5
86
330
2
100
AcDbSymbolTableRecord
100
AcDbLayerTableRecord
  2
100
 70
     0
 62
     7
  6
CONTINUOUS
370
    -3
390
F
  0
LAYER
  5
87
330
2
100
AcDbSymbolTableRecord
100
AcDbLayerTableRecord
  2
101
 70
     0
 62
     7
  6
CONTINUOUS
370
    -3
390
F
  0
LAYER
  5
88
330
2
100
AcDbSymbolTableRecord
100
AcDbLayerTableRecord
  2
102
 70
     0
 62
     7
  6
CONTINUOUS
370
    -3
390
F
  0
LAYER
  5
89
330
2
100
AcDbSymbolTableRecord
100
AcDbLayerTableRecord
  2
103
 70
     0
 62
     7
  6
CONTINUOUS
370
    -3
390
F
  0
LAYER
  5
8A
330
2
100
AcDbSymbolTableRecord
100
AcDbLayerTableRecord
  2
104
 70
     0
 62
     7
  6
CONTINUOUS
370
    -3
390
F
  0
LAYER
  5
8B
330
2
100
AcDbSymbolTableRecord
100
AcDbLayerTableRecord
  2
105
 70
     0
 62
     7
  6
CONTINUOUS
370
    -3
390
F
  0
LAYER
  5
8C
330
2
100
AcDbSymbolTableRecord
100
AcDbLayerTableRecord
  2
106
 70
     0
 62
     7
  6
CONTINUOUS
370
    -3
390
F
  0
LAYER
  5
8D
330
2
100
AcDbSymbolTableRecord
100
AcDbLayerTableRecord
  2
107
 70
     0
 62
     7
  6
CONTINUOUS
370
    -3
390
F
  0
LAYER
  5
8E
330
2
100
AcDbSymbolTableRecord
100
AcDbLayerTableRecord
  2
108
 70
     0
 62
     7
  6
CONTINUOUS
370
    -3
390
F
  0
LAYER
  5
8F
330
2
100
AcDbSymbolTableRecord
100
AcDbLayerTableRecord
  2
109
 70
     0
 62
     7
  6
CONTINUOUS
370
    -3
390
F
  0
LAYER
  5
90
330
2
100
AcDbSymbolTableRecord
100
AcDbLayerTableRecord
  2
110
 70
     0
 62
     7
  6
CONTINUOUS
370
    -3
390
F
  0
LAYER
  5
91
330
2
100
AcDbSymbolTableRecord
100
AcDbLayerTableRecord
  2
111
 70
     0
 62
     7
  6
CONTINUOUS
370
    -3
390
F
  0
LAYER
  5
92
330
2
100
AcDbSymbolTableRecord
100
AcDbLayerTableRecord
  2
112
 70
     0
 62
     7
  6
CONTINUOUS
370
    -3
390
F
  0
LAYER
  5
93
330
2
100
AcDbSymbolTableRecord
100
AcDbLayerTableRecord
  2
113
 70
     0
 62
     7
  6
CONTINUOUS
370
    -3
390
F
  0
LAYER
  5
94
330
2
100
AcDbSymbolTableRecord
100
AcDbLayerTableRecord
  2
114
 70
     0
 62
     7
  6
CONTINUOUS
370
    -3
390
F
  0
LAYER
  5
95
330
2
100
AcDbSymbolTableRecord
100
AcDbLayerTableRecord
  2
115
 70
     0
 62
     7
  6
CONTINUOUS
370
    -3
390
F
  0
LAYER
  5
96
330
2
100
AcDbSymbolTableRecord
100
AcDbLayerTableRecord
  2
116
 70
     0
 62
     7
  6
CONTINUOUS
370
    -3
390
F
  0
LAYER
  5
97
330
2
100
AcDbSymbolTableRecord
100
AcDbLayerTableRecord
  2
117
 70
     0
 62
     7
  6
CONTINUOUS
370
    -3
390
F
  0
LAYER
  5
98
330
2
100
AcDbSymbolTableRecord
100
AcDbLayerTableRecord
  2
118
 70
     0
 62
     7
  6
CONTINUOUS
370
    -3
390
F
  0
LAYER
  5
99
330
2
100
AcDbSymbolTableRecord
100
AcDbLayerTableRecord
  2
119
 70
     0
 62
     7
  6
CONTINUOUS
370
    -3
390
F
  0
LAYER
  5
9A
330
2
100
AcDbSymbolTableRecord
100
AcDbLayerTableRecord
  2
120
 70
     0
 62
     7
  6
CONTINUOUS
370
    -3
390
F
  0
LAYER
  5
9B
330
2
100
AcDbSymbolTableRecord
100
AcDbLayerTableRecord
  2
121
 70
     0
 62
     7
  6
CONTINUOUS
370
    -3
390
F
  0
LAYER
  5
9C
330
2
100
AcDbSymbolTableRecord
100
AcDbLayerTableRecord
  2
122
 70
     0
 62
     7
  6
CONTINUOUS
370
    -3
390
F
  0
LAYER
  5
9D
330
2
100
AcDbSymbolTableRecord
100
AcDbLayerTableRecord
  2
123
 70
     0
 62
     7
  6
CONTINUOUS
370
    -3
390
F
  0
LAYER
  5
9E
330
2
100
AcDbSymbolTableRecord
100
AcDbLayerTableRecord
  2
124
 70
     0
 62
     7
  6
CONTINUOUS
370
    -3
390
F
  0
LAYER
  5
9F
330
2
100
AcDbSymbolTableRecord
100
AcDbLayerTableRecord
  2
125
 70
     0
 62
     7
  6
CONTINUOUS
370
    -3
390
F
  0
LAYER
  5
A0
330
2
100
AcDbSymbolTableRecord
100
AcDbLayerTableRecord
  2
126
 70
     0
 62
     7
  6
CONTINUOUS
370
    -3
390
F
  0
LAYER
  5
A1
330
2
100
AcDbSymbolTableRecord
100
AcDbLayerTableRecord
  2
127
 70
     0
 62
     7
  6
CONTINUOUS
370
    -3
390
F
  0
ENDTAB
  0
TABLE
  2
STYLE
  5
3
330
0
100
AcDbSymbolTable
 70
     3
  0
STYLE
  5
11
330
3
100
AcDbSymbolTableRecord
100
AcDbTextStyleTableRecord
  2
STANDARD
 70
     0
 40
0.0
 41
1.0
 50
0.0
 71
     0
 42
0.2
  3
txt
  4

  0
STYLE
  5
A2
330
3
100
AcDbSymbolTableRecord
100
AcDbTextStyleTableRecord
  2
KANJI0
 70
     0
 40
3.0
 41
0.6
 50
0.0
 71
     0
 42
3.0
  3

  4
bigfont
  0
STYLE
  5
A3
330
3
100
AcDbSymbolTableRecord
100
AcDbTextStyleTableRecord
  2
KANJI1
 70
     0
 40
2.0
 41
0.8
 50
0.0
 71
     0
 42
2.0
  3

  4
bigfont
  0
ENDTAB
  0
TABLE
  2
VIEW
  5
6
330
0
100
AcDbSymbolTable
 70
     0
  0
ENDTAB
  0
TABLE
  2
UCS
  5
7
330
0
100
AcDbSymbolTable
 70
     0
  0
ENDTAB
  0
TABLE
  2
APPID
  5
9
330
0
100
AcDbSymbolTable
 70
     1
  0
APPID
  5
12
330
9
100
AcDbSymbolTableRecord
100
AcDbRegAppTableRecord
  2
ACAD
 70
     0
  0
ENDTAB
  0
TABLE
  2
DIMSTYLE
  5
A
330
0
100
AcDbSymbolTable
 70
     1
100
AcDbDimStyleTable
 71
     0
  0
DIMSTYLE
105
65E
330
A
100
AcDbSymbolTableRecord
100
AcDbDimStyleTableRecord
  2
Standard
 70
     0
340
11
  0
ENDTAB
  0
TABLE
  2
BLOCK_RECORD
  5
1
330
0
100
AcDbSymbolTable
 70
     0
  0
BLOCK_RECORD
  5
1E
330
1
100
AcDbSymbolTableRecord
100
AcDbBlockTableRecord
  2
*Model_Space
340
21
  0
BLOCK_RECORD
  5
1A
330
1
100
AcDbSymbolTableRecord
100
AcDbBlockTableRecord
  2
*Paper_Space
340
1D
  0
ENDTAB
  0
ENDSEC
  0
SECTION
  2
BLOCKS
  0
BLOCK
  5
1F
330
1E
100
AcDbEntity
  8
0
100
AcDbBlockBegin
  2
*Model_Space
 70
     0
 10
0.0
 20
0.0
 30
0.0
  3
*Model_Space
  1

  0
ENDBLK
  5
20
330
1E
100
AcDbEntity
  8
0
100
AcDbBlockEnd
  0
BLOCK
  5
1B
330
1A
100
AcDbEntity
 67
     1
  8
0
100
AcDbBlockBegin
  2
*Paper_Space
 70
     0
 10
0.0
 20
0.0
 30
0.0
  3
*Paper_Space
  1

  0
ENDBLK
  5
1C
330
1A
100
AcDbEntity
 67
     1
  8
0
100
AcDbBlockEnd
  0
ENDSEC
  0
SECTION
  2
ENTITIES
  0
LWPOLYLINE
  5
A7
330
1E
100
AcDbEntity
  8
0
 62
     1
100
AcDbPolyline
 90
        3
 70
     0
 43
0.0
 10
1.269263905633295E+99
 20
-5.479536498971391E+72
 10
1.269263905633295E+99
 20
-5.479536498971391E+72
 10
1.269263905633295E+99
 20
-5.479536498971391E+72
  0
LINE
  5
AC
330
1E
100
AcDbEntity
  8
0
  6
Continuous
 62
     1
100
AcDbLine
 10
-5.941616374145985E+73
 20
125.593650809
 30
0.0
 11
-5.941616374145985E+73
 21
126.240698422
 31
0.0
  0
LINE
  5
AD
330
1E
100
AcDbEntity
  8
0
  6
Continuous
 62
     1
100
AcDbLine
 10
-5.941616374145985E+73
 20
125.593650809
 30
0.0
 11
-5.941616374145985E+73
 21
124.9466031959999
 31
0.0
  0
POINT
  5
AE
330
1E
100
AcDbEntity
  8
0
  6
Continuous
 62
     1
100
AcDbPoint
 10
1.269263905633295E+99
 20
-5.479536498971391E+72
 30
0.0
  0
POINT
  5
AF
330
1E
100
AcDbEntity
  8
0
  6
Continuous
 62
     1
100
AcDbPoint
 10
1.269263905633295E+99
 20
-5.479536498971391E+72
 30
0.0
  0
LINE
  5
B0
330
1E
100
AcDbEntity
  8
0
  6
Continuous
 62
     1
100
AcDbLine
 10
-5.941616374145985E+73
 20
125.593650809
 30
0.0
 11
-5.941616374145985E+73
 21
126.240698422
 31
0.0
  0
LINE
  5
B1
330
1E
100
AcDbEntity
  8
0
  6
Continuous
 62
     1
100
AcDbLine
 10
-5.941616374145985E+73
 20
125.593650809
 30
0.0
 11
-5.941616374145985E+73
 21
124.9466031959999
 31
0.0
  0
LWPOLYLINE
  5
B2
330
1E
100
AcDbEntity
  8
0
 62
     1
100
AcDbPolyline
 90
        3
 70
     0
 43
0.0
 10
3.141492651413534E+99
 20
1.269263905633295E+99
 10
3.141492651413534E+99
 20
1.269263905633295E+99
 10
3.141492651413534E+99
 20
1.269263905633295E+99
  0
POINT
  5
B7
330
1E
100
AcDbEntity
  8
0
  6
Continuous
 62
     1
100
AcDbPoint
 10
-1.470580238991736E+63
 20
-5.941616374145985E+73
 30
0.0
  0
POINT
  5
B8
330
1E
100
AcDbEntity
  8
0
  6
Continuous
 62
     1
100
AcDbPoint
 10
-1.470580238991736E+63
 20
-5.941616374145985E+73
 30
0.0
  0
POINT
  5
B9
330
1E
100
AcDbEntity
  8
0
  6
Continuous
 62
     1
100
AcDbPoint
 10
3.141492651413534E+99
 20
1.269263905633295E+99
 30
0.0
  0
POINT
  5
BA
330
1E
100
AcDbEntity
  8
0
  6
Continuous
 62
     1
100
AcDbPoint
 10
3.141492651413534E+99
 20
1.269263905633295E+99
 30
0.0
  0
POINT
  5
BB
330
1E
100
AcDbEntity
  8
0
  6
Continuous
 62
     1
100
AcDbPoint
 10
-1.470580238991736E+63
 20
-5.941616374145985E+73
 30
0.0
  0
POINT
  5
BC
330
1E
100
AcDbEntity
  8
0
  6
Continuous
 62
     1
100
AcDbPoint
 10
-1.470580238991736E+63
 20
-5.941616374145985E+73
 30
0.0
  0
POINT
  5
BD
330
1E
100
AcDbEntity
  8
0
  6
Continuous
 62
     1
100
AcDbPoint
 10
3.141492651413534E+99
 20
1.269263905633295E+99
 30
0.0
  0
POINT
  5
BE
330
1E
100
AcDbEntity
  8
0
  6
Continuous
 62
     1
100
AcDbPoint
 10
3.141492651413534E+99
 20
1.269263905633295E+99
 30
0.0
  0
POINT
  5
BF
330
1E
100
AcDbEntity
  8
0
  6
Continuous
 62
     1
100
AcDbPoint
 10
-1.470580238991736E+63
 20
-5.941616374145985E+73
 30
0.0
  0
POINT
  5
C0
330
1E
100
AcDbEntity
  8
0
  6
Continuous
 62
     1
100
AcDbPoint
 10
-1.470580238991736E+63
 20
-5.941616374145985E+73
 30
0.0
  0
POINT
  5
C1
330
1E
100
AcDbEntity
  8
0
  6
Continuous
 62
     1
100
AcDbPoint
 10
3.141492651413534E+99
 20
1.269263905633295E+99
 30
0.0
  0
POINT
  5
C2
330
1E
100
AcDbEntity
  8
0
  6
Continuous
 62
     1
100
AcDbPoint
 10
3.141492651413534E+99
 20
1.269263905633295E+99
 30
0.0
  0
POINT
  5
C3
330
1E
100
AcDbEntity
  8
0
  6
Continuous
 62
     1
100
AcDbPoint
 10
-1.470580238991736E+63
 20
-5.941616374145985E+73
 30
0.0
  0
POINT
  5
C4
330
1E
100
AcDbEntity
  8
0
  6
Continuous
 62
     1
100
AcDbPoint
 10
-1.470580238991736E+63
 20
-5.941616374145985E+73
 30
0.0
  0
POINT
  5
C5
330
1E
100
AcDbEntity
  8
0
  6
Continuous
 62
     1
100
AcDbPoint
 10
3.141492651413534E+99
 20
1.269263905633295E+99
 30
0.0
  0
POINT
  5
C6
330
1E
100
AcDbEntity
  8
0
  6
Continuous
 62
     1
100
AcDbPoint
 10
3.141492651413534E+99
 20
1.269263905633295E+99
 30
0.0
  0
POINT
  5
C7
330
1E
100
AcDbEntity
  8
0
  6
Continuous
 62
     1
100
AcDbPoint
 10
-1.470580238991736E+63
 20
-5.941616374145985E+73
 30
0.0
  0
POINT
  5
C8
330
1E
100
AcDbEntity
  8
0
  6
Continuous
 62
     1
100
AcDbPoint
 10
-1.470580238991736E+63
 20
-5.941616374145985E+73
 30
0.0
  0
POINT
  5
C9
330
1E
100
AcDbEntity
  8
0
  6
Continuous
 62
     1
100
AcDbPoint
 10
3.141492651413534E+99
 20
1.269263905633295E+99
 30
0.0
  0
POINT
  5
CA
330
1E
100
AcDbEntity
  8
0
  6
Continuous
 62
     1
100
AcDbPoint
 10
3.141492651413534E+99
 20
1.269263905633295E+99
 30
0.0
  0
POINT
  5
CB
330
1E
100
AcDbEntity
  8
0
  6
Continuous
 62
     1
100
AcDbPoint
 10
-1.470580238991736E+63
 20
-5.941616374145985E+73
 30
0.0
  0
POINT
  5
CC
330
1E
100
AcDbEntity
  8
0
  6
Continuous
 62
     1
100
AcDbPoint
 10
-1.470580238991736E+63
 20
-5.941616374145985E+73
 30
0.0
  0
LWPOLYLINE
  5
CD
330
1E
100
AcDbEntity
  8
0
 62
     1
100
AcDbPolyline
 90
        3
 70
     0
 43
0.0
 10
3.141492651413534E+99
 20
1.269263905633295E+99
 10
3.141492651413534E+99
 20
1.269263905633295E+99
 10
3.141492651413534E+99
 20
1.269263905633295E+99
  0
POINT
  5
D2
330
1E
100
AcDbEntity
  8
0
  6
Continuous
 62
     1
100
AcDbPoint
 10
-1.470580238991736E+63
 20
-5.941616374145985E+73
 30
0.0
  0
POINT
  5
D3
330
1E
100
AcDbEntity
  8
0
  6
Continuous
 62
     1
100
AcDbPoint
 10
-1.470580238991736E+63
 20
-5.941616374145985E+73
 30
0.0
  0
POINT
  5
D4
330
1E
100
AcDbEntity
  8
0
  6
Continuous
 62
     1
100
AcDbPoint
 10
3.141492651413534E+99
 20
1.269263905633295E+99
 30
0.0
  0
POINT
  5
D5
330
1E
100
AcDbEntity
  8
0
  6
Continuous
 62
     1
100
AcDbPoint
 10
3.141492651413534E+99
 20
1.269263905633295E+99
 30
0.0
  0
POINT
  5
D6
330
1E
100
AcDbEntity
  8
0
  6
Continuous
 62
     1
100
AcDbPoint
 10
-1.470580238991736E+63
 20
-5.941616374145985E+73
 30
0.0
  0
POINT
  5
D7
330
1E
100
AcDbEntity
  8
0
  6
Continuous
 62
     1
100
AcDbPoint
 10
-1.470580238991736E+63
 20
-5.941616374145985E+73
 30
0.0
  0
POINT
  5
D8
330
1E
100
AcDbEntity
  8
0
  6
Continuous
 62
     1
100
AcDbPoint
 10
3.141492651413534E+99
 20
1.269263905633295E+99
 30
0.0
  0
POINT
  5
D9
330
1E
100
AcDbEntity
  8
0
  6
Continuous
 62
     1
100
AcDbPoint
 10
3.141492651413534E+99
 20
1.269263905633295E+99
 30
0.0
  0
POINT
  5
DA
330
1E
100
AcDbEntity
  8
0
  6
Continuous
 62
     1
100
AcDbPoint
 10
-1.470580238991736E+63
 20
-5.941616374145985E+73
 30
0.0
  0
POINT
  5
DB
330
1E
100
AcDbEntity
  8
0
  6
Continuous
 62
     1
100
AcDbPoint
 10
-1.470580238991736E+63
 20
-5.941616374145985E+73
 30
0.0
  0
POINT
  5
DC
330
1E
100
AcDbEntity
  8
0
  6
Continuous
 62
     1
100
AcDbPoint
 10
3.141492651413534E+99
 20
1.269263905633295E+99
 30
0.0
  0
POINT
  5
DD
330
1E
100
AcDbEntity
  8
0
  6
Continuous
 62
     1
100
AcDbPoint
 10
3.141492651413534E+99
 20
1.269263905633295E+99
 30
0.0
  0
POINT
  5
DE
330
1E
100
AcDbEntity
  8
0
  6
Continuous
 62
     1
100
AcDbPoint
 10
-1.470580238991736E+63
 20
-5.941616374145985E+73
 30
0.0
  0
POINT
  5
DF
330
1E
100
AcDbEntity
  8
0
  6
Continuous
 62
     1
100
AcDbPoint
 10
-1.470580238991736E+63
 20
-5.941616374145985E+73
 30
0.0
  0
POINT
  5
E0
330
1E
100
AcDbEntity
  8
0
  6
Continuous
 62
     1
100
AcDbPoint
 10
3.141492651413534E+99
 20
1.269263905633295E+99
 30
0.0
  0
POINT
  5
E1
330
1E
100
AcDbEntity
  8
0
  6
Continuous
 62
     1
100
AcDbPoint
 10
3.141492651413534E+99
 20
1.269263905633295E+99
 30
0.0
  0
POINT
  5
E2
330
1E
100
AcDbEntity
  8
0
  6
Continuous
 62
     1
100
AcDbPoint
 10
-1.470580238991736E+63
 20
-5.941616374145985E+73
 30
0.0
  0
POINT
  5
E3
330
1E
100
AcDbEntity
  8
0
  6
Continuous
 62
     1
100
AcDbPoint
 10
-1.470580238991736E+63
 20
-5.941616374145985E+73
 30
0.0
  0
POINT
  5
E4
330
1E
100
AcDbEntity
  8
0
  6
Continuous
 62
     1
100
AcDbPoint
 10
3.141492651413534E+99
 20
1.269263905633295E+99
 30
0.0
  0
POINT
  5
E5
330
1E
100
AcDbEntity
  8
0
  6
Continuous
 62
     1
100
AcDbPoint
 10
3.141492651413534E+99
 20
1.269263905633295E+99
 30
0.0
  0
POINT
  5
E6
330
1E
100
AcDbEntity
  8
0
  6
Continuous
 62
     1
100
AcDbPoint
 10
-1.470580238991736E+63
 20
-5.941616374145985E+73
 30
0.0
  0
POINT
  5
E7
330
1E
100
AcDbEntity
  8
0
  6
Continuous
 62
     1
100
AcDbPoint
 10
-1.470580238991736E+63
 20
-5.941616374145985E+73
 30
0.0
  0
LWPOLYLINE
  5
E8
330
1E
100
AcDbEntity
  8
0
 62
     1
100
AcDbPolyline
 90
        3
 70
     0
 43
0.0
 10
3.141492651413534E+99
 20
1.269263905633295E+99
 10
3.141492651413534E+99
 20
1.269263905633295E+99
 10
3.141492651413534E+99
 20
1.269263905633295E+99
  0
POINT
  5
ED
330
1E
100
AcDbEntity
  8
0
  6
Continuous
 62
     1
100
AcDbPoint
 10
-1.470580238991736E+63
 20
-5.941616374145985E+73
 30
0.0
  0
POINT
  5
EE
330
1E
100
AcDbEntity
  8
0
  6
Continuous
 62
     1
100
AcDbPoint
 10
-1.470580238991736E+63
 20
-5.941616374145985E+73
 30
0.0
  0
POINT
  5
EF
330
1E
100
AcDbEntity
  8
0
  6
Continuous
 62
     1
100
AcDbPoint
 10
3.141492651413534E+99
 20
1.269263905633295E+99
 30
0.0
  0
POINT
  5
F0
330
1E
100
AcDbEntity
  8
0
  6
Continuous
 62
     1
100
AcDbPoint
 10
3.141492651413534E+99
 20
1.269263905633295E+99
 30
0.0
  0
POINT
  5
F1
330
1E
100
AcDbEntity
  8
0
  6
Continuous
 62
     1
100
AcDbPoint
 10
-1.470580238991736E+63
 20
-5.941616374145985E+73
 30
0.0
  0
POINT
  5
F2
330
1E
100
AcDbEntity
  8
0
  6
Continuous
 62
     1
100
AcDbPoint
 10
-1.470580238991736E+63
 20
-5.941616374145985E+73
 30
0.0
  0
POINT
  5
F3
330
1E
100
AcDbEntity
  8
0
  6
Continuous
 62
     1
100
AcDbPoint
 10
3.141492651413534E+99
 20
1.269263905633295E+99
 30
0.0
  0
POINT
  5
F4
330
1E
100
AcDbEntity
  8
0
  6
Continuous
 62
     1
100
AcDbPoint
 10
3.141492651413534E+99
 20
1.269263905633295E+99
 30
0.0
  0
POINT
  5
F5
330
1E
100
AcDbEntity
  8
0
  6
Continuous
 62
     1
100
AcDbPoint
 10
-1.470580238991736E+63
 20
-5.941616374145985E+73
 30
0.0
  0
POINT
  5
F6
330
1E
100
AcDbEntity
  8
0
  6
Continuous
 62
     1
100
AcDbPoint
 10
-1.470580238991736E+63
 20
-5.941616374145985E+73
 30
0.0
  0
POINT
  5
F7
330
1E
100
AcDbEntity
  8
0
  6
Continuous
 62
     1
100
AcDbPoint
 10
3.141492651413534E+99
 20
1.269263905633295E+99
 30
0.0
  0
POINT
  5
F8
330
1E
100
AcDbEntity
  8
0
  6
Continuous
 62
     1
100
AcDbPoint
 10
3.141492651413534E+99
 20
1.269263905633295E+99
 30
0.0
  0
POINT
  5
F9
330
1E
100
AcDbEntity
  8
0
  6
Continuous
 62
     1
100
AcDbPoint
 10
-1.470580238991736E+63
 20
-5.941616374145985E+73
 30
0.0
  0
POINT
  5
FA
330
1E
100
AcDbEntity
  8
0
  6
Continuous
 62
     1
100
AcDbPoint
 10
-1.470580238991736E+63
 20
-5.941616374145985E+73
 30
0.0
  0
POINT
  5
FB
330
1E
100
AcDbEntity
  8
0
  6
Continuous
 62
     1
100
AcDbPoint
 10
3.141492651413534E+99
 20
1.269263905633295E+99
 30
0.0
  0
POINT
  5
FC
330
1E
100
AcDbEntity
  8
0
  6
Continuous
 62
     1
100
AcDbPoint
 10
3.141492651413534E+99
 20
1.269263905633295E+99
 30
0.0
  0
POINT
  5
FD
330
1E
100
AcDbEntity
  8
0
  6
Continuous
 62
     1
100
AcDbPoint
 10
-1.470580238991736E+63
 20
-5.941616374145985E+73
 30
0.0
  0
POINT
  5
FE
330
1E
100
AcDbEntity
  8
0
  6
Continuous
 62
     1
100
AcDbPoint
 10
-1.470580238991736E+63
 20
-5.941616374145985E+73
 30
0.0
  0
POINT
  5
FF
330
1E
100
AcDbEntity
  8
0
  6
Continuous
 62
     1
100
AcDbPoint
 10
3.141492651413534E+99
 20
1.269263905633295E+99
 30
0.0
  0
POINT
  5
100
330
1E
100
AcDbEntity
  8
0
  6
Continuous
 62
     1
100
AcDbPoint
 10
3.141492651413534E+99
 20
1.269263905633295E+99
 30
0.0
  0
POINT
  5
101
330
1E
100
AcDbEntity
  8
0
  6
Continuous
 62
     1
100
AcDbPoint
 10
-1.470580238991736E+63
 20
-5.941616374145985E+73
 30
0.0
  0
POINT
  5
102
330
1E
100
AcDbEntity
  8
0
  6
Continuous
 62
     1
100
AcDbPoint
 10
-1.470580238991736E+63
 20
-5.941616374145985E+73
 30
0.0
  0
LWPOLYLINE
  5
103
330
1E
100
AcDbEntity
  8
0
 62
     1
100
AcDbPolyline
 90
        3
 70
     0
 43
0.0
 10
3.141492651413534E+99
 20
1.269263905633295E+99
 10
3.141492651413534E+99
 20
1.269263905633295E+99
 10
3.141492651413534E+99
 20
1.269263905633295E+99
  0
POINT
  5
108
330
1E
100
AcDbEntity
  8
0
  6
Continuous
 62
     1
100
AcDbPoint
 10
-1.470580238991736E+63
 20
-5.941616374145985E+73
 30
0.0
  0
POINT
  5
109
330
1E
100
AcDbEntity
  8
0
  6
Continuous
 62
     1
100
AcDbPoint
 10
-1.470580238991736E+63
 20
-5.941616374145985E+73
 30
0.0
  0
POINT
  5
10A
330
1E
100
AcDbEntity
  8
0
  6
Continuous
 62
     1
100
AcDbPoint
 10
3.141492651413534E+99
 20
1.269263905633295E+99
 30
0.0
  0
POINT
  5
10B
330
1E
100
AcDbEntity
  8
0
  6
Continuous
 62
     1
100
AcDbPoint
 10
3.141492651413534E+99
 20
1.269263905633295E+99
 30
0.0
  0
POINT
  5
10C
330
1E
100
AcDbEntity
  8
0
  6
Continuous
 62
     1
100
AcDbPoint
 10
-1.470580238991736E+63
 20
-5.941616374145985E+73
 30
0.0
  0
POINT
  5
10D
330
1E
100
AcDbEntity
  8
0
  6
Continuous
 62
     1
100
AcDbPoint
 10
-1.470580238991736E+63
 20
-5.941616374145985E+73
 30
0.0
  0
POINT
  5
10E
330
1E
100
AcDbEntity
  8
0
  6
Continuous
 62
     1
100
AcDbPoint
 10
3.141492651413534E+99
 20
1.269263905633295E+99
 30
0.0
  0
POINT
  5
10F
330
1E
100
AcDbEntity
  8
0
  6
Continuous
 62
     1
100
AcDbPoint
 10
3.141492651413534E+99
 20
1.269263905633295E+99
 30
0.0
  0
POINT
  5
110
330
1E
100
AcDbEntity
  8
0
  6
Continuous
 62
     1
100
AcDbPoint
 10
-1.470580238991736E+63
 20
-5.941616374145985E+73
 30
0.0
  0
POINT
  5
111
330
1E
100
AcDbEntity
  8
0
  6
Continuous
 62
     1
100
AcDbPoint
 10
-1.470580238991736E+63
 20
-5.941616374145985E+73
 30
0.0
  0
POINT
  5
112
330
1E
100
AcDbEntity
  8
0
  6
Continuous
 62
     1
100
AcDbPoint
 10
3.141492651413534E+99
 20
1.269263905633295E+99
 30
0.0
  0
POINT
  5
113
330
1E
100
AcDbEntity
  8
0
  6
Continuous
 62
     1
100
AcDbPoint
 10
3.141492651413534E+99
 20
1.269263905633295E+99
 30
0.0
  0
POINT
  5
114
330
1E
100
AcDbEntity
  8
0
  6
Continuous
 62
     1
100
AcDbPoint
 10
-1.470580238991736E+63
 20
-5.941616374145985E+73
 30
0.0
  0
POINT
  5
115
330
1E
100
AcDbEntity
  8
0
  6
Continuous
 62
     1
100
AcDbPoint
 10
-1.470580238991736E+63
 20
-5.941616374145985E+73
 30
0.0
  0
POINT
  5
116
330
1E
100
AcDbEntity
  8
0
  6
Continuous
 62
     1
100
AcDbPoint
 10
3.141492651413534E+99
 20
1.269263905633295E+99
 30
0.0
  0
POINT
  5
117
330
1E
100
AcDbEntity
  8
0
  6
Continuous
 62
     1
100
AcDbPoint
 10
3.141492651413534E+99
 20
1.269263905633295E+99
 30
0.0
  0
POINT
  5
118
330
1E
100
AcDbEntity
  8
0
  6
Continuous
 62
     1
100
AcDbPoint
 10
-1.470580238991736E+63
 20
-5.941616374145985E+73
 30
0.0
  0
POINT
  5
119
330
1E
100
AcDbEntity
  8
0
  6
Continuous
 62
     1
100
AcDbPoint
 10
-1.470580238991736E+63
 20
-5.941616374145985E+73
 30
0.0
  0
POINT
  5
11A
330
1E
100
AcDbEntity
  8
0
  6
Continuous
 62
     1
100
AcDbPoint
 10
3.141492651413534E+99
 20
1.269263905633295E+99
 30
0.0
  0
POINT
  5
11B
330
1E
100
AcDbEntity
  8
0
  6
Continuous
 62
     1
100
AcDbPoint
 10
3.141492651413534E+99
 20
1.269263905633295E+99
 30
0.0
  0
POINT
  5
11C
330
1E
100
AcDbEntity
  8
0
  6
Continuous
 62
     1
100
AcDbPoint
 10
-1.470580238991736E+63
 20
-5.941616374145985E+73
 30
0.0
  0
POINT
  5
11D
330
1E
100
AcDbEntity
  8
0
  6
Continuous
 62
     1
100
AcDbPoint
 10
-1.470580238991736E+63
 20
-5.941616374145985E+73
 30
0.0
  0
LWPOLYLINE
  5
11E
330
1E
100
AcDbEntity
  8
0
 62
     1
100
AcDbPolyline
 90
        3
 70
     0
 43
0.0
 10
3.141492651413534E+99
 20
1.269263905633295E+99
 10
3.141492651413534E+99
 20
1.269263905633295E+99
 10
3.141492651413534E+99
 20
1.269263905633295E+99
  0
POINT
  5
123
330
1E
100
AcDbEntity
  8
0
  6
Continuous
 62
     1
100
AcDbPoint
 10
-1.470580238991736E+63
 20
-5.941616374145985E+73
 30
0.0
  0
POINT
  5
124
330
1E
100
AcDbEntity
  8
0
  6
Continuous
 62
     1
100
AcDbPoint
 10
-1.470580238991736E+63
 20
-5.941616374145985E+73
 30
0.0
  0
POINT
  5
125
330
1E
100
AcDbEntity
  8
0
  6
Continuous
 62
     1
100
AcDbPoint
 10
3.141492651413534E+99
 20
1.269263905633295E+99
 30
0.0
  0
POINT
  5
126
330
1E
100
AcDbEntity
  8
0
  6
Continuous
 62
     1
100
AcDbPoint
 10
3.141492651413534E+99
 20
1.269263905633295E+99
 30
0.0
  0
POINT
  5
127
330
1E
100
AcDbEntity
  8
0
  6
Continuous
 62
     1
100
AcDbPoint
 10
-1.470580238991736E+63
 20
-5.941616374145985E+73
 30
0.0
  0
POINT
  5
128
330
1E
100
AcDbEntity
  8
0
  6
Continuous
 62
     1
100
AcDbPoint
 10
-1.470580238991736E+63
 20
-5.941616374145985E+73
 30
0.0
  0
POINT
  5
129
330
1E
100
AcDbEntity
  8
0
  6
Continuous
 62
     1
100
AcDbPoint
 10
3.141492651413534E+99
 20
1.269263905633295E+99
 30
0.0
  0
POINT
  5
12A
330
1E
100
AcDbEntity
  8
0
  6
Continuous
 62
     1
100
AcDbPoint
 10
3.141492651413534E+99
 20
1.269263905633295E+99
 30
0.0
  0
POINT
  5
12B
330
1E
100
AcDbEntity
  8
0
  6
Continuous
 62
     1
100
AcDbPoint
 10
-1.470580238991736E+63
 20
-5.941616374145985E+73
 30
0.0
  0
POINT
  5
12C
330
1E
100
AcDbEntity
  8
0
  6
Continuous
 62
     1
100
AcDbPoint
 10
-1.470580238991736E+63
 20
-5.941616374145985E+73
 30
0.0
  0
POINT
  5
12D
330
1E
100
AcDbEntity
  8
0
  6
Continuous
 62
     1
100
AcDbPoint
 10
3.141492651413534E+99
 20
1.269263905633295E+99
 30
0.0
  0
POINT
  5
12E
330
1E
100
AcDbEntity
  8
0
  6
Continuous
 62
     1
100
AcDbPoint
 10
3.141492651413534E+99
 20
1.269263905633295E+99
 30
0.0
  0
POINT
  5
12F
330
1E
100
AcDbEntity
  8
0
  6
Continuous
 62
     1
100
AcDbPoint
 10
-1.470580238991736E+63
 20
-5.941616374145985E+73
 30
0.0
  0
POINT
  5
130
330
1E
100
AcDbEntity
  8
0
  6
Continuous
 62
     1
100
AcDbPoint
 10
-1.470580238991736E+63
 20
-5.941616374145985E+73
 30
0.0
  0
POINT
  5
131
330
1E
100
AcDbEntity
  8
0
  6
Continuous
 62
     1
100
AcDbPoint
 10
3.141492651413534E+99
 20
1.269263905633295E+99
 30
0.0
  0
POINT
  5
132
330
1E
100
AcDbEntity
  8
0
  6
Continuous
 62
     1
100
AcDbPoint
 10
3.141492651413534E+99
 20
1.269263905633295E+99
 30
0.0
  0
POINT
  5
133
330
1E
100
AcDbEntity
  8
0
  6
Continuous
 62
     1
100
AcDbPoint
 10
-1.470580238991736E+63
 20
-5.941616374145985E+73
 30
0.0
  0
POINT
  5
134
330
1E
100
AcDbEntity
  8
0
  6
Continuous
 62
     1
100
AcDbPoint
 10
-1.470580238991736E+63
 20
-5.941616374145985E+73
 30
0.0
  0
POINT
  5
135
330
1E
100
AcDbEntity
  8
0
  6
Continuous
 62
     1
100
AcDbPoint
 10
3.141492651413534E+99
 20
1.269263905633295E+99
 30
0.0
  0
POINT
  5
136
330
1E
100
AcDbEntity
  8
0
  6
Continuous
 62
     1
100
AcDbPoint
 10
3.141492651413534E+99
 20
1.269263905633295E+99
 30
0.0
  0
POINT
  5
137
330
1E
100
AcDbEntity
  8
0
  6
Continuous
 62
     1
100
AcDbPoint
 10
-1.470580238991736E+63
 20
-5.941616374145985E+73
 30
0.0
  0
POINT
  5
138
330
1E
100
AcDbEntity
  8
0
  6
Continuous
 62
     1
100
AcDbPoint
 10
-1.470580238991736E+63
 20
-5.941616374145985E+73
 30
0.0
  0
LWPOLYLINE
  5
139
330
1E
100
AcDbEntity
  8
0
 62
     1
100
AcDbPolyline
 90
        3
 70
     0
 43
0.0
 10
3.141492651413534E+99
 20
1.269263905633295E+99
 10
3.141492651413534E+99
 20
1.269263905633295E+99
 10
3.141492651413534E+99
 20
1.269263905633295E+99
  0
POINT
  5
13E
330
1E
100
AcDbEntity
  8
0
  6
Continuous
 62
     1
100
AcDbPoint
 10
-1.470580238991736E+63
 20
-5.941616374145985E+73
 30
0.0
  0
POINT
  5
13F
330
1E
100
AcDbEntity
  8
0
  6
Continuous
 62
     1
100
AcDbPoint
 10
-1.470580238991736E+63
 20
-5.941616374145985E+73
 30
0.0
  0
POINT
  5
140
330
1E
100
AcDbEntity
  8
0
  6
Continuous
 62
     1
100
AcDbPoint
 10
3.141492651413534E+99
 20
1.269263905633295E+99
 30
0.0
  0
POINT
  5
141
330
1E
100
AcDbEntity
  8
0
  6
Continuous
 62
     1
100
AcDbPoint
 10
3.141492651413534E+99
 20
1.269263905633295E+99
 30
0.0
  0
POINT
  5
142
330
1E
100
AcDbEntity
  8
0
  6
Continuous
 62
     1
100
AcDbPoint
 10
-1.470580238991736E+63
 20
-5.941616374145985E+73
 30
0.0
  0
POINT
  5
143
330
1E
100
AcDbEntity
  8
0
  6
Continuous
 62
     1
100
AcDbPoint
 10
-1.470580238991736E+63
 20
-5.941616374145985E+73
 30
0.0
  0
POINT
  5
144
330
1E
100
AcDbEntity
  8
0
  6
Continuous
 62
     1
100
AcDbPoint
 10
3.141492651413534E+99
 20
1.269263905633295E+99
 30
0.0
  0
POINT
  5
145
330
1E
100
AcDbEntity
  8
0
  6
Continuous
 62
     1
100
AcDbPoint
 10
3.141492651413534E+99
 20
1.269263905633295E+99
 30
0.0
  0
POINT
  5
146
330
1E
100
AcDbEntity
  8
0
  6
Continuous
 62
     1
100
AcDbPoint
 10
-1.470580238991736E+63
 20
-5.941616374145985E+73
 30
0.0
  0
POINT
  5
147
330
1E
100
AcDbEntity
  8
0
  6
Continuous
 62
     1
100
AcDbPoint
 10
-1.470580238991736E+63
 20
-5.941616374145985E+73
 30
0.0
  0
POINT
  5
148
330
1E
100
AcDbEntity
  8
0
  6
Continuous
 62
     1
100
AcDbPoint
 10
3.141492651413534E+99
 20
1.269263905633295E+99
 30
0.0
  0
POINT
  5
149
330
1E
100
AcDbEntity
  8
0
  6
Continuous
 62
     1
100
AcDbPoint
 10
3.141492651413534E+99
 20
1.269263905633295E+99
 30
0.0
  0
POINT
  5
14A
330
1E
100
AcDbEntity
  8
0
  6
Continuous
 62
     1
100
AcDbPoint
 10
-1.470580238991736E+63
 20
-5.941616374145985E+73
 30
0.0
  0
POINT
  5
14B
330
1E
100
AcDbEntity
  8
0
  6
Continuous
 62
     1
100
AcDbPoint
 10
-1.470580238991736E+63
 20
-5.941616374145985E+73
 30
0.0
  0
POINT
  5
14C
330
1E
100
AcDbEntity
  8
0
  6
Continuous
 62
     1
100
AcDbPoint
 10
3.141492651413534E+99
 20
1.269263905633295E+99
 30
0.0
  0
POINT
  5
14D
330
1E
100
AcDbEntity
  8
0
  6
Continuous
 62
     1
100
AcDbPoint
 10
3.141492651413534E+99
 20
1.269263905633295E+99
 30
0.0
  0
POINT
  5
14E
330
1E
100
AcDbEntity
  8
0
  6
Continuous
 62
     1
100
AcDbPoint
 10
-1.470580238991736E+63
 20
-5.941616374145985E+73
 30
0.0
  0
POINT
  5
14F
330
1E
100
AcDbEntity
  8
0
  6
Continuous
 62
     1
100
AcDbPoint
 10
-1.470580238991736E+63
 20
-5.941616374145985E+73
 30
0.0
  0
POINT
  5
150
330
1E
100
AcDbEntity
  8
0
  6
Continuous
 62
     1
100
AcDbPoint
 10
3.141492651413534E+99
 20
1.269263905633295E+99
 30
0.0
  0
POINT
  5
151
330
1E
100
AcDbEntity
  8
0
  6
Continuous
 62
     1
100
AcDbPoint
 10
3.141492651413534E+99
 20
1.269263905633295E+99
 30
0.0
  0
POINT
  5
152
330
1E
100
AcDbEntity
  8
0
  6
Continuous
 62
     1
100
AcDbPoint
 10
-1.470580238991736E+63
 20
-5.941616374145985E+73
 30
0.0
  0
POINT
  5
153
330
1E
100
AcDbEntity
  8
0
  6
Continuous
 62
     1
100
AcDbPoint
 10
-1.470580238991736E+63
 20
-5.941616374145985E+73
 30
0.0
  0
LWPOLYLINE
  5
154
330
1E
100
AcDbEntity
  8
0
 62
     1
100
AcDbPolyline
 90
        3
 70
     0
 43
0.0
 10
3.141492651413534E+99
 20
1.269263905633295E+99
 10
3.141492651413534E+99
 20
1.269263905633295E+99
 10
3.141492651413534E+99
 20
1.269263905633295E+99
  0
POINT
  5
159
330
1E
100
AcDbEntity
  8
0
  6
Continuous
 62
     1
100
AcDbPoint
 10
-1.470580238991736E+63
 20
-5.941616374145985E+73
 30
0.0
  0
POINT
  5
15A
330
1E
100
AcDbEntity
  8
0
  6
Continuous
 62
     1
100
AcDbPoint
 10
-1.470580238991736E+63
 20
-5.941616374145985E+73
 30
0.0
  0
POINT
  5
15B
330
1E
100
AcDbEntity
  8
0
  6
Continuous
 62
     1
100
AcDbPoint
 10
3.141492651413534E+99
 20
1.269263905633295E+99
 30
0.0
  0
POINT
  5
15C
330
1E
100
AcDbEntity
  8
0
  6
Continuous
 62
     1
100
AcDbPoint
 10
3.141492651413534E+99
 20
1.269263905633295E+99
 30
0.0
  0
POINT
  5
15D
330
1E
100
AcDbEntity
  8
0
  6
Continuous
 62
     1
100
AcDbPoint
 10
-1.470580238991736E+63
 20
-5.941616374145985E+73
 30
0.0
  0
POINT
  5
15E
330
1E
100
AcDbEntity
  8
0
  6
Continuous
 62
     1
100
AcDbPoint
 10
-1.470580238991736E+63
 20
-5.941616374145985E+73
 30
0.0
  0
POINT
  5
15F
330
1E
100
AcDbEntity
  8
0
  6
Continuous
 62
     1
100
AcDbPoint
 10
3.141492651413534E+99
 20
1.269263905633295E+99
 30
0.0
  0
POINT
  5
160
330
1E
100
AcDbEntity
  8
0
  6
Continuous
 62
     1
100
AcDbPoint
 10
3.141492651413534E+99
 20
1.269263905633295E+99
 30
0.0
  0
POINT
  5
161
330
1E
100
AcDbEntity
  8
0
  6
Continuous
 62
     1
100
AcDbPoint
 10
-1.470580238991736E+63
 20
-5.941616374145985E+73
 30
0.0
  0
POINT
  5
162
330
1E
100
AcDbEntity
  8
0
  6
Continuous
 62
     1
100
AcDbPoint
 10
-1.470580238991736E+63
 20
-5.941616374145985E+73
 30
0.0
  0
POINT
  5
163
330
1E
100
AcDbEntity
  8
0
  6
Continuous
 62
     1
100
AcDbPoint
 10
3.141492651413534E+99
 20
1.269263905633295E+99
 30
0.0
  0
POINT
  5
164
330
1E
100
AcDbEntity
  8
0
  6
Continuous
 62
     1
100
AcDbPoint
 10
3.141492651413534E+99
 20
1.269263905633295E+99
 30
0.0
  0
POINT
  5
165
330
1E
100
AcDbEntity
  8
0
  6
Continuous
 62
     1
100
AcDbPoint
 10
-1.470580238991736E+63
 20
-5.941616374145985E+73
 30
0.0
  0
POINT
  5
166
330
1E
100
AcDbEntity
  8
0
  6
Continuous
 62
     1
100
AcDbPoint
 10
-1.470580238991736E+63
 20
-5.941616374145985E+73
 30
0.0
  0
POINT
  5
167
330
1E
100
AcDbEntity
  8
0
  6
Continuous
 62
     1
100
AcDbPoint
 10
3.141492651413534E+99
 20
1.269263905633295E+99
 30
0.0
  0
POINT
  5
168
330
1E
100
AcDbEntity
  8
0
  6
Continuous
 62
     1
100
AcDbPoint
 10
3.141492651413534E+99
 20
1.269263905633295E+99
 30
0.0
  0
POINT
  5
169
330
1E
100
AcDbEntity
  8
0
  6
Continuous
 62
     1
100
AcDbPoint
 10
-1.470580238991736E+63
 20
-5.941616374145985E+73
 30
0.0
  0
POINT
  5
16A
330
1E
100
AcDbEntity
  8
0
  6
Continuous
 62
     1
100
AcDbPoint
 10
-1.470580238991736E+63
 20
-5.941616374145985E+73
 30
0.0
  0
POINT
  5
16B
330
1E
100
AcDbEntity
  8
0
  6
Continuous
 62
     1
100
AcDbPoint
 10
3.141492651413534E+99
 20
1.269263905633295E+99
 30
0.0
  0
POINT
  5
16C
330
1E
100
AcDbEntity
  8
0
  6
Continuous
 62
     1
100
AcDbPoint
 10
3.141492651413534E+99
 20
1.269263905633295E+99
 30
0.0
  0
POINT
  5
16D
330
1E
100
AcDbEntity
  8
0
  6
Continuous
 62
     1
100
AcDbPoint
 10
-1.470580238991736E+63
 20
-5.941616374145985E+73
 30
0.0
  0
POINT
  5
16E
330
1E
100
AcDbEntity
  8
0
  6
Continuous
 62
     1
100
AcDbPoint
 10
-1.470580238991736E+63
 20
-5.941616374145985E+73
 30
0.0
  0
LINE
  5
16F
330
1E
100
AcDbEntity
  8
0
  6
Continuous
 62
     1
100
AcDbLine
 10
-561.2138733177982
 20
-218.4089692193632
 30
0.0
 11
-563.7988733177982
 21
-218.4089692193632
 31
0.0
  0
LINE
  5
170
330
1E
100
AcDbEntity
  8
0
  6
Continuous
 62
     1
100
AcDbLine
 10
-563.7988733177982
 20
-214.1089692193633
 30
0.0
 11
-561.2138733177982
 21
-214.1089692193633
 31
0.0
  0
LINE
  5
171
330
1E
100
AcDbEntity
  8
0
  6
Continuous
 62
     1
100
AcDbLine
 10
-561.2138733177982
 20
-218.4089692193632
 30
0.0
 11
-561.2138733177982
 21
-214.1089692193633
 31
0.0
  0
ARC
  5
172
330
1E
100
AcDbEntity
  8
0
  6
Continuous
 62
     1
100
AcDbCircle
 10
-656.7988733167982
 20
-247.4089692223633
 30
0.0
 40
1.0
100
AcDbArc
 50
90.000000001
 51
180.0
  0
LINE
  5
173
330
1E
100
AcDbEntity
  8
0
  6
Continuous
 62
     1
100
AcDbLine
 10
-657.7988733167982
 20
-247.4089692223633
 30
0.0
 11
-657.7988733147981
 21
-293.4089692223632
 31
0.0
  0
ARC
  5
174
330
1E
100
AcDbEntity
  8
0
  6
Continuous
 62
     1
100
AcDbCircle
 10
-656.7988733147981
 20
-293.4089692223632
 30
0.0
 40
1.0
100
AcDbArc
 50
179.9999999989999
 51
270.0
  0
LINE
  5
175
330
1E
100
AcDbEntity
  8
0
  6
Continuous
 62
     1
100
AcDbLine
 10
-636.2988733147981
 20
-292.8589692213632
 30
0.0
 11
-636.2988733147981
 21
-291.8589692213632
 31
0.0
  0
LINE
  5
176
330
1E
100
AcDbEntity
  8
0
  6
Continuous
 62
     1
100
AcDbLine
 10
-636.2988733147981
 20
-291.8589692213632
 30
0.0
 11
-642.2988733147981
 21
-291.8589692223632
 31
0.0
  0
LINE
  5
177
330
1E
100
AcDbEntity
  8
0
  6
Continuous
 62
     1
100
AcDbLine
 10
-642.2988733147981
 20
-291.8589692223632
 30
0.0
 11
-642.2988733147981
 21
-292.8589692223632
 31
0.0
  0
ARC
  5
178
330
1E
100
AcDbEntity
  8
0
  6
Continuous
 62
     1
100
AcDbCircle
 10
-655.1338733147981
 20
-291.8589692223632
 30
0.0
 40
1.0
100
AcDbArc
 50
180.0
 51
270.0
  0
LINE
  5
179
330
1E
100
AcDbEntity
  8
0
  6
Continuous
 62
     1
100
AcDbLine
 10
-656.1338733167981
 20
-248.9589692223633
 30
0.0
 11
-656.1338733147981
 21
-291.8589692223632
 31
0.0
  0
LINE
  5
17A
330
1E
100
AcDbEntity
  8
0
  6
Continuous
 62
     1
100
AcDbLine
 10
-656.2988733147981
 20
-292.9089692223632
 30
0.0
 11
-656.2988733167982
 21
-247.9089692223633
 31
0.0
  0
LINE
  5
17B
330
1E
100
AcDbEntity
  8
0
  6
Continuous
 62
     1
100
AcDbLine
 10
-566.4638733167982
 20
-247.9589692183632
 30
0.0
 11
-655.1338733167981
 21
-247.9589692223632
 31
0.0
  0
ARC
  5
17C
330
1E
100
AcDbEntity
  8
0
  6
Continuous
 62
     1
100
AcDbCircle
 10
-655.1338733167981
 20
-248.9589692223633
 30
0.0
 40
1.0
100
AcDbArc
 50
90.0
 51
179.9999999989999
  0
LINE
  5
17D
330
1E
100
AcDbEntity
  8
0
  6
Continuous
 62
     1
100
AcDbLine
 10
-656.2988733167982
 20
-247.9089692223633
 30
0.0
 11
-565.2988733167982
 21
-247.9089692183633
 31
0.0
  0
LINE
  5
17E
330
1E
100
AcDbEntity
  8
0
  6
Continuous
 62
     1
100
AcDbLine
 10
-642.2988733167982
 20
-247.9589692223632
 30
0.0
 11
-642.2988733167982
 21
-248.9589692223633
 31
0.0
  0
LINE
  5
17F
330
1E
100
AcDbEntity
  8
0
  6
Continuous
 62
     1
100
AcDbLine
 10
-642.2988733167982
 20
-248.9589692223633
 30
0.0
 11
-636.2988733167981
 21
-248.9589692213633
 31
0.0
  0
LINE
  5
180
330
1E
100
AcDbEntity
  8
0
  6
Continuous
 62
     1
100
AcDbLine
 10
-636.2988733167981
 20
-248.9589692213633
 30
0.0
 11
-636.2988733167981
 21
-247.9589692213632
 31
0.0
  0
LINE
  5
181
330
1E
100
AcDbEntity
  8
0
  6
Continuous
 62
     1
100
AcDbLine
 10
-628.3838733167981
 20
-250.7089692213633
 30
0.0
 11
-626.7838733167982
 21
-250.7089692213633
 31
0.0
  0
LINE
  5
182
330
1E
100
AcDbEntity
  8
0
  6
Continuous
 62
     1
100
AcDbLine
 10
-626.7838733167982
 20
-258.7089692213633
 30
0.0
 11
-628.3838733167981
 21
-258.7089692213633
 31
0.0
  0
LINE
  5
183
330
1E
100
AcDbEntity
  8
0
  6
Continuous
 62
     1
100
AcDbLine
 10
-626.2838733167982
 20
-250.2089692213633
 30
0.0
 11
-628.3838733167981
 21
-250.2089692213633
 31
0.0
  0
LINE
  5
184
330
1E
100
AcDbEntity
  8
0
  6
Continuous
 62
     1
100
AcDbLine
 10
-626.2838733167982
 20
-259.2089692213633
 30
0.0
 11
-628.3838733167981
 21
-259.2089692213633
 31
0.0
  0
LINE
  5
185
330
1E
100
AcDbEntity
  8
0
  6
Continuous
 62
     1
100
AcDbLine
 10
-626.7838733167982
 20
-250.7089692213633
 30
0.0
 11
-626.7838733167982
 21
-258.7089692213633
 31
0.0
  0
LINE
  5
186
330
1E
100
AcDbEntity
  8
0
  6
Continuous
 62
     1
100
AcDbLine
 10
-626.2838733167982
 20
-259.2089692213633
 30
0.0
 11
-626.2838733167982
 21
-250.2089692213633
 31
0.0
  0
LINE
  5
187
330
1E
100
AcDbEntity
  8
0
  6
Continuous
 62
     1
100
AcDbLine
 10
-626.2838733157982
 20
-264.6589692213633
 30
0.0
 11
-626.2838733157982
 21
-261.1589692213633
 31
0.0
  0
LINE
  5
188
330
1E
100
AcDbEntity
  8
0
  6
Continuous
 62
     1
100
AcDbLine
 10
-626.2838733157982
 20
-261.1589692213633
 30
0.0
 11
-624.3838733157981
 21
-261.1589692213633
 31
0.0
  0
LINE
  5
189
330
1E
100
AcDbEntity
  8
0
  6
Continuous
 62
     1
100
AcDbLine
 10
-624.3838733157981
 20
-261.1589692213633
 30
0.0
 11
-624.3838733157981
 21
-264.6589692213633
 31
0.0
  0
LINE
  5
18A
330
1E
100
AcDbEntity
  8
0
  6
Continuous
 62
     1
100
AcDbLine
 10
-624.3838733157981
 20
-264.6589692213633
 30
0.0
 11
-626.2838733157982
 21
-264.6589692213633
 31
0.0
  0
LINE
  5
18B
330
1E
100
AcDbEntity
  8
0
  6
Continuous
 62
     1
100
AcDbLine
 10
-626.2838733157982
 20
-276.1589692213632
 30
0.0
 11
-626.2838733157982
 21
-279.6589692213633
 31
0.0
  0
LINE
  5
18C
330
1E
100
AcDbEntity
  8
0
  6
Continuous
 62
     1
100
AcDbLine
 10
-626.2838733157982
 20
-279.6589692213633
 30
0.0
 11
-624.3838733157981
 21
-279.6589692213633
 31
0.0
  0
LINE
  5
18D
330
1E
100
AcDbEntity
  8
0
  6
Continuous
 62
     1
100
AcDbLine
 10
-624.3838733157981
 20
-279.6589692213633
 30
0.0
 11
-624.3838733157981
 21
-276.1589692213632
 31
0.0
  0
LINE
  5
18E
330
1E
100
AcDbEntity
  8
0
  6
Continuous
 62
     1
100
AcDbLine
 10
-624.3838733157981
 20
-276.1589692213632
 30
0.0
 11
-626.2838733157982
 21
-276.1589692213632
 31
0.0
  0
LINE
  5
18F
330
1E
100
AcDbEntity
  8
0
  6
Continuous
 62
     1
100
AcDbLine
 10
-626.7838733147982
 20
-290.1089692213632
 30
0.0
 11
-626.7838733147982
 21
-282.1089692213632
 31
0.0
  0
LINE
  5
190
330
1E
100
AcDbEntity
  8
0
  6
Continuous
 62
     1
100
AcDbLine
 10
-626.7838733147982
 20
-282.1089692213632
 30
0.0
 11
-628.3838733147981
 21
-282.1089692213632
 31
0.0
  0
LINE
  5
191
330
1E
100
AcDbEntity
  8
0
  6
Continuous
 62
     1
100
AcDbLine
 10
-626.2838733147982
 20
-290.6089692213632
 30
0.0
 11
-626.2838733147982
 21
-281.6089692213632
 31
0.0
  0
LINE
  5
192
330
1E
100
AcDbEntity
  8
0
  6
Continuous
 62
     1
100
AcDbLine
 10
-626.2838733147982
 20
-281.6089692213632
 30
0.0
 11
-628.3838733147981
 21
-281.6089692213632
 31
0.0
  0
LINE
  5
193
330
1E
100
AcDbEntity
  8
0
  6
Continuous
 62
     1
100
AcDbLine
 10
-628.3838733147981
 20
-290.1089692213632
 30
0.0
 11
-626.7838733147982
 21
-290.1089692213632
 31
0.0
  0
LINE
  5
194
330
1E
100
AcDbEntity
  8
0
  6
Continuous
 62
     1
100
AcDbLine
 10
-626.2838733147982
 20
-290.6089692213632
 30
0.0
 11
-628.3838733147981
 21
-290.6089692213632
 31
0.0
  0
LINE
  5
195
330
1E
100
AcDbEntity
  8
0
  6
Continuous
 62
     1
100
AcDbLine
 10
-628.3838733167981
 20
-247.9589692213632
 30
0.0
 11
-628.3838733147981
 21
-292.8589692213632
 31
0.0
  0
LINE
  5
196
330
1E
100
AcDbEntity
  8
0
  6
Continuous
 62
     1
100
AcDbLine
 10
-579.2988733147982
 20
-292.8589692193633
 30
0.0
 11
-579.2988733147982
 21
-291.8589692193632
 31
0.0
  0
LINE
  5
197
330
1E
100
AcDbEntity
  8
0
  6
Continuous
 62
     1
100
AcDbLine
 10
-579.2988733147982
 20
-291.8589692193632
 30
0.0
 11
-585.2988733147982
 21
-291.8589692193632
 31
0.0
  0
LINE
  5
198
330
1E
100
AcDbEntity
  8
0
  6
Continuous
 62
     1
100
AcDbLine
 10
-585.2988733147982
 20
-291.8589692193632
 30
0.0
 11
-585.2988733147982
 21
-292.8589692193633
 31
0.0
  0
ARC
  5
199
330
1E
100
AcDbEntity
  8
0
  6
Continuous
 62
     1
100
AcDbCircle
 10
-566.4638733147982
 20
-291.8589692183633
 30
0.0
 40
1.0
100
AcDbArc
 50
270.0
 51
0.0
  0
ARC
  5
19A
330
1E
100
AcDbEntity
  8
0
  6
Continuous
 62
     1
100
AcDbCircle
 10
-564.7988733147982
 20
-293.4089692183632
 30
0.0
 40
1.0
100
AcDbArc
 50
270.0
 51
0.0
  0
LINE
  5
19B
330
1E
100
AcDbEntity
  8
0
  6
Continuous
 62
     1
100
AcDbLine
 10
-565.4638733147982
 20
-291.8589692183633
 30
0.0
 11
-565.4638733157981
 21
-280.4089692183632
 31
0.0
  0
LINE
  5
19C
330
1E
100
AcDbEntity
  8
0
  6
Continuous
 62
     1
100
AcDbLine
 10
-565.2988733157982
 20
-280.4089692183632
 30
0.0
 11
-565.2988733147982
 21
-292.9089692183632
 31
0.0
  0
LINE
  5
19D
330
1E
100
AcDbEntity
  8
0
  6
Continuous
 62
     1
100
AcDbLine
 10
-563.7988733147982
 20
-293.4089692183632
 30
0.0
 11
-563.7988733157982
 21
-280.4089692183632
 31
0.0
  0
LINE
  5
19E
330
1E
100
AcDbEntity
  8
0
  6
Continuous
 62
     1
100
AcDbLine
 10
-656.7988733147981
 20
-294.4089692223633
 30
0.0
 11
-564.7988733147982
 21
-294.4089692183632
 31
0.0
  0
LINE
  5
19F
330
1E
100
AcDbEntity
  8
0
  6
Continuous
 62
     1
100
AcDbLine
 10
-655.1338733147981
 20
-292.8589692223632
 30
0.0
 11
-566.4638733147982
 21
-292.8589692183633
 31
0.0
  0
LINE
  5
1A0
330
1E
100
AcDbEntity
  8
0
  6
Continuous
 62
     1
100
AcDbLine
 10
-565.2988733147982
 20
-292.9089692183632
 30
0.0
 11
-656.2988733147981
 21
-292.9089692223632
 31
0.0
  0
LINE
  5
1A1
330
1E
100
AcDbEntity
  8
0
  6
Continuous
 62
     1
100
AcDbLine
 10
-594.7138733147982
 20
-281.6589692193632
 30
0.0
 11
-594.7138733167982
 21
-259.1589692193632
 31
0.0
  0
LINE
  5
1A2
330
1E
100
AcDbEntity
  8
0
  6
Continuous
 62
     1
100
AcDbLine
 10
-593.2138733147982
 20
-281.7589692193632
 30
0.0
 11
-592.2138733147981
 21
-281.7589692193632
 31
0.0
  0
LINE
  5
1A3
330
1E
100
AcDbEntity
  8
0
  6
Continuous
 62
     1
100
AcDbLine
 10
-594.7138733147982
 20
-281.6589692193632
 30
0.0
 11
-592.2138733147981
 21
-281.6589692193632
 31
0.0
  0
LINE
  5
1A4
330
1E
100
AcDbEntity
  8
0
  6
Continuous
 62
     1
100
AcDbLine
 10
-593.2138733147982
 20
-281.7589692193632
 30
0.0
 11
-593.2138733147982
 21
-292.8589692193633
 31
0.0
  0
LINE
  5
1A5
330
1E
100
AcDbEntity
  8
0
  6
Continuous
 62
     1
100
AcDbLine
 10
-592.2138733147981
 20
-281.7589692193632
 30
0.0
 11
-592.2138733157981
 21
-280.5089692193632
 31
0.0
  0
LINE
  5
1A6
330
1E
100
AcDbEntity
  8
0
  6
Continuous
 62
     1
100
AcDbLine
 10
-593.2138733167981
 20
-247.9589692193632
 30
0.0
 11
-593.2138733167981
 21
-259.0589692193633
 31
0.0
  0
LINE
  5
1A7
330
1E
100
AcDbEntity
  8
0
  6
Continuous
 62
     1
100
AcDbLine
 10
-573.3138733167982
 20
-260.3089692183633
 30
0.0
 11
-592.2138733167981
 21
-260.3089692193632
 31
0.0
  0
LINE
  5
1A8
330
1E
100
AcDbEntity
  8
0
  6
Continuous
 62
     1
100
AcDbLine
 10
-593.2138733167981
 20
-259.0589692193633
 30
0.0
 11
-592.2138733167981
 21
-259.0589692193633
 31
0.0
  0
LINE
  5
1A9
330
1E
100
AcDbEntity
  8
0
  6
Continuous
 62
     1
100
AcDbLine
 10
-594.7138733167982
 20
-259.1589692193632
 30
0.0
 11
-592.2138733167981
 21
-259.1589692193632
 31
0.0
  0
LINE
  5
1AA
330
1E
100
AcDbEntity
  8
0
  6
Continuous
 62
     1
100
AcDbLine
 10
-592.2138733167981
 20
-259.0589692193633
 30
0.0
 11
-592.2138733167981
 21
-260.3089692193632
 31
0.0
  0
LINE
  5
1AB
330
1E
100
AcDbEntity
  8
0
  6
Continuous
 62
     1
100
AcDbLine
 10
-579.2988733167982
 20
-247.9589692193632
 30
0.0
 11
-579.2988733167982
 21
-248.9589692193633
 31
0.0
  0
LINE
  5
1AC
330
1E
100
AcDbEntity
  8
0
  6
Continuous
 62
     1
100
AcDbLine
 10
-579.2988733167982
 20
-248.9589692193633
 30
0.0
 11
-585.2988733167982
 21
-248.9589692193633
 31
0.0
  0
LINE
  5
1AD
330
1E
100
AcDbEntity
  8
0
  6
Continuous
 62
     1
100
AcDbLine
 10
-585.2988733167982
 20
-248.9589692193633
 30
0.0
 11
-585.2988733167982
 21
-247.9589692193632
 31
0.0
  0
ARC
  5
1AE
330
1E
100
AcDbEntity
  8
0
  6
Continuous
 62
     1
100
AcDbCircle
 10
-566.4638733167982
 20
-248.9589692183632
 30
0.0
 40
1.0
100
AcDbArc
 50
0.0
 51
90.0
  0
LINE
  5
1AF
330
1E
100
AcDbEntity
  8
0
  6
Continuous
 62
     1
100
AcDbLine
 10
-565.4638733167981
 20
-260.4089692183632
 30
0.0
 11
-565.4638733167981
 21
-248.9589692183632
 31
0.0
  0
LINE
  5
1B0
330
1E
100
AcDbEntity
  8
0
  6
Continuous
 62
     1
100
AcDbLine
 10
-565.2988733167982
 20
-247.9089692183633
 30
0.0
 11
-565.2988733167982
 21
-260.4089692183632
 31
0.0
  0
LINE
  5
1B1
330
1E
100
AcDbEntity
  8
0
  6
Continuous
 62
     1
100
AcDbLine
 10
-569.3138733167982
 20
-259.0589692183633
 30
0.0
 11
-568.0638733197981
 21
-260.3089692183633
 31
0.0
  0
LINE
  5
1B2
330
1E
100
AcDbEntity
  8
0
  6
Continuous
 62
     1
100
AcDbLine
 10
-573.3138733167982
 20
-259.0589692183633
 30
0.0
 11
-569.3138733167982
 21
-259.0589692183633
 31
0.0
  0
LINE
  5
1B3
330
1E
100
AcDbEntity
  8
0
  6
Continuous
 62
     1
100
AcDbLine
 10
-573.3138733167982
 20
-259.0589692183633
 30
0.0
 11
-573.3138733167982
 21
-260.3089692183633
 31
0.0
  0
LINE
  5
1B4
330
1E
100
AcDbEntity
  8
0
  6
Continuous
 62
     1
100
AcDbLine
 10
-565.4638733167981
 20
-260.3089692183633
 30
0.0
 11
-568.0638733197981
 21
-260.3089692183633
 31
0.0
  0
LINE
  5
1B5
330
1E
100
AcDbEntity
  8
0
  6
Continuous
 62
     1
100
AcDbLine
 10
-594.3312543587982
 20
-260.4089692193633
 30
0.0
 11
-563.7988733167982
 21
-260.4089692183632
 31
0.0
  0
LINE
  5
1B6
330
1E
100
AcDbEntity
  8
0
  6
Continuous
 62
     1
100
AcDbLine
 10
-569.3138733147982
 20
-281.7589692183632
 30
0.0
 11
-568.0638733187982
 21
-280.5089692183632
 31
0.0
  0
LINE
  5
1B7
330
1E
100
AcDbEntity
  8
0
  6
Continuous
 62
     1
100
AcDbLine
 10
-565.4638733157981
 20
-280.5089692183632
 30
0.0
 11
-568.0638733187982
 21
-280.5089692183632
 31
0.0
  0
LINE
  5
1B8
330
1E
100
AcDbEntity
  8
0
  6
Continuous
 62
     1
100
AcDbLine
 10
-573.3138733147982
 20
-281.7589692183632
 30
0.0
 11
-569.3138733147982
 21
-281.7589692183632
 31
0.0
  0
LINE
  5
1B9
330
1E
100
AcDbEntity
  8
0
  6
Continuous
 62
     1
100
AcDbLine
 10
-573.3138733147982
 20
-281.7589692183632
 30
0.0
 11
-573.3138733157982
 21
-280.5089692183632
 31
0.0
  0
LINE
  5
1BA
330
1E
100
AcDbEntity
  8
0
  6
Continuous
 62
     1
100
AcDbLine
 10
-573.3138733157982
 20
-280.5089692183632
 30
0.0
 11
-592.2138733157981
 21
-280.5089692193632
 31
0.0
  0
LINE
  5
1BB
330
1E
100
AcDbEntity
  8
0
  6
Continuous
 62
     1
100
AcDbLine
 10
-563.7988733157982
 20
-280.4089692183632
 30
0.0
 11
-594.3312543577982
 21
-280.4089692193633
 31
0.0
  0
ARC
  5
1BC
330
1E
100
AcDbEntity
  8
0
  6
Continuous
 62
     1
100
AcDbCircle
 10
-562.2138733157981
 20
-279.4089692183632
 30
0.0
 40
1.0
100
AcDbArc
 50
270.0
 51
0.0
  0
LINE
  5
1BD
330
1E
100
AcDbEntity
  8
0
  6
Continuous
 62
     1
100
AcDbLine
 10
-561.2138733157982
 20
-261.4089692183632
 30
0.0
 11
-561.2138733157982
 21
-279.4089692183632
 31
0.0
  0
ARC
  5
1BE
330
1E
100
AcDbEntity
  8
0
  6
Continuous
 62
     1
100
AcDbCircle
 10
-562.2138733157981
 20
-261.4089692183632
 30
0.0
 40
1.0
100
AcDbArc
 50
0.0
 51
90.0
  0
LINE
  5
1BF
330
1E
100
AcDbEntity
  8
0
  6
Continuous
 62
     1
100
AcDbLine
 10
-563.7988733167982
 20
-260.4089692183632
 30
0.0
 11
-562.2138733167981
 21
-260.4089692183632
 31
0.0
  0
LINE
  5
1C0
330
1E
100
AcDbEntity
  8
0
  6
Continuous
 62
     1
100
AcDbLine
 10
-562.2138733157981
 20
-280.4089692183632
 30
0.0
 11
-563.7988733157982
 21
-280.4089692183632
 31
0.0
  0
LINE
  5
1C1
330
1E
100
AcDbEntity
  8
0
  6
Continuous
 62
     1
100
AcDbLine
 10
-563.7988733167982
 20
-260.4089692183632
 30
0.0
 11
-563.7988733167982
 21
-247.4089692183632
 31
0.0
  0
ARC
  5
1C2
330
1E
100
AcDbEntity
  8
0
  6
Continuous
 62
     1
100
AcDbCircle
 10
-564.7988733167982
 20
-247.4089692183632
 30
0.0
 40
1.0
100
AcDbArc
 50
0.0
 51
90.0
  0
LINE
  5
1C3
330
1E
100
AcDbEntity
  8
0
  6
Continuous
 62
     1
100
AcDbLine
 10
-564.7988733167982
 20
-246.4089692183633
 30
0.0
 11
-656.7988733167982
 21
-246.4089692223633
 31
0.0
  0
LINE
  5
1C4
330
1E
100
AcDbEntity
  8
0
  6
Continuous
 62
     3
100
AcDbLine
 10
-573.3138733167982
 20
-259.1589692183632
 30
0.0
 11
-572.0638733167982
 21
-260.4089692183632
 31
0.0
  0
ARC
  5
1C5
330
1E
100
AcDbEntity
  8
0
  6
Continuous
 62
     1
100
AcDbCircle
 10
-585.9638733157981
 20
-269.4089692233632
 30
0.0
 40
2.0
100
AcDbArc
 50
359.999999999
 51
90.0
  0
LINE
  5
1C6
330
1E
100
AcDbEntity
  8
0
  6
Continuous
 62
     1
100
AcDbLine
 10
-585.9638733157981
 20
-267.4089692233632
 30
0.0
 11
-588.7138733157981
 21
-267.4089692233632
 31
0.0
  0
ARC
  5
1C7
330
1E
100
AcDbEntity
  8
0
  6
Continuous
 62
     1
100
AcDbCircle
 10
-588.7138733157981
 20
-269.4089692233632
 30
0.0
 40
2.0
100
AcDbArc
 50
90.0
 51
156.1533112489999
  0
LINE
  5
1C8
330
1E
100
AcDbEntity
  8
0
  6
Continuous
 62
     1
100
AcDbLine
 10
-590.7138733157982
 20
-269.9089692233632
 30
0.0
 11
-590.7138733157982
 21
-270.9089692233633
 31
0.0
  0
ARC
  5
1C9
330
1E
100
AcDbEntity
  8
0
  6
Continuous
 62
     1
100
AcDbCircle
 10
-585.6138733157981
 20
-269.9089692233632
 30
0.0
 40
5.099999999999999
100
AcDbArc
 50
90.0
 51
180.0
  0
ARC
  5
1CA
330
1E
100
AcDbEntity
  8
0
  6
Continuous
 62
     1
100
AcDbCircle
 10
-585.6138733157981
 20
-270.9089692233633
 30
0.0
 40
5.099999999999999
100
AcDbArc
 50
180.0
 51
270.0
  0
ARC
  5
1CB
330
1E
100
AcDbEntity
  8
0
  6
Continuous
 62
     1
100
AcDbCircle
 10
-580.8138733157981
 20
-269.9089692233632
 30
0.0
 40
5.099999999999999
100
AcDbArc
 50
0.0
 51
90.0
  0
ARC
  5
1CC
330
1E
100
AcDbEntity
  8
0
  6
Continuous
 62
     1
100
AcDbCircle
 10
-580.4638733157982
 20
-269.4089692233632
 30
0.0
 40
2.0
100
AcDbArc
 50
90.0
 51
180.0
  0
LINE
  5
1CD
330
1E
100
AcDbEntity
  8
0
  6
Continuous
 62
     1
100
AcDbLine
 10
-580.4638733157982
 20
-267.4089692233632
 30
0.0
 11
-577.7138733157982
 21
-267.4089692233632
 31
0.0
  0
ARC
  5
1CE
330
1E
100
AcDbEntity
  8
0
  6
Continuous
 62
     1
100
AcDbCircle
 10
-577.7138733157982
 20
-269.4089692233632
 30
0.0
 40
2.0
100
AcDbArc
 50
23.846688751
 51
90.0
  0
LINE
  5
1CF
330
1E
100
AcDbEntity
  8
0
  6
Continuous
 62
     1
100
AcDbLine
 10
-580.8138733157981
 20
-264.8089692233633
 30
0.0
 11
-585.6138733157981
 21
-264.8089692233633
 31
0.0
  0
LINE
  5
1D0
330
1E
100
AcDbEntity
  8
0
  6
Continuous
 62
     1
100
AcDbLine
 10
-575.7138733157981
 20
-269.9089692233632
 30
0.0
 11
-575.7138733157981
 21
-270.9089692233633
 31
0.0
  0
ARC
  5
1D1
330
1E
100
AcDbEntity
  8
0
  6
Continuous
 62
     1
100
AcDbCircle
 10
-580.8138733157981
 20
-270.9089692233633
 30
0.0
 40
5.099999999999999
100
AcDbArc
 50
270.0
 51
0.0
  0
LINE
  5
1D2
330
1E
100
AcDbEntity
  8
0
  6
Continuous
 62
     1
100
AcDbLine
 10
-584.3638733157981
 20
-274.4589692233633
 30
0.0
 11
-584.3638733157981
 21
-273.4589692233632
 31
0.0
  0
LINE
  5
1D3
330
1E
100
AcDbEntity
  8
0
  6
Continuous
 62
     1
100
AcDbLine
 10
-582.0638733157982
 20
-274.4589692233633
 30
0.0
 11
-582.0638733157982
 21
-273.4589692233632
 31
0.0
  0
ARC
  5
1D4
330
1E
100
AcDbEntity
  8
0
  6
Continuous
 62
     1
100
AcDbCircle
 10
-583.2138733157981
 20
-273.9589692233632
 30
0.0
 40
1.1
100
AcDbArc
 50
132.9858860799999
 51
47.01411391999999
  0
ARC
  5
1D5
330
1E
100
AcDbEntity
  8
0
  6
Continuous
 62
     1
100
AcDbCircle
 10
-583.2138733157981
 20
-273.4589692233632
 30
0.0
 40
1.149999999999999
100
AcDbArc
 50
130.705706831
 51
180.0
  0
ARC
  5
1D6
330
1E
100
AcDbEntity
  8
0
  6
Continuous
 62
     1
100
AcDbCircle
 10
-583.2138733157981
 20
-273.4589692233632
 30
0.0
 40
1.149999999999999
100
AcDbArc
 50
0.0
 51
49.294293169
  0
LINE
  5
1D7
330
1E
100
AcDbEntity
  8
0
  6
Continuous
 62
     1
100
AcDbLine
 10
-583.9638733157982
 20
-269.4089692233632
 30
0.0
 11
-583.9638733157982
 21
-273.1542953763632
 31
0.0
  0
LINE
  5
1D8
330
1E
100
AcDbEntity
  8
0
  6
Continuous
 62
     1
100
AcDbLine
 10
-582.4638733157981
 20
-273.1542953763632
 30
0.0
 11
-582.4638733157981
 21
-269.4089692233632
 31
0.0
  0
LINE
  5
1D9
330
1E
100
AcDbEntity
  8
0
  6
Continuous
 62
     1
100
AcDbLine
 10
-585.6138733157981
 20
-276.0089692233632
 30
0.0
 11
-580.8138733157981
 21
-276.0089692233632
 31
0.0
  0
ARC
  5
1DA
330
1E
100
AcDbEntity
  8
0
  6
Continuous
 62
     1
100
AcDbCircle
 10
-583.2138733157981
 20
-274.4589692233633
 30
0.0
 40
1.149999999999999
100
AcDbArc
 50
180.0
 51
0.0
  0
LINE
  5
1DB
330
1E
100
AcDbEntity
  8
0
  6
Continuous
 62
     5
100
AcDbLine
 10
-657.7988733167982
 20
-146.4089692223633
 30
0.0
 11
-657.7988733177981
 21
-159.4089692223633
 31
0.0
  0
LINE
  5
1DC
330
1E
100
AcDbEntity
  8
0
  6
Continuous
 62
     5
100
AcDbLine
 10
-657.7988733177981
 20
-158.4089692223633
 30
0.0
 11
-655.8670216647981
 21
-158.9266073133632
 31
0.0
  0
LINE
  5
1DD
330
1E
100
AcDbEntity
  8
0
  6
Continuous
 62
     5
100
AcDbLine
 10
-657.7988733177981
 20
-158.4089692223633
 30
0.0
 11
-655.8670216647981
 21
-157.8913311323632
 31
0.0
  0
LINE
  5
1DE
330
1E
100
AcDbEntity
  8
0
  6
Continuous
 62
     5
100
AcDbLine
 10
-561.2138733177982
 20
-159.4089692263632
 30
0.0
 11
-561.2138733177982
 21
-131.4089692263632
 31
0.0
  0
LINE
  5
1DF
330
1E
100
AcDbEntity
  8
0
  6
Continuous
 62
     5
100
AcDbLine
 10
-560.2138733177981
 20
-218.4089692193632
 30
0.0
 11
-554.7988733177982
 21
-218.4089692193632
 31
0.0
  0
LINE
  5
1E0
330
1E
100
AcDbEntity
  8
0
  6
Continuous
 62
     5
100
AcDbLine
 10
-555.7988733177982
 20
-218.4089692193632
 30
0.0
 11
-556.3165114077982
 21
-220.3408208713633
 31
0.0
  0
LINE
  5
1E1
330
1E
100
AcDbEntity
  8
0
  6
Continuous
 62
     5
100
AcDbLine
 10
-555.7988733177982
 20
-218.4089692193632
 30
0.0
 11
-555.2812352277982
 21
-220.3408208713633
 31
0.0
  0
LINE
  5
1E2
330
1E
100
AcDbEntity
  8
0
  6
Continuous
 62
     5
100
AcDbLine
 10
-555.7988733177982
 20
-221.4089692193633
 30
0.0
 11
-555.7988733177982
 21
-218.4089692193632
 31
0.0
  0
LINE
  5
1E3
330
1E
100
AcDbEntity
  8
0
  6
Continuous
 62
     5
100
AcDbLine
 10
-555.7988733177982
 20
-218.4089692193632
 30
0.0
 11
-555.7988733177982
 21
-214.1089692193633
 31
0.0
  0
LINE
  5
1E4
330
1E
100
AcDbEntity
  8
0
  6
Continuous
 62
     5
100
AcDbLine
 10
-555.7988733177982
 20
-214.1089692193633
 30
0.0
 11
-555.7988733177982
 21
-205.1089692193633
 31
0.0
  0
LINE
  5
1E5
330
1E
100
AcDbEntity
  8
0
  6
Continuous
 62
     5
100
AcDbLine
 10
-555.7988733177982
 20
-214.1089692193633
 30
0.0
 11
-555.2812352277982
 21
-212.1771175663633
 31
0.0
  0
LINE
  5
1E6
330
1E
100
AcDbEntity
  8
0
  6
Continuous
 62
     5
100
AcDbLine
 10
-555.7988733177982
 20
-214.1089692193633
 30
0.0
 11
-556.3165114077982
 21
-212.1771175663633
 31
0.0
  0
LINE
  5
1E7
330
1E
100
AcDbEntity
  8
0
  6
Continuous
 62
     5
100
AcDbLine
 10
-560.2138733177981
 20
-214.1089692193633
 30
0.0
 11
-554.7988733177982
 21
-214.1089692193633
 31
0.0
  0
TEXT
  5
1E8
330
1E
100
AcDbEntity
  8
0
  6
Continuous
 62
     5
100
AcDbText
 10
-556.7988733177982
 20
-211.1089692193632
 30
0.3
 40
3.0
  1
４.５
 50
90.0
 41
0.6
  7
KANJI0
100
AcDbText
  0
LINE
  5
1E9
330
1E
100
AcDbEntity
  8
0
  6
Continuous
 62
     5
100
AcDbLine
 10
-560.2138733177981
 20
-218.4089692193632
 30
0.3
 11
-549.7988733177982
 21
-218.4089692193632
 31
0.3
  0
LINE
  5
1EA
330
1E
100
AcDbEntity
  8
0
  6
Continuous
 62
     5
100
AcDbLine
 10
-560.2138733177981
 20
-218.4089692193632
 30
0.0
 11
-544.7988733177981
 21
-218.4089692193632
 31
0.0
  0
LINE
  5
1EB
330
1E
100
AcDbEntity
  8
0
  6
Continuous
 62
     5
100
AcDbLine
 10
-545.7988733177982
 20
-218.4089692193632
 30
0.0
 11
-545.2812352277982
 21
-216.4771175663632
 31
0.0
  0
LINE
  5
1EC
330
1E
100
AcDbEntity
  8
0
  6
Continuous
 62
     5
100
AcDbLine
 10
-545.7988733177982
 20
-218.4089692193632
 30
0.0
 11
-546.3165114077981
 21
-216.4771175663632
 31
0.0
  0
LINE
  5
1ED
330
1E
100
AcDbEntity
  8
0
  6
Continuous
 62
     5
100
AcDbLine
 10
-545.7988733177982
 20
-218.4089692193632
 30
0.0
 11
-545.7988733177982
 21
-177.6089692193633
 31
0.0
  0
LINE
  5
1EE
330
1E
100
AcDbEntity
  8
0
  6
Continuous
 62
     5
100
AcDbLine
 10
-545.7988733177982
 20
-177.6089692193633
 30
0.0
 11
-546.3165114077981
 21
-179.5408208723632
 31
0.0
  0
LINE
  5
1EF
330
1E
100
AcDbEntity
  8
0
  6
Continuous
 62
     5
100
AcDbLine
 10
-545.7988733177982
 20
-177.6089692193633
 30
0.0
 11
-545.2812352277982
 21
-179.5408208723632
 31
0.0
  0
LINE
  5
1F0
330
1E
100
AcDbEntity
  8
0
  6
Continuous
 62
     5
100
AcDbLine
 10
-579.1432256177982
 20
-177.6089692193633
 30
0.0
 11
-544.7988733177981
 21
-177.6089692193633
 31
0.0
  0
TEXT
  5
1F1
330
1E
100
AcDbEntity
  8
0
  6
Continuous
 62
     5
100
AcDbText
 10
-546.7988733177982
 20
-199.9589692193632
 30
0.3
 40
3.0
  1
４１
 50
90.0
 41
0.6
  7
KANJI0
100
AcDbText
  0
LINE
  5
1F2
330
1E
100
AcDbEntity
  8
0
  6
Continuous
 62
     5
100
AcDbLine
 10
-561.2138733157982
 20
-280.4089692183632
 30
0.3
 11
-549.7988733177982
 21
-280.4089692183632
 31
0.3
  0
LINE
  5
1F3
330
1E
100
AcDbEntity
  8
0
  6
Continuous
 62
     5
100
AcDbLine
 10
-550.7988733177982
 20
-280.4089692183632
 30
0.0
 11
-550.2812352277982
 21
-278.4771175653633
 31
0.0
  0
LINE
  5
1F4
330
1E
100
AcDbEntity
  8
0
  6
Continuous
 62
     5
100
AcDbLine
 10
-550.7988733177982
 20
-280.4089692183632
 30
0.0
 11
-551.3165114077982
 21
-278.4771175653633
 31
0.0
  0
LINE
  5
1F5
330
1E
100
AcDbEntity
  8
0
  6
Continuous
 62
     5
100
AcDbLine
 10
-550.7988733177982
 20
-280.4089692183632
 30
0.0
 11
-550.7988733177982
 21
-260.4089692183632
 31
0.0
  0
LINE
  5
1F6
330
1E
100
AcDbEntity
  8
0
  6
Continuous
 62
     5
100
AcDbLine
 10
-550.7988733177982
 20
-260.4089692183632
 30
0.0
 11
-551.3165114077982
 21
-262.3408208703633
 31
0.0
  0
LINE
  5
1F7
330
1E
100
AcDbEntity
  8
0
  6
Continuous
 62
     5
100
AcDbLine
 10
-550.7988733177982
 20
-260.4089692183632
 30
0.0
 11
-550.2812352277982
 21
-262.3408208703633
 31
0.0
  0
LINE
  5
1F8
330
1E
100
AcDbEntity
  8
0
  6
Continuous
 62
     5
100
AcDbLine
 10
-561.2138733157982
 20
-260.4089692183632
 30
0.0
 11
-549.7988733177982
 21
-260.4089692183632
 31
0.0
  0
TEXT
  5
1F9
330
1E
100
AcDbEntity
  8
0
  6
Continuous
 62
     5
100
AcDbText
 10
-551.7988733177982
 20
-272.3589692183633
 30
0.3
 40
3.0
  1
２０
 50
90.0
 41
0.6
  7
KANJI0
100
AcDbText
  0
LINE
  5
1FA
330
1E
100
AcDbEntity
  8
0
  6
Continuous
 62
     5
100
AcDbLine
 10
-563.7988733147982
 20
-294.4089692183632
 30
0.3
 11
-544.7988733177981
 21
-294.4089692183632
 31
0.3
  0
LINE
  5
1FB
330
1E
100
AcDbEntity
  8
0
  6
Continuous
 62
     5
100
AcDbLine
 10
-545.7988733177982
 20
-294.4089692183632
 30
0.0
 11
-545.2812352277982
 21
-292.4771175653633
 31
0.0
  0
LINE
  5
1FC
330
1E
100
AcDbEntity
  8
0
  6
Continuous
 62
     5
100
AcDbLine
 10
-545.7988733177982
 20
-294.4089692183632
 30
0.0
 11
-546.3165114077981
 21
-292.4771175653633
 31
0.0
  0
LINE
  5
1FD
330
1E
100
AcDbEntity
  8
0
  6
Continuous
 62
     5
100
AcDbLine
 10
-545.7988733177982
 20
-294.4089692183632
 30
0.0
 11
-545.7988733177982
 21
-246.4089692183633
 31
0.0
  0
LINE
  5
1FE
330
1E
100
AcDbEntity
  8
0
  6
Continuous
 62
     5
100
AcDbLine
 10
-545.7988733177982
 20
-246.4089692183633
 30
0.0
 11
-546.3165114077981
 21
-248.3408208703632
 31
0.0
  0
LINE
  5
1FF
330
1E
100
AcDbEntity
  8
0
  6
Continuous
 62
     5
100
AcDbLine
 10
-545.7988733177982
 20
-246.4089692183633
 30
0.0
 11
-545.2812352277982
 21
-248.3408208703632
 31
0.0
  0
LINE
  5
200
330
1E
100
AcDbEntity
  8
0
  6
Continuous
 62
     5
100
AcDbLine
 10
-563.7988733167982
 20
-246.4089692183633
 30
0.0
 11
-544.7988733177981
 21
-246.4089692183633
 31
0.0
  0
TEXT
  5
201
330
1E
100
AcDbEntity
  8
0
  6
Continuous
 62
     5
100
AcDbText
 10
-546.7988733177982
 20
-272.3589692183633
 30
0.3
 40
3.0
  1
４８
 50
90.0
 41
0.6
  7
KANJI0
100
AcDbText
  0
LINE
  5
202
330
1E
100
AcDbEntity
  8
0
  6
Continuous
 62
     3
100
AcDbLine
 10
-527.7838733187982
 20
-122.1941544113632
 30
0.3
 11
-527.7838733187982
 21
-120.6237840413632
 31
0.3
  0
LINE
  5
203
330
1E
100
AcDbEntity
  8
0
  6
Continuous
 62
     3
100
AcDbLine
 10
-527.7838733187982
 20
-118.6941544113632
 30
0.0
 11
-527.7838733187982
 21
-117.1237840413632
 31
0.0
  0
LINE
  5
204
330
1E
100
AcDbEntity
  8
0
  6
Continuous
 62
     3
100
AcDbLine
 10
-527.7838733187982
 20
-115.1941544113632
 30
0.0
 11
-527.7838733187982
 21
-113.6237840413632
 31
0.0
  0
LINE
  5
205
330
1E
100
AcDbEntity
  8
0
  6
Continuous
 62
     3
100
AcDbLine
 10
-527.7838733187982
 20
-111.6941544113632
 30
0.0
 11
-527.7838733187982
 21
-110.1237840413632
 31
0.0
  0
LINE
  5
206
330
1E
100
AcDbEntity
  8
0
  6
Continuous
 62
     3
100
AcDbLine
 10
-527.7838733187982
 20
-108.1941544113632
 30
0.0
 11
-527.7838733187982
 21
-106.6237840413632
 31
0.0
  0
LINE
  5
207
330
1E
100
AcDbEntity
  8
0
  6
Continuous
 62
     3
100
AcDbLine
 10
-527.7838733187982
 20
-104.6941544113632
 30
0.0
 11
-527.7838733187982
 21
-103.1237840413632
 31
0.0
  0
LINE
  5
208
330
1E
100
AcDbEntity
  8
0
  6
Continuous
 62
     3
100
AcDbLine
 10
-517.9838733187982
 20
-103.1589692263632
 30
0.0
 11
-529.7838733187981
 21
-103.0589692263632
 31
0.0
  0
LINE
  5
209
330
1E
100
AcDbEntity
  8
0
  6
Continuous
 62
     3
100
AcDbLine
 10
-527.7838733187982
 20
-101.1941544113632
 30
0.0
 11
-527.7838733187982
 21
-99.6237840413633
 31
0.0
  0
LINE
  5
20A
330
1E
100
AcDbEntity
  8
0
  6
Continuous
 62
     3
100
AcDbLine
 10
-517.9838733187982
 20
-100.4089692263632
 30
0.0
 11
-517.9838733187982
 21
-101.1589692263632
 31
0.0
  0
LINE
  5
20B
330
1E
100
AcDbEntity
  8
0
  6
Continuous
 62
     3
100
AcDbLine
 10
-517.9838733187982
 20
-101.1589692263632
 30
0.0
 11
-529.7838733187981
 21
-101.2589692263632
 31
0.0
  0
LINE
  5
20C
330
1E
100
AcDbEntity
  8
0
  6
Continuous
 62
     3
100
AcDbLine
 10
-517.9838733187982
 20
-100.4089692263632
 30
0.0
 11
-517.9838733187982
 21
-99.6589692263633
 31
0.0
  0
LINE
  5
20D
330
1E
100
AcDbEntity
  8
0
  6
Continuous
 62
     3
100
AcDbLine
 10
-517.9838733187982
 20
-99.6589692263633
 30
0.0
 11
-529.7838733187981
 21
-99.55896922636327
 31
0.0
  0
LINE
  5
20E
330
1E
100
AcDbEntity
  8
0
  6
Continuous
 62
     3
100
AcDbLine
 10
-527.7838733187982
 20
-124.1237840413632
 30
0.0
 11
-527.7838733187982
 21
-125.6941544113632
 31
0.0
  0
LINE
  5
20F
330
1E
100
AcDbEntity
  8
0
  6
Continuous
 62
     3
100
AcDbLine
 10
-527.7838733187982
 20
-127.6237840413632
 30
0.0
 11
-527.7838733187982
 21
-129.1941544113632
 31
0.0
  0
LINE
  5
210
330
1E
100
AcDbEntity
  8
0
  6
Continuous
 62
     3
100
AcDbLine
 10
-527.7838733187982
 20
-131.1237840413632
 30
0.0
 11
-527.7838733187982
 21
-132.6941544113632
 31
0.0
  0
LINE
  5
211
330
1E
100
AcDbEntity
  8
0
  6
Continuous
 62
     3
100
AcDbLine
 10
-527.7838733187982
 20
-134.6237840413632
 30
0.0
 11
-527.7838733187982
 21
-136.1941544113632
 31
0.0
  0
LINE
  5
212
330
1E
100
AcDbEntity
  8
0
  6
Continuous
 62
     3
100
AcDbLine
 10
-527.7838733187982
 20
-138.1237840413632
 30
0.0
 11
-527.7838733187982
 21
-139.6941544113632
 31
0.0
  0
LINE
  5
213
330
1E
100
AcDbEntity
  8
0
  6
Continuous
 62
     3
100
AcDbLine
 10
-517.9838733187982
 20
-139.6589692263632
 30
0.0
 11
-529.7838733187981
 21
-139.7589692263632
 31
0.0
  0
LINE
  5
214
330
1E
100
AcDbEntity
  8
0
  6
Continuous
 62
     3
100
AcDbLine
 10
-527.7838733187982
 20
-141.6237840413632
 30
0.0
 11
-527.7838733187982
 21
-143.1941544113632
 31
0.0
  0
LINE
  5
215
330
1E
100
AcDbEntity
  8
0
  6
Continuous
 62
     3
100
AcDbLine
 10
-517.9838733187982
 20
-142.4089692263632
 30
0.0
 11
-517.9838733187982
 21
-141.6589692263632
 31
0.0
  0
LINE
  5
216
330
1E
100
AcDbEntity
  8
0
  6
Continuous
 62
     3
100
AcDbLine
 10
-517.9838733187982
 20
-141.6589692263632
 30
0.0
 11
-529.7838733187981
 21
-141.5589692263632
 31
0.0
  0
LINE
  5
217
330
1E
100
AcDbEntity
  8
0
  6
Continuous
 62
     3
100
AcDbLine
 10
-517.9838733187982
 20
-142.4089692263632
 30
0.0
 11
-517.9838733187982
 21
-143.1589692263632
 31
0.0
  0
LINE
  5
218
330
1E
100
AcDbEntity
  8
0
  6
Continuous
 62
     3
100
AcDbLine
 10
-517.9838733187982
 20
-143.1589692263632
 30
0.0
 11
-529.7838733187981
 21
-143.2589692263633
 31
0.0
  0
LINE
  5
219
330
1E
100
AcDbEntity
  8
0
  6
Continuous
 62
     1
100
AcDbLine
 10
-507.5838733187981
 20
-121.4089692263632
 30
0.0
 11
-507.5838733187981
 21
-123.9089692263632
 31
0.0
  0
LINE
  5
21A
330
1E
100
AcDbEntity
  8
0
  6
Continuous
 62
     1
100
AcDbLine
 10
-507.5838733187981
 20
-123.9089692263632
 30
0.0
 11
-508.3838733187981
 21
-123.9089692263632
 31
0.0
  0
LINE
  5
21B
330
1E
100
AcDbEntity
  8
0
  6
Continuous
 62
     1
100
AcDbLine
 10
-488.9838733187982
 20
-145.4089692263632
 30
0.0
 11
-488.9838733187982
 21
-121.4089692263632
 31
0.0
  0
LINE
  5
21C
330
1E
100
AcDbEntity
  8
0
  6
Continuous
 62
     1
100
AcDbLine
 10
-507.8838733187981
 20
-131.5089692263633
 30
0.0
 11
-506.3838733187981
 21
-131.5089692263633
 31
0.0
  0
ARC
  5
21D
330
1E
100
AcDbEntity
  8
0
  6
Continuous
 62
     1
100
AcDbCircle
 10
-507.8838733187981
 20
-131.0089692263632
 30
0.0
 40
0.5
100
AcDbArc
 50
180.0
 51
270.0
  0
LINE
  5
21E
330
1E
100
AcDbEntity
  8
0
  6
Continuous
 62
     1
100
AcDbLine
 10
-507.8838733187981
 20
-133.3089692263632
 30
0.0
 11
-506.3838733187981
 21
-133.3089692263632
 31
0.0
  0
ARC
  5
21F
330
1E
100
AcDbEntity
  8
0
  6
Continuous
 62
     1
100
AcDbCircle
 10
-507.8838733187981
 20
-133.8089692263632
 30
0.0
 40
0.5
100
AcDbArc
 50
90.0
 51
180.0
  0
LINE
  5
220
330
1E
100
AcDbEntity
  8
0
  6
Continuous
 62
     1
100
AcDbLine
 10
-508.3838733187981
 20
-123.9089692263632
 30
0.0
 11
-508.3838733187981
 21
-131.0089692263632
 31
0.0
  0
LINE
  5
221
330
1E
100
AcDbEntity
  8
0
  6
Continuous
 62
     1
100
AcDbLine
 10
-506.3838733187981
 20
-121.4089692263632
 30
0.0
 11
-506.3838733187981
 21
-144.4089692263632
 31
0.0
  0
LINE
  5
222
330
1E
100
AcDbEntity
  8
0
  6
Continuous
 62
     1
100
AcDbLine
 10
-505.3838733187982
 20
-145.4089692263632
 30
0.0
 11
-488.9838733187982
 21
-145.4089692263632
 31
0.0
  0
ARC
  5
223
330
1E
100
AcDbEntity
  8
0
  6
Continuous
 62
     1
100
AcDbCircle
 10
-505.3838733187982
 20
-144.4089692263632
 30
0.0
 40
1.0
100
AcDbArc
 50
180.0
 51
270.0
  0
LINE
  5
224
330
1E
100
AcDbEntity
  8
0
  6
Continuous
 62
     1
100
AcDbLine
 10
-528.7838733187982
 20
-145.4089692263632
 30
0.0
 11
-505.1838733187982
 21
-145.4089692263632
 31
0.0
  0
LWPOLYLINE
  5
225
330
1E
100
AcDbEntity
  8
0
 62
     1
100
AcDbPolyline
 90
        3
 70
     0
 43
0.0
 10
-507.5838733187981
 20
-121.4089692263632
 10
-507.5838733187981
 20
-118.9089692263632
 10
-508.3838733187981
 20
-118.9089692263632
  0
LINE
  5
22A
330
1E
100
AcDbEntity
  8
0
  6
Continuous
 62
     1
100
AcDbLine
 10
-507.8838733187981
 20
-111.3089692263632
 30
0.0
 11
-506.3838733187981
 21
-111.3089692263632
 31
0.0
  0
ARC
  5
22B
330
1E
100
AcDbEntity
  8
0
  6
Continuous
 62
     1
100
AcDbCircle
 10
-507.8838733187981
 20
-111.8089692263632
 30
0.0
 40
0.5
100
AcDbArc
 50
90.0
 51
180.0
  0
LINE
  5
22C
330
1E
100
AcDbEntity
  8
0
  6
Continuous
 62
     1
100
AcDbLine
 10
-507.8838733187981
 20
-109.5089692263632
 30
0.0
 11
-506.3838733187981
 21
-109.5089692263632
 31
0.0
  0
ARC
  5
22D
330
1E
100
AcDbEntity
  8
0
  6
Continuous
 62
     1
100
AcDbCircle
 10
-507.8838733187981
 20
-109.0089692263632
 30
0.0
 40
0.5
100
AcDbArc
 50
180.0
 51
270.0
  0
LINE
  5
22E
330
1E
100
AcDbEntity
  8
0
  6
Continuous
 62
     1
100
AcDbLine
 10
-508.3838733187981
 20
-118.9089692263632
 30
0.0
 11
-508.3838733187981
 21
-111.8089692263632
 31
0.0
  0
LINE
  5
22F
330
1E
100
AcDbEntity
  8
0
  6
Continuous
 62
     1
100
AcDbLine
 10
-506.3838733187981
 20
-121.4089692263632
 30
0.0
 11
-506.3838733187981
 21
-98.4089692263633
 31
0.0
  0
ARC
  5
230
330
1E
100
AcDbEntity
  8
0
  6
Continuous
 62
     1
100
AcDbCircle
 10
-505.3838733187982
 20
-98.4089692263633
 30
0.0
 40
1.0
100
AcDbArc
 50
90.0
 51
180.0
  0
LINE
  5
231
330
1E
100
AcDbEntity
  8
0
  6
Continuous
 62
     1
100
AcDbLine
 10
-528.7838733187982
 20
-97.40896922636331
 30
0.0
 11
-505.1838733187982
 21
-97.40896922636331
 31
0.0
  0
LINE
  5
232
330
1E
100
AcDbEntity
  8
0
  6
Continuous
 62
     1
100
AcDbLine
 10
-488.9838733187982
 20
-131.6089692263632
 30
0.0
 11
-493.4838733187982
 21
-131.6089692263632
 31
0.0
  0
LINE
  5
233
330
1E
100
AcDbEntity
  8
0
  6
Continuous
 62
     1
100
AcDbLine
 10
-493.4838733187982
 20
-131.6089692263632
 30
0.0
 11
-493.4838733187982
 21
-121.4089692263632
 31
0.0
  0
LINE
  5
234
330
1E
100
AcDbEntity
  8
0
  6
Continuous
 62
     1
100
AcDbLine
 10
-488.9838733187982
 20
-111.2089692263632
 30
0.0
 11
-493.4838733187982
 21
-111.2089692263632
 31
0.0
  0
LINE
  5
235
330
1E
100
AcDbEntity
  8
0
  6
Continuous
 62
     1
100
AcDbLine
 10
-493.4838733187982
 20
-111.2089692263632
 30
0.0
 11
-493.4838733187982
 21
-121.4089692263632
 31
0.0
  0
LINE
  5
236
330
1E
100
AcDbEntity
  8
0
  6
Continuous
 62
     1
100
AcDbLine
 10
-488.9838733187982
 20
-97.40896922636331
 30
0.0
 11
-488.9838733187982
 21
-121.4089692263632
 31
0.0
  0
LINE
  5
237
330
1E
100
AcDbEntity
  8
0
  6
Continuous
 62
     1
100
AcDbLine
 10
-505.3838733187982
 20
-97.40896922636331
 30
0.0
 11
-488.9838733187982
 21
-97.40896922636331
 31
0.0
  0
LINE
  5
238
330
1E
100
AcDbEntity
  8
0
  6
Continuous
 62
     1
100
AcDbLine
 10
-508.3838733187981
 20
-109.0089692263632
 30
0.0
 11
-508.3838733187981
 21
-104.9089692263632
 31
0.0
  0
LINE
  5
239
330
1E
100
AcDbEntity
  8
0
  6
Continuous
 62
     1
100
AcDbLine
 10
-508.3838733187981
 20
-133.8089692263632
 30
0.0
 11
-508.3838733187981
 21
-137.9089692263632
 31
0.0
  0
LINE
  5
23A
330
1E
100
AcDbEntity
  8
0
  6
Continuous
 62
     1
100
AcDbLine
 10
-507.9538733187981
 20
-141.4589692263632
 30
0.0
 11
-510.8319840537982
 21
-141.4589692263632
 31
0.0
  0
LINE
  5
23B
330
1E
100
AcDbEntity
  8
0
  6
Continuous
 62
     1
100
AcDbLine
 10
-506.3838733187981
 20
-141.4589692263632
 30
0.0
 11
-507.8838733187981
 21
-141.4589692263632
 31
0.0
  0
ARC
  5
23C
330
1E
100
AcDbEntity
  8
0
  6
Continuous
 62
     1
100
AcDbCircle
 10
-507.8838733187981
 20
-140.9589692263632
 30
0.0
 40
0.5
100
AcDbArc
 50
180.0
 51
270.0
  0
ARC
  5
23D
330
1E
100
AcDbEntity
  8
0
  6
Continuous
 62
     1
100
AcDbCircle
 10
-510.8319840537982
 20
-101.8589692263632
 30
0.0
 40
0.5
100
AcDbArc
 50
90.0
 51
179.819825187
  0
LINE
  5
23E
330
1E
100
AcDbEntity
  8
0
  6
Continuous
 62
     1
100
AcDbLine
 10
-506.3838733187981
 20
-101.3589692263632
 30
0.0
 11
-507.8838733187981
 21
-101.3589692263632
 31
0.0
  0
ARC
  5
23F
330
1E
100
AcDbEntity
  8
0
  6
Continuous
 62
     1
100
AcDbCircle
 10
-507.8838733187981
 20
-101.8589692263632
 30
0.0
 40
0.5
100
AcDbArc
 50
90.0
 51
180.0
  0
LINE
  5
240
330
1E
100
AcDbEntity
  8
0
  6
Continuous
 62
     1
100
AcDbLine
 10
-507.7738733187981
 20
-101.3589692263632
 30
0.0
 11
-510.8319840537982
 21
-101.3589692263632
 31
0.0
  0
LINE
  5
241
330
1E
100
AcDbEntity
  8
0
  6
Continuous
 62
     1
100
AcDbLine
 10
-508.3838733187981
 20
-137.9089692263632
 30
0.0
 11
-508.3838733187981
 21
-140.9589692263632
 31
0.0
  0
LINE
  5
242
330
1E
100
AcDbEntity
  8
0
  6
Continuous
 62
     1
100
AcDbLine
 10
-508.3838733187981
 20
-104.9089692263632
 30
0.0
 11
-508.3838733187981
 21
-101.8589692263632
 31
0.0
  0
LINE
  5
243
330
1E
100
AcDbEntity
  8
0
  6
Continuous
 62
     1
100
AcDbLine
 10
-508.3838733187981
 20
-139.8589692263632
 30
0.0
 11
-511.3319815817981
 21
-139.8589692263632
 31
0.0
  0
LINE
  5
244
330
1E
100
AcDbEntity
  8
0
  6
Continuous
 62
     1
100
AcDbLine
 10
-508.3838733187981
 20
-102.9589692263632
 30
0.0
 11
-511.3319815817981
 21
-102.9589692263632
 31
0.0
  0
LINE
  5
245
330
1E
100
AcDbEntity
  8
0
  6
Continuous
 62
     1
100
AcDbLine
 10
-529.7838733187981
 20
-121.4089692263632
 30
0.0
 11
-529.7838733187981
 21
-98.4089692263633
 31
0.0
  0
ARC
  5
246
330
1E
100
AcDbEntity
  8
0
  6
Continuous
 62
     1
100
AcDbCircle
 10
-528.7838733187982
 20
-98.4089692263633
 30
0.0
 40
1.0
100
AcDbArc
 50
90.0
 51
180.0
  0
LINE
  5
247
330
1E
100
AcDbEntity
  8
0
  6
Continuous
 62
     1
100
AcDbLine
 10
-529.7838733187981
 20
-121.4089692263632
 30
0.0
 11
-529.7838733187981
 21
-144.4089692263632
 31
0.0
  0
ARC
  5
248
330
1E
100
AcDbEntity
  8
0
  6
Continuous
 62
     1
100
AcDbCircle
 10
-528.7838733187982
 20
-144.4089692263632
 30
0.0
 40
1.0
100
AcDbArc
 50
180.0
 51
270.0
  0
LINE
  5
249
330
1E
100
AcDbEntity
  8
0
  6
Continuous
 62
     1
100
AcDbLine
 10
-488.9838733187982
 20
-97.40896922636331
 30
0.0
 11
-488.9838733187982
 21
-121.4089692263632
 31
0.0
  0
LINE
  5
24A
330
1E
100
AcDbEntity
  8
0
  6
Continuous
 62
     3
100
AcDbLine
 10
-515.7838733187982
 20
-138.0589692263632
 30
0.0
 11
-509.0838733187982
 21
-138.0589692263632
 31
0.0
  0
LINE
  5
24B
330
1E
100
AcDbEntity
  8
0
  6
Continuous
 62
     3
100
AcDbLine
 10
-509.0838733187982
 20
-130.8589692263632
 30
0.0
 11
-517.0838733187982
 21
-130.8589692263632
 31
0.0
  0
LINE
  5
24C
330
1E
100
AcDbEntity
  8
0
  6
Continuous
 62
     3
100
AcDbLine
 10
-509.0838733187982
 20
-138.0589692263632
 30
0.0
 11
-509.0838733187982
 21
-130.8589692263632
 31
0.0
  0
LINE
  5
24D
330
1E
100
AcDbEntity
  8
0
  6
Continuous
 62
     3
100
AcDbLine
 10
-509.5838733187981
 20
-138.0589692263632
 30
0.0
 11
-509.5838733187981
 21
-130.8589692263632
 31
0.0
  0
LINE
  5
24E
330
1E
100
AcDbEntity
  8
0
  6
Continuous
 62
     3
100
AcDbLine
 10
-509.0838733187982
 20
-137.0589692263632
 30
0.0
 11
-509.5838733187981
 21
-137.0589692263632
 31
0.0
  0
LINE
  5
24F
330
1E
100
AcDbEntity
  8
0
  6
Continuous
 62
     3
100
AcDbLine
 10
-509.0838733187982
 20
-131.8589692263632
 30
0.0
 11
-509.5838733187981
 21
-131.8589692263632
 31
0.0
  0
LINE
  5
250
330
1E
100
AcDbEntity
  8
0
  6
Continuous
 62
     3
100
AcDbLine
 10
-509.5838733187981
 20
-134.9589692263632
 30
0.0
 11
-510.5838733187981
 21
-134.9589692263632
 31
0.0
  0
LINE
  5
251
330
1E
100
AcDbEntity
  8
0
  6
Continuous
 62
     3
100
AcDbLine
 10
-510.5838733187981
 20
-134.9589692263632
 30
0.0
 11
-509.5838733187981
 21
-137.4589692263632
 31
0.0
  0
LINE
  5
252
330
1E
100
AcDbEntity
  8
0
  6
Continuous
 62
     3
100
AcDbLine
 10
-509.5838733187981
 20
-137.4589692263632
 30
0.0
 11
-511.5838733187981
 21
-137.4589692263632
 31
0.0
  0
LINE
  5
253
330
1E
100
AcDbEntity
  8
0
  6
Continuous
 62
     3
100
AcDbLine
 10
-511.5838733187981
 20
-137.4589692263632
 30
0.0
 11
-511.5838733187981
 21
-134.4589692263632
 31
0.0
  0
LINE
  5
254
330
1E
100
AcDbEntity
  8
0
  6
Continuous
 62
     3
100
AcDbLine
 10
-511.0838733187981
 20
-134.4589692263632
 30
0.0
 11
-511.0838733187981
 21
-135.4589692263632
 31
0.0
  0
LINE
  5
255
330
1E
100
AcDbEntity
  8
0
  6
Continuous
 62
     3
100
AcDbLine
 10
-511.0838733187981
 20
-135.4589692263632
 30
0.0
 11
-511.5838733187981
 21
-135.4589692263632
 31
0.0
  0
LINE
  5
256
330
1E
100
AcDbEntity
  8
0
  6
Continuous
 62
     3
100
AcDbLine
 10
-509.0838733187982
 20
-131.8589692263632
 30
0.0
 11
-509.5838733187981
 21
-131.8589692263632
 31
0.0
  0
LINE
  5
257
330
1E
100
AcDbEntity
  8
0
  6
Continuous
 62
     3
100
AcDbLine
 10
-509.5838733187981
 20
-133.9589692263632
 30
0.0
 11
-510.5838733187981
 21
-133.9589692263632
 31
0.0
  0
LINE
  5
258
330
1E
100
AcDbEntity
  8
0
  6
Continuous
 62
     3
100
AcDbLine
 10
-510.5838733187981
 20
-133.9589692263632
 30
0.0
 11
-509.5838733187981
 21
-131.4589692263632
 31
0.0
  0
LINE
  5
259
330
1E
100
AcDbEntity
  8
0
  6
Continuous
 62
     3
100
AcDbLine
 10
-509.5838733187981
 20
-131.4589692263632
 30
0.0
 11
-511.5838733187981
 21
-131.4589692263632
 31
0.0
  0
LINE
  5
25A
330
1E
100
AcDbEntity
  8
0
  6
Continuous
 62
     3
100
AcDbLine
 10
-511.5838733187981
 20
-131.4589692263632
 30
0.0
 11
-511.5838733187981
 21
-134.4589692263632
 31
0.0
  0
LINE
  5
25B
330
1E
100
AcDbEntity
  8
0
  6
Continuous
 62
     3
100
AcDbLine
 10
-511.0838733187981
 20
-134.4589692263632
 30
0.0
 11
-511.0838733187981
 21
-133.4589692263632
 31
0.0
  0
LINE
  5
25C
330
1E
100
AcDbEntity
  8
0
  6
Continuous
 62
     3
100
AcDbLine
 10
-511.0838733187981
 20
-133.4589692263632
 30
0.0
 11
-511.5838733187981
 21
-133.4589692263632
 31
0.0
  0
LINE
  5
25D
330
1E
100
AcDbEntity
  8
0
  6
Continuous
 62
     3
100
AcDbLine
 10
-511.5838733187981
 20
-134.4589692263632
 30
0.0
 11
-511.5838733187981
 21
-137.2589692263632
 31
0.0
  0
LINE
  5
25E
330
1E
100
AcDbEntity
  8
0
  6
Continuous
 62
     3
100
AcDbLine
 10
-511.5838733187981
 20
-137.2589692263632
 30
0.0
 11
-513.5838733187982
 21
-137.2589692263632
 31
0.0
  0
LINE
  5
25F
330
1E
100
AcDbEntity
  8
0
  6
Continuous
 62
     3
100
AcDbLine
 10
-513.7838733187982
 20
-134.4589692263632
 30
0.0
 11
-513.7838733187982
 21
-135.0589692263632
 31
0.0
  0
LINE
  5
260
330
1E
100
AcDbEntity
  8
0
  6
Continuous
 62
     3
100
AcDbLine
 10
-513.7838733187982
 20
-135.0589692263632
 30
0.0
 11
-513.5838733187982
 21
-137.2589692263632
 31
0.0
  0
LINE
  5
261
330
1E
100
AcDbEntity
  8
0
  6
Continuous
 62
     3
100
AcDbLine
 10
-511.5838733187981
 20
-131.4589692263632
 30
0.0
 11
-511.5838733187981
 21
-134.4589692263632
 31
0.0
  0
LINE
  5
262
330
1E
100
AcDbEntity
  8
0
  6
Continuous
 62
     3
100
AcDbLine
 10
-511.5838733187981
 20
-134.4589692263632
 30
0.0
 11
-511.5838733187981
 21
-131.6589692263632
 31
0.0
  0
LINE
  5
263
330
1E
100
AcDbEntity
  8
0
  6
Continuous
 62
     3
100
AcDbLine
 10
-511.5838733187981
 20
-131.6589692263632
 30
0.0
 11
-513.5838733187982
 21
-131.6589692263632
 31
0.0
  0
LINE
  5
264
330
1E
100
AcDbEntity
  8
0
  6
Continuous
 62
     3
100
AcDbLine
 10
-513.7838733187982
 20
-134.4589692263632
 30
0.0
 11
-513.7838733187982
 21
-133.8589692263632
 31
0.0
  0
LINE
  5
265
330
1E
100
AcDbEntity
  8
0
  6
Continuous
 62
     3
100
AcDbLine
 10
-513.7838733187982
 20
-133.8589692263632
 30
0.0
 11
-513.5838733187982
 21
-131.6589692263632
 31
0.0
  0
LINE
  5
266
330
1E
100
AcDbEntity
  8
0
  6
Continuous
 62
     3
100
AcDbLine
 10
-517.0838733187982
 20
-129.3589692263632
 30
0.0
 11
-509.0838733187982
 21
-129.3589692263632
 31
0.0
  0
LINE
  5
267
330
1E
100
AcDbEntity
  8
0
  6
Continuous
 62
     3
100
AcDbLine
 10
-517.0838733187982
 20
-129.3589692263632
 30
0.0
 11
-509.0838733187982
 21
-129.3589692263632
 31
0.0
  0
LINE
  5
268
330
1E
100
AcDbEntity
  8
0
  6
Continuous
 62
     3
100
AcDbLine
 10
-509.0838733187982
 20
-129.3589692263632
 30
0.0
 11
-509.0838733187982
 21
-122.1589692263632
 31
0.0
  0
LINE
  5
269
330
1E
100
AcDbEntity
  8
0
  6
Continuous
 62
     3
100
AcDbLine
 10
-509.0838733187982
 20
-122.1589692263632
 30
0.0
 11
-517.0838733187982
 21
-122.1589692263632
 31
0.0
  0
LINE
  5
26A
330
1E
100
AcDbEntity
  8
0
  6
Continuous
 62
     3
100
AcDbLine
 10
-509.5838733187981
 20
-129.3589692263632
 30
0.0
 11
-509.5838733187981
 21
-122.1589692263632
 31
0.0
  0
LINE
  5
26B
330
1E
100
AcDbEntity
  8
0
  6
Continuous
 62
     3
100
AcDbLine
 10
-509.0838733187982
 20
-128.3589692263632
 30
0.0
 11
-509.5838733187981
 21
-128.3589692263632
 31
0.0
  0
LINE
  5
26C
330
1E
100
AcDbEntity
  8
0
  6
Continuous
 62
     3
100
AcDbLine
 10
-509.0838733187982
 20
-123.1589692263632
 30
0.0
 11
-509.5838733187981
 21
-123.1589692263632
 31
0.0
  0
LINE
  5
26D
330
1E
100
AcDbEntity
  8
0
  6
Continuous
 62
     3
100
AcDbLine
 10
-509.5838733187981
 20
-126.2589692263633
 30
0.0
 11
-510.5838733187981
 21
-126.2589692263633
 31
0.0
  0
LINE
  5
26E
330
1E
100
AcDbEntity
  8
0
  6
Continuous
 62
     3
100
AcDbLine
 10
-510.5838733187981
 20
-126.2589692263633
 30
0.0
 11
-509.5838733187981
 21
-128.7589692263632
 31
0.0
  0
LINE
  5
26F
330
1E
100
AcDbEntity
  8
0
  6
Continuous
 62
     3
100
AcDbLine
 10
-509.5838733187981
 20
-128.7589692263632
 30
0.0
 11
-511.5838733187981
 21
-128.7589692263632
 31
0.0
  0
LINE
  5
270
330
1E
100
AcDbEntity
  8
0
  6
Continuous
 62
     3
100
AcDbLine
 10
-511.5838733187981
 20
-128.7589692263632
 30
0.0
 11
-511.5838733187981
 21
-125.7589692263632
 31
0.0
  0
LINE
  5
271
330
1E
100
AcDbEntity
  8
0
  6
Continuous
 62
     3
100
AcDbLine
 10
-511.0838733187981
 20
-125.7589692263632
 30
0.0
 11
-511.0838733187981
 21
-126.7589692263632
 31
0.0
  0
LINE
  5
272
330
1E
100
AcDbEntity
  8
0
  6
Continuous
 62
     3
100
AcDbLine
 10
-511.0838733187981
 20
-126.7589692263632
 30
0.0
 11
-511.5838733187981
 21
-126.7589692263632
 31
0.0
  0
LINE
  5
273
330
1E
100
AcDbEntity
  8
0
  6
Continuous
 62
     3
100
AcDbLine
 10
-509.0838733187982
 20
-123.1589692263632
 30
0.0
 11
-509.5838733187981
 21
-123.1589692263632
 31
0.0
  0
LINE
  5
274
330
1E
100
AcDbEntity
  8
0
  6
Continuous
 62
     3
100
AcDbLine
 10
-509.5838733187981
 20
-125.2589692263633
 30
0.0
 11
-510.5838733187981
 21
-125.2589692263633
 31
0.0
  0
LINE
  5
275
330
1E
100
AcDbEntity
  8
0
  6
Continuous
 62
     3
100
AcDbLine
 10
-510.5838733187981
 20
-125.2589692263633
 30
0.0
 11
-509.5838733187981
 21
-122.7589692263632
 31
0.0
  0
LINE
  5
276
330
1E
100
AcDbEntity
  8
0
  6
Continuous
 62
     3
100
AcDbLine
 10
-509.5838733187981
 20
-122.7589692263632
 30
0.0
 11
-511.5838733187981
 21
-122.7589692263632
 31
0.0
  0
LINE
  5
277
330
1E
100
AcDbEntity
  8
0
  6
Continuous
 62
     3
100
AcDbLine
 10
-511.5838733187981
 20
-122.7589692263632
 30
0.0
 11
-511.5838733187981
 21
-125.7589692263632
 31
0.0
  0
LINE
  5
278
330
1E
100
AcDbEntity
  8
0
  6
Continuous
 62
     3
100
AcDbLine
 10
-511.0838733187981
 20
-125.7589692263632
 30
0.0
 11
-511.0838733187981
 21
-124.7589692263632
 31
0.0
  0
LINE
  5
279
330
1E
100
AcDbEntity
  8
0
  6
Continuous
 62
     3
100
AcDbLine
 10
-511.0838733187981
 20
-124.7589692263632
 30
0.0
 11
-511.5838733187981
 21
-124.7589692263632
 31
0.0
  0
LINE
  5
27A
330
1E
100
AcDbEntity
  8
0
  6
Continuous
 62
     3
100
AcDbLine
 10
-511.5838733187981
 20
-125.7589692263632
 30
0.0
 11
-511.5838733187981
 21
-128.5589692263632
 31
0.0
  0
LINE
  5
27B
330
1E
100
AcDbEntity
  8
0
  6
Continuous
 62
     3
100
AcDbLine
 10
-511.5838733187981
 20
-128.5589692263632
 30
0.0
 11
-513.5838733187982
 21
-128.5589692263632
 31
0.0
  0
LINE
  5
27C
330
1E
100
AcDbEntity
  8
0
  6
Continuous
 62
     3
100
AcDbLine
 10
-513.7838733187982
 20
-125.7589692263632
 30
0.0
 11
-513.7838733187982
 21
-126.3589692263632
 31
0.0
  0
LINE
  5
27D
330
1E
100
AcDbEntity
  8
0
  6
Continuous
 62
     3
100
AcDbLine
 10
-513.7838733187982
 20
-126.3589692263632
 30
0.0
 11
-513.5838733187982
 21
-128.5589692263632
 31
0.0
  0
LINE
  5
27E
330
1E
100
AcDbEntity
  8
0
  6
Continuous
 62
     3
100
AcDbLine
 10
-511.5838733187981
 20
-122.7589692263632
 30
0.0
 11
-511.5838733187981
 21
-125.7589692263632
 31
0.0
  0
LINE
  5
27F
330
1E
100
AcDbEntity
  8
0
  6
Continuous
 62
     3
100
AcDbLine
 10
-511.5838733187981
 20
-125.7589692263632
 30
0.0
 11
-511.5838733187981
 21
-122.9589692263632
 31
0.0
  0
LINE
  5
280
330
1E
100
AcDbEntity
  8
0
  6
Continuous
 62
     3
100
AcDbLine
 10
-511.5838733187981
 20
-122.9589692263632
 30
0.0
 11
-513.5838733187982
 21
-122.9589692263632
 31
0.0
  0
LINE
  5
281
330
1E
100
AcDbEntity
  8
0
  6
Continuous
 62
     3
100
AcDbLine
 10
-513.7838733187982
 20
-125.7589692263632
 30
0.0
 11
-513.7838733187982
 21
-125.1589692263632
 31
0.0
  0
LINE
  5
282
330
1E
100
AcDbEntity
  8
0
  6
Continuous
 62
     3
100
AcDbLine
 10
-513.7838733187982
 20
-125.1589692263632
 30
0.0
 11
-513.5838733187982
 21
-122.9589692263632
 31
0.0
  0
LINE
  5
283
330
1E
100
AcDbEntity
  8
0
  6
Continuous
 62
     3
100
AcDbLine
 10
-515.7838733187982
 20
-122.1589692263632
 30
0.0
 11
-513.9838733187982
 21
-122.1589692263632
 31
0.0
  0
LINE
  5
284
330
1E
100
AcDbEntity
  8
0
  6
Continuous
 62
     3
100
AcDbLine
 10
-517.0838733187982
 20
-120.6589692263632
 30
0.0
 11
-509.0838733187982
 21
-120.6589692263632
 31
0.0
  0
LINE
  5
285
330
1E
100
AcDbEntity
  8
0
  6
Continuous
 62
     3
100
AcDbLine
 10
-509.0838733187982
 20
-120.6589692263632
 30
0.0
 11
-509.0838733187982
 21
-113.4589692263632
 31
0.0
  0
LINE
  5
286
330
1E
100
AcDbEntity
  8
0
  6
Continuous
 62
     3
100
AcDbLine
 10
-509.0838733187982
 20
-113.4589692263632
 30
0.0
 11
-515.7838733187982
 21
-113.4589692263632
 31
0.0
  0
LINE
  5
287
330
1E
100
AcDbEntity
  8
0
  6
Continuous
 62
     3
100
AcDbLine
 10
-509.5838733187981
 20
-120.6589692263632
 30
0.0
 11
-509.5838733187981
 21
-113.4589692263632
 31
0.0
  0
LINE
  5
288
330
1E
100
AcDbEntity
  8
0
  6
Continuous
 62
     3
100
AcDbLine
 10
-509.0838733187982
 20
-119.6589692263632
 30
0.0
 11
-509.5838733187981
 21
-119.6589692263632
 31
0.0
  0
LINE
  5
289
330
1E
100
AcDbEntity
  8
0
  6
Continuous
 62
     3
100
AcDbLine
 10
-509.0838733187982
 20
-114.4589692263632
 30
0.0
 11
-509.5838733187981
 21
-114.4589692263632
 31
0.0
  0
LINE
  5
28A
330
1E
100
AcDbEntity
  8
0
  6
Continuous
 62
     3
100
AcDbLine
 10
-509.5838733187981
 20
-117.5589692263632
 30
0.0
 11
-510.5838733187981
 21
-117.5589692263632
 31
0.0
  0
LINE
  5
28B
330
1E
100
AcDbEntity
  8
0
  6
Continuous
 62
     3
100
AcDbLine
 10
-510.5838733187981
 20
-117.5589692263632
 30
0.0
 11
-509.5838733187981
 21
-120.0589692263632
 31
0.0
  0
LINE
  5
28C
330
1E
100
AcDbEntity
  8
0
  6
Continuous
 62
     3
100
AcDbLine
 10
-509.5838733187981
 20
-120.0589692263632
 30
0.0
 11
-511.5838733187981
 21
-120.0589692263632
 31
0.0
  0
LINE
  5
28D
330
1E
100
AcDbEntity
  8
0
  6
Continuous
 62
     3
100
AcDbLine
 10
-511.5838733187981
 20
-120.0589692263632
 30
0.0
 11
-511.5838733187981
 21
-117.0589692263632
 31
0.0
  0
LINE
  5
28E
330
1E
100
AcDbEntity
  8
0
  6
Continuous
 62
     3
100
AcDbLine
 10
-511.0838733187981
 20
-117.0589692263632
 30
0.0
 11
-511.0838733187981
 21
-118.0589692263632
 31
0.0
  0
LINE
  5
28F
330
1E
100
AcDbEntity
  8
0
  6
Continuous
 62
     3
100
AcDbLine
 10
-511.0838733187981
 20
-118.0589692263632
 30
0.0
 11
-511.5838733187981
 21
-118.0589692263632
 31
0.0
  0
LINE
  5
290
330
1E
100
AcDbEntity
  8
0
  6
Continuous
 62
     3
100
AcDbLine
 10
-509.0838733187982
 20
-114.4589692263632
 30
0.0
 11
-509.5838733187981
 21
-114.4589692263632
 31
0.0
  0
LINE
  5
291
330
1E
100
AcDbEntity
  8
0
  6
Continuous
 62
     3
100
AcDbLine
 10
-509.5838733187981
 20
-116.5589692263632
 30
0.0
 11
-510.5838733187981
 21
-116.5589692263632
 31
0.0
  0
LINE
  5
292
330
1E
100
AcDbEntity
  8
0
  6
Continuous
 62
     3
100
AcDbLine
 10
-510.5838733187981
 20
-116.5589692263632
 30
0.0
 11
-509.5838733187981
 21
-114.0589692263632
 31
0.0
  0
LINE
  5
293
330
1E
100
AcDbEntity
  8
0
  6
Continuous
 62
     3
100
AcDbLine
 10
-509.5838733187981
 20
-114.0589692263632
 30
0.0
 11
-511.5838733187981
 21
-114.0589692263632
 31
0.0
  0
LINE
  5
294
330
1E
100
AcDbEntity
  8
0
  6
Continuous
 62
     3
100
AcDbLine
 10
-511.5838733187981
 20
-114.0589692263632
 30
0.0
 11
-511.5838733187981
 21
-117.0589692263632
 31
0.0
  0
LINE
  5
295
330
1E
100
AcDbEntity
  8
0
  6
Continuous
 62
     3
100
AcDbLine
 10
-511.0838733187981
 20
-117.0589692263632
 30
0.0
 11
-511.0838733187981
 21
-116.0589692263632
 31
0.0
  0
LINE
  5
296
330
1E
100
AcDbEntity
  8
0
  6
Continuous
 62
     3
100
AcDbLine
 10
-511.0838733187981
 20
-116.0589692263632
 30
0.0
 11
-511.5838733187981
 21
-116.0589692263632
 31
0.0
  0
LINE
  5
297
330
1E
100
AcDbEntity
  8
0
  6
Continuous
 62
     3
100
AcDbLine
 10
-511.5838733187981
 20
-117.0589692263632
 30
0.0
 11
-511.5838733187981
 21
-119.8589692263632
 31
0.0
  0
LINE
  5
298
330
1E
100
AcDbEntity
  8
0
  6
Continuous
 62
     3
100
AcDbLine
 10
-511.5838733187981
 20
-119.8589692263632
 30
0.0
 11
-513.5838733187982
 21
-119.8589692263632
 31
0.0
  0
LINE
  5
299
330
1E
100
AcDbEntity
  8
0
  6
Continuous
 62
     3
100
AcDbLine
 10
-513.7838733187982
 20
-117.0589692263632
 30
0.0
 11
-513.7838733187982
 21
-117.6589692263632
 31
0.0
  0
LINE
  5
29A
330
1E
100
AcDbEntity
  8
0
  6
Continuous
 62
     3
100
AcDbLine
 10
-513.7838733187982
 20
-117.6589692263632
 30
0.0
 11
-513.5838733187982
 21
-119.8589692263632
 31
0.0
  0
LINE
  5
29B
330
1E
100
AcDbEntity
  8
0
  6
Continuous
 62
     3
100
AcDbLine
 10
-511.5838733187981
 20
-114.0589692263632
 30
0.0
 11
-511.5838733187981
 21
-117.0589692263632
 31
0.0
  0
LINE
  5
29C
330
1E
100
AcDbEntity
  8
0
  6
Continuous
 62
     3
100
AcDbLine
 10
-511.5838733187981
 20
-117.0589692263632
 30
0.0
 11
-511.5838733187981
 21
-114.2589692263632
 31
0.0
  0
LINE
  5
29D
330
1E
100
AcDbEntity
  8
0
  6
Continuous
 62
     3
100
AcDbLine
 10
-511.5838733187981
 20
-114.2589692263632
 30
0.0
 11
-513.5838733187982
 21
-114.2589692263632
 31
0.0
  0
LINE
  5
29E
330
1E
100
AcDbEntity
  8
0
  6
Continuous
 62
     3
100
AcDbLine
 10
-513.7838733187982
 20
-117.0589692263632
 30
0.0
 11
-513.7838733187982
 21
-116.4589692263632
 31
0.0
  0
LINE
  5
29F
330
1E
100
AcDbEntity
  8
0
  6
Continuous
 62
     3
100
AcDbLine
 10
-513.7838733187982
 20
-116.4589692263632
 30
0.0
 11
-513.5838733187982
 21
-114.2589692263632
 31
0.0
  0
LINE
  5
2A0
330
1E
100
AcDbEntity
  8
0
  6
Continuous
 62
     3
100
AcDbLine
 10
-515.7838733187982
 20
-111.9589692263632
 30
0.0
 11
-509.0838733187982
 21
-111.9589692263632
 31
0.0
  0
LINE
  5
2A1
330
1E
100
AcDbEntity
  8
0
  6
Continuous
 62
     3
100
AcDbLine
 10
-509.0838733187982
 20
-104.7589692263632
 30
0.0
 11
-517.0838733187982
 21
-104.7589692263632
 31
0.0
  0
LINE
  5
2A2
330
1E
100
AcDbEntity
  8
0
  6
Continuous
 62
     3
100
AcDbLine
 10
-509.5838733187981
 20
-111.9589692263632
 30
0.0
 11
-509.5838733187981
 21
-104.7589692263632
 31
0.0
  0
LINE
  5
2A3
330
1E
100
AcDbEntity
  8
0
  6
Continuous
 62
     3
100
AcDbLine
 10
-509.0838733187982
 20
-111.9589692263632
 30
0.0
 11
-509.0838733187982
 21
-104.7589692263632
 31
0.0
  0
LINE
  5
2A4
330
1E
100
AcDbEntity
  8
0
  6
Continuous
 62
     3
100
AcDbLine
 10
-509.0838733187982
 20
-104.7589692263632
 30
0.0
 11
-515.7838733187982
 21
-104.7589692263632
 31
0.0
  0
LINE
  5
2A5
330
1E
100
AcDbEntity
  8
0
  6
Continuous
 62
     3
100
AcDbLine
 10
-509.5838733187981
 20
-111.9589692263632
 30
0.0
 11
-509.5838733187981
 21
-104.7589692263632
 31
0.0
  0
LINE
  5
2A6
330
1E
100
AcDbEntity
  8
0
  6
Continuous
 62
     3
100
AcDbLine
 10
-509.0838733187982
 20
-110.9589692263632
 30
0.0
 11
-509.5838733187981
 21
-110.9589692263632
 31
0.0
  0
LINE
  5
2A7
330
1E
100
AcDbEntity
  8
0
  6
Continuous
 62
     3
100
AcDbLine
 10
-509.0838733187982
 20
-105.7589692263632
 30
0.0
 11
-509.5838733187981
 21
-105.7589692263632
 31
0.0
  0
LINE
  5
2A8
330
1E
100
AcDbEntity
  8
0
  6
Continuous
 62
     3
100
AcDbLine
 10
-509.5838733187981
 20
-108.8589692263632
 30
0.0
 11
-510.5838733187981
 21
-108.8589692263632
 31
0.0
  0
LINE
  5
2A9
330
1E
100
AcDbEntity
  8
0
  6
Continuous
 62
     3
100
AcDbLine
 10
-510.5838733187981
 20
-108.8589692263632
 30
0.0
 11
-509.5838733187981
 21
-111.3589692263632
 31
0.0
  0
LINE
  5
2AA
330
1E
100
AcDbEntity
  8
0
  6
Continuous
 62
     3
100
AcDbLine
 10
-509.5838733187981
 20
-111.3589692263632
 30
0.0
 11
-511.5838733187981
 21
-111.3589692263632
 31
0.0
  0
LINE
  5
2AB
330
1E
100
AcDbEntity
  8
0
  6
Continuous
 62
     3
100
AcDbLine
 10
-511.5838733187981
 20
-111.3589692263632
 30
0.0
 11
-511.5838733187981
 21
-108.3589692263632
 31
0.0
  0
LINE
  5
2AC
330
1E
100
AcDbEntity
  8
0
  6
Continuous
 62
     3
100
AcDbLine
 10
-511.0838733187981
 20
-108.3589692263632
 30
0.0
 11
-511.0838733187981
 21
-109.3589692263632
 31
0.0
  0
LINE
  5
2AD
330
1E
100
AcDbEntity
  8
0
  6
Continuous
 62
     3
100
AcDbLine
 10
-511.0838733187981
 20
-109.3589692263632
 30
0.0
 11
-511.5838733187981
 21
-109.3589692263632
 31
0.0
  0
LINE
  5
2AE
330
1E
100
AcDbEntity
  8
0
  6
Continuous
 62
     3
100
AcDbLine
 10
-509.0838733187982
 20
-105.7589692263632
 30
0.0
 11
-509.5838733187981
 21
-105.7589692263632
 31
0.0
  0
LINE
  5
2AF
330
1E
100
AcDbEntity
  8
0
  6
Continuous
 62
     3
100
AcDbLine
 10
-509.5838733187981
 20
-107.8589692263632
 30
0.0
 11
-510.5838733187981
 21
-107.8589692263632
 31
0.0
  0
LINE
  5
2B0
330
1E
100
AcDbEntity
  8
0
  6
Continuous
 62
     3
100
AcDbLine
 10
-510.5838733187981
 20
-107.8589692263632
 30
0.0
 11
-509.5838733187981
 21
-105.3589692263632
 31
0.0
  0
LINE
  5
2B1
330
1E
100
AcDbEntity
  8
0
  6
Continuous
 62
     3
100
AcDbLine
 10
-509.5838733187981
 20
-105.3589692263632
 30
0.0
 11
-511.5838733187981
 21
-105.3589692263632
 31
0.0
  0
LINE
  5
2B2
330
1E
100
AcDbEntity
  8
0
  6
Continuous
 62
     3
100
AcDbLine
 10
-511.5838733187981
 20
-105.3589692263632
 30
0.0
 11
-511.5838733187981
 21
-108.3589692263632
 31
0.0
  0
LINE
  5
2B3
330
1E
100
AcDbEntity
  8
0
  6
Continuous
 62
     3
100
AcDbLine
 10
-511.0838733187981
 20
-108.3589692263632
 30
0.0
 11
-511.0838733187981
 21
-107.3589692263632
 31
0.0
  0
LINE
  5
2B4
330
1E
100
AcDbEntity
  8
0
  6
Continuous
 62
     3
100
AcDbLine
 10
-511.0838733187981
 20
-107.3589692263632
 30
0.0
 11
-511.5838733187981
 21
-107.3589692263632
 31
0.0
  0
LINE
  5
2B5
330
1E
100
AcDbEntity
  8
0
  6
Continuous
 62
     3
100
AcDbLine
 10
-511.5838733187981
 20
-108.3589692263632
 30
0.0
 11
-511.5838733187981
 21
-111.1589692263632
 31
0.0
  0
LINE
  5
2B6
330
1E
100
AcDbEntity
  8
0
  6
Continuous
 62
     3
100
AcDbLine
 10
-511.5838733187981
 20
-111.1589692263632
 30
0.0
 11
-513.5838733187982
 21
-111.1589692263632
 31
0.0
  0
LINE
  5
2B7
330
1E
100
AcDbEntity
  8
0
  6
Continuous
 62
     3
100
AcDbLine
 10
-513.7838733187982
 20
-108.3589692263632
 30
0.0
 11
-513.7838733187982
 21
-108.9589692263632
 31
0.0
  0
LINE
  5
2B8
330
1E
100
AcDbEntity
  8
0
  6
Continuous
 62
     3
100
AcDbLine
 10
-513.7838733187982
 20
-108.9589692263632
 30
0.0
 11
-513.5838733187982
 21
-111.1589692263632
 31
0.0
  0
LINE
  5
2B9
330
1E
100
AcDbEntity
  8
0
  6
Continuous
 62
     3
100
AcDbLine
 10
-511.5838733187981
 20
-105.3589692263632
 30
0.0
 11
-511.5838733187981
 21
-108.3589692263632
 31
0.0
  0
LINE
  5
2BA
330
1E
100
AcDbEntity
  8
0
  6
Continuous
 62
     3
100
AcDbLine
 10
-511.5838733187981
 20
-108.3589692263632
 30
0.0
 11
-511.5838733187981
 21
-105.5589692263632
 31
0.0
  0
LINE
  5
2BB
330
1E
100
AcDbEntity
  8
0
  6
Continuous
 62
     3
100
AcDbLine
 10
-511.5838733187981
 20
-105.5589692263632
 30
0.0
 11
-513.5838733187982
 21
-105.5589692263632
 31
0.0
  0
LINE
  5
2BC
330
1E
100
AcDbEntity
  8
0
  6
Continuous
 62
     3
100
AcDbLine
 10
-513.7838733187982
 20
-108.3589692263632
 30
0.0
 11
-513.7838733187982
 21
-107.7589692263632
 31
0.0
  0
LINE
  5
2BD
330
1E
100
AcDbEntity
  8
0
  6
Continuous
 62
     3
100
AcDbLine
 10
-513.7838733187982
 20
-107.7589692263632
 30
0.0
 11
-513.5838733187982
 21
-105.5589692263632
 31
0.0
  0
LINE
  5
2BE
330
1E
100
AcDbEntity
  8
0
  6
Continuous
 62
     3
100
AcDbLine
 10
-515.7838733187982
 20
-104.7589692263632
 30
0.0
 11
-513.9838733187982
 21
-104.7589692263632
 31
0.0
  0
LINE
  5
2BF
330
1E
100
AcDbEntity
  8
0
  6
Continuous
 62
     3
100
AcDbLine
 10
-517.0838733187982
 20
-130.8589692263632
 30
0.0
 11
-517.0838733187982
 21
-129.3589692263632
 31
0.0
  0
LINE
  5
2C0
330
1E
100
AcDbEntity
  8
0
  6
Continuous
 62
     3
100
AcDbLine
 10
-515.7838733187982
 20
-129.3589692263632
 30
0.0
 11
-515.7838733187982
 21
-130.8589692263632
 31
0.0
  0
LINE
  5
2C1
330
1E
100
AcDbEntity
  8
0
  6
Continuous
 62
     3
100
AcDbLine
 10
-517.0838733187982
 20
-122.1589692263632
 30
0.0
 11
-517.0838733187982
 21
-120.6589692263632
 31
0.0
  0
LINE
  5
2C2
330
1E
100
AcDbEntity
  8
0
  6
Continuous
 62
     3
100
AcDbLine
 10
-515.7838733187982
 20
-120.6589692263632
 30
0.0
 11
-515.7838733187982
 21
-122.1589692263632
 31
0.0
  0
LINE
  5
2C3
330
1E
100
AcDbEntity
  8
0
  6
Continuous
 62
     3
100
AcDbLine
 10
-513.9838733187982
 20
-122.1589692263632
 30
0.0
 11
-513.9838733187982
 21
-120.6589692263632
 31
0.0
  0
LINE
  5
2C4
330
1E
100
AcDbEntity
  8
0
  6
Continuous
 62
     3
100
AcDbLine
 10
-515.7838733187982
 20
-113.4589692263632
 30
0.0
 11
-515.7838733187982
 21
-111.9589692263632
 31
0.0
  0
LINE
  5
2C5
330
1E
100
AcDbEntity
  8
0
  6
Continuous
 62
     3
100
AcDbLine
 10
-515.7838733187982
 20
-139.5589692263632
 30
0.0
 11
-515.7838733187982
 21
-138.0589692263632
 31
0.0
  0
LINE
  5
2C6
330
1E
100
AcDbEntity
  8
0
  6
LTYPE1
 62
     3
100
AcDbLine
 10
-513.7838733187982
 20
-103.2589692263632
 30
0.0
 11
-518.7838733187982
 21
-103.2589692263632
 31
0.0
  0
LINE
  5
2C7
330
1E
100
AcDbEntity
  8
0
  6
Continuous
 62
     3
100
AcDbLine
 10
-517.0838733187982
 20
-104.7589692263632
 30
0.0
 11
-517.0838733187982
 21
-103.2589692263632
 31
0.0
  0
LINE
  5
2C8
330
1E
100
AcDbEntity
  8
0
  6
Continuous
 62
     3
100
AcDbLine
 10
-515.7838733187982
 20
-103.2589692263632
 30
0.0
 11
-515.7838733187982
 21
-104.7589692263632
 31
0.0
  0
LINE
  5
2C9
330
1E
100
AcDbEntity
  8
0
  6
LTYPE1
 62
     3
100
AcDbLine
 10
-518.7838733187982
 20
-139.5589692263632
 30
0.0
 11
-518.7838733187982
 21
-103.2589692263632
 31
0.0
  0
LINE
  5
2CA
330
1E
100
AcDbEntity
  8
0
  6
Continuous
 62
     3
100
AcDbLine
 10
-515.7838733187982
 20
-103.2589692263632
 30
0.0
 11
-515.7838733187982
 21
-104.7589692263632
 31
0.0
  0
LINE
  5
2CB
330
1E
100
AcDbEntity
  8
0
  6
Continuous
 62
     3
100
AcDbLine
 10
-509.0838733187982
 20
-111.9589692263632
 30
0.0
 11
-509.0838733187982
 21
-104.7589692263632
 31
0.0
  0
LINE
  5
2CC
330
1E
100
AcDbEntity
  8
0
  6
LTYPE1
 62
     3
100
AcDbLine
 10
-513.7838733187982
 20
-103.2589692263632
 30
0.0
 11
-513.7838733187982
 21
-139.5589692263632
 31
0.0
  0
ARC
  5
2CD
330
1E
100
AcDbEntity
  8
0
  6
Continuous
 62
     1
100
AcDbCircle
 10
-510.8319840537982
 20
-140.9589692263632
 30
0.0
 40
0.5
100
AcDbArc
 50
164.213321256
 51
270.0
  0
LINE
  5
2CE
330
1E
100
AcDbEntity
  8
0
  6
Continuous
 62
     1
100
AcDbLine
 10
-511.3319815817981
 20
-139.5589692263632
 30
0.0
 11
-511.3319815817981
 21
-140.9605415453633
 31
0.0
  0
LINE
  5
2CF
330
1E
100
AcDbEntity
  8
0
  6
Continuous
 62
     1
100
AcDbLine
 10
-511.3319815817981
 20
-101.8573969073633
 30
0.0
 11
-511.3319815817981
 21
-103.2589692263632
 31
0.0
  0
LINE
  5
2D0
330
1E
100
AcDbEntity
  8
0
  6
Continuous
 62
     3
100
AcDbLine
 10
-508.3838733187981
 20
-103.2589692263632
 30
0.0
 11
-517.0838733187982
 21
-103.2589692263632
 31
0.0
  0
LINE
  5
2D1
330
1E
100
AcDbEntity
  8
0
  6
LTYPE1
 62
     3
100
AcDbLine
 10
-518.7838733187982
 20
-139.5589692263632
 30
0.0
 11
-508.3838733187981
 21
-139.5589692263632
 31
0.0
  0
LINE
  5
2D2
330
1E
100
AcDbEntity
  8
0
  6
Continuous
 62
     3
100
AcDbLine
 10
-518.7838733187982
 20
-104.6657488873632
 30
0.0
 11
-529.7838733187981
 21
-104.7589692263632
 31
0.0
  0
LINE
  5
2D3
330
1E
100
AcDbEntity
  8
0
  6
Continuous
 62
     3
100
AcDbLine
 10
-518.7838733187982
 20
-106.6521895653633
 30
0.0
 11
-529.7838733187981
 21
-106.5589692263632
 31
0.0
  0
LINE
  5
2D4
330
1E
100
AcDbEntity
  8
0
  6
Continuous
 62
     3
100
AcDbLine
 10
-518.7838733187982
 20
-108.1657488873632
 30
0.0
 11
-529.7838733187981
 21
-108.2589692263632
 31
0.0
  0
LINE
  5
2D5
330
1E
100
AcDbEntity
  8
0
  6
Continuous
 62
     3
100
AcDbLine
 10
-518.7838733187982
 20
-110.1521895653633
 30
0.0
 11
-529.7838733187981
 21
-110.0589692263632
 31
0.0
  0
LINE
  5
2D6
330
1E
100
AcDbEntity
  8
0
  6
Continuous
 62
     3
100
AcDbLine
 10
-518.7838733187982
 20
-111.6657488873632
 30
0.0
 11
-529.7838733187981
 21
-111.7589692263633
 31
0.0
  0
LINE
  5
2D7
330
1E
100
AcDbEntity
  8
0
  6
Continuous
 62
     3
100
AcDbLine
 10
-518.7838733187982
 20
-113.6521895653632
 30
0.0
 11
-529.7838733187981
 21
-113.5589692263632
 31
0.0
  0
LINE
  5
2D8
330
1E
100
AcDbEntity
  8
0
  6
Continuous
 62
     3
100
AcDbLine
 10
-518.7838733187982
 20
-115.1657488873633
 30
0.0
 11
-529.7838733187981
 21
-115.2589692263632
 31
0.0
  0
LINE
  5
2D9
330
1E
100
AcDbEntity
  8
0
  6
Continuous
 62
     3
100
AcDbLine
 10
-518.7838733187982
 20
-117.1521895653633
 30
0.0
 11
-529.7838733187981
 21
-117.0589692263632
 31
0.0
  0
LINE
  5
2DA
330
1E
100
AcDbEntity
  8
0
  6
Continuous
 62
     3
100
AcDbLine
 10
-518.7838733187982
 20
-118.6657488873632
 30
0.0
 11
-529.7838733187981
 21
-118.7589692263632
 31
0.0
  0
LINE
  5
2DB
330
1E
100
AcDbEntity
  8
0
  6
Continuous
 62
     3
100
AcDbLine
 10
-518.7838733187982
 20
-120.6521895653632
 30
0.0
 11
-529.7838733187981
 21
-120.5589692263632
 31
0.0
  0
LINE
  5
2DC
330
1E
100
AcDbEntity
  8
0
  6
Continuous
 62
     3
100
AcDbLine
 10
-518.7838733187982
 20
-122.1657488873632
 30
0.0
 11
-529.7838733187981
 21
-122.2589692263633
 31
0.0
  0
LINE
  5
2DD
330
1E
100
AcDbEntity
  8
0
  6
Continuous
 62
     3
100
AcDbLine
 10
-518.7838733187982
 20
-124.1521895653633
 30
0.0
 11
-529.7838733187981
 21
-124.0589692263632
 31
0.0
  0
LINE
  5
2DE
330
1E
100
AcDbEntity
  8
0
  6
Continuous
 62
     3
100
AcDbLine
 10
-518.7838733187982
 20
-125.6657488873633
 30
0.0
 11
-529.7838733187981
 21
-125.7589692263632
 31
0.0
  0
LINE
  5
2DF
330
1E
100
AcDbEntity
  8
0
  6
Continuous
 62
     3
100
AcDbLine
 10
-518.7838733187982
 20
-127.6521895653633
 30
0.0
 11
-529.7838733187981
 21
-127.5589692263632
 31
0.0
  0
LINE
  5
2E0
330
1E
100
AcDbEntity
  8
0
  6
Continuous
 62
     3
100
AcDbLine
 10
-518.7838733187982
 20
-129.1657488873632
 30
0.0
 11
-529.7838733187981
 21
-129.2589692263632
 31
0.0
  0
LINE
  5
2E1
330
1E
100
AcDbEntity
  8
0
  6
Continuous
 62
     3
100
AcDbLine
 10
-518.7838733187982
 20
-131.1521895653632
 30
0.0
 11
-529.7838733187981
 21
-131.0589692263632
 31
0.0
  0
LINE
  5
2E2
330
1E
100
AcDbEntity
  8
0
  6
Continuous
 62
     3
100
AcDbLine
 10
-518.7838733187982
 20
-132.6657488873632
 30
0.0
 11
-529.7838733187981
 21
-132.7589692263632
 31
0.0
  0
LINE
  5
2E3
330
1E
100
AcDbEntity
  8
0
  6
Continuous
 62
     3
100
AcDbLine
 10
-518.7838733187982
 20
-134.6521895653633
 30
0.0
 11
-529.7838733187981
 21
-134.5589692263632
 31
0.0
  0
LINE
  5
2E4
330
1E
100
AcDbEntity
  8
0
  6
Continuous
 62
     3
100
AcDbLine
 10
-518.7838733187982
 20
-136.1657488873633
 30
0.0
 11
-529.7838733187981
 21
-136.2589692263632
 31
0.0
  0
LINE
  5
2E5
330
1E
100
AcDbEntity
  8
0
  6
Continuous
 62
     3
100
AcDbLine
 10
-518.7838733187982
 20
-138.1521895653633
 30
0.0
 11
-529.7838733187981
 21
-138.0589692263632
 31
0.0
  0
LINE
  5
2E6
330
1E
100
AcDbEntity
  8
0
  6
Continuous
 62
     3
100
AcDbLine
 10
-693.8838733187982
 20
-120.6237840413632
 30
0.0
 11
-693.8838733187982
 21
-122.1941544113632
 31
0.0
  0
LINE
  5
2E7
330
1E
100
AcDbEntity
  8
0
  6
Continuous
 62
     3
100
AcDbLine
 10
-693.8838733187982
 20
-124.1237840413632
 30
0.0
 11
-693.8838733187982
 21
-125.6941544113632
 31
0.0
  0
LINE
  5
2E8
330
1E
100
AcDbEntity
  8
0
  6
Continuous
 62
     3
100
AcDbLine
 10
-693.8838733187982
 20
-127.6237840413632
 30
0.0
 11
-693.8838733187982
 21
-129.1941544113632
 31
0.0
  0
LINE
  5
2E9
330
1E
100
AcDbEntity
  8
0
  6
Continuous
 62
     3
100
AcDbLine
 10
-693.8838733187982
 20
-131.1237840413632
 30
0.0
 11
-693.8838733187982
 21
-132.6941544113632
 31
0.0
  0
LINE
  5
2EA
330
1E
100
AcDbEntity
  8
0
  6
Continuous
 62
     3
100
AcDbLine
 10
-693.8838733187982
 20
-134.6237840413632
 30
0.0
 11
-693.8838733187982
 21
-136.1941544113632
 31
0.0
  0
LINE
  5
2EB
330
1E
100
AcDbEntity
  8
0
  6
Continuous
 62
     3
100
AcDbLine
 10
-693.8838733187982
 20
-138.1237840413632
 30
0.0
 11
-693.8838733187982
 21
-139.6941544113632
 31
0.0
  0
LINE
  5
2EC
330
1E
100
AcDbEntity
  8
0
  6
Continuous
 62
     3
100
AcDbLine
 10
-703.6838733187981
 20
-139.6589692263632
 30
0.0
 11
-691.8838733187982
 21
-139.7589692263632
 31
0.0
  0
LINE
  5
2ED
330
1E
100
AcDbEntity
  8
0
  6
Continuous
 62
     3
100
AcDbLine
 10
-693.8838733187982
 20
-141.6237840413632
 30
0.0
 11
-693.8838733187982
 21
-143.1941544113632
 31
0.0
  0
LINE
  5
2EE
330
1E
100
AcDbEntity
  8
0
  6
Continuous
 62
     3
100
AcDbLine
 10
-703.6838733187981
 20
-142.4089692263632
 30
0.0
 11
-703.6838733187981
 21
-141.6589692263632
 31
0.0
  0
LINE
  5
2EF
330
1E
100
AcDbEntity
  8
0
  6
Continuous
 62
     3
100
AcDbLine
 10
-703.6838733187981
 20
-141.6589692263632
 30
0.0
 11
-691.8838733187982
 21
-141.5589692263632
 31
0.0
  0
LINE
  5
2F0
330
1E
100
AcDbEntity
  8
0
  6
Continuous
 62
     3
100
AcDbLine
 10
-703.6838733187981
 20
-142.4089692263632
 30
0.0
 11
-703.6838733187981
 21
-143.1589692263632
 31
0.0
  0
LINE
  5
2F1
330
1E
100
AcDbEntity
  8
0
  6
Continuous
 62
     3
100
AcDbLine
 10
-703.6838733187981
 20
-143.1589692263632
 30
0.0
 11
-691.8838733187982
 21
-143.2589692263633
 31
0.0
  0
LINE
  5
2F2
330
1E
100
AcDbEntity
  8
0
  6
Continuous
 62
     3
100
AcDbLine
 10
-693.8838733187982
 20
-118.6941544113632
 30
0.0
 11
-693.8838733187982
 21
-117.1237840413632
 31
0.0
  0
LINE
  5
2F3
330
1E
100
AcDbEntity
  8
0
  6
Continuous
 62
     3
100
AcDbLine
 10
-693.8838733187982
 20
-115.1941544113632
 30
0.0
 11
-693.8838733187982
 21
-113.6237840413632
 31
0.0
  0
LINE
  5
2F4
330
1E
100
AcDbEntity
  8
0
  6
Continuous
 62
     3
100
AcDbLine
 10
-693.8838733187982
 20
-111.6941544113632
 30
0.0
 11
-693.8838733187982
 21
-110.1237840413632
 31
0.0
  0
LINE
  5
2F5
330
1E
100
AcDbEntity
  8
0
  6
Continuous
 62
     3
100
AcDbLine
 10
-693.8838733187982
 20
-108.1941544113632
 30
0.0
 11
-693.8838733187982
 21
-106.6237840413632
 31
0.0
  0
LINE
  5
2F6
330
1E
100
AcDbEntity
  8
0
  6
Continuous
 62
     3
100
AcDbLine
 10
-693.8838733187982
 20
-104.6941544113632
 30
0.0
 11
-693.8838733187982
 21
-103.1237840413632
 31
0.0
  0
LINE
  5
2F7
330
1E
100
AcDbEntity
  8
0
  6
Continuous
 62
     3
100
AcDbLine
 10
-703.6838733187981
 20
-103.1589692263632
 30
0.0
 11
-691.8838733187982
 21
-103.0589692263632
 31
0.0
  0
LINE
  5
2F8
330
1E
100
AcDbEntity
  8
0
  6
Continuous
 62
     3
100
AcDbLine
 10
-693.8838733187982
 20
-101.1941544113632
 30
0.0
 11
-693.8838733187982
 21
-99.6237840413633
 31
0.0
  0
LINE
  5
2F9
330
1E
100
AcDbEntity
  8
0
  6
Continuous
 62
     3
100
AcDbLine
 10
-703.6838733187981
 20
-100.4089692263632
 30
0.0
 11
-703.6838733187981
 21
-101.1589692263632
 31
0.0
  0
LINE
  5
2FA
330
1E
100
AcDbEntity
  8
0
  6
Continuous
 62
     3
100
AcDbLine
 10
-703.6838733187981
 20
-101.1589692263632
 30
0.0
 11
-691.8838733187982
 21
-101.2589692263632
 31
0.0
  0
LINE
  5
2FB
330
1E
100
AcDbEntity
  8
0
  6
Continuous
 62
     3
100
AcDbLine
 10
-703.6838733187981
 20
-100.4089692263632
 30
0.0
 11
-703.6838733187981
 21
-99.6589692263633
 31
0.0
  0
LINE
  5
2FC
330
1E
100
AcDbEntity
  8
0
  6
Continuous
 62
     3
100
AcDbLine
 10
-703.6838733187981
 20
-99.6589692263633
 30
0.0
 11
-691.8838733187982
 21
-99.55896922636327
 31
0.0
  0
LINE
  5
2FD
330
1E
100
AcDbEntity
  8
0
  6
Continuous
 62
     1
100
AcDbLine
 10
-714.0838733187981
 20
-121.4089692263632
 30
0.0
 11
-714.0838733187981
 21
-118.9089692263632
 31
0.0
  0
LINE
  5
2FE
330
1E
100
AcDbEntity
  8
0
  6
Continuous
 62
     1
100
AcDbLine
 10
-714.0838733187981
 20
-118.9089692263632
 30
0.0
 11
-713.2838733187981
 21
-118.9089692263632
 31
0.0
  0
LINE
  5
2FF
330
1E
100
AcDbEntity
  8
0
  6
Continuous
 62
     1
100
AcDbLine
 10
-732.6838733187981
 20
-97.40896922636331
 30
0.0
 11
-732.6838733187981
 21
-121.4089692263632
 31
0.0
  0
LINE
  5
300
330
1E
100
AcDbEntity
  8
0
  6
Continuous
 62
     1
100
AcDbLine
 10
-713.7838733187982
 20
-111.3089692263632
 30
0.0
 11
-715.2838733187982
 21
-111.3089692263632
 31
0.0
  0
ARC
  5
301
330
1E
100
AcDbEntity
  8
0
  6
Continuous
 62
     1
100
AcDbCircle
 10
-713.7838733187982
 20
-111.8089692263632
 30
0.0
 40
0.5
100
AcDbArc
 50
0.0
 51
90.0
  0
LINE
  5
302
330
1E
100
AcDbEntity
  8
0
  6
Continuous
 62
     1
100
AcDbLine
 10
-713.7838733187982
 20
-109.5089692263632
 30
0.0
 11
-715.2838733187982
 21
-109.5089692263632
 31
0.0
  0
ARC
  5
303
330
1E
100
AcDbEntity
  8
0
  6
Continuous
 62
     1
100
AcDbCircle
 10
-713.7838733187982
 20
-109.0089692263632
 30
0.0
 40
0.5
100
AcDbArc
 50
270.0
 51
0.0
  0
LINE
  5
304
330
1E
100
AcDbEntity
  8
0
  6
Continuous
 62
     1
100
AcDbLine
 10
-713.2838733187981
 20
-118.9089692263632
 30
0.0
 11
-713.2838733187981
 21
-111.8089692263632
 31
0.0
  0
LINE
  5
305
330
1E
100
AcDbEntity
  8
0
  6
Continuous
 62
     1
100
AcDbLine
 10
-715.2838733187982
 20
-121.4089692263632
 30
0.0
 11
-715.2838733187982
 21
-98.4089692263633
 31
0.0
  0
LINE
  5
306
330
1E
100
AcDbEntity
  8
0
  6
Continuous
 62
     1
100
AcDbLine
 10
-716.2838733187982
 20
-97.40896922636331
 30
0.0
 11
-732.6838733187981
 21
-97.40896922636331
 31
0.0
  0
ARC
  5
307
330
1E
100
AcDbEntity
  8
0
  6
Continuous
 62
     1
100
AcDbCircle
 10
-716.2838733187982
 20
-98.4089692263633
 30
0.0
 40
1.0
100
AcDbArc
 50
0.0
 51
90.0
  0
LINE
  5
308
330
1E
100
AcDbEntity
  8
0
  6
Continuous
 62
     1
100
AcDbLine
 10
-692.8838733187982
 20
-97.40896922636331
 30
0.0
 11
-716.4838733187981
 21
-97.40896922636331
 31
0.0
  0
LWPOLYLINE
  5
309
330
1E
100
AcDbEntity
  8
0
 62
     1
100
AcDbPolyline
 90
        3
 70
     0
 43
0.0
 10
-714.0838733187981
 20
-121.4089692263632
 10
-714.0838733187981
 20
-123.9089692263632
 10
-713.2838733187981
 20
-123.9089692263632
  0
LINE
  5
30E
330
1E
100
AcDbEntity
  8
0
  6
Continuous
 62
     1
100
AcDbLine
 10
-713.7838733187982
 20
-131.5089692263633
 30
0.0
 11
-715.2838733187982
 21
-131.5089692263633
 31
0.0
  0
ARC
  5
30F
330
1E
100
AcDbEntity
  8
0
  6
Continuous
 62
     1
100
AcDbCircle
 10
-713.7838733187982
 20
-131.0089692263632
 30
0.0
 40
0.5
100
AcDbArc
 50
270.0
 51
0.0
  0
LINE
  5
310
330
1E
100
AcDbEntity
  8
0
  6
Continuous
 62
     1
100
AcDbLine
 10
-713.7838733187982
 20
-133.3089692263632
 30
0.0
 11
-715.2838733187982
 21
-133.3089692263632
 31
0.0
  0
ARC
  5
311
330
1E
100
AcDbEntity
  8
0
  6
Continuous
 62
     1
100
AcDbCircle
 10
-713.7838733187982
 20
-133.8089692263632
 30
0.0
 40
0.5
100
AcDbArc
 50
0.0
 51
90.0
  0
LINE
  5
312
330
1E
100
AcDbEntity
  8
0
  6
Continuous
 62
     1
100
AcDbLine
 10
-713.2838733187981
 20
-123.9089692263632
 30
0.0
 11
-713.2838733187981
 21
-131.0089692263632
 31
0.0
  0
LINE
  5
313
330
1E
100
AcDbEntity
  8
0
  6
Continuous
 62
     1
100
AcDbLine
 10
-715.2838733187982
 20
-121.4089692263632
 30
0.0
 11
-715.2838733187982
 21
-144.4089692263632
 31
0.0
  0
ARC
  5
314
330
1E
100
AcDbEntity
  8
0
  6
Continuous
 62
     1
100
AcDbCircle
 10
-716.2838733187982
 20
-144.4089692263632
 30
0.0
 40
1.0
100
AcDbArc
 50
270.0
 51
0.0
  0
LINE
  5
315
330
1E
100
AcDbEntity
  8
0
  6
Continuous
 62
     1
100
AcDbLine
 10
-692.8838733187982
 20
-145.4089692263632
 30
0.0
 11
-716.4838733187981
 21
-145.4089692263632
 31
0.0
  0
LINE
  5
316
330
1E
100
AcDbEntity
  8
0
  6
Continuous
 62
     1
100
AcDbLine
 10
-732.6838733187981
 20
-145.4089692263632
 30
0.0
 11
-732.6838733187981
 21
-121.4089692263632
 31
0.0
  0
LINE
  5
317
330
1E
100
AcDbEntity
  8
0
  6
Continuous
 62
     1
100
AcDbLine
 10
-716.2838733187982
 20
-145.4089692263632
 30
0.0
 11
-732.6838733187981
 21
-145.4089692263632
 31
0.0
  0
LINE
  5
318
330
1E
100
AcDbEntity
  8
0
  6
Continuous
 62
     1
100
AcDbLine
 10
-713.2838733187981
 20
-133.8089692263632
 30
0.0
 11
-713.2838733187981
 21
-137.9089692263632
 31
0.0
  0
LINE
  5
319
330
1E
100
AcDbEntity
  8
0
  6
Continuous
 62
     1
100
AcDbLine
 10
-713.2838733187981
 20
-109.0089692263632
 30
0.0
 11
-713.2838733187981
 21
-104.9089692263632
 31
0.0
  0
LINE
  5
31A
330
1E
100
AcDbEntity
  8
0
  6
Continuous
 62
     1
100
AcDbLine
 10
-713.7138733187981
 20
-101.3589692263632
 30
0.0
 11
-710.8357625837982
 21
-101.3589692263632
 31
0.0
  0
LINE
  5
31B
330
1E
100
AcDbEntity
  8
0
  6
Continuous
 62
     1
100
AcDbLine
 10
-715.2838733187982
 20
-101.3589692263632
 30
0.0
 11
-713.7838733187982
 21
-101.3589692263632
 31
0.0
  0
ARC
  5
31C
330
1E
100
AcDbEntity
  8
0
  6
Continuous
 62
     1
100
AcDbCircle
 10
-713.7838733187982
 20
-101.8589692263632
 30
0.0
 40
0.5
100
AcDbArc
 50
0.0
 51
90.0
  0
ARC
  5
31D
330
1E
100
AcDbEntity
  8
0
  6
Continuous
 62
     1
100
AcDbCircle
 10
-710.8357625837982
 20
-140.9589692263632
 30
0.0
 40
0.5
100
AcDbArc
 50
270.0
 51
359.8198251869999
  0
LINE
  5
31E
330
1E
100
AcDbEntity
  8
0
  6
Continuous
 62
     1
100
AcDbLine
 10
-715.2838733187982
 20
-141.4589692263632
 30
0.0
 11
-713.7838733187982
 21
-141.4589692263632
 31
0.0
  0
ARC
  5
31F
330
1E
100
AcDbEntity
  8
0
  6
Continuous
 62
     1
100
AcDbCircle
 10
-713.7838733187982
 20
-140.9589692263632
 30
0.0
 40
0.5
100
AcDbArc
 50
270.0
 51
0.0
  0
LINE
  5
320
330
1E
100
AcDbEntity
  8
0
  6
Continuous
 62
     1
100
AcDbLine
 10
-713.8938733187982
 20
-141.4589692263632
 30
0.0
 11
-710.8357625837982
 21
-141.4589692263632
 31
0.0
  0
LINE
  5
321
330
1E
100
AcDbEntity
  8
0
  6
Continuous
 62
     1
100
AcDbLine
 10
-713.2838733187981
 20
-104.9089692263632
 30
0.0
 11
-713.2838733187981
 21
-101.8589692263632
 31
0.0
  0
LINE
  5
322
330
1E
100
AcDbEntity
  8
0
  6
Continuous
 62
     1
100
AcDbLine
 10
-713.2838733187981
 20
-137.9089692263632
 30
0.0
 11
-713.2838733187981
 21
-140.9589692263632
 31
0.0
  0
LINE
  5
323
330
1E
100
AcDbEntity
  8
0
  6
Continuous
 62
     1
100
AcDbLine
 10
-713.2838733187981
 20
-102.9589692263632
 30
0.0
 11
-710.3357650557982
 21
-102.9589692263632
 31
0.0
  0
LINE
  5
324
330
1E
100
AcDbEntity
  8
0
  6
Continuous
 62
     1
100
AcDbLine
 10
-713.2838733187981
 20
-139.8589692263632
 30
0.0
 11
-710.3357650557982
 21
-139.8589692263632
 31
0.0
  0
LINE
  5
325
330
1E
100
AcDbEntity
  8
0
  6
Continuous
 62
     1
100
AcDbLine
 10
-691.8838733187982
 20
-121.4089692263632
 30
0.0
 11
-691.8838733187982
 21
-144.4089692263632
 31
0.0
  0
ARC
  5
326
330
1E
100
AcDbEntity
  8
0
  6
Continuous
 62
     1
100
AcDbCircle
 10
-692.8838733187982
 20
-144.4089692263632
 30
0.0
 40
1.0
100
AcDbArc
 50
270.0
 51
0.0
  0
LINE
  5
327
330
1E
100
AcDbEntity
  8
0
  6
Continuous
 62
     1
100
AcDbLine
 10
-691.8838733187982
 20
-121.4089692263632
 30
0.0
 11
-691.8838733187982
 21
-98.4089692263633
 31
0.0
  0
ARC
  5
328
330
1E
100
AcDbEntity
  8
0
  6
Continuous
 62
     1
100
AcDbCircle
 10
-692.8838733187982
 20
-98.4089692263633
 30
0.0
 40
1.0
100
AcDbArc
 50
0.0
 51
90.0
  0
LINE
  5
329
330
1E
100
AcDbEntity
  8
0
  6
Continuous
 62
     1
100
AcDbLine
 10
-732.6838733187981
 20
-145.4089692263632
 30
0.0
 11
-732.6838733187981
 21
-121.4089692263632
 31
0.0
  0
LINE
  5
32A
330
1E
100
AcDbEntity
  8
0
  6
Continuous
 62
     3
100
AcDbLine
 10
-705.8838733187982
 20
-104.7589692263632
 30
0.0
 11
-712.5838733187982
 21
-104.7589692263632
 31
0.0
  0
LINE
  5
32B
330
1E
100
AcDbEntity
  8
0
  6
Continuous
 62
     3
100
AcDbLine
 10
-712.5838733187982
 20
-111.9589692263632
 30
0.0
 11
-704.5838733187982
 21
-111.9589692263632
 31
0.0
  0
LINE
  5
32C
330
1E
100
AcDbEntity
  8
0
  6
Continuous
 62
     3
100
AcDbLine
 10
-712.5838733187982
 20
-104.7589692263632
 30
0.0
 11
-712.5838733187982
 21
-111.9589692263632
 31
0.0
  0
LINE
  5
32D
330
1E
100
AcDbEntity
  8
0
  6
Continuous
 62
     3
100
AcDbLine
 10
-712.0838733187981
 20
-104.7589692263632
 30
0.0
 11
-712.0838733187981
 21
-111.9589692263632
 31
0.0
  0
LINE
  5
32E
330
1E
100
AcDbEntity
  8
0
  6
Continuous
 62
     3
100
AcDbLine
 10
-712.5838733187982
 20
-105.7589692263632
 30
0.0
 11
-712.0838733187981
 21
-105.7589692263632
 31
0.0
  0
LINE
  5
32F
330
1E
100
AcDbEntity
  8
0
  6
Continuous
 62
     3
100
AcDbLine
 10
-712.5838733187982
 20
-110.9589692263632
 30
0.0
 11
-712.0838733187981
 21
-110.9589692263632
 31
0.0
  0
LINE
  5
330
330
1E
100
AcDbEntity
  8
0
  6
Continuous
 62
     3
100
AcDbLine
 10
-712.0838733187981
 20
-107.8589692263632
 30
0.0
 11
-711.0838733187981
 21
-107.8589692263632
 31
0.0
  0
LINE
  5
331
330
1E
100
AcDbEntity
  8
0
  6
Continuous
 62
     3
100
AcDbLine
 10
-711.0838733187981
 20
-107.8589692263632
 30
0.0
 11
-712.0838733187981
 21
-105.3589692263632
 31
0.0
  0
LINE
  5
332
330
1E
100
AcDbEntity
  8
0
  6
Continuous
 62
     3
100
AcDbLine
 10
-712.0838733187981
 20
-105.3589692263632
 30
0.0
 11
-710.0838733187981
 21
-105.3589692263632
 31
0.0
  0
LINE
  5
333
330
1E
100
AcDbEntity
  8
0
  6
Continuous
 62
     3
100
AcDbLine
 10
-710.0838733187981
 20
-105.3589692263632
 30
0.0
 11
-710.0838733187981
 21
-108.3589692263632
 31
0.0
  0
LINE
  5
334
330
1E
100
AcDbEntity
  8
0
  6
Continuous
 62
     3
100
AcDbLine
 10
-710.5838733187981
 20
-108.3589692263632
 30
0.0
 11
-710.5838733187981
 21
-107.3589692263632
 31
0.0
  0
LINE
  5
335
330
1E
100
AcDbEntity
  8
0
  6
Continuous
 62
     3
100
AcDbLine
 10
-710.5838733187981
 20
-107.3589692263632
 30
0.0
 11
-710.0838733187981
 21
-107.3589692263632
 31
0.0
  0
LINE
  5
336
330
1E
100
AcDbEntity
  8
0
  6
Continuous
 62
     3
100
AcDbLine
 10
-712.5838733187982
 20
-110.9589692263632
 30
0.0
 11
-712.0838733187981
 21
-110.9589692263632
 31
0.0
  0
LINE
  5
337
330
1E
100
AcDbEntity
  8
0
  6
Continuous
 62
     3
100
AcDbLine
 10
-712.0838733187981
 20
-108.8589692263632
 30
0.0
 11
-711.0838733187981
 21
-108.8589692263632
 31
0.0
  0
LINE
  5
338
330
1E
100
AcDbEntity
  8
0
  6
Continuous
 62
     3
100
AcDbLine
 10
-711.0838733187981
 20
-108.8589692263632
 30
0.0
 11
-712.0838733187981
 21
-111.3589692263632
 31
0.0
  0
LINE
  5
339
330
1E
100
AcDbEntity
  8
0
  6
Continuous
 62
     3
100
AcDbLine
 10
-712.0838733187981
 20
-111.3589692263632
 30
0.0
 11
-710.0838733187981
 21
-111.3589692263632
 31
0.0
  0
LINE
  5
33A
330
1E
100
AcDbEntity
  8
0
  6
Continuous
 62
     3
100
AcDbLine
 10
-710.0838733187981
 20
-111.3589692263632
 30
0.0
 11
-710.0838733187981
 21
-108.3589692263632
 31
0.0
  0
LINE
  5
33B
330
1E
100
AcDbEntity
  8
0
  6
Continuous
 62
     3
100
AcDbLine
 10
-710.5838733187981
 20
-108.3589692263632
 30
0.0
 11
-710.5838733187981
 21
-109.3589692263632
 31
0.0
  0
LINE
  5
33C
330
1E
100
AcDbEntity
  8
0
  6
Continuous
 62
     3
100
AcDbLine
 10
-710.5838733187981
 20
-109.3589692263632
 30
0.0
 11
-710.0838733187981
 21
-109.3589692263632
 31
0.0
  0
LINE
  5
33D
330
1E
100
AcDbEntity
  8
0
  6
Continuous
 62
     3
100
AcDbLine
 10
-710.0838733187981
 20
-108.3589692263632
 30
0.0
 11
-710.0838733187981
 21
-105.5589692263632
 31
0.0
  0
LINE
  5
33E
330
1E
100
AcDbEntity
  8
0
  6
Continuous
 62
     3
100
AcDbLine
 10
-710.0838733187981
 20
-105.5589692263632
 30
0.0
 11
-708.0838733187981
 21
-105.5589692263632
 31
0.0
  0
LINE
  5
33F
330
1E
100
AcDbEntity
  8
0
  6
Continuous
 62
     3
100
AcDbLine
 10
-707.8838733187982
 20
-108.3589692263632
 30
0.0
 11
-707.8838733187982
 21
-107.7589692263632
 31
0.0
  0
LINE
  5
340
330
1E
100
AcDbEntity
  8
0
  6
Continuous
 62
     3
100
AcDbLine
 10
-707.8838733187982
 20
-107.7589692263632
 30
0.0
 11
-708.0838733187981
 21
-105.5589692263632
 31
0.0
  0
LINE
  5
341
330
1E
100
AcDbEntity
  8
0
  6
Continuous
 62
     3
100
AcDbLine
 10
-710.0838733187981
 20
-111.3589692263632
 30
0.0
 11
-710.0838733187981
 21
-108.3589692263632
 31
0.0
  0
LINE
  5
342
330
1E
100
AcDbEntity
  8
0
  6
Continuous
 62
     3
100
AcDbLine
 10
-710.0838733187981
 20
-108.3589692263632
 30
0.0
 11
-710.0838733187981
 21
-111.1589692263632
 31
0.0
  0
LINE
  5
343
330
1E
100
AcDbEntity
  8
0
  6
Continuous
 62
     3
100
AcDbLine
 10
-710.0838733187981
 20
-111.1589692263632
 30
0.0
 11
-708.0838733187981
 21
-111.1589692263632
 31
0.0
  0
LINE
  5
344
330
1E
100
AcDbEntity
  8
0
  6
Continuous
 62
     3
100
AcDbLine
 10
-707.8838733187982
 20
-108.3589692263632
 30
0.0
 11
-707.8838733187982
 21
-108.9589692263632
 31
0.0
  0
LINE
  5
345
330
1E
100
AcDbEntity
  8
0
  6
Continuous
 62
     3
100
AcDbLine
 10
-707.8838733187982
 20
-108.9589692263632
 30
0.0
 11
-708.0838733187981
 21
-111.1589692263632
 31
0.0
  0
LINE
  5
346
330
1E
100
AcDbEntity
  8
0
  6
Continuous
 62
     3
100
AcDbLine
 10
-704.5838733187982
 20
-113.4589692263632
 30
0.0
 11
-712.5838733187982
 21
-113.4589692263632
 31
0.0
  0
LINE
  5
347
330
1E
100
AcDbEntity
  8
0
  6
Continuous
 62
     3
100
AcDbLine
 10
-704.5838733187982
 20
-113.4589692263632
 30
0.0
 11
-712.5838733187982
 21
-113.4589692263632
 31
0.0
  0
LINE
  5
348
330
1E
100
AcDbEntity
  8
0
  6
Continuous
 62
     3
100
AcDbLine
 10
-712.5838733187982
 20
-113.4589692263632
 30
0.0
 11
-712.5838733187982
 21
-120.6589692263632
 31
0.0
  0
LINE
  5
349
330
1E
100
AcDbEntity
  8
0
  6
Continuous
 62
     3
100
AcDbLine
 10
-712.5838733187982
 20
-120.6589692263632
 30
0.0
 11
-704.5838733187982
 21
-120.6589692263632
 31
0.0
  0
LINE
  5
34A
330
1E
100
AcDbEntity
  8
0
  6
Continuous
 62
     3
100
AcDbLine
 10
-712.0838733187981
 20
-113.4589692263632
 30
0.0
 11
-712.0838733187981
 21
-120.6589692263632
 31
0.0
  0
LINE
  5
34B
330
1E
100
AcDbEntity
  8
0
  6
Continuous
 62
     3
100
AcDbLine
 10
-712.5838733187982
 20
-114.4589692263632
 30
0.0
 11
-712.0838733187981
 21
-114.4589692263632
 31
0.0
  0
LINE
  5
34C
330
1E
100
AcDbEntity
  8
0
  6
Continuous
 62
     3
100
AcDbLine
 10
-712.5838733187982
 20
-119.6589692263632
 30
0.0
 11
-712.0838733187981
 21
-119.6589692263632
 31
0.0
  0
LINE
  5
34D
330
1E
100
AcDbEntity
  8
0
  6
Continuous
 62
     3
100
AcDbLine
 10
-712.0838733187981
 20
-116.5589692263632
 30
0.0
 11
-711.0838733187981
 21
-116.5589692263632
 31
0.0
  0
LINE
  5
34E
330
1E
100
AcDbEntity
  8
0
  6
Continuous
 62
     3
100
AcDbLine
 10
-711.0838733187981
 20
-116.5589692263632
 30
0.0
 11
-712.0838733187981
 21
-114.0589692263632
 31
0.0
  0
LINE
  5
34F
330
1E
100
AcDbEntity
  8
0
  6
Continuous
 62
     3
100
AcDbLine
 10
-712.0838733187981
 20
-114.0589692263632
 30
0.0
 11
-710.0838733187981
 21
-114.0589692263632
 31
0.0
  0
LINE
  5
350
330
1E
100
AcDbEntity
  8
0
  6
Continuous
 62
     3
100
AcDbLine
 10
-710.0838733187981
 20
-114.0589692263632
 30
0.0
 11
-710.0838733187981
 21
-117.0589692263632
 31
0.0
  0
LINE
  5
351
330
1E
100
AcDbEntity
  8
0
  6
Continuous
 62
     3
100
AcDbLine
 10
-710.5838733187981
 20
-117.0589692263632
 30
0.0
 11
-710.5838733187981
 21
-116.0589692263632
 31
0.0
  0
LINE
  5
352
330
1E
100
AcDbEntity
  8
0
  6
Continuous
 62
     3
100
AcDbLine
 10
-710.5838733187981
 20
-116.0589692263632
 30
0.0
 11
-710.0838733187981
 21
-116.0589692263632
 31
0.0
  0
LINE
  5
353
330
1E
100
AcDbEntity
  8
0
  6
Continuous
 62
     3
100
AcDbLine
 10
-712.5838733187982
 20
-119.6589692263632
 30
0.0
 11
-712.0838733187981
 21
-119.6589692263632
 31
0.0
  0
LINE
  5
354
330
1E
100
AcDbEntity
  8
0
  6
Continuous
 62
     3
100
AcDbLine
 10
-712.0838733187981
 20
-117.5589692263632
 30
0.0
 11
-711.0838733187981
 21
-117.5589692263632
 31
0.0
  0
LINE
  5
355
330
1E
100
AcDbEntity
  8
0
  6
Continuous
 62
     3
100
AcDbLine
 10
-711.0838733187981
 20
-117.5589692263632
 30
0.0
 11
-712.0838733187981
 21
-120.0589692263632
 31
0.0
  0
LINE
  5
356
330
1E
100
AcDbEntity
  8
0
  6
Continuous
 62
     3
100
AcDbLine
 10
-712.0838733187981
 20
-120.0589692263632
 30
0.0
 11
-710.0838733187981
 21
-120.0589692263632
 31
0.0
  0
LINE
  5
357
330
1E
100
AcDbEntity
  8
0
  6
Continuous
 62
     3
100
AcDbLine
 10
-710.0838733187981
 20
-120.0589692263632
 30
0.0
 11
-710.0838733187981
 21
-117.0589692263632
 31
0.0
  0
LINE
  5
358
330
1E
100
AcDbEntity
  8
0
  6
Continuous
 62
     3
100
AcDbLine
 10
-710.5838733187981
 20
-117.0589692263632
 30
0.0
 11
-710.5838733187981
 21
-118.0589692263632
 31
0.0
  0
LINE
  5
359
330
1E
100
AcDbEntity
  8
0
  6
Continuous
 62
     3
100
AcDbLine
 10
-710.5838733187981
 20
-118.0589692263632
 30
0.0
 11
-710.0838733187981
 21
-118.0589692263632
 31
0.0
  0
LINE
  5
35A
330
1E
100
AcDbEntity
  8
0
  6
Continuous
 62
     3
100
AcDbLine
 10
-710.0838733187981
 20
-117.0589692263632
 30
0.0
 11
-710.0838733187981
 21
-114.2589692263632
 31
0.0
  0
LINE
  5
35B
330
1E
100
AcDbEntity
  8
0
  6
Continuous
 62
     3
100
AcDbLine
 10
-710.0838733187981
 20
-114.2589692263632
 30
0.0
 11
-708.0838733187981
 21
-114.2589692263632
 31
0.0
  0
LINE
  5
35C
330
1E
100
AcDbEntity
  8
0
  6
Continuous
 62
     3
100
AcDbLine
 10
-707.8838733187982
 20
-117.0589692263632
 30
0.0
 11
-707.8838733187982
 21
-116.4589692263632
 31
0.0
  0
LINE
  5
35D
330
1E
100
AcDbEntity
  8
0
  6
Continuous
 62
     3
100
AcDbLine
 10
-707.8838733187982
 20
-116.4589692263632
 30
0.0
 11
-708.0838733187981
 21
-114.2589692263632
 31
0.0
  0
LINE
  5
35E
330
1E
100
AcDbEntity
  8
0
  6
Continuous
 62
     3
100
AcDbLine
 10
-710.0838733187981
 20
-120.0589692263632
 30
0.0
 11
-710.0838733187981
 21
-117.0589692263632
 31
0.0
  0
LINE
  5
35F
330
1E
100
AcDbEntity
  8
0
  6
Continuous
 62
     3
100
AcDbLine
 10
-710.0838733187981
 20
-117.0589692263632
 30
0.0
 11
-710.0838733187981
 21
-119.8589692263632
 31
0.0
  0
LINE
  5
360
330
1E
100
AcDbEntity
  8
0
  6
Continuous
 62
     3
100
AcDbLine
 10
-710.0838733187981
 20
-119.8589692263632
 30
0.0
 11
-708.0838733187981
 21
-119.8589692263632
 31
0.0
  0
LINE
  5
361
330
1E
100
AcDbEntity
  8
0
  6
Continuous
 62
     3
100
AcDbLine
 10
-707.8838733187982
 20
-117.0589692263632
 30
0.0
 11
-707.8838733187982
 21
-117.6589692263632
 31
0.0
  0
LINE
  5
362
330
1E
100
AcDbEntity
  8
0
  6
Continuous
 62
     3
100
AcDbLine
 10
-707.8838733187982
 20
-117.6589692263632
 30
0.0
 11
-708.0838733187981
 21
-119.8589692263632
 31
0.0
  0
LINE
  5
363
330
1E
100
AcDbEntity
  8
0
  6
Continuous
 62
     3
100
AcDbLine
 10
-705.8838733187982
 20
-120.6589692263632
 30
0.0
 11
-707.6838733187981
 21
-120.6589692263632
 31
0.0
  0
LINE
  5
364
330
1E
100
AcDbEntity
  8
0
  6
Continuous
 62
     3
100
AcDbLine
 10
-704.5838733187982
 20
-122.1589692263632
 30
0.0
 11
-712.5838733187982
 21
-122.1589692263632
 31
0.0
  0
LINE
  5
365
330
1E
100
AcDbEntity
  8
0
  6
Continuous
 62
     3
100
AcDbLine
 10
-712.5838733187982
 20
-122.1589692263632
 30
0.0
 11
-712.5838733187982
 21
-129.3589692263632
 31
0.0
  0
LINE
  5
366
330
1E
100
AcDbEntity
  8
0
  6
Continuous
 62
     3
100
AcDbLine
 10
-712.5838733187982
 20
-129.3589692263632
 30
0.0
 11
-705.8838733187982
 21
-129.3589692263632
 31
0.0
  0
LINE
  5
367
330
1E
100
AcDbEntity
  8
0
  6
Continuous
 62
     3
100
AcDbLine
 10
-712.0838733187981
 20
-122.1589692263632
 30
0.0
 11
-712.0838733187981
 21
-129.3589692263632
 31
0.0
  0
LINE
  5
368
330
1E
100
AcDbEntity
  8
0
  6
Continuous
 62
     3
100
AcDbLine
 10
-712.5838733187982
 20
-123.1589692263632
 30
0.0
 11
-712.0838733187981
 21
-123.1589692263632
 31
0.0
  0
LINE
  5
369
330
1E
100
AcDbEntity
  8
0
  6
Continuous
 62
     3
100
AcDbLine
 10
-712.5838733187982
 20
-128.3589692263632
 30
0.0
 11
-712.0838733187981
 21
-128.3589692263632
 31
0.0
  0
LINE
  5
36A
330
1E
100
AcDbEntity
  8
0
  6
Continuous
 62
     3
100
AcDbLine
 10
-712.0838733187981
 20
-125.2589692263633
 30
0.0
 11
-711.0838733187981
 21
-125.2589692263633
 31
0.0
  0
LINE
  5
36B
330
1E
100
AcDbEntity
  8
0
  6
Continuous
 62
     3
100
AcDbLine
 10
-711.0838733187981
 20
-125.2589692263633
 30
0.0
 11
-712.0838733187981
 21
-122.7589692263632
 31
0.0
  0
LINE
  5
36C
330
1E
100
AcDbEntity
  8
0
  6
Continuous
 62
     3
100
AcDbLine
 10
-712.0838733187981
 20
-122.7589692263632
 30
0.0
 11
-710.0838733187981
 21
-122.7589692263632
 31
0.0
  0
LINE
  5
36D
330
1E
100
AcDbEntity
  8
0
  6
Continuous
 62
     3
100
AcDbLine
 10
-710.0838733187981
 20
-122.7589692263632
 30
0.0
 11
-710.0838733187981
 21
-125.7589692263632
 31
0.0
  0
LINE
  5
36E
330
1E
100
AcDbEntity
  8
0
  6
Continuous
 62
     3
100
AcDbLine
 10
-710.5838733187981
 20
-125.7589692263632
 30
0.0
 11
-710.5838733187981
 21
-124.7589692263632
 31
0.0
  0
LINE
  5
36F
330
1E
100
AcDbEntity
  8
0
  6
Continuous
 62
     3
100
AcDbLine
 10
-710.5838733187981
 20
-124.7589692263632
 30
0.0
 11
-710.0838733187981
 21
-124.7589692263632
 31
0.0
  0
LINE
  5
370
330
1E
100
AcDbEntity
  8
0
  6
Continuous
 62
     3
100
AcDbLine
 10
-712.5838733187982
 20
-128.3589692263632
 30
0.0
 11
-712.0838733187981
 21
-128.3589692263632
 31
0.0
  0
LINE
  5
371
330
1E
100
AcDbEntity
  8
0
  6
Continuous
 62
     3
100
AcDbLine
 10
-712.0838733187981
 20
-126.2589692263633
 30
0.0
 11
-711.0838733187981
 21
-126.2589692263633
 31
0.0
  0
LINE
  5
372
330
1E
100
AcDbEntity
  8
0
  6
Continuous
 62
     3
100
AcDbLine
 10
-711.0838733187981
 20
-126.2589692263633
 30
0.0
 11
-712.0838733187981
 21
-128.7589692263632
 31
0.0
  0
LINE
  5
373
330
1E
100
AcDbEntity
  8
0
  6
Continuous
 62
     3
100
AcDbLine
 10
-712.0838733187981
 20
-128.7589692263632
 30
0.0
 11
-710.0838733187981
 21
-128.7589692263632
 31
0.0
  0
LINE
  5
374
330
1E
100
AcDbEntity
  8
0
  6
Continuous
 62
     3
100
AcDbLine
 10
-710.0838733187981
 20
-128.7589692263632
 30
0.0
 11
-710.0838733187981
 21
-125.7589692263632
 31
0.0
  0
LINE
  5
375
330
1E
100
AcDbEntity
  8
0
  6
Continuous
 62
     3
100
AcDbLine
 10
-710.5838733187981
 20
-125.7589692263632
 30
0.0
 11
-710.5838733187981
 21
-126.7589692263632
 31
0.0
  0
LINE
  5
376
330
1E
100
AcDbEntity
  8
0
  6
Continuous
 62
     3
100
AcDbLine
 10
-710.5838733187981
 20
-126.7589692263632
 30
0.0
 11
-710.0838733187981
 21
-126.7589692263632
 31
0.0
  0
LINE
  5
377
330
1E
100
AcDbEntity
  8
0
  6
Continuous
 62
     3
100
AcDbLine
 10
-710.0838733187981
 20
-125.7589692263632
 30
0.0
 11
-710.0838733187981
 21
-122.9589692263632
 31
0.0
  0
LINE
  5
378
330
1E
100
AcDbEntity
  8
0
  6
Continuous
 62
     3
100
AcDbLine
 10
-710.0838733187981
 20
-122.9589692263632
 30
0.0
 11
-708.0838733187981
 21
-122.9589692263632
 31
0.0
  0
LINE
  5
379
330
1E
100
AcDbEntity
  8
0
  6
Continuous
 62
     3
100
AcDbLine
 10
-707.8838733187982
 20
-125.7589692263632
 30
0.0
 11
-707.8838733187982
 21
-125.1589692263632
 31
0.0
  0
LINE
  5
37A
330
1E
100
AcDbEntity
  8
0
  6
Continuous
 62
     3
100
AcDbLine
 10
-707.8838733187982
 20
-125.1589692263632
 30
0.0
 11
-708.0838733187981
 21
-122.9589692263632
 31
0.0
  0
LINE
  5
37B
330
1E
100
AcDbEntity
  8
0
  6
Continuous
 62
     3
100
AcDbLine
 10
-710.0838733187981
 20
-128.7589692263632
 30
0.0
 11
-710.0838733187981
 21
-125.7589692263632
 31
0.0
  0
LINE
  5
37C
330
1E
100
AcDbEntity
  8
0
  6
Continuous
 62
     3
100
AcDbLine
 10
-710.0838733187981
 20
-125.7589692263632
 30
0.0
 11
-710.0838733187981
 21
-128.5589692263632
 31
0.0
  0
LINE
  5
37D
330
1E
100
AcDbEntity
  8
0
  6
Continuous
 62
     3
100
AcDbLine
 10
-710.0838733187981
 20
-128.5589692263632
 30
0.0
 11
-708.0838733187981
 21
-128.5589692263632
 31
0.0
  0
LINE
  5
37E
330
1E
100
AcDbEntity
  8
0
  6
Continuous
 62
     3
100
AcDbLine
 10
-707.8838733187982
 20
-125.7589692263632
 30
0.0
 11
-707.8838733187982
 21
-126.3589692263632
 31
0.0
  0
LINE
  5
37F
330
1E
100
AcDbEntity
  8
0
  6
Continuous
 62
     3
100
AcDbLine
 10
-707.8838733187982
 20
-126.3589692263632
 30
0.0
 11
-708.0838733187981
 21
-128.5589692263632
 31
0.0
  0
LINE
  5
380
330
1E
100
AcDbEntity
  8
0
  6
Continuous
 62
     3
100
AcDbLine
 10
-705.8838733187982
 20
-130.8589692263632
 30
0.0
 11
-712.5838733187982
 21
-130.8589692263632
 31
0.0
  0
LINE
  5
381
330
1E
100
AcDbEntity
  8
0
  6
Continuous
 62
     3
100
AcDbLine
 10
-712.5838733187982
 20
-138.0589692263632
 30
0.0
 11
-704.5838733187982
 21
-138.0589692263632
 31
0.0
  0
LINE
  5
382
330
1E
100
AcDbEntity
  8
0
  6
Continuous
 62
     3
100
AcDbLine
 10
-712.0838733187981
 20
-130.8589692263632
 30
0.0
 11
-712.0838733187981
 21
-138.0589692263632
 31
0.0
  0
LINE
  5
383
330
1E
100
AcDbEntity
  8
0
  6
Continuous
 62
     3
100
AcDbLine
 10
-712.5838733187982
 20
-130.8589692263632
 30
0.0
 11
-712.5838733187982
 21
-138.0589692263632
 31
0.0
  0
LINE
  5
384
330
1E
100
AcDbEntity
  8
0
  6
Continuous
 62
     3
100
AcDbLine
 10
-712.5838733187982
 20
-138.0589692263632
 30
0.0
 11
-705.8838733187982
 21
-138.0589692263632
 31
0.0
  0
LINE
  5
385
330
1E
100
AcDbEntity
  8
0
  6
Continuous
 62
     3
100
AcDbLine
 10
-712.0838733187981
 20
-130.8589692263632
 30
0.0
 11
-712.0838733187981
 21
-138.0589692263632
 31
0.0
  0
LINE
  5
386
330
1E
100
AcDbEntity
  8
0
  6
Continuous
 62
     3
100
AcDbLine
 10
-712.5838733187982
 20
-131.8589692263632
 30
0.0
 11
-712.0838733187981
 21
-131.8589692263632
 31
0.0
  0
LINE
  5
387
330
1E
100
AcDbEntity
  8
0
  6
Continuous
 62
     3
100
AcDbLine
 10
-712.5838733187982
 20
-137.0589692263632
 30
0.0
 11
-712.0838733187981
 21
-137.0589692263632
 31
0.0
  0
LINE
  5
388
330
1E
100
AcDbEntity
  8
0
  6
Continuous
 62
     3
100
AcDbLine
 10
-712.0838733187981
 20
-133.9589692263632
 30
0.0
 11
-711.0838733187981
 21
-133.9589692263632
 31
0.0
  0
LINE
  5
389
330
1E
100
AcDbEntity
  8
0
  6
Continuous
 62
     3
100
AcDbLine
 10
-711.0838733187981
 20
-133.9589692263632
 30
0.0
 11
-712.0838733187981
 21
-131.4589692263632
 31
0.0
  0
LINE
  5
38A
330
1E
100
AcDbEntity
  8
0
  6
Continuous
 62
     3
100
AcDbLine
 10
-712.0838733187981
 20
-131.4589692263632
 30
0.0
 11
-710.0838733187981
 21
-131.4589692263632
 31
0.0
  0
LINE
  5
38B
330
1E
100
AcDbEntity
  8
0
  6
Continuous
 62
     3
100
AcDbLine
 10
-710.0838733187981
 20
-131.4589692263632
 30
0.0
 11
-710.0838733187981
 21
-134.4589692263632
 31
0.0
  0
LINE
  5
38C
330
1E
100
AcDbEntity
  8
0
  6
Continuous
 62
     3
100
AcDbLine
 10
-710.5838733187981
 20
-134.4589692263632
 30
0.0
 11
-710.5838733187981
 21
-133.4589692263632
 31
0.0
  0
LINE
  5
38D
330
1E
100
AcDbEntity
  8
0
  6
Continuous
 62
     3
100
AcDbLine
 10
-710.5838733187981
 20
-133.4589692263632
 30
0.0
 11
-710.0838733187981
 21
-133.4589692263632
 31
0.0
  0
LINE
  5
38E
330
1E
100
AcDbEntity
  8
0
  6
Continuous
 62
     3
100
AcDbLine
 10
-712.5838733187982
 20
-137.0589692263632
 30
0.0
 11
-712.0838733187981
 21
-137.0589692263632
 31
0.0
  0
LINE
  5
38F
330
1E
100
AcDbEntity
  8
0
  6
Continuous
 62
     3
100
AcDbLine
 10
-712.0838733187981
 20
-134.9589692263632
 30
0.0
 11
-711.0838733187981
 21
-134.9589692263632
 31
0.0
  0
LINE
  5
390
330
1E
100
AcDbEntity
  8
0
  6
Continuous
 62
     3
100
AcDbLine
 10
-711.0838733187981
 20
-134.9589692263632
 30
0.0
 11
-712.0838733187981
 21
-137.4589692263632
 31
0.0
  0
LINE
  5
391
330
1E
100
AcDbEntity
  8
0
  6
Continuous
 62
     3
100
AcDbLine
 10
-712.0838733187981
 20
-137.4589692263632
 30
0.0
 11
-710.0838733187981
 21
-137.4589692263632
 31
0.0
  0
LINE
  5
392
330
1E
100
AcDbEntity
  8
0
  6
Continuous
 62
     3
100
AcDbLine
 10
-710.0838733187981
 20
-137.4589692263632
 30
0.0
 11
-710.0838733187981
 21
-134.4589692263632
 31
0.0
  0
LINE
  5
393
330
1E
100
AcDbEntity
  8
0
  6
Continuous
 62
     3
100
AcDbLine
 10
-710.5838733187981
 20
-134.4589692263632
 30
0.0
 11
-710.5838733187981
 21
-135.4589692263632
 31
0.0
  0
LINE
  5
394
330
1E
100
AcDbEntity
  8
0
  6
Continuous
 62
     3
100
AcDbLine
 10
-710.5838733187981
 20
-135.4589692263632
 30
0.0
 11
-710.0838733187981
 21
-135.4589692263632
 31
0.0
  0
LINE
  5
395
330
1E
100
AcDbEntity
  8
0
  6
Continuous
 62
     3
100
AcDbLine
 10
-710.0838733187981
 20
-134.4589692263632
 30
0.0
 11
-710.0838733187981
 21
-131.6589692263632
 31
0.0
  0
LINE
  5
396
330
1E
100
AcDbEntity
  8
0
  6
Continuous
 62
     3
100
AcDbLine
 10
-710.0838733187981
 20
-131.6589692263632
 30
0.0
 11
-708.0838733187981
 21
-131.6589692263632
 31
0.0
  0
LINE
  5
397
330
1E
100
AcDbEntity
  8
0
  6
Continuous
 62
     3
100
AcDbLine
 10
-707.8838733187982
 20
-134.4589692263632
 30
0.0
 11
-707.8838733187982
 21
-133.8589692263632
 31
0.0
  0
LINE
  5
398
330
1E
100
AcDbEntity
  8
0
  6
Continuous
 62
     3
100
AcDbLine
 10
-707.8838733187982
 20
-133.8589692263632
 30
0.0
 11
-708.0838733187981
 21
-131.6589692263632
 31
0.0
  0
LINE
  5
399
330
1E
100
AcDbEntity
  8
0
  6
Continuous
 62
     3
100
AcDbLine
 10
-710.0838733187981
 20
-137.4589692263632
 30
0.0
 11
-710.0838733187981
 21
-134.4589692263632
 31
0.0
  0
LINE
  5
39A
330
1E
100
AcDbEntity
  8
0
  6
Continuous
 62
     3
100
AcDbLine
 10
-710.0838733187981
 20
-134.4589692263632
 30
0.0
 11
-710.0838733187981
 21
-137.2589692263632
 31
0.0
  0
LINE
  5
39B
330
1E
100
AcDbEntity
  8
0
  6
Continuous
 62
     3
100
AcDbLine
 10
-710.0838733187981
 20
-137.2589692263632
 30
0.0
 11
-708.0838733187981
 21
-137.2589692263632
 31
0.0
  0
LINE
  5
39C
330
1E
100
AcDbEntity
  8
0
  6
Continuous
 62
     3
100
AcDbLine
 10
-707.8838733187982
 20
-134.4589692263632
 30
0.0
 11
-707.8838733187982
 21
-135.0589692263632
 31
0.0
  0
LINE
  5
39D
330
1E
100
AcDbEntity
  8
0
  6
Continuous
 62
     3
100
AcDbLine
 10
-707.8838733187982
 20
-135.0589692263632
 30
0.0
 11
-708.0838733187981
 21
-137.2589692263632
 31
0.0
  0
LINE
  5
39E
330
1E
100
AcDbEntity
  8
0
  6
Continuous
 62
     3
100
AcDbLine
 10
-705.8838733187982
 20
-138.0589692263632
 30
0.0
 11
-707.6838733187981
 21
-138.0589692263632
 31
0.0
  0
LINE
  5
39F
330
1E
100
AcDbEntity
  8
0
  6
Continuous
 62
     3
100
AcDbLine
 10
-704.5838733187982
 20
-111.9589692263632
 30
0.0
 11
-704.5838733187982
 21
-113.4589692263632
 31
0.0
  0
LINE
  5
3A0
330
1E
100
AcDbEntity
  8
0
  6
Continuous
 62
     3
100
AcDbLine
 10
-705.8838733187982
 20
-113.4589692263632
 30
0.0
 11
-705.8838733187982
 21
-111.9589692263632
 31
0.0
  0
LINE
  5
3A1
330
1E
100
AcDbEntity
  8
0
  6
Continuous
 62
     3
100
AcDbLine
 10
-704.5838733187982
 20
-120.6589692263632
 30
0.0
 11
-704.5838733187982
 21
-122.1589692263632
 31
0.0
  0
LINE
  5
3A2
330
1E
100
AcDbEntity
  8
0
  6
Continuous
 62
     3
100
AcDbLine
 10
-705.8838733187982
 20
-122.1589692263632
 30
0.0
 11
-705.8838733187982
 21
-120.6589692263632
 31
0.0
  0
LINE
  5
3A3
330
1E
100
AcDbEntity
  8
0
  6
Continuous
 62
     3
100
AcDbLine
 10
-707.6838733187981
 20
-120.6589692263632
 30
0.0
 11
-707.6838733187981
 21
-122.1589692263632
 31
0.0
  0
LINE
  5
3A4
330
1E
100
AcDbEntity
  8
0
  6
Continuous
 62
     3
100
AcDbLine
 10
-705.8838733187982
 20
-129.3589692263632
 30
0.0
 11
-705.8838733187982
 21
-130.8589692263632
 31
0.0
  0
LINE
  5
3A5
330
1E
100
AcDbEntity
  8
0
  6
Continuous
 62
     3
100
AcDbLine
 10
-705.8838733187982
 20
-103.2589692263632
 30
0.0
 11
-705.8838733187982
 21
-104.7589692263632
 31
0.0
  0
LINE
  5
3A6
330
1E
100
AcDbEntity
  8
0
  6
LTYPE1
 62
     3
100
AcDbLine
 10
-707.8838733187982
 20
-139.5589692263632
 30
0.0
 11
-702.8838733187982
 21
-139.5589692263632
 31
0.0
  0
LINE
  5
3A7
330
1E
100
AcDbEntity
  8
0
  6
Continuous
 62
     3
100
AcDbLine
 10
-704.5838733187982
 20
-138.0589692263632
 30
0.0
 11
-704.5838733187982
 21
-139.5589692263632
 31
0.0
  0
LINE
  5
3A8
330
1E
100
AcDbEntity
  8
0
  6
Continuous
 62
     3
100
AcDbLine
 10
-705.8838733187982
 20
-139.5589692263632
 30
0.0
 11
-705.8838733187982
 21
-138.0589692263632
 31
0.0
  0
LINE
  5
3A9
330
1E
100
AcDbEntity
  8
0
  6
LTYPE1
 62
     3
100
AcDbLine
 10
-702.8838733187982
 20
-103.2589692263632
 30
0.0
 11
-702.8838733187982
 21
-139.5589692263632
 31
0.0
  0
LINE
  5
3AA
330
1E
100
AcDbEntity
  8
0
  6
Continuous
 62
     3
100
AcDbLine
 10
-705.8838733187982
 20
-139.5589692263632
 30
0.0
 11
-705.8838733187982
 21
-138.0589692263632
 31
0.0
  0
LINE
  5
3AB
330
1E
100
AcDbEntity
  8
0
  6
Continuous
 62
     3
100
AcDbLine
 10
-712.5838733187982
 20
-130.8589692263632
 30
0.0
 11
-712.5838733187982
 21
-138.0589692263632
 31
0.0
  0
LINE
  5
3AC
330
1E
100
AcDbEntity
  8
0
  6
LTYPE1
 62
     3
100
AcDbLine
 10
-707.8838733187982
 20
-139.5589692263632
 30
0.0
 11
-707.8838733187982
 21
-103.2589692263632
 31
0.0
  0
ARC
  5
3AD
330
1E
100
AcDbEntity
  8
0
  6
Continuous
 62
     1
100
AcDbCircle
 10
-710.8357625837982
 20
-101.8589692263632
 30
0.0
 40
0.5
100
AcDbArc
 50
344.2133212559999
 51
90.0
  0
LINE
  5
3AE
330
1E
100
AcDbEntity
  8
0
  6
Continuous
 62
     1
100
AcDbLine
 10
-710.3357650557982
 20
-103.2589692263632
 30
0.0
 11
-710.3357650557982
 21
-101.8573969073633
 31
0.0
  0
LINE
  5
3AF
330
1E
100
AcDbEntity
  8
0
  6
Continuous
 62
     1
100
AcDbLine
 10
-710.3357650557982
 20
-140.9605415453633
 30
0.0
 11
-710.3357650557982
 21
-139.5589692263632
 31
0.0
  0
LINE
  5
3B0
330
1E
100
AcDbEntity
  8
0
  6
Continuous
 62
     3
100
AcDbLine
 10
-713.2838733187981
 20
-139.5589692263632
 30
0.0
 11
-704.5838733187982
 21
-139.5589692263632
 31
0.0
  0
LINE
  5
3B1
330
1E
100
AcDbEntity
  8
0
  6
LTYPE1
 62
     3
100
AcDbLine
 10
-702.8838733187982
 20
-103.2589692263632
 30
0.0
 11
-713.2838733187981
 21
-103.2589692263632
 31
0.0
  0
LINE
  5
3B2
330
1E
100
AcDbEntity
  8
0
  6
Continuous
 62
     3
100
AcDbLine
 10
-702.8838733187982
 20
-138.1521895653633
 30
0.0
 11
-691.8838733187982
 21
-138.0589692263632
 31
0.0
  0
LINE
  5
3B3
330
1E
100
AcDbEntity
  8
0
  6
Continuous
 62
     3
100
AcDbLine
 10
-702.8838733187982
 20
-136.1657488873633
 30
0.0
 11
-691.8838733187982
 21
-136.2589692263632
 31
0.0
  0
LINE
  5
3B4
330
1E
100
AcDbEntity
  8
0
  6
Continuous
 62
     3
100
AcDbLine
 10
-702.8838733187982
 20
-134.6521895653633
 30
0.0
 11
-691.8838733187982
 21
-134.5589692263632
 31
0.0
  0
LINE
  5
3B5
330
1E
100
AcDbEntity
  8
0
  6
Continuous
 62
     3
100
AcDbLine
 10
-702.8838733187982
 20
-132.6657488873632
 30
0.0
 11
-691.8838733187982
 21
-132.7589692263632
 31
0.0
  0
LINE
  5
3B6
330
1E
100
AcDbEntity
  8
0
  6
Continuous
 62
     3
100
AcDbLine
 10
-702.8838733187982
 20
-131.1521895653632
 30
0.0
 11
-691.8838733187982
 21
-131.0589692263632
 31
0.0
  0
LINE
  5
3B7
330
1E
100
AcDbEntity
  8
0
  6
Continuous
 62
     3
100
AcDbLine
 10
-702.8838733187982
 20
-129.1657488873632
 30
0.0
 11
-691.8838733187982
 21
-129.2589692263632
 31
0.0
  0
LINE
  5
3B8
330
1E
100
AcDbEntity
  8
0
  6
Continuous
 62
     3
100
AcDbLine
 10
-702.8838733187982
 20
-127.6521895653633
 30
0.0
 11
-691.8838733187982
 21
-127.5589692263632
 31
0.0
  0
LINE
  5
3B9
330
1E
100
AcDbEntity
  8
0
  6
Continuous
 62
     3
100
AcDbLine
 10
-702.8838733187982
 20
-125.6657488873633
 30
0.0
 11
-691.8838733187982
 21
-125.7589692263632
 31
0.0
  0
LINE
  5
3BA
330
1E
100
AcDbEntity
  8
0
  6
Continuous
 62
     3
100
AcDbLine
 10
-702.8838733187982
 20
-124.1521895653633
 30
0.0
 11
-691.8838733187982
 21
-124.0589692263632
 31
0.0
  0
LINE
  5
3BB
330
1E
100
AcDbEntity
  8
0
  6
Continuous
 62
     3
100
AcDbLine
 10
-702.8838733187982
 20
-122.1657488873632
 30
0.0
 11
-691.8838733187982
 21
-122.2589692263633
 31
0.0
  0
LINE
  5
3BC
330
1E
100
AcDbEntity
  8
0
  6
Continuous
 62
     3
100
AcDbLine
 10
-702.8838733187982
 20
-120.6521895653632
 30
0.0
 11
-691.8838733187982
 21
-120.5589692263632
 31
0.0
  0
LINE
  5
3BD
330
1E
100
AcDbEntity
  8
0
  6
Continuous
 62
     3
100
AcDbLine
 10
-702.8838733187982
 20
-118.6657488873632
 30
0.0
 11
-691.8838733187982
 21
-118.7589692263632
 31
0.0
  0
LINE
  5
3BE
330
1E
100
AcDbEntity
  8
0
  6
Continuous
 62
     3
100
AcDbLine
 10
-702.8838733187982
 20
-117.1521895653633
 30
0.0
 11
-691.8838733187982
 21
-117.0589692263632
 31
0.0
  0
LINE
  5
3BF
330
1E
100
AcDbEntity
  8
0
  6
Continuous
 62
     3
100
AcDbLine
 10
-702.8838733187982
 20
-115.1657488873633
 30
0.0
 11
-691.8838733187982
 21
-115.2589692263632
 31
0.0
  0
LINE
  5
3C0
330
1E
100
AcDbEntity
  8
0
  6
Continuous
 62
     3
100
AcDbLine
 10
-702.8838733187982
 20
-113.6521895653632
 30
0.0
 11
-691.8838733187982
 21
-113.5589692263632
 31
0.0
  0
LINE
  5
3C1
330
1E
100
AcDbEntity
  8
0
  6
Continuous
 62
     3
100
AcDbLine
 10
-702.8838733187982
 20
-111.6657488873632
 30
0.0
 11
-691.8838733187982
 21
-111.7589692263633
 31
0.0
  0
LINE
  5
3C2
330
1E
100
AcDbEntity
  8
0
  6
Continuous
 62
     3
100
AcDbLine
 10
-702.8838733187982
 20
-110.1521895653633
 30
0.0
 11
-691.8838733187982
 21
-110.0589692263632
 31
0.0
  0
LINE
  5
3C3
330
1E
100
AcDbEntity
  8
0
  6
Continuous
 62
     3
100
AcDbLine
 10
-702.8838733187982
 20
-108.1657488873632
 30
0.0
 11
-691.8838733187982
 21
-108.2589692263632
 31
0.0
  0
LINE
  5
3C4
330
1E
100
AcDbEntity
  8
0
  6
Continuous
 62
     3
100
AcDbLine
 10
-702.8838733187982
 20
-106.6521895653633
 30
0.0
 11
-691.8838733187982
 21
-106.5589692263632
 31
0.0
  0
LINE
  5
3C5
330
1E
100
AcDbEntity
  8
0
  6
Continuous
 62
     3
100
AcDbLine
 10
-702.8838733187982
 20
-104.6657488873632
 30
0.0
 11
-691.8838733187982
 21
-104.7589692263632
 31
0.0
  0
POINT
  5
3C6
330
1E
100
AcDbEntity
  8
0
  6
Continuous
 62
     3
100
AcDbPoint
 10
-566.7988733177982
 20
-199.0089692193632
 30
0.0
  0
LINE
  5
3C7
330
1E
100
AcDbEntity
  8
0
  6
Continuous
 62
     3
100
AcDbLine
 10
-563.949762466798
 20
-201.9997742053633
 30
0.0
 11
-563.7988733177982
 21
-218.4089692193632
 31
0.0
  0
ARC
  5
3C8
330
1E
100
AcDbEntity
  8
0
  6
Continuous
 62
     3
100
AcDbCircle
 10
-656.6480264427982
 20
-202.0089692193632
 30
0.0
 40
1.0
100
AcDbArc
 50
90.0
 51
179.4731571059999
  0
LINE
  5
3C9
330
1E
100
AcDbEntity
  8
0
  6
Continuous
 62
     3
100
AcDbLine
 10
-628.3988733177982
 20
-213.9089692193632
 30
0.0
 11
-628.7988733177982
 21
-218.4089692193632
 31
0.0
  0
LINE
  5
3CA
330
1E
100
AcDbEntity
  8
0
  6
Continuous
 62
     3
100
AcDbLine
 10
-593.1988733177981
 20
-213.9089692193632
 30
0.0
 11
-592.7988733177982
 21
-218.4089692193632
 31
0.0
  0
LINE
  5
3CB
330
1E
100
AcDbEntity
  8
0
  6
Continuous
 62
     3
100
AcDbLine
 10
-593.1988733177981
 20
-213.9089692193632
 30
0.0
 11
-628.3988733177982
 21
-213.9089692193632
 31
0.0
  0
LINE
  5
3CC
330
1E
100
AcDbEntity
  8
0
  6
Continuous
 62
     3
100
AcDbLine
 10
-656.2988733177982
 20
-199.5089692193632
 30
0.0
 11
-656.2988733177982
 21
-201.0089692193632
 31
0.0
  0
ARC
  5
3CD
330
1E
100
AcDbEntity
  8
0
  6
Continuous
 62
     3
100
AcDbCircle
 10
-655.7988733177982
 20
-199.5089692193632
 30
0.0
 40
0.5
100
AcDbArc
 50
89.99989071700003
 51
180.0
  0
LINE
  5
3CE
330
1E
100
AcDbEntity
  8
0
  6
Continuous
 62
     3
100
AcDbLine
 10
-565.2988733177982
 20
-201.0089692193632
 30
0.0
 11
-565.2988733177982
 21
-199.5089692193632
 31
0.0
  0
ARC
  5
3CF
330
1E
100
AcDbEntity
  8
0
  6
Continuous
 62
     3
100
AcDbCircle
 10
-565.7988733177981
 20
-199.5089692193632
 30
0.0
 40
0.5
100
AcDbArc
 50
0.0
 51
90.0
  0
LINE
  5
3D0
330
1E
100
AcDbEntity
  8
0
  6
Continuous
 62
     3
100
AcDbLine
 10
-566.7988733177982
 20
-199.0089692193632
 30
0.0
 11
-566.7988733177982
 21
-201.0089692193632
 31
0.0
  0
LINE
  5
3D1
330
1E
100
AcDbEntity
  8
0
  6
Continuous
 62
     3
100
AcDbLine
 10
-565.7988733177981
 20
-199.0089692193632
 30
0.0
 11
-566.7988733177982
 21
-199.0089692193632
 31
0.0
  0
POINT
  5
3D2
330
1E
100
AcDbEntity
  8
0
  6
Continuous
 62
     3
100
AcDbPoint
 10
-654.7988733177982
 20
-199.0089692193632
 30
0.0
  0
LINE
  5
3D3
330
1E
100
AcDbEntity
  8
0
  6
Continuous
 62
     3
100
AcDbLine
 10
-654.7988733177982
 20
-199.0089692193632
 30
0.0
 11
-654.7988733177982
 21
-201.0089692193632
 31
0.0
  0
LINE
  5
3D4
330
1E
100
AcDbEntity
  8
0
  6
Continuous
 62
     3
100
AcDbLine
 10
-655.7988733177982
 20
-199.0089692193632
 30
0.0
 11
-654.7988733177982
 21
-199.0089692193632
 31
0.0
  0
LINE
  5
3D5
330
1E
100
AcDbEntity
  8
0
  6
Continuous
 62
     1
100
AcDbLine
 10
-593.1988733177981
 20
-213.9089692193632
 30
0.0
 11
-628.3988733177982
 21
-213.9089692203632
 31
0.0
  0
LINE
  5
3D6
330
1E
100
AcDbEntity
  8
0
  6
Continuous
 62
     1
100
AcDbLine
 10
-594.7138733177982
 20
-215.9089692193632
 30
0.0
 11
-594.7138733177982
 21
-215.4089692193632
 31
0.0
  0
LINE
  5
3D7
330
1E
100
AcDbEntity
  8
0
  6
Continuous
 62
     1
100
AcDbLine
 10
-593.2138733177981
 20
-215.2089692193633
 30
0.0
 11
-593.2138733177981
 21
-214.1089692193633
 31
0.0
  0
LINE
  5
3D8
330
1E
100
AcDbEntity
  8
0
  6
Continuous
 62
     1
100
AcDbLine
 10
-592.7988733177982
 20
-218.4089692193632
 30
0.0
 11
-593.1988733177981
 21
-213.9089692193632
 31
0.0
  0
LINE
  5
3D9
330
1E
100
AcDbEntity
  8
0
  6
Continuous
 62
     1
100
AcDbLine
 10
-594.7138733177982
 20
-215.4089692193632
 30
0.0
 11
-593.2138733177981
 21
-215.2089692193633
 31
0.0
  0
LINE
  5
3DA
330
1E
100
AcDbEntity
  8
0
  6
Continuous
 62
     1
100
AcDbLine
 10
-626.7988733177982
 20
-215.1089692203632
 30
0.0
 11
-628.4093467347982
 21
-215.1089692203632
 31
0.0
  0
LINE
  5
3DB
330
1E
100
AcDbEntity
  8
0
  6
Continuous
 62
     1
100
AcDbLine
 10
-628.4093467347982
 20
-215.1089692203632
 30
0.0
 11
-628.3988733177982
 21
-213.9089692203632
 31
0.0
  0
LINE
  5
3DC
330
1E
100
AcDbEntity
  8
0
  6
Continuous
 62
     1
100
AcDbLine
 10
-626.7988733177982
 20
-216.6089692203633
 30
0.0
 11
-626.7988733177982
 21
-215.1089692203632
 31
0.0
  0
LINE
  5
3DD
330
1E
100
AcDbEntity
  8
0
  6
Continuous
 62
     1
100
AcDbLine
 10
-628.4363988487982
 20
-218.2089692203633
 30
0.0
 11
-628.7810955397982
 21
-218.2089692203633
 31
0.0
  0
LINE
  5
3DE
330
1E
100
AcDbEntity
  8
0
  6
Continuous
 62
     1
100
AcDbLine
 10
-628.3988733177982
 20
-213.9089692203632
 30
0.0
 11
-628.7988733177982
 21
-218.4089692203633
 31
0.0
  0
LINE
  5
3DF
330
1E
100
AcDbEntity
  8
0
  6
Continuous
 62
     1
100
AcDbLine
 10
-628.4363988487982
 20
-218.2089692203633
 30
0.0
 11
-626.7988733177982
 21
-216.6089692203633
 31
0.0
  0
LINE
  5
3E0
330
1E
100
AcDbEntity
  8
0
  6
Continuous
 62
     3
100
AcDbLine
 10
-566.8093467347983
 20
-193.5089692203632
 30
0.0
 11
-565.8093467347982
 21
-193.5089692203632
 31
0.0
  0
LINE
  5
3E1
330
1E
100
AcDbEntity
  8
0
  6
Continuous
 62
     3
100
AcDbLine
 10
-576.1093467347982
 20
-191.7089692203632
 30
0.0
 11
-565.8093467347982
 21
-191.7089692203632
 31
0.0
  0
LINE
  5
3E2
330
1E
100
AcDbEntity
  8
0
  6
Continuous
 62
     3
100
AcDbLine
 10
-566.8093467347983
 20
-198.4089692203633
 30
0.0
 11
-569.3093467347982
 21
-198.4089692203633
 31
0.0
  0
LINE
  5
3E3
330
1E
100
AcDbEntity
  8
0
  6
Continuous
 62
     3
100
AcDbLine
 10
-574.6093467347982
 20
-191.7089692203632
 30
0.0
 11
-574.6093467347982
 21
-190.4089692203632
 31
0.0
  0
LINE
  5
3E4
330
1E
100
AcDbEntity
  8
0
  6
Continuous
 62
     3
100
AcDbLine
 10
-574.6093467347982
 20
-190.4089692203632
 30
0.0
 11
-573.6093467347982
 21
-190.4089692203632
 31
0.0
  0
LINE
  5
3E5
330
1E
100
AcDbEntity
  8
0
  6
Continuous
 62
     3
100
AcDbLine
 10
-573.6093467347982
 20
-190.4089692203632
 30
0.0
 11
-573.6093467347982
 21
-191.7089692203632
 31
0.0
  0
LINE
  5
3E6
330
1E
100
AcDbEntity
  8
0
  6
Continuous
 62
     3
100
AcDbLine
 10
-565.8093467347982
 20
-193.5089692203632
 30
0.0
 11
-565.8093467347982
 21
-191.7089692203632
 31
0.0
  0
LINE
  5
3E7
330
1E
100
AcDbEntity
  8
0
  6
LTYPE1
 62
     3
100
AcDbLine
 10
-575.6093467347982
 20
-191.7089692203632
 30
0.0
 11
-575.6093467347982
 21
-188.7089692203632
 31
0.0
  0
LINE
  5
3E8
330
1E
100
AcDbEntity
  8
0
  6
LTYPE1
 62
     3
100
AcDbLine
 10
-575.6093467347982
 20
-188.7089692203632
 30
0.0
 11
-565.8093467347982
 21
-188.7089692203632
 31
0.0
  0
LINE
  5
3E9
330
1E
100
AcDbEntity
  8
0
  6
LTYPE1
 62
     3
100
AcDbLine
 10
-565.8093467347982
 20
-188.7089692203632
 30
0.0
 11
-564.8093467347982
 21
-189.0089692203632
 31
0.0
  0
LINE
  5
3EA
330
1E
100
AcDbEntity
  8
0
  6
LTYPE1
 62
     3
100
AcDbLine
 10
-564.8093467347982
 20
-193.7089692203633
 30
0.0
 11
-564.8093467347982
 21
-189.0089692203632
 31
0.0
  0
LINE
  5
3EB
330
1E
100
AcDbEntity
  8
0
  6
LTYPE1
 62
     3
100
AcDbLine
 10
-566.8093467347983
 20
-193.7089692203633
 30
0.0
 11
-564.8093467347982
 21
-193.7089692203633
 31
0.0
  0
LINE
  5
3EC
330
1E
100
AcDbEntity
  8
0
  6
Continuous
 62
     3
100
AcDbLine
 10
-574.1093467347982
 20
-198.4089692203633
 30
0.0
 11
-574.1093467347982
 21
-201.0089692193632
 31
0.0
  0
LINE
  5
3ED
330
1E
100
AcDbEntity
  8
0
  6
Continuous
 62
     3
100
AcDbLine
 10
-569.3093467347982
 20
-198.4089692203633
 30
0.0
 11
-569.3093467347982
 21
-201.0089692193632
 31
0.0
  0
LINE
  5
3EE
330
1E
100
AcDbEntity
  8
0
  6
Continuous
 62
     3
100
AcDbLine
 10
-566.8093467347983
 20
-201.0089692193632
 30
0.0
 11
-566.8093467347983
 21
-193.5089692203632
 31
0.0
  0
LINE
  5
3EF
330
1E
100
AcDbEntity
  8
0
  6
Continuous
 62
     3
100
AcDbLine
 10
-576.1093467347982
 20
-191.7089692203632
 30
0.0
 11
-576.1093467347982
 21
-196.0089692193632
 31
0.0
  0
LINE
  5
3F0
330
1E
100
AcDbEntity
  8
0
  6
Continuous
 62
     3
100
AcDbLine
 10
-566.8093467347983
 20
-198.4089692203633
 30
0.0
 11
-574.4488733177981
 21
-198.4089692203633
 31
0.0
  0
LINE
  5
3F1
330
1E
100
AcDbEntity
  8
0
  6
Continuous
 62
     3
100
AcDbLine
 10
-575.1093467347982
 20
-191.7089692203632
 30
0.0
 11
-575.1093467347982
 21
-196.0089692193632
 31
0.0
  0
ARC
  5
3F2
330
1E
100
AcDbEntity
  8
0
  6
Continuous
 62
     1
100
AcDbCircle
 10
-656.6435503877982
 20
-202.0089692193632
 30
0.0
 40
1.0
100
AcDbArc
 50
90.0
 51
180.0
  0
POINT
  5
3F3
330
1E
100
AcDbEntity
  8
0
  6
Continuous
 62
     3
100
AcDbPoint
 10
-654.7988733177982
 20
-199.0089692193632
 30
0.0
  0
ARC
  5
3F4
330
1E
100
AcDbEntity
  8
0
  6
Continuous
 62
     3
100
AcDbCircle
 10
-656.6480264427982
 20
-202.0089692193632
 30
0.0
 40
1.0
100
AcDbArc
 50
90.0
 51
179.4731571059999
  0
LINE
  5
3F5
330
1E
100
AcDbEntity
  8
0
  6
Continuous
 62
     3
100
AcDbLine
 10
-656.2988733177982
 20
-201.0089692193632
 30
0.0
 11
-656.2988733177982
 21
-199.5089692193632
 31
0.0
  0
ARC
  5
3F6
330
1E
100
AcDbEntity
  8
0
  6
Continuous
 62
     3
100
AcDbCircle
 10
-655.7988733177982
 20
-199.5089692193632
 30
0.0
 40
0.5
100
AcDbArc
 50
90.0
 51
180.0
  0
LINE
  5
3F7
330
1E
100
AcDbEntity
  8
0
  6
Continuous
 62
     3
100
AcDbLine
 10
-654.7988733177982
 20
-199.0089692193632
 30
0.0
 11
-654.7988733177982
 21
-201.0089692193632
 31
0.0
  0
LINE
  5
3F8
330
1E
100
AcDbEntity
  8
0
  6
Continuous
 62
     3
100
AcDbLine
 10
-655.7988733177982
 20
-199.0089692193632
 30
0.0
 11
-654.7988733177982
 21
-199.0089692193632
 31
0.0
  0
LINE
  5
3F9
330
1E
100
AcDbEntity
  8
0
  6
Continuous
 62
     3
100
AcDbLine
 10
-654.7883999007981
 20
-193.5089692203632
 30
0.0
 11
-655.7883999007981
 21
-193.5089692203632
 31
0.0
  0
LINE
  5
3FA
330
1E
100
AcDbEntity
  8
0
  6
Continuous
 62
     3
100
AcDbLine
 10
-645.4883999007981
 20
-191.7089692203632
 30
0.0
 11
-655.7883999007981
 21
-191.7089692203632
 31
0.0
  0
LINE
  5
3FB
330
1E
100
AcDbEntity
  8
0
  6
Continuous
 62
     3
100
AcDbLine
 10
-654.7883999007981
 20
-198.4089692203633
 30
0.0
 11
-652.2883999007981
 21
-198.4089692203633
 31
0.0
  0
LINE
  5
3FC
330
1E
100
AcDbEntity
  8
0
  6
Continuous
 62
     3
100
AcDbLine
 10
-646.9883999007982
 20
-191.7089692203632
 30
0.0
 11
-646.9883999007982
 21
-190.4089692203632
 31
0.0
  0
LINE
  5
3FD
330
1E
100
AcDbEntity
  8
0
  6
Continuous
 62
     3
100
AcDbLine
 10
-646.9883999007982
 20
-190.4089692203632
 30
0.0
 11
-647.9883999007982
 21
-190.4089692203632
 31
0.0
  0
LINE
  5
3FE
330
1E
100
AcDbEntity
  8
0
  6
Continuous
 62
     3
100
AcDbLine
 10
-647.9883999007982
 20
-190.4089692203632
 30
0.0
 11
-647.9883999007982
 21
-191.7089692203632
 31
0.0
  0
LINE
  5
3FF
330
1E
100
AcDbEntity
  8
0
  6
Continuous
 62
     3
100
AcDbLine
 10
-655.7883999007981
 20
-193.5089692203632
 30
0.0
 11
-655.7883999007981
 21
-191.7089692203632
 31
0.0
  0
LINE
  5
400
330
1E
100
AcDbEntity
  8
0
  6
LTYPE1
 62
     3
100
AcDbLine
 10
-645.9883999007981
 20
-191.7089692203632
 30
0.0
 11
-645.9883999007981
 21
-188.7089692203632
 31
0.0
  0
LINE
  5
401
330
1E
100
AcDbEntity
  8
0
  6
LTYPE1
 62
     3
100
AcDbLine
 10
-645.9883999007981
 20
-188.7089692203632
 30
0.0
 11
-655.7883999007981
 21
-188.7089692203632
 31
0.0
  0
LINE
  5
402
330
1E
100
AcDbEntity
  8
0
  6
LTYPE1
 62
     3
100
AcDbLine
 10
-655.7883999007981
 20
-188.7089692203632
 30
0.0
 11
-656.7883999007981
 21
-189.0089692203632
 31
0.0
  0
LINE
  5
403
330
1E
100
AcDbEntity
  8
0
  6
LTYPE1
 62
     3
100
AcDbLine
 10
-656.7883999007981
 20
-193.7089692203633
 30
0.0
 11
-656.7883999007981
 21
-189.0089692203632
 31
0.0
  0
LINE
  5
404
330
1E
100
AcDbEntity
  8
0
  6
LTYPE1
 62
     3
100
AcDbLine
 10
-654.7883999007981
 20
-193.7089692203633
 30
0.0
 11
-656.7883999007981
 21
-193.7089692203633
 31
0.0
  0
LINE
  5
405
330
1E
100
AcDbEntity
  8
0
  6
Continuous
 62
     3
100
AcDbLine
 10
-654.7988733177982
 20
-201.0089692193632
 30
0.0
 11
-656.6480264427982
 21
-201.0089692193632
 31
0.0
  0
LINE
  5
406
330
1E
100
AcDbEntity
  8
0
  6
Continuous
 62
     3
100
AcDbLine
 10
-643.1841994047982
 20
-201.0089692193632
 30
0.0
 11
-654.7988733177982
 21
-201.0089692193632
 31
0.0
  0
LINE
  5
407
330
1E
100
AcDbEntity
  8
0
  6
Continuous
 62
     3
100
AcDbLine
 10
-647.4883999007982
 20
-198.4089692203633
 30
0.0
 11
-647.4883999007982
 21
-201.0089692193632
 31
0.0
  0
LINE
  5
408
330
1E
100
AcDbEntity
  8
0
  6
Continuous
 62
     3
100
AcDbLine
 10
-652.2883999007981
 20
-198.4089692203633
 30
0.0
 11
-652.2883999007981
 21
-201.0089692193632
 31
0.0
  0
LINE
  5
409
330
1E
100
AcDbEntity
  8
0
  6
Continuous
 62
     3
100
AcDbLine
 10
-654.7883999007981
 20
-201.0089692193632
 30
0.0
 11
-654.7883999007981
 21
-193.5089692203632
 31
0.0
  0
LINE
  5
40A
330
1E
100
AcDbEntity
  8
0
  6
Continuous
 62
     3
100
AcDbLine
 10
-645.4883999007981
 20
-191.7089692203632
 30
0.0
 11
-645.4883999007981
 21
-196.0089692193632
 31
0.0
  0
LINE
  5
40B
330
1E
100
AcDbEntity
  8
0
  6
Continuous
 62
     3
100
AcDbLine
 10
-654.7883999007981
 20
-198.4089692203633
 30
0.0
 11
-647.1488733177982
 21
-198.4089692203633
 31
0.0
  0
LINE
  5
40C
330
1E
100
AcDbEntity
  8
0
  6
Continuous
 62
     3
100
AcDbLine
 10
-646.4883999007981
 20
-191.7089692203632
 30
0.0
 11
-646.4883999007981
 21
-196.0089692193632
 31
0.0
  0
LINE
  5
40D
330
1E
100
AcDbEntity
  8
0
  6
Continuous
 62
     3
100
AcDbLine
 10
-643.1488733177982
 20
-196.0089692193632
 30
0.0
 11
-646.6488733177982
 21
-196.0089692193632
 31
0.0
  0
LINE
  5
40E
330
1E
100
AcDbEntity
  8
0
  6
Continuous
 62
     3
100
AcDbLine
 10
-642.9888733167981
 20
-125.7589692263632
 30
0.0
 11
-641.1888733167982
 21
-125.7589692263632
 31
0.0
  0
LINE
  5
40F
330
1E
100
AcDbEntity
  8
0
  6
Continuous
 62
     3
100
AcDbLine
 10
-641.1888733167982
 20
-124.0589692263632
 30
0.0
 11
-642.9888733167981
 21
-124.0589692263632
 31
0.0
  0
LINE
  5
410
330
1E
100
AcDbEntity
  8
0
  6
Continuous
 62
     3
100
AcDbLine
 10
-642.9888733167981
 20
-129.2589692263632
 30
0.0
 11
-641.1888733167982
 21
-129.2589692263632
 31
0.0
  0
LINE
  5
411
330
1E
100
AcDbEntity
  8
0
  6
Continuous
 62
     3
100
AcDbLine
 10
-641.1888733167982
 20
-127.5589692263632
 30
0.0
 11
-642.9888733167981
 21
-127.5589692263632
 31
0.0
  0
LINE
  5
412
330
1E
100
AcDbEntity
  8
0
  6
Continuous
 62
     3
100
AcDbLine
 10
-642.9888733167981
 20
-132.7589692263632
 30
0.0
 11
-641.1888733167982
 21
-132.7589692263632
 31
0.0
  0
LINE
  5
413
330
1E
100
AcDbEntity
  8
0
  6
Continuous
 62
     3
100
AcDbLine
 10
-641.1888733167982
 20
-131.0589692263632
 30
0.0
 11
-642.9888733167981
 21
-131.0589692263632
 31
0.0
  0
LINE
  5
414
330
1E
100
AcDbEntity
  8
0
  6
Continuous
 62
     3
100
AcDbLine
 10
-642.9888733167981
 20
-122.2589692263633
 30
0.0
 11
-641.1888733167982
 21
-122.2589692263633
 31
0.0
  0
LINE
  5
415
330
1E
100
AcDbEntity
  8
0
  6
Continuous
 62
     3
100
AcDbLine
 10
-641.1888733167982
 20
-120.5589692263632
 30
0.0
 11
-642.9888733167981
 21
-120.5589692263632
 31
0.0
  0
LINE
  5
416
330
1E
100
AcDbEntity
  8
0
  6
Continuous
 62
     3
100
AcDbLine
 10
-641.1888733167982
 20
-118.7589692263632
 30
0.0
 11
-642.9888733167981
 21
-118.7589692263632
 31
0.0
  0
LINE
  5
417
330
1E
100
AcDbEntity
  8
0
  6
Continuous
 62
     3
100
AcDbLine
 10
-642.9888733167981
 20
-117.0589692263632
 30
0.0
 11
-641.1888733167982
 21
-117.0589692263632
 31
0.0
  0
LINE
  5
418
330
1E
100
AcDbEntity
  8
0
  6
Continuous
 62
     3
100
AcDbLine
 10
-642.9888733167981
 20
-113.5589692263632
 30
0.0
 11
-641.1888733167982
 21
-113.5589692263632
 31
0.0
  0
LINE
  5
419
330
1E
100
AcDbEntity
  8
0
  6
Continuous
 62
     3
100
AcDbLine
 10
-641.1888733167982
 20
-115.2589692263632
 30
0.0
 11
-642.9888733167981
 21
-115.2589692263632
 31
0.0
  0
LINE
  5
41A
330
1E
100
AcDbEntity
  8
0
  6
Continuous
 62
     3
100
AcDbLine
 10
-642.9888733167981
 20
-110.0589692263632
 30
0.0
 11
-641.1888733167982
 21
-110.0589692263632
 31
0.0
  0
LINE
  5
41B
330
1E
100
AcDbEntity
  8
0
  6
Continuous
 62
     3
100
AcDbLine
 10
-641.1888733167982
 20
-111.7589692263633
 30
0.0
 11
-642.9888733167981
 21
-111.7589692263633
 31
0.0
  0
LINE
  5
41C
330
1E
100
AcDbEntity
  8
0
  6
Continuous
 62
     3
100
AcDbLine
 10
-642.9888733167981
 20
-106.5589692263632
 30
0.0
 11
-641.1888733167982
 21
-106.5589692263632
 31
0.0
  0
LINE
  5
41D
330
1E
100
AcDbEntity
  8
0
  6
Continuous
 62
     3
100
AcDbLine
 10
-641.1888733167982
 20
-108.2589692263632
 30
0.0
 11
-642.9888733167981
 21
-108.2589692263632
 31
0.0
  0
LINE
  5
41E
330
1E
100
AcDbEntity
  8
0
  6
Continuous
 62
     3
100
AcDbLine
 10
-642.9888733167981
 20
-143.2589692263633
 30
0.0
 11
-641.1888733167982
 21
-143.2589692263633
 31
0.0
  0
LINE
  5
41F
330
1E
100
AcDbEntity
  8
0
  6
Continuous
 62
     3
100
AcDbLine
 10
-641.1888733167982
 20
-141.5589692263632
 30
0.0
 11
-642.9888733167981
 21
-141.5589692263632
 31
0.0
  0
LINE
  5
420
330
1E
100
AcDbEntity
  8
0
  6
Continuous
 62
     3
100
AcDbLine
 10
-642.9888733167981
 20
-139.7589692263632
 30
0.0
 11
-641.1888733167982
 21
-139.7589692263632
 31
0.0
  0
LINE
  5
421
330
1E
100
AcDbEntity
  8
0
  6
Continuous
 62
     3
100
AcDbLine
 10
-642.9888733167981
 20
-136.2589692263632
 30
0.0
 11
-641.1888733167982
 21
-136.2589692263632
 31
0.0
  0
LINE
  5
422
330
1E
100
AcDbEntity
  8
0
  6
Continuous
 62
     3
100
AcDbLine
 10
-641.1888733167982
 20
-138.0589692263632
 30
0.0
 11
-642.9888733167981
 21
-138.0589692263632
 31
0.0
  0
LINE
  5
423
330
1E
100
AcDbEntity
  8
0
  6
Continuous
 62
     3
100
AcDbLine
 10
-641.1888733167982
 20
-134.5589692263632
 30
0.0
 11
-642.9888733167981
 21
-134.5589692263632
 31
0.0
  0
LINE
  5
424
330
1E
100
AcDbEntity
  8
0
  6
Continuous
 62
     3
100
AcDbLine
 10
-641.1888733167982
 20
-143.2589692263633
 30
0.0
 11
-641.1888733167982
 21
-141.5589692263632
 31
0.0
  0
LINE
  5
425
330
1E
100
AcDbEntity
  8
0
  6
Continuous
 62
     3
100
AcDbLine
 10
-641.1888733167982
 20
-139.7589692263632
 30
0.0
 11
-641.1888733167982
 21
-138.0589692263632
 31
0.0
  0
LINE
  5
426
330
1E
100
AcDbEntity
  8
0
  6
Continuous
 62
     3
100
AcDbLine
 10
-641.1888733167982
 20
-125.7589692263632
 30
0.0
 11
-641.1888733167982
 21
-124.0589692263632
 31
0.0
  0
LINE
  5
427
330
1E
100
AcDbEntity
  8
0
  6
Continuous
 62
     3
100
AcDbLine
 10
-641.1888733167982
 20
-129.2589692263632
 30
0.0
 11
-641.1888733167982
 21
-127.5589692263632
 31
0.0
  0
LINE
  5
428
330
1E
100
AcDbEntity
  8
0
  6
Continuous
 62
     3
100
AcDbLine
 10
-641.1888733167982
 20
-132.7589692263632
 30
0.0
 11
-641.1888733167982
 21
-131.0589692263632
 31
0.0
  0
LINE
  5
429
330
1E
100
AcDbEntity
  8
0
  6
Continuous
 62
     3
100
AcDbLine
 10
-641.1888733167982
 20
-136.2589692263632
 30
0.0
 11
-641.1888733167982
 21
-134.5589692263632
 31
0.0
  0
LINE
  5
42A
330
1E
100
AcDbEntity
  8
0
  6
Continuous
 62
     3
100
AcDbLine
 10
-641.1888733167982
 20
-122.2589692263633
 30
0.0
 11
-641.1888733167982
 21
-120.5589692263632
 31
0.0
  0
LINE
  5
42B
330
1E
100
AcDbEntity
  8
0
  6
Continuous
 62
     3
100
AcDbLine
 10
-641.1888733167982
 20
-117.0589692263632
 30
0.0
 11
-641.1888733167982
 21
-118.7589692263632
 31
0.0
  0
LINE
  5
42C
330
1E
100
AcDbEntity
  8
0
  6
Continuous
 62
     3
100
AcDbLine
 10
-641.1888733167982
 20
-113.5589692263632
 30
0.0
 11
-641.1888733167982
 21
-115.2589692263632
 31
0.0
  0
LINE
  5
42D
330
1E
100
AcDbEntity
  8
0
  6
Continuous
 62
     3
100
AcDbLine
 10
-641.1888733167982
 20
-110.0589692263632
 30
0.0
 11
-641.1888733167982
 21
-111.7589692263633
 31
0.0
  0
LINE
  5
42E
330
1E
100
AcDbEntity
  8
0
  6
Continuous
 62
     3
100
AcDbLine
 10
-641.1888733167982
 20
-106.5589692263632
 30
0.0
 11
-641.1888733167982
 21
-108.2589692263632
 31
0.0
  0
LINE
  5
42F
330
1E
100
AcDbEntity
  8
0
  6
Continuous
 62
     3
100
AcDbLine
 10
-578.2888733167981
 20
-125.7589692263632
 30
0.0
 11
-580.0888733167981
 21
-125.7589692263632
 31
0.0
  0
LINE
  5
430
330
1E
100
AcDbEntity
  8
0
  6
Continuous
 62
     3
100
AcDbLine
 10
-580.0888733167981
 20
-124.0589692263632
 30
0.0
 11
-578.2888733167981
 21
-124.0589692263632
 31
0.0
  0
LINE
  5
431
330
1E
100
AcDbEntity
  8
0
  6
Continuous
 62
     3
100
AcDbLine
 10
-578.2888733167981
 20
-129.2589692263632
 30
0.0
 11
-580.0888733167981
 21
-129.2589692263632
 31
0.0
  0
LINE
  5
432
330
1E
100
AcDbEntity
  8
0
  6
Continuous
 62
     3
100
AcDbLine
 10
-578.2888733167981
 20
-132.7589692263632
 30
0.0
 11
-580.0888733167981
 21
-132.7589692263632
 31
0.0
  0
LINE
  5
433
330
1E
100
AcDbEntity
  8
0
  6
Continuous
 62
     3
100
AcDbLine
 10
-580.0888733167981
 20
-131.0589692263632
 30
0.0
 11
-578.2888733167981
 21
-131.0589692263632
 31
0.0
  0
LINE
  5
434
330
1E
100
AcDbEntity
  8
0
  6
Continuous
 62
     3
100
AcDbLine
 10
-578.2888733167981
 20
-122.2589692263633
 30
0.0
 11
-580.0888733167981
 21
-122.2589692263633
 31
0.0
  0
LINE
  5
435
330
1E
100
AcDbEntity
  8
0
  6
Continuous
 62
     3
100
AcDbLine
 10
-580.0888733167981
 20
-120.5589692263632
 30
0.0
 11
-578.2888733167981
 21
-120.5589692263632
 31
0.0
  0
LINE
  5
436
330
1E
100
AcDbEntity
  8
0
  6
Continuous
 62
     3
100
AcDbLine
 10
-580.0888733167981
 20
-118.7589692263632
 30
0.0
 11
-578.2888733167981
 21
-118.7589692263632
 31
0.0
  0
LINE
  5
437
330
1E
100
AcDbEntity
  8
0
  6
Continuous
 62
     3
100
AcDbLine
 10
-578.2888733167981
 20
-117.0589692263632
 30
0.0
 11
-580.0888733167981
 21
-117.0589692263632
 31
0.0
  0
LINE
  5
438
330
1E
100
AcDbEntity
  8
0
  6
Continuous
 62
     3
100
AcDbLine
 10
-578.2888733167981
 20
-113.5589692263632
 30
0.0
 11
-580.0888733167981
 21
-113.5589692263632
 31
0.0
  0
LINE
  5
439
330
1E
100
AcDbEntity
  8
0
  6
Continuous
 62
     3
100
AcDbLine
 10
-580.0888733167981
 20
-115.2589692263632
 30
0.0
 11
-578.2888733167981
 21
-115.2589692263632
 31
0.0
  0
LINE
  5
43A
330
1E
100
AcDbEntity
  8
0
  6
Continuous
 62
     3
100
AcDbLine
 10
-578.2888733167981
 20
-110.0589692263632
 30
0.0
 11
-580.0888733167981
 21
-110.0589692263632
 31
0.0
  0
LINE
  5
43B
330
1E
100
AcDbEntity
  8
0
  6
Continuous
 62
     3
100
AcDbLine
 10
-580.0888733167981
 20
-111.7589692263633
 30
0.0
 11
-578.2888733167981
 21
-111.7589692263633
 31
0.0
  0
LINE
  5
43C
330
1E
100
AcDbEntity
  8
0
  6
Continuous
 62
     3
100
AcDbLine
 10
-578.2888733167981
 20
-106.5589692263632
 30
0.0
 11
-580.0888733167981
 21
-106.5589692263632
 31
0.0
  0
LINE
  5
43D
330
1E
100
AcDbEntity
  8
0
  6
Continuous
 62
     3
100
AcDbLine
 10
-580.0888733167981
 20
-108.2589692263632
 30
0.0
 11
-578.2888733167981
 21
-108.2589692263632
 31
0.0
  0
LINE
  5
43E
330
1E
100
AcDbEntity
  8
0
  6
Continuous
 62
     3
100
AcDbLine
 10
-578.2888733167981
 20
-143.2589692263633
 30
0.0
 11
-580.0888733167981
 21
-143.2589692263633
 31
0.0
  0
LINE
  5
43F
330
1E
100
AcDbEntity
  8
0
  6
Continuous
 62
     3
100
AcDbLine
 10
-580.0888733167981
 20
-141.5589692263632
 30
0.0
 11
-578.2888733167981
 21
-141.5589692263632
 31
0.0
  0
LINE
  5
440
330
1E
100
AcDbEntity
  8
0
  6
Continuous
 62
     3
100
AcDbLine
 10
-578.2888733167981
 20
-139.7589692263632
 30
0.0
 11
-580.0888733167981
 21
-139.7589692263632
 31
0.0
  0
LINE
  5
441
330
1E
100
AcDbEntity
  8
0
  6
Continuous
 62
     3
100
AcDbLine
 10
-578.2888733167981
 20
-136.2589692263632
 30
0.0
 11
-580.0888733167981
 21
-136.2589692263632
 31
0.0
  0
LINE
  5
442
330
1E
100
AcDbEntity
  8
0
  6
Continuous
 62
     3
100
AcDbLine
 10
-580.0888733167981
 20
-138.0589692263632
 30
0.0
 11
-578.2888733167981
 21
-138.0589692263632
 31
0.0
  0
LINE
  5
443
330
1E
100
AcDbEntity
  8
0
  6
Continuous
 62
     3
100
AcDbLine
 10
-580.0888733167981
 20
-134.5589692263632
 30
0.0
 11
-578.2888733167981
 21
-134.5589692263632
 31
0.0
  0
LINE
  5
444
330
1E
100
AcDbEntity
  8
0
  6
Continuous
 62
     3
100
AcDbLine
 10
-580.0888733167981
 20
-143.2589692263633
 30
0.0
 11
-580.0888733167981
 21
-141.5589692263632
 31
0.0
  0
LINE
  5
445
330
1E
100
AcDbEntity
  8
0
  6
Continuous
 62
     3
100
AcDbLine
 10
-580.0888733167981
 20
-139.7589692263632
 30
0.0
 11
-580.0888733167981
 21
-138.0589692263632
 31
0.0
  0
LINE
  5
446
330
1E
100
AcDbEntity
  8
0
  6
Continuous
 62
     3
100
AcDbLine
 10
-580.0888733167981
 20
-125.7589692263632
 30
0.0
 11
-580.0888733167981
 21
-124.0589692263632
 31
0.0
  0
LINE
  5
447
330
1E
100
AcDbEntity
  8
0
  6
Continuous
 62
     3
100
AcDbLine
 10
-580.0888733167981
 20
-129.2589692263632
 30
0.0
 11
-580.0888733167981
 21
-127.5589692263632
 31
0.0
  0
LINE
  5
448
330
1E
100
AcDbEntity
  8
0
  6
Continuous
 62
     3
100
AcDbLine
 10
-580.0888733167981
 20
-132.7589692263632
 30
0.0
 11
-580.0888733167981
 21
-131.0589692263632
 31
0.0
  0
LINE
  5
449
330
1E
100
AcDbEntity
  8
0
  6
Continuous
 62
     3
100
AcDbLine
 10
-580.0888733167981
 20
-136.2589692263632
 30
0.0
 11
-580.0888733167981
 21
-134.5589692263632
 31
0.0
  0
LINE
  5
44A
330
1E
100
AcDbEntity
  8
0
  6
Continuous
 62
     3
100
AcDbLine
 10
-580.0888733167981
 20
-122.2589692263633
 30
0.0
 11
-580.0888733167981
 21
-120.5589692263632
 31
0.0
  0
LINE
  5
44B
330
1E
100
AcDbEntity
  8
0
  6
Continuous
 62
     3
100
AcDbLine
 10
-580.0888733167981
 20
-117.0589692263632
 30
0.0
 11
-580.0888733167981
 21
-118.7589692263632
 31
0.0
  0
LINE
  5
44C
330
1E
100
AcDbEntity
  8
0
  6
Continuous
 62
     3
100
AcDbLine
 10
-580.0888733167981
 20
-113.5589692263632
 30
0.0
 11
-580.0888733167981
 21
-115.2589692263632
 31
0.0
  0
LINE
  5
44D
330
1E
100
AcDbEntity
  8
0
  6
Continuous
 62
     3
100
AcDbLine
 10
-580.0888733167981
 20
-110.0589692263632
 30
0.0
 11
-580.0888733167981
 21
-111.7589692263633
 31
0.0
  0
LINE
  5
44E
330
1E
100
AcDbEntity
  8
0
  6
Continuous
 62
     3
100
AcDbLine
 10
-580.0888733167981
 20
-106.5589692263632
 30
0.0
 11
-580.0888733167981
 21
-108.2589692263632
 31
0.0
  0
LINE
  5
44F
330
1E
100
AcDbEntity
  8
0
  6
Continuous
 62
     3
100
AcDbLine
 10
-642.9888733167981
 20
-103.0589692263632
 30
0.0
 11
-641.1888733167982
 21
-103.0589692263632
 31
0.0
  0
LINE
  5
450
330
1E
100
AcDbEntity
  8
0
  6
Continuous
 62
     3
100
AcDbLine
 10
-641.1888733167982
 20
-104.7589692263632
 30
0.0
 11
-642.9888733167981
 21
-104.7589692263632
 31
0.0
  0
LINE
  5
451
330
1E
100
AcDbEntity
  8
0
  6
Continuous
 62
     3
100
AcDbLine
 10
-642.9888733167981
 20
-99.55896922636327
 30
0.0
 11
-641.1888733167982
 21
-99.55896922636327
 31
0.0
  0
LINE
  5
452
330
1E
100
AcDbEntity
  8
0
  6
Continuous
 62
     3
100
AcDbLine
 10
-641.1888733167982
 20
-101.2589692263632
 30
0.0
 11
-642.9888733167981
 21
-101.2589692263632
 31
0.0
  0
LINE
  5
453
330
1E
100
AcDbEntity
  8
0
  6
Continuous
 62
     3
100
AcDbLine
 10
-641.1888733167982
 20
-103.0589692263632
 30
0.0
 11
-641.1888733167982
 21
-104.7589692263632
 31
0.0
  0
LINE
  5
454
330
1E
100
AcDbEntity
  8
0
  6
Continuous
 62
     3
100
AcDbLine
 10
-641.1888733167982
 20
-99.55896922636327
 30
0.0
 11
-641.1888733167982
 21
-101.2589692263632
 31
0.0
  0
LINE
  5
455
330
1E
100
AcDbEntity
  8
0
  6
Continuous
 62
     3
100
AcDbLine
 10
-578.2888733167981
 20
-103.0589692263632
 30
0.0
 11
-580.0888733167981
 21
-103.0589692263632
 31
0.0
  0
LINE
  5
456
330
1E
100
AcDbEntity
  8
0
  6
Continuous
 62
     3
100
AcDbLine
 10
-580.0888733167981
 20
-104.7589692263632
 30
0.0
 11
-578.2888733167981
 21
-104.7589692263632
 31
0.0
  0
LINE
  5
457
330
1E
100
AcDbEntity
  8
0
  6
Continuous
 62
     3
100
AcDbLine
 10
-578.2888733167981
 20
-99.55896922636327
 30
0.0
 11
-580.0888733167981
 21
-99.55896922636327
 31
0.0
  0
LINE
  5
458
330
1E
100
AcDbEntity
  8
0
  6
Continuous
 62
     3
100
AcDbLine
 10
-580.0888733167981
 20
-101.2589692263632
 30
0.0
 11
-578.2888733167981
 21
-101.2589692263632
 31
0.0
  0
LINE
  5
459
330
1E
100
AcDbEntity
  8
0
  6
Continuous
 62
     3
100
AcDbLine
 10
-580.0888733167981
 20
-103.0589692263632
 30
0.0
 11
-580.0888733167981
 21
-104.7589692263632
 31
0.0
  0
LINE
  5
45A
330
1E
100
AcDbEntity
  8
0
  6
Continuous
 62
     3
100
AcDbLine
 10
-580.0888733167981
 20
-99.55896922636327
 30
0.0
 11
-580.0888733167981
 21
-101.2589692263632
 31
0.0
  0
ARC
  5
45B
330
1E
100
AcDbEntity
  8
0
  6
Continuous
 62
     3
100
AcDbCircle
 10
-639.8388733167982
 20
-99.75896922636326
 30
0.0
 40
0.5
100
AcDbArc
 50
90.0
 51
180.0
  0
ARC
  5
45C
330
1E
100
AcDbEntity
  8
0
  6
Continuous
 62
     3
100
AcDbCircle
 10
-639.8388733167982
 20
-143.0589692263632
 30
0.0
 40
0.5
100
AcDbArc
 50
180.0
 51
270.0
  0
LINE
  5
45D
330
1E
100
AcDbEntity
  8
0
  6
Continuous
 62
     3
100
AcDbLine
 10
-640.3388733167981
 20
-99.75896922636326
 30
0.0
 11
-640.3388733167981
 21
-143.0589692263632
 31
0.0
  0
ARC
  5
45E
330
1E
100
AcDbEntity
  8
0
  6
Continuous
 62
     3
100
AcDbCircle
 10
-581.4388733167982
 20
-143.0589692263632
 30
0.0
 40
0.5
100
AcDbArc
 50
270.0
 51
0.0
  0
LINE
  5
45F
330
1E
100
AcDbEntity
  8
0
  6
Continuous
 62
     3
100
AcDbLine
 10
-639.8388733167982
 20
-143.5589692263632
 30
0.0
 11
-581.4388733167982
 21
-143.5589692263632
 31
0.0
  0
LINE
  5
460
330
1E
100
AcDbEntity
  8
0
  6
Continuous
 62
     3
100
AcDbLine
 10
-580.9388733167982
 20
-104.2589692263632
 30
0.0
 11
-580.9388733167982
 21
-143.0589692263632
 31
0.0
  0
LINE
  5
461
330
1E
100
AcDbEntity
  8
0
  6
Continuous
 62
     3
100
AcDbLine
 10
-585.9388733167982
 20
-99.25896922636326
 30
0.0
 11
-639.8388733167982
 21
-99.25896922636326
 31
0.0
  0
LINE
  5
462
330
1E
100
AcDbEntity
  8
0
  6
Continuous
 62
     3
100
AcDbLine
 10
-580.9388733167982
 20
-104.2589692263632
 30
0.0
 11
-585.9388733167982
 21
-99.25896922636326
 31
0.0
  0
LINE
  5
463
330
1E
100
AcDbEntity
  8
0
  6
Continuous
 62
     3
100
AcDbLine
 10
-565.1388733167983
 20
-131.0089692263632
 30
0.0
 11
-565.1388733167983
 21
-121.4089692263632
 31
0.0
  0
LINE
  5
464
330
1E
100
AcDbEntity
  8
0
  6
Continuous
 62
     3
100
AcDbLine
 10
-568.1388733167982
 20
-101.3589692263632
 30
0.0
 11
-568.1388733167982
 21
-102.3589692263632
 31
0.0
  0
LINE
  5
465
330
1E
100
AcDbEntity
  8
0
  6
Continuous
 62
     3
100
AcDbLine
 10
-568.1388733167982
 20
-102.3589692263632
 30
0.0
 11
-570.6388733167982
 21
-102.3589692263632
 31
0.0
  0
LINE
  5
466
330
1E
100
AcDbEntity
  8
0
  6
Continuous
 62
     3
100
AcDbLine
 10
-574.1388733167982
 20
-101.3589692263632
 30
0.0
 11
-574.1388733167982
 21
-102.8589692263632
 31
0.0
  0
LINE
  5
467
330
1E
100
AcDbEntity
  8
0
  6
Continuous
 62
     3
100
AcDbLine
 10
-573.1388733167982
 20
-101.3589692263632
 30
0.0
 11
-573.1388733167982
 21
-102.3589692263632
 31
0.0
  0
LINE
  5
468
330
1E
100
AcDbEntity
  8
0
  6
Continuous
 62
     3
100
AcDbLine
 10
-573.1388733167982
 20
-102.3589692263632
 30
0.0
 11
-570.6388733167982
 21
-102.3589692263632
 31
0.0
  0
LINE
  5
469
330
1E
100
AcDbEntity
  8
0
  6
Continuous
 62
     3
100
AcDbLine
 10
-568.1388733167982
 20
-141.4589692263632
 30
0.0
 11
-568.1388733167982
 21
-140.4589692263632
 31
0.0
  0
LINE
  5
46A
330
1E
100
AcDbEntity
  8
0
  6
Continuous
 62
     3
100
AcDbLine
 10
-568.1388733167982
 20
-140.4589692263632
 30
0.0
 11
-570.6388733167982
 21
-140.4589692263632
 31
0.0
  0
LINE
  5
46B
330
1E
100
AcDbEntity
  8
0
  6
Continuous
 62
     3
100
AcDbLine
 10
-573.1388733167982
 20
-141.4589692263632
 30
0.0
 11
-573.1388733167982
 21
-140.4589692263632
 31
0.0
  0
LINE
  5
46C
330
1E
100
AcDbEntity
  8
0
  6
Continuous
 62
     3
100
AcDbLine
 10
-573.1388733167982
 20
-140.4589692263632
 30
0.0
 11
-570.6388733167982
 21
-140.4589692263632
 31
0.0
  0
POINT
  5
46D
330
1E
100
AcDbEntity
  8
0
  6
Continuous
 62
     3
100
AcDbPoint
 10
-568.1388733167982
 20
-141.4589692263632
 30
0.0
  0
LINE
  5
46E
330
1E
100
AcDbEntity
  8
0
  6
Continuous
 62
     3
100
AcDbLine
 10
-568.1388733167982
 20
-141.4589692263632
 30
0.0
 11
-568.1388733167982
 21
-140.4589692263632
 31
0.0
  0
LINE
  5
46F
330
1E
100
AcDbEntity
  8
0
  6
Continuous
 62
     3
100
AcDbLine
 10
-568.1388733167982
 20
-140.4589692263632
 30
0.0
 11
-573.1388733167982
 21
-140.4589692263632
 31
0.0
  0
LINE
  5
470
330
1E
100
AcDbEntity
  8
0
  6
Continuous
 62
     3
100
AcDbLine
 10
-573.1388733167982
 20
-140.4589692263632
 30
0.0
 11
-573.1388733167982
 21
-141.4589692263632
 31
0.0
  0
LINE
  5
471
330
1E
100
AcDbEntity
  8
0
  6
Continuous
 62
     3
100
AcDbLine
 10
-573.1388733167982
 20
-141.4589692263632
 30
0.0
 11
-574.1388733167982
 21
-141.4589692263632
 31
0.0
  0
LINE
  5
472
330
1E
100
AcDbEntity
  8
0
  6
Continuous
 62
     3
100
AcDbLine
 10
-567.1388733167982
 20
-141.4589692263632
 30
0.0
 11
-573.1388733167982
 21
-141.4589692263632
 31
0.0
  0
POINT
  5
473
330
1E
100
AcDbEntity
  8
0
  6
Continuous
 62
     3
100
AcDbPoint
 10
-568.1388733167982
 20
-101.3589692263632
 30
0.0
  0
LINE
  5
474
330
1E
100
AcDbEntity
  8
0
  6
Continuous
 62
     3
100
AcDbLine
 10
-568.1388733167982
 20
-101.3589692263632
 30
0.0
 11
-568.1388733167982
 21
-102.3589692263632
 31
0.0
  0
LINE
  5
475
330
1E
100
AcDbEntity
  8
0
  6
Continuous
 62
     3
100
AcDbLine
 10
-568.1388733167982
 20
-102.3589692263632
 30
0.0
 11
-573.1388733167982
 21
-102.3589692263632
 31
0.0
  0
LINE
  5
476
330
1E
100
AcDbEntity
  8
0
  6
Continuous
 62
     3
100
AcDbLine
 10
-573.1388733167982
 20
-102.3589692263632
 30
0.0
 11
-573.1388733167982
 21
-101.3589692263632
 31
0.0
  0
LINE
  5
477
330
1E
100
AcDbEntity
  8
0
  6
Continuous
 62
     3
100
AcDbLine
 10
-573.1388733167982
 20
-101.3589692263632
 30
0.0
 11
-574.1388733167982
 21
-101.3589692263632
 31
0.0
  0
LINE
  5
478
330
1E
100
AcDbEntity
  8
0
  6
Continuous
 62
     3
100
AcDbLine
 10
-567.1388733167982
 20
-101.3589692263632
 30
0.0
 11
-573.1388733167982
 21
-101.3589692263632
 31
0.0
  0
LINE
  5
479
330
1E
100
AcDbEntity
  8
0
  6
Continuous
 62
     3
100
AcDbLine
 10
-574.1388733167982
 20
-101.3589692263632
 30
0.0
 11
-574.1388733167982
 21
-102.9589692263632
 31
0.0
  0
LINE
  5
47A
330
1E
100
AcDbEntity
  8
0
  6
Continuous
 62
     3
100
AcDbLine
 10
-576.4888733167981
 20
-102.9589692263632
 30
0.0
 11
-574.1388733167982
 21
-102.9589692263632
 31
0.0
  0
LINE
  5
47B
330
1E
100
AcDbEntity
  8
0
  6
Continuous
 62
     3
100
AcDbLine
 10
-566.6388733167982
 20
-111.3089692263632
 30
0.0
 11
-566.1388733167982
 21
-111.3089692263632
 31
0.0
  0
LINE
  5
47C
330
1E
100
AcDbEntity
  8
0
  6
Continuous
 62
     3
100
AcDbLine
 10
-566.6388733167982
 20
-131.5089692263633
 30
0.0
 11
-566.1388733167982
 21
-131.5089692263633
 31
0.0
  0
LINE
  5
47D
330
1E
100
AcDbEntity
  8
0
  6
Continuous
 62
     3
100
AcDbLine
 10
-580.0888733167981
 20
-127.5589692263632
 30
0.0
 11
-578.2888733167981
 21
-127.5589692263632
 31
0.0
  0
LINE
  5
47E
330
1E
100
AcDbEntity
  8
0
  6
Continuous
 62
     3
100
AcDbLine
 10
-567.1888733167982
 20
-139.5589692263632
 30
0.0
 11
-576.4888733167981
 21
-139.5589692263632
 31
0.0
  0
LINE
  5
47F
330
1E
100
AcDbEntity
  8
0
  6
Continuous
 62
     3
100
AcDbLine
 10
-576.4888733167981
 20
-139.5589692263632
 30
0.0
 11
-576.4888733167981
 21
-103.2589692263632
 31
0.0
  0
LINE
  5
480
330
1E
100
AcDbEntity
  8
0
  6
Continuous
 62
     3
100
AcDbLine
 10
-576.4888733167981
 20
-103.2589692263632
 30
0.0
 11
-567.1888733167982
 21
-103.2589692263632
 31
0.0
  0
LINE
  5
481
330
1E
100
AcDbEntity
  8
0
  6
Continuous
 62
     3
100
AcDbLine
 10
-567.1888733167982
 20
-139.5589692263632
 30
0.0
 11
-566.5888733167982
 21
-139.5589692263632
 31
0.0
  0
LINE
  5
482
330
1E
100
AcDbEntity
  8
0
  6
Continuous
 62
     3
100
AcDbLine
 10
-576.4888733167981
 20
-139.5589692263632
 30
0.0
 11
-575.288873316798
 21
-139.5589692263632
 31
0.0
  0
LINE
  5
483
330
1E
100
AcDbEntity
  8
0
  6
Continuous
 62
     3
100
AcDbLine
 10
-566.5888733167982
 20
-139.5589692263632
 30
0.0
 11
-566.5888733167982
 21
-120.6589692263632
 31
0.0
  0
LINE
  5
484
330
1E
100
AcDbEntity
  8
0
  6
Continuous
 62
     3
100
AcDbLine
 10
-566.5888733167982
 20
-104.7589692263632
 30
0.0
 11
-566.5888733167982
 21
-103.2589692263632
 31
0.0
  0
LINE
  5
485
330
1E
100
AcDbEntity
  8
0
  6
Continuous
 62
     3
100
AcDbLine
 10
-566.5888733167982
 20
-113.4589692263632
 30
0.0
 11
-566.5888733167982
 21
-111.9589692263632
 31
0.0
  0
LINE
  5
486
330
1E
100
AcDbEntity
  8
0
  6
Continuous
 62
     3
100
AcDbLine
 10
-566.5888733167982
 20
-103.2589692263632
 30
0.0
 11
-567.1888733167982
 21
-103.2589692263632
 31
0.0
  0
LINE
  5
487
330
1E
100
AcDbEntity
  8
0
  6
Continuous
 62
     3
100
AcDbLine
 10
-574.9888733167981
 20
-134.4589692263632
 30
0.0
 11
-574.9888733167981
 21
-137.4589692263632
 31
0.0
  0
LINE
  5
488
330
1E
100
AcDbEntity
  8
0
  6
Continuous
 62
     3
100
AcDbLine
 10
-574.9888733167981
 20
-131.4589692263632
 30
0.0
 11
-574.9888733167981
 21
-134.9589692263632
 31
0.0
  0
CIRCLE
  5
489
330
1E
100
AcDbEntity
  8
0
  6
Continuous
 62
     3
100
AcDbCircle
 10
-571.9888733167981
 20
-134.4589692263632
 30
0.0
 40
2.9
  0
LINE
  5
48A
330
1E
100
AcDbEntity
  8
0
  6
Continuous
 62
     3
100
AcDbLine
 10
-567.1888733167982
 20
-139.5589692263632
 30
0.0
 11
-567.1888733167982
 21
-103.2589692263632
 31
0.0
  0
LINE
  5
48B
330
1E
100
AcDbEntity
  8
0
  6
Continuous
 62
     3
100
AcDbLine
 10
-576.4888733167981
 20
-139.5589692263632
 30
0.0
 11
-575.4888733167981
 21
-139.5589692263632
 31
0.0
  0
LINE
  5
48C
330
1E
100
AcDbEntity
  8
0
  6
Continuous
 62
     3
100
AcDbLine
 10
-566.5888733167982
 20
-130.8589692263632
 30
0.0
 11
-575.4888733167981
 21
-130.8589692263632
 31
0.0
  0
LINE
  5
48D
330
1E
100
AcDbEntity
  8
0
  6
Continuous
 62
     3
100
AcDbLine
 10
-566.5888733167982
 20
-129.3589692263632
 30
0.0
 11
-575.4888733167981
 21
-129.3589692263632
 31
0.0
  0
LINE
  5
48E
330
1E
100
AcDbEntity
  8
0
  6
Continuous
 62
     3
100
AcDbLine
 10
-566.5888733167982
 20
-122.1589692263632
 30
0.0
 11
-575.4888733167981
 21
-122.1589692263632
 31
0.0
  0
LINE
  5
48F
330
1E
100
AcDbEntity
  8
0
  6
Continuous
 62
     3
100
AcDbLine
 10
-566.5888733167982
 20
-120.6589692263632
 30
0.0
 11
-575.4888733167981
 21
-120.6589692263632
 31
0.0
  0
LINE
  5
490
330
1E
100
AcDbEntity
  8
0
  6
Continuous
 62
     3
100
AcDbLine
 10
-566.5888733167982
 20
-113.4589692263632
 30
0.0
 11
-575.4888733167981
 21
-113.4589692263632
 31
0.0
  0
LINE
  5
491
330
1E
100
AcDbEntity
  8
0
  6
Continuous
 62
     3
100
AcDbLine
 10
-566.5888733167982
 20
-111.9589692263632
 30
0.0
 11
-575.4888733167981
 21
-111.9589692263632
 31
0.0
  0
LINE
  5
492
330
1E
100
AcDbEntity
  8
0
  6
Continuous
 62
     3
100
AcDbLine
 10
-566.5888733167982
 20
-104.7589692263632
 30
0.0
 11
-575.4888733167981
 21
-104.7589692263632
 31
0.0
  0
LINE
  5
493
330
1E
100
AcDbEntity
  8
0
  6
Continuous
 62
     3
100
AcDbLine
 10
-574.9888733167981
 20
-137.4589692263632
 30
0.0
 11
-568.4888733167981
 21
-137.4589692263632
 31
0.0
  0
LINE
  5
494
330
1E
100
AcDbEntity
  8
0
  6
Continuous
 62
     3
100
AcDbLine
 10
-568.4888733167981
 20
-131.4589692263632
 30
0.0
 11
-574.9888733167981
 21
-131.4589692263632
 31
0.0
  0
LINE
  5
495
330
1E
100
AcDbEntity
  8
0
  6
Continuous
 62
     3
100
AcDbLine
 10
-568.4888733167981
 20
-137.4589692263632
 30
0.0
 11
-568.4888733167981
 21
-131.4589692263632
 31
0.0
  0
LINE
  5
496
330
1E
100
AcDbEntity
  8
0
  6
Continuous
 62
     3
100
AcDbLine
 10
-566.5888733167982
 20
-138.0589692263632
 30
0.0
 11
-575.4888733167981
 21
-138.0589692263632
 31
0.0
  0
LINE
  5
497
330
1E
100
AcDbEntity
  8
0
  6
Continuous
 62
     3
100
AcDbLine
 10
-575.4888733167981
 20
-138.0589692263632
 30
0.0
 11
-575.4888733167981
 21
-104.7589692263632
 31
0.0
  0
CIRCLE
  5
498
330
1E
100
AcDbEntity
  8
0
  6
Continuous
 62
     3
100
AcDbCircle
 10
-571.9888733167981
 20
-134.4589692263632
 30
0.0
 40
2.9
  0
LINE
  5
499
330
1E
100
AcDbEntity
  8
0
  6
Continuous
 62
     3
100
AcDbLine
 10
-572.6959800987981
 20
-134.4589692263632
 30
0.0
 11
-573.7566402697982
 21
-135.5196293983633
 31
0.0
  0
LINE
  5
49A
330
1E
100
AcDbEntity
  8
0
  6
Continuous
 62
     3
100
AcDbLine
 10
-573.7566402697982
 20
-135.5196293983633
 30
0.0
 11
-573.0495334887982
 21
-136.2267361793633
 31
0.0
  0
LINE
  5
49B
330
1E
100
AcDbEntity
  8
0
  6
Continuous
 62
     3
100
AcDbLine
 10
-573.0495334887982
 20
-136.2267361793633
 30
0.0
 11
-571.9888733167981
 21
-135.1660760073633
 31
0.0
  0
LINE
  5
49C
330
1E
100
AcDbEntity
  8
0
  6
Continuous
 62
     3
100
AcDbLine
 10
-571.2817665357981
 20
-134.4589692263632
 30
0.0
 11
-570.2211063637982
 21
-133.3983090543633
 31
0.0
  0
LINE
  5
49D
330
1E
100
AcDbEntity
  8
0
  6
Continuous
 62
     3
100
AcDbLine
 10
-570.2211063637982
 20
-133.3983090543633
 30
0.0
 11
-570.9282131457981
 21
-132.6912022733633
 31
0.0
  0
LINE
  5
49E
330
1E
100
AcDbEntity
  8
0
  6
Continuous
 62
     3
100
AcDbLine
 10
-570.9282131457981
 20
-132.6912022733633
 30
0.0
 11
-571.9888733167981
 21
-133.7518624453632
 31
0.0
  0
LINE
  5
49F
330
1E
100
AcDbEntity
  8
0
  6
Continuous
 62
     3
100
AcDbLine
 10
-571.9888733167981
 20
-135.1660760073633
 30
0.0
 11
-570.3625277207982
 21
-136.7924216043633
 31
0.0
  0
LINE
  5
4A0
330
1E
100
AcDbEntity
  8
0
  6
Continuous
 62
     3
100
AcDbLine
 10
-574.3223256947982
 20
-132.8326236293633
 30
0.0
 11
-572.6959800987981
 21
-134.4589692263632
 31
0.0
  0
LINE
  5
4A1
330
1E
100
AcDbEntity
  8
0
  6
Continuous
 62
     3
100
AcDbLine
 10
-571.9888733167981
 20
-133.7518624453632
 30
0.0
 11
-573.6152189137982
 21
-132.1255168483632
 31
0.0
  0
LINE
  5
4A2
330
1E
100
AcDbEntity
  8
0
  6
Continuous
 62
     3
100
AcDbLine
 10
-569.6554209387982
 20
-136.0853148233633
 30
0.0
 11
-571.2817665357981
 21
-134.4589692263632
 31
0.0
  0
LINE
  5
4A3
330
1E
100
AcDbEntity
  8
0
  6
Continuous
 62
     3
100
AcDbLine
 10
-570.2211063637982
 20
-135.5196293983633
 30
0.0
 11
-570.9282131457981
 21
-136.2267361793633
 31
0.0
  0
LINE
  5
4A4
330
1E
100
AcDbEntity
  8
0
  6
Continuous
 62
     3
100
AcDbLine
 10
-573.7566402697982
 20
-133.3983090543633
 30
0.0
 11
-573.0495334887982
 21
-132.6912022733633
 31
0.0
  0
LINE
  5
4A5
330
1E
100
AcDbEntity
  8
0
  6
Continuous
 62
     3
100
AcDbLine
 10
-574.9888733167981
 20
-125.7589692263632
 30
0.0
 11
-574.9888733167981
 21
-128.7589692263632
 31
0.0
  0
LINE
  5
4A6
330
1E
100
AcDbEntity
  8
0
  6
Continuous
 62
     3
100
AcDbLine
 10
-574.9888733167981
 20
-122.7589692263632
 30
0.0
 11
-574.9888733167981
 21
-126.2589692263633
 31
0.0
  0
CIRCLE
  5
4A7
330
1E
100
AcDbEntity
  8
0
  6
Continuous
 62
     3
100
AcDbCircle
 10
-571.9888733167981
 20
-125.7589692263632
 30
0.0
 40
2.9
  0
LINE
  5
4A8
330
1E
100
AcDbEntity
  8
0
  6
Continuous
 62
     3
100
AcDbLine
 10
-574.9888733167981
 20
-128.7589692263632
 30
0.0
 11
-568.4888733167981
 21
-128.7589692263632
 31
0.0
  0
LINE
  5
4A9
330
1E
100
AcDbEntity
  8
0
  6
Continuous
 62
     3
100
AcDbLine
 10
-568.4888733167981
 20
-122.7589692263632
 30
0.0
 11
-574.9888733167981
 21
-122.7589692263632
 31
0.0
  0
LINE
  5
4AA
330
1E
100
AcDbEntity
  8
0
  6
Continuous
 62
     3
100
AcDbLine
 10
-568.4888733167981
 20
-128.7589692263632
 30
0.0
 11
-568.4888733167981
 21
-122.7589692263632
 31
0.0
  0
CIRCLE
  5
4AB
330
1E
100
AcDbEntity
  8
0
  6
Continuous
 62
     3
100
AcDbCircle
 10
-571.9888733167981
 20
-125.7589692263632
 30
0.0
 40
2.9
  0
LINE
  5
4AC
330
1E
100
AcDbEntity
  8
0
  6
Continuous
 62
     3
100
AcDbLine
 10
-572.6959800987981
 20
-125.7589692263632
 30
0.0
 11
-573.7566402697982
 21
-126.8196293983632
 31
0.0
  0
LINE
  5
4AD
330
1E
100
AcDbEntity
  8
0
  6
Continuous
 62
     3
100
AcDbLine
 10
-573.7566402697982
 20
-126.8196293983632
 30
0.0
 11
-573.0495334887982
 21
-127.5267361793633
 31
0.0
  0
LINE
  5
4AE
330
1E
100
AcDbEntity
  8
0
  6
Continuous
 62
     3
100
AcDbLine
 10
-573.0495334887982
 20
-127.5267361793633
 30
0.0
 11
-571.9888733167981
 21
-126.4660760073633
 31
0.0
  0
LINE
  5
4AF
330
1E
100
AcDbEntity
  8
0
  6
Continuous
 62
     3
100
AcDbLine
 10
-571.2817665357981
 20
-125.7589692263632
 30
0.0
 11
-570.2211063637982
 21
-124.6983090543632
 31
0.0
  0
LINE
  5
4B0
330
1E
100
AcDbEntity
  8
0
  6
Continuous
 62
     3
100
AcDbLine
 10
-570.2211063637982
 20
-124.6983090543632
 30
0.0
 11
-570.9282131457981
 21
-123.9912022733632
 31
0.0
  0
LINE
  5
4B1
330
1E
100
AcDbEntity
  8
0
  6
Continuous
 62
     3
100
AcDbLine
 10
-570.9282131457981
 20
-123.9912022733632
 30
0.0
 11
-571.9888733167981
 21
-125.0518624453633
 31
0.0
  0
LINE
  5
4B2
330
1E
100
AcDbEntity
  8
0
  6
Continuous
 62
     3
100
AcDbLine
 10
-571.9888733167981
 20
-126.4660760073633
 30
0.0
 11
-570.3625277207982
 21
-128.0924216043633
 31
0.0
  0
LINE
  5
4B3
330
1E
100
AcDbEntity
  8
0
  6
Continuous
 62
     3
100
AcDbLine
 10
-574.3223256947982
 20
-124.1326236293633
 30
0.0
 11
-572.6959800987981
 21
-125.7589692263632
 31
0.0
  0
LINE
  5
4B4
330
1E
100
AcDbEntity
  8
0
  6
Continuous
 62
     3
100
AcDbLine
 10
-571.9888733167981
 20
-125.0518624453633
 30
0.0
 11
-573.6152189137982
 21
-123.4255168483632
 31
0.0
  0
LINE
  5
4B5
330
1E
100
AcDbEntity
  8
0
  6
Continuous
 62
     3
100
AcDbLine
 10
-569.6554209387982
 20
-127.3853148233633
 30
0.0
 11
-571.2817665357981
 21
-125.7589692263632
 31
0.0
  0
LINE
  5
4B6
330
1E
100
AcDbEntity
  8
0
  6
Continuous
 62
     3
100
AcDbLine
 10
-570.2211063637982
 20
-126.8196293983632
 30
0.0
 11
-570.9282131457981
 21
-127.5267361793633
 31
0.0
  0
LINE
  5
4B7
330
1E
100
AcDbEntity
  8
0
  6
Continuous
 62
     3
100
AcDbLine
 10
-573.7566402697982
 20
-124.6983090543632
 30
0.0
 11
-573.0495334887982
 21
-123.9912022733632
 31
0.0
  0
LINE
  5
4B8
330
1E
100
AcDbEntity
  8
0
  6
Continuous
 62
     3
100
AcDbLine
 10
-574.9888733167981
 20
-117.0589692263632
 30
0.0
 11
-574.9888733167981
 21
-120.0589692263632
 31
0.0
  0
LINE
  5
4B9
330
1E
100
AcDbEntity
  8
0
  6
Continuous
 62
     3
100
AcDbLine
 10
-574.9888733167981
 20
-114.0589692263632
 30
0.0
 11
-574.9888733167981
 21
-117.5589692263632
 31
0.0
  0
CIRCLE
  5
4BA
330
1E
100
AcDbEntity
  8
0
  6
Continuous
 62
     3
100
AcDbCircle
 10
-571.9888733167981
 20
-117.0589692263632
 30
0.0
 40
2.9
  0
LINE
  5
4BB
330
1E
100
AcDbEntity
  8
0
  6
Continuous
 62
     3
100
AcDbLine
 10
-574.9888733167981
 20
-120.0589692263632
 30
0.0
 11
-568.4888733167981
 21
-120.0589692263632
 31
0.0
  0
LINE
  5
4BC
330
1E
100
AcDbEntity
  8
0
  6
Continuous
 62
     3
100
AcDbLine
 10
-568.4888733167981
 20
-114.0589692263632
 30
0.0
 11
-574.9888733167981
 21
-114.0589692263632
 31
0.0
  0
LINE
  5
4BD
330
1E
100
AcDbEntity
  8
0
  6
Continuous
 62
     3
100
AcDbLine
 10
-568.4888733167981
 20
-120.0589692263632
 30
0.0
 11
-568.4888733167981
 21
-114.0589692263632
 31
0.0
  0
CIRCLE
  5
4BE
330
1E
100
AcDbEntity
  8
0
  6
Continuous
 62
     3
100
AcDbCircle
 10
-571.9888733167981
 20
-117.0589692263632
 30
0.0
 40
2.9
  0
LINE
  5
4BF
330
1E
100
AcDbEntity
  8
0
  6
Continuous
 62
     3
100
AcDbLine
 10
-572.6959800987981
 20
-117.0589692263632
 30
0.0
 11
-573.7566402697982
 21
-118.1196293983632
 31
0.0
  0
LINE
  5
4C0
330
1E
100
AcDbEntity
  8
0
  6
Continuous
 62
     3
100
AcDbLine
 10
-573.7566402697982
 20
-118.1196293983632
 30
0.0
 11
-573.0495334887982
 21
-118.8267361793633
 31
0.0
  0
LINE
  5
4C1
330
1E
100
AcDbEntity
  8
0
  6
Continuous
 62
     3
100
AcDbLine
 10
-573.0495334887982
 20
-118.8267361793633
 30
0.0
 11
-571.9888733167981
 21
-117.7660760073633
 31
0.0
  0
LINE
  5
4C2
330
1E
100
AcDbEntity
  8
0
  6
Continuous
 62
     3
100
AcDbLine
 10
-571.2817665357981
 20
-117.0589692263632
 30
0.0
 11
-570.2211063637982
 21
-115.9983090543633
 31
0.0
  0
LINE
  5
4C3
330
1E
100
AcDbEntity
  8
0
  6
Continuous
 62
     3
100
AcDbLine
 10
-570.2211063637982
 20
-115.9983090543633
 30
0.0
 11
-570.9282131457981
 21
-115.2912022733632
 31
0.0
  0
LINE
  5
4C4
330
1E
100
AcDbEntity
  8
0
  6
Continuous
 62
     3
100
AcDbLine
 10
-570.9282131457981
 20
-115.2912022733632
 30
0.0
 11
-571.9888733167981
 21
-116.3518624453633
 31
0.0
  0
LINE
  5
4C5
330
1E
100
AcDbEntity
  8
0
  6
Continuous
 62
     3
100
AcDbLine
 10
-571.9888733167981
 20
-117.7660760073633
 30
0.0
 11
-570.3625277207982
 21
-119.3924216043633
 31
0.0
  0
LINE
  5
4C6
330
1E
100
AcDbEntity
  8
0
  6
Continuous
 62
     3
100
AcDbLine
 10
-574.3223256947982
 20
-115.4326236293633
 30
0.0
 11
-572.6959800987981
 21
-117.0589692263632
 31
0.0
  0
LINE
  5
4C7
330
1E
100
AcDbEntity
  8
0
  6
Continuous
 62
     3
100
AcDbLine
 10
-571.9888733167981
 20
-116.3518624453633
 30
0.0
 11
-573.6152189137982
 21
-114.7255168483632
 31
0.0
  0
LINE
  5
4C8
330
1E
100
AcDbEntity
  8
0
  6
Continuous
 62
     3
100
AcDbLine
 10
-569.6554209387982
 20
-118.6853148233632
 30
0.0
 11
-571.2817665357981
 21
-117.0589692263632
 31
0.0
  0
LINE
  5
4C9
330
1E
100
AcDbEntity
  8
0
  6
Continuous
 62
     3
100
AcDbLine
 10
-570.2211063637982
 20
-118.1196293983632
 30
0.0
 11
-570.9282131457981
 21
-118.8267361793633
 31
0.0
  0
LINE
  5
4CA
330
1E
100
AcDbEntity
  8
0
  6
Continuous
 62
     3
100
AcDbLine
 10
-573.7566402697982
 20
-115.9983090543633
 30
0.0
 11
-573.0495334887982
 21
-115.2912022733632
 31
0.0
  0
LINE
  5
4CB
330
1E
100
AcDbEntity
  8
0
  6
Continuous
 62
     3
100
AcDbLine
 10
-574.9888733167981
 20
-108.3589692263632
 30
0.0
 11
-574.9888733167981
 21
-111.3589692263632
 31
0.0
  0
LINE
  5
4CC
330
1E
100
AcDbEntity
  8
0
  6
Continuous
 62
     3
100
AcDbLine
 10
-574.9888733167981
 20
-105.3589692263632
 30
0.0
 11
-574.9888733167981
 21
-108.8589692263632
 31
0.0
  0
CIRCLE
  5
4CD
330
1E
100
AcDbEntity
  8
0
  6
Continuous
 62
     3
100
AcDbCircle
 10
-571.9888733167981
 20
-108.3589692263632
 30
0.0
 40
2.9
  0
LINE
  5
4CE
330
1E
100
AcDbEntity
  8
0
  6
Continuous
 62
     3
100
AcDbLine
 10
-574.9888733167981
 20
-111.3589692263632
 30
0.0
 11
-568.4888733167981
 21
-111.3589692263632
 31
0.0
  0
LINE
  5
4CF
330
1E
100
AcDbEntity
  8
0
  6
Continuous
 62
     3
100
AcDbLine
 10
-568.4888733167981
 20
-105.3589692263632
 30
0.0
 11
-574.9888733167981
 21
-105.3589692263632
 31
0.0
  0
LINE
  5
4D0
330
1E
100
AcDbEntity
  8
0
  6
Continuous
 62
     3
100
AcDbLine
 10
-568.4888733167981
 20
-111.3589692263632
 30
0.0
 11
-568.4888733167981
 21
-105.3589692263632
 31
0.0
  0
CIRCLE
  5
4D1
330
1E
100
AcDbEntity
  8
0
  6
Continuous
 62
     3
100
AcDbCircle
 10
-571.9888733167981
 20
-108.3589692263632
 30
0.0
 40
2.9
  0
LINE
  5
4D2
330
1E
100
AcDbEntity
  8
0
  6
Continuous
 62
     3
100
AcDbLine
 10
-572.6959800987981
 20
-108.3589692263632
 30
0.0
 11
-573.7566402697982
 21
-109.4196293983632
 31
0.0
  0
LINE
  5
4D3
330
1E
100
AcDbEntity
  8
0
  6
Continuous
 62
     3
100
AcDbLine
 10
-573.7566402697982
 20
-109.4196293983632
 30
0.0
 11
-573.0495334887982
 21
-110.1267361793633
 31
0.0
  0
LINE
  5
4D4
330
1E
100
AcDbEntity
  8
0
  6
Continuous
 62
     3
100
AcDbLine
 10
-573.0495334887982
 20
-110.1267361793633
 30
0.0
 11
-571.9888733167981
 21
-109.0660760073633
 31
0.0
  0
LINE
  5
4D5
330
1E
100
AcDbEntity
  8
0
  6
Continuous
 62
     3
100
AcDbLine
 10
-571.2817665357981
 20
-108.3589692263632
 30
0.0
 11
-570.2211063637982
 21
-107.2983090543633
 31
0.0
  0
LINE
  5
4D6
330
1E
100
AcDbEntity
  8
0
  6
Continuous
 62
     3
100
AcDbLine
 10
-570.2211063637982
 20
-107.2983090543633
 30
0.0
 11
-570.9282131457981
 21
-106.5912022733632
 31
0.0
  0
LINE
  5
4D7
330
1E
100
AcDbEntity
  8
0
  6
Continuous
 62
     3
100
AcDbLine
 10
-570.9282131457981
 20
-106.5912022733632
 30
0.0
 11
-571.9888733167981
 21
-107.6518624453632
 31
0.0
  0
LINE
  5
4D8
330
1E
100
AcDbEntity
  8
0
  6
Continuous
 62
     3
100
AcDbLine
 10
-571.9888733167981
 20
-109.0660760073633
 30
0.0
 11
-570.3625277207982
 21
-110.6924216043633
 31
0.0
  0
LINE
  5
4D9
330
1E
100
AcDbEntity
  8
0
  6
Continuous
 62
     3
100
AcDbLine
 10
-574.3223256947982
 20
-106.7326236293633
 30
0.0
 11
-572.6959800987981
 21
-108.3589692263632
 31
0.0
  0
LINE
  5
4DA
330
1E
100
AcDbEntity
  8
0
  6
Continuous
 62
     3
100
AcDbLine
 10
-571.9888733167981
 20
-107.6518624453632
 30
0.0
 11
-573.6152189137982
 21
-106.0255168483632
 31
0.0
  0
LINE
  5
4DB
330
1E
100
AcDbEntity
  8
0
  6
Continuous
 62
     3
100
AcDbLine
 10
-569.6554209387982
 20
-109.9853148233632
 30
0.0
 11
-571.2817665357981
 21
-108.3589692263632
 31
0.0
  0
LINE
  5
4DC
330
1E
100
AcDbEntity
  8
0
  6
Continuous
 62
     3
100
AcDbLine
 10
-570.2211063637982
 20
-109.4196293983632
 30
0.0
 11
-570.9282131457981
 21
-110.1267361793633
 31
0.0
  0
LINE
  5
4DD
330
1E
100
AcDbEntity
  8
0
  6
Continuous
 62
     3
100
AcDbLine
 10
-573.7566402697982
 20
-107.2983090543633
 30
0.0
 11
-573.0495334887982
 21
-106.5912022733632
 31
0.0
  0
LINE
  5
4DE
330
1E
100
AcDbEntity
  8
0
  6
LTYPE1
 62
     3
100
AcDbLine
 10
-575.9888733167981
 20
-139.5589692263632
 30
0.0
 11
-575.9888733167981
 21
-103.2589692263632
 31
0.0
  0
LINE
  5
4DF
330
1E
100
AcDbEntity
  8
0
  6
LTYPE1
 62
     3
100
AcDbLine
 10
-567.1888733167982
 20
-103.2589692263632
 30
0.0
 11
-566.1888733167982
 21
-103.2589692263632
 31
0.0
  0
LINE
  5
4E0
330
1E
100
AcDbEntity
  8
0
  6
LTYPE1
 62
     3
100
AcDbLine
 10
-566.1888733167982
 20
-103.2589692263632
 30
0.0
 11
-566.1888733167982
 21
-139.5589692263632
 31
0.0
  0
LINE
  5
4E1
330
1E
100
AcDbEntity
  8
0
  6
LTYPE1
 62
     3
100
AcDbLine
 10
-566.1888733167982
 20
-139.5589692263632
 30
0.0
 11
-575.9888733167981
 21
-139.5589692263632
 31
0.0
  0
POINT
  5
4E2
330
1E
100
AcDbEntity
  8
0
  6
Continuous
 62
     3
100
AcDbPoint
 10
-653.1388733167982
 20
-101.3589692263632
 30
0.0
  0
LINE
  5
4E3
330
1E
100
AcDbEntity
  8
0
  6
Continuous
 62
     3
100
AcDbLine
 10
-653.1388733167982
 20
-101.3589692263632
 30
0.0
 11
-653.1388733167982
 21
-102.3589692263632
 31
0.0
  0
LINE
  5
4E4
330
1E
100
AcDbEntity
  8
0
  6
Continuous
 62
     3
100
AcDbLine
 10
-653.1388733167982
 20
-102.3589692263632
 30
0.0
 11
-648.1388733167982
 21
-102.3589692263632
 31
0.0
  0
LINE
  5
4E5
330
1E
100
AcDbEntity
  8
0
  6
Continuous
 62
     3
100
AcDbLine
 10
-648.1388733167982
 20
-102.3589692263632
 30
0.0
 11
-648.1388733167982
 21
-101.3589692263632
 31
0.0
  0
LINE
  5
4E6
330
1E
100
AcDbEntity
  8
0
  6
Continuous
 62
     3
100
AcDbLine
 10
-648.1388733167982
 20
-101.3589692263632
 30
0.0
 11
-647.1388733167982
 21
-101.3589692263632
 31
0.0
  0
POINT
  5
4E7
330
1E
100
AcDbEntity
  8
0
  6
Continuous
 62
     3
100
AcDbPoint
 10
-653.1388733167982
 20
-141.4589692263632
 30
0.0
  0
LINE
  5
4E8
330
1E
100
AcDbEntity
  8
0
  6
Continuous
 62
     3
100
AcDbLine
 10
-653.1388733167982
 20
-141.4589692263632
 30
0.0
 11
-653.1388733167982
 21
-140.4589692263632
 31
0.0
  0
LINE
  5
4E9
330
1E
100
AcDbEntity
  8
0
  6
Continuous
 62
     3
100
AcDbLine
 10
-653.1388733167982
 20
-140.4589692263632
 30
0.0
 11
-648.1388733167982
 21
-140.4589692263632
 31
0.0
  0
LINE
  5
4EA
330
1E
100
AcDbEntity
  8
0
  6
Continuous
 62
     3
100
AcDbLine
 10
-648.1388733167982
 20
-140.4589692263632
 30
0.0
 11
-648.1388733167982
 21
-141.4589692263632
 31
0.0
  0
LINE
  5
4EB
330
1E
100
AcDbEntity
  8
0
  6
Continuous
 62
     3
100
AcDbLine
 10
-648.1388733167982
 20
-141.4589692263632
 30
0.0
 11
-647.1388733167982
 21
-141.4589692263632
 31
0.0
  0
LINE
  5
4EC
330
1E
100
AcDbEntity
  8
0
  6
Continuous
 62
     3
100
AcDbLine
 10
-654.1388733167982
 20
-141.4589692263632
 30
0.0
 11
-648.1388733167982
 21
-141.4589692263632
 31
0.0
  0
LINE
  5
4ED
330
1E
100
AcDbEntity
  8
0
  6
Continuous
 62
     3
100
AcDbLine
 10
-647.1388733167982
 20
-141.4589692263632
 30
0.0
 11
-647.1388733167982
 21
-139.8589692263632
 31
0.0
  0
LINE
  5
4EE
330
1E
100
AcDbEntity
  8
0
  6
Continuous
 62
     3
100
AcDbLine
 10
-654.6388733167982
 20
-131.5089692263633
 30
0.0
 11
-655.1388733167982
 21
-131.5089692263633
 31
0.0
  0
LINE
  5
4EF
330
1E
100
AcDbEntity
  8
0
  6
Continuous
 62
     3
100
AcDbLine
 10
-654.6388733167982
 20
-111.3089692263632
 30
0.0
 11
-655.1388733167982
 21
-111.3089692263632
 31
0.0
  0
LINE
  5
4F0
330
1E
100
AcDbEntity
  8
0
  6
Continuous
 62
     3
100
AcDbLine
 10
-654.0888733167982
 20
-103.2589692263632
 30
0.0
 11
-644.7888733167982
 21
-103.2589692263632
 31
0.0
  0
LINE
  5
4F1
330
1E
100
AcDbEntity
  8
0
  6
Continuous
 62
     3
100
AcDbLine
 10
-644.7888733167982
 20
-103.2589692263632
 30
0.0
 11
-644.7888733167982
 21
-139.5589692263632
 31
0.0
  0
LINE
  5
4F2
330
1E
100
AcDbEntity
  8
0
  6
Continuous
 62
     3
100
AcDbLine
 10
-644.7888733167982
 20
-139.5589692263632
 30
0.0
 11
-654.0888733167982
 21
-139.5589692263632
 31
0.0
  0
LINE
  5
4F3
330
1E
100
AcDbEntity
  8
0
  6
Continuous
 62
     3
100
AcDbLine
 10
-654.0888733167982
 20
-103.2589692263632
 30
0.0
 11
-654.6888733167982
 21
-103.2589692263632
 31
0.0
  0
LINE
  5
4F4
330
1E
100
AcDbEntity
  8
0
  6
Continuous
 62
     3
100
AcDbLine
 10
-644.7888733167982
 20
-103.2589692263632
 30
0.0
 11
-645.9888733167981
 21
-103.2589692263632
 31
0.0
  0
LINE
  5
4F5
330
1E
100
AcDbEntity
  8
0
  6
Continuous
 62
     3
100
AcDbLine
 10
-654.6888733167982
 20
-103.2589692263632
 30
0.0
 11
-654.6888733167982
 21
-122.1589692263632
 31
0.0
  0
LINE
  5
4F6
330
1E
100
AcDbEntity
  8
0
  6
Continuous
 62
     3
100
AcDbLine
 10
-654.6888733167982
 20
-138.0589692263632
 30
0.0
 11
-654.6888733167982
 21
-139.5589692263632
 31
0.0
  0
LINE
  5
4F7
330
1E
100
AcDbEntity
  8
0
  6
Continuous
 62
     3
100
AcDbLine
 10
-654.6888733167982
 20
-129.3589692263632
 30
0.0
 11
-654.6888733167982
 21
-130.8589692263632
 31
0.0
  0
LINE
  5
4F8
330
1E
100
AcDbEntity
  8
0
  6
Continuous
 62
     3
100
AcDbLine
 10
-654.6888733167982
 20
-139.5589692263632
 30
0.0
 11
-654.0888733167982
 21
-139.5589692263632
 31
0.0
  0
LINE
  5
4F9
330
1E
100
AcDbEntity
  8
0
  6
Continuous
 62
     3
100
AcDbLine
 10
-646.2888733167982
 20
-108.3589692263632
 30
0.0
 11
-646.2888733167982
 21
-105.3589692263632
 31
0.0
  0
LINE
  5
4FA
330
1E
100
AcDbEntity
  8
0
  6
Continuous
 62
     3
100
AcDbLine
 10
-646.2888733167982
 20
-111.3589692263632
 30
0.0
 11
-646.2888733167982
 21
-107.8589692263632
 31
0.0
  0
CIRCLE
  5
4FB
330
1E
100
AcDbEntity
  8
0
  6
Continuous
 62
     3
100
AcDbCircle
 10
-649.2888733167982
 20
-108.3589692263632
 30
0.0
 40
2.9
  0
LINE
  5
4FC
330
1E
100
AcDbEntity
  8
0
  6
Continuous
 62
     3
100
AcDbLine
 10
-654.0888733167982
 20
-103.2589692263632
 30
0.0
 11
-654.0888733167982
 21
-139.5589692263632
 31
0.0
  0
LINE
  5
4FD
330
1E
100
AcDbEntity
  8
0
  6
Continuous
 62
     3
100
AcDbLine
 10
-644.7888733167982
 20
-103.2589692263632
 30
0.0
 11
-645.7888733167982
 21
-103.2589692263632
 31
0.0
  0
LINE
  5
4FE
330
1E
100
AcDbEntity
  8
0
  6
Continuous
 62
     3
100
AcDbLine
 10
-654.6888733167982
 20
-111.9589692263632
 30
0.0
 11
-645.7888733167982
 21
-111.9589692263632
 31
0.0
  0
LINE
  5
4FF
330
1E
100
AcDbEntity
  8
0
  6
Continuous
 62
     3
100
AcDbLine
 10
-654.6888733167982
 20
-113.4589692263632
 30
0.0
 11
-645.7888733167982
 21
-113.4589692263632
 31
0.0
  0
LINE
  5
500
330
1E
100
AcDbEntity
  8
0
  6
Continuous
 62
     3
100
AcDbLine
 10
-654.6888733167982
 20
-120.6589692263632
 30
0.0
 11
-645.7888733167982
 21
-120.6589692263632
 31
0.0
  0
LINE
  5
501
330
1E
100
AcDbEntity
  8
0
  6
Continuous
 62
     3
100
AcDbLine
 10
-654.6888733167982
 20
-122.1589692263632
 30
0.0
 11
-645.7888733167982
 21
-122.1589692263632
 31
0.0
  0
LINE
  5
502
330
1E
100
AcDbEntity
  8
0
  6
Continuous
 62
     3
100
AcDbLine
 10
-654.6888733167982
 20
-129.3589692263632
 30
0.0
 11
-645.7888733167982
 21
-129.3589692263632
 31
0.0
  0
LINE
  5
503
330
1E
100
AcDbEntity
  8
0
  6
Continuous
 62
     3
100
AcDbLine
 10
-654.6888733167982
 20
-130.8589692263632
 30
0.0
 11
-645.7888733167982
 21
-130.8589692263632
 31
0.0
  0
LINE
  5
504
330
1E
100
AcDbEntity
  8
0
  6
Continuous
 62
     3
100
AcDbLine
 10
-654.6888733167982
 20
-138.0589692263632
 30
0.0
 11
-645.7888733167982
 21
-138.0589692263632
 31
0.0
  0
LINE
  5
505
330
1E
100
AcDbEntity
  8
0
  6
Continuous
 62
     3
100
AcDbLine
 10
-646.2888733167982
 20
-105.3589692263632
 30
0.0
 11
-652.7888733167982
 21
-105.3589692263632
 31
0.0
  0
LINE
  5
506
330
1E
100
AcDbEntity
  8
0
  6
Continuous
 62
     3
100
AcDbLine
 10
-652.7888733167982
 20
-111.3589692263632
 30
0.0
 11
-646.2888733167982
 21
-111.3589692263632
 31
0.0
  0
LINE
  5
507
330
1E
100
AcDbEntity
  8
0
  6
Continuous
 62
     3
100
AcDbLine
 10
-652.7888733167982
 20
-105.3589692263632
 30
0.0
 11
-652.7888733167982
 21
-111.3589692263632
 31
0.0
  0
LINE
  5
508
330
1E
100
AcDbEntity
  8
0
  6
Continuous
 62
     3
100
AcDbLine
 10
-654.6888733167982
 20
-104.7589692263632
 30
0.0
 11
-645.7888733167982
 21
-104.7589692263632
 31
0.0
  0
LINE
  5
509
330
1E
100
AcDbEntity
  8
0
  6
Continuous
 62
     3
100
AcDbLine
 10
-645.7888733167982
 20
-104.7589692263632
 30
0.0
 11
-645.7888733167982
 21
-138.0589692263632
 31
0.0
  0
CIRCLE
  5
50A
330
1E
100
AcDbEntity
  8
0
  6
Continuous
 62
     3
100
AcDbCircle
 10
-649.2888733167982
 20
-108.3589692263632
 30
0.0
 40
2.9
  0
LINE
  5
50B
330
1E
100
AcDbEntity
  8
0
  6
Continuous
 62
     3
100
AcDbLine
 10
-648.5817665357982
 20
-108.3589692263632
 30
0.0
 11
-647.5211063637982
 21
-107.2983090543633
 31
0.0
  0
LINE
  5
50C
330
1E
100
AcDbEntity
  8
0
  6
Continuous
 62
     3
100
AcDbLine
 10
-647.5211063637982
 20
-107.2983090543633
 30
0.0
 11
-648.2282131457982
 21
-106.5912022733632
 31
0.0
  0
LINE
  5
50D
330
1E
100
AcDbEntity
  8
0
  6
Continuous
 62
     3
100
AcDbLine
 10
-648.2282131457982
 20
-106.5912022733632
 30
0.0
 11
-649.2888733167982
 21
-107.6518624453632
 31
0.0
  0
LINE
  5
50E
330
1E
100
AcDbEntity
  8
0
  6
Continuous
 62
     3
100
AcDbLine
 10
-649.9959800987982
 20
-108.3589692263632
 30
0.0
 11
-651.0566402697982
 21
-109.4196293983632
 31
0.0
  0
LINE
  5
50F
330
1E
100
AcDbEntity
  8
0
  6
Continuous
 62
     3
100
AcDbLine
 10
-651.0566402697982
 20
-109.4196293983632
 30
0.0
 11
-650.3495334887982
 21
-110.1267361793633
 31
0.0
  0
LINE
  5
510
330
1E
100
AcDbEntity
  8
0
  6
Continuous
 62
     3
100
AcDbLine
 10
-650.3495334887982
 20
-110.1267361793633
 30
0.0
 11
-649.2888733167982
 21
-109.0660760073633
 31
0.0
  0
LINE
  5
511
330
1E
100
AcDbEntity
  8
0
  6
Continuous
 62
     3
100
AcDbLine
 10
-649.2888733167982
 20
-107.6518624453632
 30
0.0
 11
-650.9152189137981
 21
-106.0255168483632
 31
0.0
  0
LINE
  5
512
330
1E
100
AcDbEntity
  8
0
  6
Continuous
 62
     3
100
AcDbLine
 10
-646.9554209387982
 20
-109.9853148233632
 30
0.0
 11
-648.5817665357982
 21
-108.3589692263632
 31
0.0
  0
LINE
  5
513
330
1E
100
AcDbEntity
  8
0
  6
Continuous
 62
     3
100
AcDbLine
 10
-649.2888733167982
 20
-109.0660760073633
 30
0.0
 11
-647.6625277207981
 21
-110.6924216043633
 31
0.0
  0
LINE
  5
514
330
1E
100
AcDbEntity
  8
0
  6
Continuous
 62
     3
100
AcDbLine
 10
-651.6223256947982
 20
-106.7326236293633
 30
0.0
 11
-649.9959800987982
 21
-108.3589692263632
 31
0.0
  0
LINE
  5
515
330
1E
100
AcDbEntity
  8
0
  6
Continuous
 62
     3
100
AcDbLine
 10
-651.0566402697982
 20
-107.2983090543633
 30
0.0
 11
-650.3495334887982
 21
-106.5912022733632
 31
0.0
  0
LINE
  5
516
330
1E
100
AcDbEntity
  8
0
  6
Continuous
 62
     3
100
AcDbLine
 10
-647.5211063637982
 20
-109.4196293983632
 30
0.0
 11
-648.2282131457982
 21
-110.1267361793633
 31
0.0
  0
LINE
  5
517
330
1E
100
AcDbEntity
  8
0
  6
Continuous
 62
     3
100
AcDbLine
 10
-646.2888733167982
 20
-117.0589692263632
 30
0.0
 11
-646.2888733167982
 21
-114.0589692263632
 31
0.0
  0
LINE
  5
518
330
1E
100
AcDbEntity
  8
0
  6
Continuous
 62
     3
100
AcDbLine
 10
-646.2888733167982
 20
-120.0589692263632
 30
0.0
 11
-646.2888733167982
 21
-116.5589692263632
 31
0.0
  0
CIRCLE
  5
519
330
1E
100
AcDbEntity
  8
0
  6
Continuous
 62
     3
100
AcDbCircle
 10
-649.2888733167982
 20
-117.0589692263632
 30
0.0
 40
2.9
  0
LINE
  5
51A
330
1E
100
AcDbEntity
  8
0
  6
Continuous
 62
     3
100
AcDbLine
 10
-646.2888733167982
 20
-114.0589692263632
 30
0.0
 11
-652.7888733167982
 21
-114.0589692263632
 31
0.0
  0
LINE
  5
51B
330
1E
100
AcDbEntity
  8
0
  6
Continuous
 62
     3
100
AcDbLine
 10
-652.7888733167982
 20
-120.0589692263632
 30
0.0
 11
-646.2888733167982
 21
-120.0589692263632
 31
0.0
  0
LINE
  5
51C
330
1E
100
AcDbEntity
  8
0
  6
Continuous
 62
     3
100
AcDbLine
 10
-652.7888733167982
 20
-114.0589692263632
 30
0.0
 11
-652.7888733167982
 21
-120.0589692263632
 31
0.0
  0
CIRCLE
  5
51D
330
1E
100
AcDbEntity
  8
0
  6
Continuous
 62
     3
100
AcDbCircle
 10
-649.2888733167982
 20
-117.0589692263632
 30
0.0
 40
2.9
  0
LINE
  5
51E
330
1E
100
AcDbEntity
  8
0
  6
Continuous
 62
     3
100
AcDbLine
 10
-648.5817665357982
 20
-117.0589692263632
 30
0.0
 11
-647.5211063637982
 21
-115.9983090543633
 31
0.0
  0
LINE
  5
51F
330
1E
100
AcDbEntity
  8
0
  6
Continuous
 62
     3
100
AcDbLine
 10
-647.5211063637982
 20
-115.9983090543633
 30
0.0
 11
-648.2282131457982
 21
-115.2912022733632
 31
0.0
  0
LINE
  5
520
330
1E
100
AcDbEntity
  8
0
  6
Continuous
 62
     3
100
AcDbLine
 10
-648.2282131457982
 20
-115.2912022733632
 30
0.0
 11
-649.2888733167982
 21
-116.3518624453633
 31
0.0
  0
LINE
  5
521
330
1E
100
AcDbEntity
  8
0
  6
Continuous
 62
     3
100
AcDbLine
 10
-649.9959800987982
 20
-117.0589692263632
 30
0.0
 11
-651.0566402697982
 21
-118.1196293983632
 31
0.0
  0
LINE
  5
522
330
1E
100
AcDbEntity
  8
0
  6
Continuous
 62
     3
100
AcDbLine
 10
-651.0566402697982
 20
-118.1196293983632
 30
0.0
 11
-650.3495334887982
 21
-118.8267361793633
 31
0.0
  0
LINE
  5
523
330
1E
100
AcDbEntity
  8
0
  6
Continuous
 62
     3
100
AcDbLine
 10
-650.3495334887982
 20
-118.8267361793633
 30
0.0
 11
-649.2888733167982
 21
-117.7660760073633
 31
0.0
  0
LINE
  5
524
330
1E
100
AcDbEntity
  8
0
  6
Continuous
 62
     3
100
AcDbLine
 10
-649.2888733167982
 20
-116.3518624453633
 30
0.0
 11
-650.9152189137981
 21
-114.7255168483632
 31
0.0
  0
LINE
  5
525
330
1E
100
AcDbEntity
  8
0
  6
Continuous
 62
     3
100
AcDbLine
 10
-646.9554209387982
 20
-118.6853148233632
 30
0.0
 11
-648.5817665357982
 21
-117.0589692263632
 31
0.0
  0
LINE
  5
526
330
1E
100
AcDbEntity
  8
0
  6
Continuous
 62
     3
100
AcDbLine
 10
-649.2888733167982
 20
-117.7660760073633
 30
0.0
 11
-647.6625277207981
 21
-119.3924216043633
 31
0.0
  0
LINE
  5
527
330
1E
100
AcDbEntity
  8
0
  6
Continuous
 62
     3
100
AcDbLine
 10
-651.6223256947982
 20
-115.4326236293633
 30
0.0
 11
-649.9959800987982
 21
-117.0589692263632
 31
0.0
  0
LINE
  5
528
330
1E
100
AcDbEntity
  8
0
  6
Continuous
 62
     3
100
AcDbLine
 10
-651.0566402697982
 20
-115.9983090543633
 30
0.0
 11
-650.3495334887982
 21
-115.2912022733632
 31
0.0
  0
LINE
  5
529
330
1E
100
AcDbEntity
  8
0
  6
Continuous
 62
     3
100
AcDbLine
 10
-647.5211063637982
 20
-118.1196293983632
 30
0.0
 11
-648.2282131457982
 21
-118.8267361793633
 31
0.0
  0
LINE
  5
52A
330
1E
100
AcDbEntity
  8
0
  6
Continuous
 62
     3
100
AcDbLine
 10
-646.2888733167982
 20
-125.7589692263632
 30
0.0
 11
-646.2888733167982
 21
-122.7589692263632
 31
0.0
  0
LINE
  5
52B
330
1E
100
AcDbEntity
  8
0
  6
Continuous
 62
     3
100
AcDbLine
 10
-646.2888733167982
 20
-128.7589692263632
 30
0.0
 11
-646.2888733167982
 21
-125.2589692263633
 31
0.0
  0
CIRCLE
  5
52C
330
1E
100
AcDbEntity
  8
0
  6
Continuous
 62
     3
100
AcDbCircle
 10
-649.2888733167982
 20
-125.7589692263632
 30
0.0
 40
2.9
  0
LINE
  5
52D
330
1E
100
AcDbEntity
  8
0
  6
Continuous
 62
     3
100
AcDbLine
 10
-646.2888733167982
 20
-122.7589692263632
 30
0.0
 11
-652.7888733167982
 21
-122.7589692263632
 31
0.0
  0
LINE
  5
52E
330
1E
100
AcDbEntity
  8
0
  6
Continuous
 62
     3
100
AcDbLine
 10
-652.7888733167982
 20
-128.7589692263632
 30
0.0
 11
-646.2888733167982
 21
-128.7589692263632
 31
0.0
  0
LINE
  5
52F
330
1E
100
AcDbEntity
  8
0
  6
Continuous
 62
     3
100
AcDbLine
 10
-652.7888733167982
 20
-122.7589692263632
 30
0.0
 11
-652.7888733167982
 21
-128.7589692263632
 31
0.0
  0
CIRCLE
  5
530
330
1E
100
AcDbEntity
  8
0
  6
Continuous
 62
     3
100
AcDbCircle
 10
-649.2888733167982
 20
-125.7589692263632
 30
0.0
 40
2.9
  0
LINE
  5
531
330
1E
100
AcDbEntity
  8
0
  6
Continuous
 62
     3
100
AcDbLine
 10
-648.5817665357982
 20
-125.7589692263632
 30
0.0
 11
-647.5211063637982
 21
-124.6983090543632
 31
0.0
  0
LINE
  5
532
330
1E
100
AcDbEntity
  8
0
  6
Continuous
 62
     3
100
AcDbLine
 10
-647.5211063637982
 20
-124.6983090543632
 30
0.0
 11
-648.2282131457982
 21
-123.9912022733632
 31
0.0
  0
LINE
  5
533
330
1E
100
AcDbEntity
  8
0
  6
Continuous
 62
     3
100
AcDbLine
 10
-648.2282131457982
 20
-123.9912022733632
 30
0.0
 11
-649.2888733167982
 21
-125.0518624453633
 31
0.0
  0
LINE
  5
534
330
1E
100
AcDbEntity
  8
0
  6
Continuous
 62
     3
100
AcDbLine
 10
-649.9959800987982
 20
-125.7589692263632
 30
0.0
 11
-651.0566402697982
 21
-126.8196293983632
 31
0.0
  0
LINE
  5
535
330
1E
100
AcDbEntity
  8
0
  6
Continuous
 62
     3
100
AcDbLine
 10
-651.0566402697982
 20
-126.8196293983632
 30
0.0
 11
-650.3495334887982
 21
-127.5267361793633
 31
0.0
  0
LINE
  5
536
330
1E
100
AcDbEntity
  8
0
  6
Continuous
 62
     3
100
AcDbLine
 10
-650.3495334887982
 20
-127.5267361793633
 30
0.0
 11
-649.2888733167982
 21
-126.4660760073633
 31
0.0
  0
LINE
  5
537
330
1E
100
AcDbEntity
  8
0
  6
Continuous
 62
     3
100
AcDbLine
 10
-649.2888733167982
 20
-125.0518624453633
 30
0.0
 11
-650.9152189137981
 21
-123.4255168483632
 31
0.0
  0
LINE
  5
538
330
1E
100
AcDbEntity
  8
0
  6
Continuous
 62
     3
100
AcDbLine
 10
-646.9554209387982
 20
-127.3853148233633
 30
0.0
 11
-648.5817665357982
 21
-125.7589692263632
 31
0.0
  0
LINE
  5
539
330
1E
100
AcDbEntity
  8
0
  6
Continuous
 62
     3
100
AcDbLine
 10
-649.2888733167982
 20
-126.4660760073633
 30
0.0
 11
-647.6625277207981
 21
-128.0924216043633
 31
0.0
  0
LINE
  5
53A
330
1E
100
AcDbEntity
  8
0
  6
Continuous
 62
     3
100
AcDbLine
 10
-651.6223256947982
 20
-124.1326236293633
 30
0.0
 11
-649.9959800987982
 21
-125.7589692263632
 31
0.0
  0
LINE
  5
53B
330
1E
100
AcDbEntity
  8
0
  6
Continuous
 62
     3
100
AcDbLine
 10
-651.0566402697982
 20
-124.6983090543632
 30
0.0
 11
-650.3495334887982
 21
-123.9912022733632
 31
0.0
  0
LINE
  5
53C
330
1E
100
AcDbEntity
  8
0
  6
Continuous
 62
     3
100
AcDbLine
 10
-647.5211063637982
 20
-126.8196293983632
 30
0.0
 11
-648.2282131457982
 21
-127.5267361793633
 31
0.0
  0
LINE
  5
53D
330
1E
100
AcDbEntity
  8
0
  6
Continuous
 62
     3
100
AcDbLine
 10
-646.2888733167982
 20
-134.4589692263632
 30
0.0
 11
-646.2888733167982
 21
-131.4589692263632
 31
0.0
  0
LINE
  5
53E
330
1E
100
AcDbEntity
  8
0
  6
Continuous
 62
     3
100
AcDbLine
 10
-646.2888733167982
 20
-137.4589692263632
 30
0.0
 11
-646.2888733167982
 21
-133.9589692263632
 31
0.0
  0
CIRCLE
  5
53F
330
1E
100
AcDbEntity
  8
0
  6
Continuous
 62
     3
100
AcDbCircle
 10
-649.2888733167982
 20
-134.4589692263632
 30
0.0
 40
2.9
  0
LINE
  5
540
330
1E
100
AcDbEntity
  8
0
  6
Continuous
 62
     3
100
AcDbLine
 10
-646.2888733167982
 20
-131.4589692263632
 30
0.0
 11
-652.7888733167982
 21
-131.4589692263632
 31
0.0
  0
LINE
  5
541
330
1E
100
AcDbEntity
  8
0
  6
Continuous
 62
     3
100
AcDbLine
 10
-652.7888733167982
 20
-137.4589692263632
 30
0.0
 11
-646.2888733167982
 21
-137.4589692263632
 31
0.0
  0
LINE
  5
542
330
1E
100
AcDbEntity
  8
0
  6
Continuous
 62
     3
100
AcDbLine
 10
-652.7888733167982
 20
-131.4589692263632
 30
0.0
 11
-652.7888733167982
 21
-137.4589692263632
 31
0.0
  0
CIRCLE
  5
543
330
1E
100
AcDbEntity
  8
0
  6
Continuous
 62
     3
100
AcDbCircle
 10
-649.2888733167982
 20
-134.4589692263632
 30
0.0
 40
2.9
  0
LINE
  5
544
330
1E
100
AcDbEntity
  8
0
  6
Continuous
 62
     3
100
AcDbLine
 10
-648.5817665357982
 20
-134.4589692263632
 30
0.0
 11
-647.5211063637982
 21
-133.3983090543633
 31
0.0
  0
LINE
  5
545
330
1E
100
AcDbEntity
  8
0
  6
Continuous
 62
     3
100
AcDbLine
 10
-647.5211063637982
 20
-133.3983090543633
 30
0.0
 11
-648.2282131457982
 21
-132.6912022733633
 31
0.0
  0
LINE
  5
546
330
1E
100
AcDbEntity
  8
0
  6
Continuous
 62
     3
100
AcDbLine
 10
-648.2282131457982
 20
-132.6912022733633
 30
0.0
 11
-649.2888733167982
 21
-133.7518624453632
 31
0.0
  0
LINE
  5
547
330
1E
100
AcDbEntity
  8
0
  6
Continuous
 62
     3
100
AcDbLine
 10
-649.9959800987982
 20
-134.4589692263632
 30
0.0
 11
-651.0566402697982
 21
-135.5196293983633
 31
0.0
  0
LINE
  5
548
330
1E
100
AcDbEntity
  8
0
  6
Continuous
 62
     3
100
AcDbLine
 10
-651.0566402697982
 20
-135.5196293983633
 30
0.0
 11
-650.3495334887982
 21
-136.2267361793633
 31
0.0
  0
LINE
  5
549
330
1E
100
AcDbEntity
  8
0
  6
Continuous
 62
     3
100
AcDbLine
 10
-650.3495334887982
 20
-136.2267361793633
 30
0.0
 11
-649.2888733167982
 21
-135.1660760073633
 31
0.0
  0
LINE
  5
54A
330
1E
100
AcDbEntity
  8
0
  6
Continuous
 62
     3
100
AcDbLine
 10
-649.2888733167982
 20
-133.7518624453632
 30
0.0
 11
-650.9152189137981
 21
-132.1255168483632
 31
0.0
  0
LINE
  5
54B
330
1E
100
AcDbEntity
  8
0
  6
Continuous
 62
     3
100
AcDbLine
 10
-646.9554209387982
 20
-136.0853148233633
 30
0.0
 11
-648.5817665357982
 21
-134.4589692263632
 31
0.0
  0
LINE
  5
54C
330
1E
100
AcDbEntity
  8
0
  6
Continuous
 62
     3
100
AcDbLine
 10
-649.2888733167982
 20
-135.1660760073633
 30
0.0
 11
-647.6625277207981
 21
-136.7924216043633
 31
0.0
  0
LINE
  5
54D
330
1E
100
AcDbEntity
  8
0
  6
Continuous
 62
     3
100
AcDbLine
 10
-651.6223256947982
 20
-132.8326236293633
 30
0.0
 11
-649.9959800987982
 21
-134.4589692263632
 31
0.0
  0
LINE
  5
54E
330
1E
100
AcDbEntity
  8
0
  6
Continuous
 62
     3
100
AcDbLine
 10
-651.0566402697982
 20
-133.3983090543633
 30
0.0
 11
-650.3495334887982
 21
-132.6912022733633
 31
0.0
  0
LINE
  5
54F
330
1E
100
AcDbEntity
  8
0
  6
Continuous
 62
     3
100
AcDbLine
 10
-647.5211063637982
 20
-135.5196293983633
 30
0.0
 11
-648.2282131457982
 21
-136.2267361793633
 31
0.0
  0
LINE
  5
550
330
1E
100
AcDbEntity
  8
0
  6
LTYPE1
 62
     3
100
AcDbLine
 10
-645.2888733167982
 20
-103.2589692263632
 30
0.0
 11
-645.2888733167982
 21
-139.5589692263632
 31
0.0
  0
LINE
  5
551
330
1E
100
AcDbEntity
  8
0
  6
LTYPE1
 62
     3
100
AcDbLine
 10
-654.0888733167982
 20
-139.5589692263632
 30
0.0
 11
-655.0888733167981
 21
-139.5589692263632
 31
0.0
  0
LINE
  5
552
330
1E
100
AcDbEntity
  8
0
  6
LTYPE1
 62
     3
100
AcDbLine
 10
-655.0888733167981
 20
-139.5589692263632
 30
0.0
 11
-655.0888733167981
 21
-103.2589692263632
 31
0.0
  0
LINE
  5
553
330
1E
100
AcDbEntity
  8
0
  6
LTYPE1
 62
     3
100
AcDbLine
 10
-655.0888733167981
 20
-103.2589692263632
 30
0.0
 11
-645.2888733167982
 21
-103.2589692263632
 31
0.0
  0
LINE
  5
554
330
1E
100
AcDbEntity
  8
0
  6
Continuous
 62
     5
100
AcDbLine
 10
-578.3988733167982
 20
-96.90896922736328
 30
0.0
 11
-578.3988733177982
 21
-91.40896922736329
 31
0.0
  0
LINE
  5
555
330
1E
100
AcDbEntity
  8
0
  6
Continuous
 62
     5
100
AcDbLine
 10
-643.1988733167981
 20
-96.9089654153633
 30
0.0
 11
-643.1988733177981
 21
-91.40896922936333
 31
0.0
  0
LINE
  5
556
330
1E
100
AcDbEntity
  8
0
  6
Continuous
 62
     5
100
AcDbLine
 10
-578.3988733177982
 20
-92.40896922736329
 30
0.0
 11
-580.3307249697982
 21
-92.92660731736328
 31
0.0
  0
LINE
  5
557
330
1E
100
AcDbEntity
  8
0
  6
Continuous
 62
     5
100
AcDbLine
 10
-578.3988733177982
 20
-92.40896922736329
 30
0.0
 11
-580.3307249697982
 21
-91.8913311373633
 31
0.0
  0
LINE
  5
558
330
1E
100
AcDbEntity
  8
0
  6
Continuous
 62
     5
100
AcDbLine
 10
-578.3988733177982
 20
-92.40896922736329
 30
0.0
 11
-643.1988733177981
 21
-92.40896922936332
 31
0.0
  0
LINE
  5
559
330
1E
100
AcDbEntity
  8
0
  6
Continuous
 62
     5
100
AcDbLine
 10
-643.1988733177981
 20
-92.40896922936332
 30
0.0
 11
-641.2670216647982
 21
-91.89133113936334
 31
0.0
  0
LINE
  5
55A
330
1E
100
AcDbEntity
  8
0
  6
Continuous
 62
     5
100
AcDbLine
 10
-643.1988733177981
 20
-92.40896922936332
 30
0.0
 11
-641.2670216647982
 21
-92.92660732036329
 31
0.0
  0
LINE
  5
55B
330
1E
100
AcDbEntity
  8
0
  6
Continuous
 62
     5
100
AcDbLine
 10
-563.7988733177982
 20
-152.4089692263632
 30
0.0
 11
-565.7307249697981
 21
-151.8913311363632
 31
0.0
  0
LINE
  5
55C
330
1E
100
AcDbEntity
  8
0
  6
Continuous
 62
     5
100
AcDbLine
 10
-563.7988733177982
 20
-152.4089692263632
 30
0.0
 11
-565.7307249697981
 21
-152.9266073163632
 31
0.0
  0
LINE
  5
55D
330
1E
100
AcDbEntity
  8
0
  6
Continuous
 62
     5
100
AcDbLine
 10
-563.7988733177982
 20
-152.4089692263632
 30
0.0
 11
-657.7988733177981
 21
-152.4089692223633
 31
0.0
  0
LINE
  5
55E
330
1E
100
AcDbEntity
  8
0
  6
Continuous
 62
     5
100
AcDbLine
 10
-657.7988733177981
 20
-152.4089692223633
 30
0.0
 11
-655.8670216647981
 21
-152.9266073133632
 31
0.0
  0
LINE
  5
55F
330
1E
100
AcDbEntity
  8
0
  6
Continuous
 62
     5
100
AcDbLine
 10
-657.7988733177981
 20
-152.4089692223633
 30
0.0
 11
-655.8670216647981
 21
-151.8913311323633
 31
0.0
  0
TEXT
  5
560
330
1E
100
AcDbEntity
  8
0
  6
Continuous
 62
     5
100
AcDbText
 10
-612.4488733177981
 20
-151.9089692243633
 30
0.1
 40
2.0
  1
９４
 41
0.8
  7
KANJI1
100
AcDbText
  0
LINE
  5
561
330
1E
100
AcDbEntity
  8
0
  6
Continuous
 62
     5
100
AcDbLine
 10
-563.7988733167982
 20
-146.4089692263632
 30
0.1
 11
-563.7988733177982
 21
-153.4089692263632
 31
0.1
  0
LINE
  5
562
330
1E
100
AcDbEntity
  8
0
  6
Continuous
 62
     5
100
AcDbLine
 10
-657.7988733167982
 20
-146.4089692223633
 30
0.0
 11
-657.7988733177981
 21
-159.4089692223633
 31
0.0
  0
LINE
  5
563
330
1E
100
AcDbEntity
  8
0
  6
Continuous
 62
     5
100
AcDbLine
 10
-657.7988733177981
 20
-158.4089692223633
 30
0.0
 11
-655.8670216647981
 21
-158.9266073133632
 31
0.0
  0
LINE
  5
564
330
1E
100
AcDbEntity
  8
0
  6
Continuous
 62
     5
100
AcDbLine
 10
-657.7988733177981
 20
-158.4089692223633
 30
0.0
 11
-655.8670216647981
 21
-157.8913311323632
 31
0.0
  0
LINE
  5
565
330
1E
100
AcDbEntity
  8
0
  6
Continuous
 62
     5
100
AcDbLine
 10
-657.7988733177981
 20
-158.4089692223633
 30
0.0
 11
-561.2138733177982
 21
-158.4089692263632
 31
0.0
  0
LINE
  5
566
330
1E
100
AcDbEntity
  8
0
  6
Continuous
 62
     5
100
AcDbLine
 10
-561.2138733177982
 20
-158.4089692263632
 30
0.0
 11
-563.1457249707982
 21
-157.8913311363632
 31
0.0
  0
LINE
  5
567
330
1E
100
AcDbEntity
  8
0
  6
Continuous
 62
     5
100
AcDbLine
 10
-561.2138733177982
 20
-158.4089692263632
 30
0.0
 11
-563.1457249707982
 21
-158.9266073163632
 31
0.0
  0
TEXT
  5
568
330
1E
100
AcDbEntity
  8
0
  6
Continuous
 62
     5
100
AcDbText
 10
-615.5563733177983
 20
-157.9089692243633
 30
0.1
 40
2.0
  1
９６～９８スライド
 41
0.8
  7
KANJI1
100
AcDbText
  0
LINE
  5
569
330
1E
100
AcDbEntity
  8
0
  6
Continuous
 62
     5
100
AcDbLine
 10
-561.2138733177982
 20
-159.4089692263632
 30
0.1
 11
-561.2138733177982
 21
-131.4089692263632
 31
0.1
  0
ARC
  5
56A
330
1E
100
AcDbEntity
  8
0
  6
Continuous
 62
     1
100
AcDbCircle
 10
-562.2138733177981
 20
-130.4089692263632
 30
0.0
 40
1.0
100
AcDbArc
 50
270.0
 51
0.0
  0
LINE
  5
56B
330
1E
100
AcDbEntity
  8
0
  6
Continuous
 62
     1
100
AcDbLine
 10
-562.2138733177981
 20
-131.4089692263632
 30
0.0
 11
-563.7988733177982
 21
-131.4089692263632
 31
0.0
  0
LINE
  5
56C
330
1E
100
AcDbEntity
  8
0
  6
Continuous
 62
     1
100
AcDbLine
 10
-561.2138733187982
 20
-112.4089692263632
 30
0.0
 11
-561.2138733177982
 21
-130.4089692263632
 31
0.0
  0
ARC
  5
56D
330
1E
100
AcDbEntity
  8
0
  6
Continuous
 62
     1
100
AcDbCircle
 10
-562.2138733187981
 20
-112.4089692263632
 30
0.0
 40
1.0
100
AcDbArc
 50
0.0
 51
90.0
  0
LINE
  5
56E
330
1E
100
AcDbEntity
  8
0
  6
Continuous
 62
     1
100
AcDbLine
 10
-563.7988733187982
 20
-111.4089692263632
 30
0.0
 11
-562.2138733187981
 21
-111.4089692263632
 31
0.0
  0
LINE
  5
56F
330
1E
100
AcDbEntity
  8
0
  6
Continuous
 62
     1
100
AcDbLine
 10
-563.7988733197982
 20
-98.4089692263633
 30
0.0
 11
-563.7988733167982
 21
-144.4089692263632
 31
0.0
  0
LINE
  5
570
330
1E
100
AcDbEntity
  8
0
  6
Continuous
 62
     5
100
AcDbLine
 10
-561.2138733177982
 20
-159.4089692263632
 30
0.0
 11
-561.2138733177982
 21
-131.4089692263632
 31
0.0
  0
LINE
  5
571
330
1E
100
AcDbEntity
  8
0
  6
Continuous
 62
     1
100
AcDbLine
 10
-578.5888733167982
 20
-97.40896922636331
 30
0.0
 11
-564.7988733167982
 21
-97.40896922636331
 31
0.0
  0
LINE
  5
572
330
1E
100
AcDbEntity
  8
0
  6
Continuous
 62
     1
100
AcDbLine
 10
-563.7988733167982
 20
-98.4089692263633
 30
0.0
 11
-563.7988733167982
 21
-144.4089692263632
 31
0.0
  0
ARC
  5
573
330
1E
100
AcDbEntity
  8
0
  6
Continuous
 62
     1
100
AcDbCircle
 10
-564.7988733167982
 20
-98.4089692263633
 30
0.0
 40
1.0
100
AcDbArc
 50
0.0
 51
90.0
  0
LINE
  5
574
330
1E
100
AcDbEntity
  8
0
  6
Continuous
 62
     1
100
AcDbLine
 10
-641.9888733167981
 20
-97.40896922636331
 30
0.0
 11
-579.2888733167981
 21
-97.40896922636331
 31
0.0
  0
ARC
  5
575
330
1E
100
AcDbEntity
  8
0
  6
Continuous
 62
     1
100
AcDbCircle
 10
-579.2888733167981
 20
-98.4089692263633
 30
0.0
 40
1.0
100
AcDbArc
 50
0.0
 51
89.99999999899999
  0
LINE
  5
576
330
1E
100
AcDbEntity
  8
0
  6
Continuous
 62
     1
100
AcDbLine
 10
-578.2888733167981
 20
-144.4089692263632
 30
0.0
 11
-578.2888733167981
 21
-98.4089692263633
 31
0.0
  0
LINE
  5
577
330
1E
100
AcDbEntity
  8
0
  6
Continuous
 62
     1
100
AcDbLine
 10
-564.7988733167982
 20
-145.4089692263632
 30
0.0
 11
-578.6888733167982
 21
-145.4089692263632
 31
0.0
  0
ARC
  5
578
330
1E
100
AcDbEntity
  8
0
  6
Continuous
 62
     1
100
AcDbCircle
 10
-564.7988733167982
 20
-144.4089692263632
 30
0.0
 40
1.0
100
AcDbArc
 50
270.0
 51
0.0
  0
LINE
  5
579
330
1E
100
AcDbEntity
  8
0
  6
Continuous
 62
     1
100
AcDbLine
 10
-579.2888733167981
 20
-145.4089692263632
 30
0.0
 11
-641.9888733167981
 21
-145.4089692263632
 31
0.0
  0
ARC
  5
57A
330
1E
100
AcDbEntity
  8
0
  6
Continuous
 62
     1
100
AcDbCircle
 10
-579.2888733167981
 20
-144.4089692263632
 30
0.0
 40
1.0
100
AcDbArc
 50
270.0
 51
0.000000001
  0
LINE
  5
57B
330
1E
100
AcDbEntity
  8
0
  6
Continuous
 62
     1
100
AcDbLine
 10
-642.6888733167982
 20
-145.4089692263632
 30
0.0
 11
-656.4788733167981
 21
-145.4089692263632
 31
0.0
  0
LINE
  5
57C
330
1E
100
AcDbEntity
  8
0
  6
Continuous
 62
     1
100
AcDbLine
 10
-642.9888733167981
 20
-144.4089692263632
 30
0.0
 11
-642.9888733167981
 21
-98.4089692263633
 31
0.0
  0
ARC
  5
57D
330
1E
100
AcDbEntity
  8
0
  6
Continuous
 62
     1
100
AcDbCircle
 10
-641.9888733167981
 20
-144.4089692263632
 30
0.0
 40
1.0
100
AcDbArc
 50
180.0
 51
270.0
  0
LINE
  5
57E
330
1E
100
AcDbEntity
  8
0
  6
Continuous
 62
     1
100
AcDbLine
 10
-657.4788733167982
 20
-144.4089692263632
 30
0.0
 11
-657.4788733167982
 21
-98.4089692263633
 31
0.0
  0
ARC
  5
57F
330
1E
100
AcDbEntity
  8
0
  6
Continuous
 62
     1
100
AcDbCircle
 10
-656.4788733167981
 20
-144.4089692263632
 30
0.0
 40
1.0
100
AcDbArc
 50
180.0
 51
270.0
  0
LINE
  5
580
330
1E
100
AcDbEntity
  8
0
  6
Continuous
 62
     1
100
AcDbLine
 10
-656.4788733167981
 20
-97.40896922636331
 30
0.0
 11
-642.5888733167981
 21
-97.40896922636331
 31
0.0
  0
ARC
  5
581
330
1E
100
AcDbEntity
  8
0
  6
Continuous
 62
     1
100
AcDbCircle
 10
-656.4788733167981
 20
-98.4089692263633
 30
0.0
 40
1.0
100
AcDbArc
 50
90.0
 51
180.0
  0
ARC
  5
582
330
1E
100
AcDbEntity
  8
0
  6
Continuous
 62
     1
100
AcDbCircle
 10
-641.9888733167981
 20
-98.4089692263633
 30
0.0
 40
1.0
100
AcDbArc
 50
90.0
 51
180.0
  0
LINE
  5
583
330
1E
100
AcDbEntity
  8
0
  6
Continuous
 62
     1
100
AcDbLine
 10
-570.6388733167982
 20
-101.3589692263632
 30
0.0
 11
-574.1388733167982
 21
-101.3589692263632
 31
0.0
  0
LINE
  5
584
330
1E
100
AcDbEntity
  8
0
  6
Continuous
 62
     1
100
AcDbLine
 10
-578.2888733167981
 20
-101.3589692263632
 30
0.0
 11
-574.1388733167982
 21
-101.3589692263632
 31
0.0
  0
LINE
  5
585
330
1E
100
AcDbEntity
  8
0
  6
Continuous
 62
     1
100
AcDbLine
 10
-570.6388733167982
 20
-101.3589692263632
 30
0.0
 11
-567.1388733167982
 21
-101.3589692263632
 31
0.0
  0
LINE
  5
586
330
1E
100
AcDbEntity
  8
0
  6
Continuous
 62
     1
100
AcDbLine
 10
-565.1388733167983
 20
-140.9589692263632
 30
0.0
 11
-565.1388733167983
 21
-101.8589692263632
 31
0.0
  0
ARC
  5
587
330
1E
100
AcDbEntity
  8
0
  6
Continuous
 62
     1
100
AcDbCircle
 10
-565.6388733167982
 20
-101.8589692263632
 30
0.0
 40
0.5
100
AcDbArc
 50
0.0
 51
90.0
  0
LINE
  5
588
330
1E
100
AcDbEntity
  8
0
  6
Continuous
 62
     1
100
AcDbLine
 10
-565.6388733167982
 20
-101.3589692263632
 30
0.0
 11
-567.4578733167982
 21
-101.3589692263632
 31
0.0
  0
LINE
  5
589
330
1E
100
AcDbEntity
  8
0
  6
Continuous
 62
     1
100
AcDbLine
 10
-567.1388733167982
 20
-141.4589692263632
 30
0.0
 11
-565.6388733167982
 21
-141.4589692263632
 31
0.0
  0
ARC
  5
58A
330
1E
100
AcDbEntity
  8
0
  6
Continuous
 62
     1
100
AcDbCircle
 10
-565.6388733167982
 20
-140.9589692263632
 30
0.0
 40
0.5
100
AcDbArc
 50
270.0
 51
0.0
  0
LINE
  5
58B
330
1E
100
AcDbEntity
  8
0
  6
Continuous
 62
     1
100
AcDbLine
 10
-570.6388733167982
 20
-141.4589692263632
 30
0.0
 11
-567.1388733167982
 21
-141.4589692263632
 31
0.0
  0
LINE
  5
58C
330
1E
100
AcDbEntity
  8
0
  6
Continuous
 62
     1
100
AcDbLine
 10
-570.6388733167982
 20
-141.4589692263632
 30
0.0
 11
-574.1388733167982
 21
-141.4589692263632
 31
0.0
  0
LINE
  5
58D
330
1E
100
AcDbEntity
  8
0
  6
Continuous
 62
     1
100
AcDbLine
 10
-574.1388733167982
 20
-141.4589692263632
 30
0.0
 11
-574.1388733167982
 21
-139.9589692263632
 31
0.0
  0
LINE
  5
58E
330
1E
100
AcDbEntity
  8
0
  6
Continuous
 62
     1
100
AcDbLine
 10
-574.1388733167982
 20
-141.4589692263632
 30
0.0
 11
-578.2888733167981
 21
-141.4589692263632
 31
0.0
  0
LINE
  5
58F
330
1E
100
AcDbEntity
  8
0
  6
Continuous
 62
     1
100
AcDbLine
 10
-576.4888733167981
 20
-139.8589692263632
 30
0.0
 11
-574.1388733167982
 21
-139.8589692263632
 31
0.0
  0
LINE
  5
590
330
1E
100
AcDbEntity
  8
0
  6
Continuous
 62
     1
100
AcDbLine
 10
-574.1388733167982
 20
-141.4589692263632
 30
0.0
 11
-574.1388733167982
 21
-139.8589692263632
 31
0.0
  0
LINE
  5
591
330
1E
100
AcDbEntity
  8
0
  6
Continuous
 62
     1
100
AcDbLine
 10
-576.4888733167981
 20
-102.9589692263632
 30
0.0
 11
-576.4888733167981
 21
-139.8589692263632
 31
0.0
  0
LINE
  5
592
330
1E
100
AcDbEntity
  8
0
  6
Continuous
 62
     1
100
AcDbLine
 10
-647.1388733167982
 20
-101.3589692263632
 30
0.0
 11
-642.9888733167981
 21
-101.3589692263632
 31
0.0
  0
LINE
  5
593
330
1E
100
AcDbEntity
  8
0
  6
Continuous
 62
     1
100
AcDbLine
 10
-650.6388733167982
 20
-101.3589692263632
 30
0.0
 11
-647.1388733167982
 21
-101.3589692263632
 31
0.0
  0
LINE
  5
594
330
1E
100
AcDbEntity
  8
0
  6
Continuous
 62
     1
100
AcDbLine
 10
-650.6388733167982
 20
-101.3589692263632
 30
0.0
 11
-654.1388733167982
 21
-101.3589692263632
 31
0.0
  0
LINE
  5
595
330
1E
100
AcDbEntity
  8
0
  6
Continuous
 62
     1
100
AcDbLine
 10
-654.1388733167982
 20
-101.3589692263632
 30
0.0
 11
-648.1388733167982
 21
-101.3589692263632
 31
0.0
  0
LINE
  5
596
330
1E
100
AcDbEntity
  8
0
  6
Continuous
 62
     1
100
AcDbLine
 10
-654.1388733167982
 20
-101.3589692263632
 30
0.0
 11
-655.6388733167982
 21
-101.3589692263632
 31
0.0
  0
ARC
  5
597
330
1E
100
AcDbEntity
  8
0
  6
Continuous
 62
     1
100
AcDbCircle
 10
-655.6388733167982
 20
-101.8589692263632
 30
0.0
 40
0.5
100
AcDbArc
 50
90.0
 51
180.0
  0
LINE
  5
598
330
1E
100
AcDbEntity
  8
0
  6
Continuous
 62
     1
100
AcDbLine
 10
-656.1388733167982
 20
-101.8589692263632
 30
0.0
 11
-656.1388733167982
 21
-140.9589692263632
 31
0.0
  0
ARC
  5
599
330
1E
100
AcDbEntity
  8
0
  6
Continuous
 62
     1
100
AcDbCircle
 10
-655.6388733167982
 20
-140.9589692263632
 30
0.0
 40
0.5
100
AcDbArc
 50
180.0
 51
270.0
  0
LINE
  5
59A
330
1E
100
AcDbEntity
  8
0
  6
Continuous
 62
     1
100
AcDbLine
 10
-655.6388733167982
 20
-141.4589692263632
 30
0.0
 11
-653.8198733167981
 21
-141.4589692263632
 31
0.0
  0
LINE
  5
59B
330
1E
100
AcDbEntity
  8
0
  6
Continuous
 62
     1
100
AcDbLine
 10
-650.6388733167982
 20
-141.4589692263632
 30
0.0
 11
-654.1388733167982
 21
-141.4589692263632
 31
0.0
  0
LINE
  5
59C
330
1E
100
AcDbEntity
  8
0
  6
Continuous
 62
     1
100
AcDbLine
 10
-650.6388733167982
 20
-141.4589692263632
 30
0.0
 11
-647.1388733167982
 21
-141.4589692263632
 31
0.0
  0
LINE
  5
59D
330
1E
100
AcDbEntity
  8
0
  6
Continuous
 62
     1
100
AcDbLine
 10
-642.9888733167981
 20
-141.4589692263632
 30
0.0
 11
-647.1388733167982
 21
-141.4589692263632
 31
0.0
  0
LINE
  5
59E
330
1E
100
AcDbEntity
  8
0
  6
Continuous
 62
     1
100
AcDbLine
 10
-647.1388733167982
 20
-141.4589692263632
 30
0.0
 11
-647.1388733167982
 21
-139.9589692263632
 31
0.0
  0
LINE
  5
59F
330
1E
100
AcDbEntity
  8
0
  6
Continuous
 62
     1
100
AcDbLine
 10
-644.7888733167982
 20
-139.8589692263632
 30
0.0
 11
-647.1388733167982
 21
-139.8589692263632
 31
0.0
  0
LINE
  5
5A0
330
1E
100
AcDbEntity
  8
0
  6
Continuous
 62
     1
100
AcDbLine
 10
-644.7888733167982
 20
-139.8589692263632
 30
0.0
 11
-644.7888733167982
 21
-102.9589692263632
 31
0.0
  0
LINE
  5
5A1
330
1E
100
AcDbEntity
  8
0
  6
Continuous
 62
     1
100
AcDbLine
 10
-647.1388733167982
 20
-101.3589692263632
 30
0.0
 11
-647.1388733167982
 21
-102.8589692263632
 31
0.0
  0
LINE
  5
5A2
330
1E
100
AcDbEntity
  8
0
  6
Continuous
 62
     1
100
AcDbLine
 10
-648.1388733167982
 20
-101.3589692263632
 30
0.0
 11
-648.1388733167982
 21
-102.3589692263632
 31
0.0
  0
LINE
  5
5A3
330
1E
100
AcDbEntity
  8
0
  6
Continuous
 62
     1
100
AcDbLine
 10
-648.1388733167982
 20
-102.3589692263632
 30
0.0
 11
-650.6388733167982
 21
-102.3589692263632
 31
0.0
  0
LINE
  5
5A4
330
1E
100
AcDbEntity
  8
0
  6
Continuous
 62
     1
100
AcDbLine
 10
-653.1388733167982
 20
-102.3589692263632
 30
0.0
 11
-650.6388733167982
 21
-102.3589692263632
 31
0.0
  0
LINE
  5
5A5
330
1E
100
AcDbEntity
  8
0
  6
Continuous
 62
     1
100
AcDbLine
 10
-653.1388733167982
 20
-101.3589692263632
 30
0.0
 11
-653.1388733167982
 21
-102.3589692263632
 31
0.0
  0
LINE
  5
5A6
330
1E
100
AcDbEntity
  8
0
  6
Continuous
 62
     1
100
AcDbLine
 10
-644.7888733167982
 20
-102.9589692263632
 30
0.0
 11
-647.1388733167982
 21
-102.9589692263632
 31
0.0
  0
LINE
  5
5A7
330
1E
100
AcDbEntity
  8
0
  6
Continuous
 62
     1
100
AcDbLine
 10
-647.1388733167982
 20
-101.3589692263632
 30
0.0
 11
-647.1388733167982
 21
-102.9589692263632
 31
0.0
  0
LINE
  5
5A8
330
1E
100
AcDbEntity
  8
0
  6
Continuous
 62
     1
100
AcDbLine
 10
-648.1388733167982
 20
-141.4589692263632
 30
0.0
 11
-648.1388733167982
 21
-140.4589692263632
 31
0.0
  0
LINE
  5
5A9
330
1E
100
AcDbEntity
  8
0
  6
Continuous
 62
     1
100
AcDbLine
 10
-648.1388733167982
 20
-140.4589692263632
 30
0.0
 11
-650.6388733167982
 21
-140.4589692263632
 31
0.0
  0
LINE
  5
5AA
330
1E
100
AcDbEntity
  8
0
  6
Continuous
 62
     1
100
AcDbLine
 10
-653.1388733167982
 20
-140.4589692263632
 30
0.0
 11
-650.6388733167982
 21
-140.4589692263632
 31
0.0
  0
LINE
  5
5AB
330
1E
100
AcDbEntity
  8
0
  6
Continuous
 62
     1
100
AcDbLine
 10
-653.1388733167982
 20
-141.4589692263632
 30
0.0
 11
-653.1388733167982
 21
-140.4589692263632
 31
0.0
  0
LINE
  5
5AC
330
1E
100
AcDbEntity
  8
0
  6
Continuous
 62
     1
100
AcDbLine
 10
-654.6388733167982
 20
-109.5089692263632
 30
0.0
 11
-655.6388733167982
 21
-109.5089692263632
 31
0.0
  0
ARC
  5
5AD
330
1E
100
AcDbEntity
  8
0
  6
Continuous
 62
     1
100
AcDbCircle
 10
-655.6388733167982
 20
-109.0089692263632
 30
0.0
 40
0.5
100
AcDbArc
 50
180.0
 51
270.0
  0
LINE
  5
5AE
330
1E
100
AcDbEntity
  8
0
  6
Continuous
 62
     1
100
AcDbLine
 10
-654.6388733167982
 20
-111.3089692263632
 30
0.0
 11
-655.6388733167982
 21
-111.3089692263632
 31
0.0
  0
LINE
  5
5AF
330
1E
100
AcDbEntity
  8
0
  6
Continuous
 62
     1
100
AcDbLine
 10
-656.1388733167982
 20
-111.8089692263632
 30
0.0
 11
-656.1388733167982
 21
-121.4089692263632
 31
0.0
  0
ARC
  5
5B0
330
1E
100
AcDbEntity
  8
0
  6
Continuous
 62
     1
100
AcDbCircle
 10
-655.6388733167982
 20
-111.8089692263632
 30
0.0
 40
0.5
100
AcDbArc
 50
90.0
 51
180.0
  0
LINE
  5
5B1
330
1E
100
AcDbEntity
  8
0
  6
Continuous
 62
     1
100
AcDbLine
 10
-654.6388733167982
 20
-118.9089692263632
 30
0.0
 11
-656.1388733167982
 21
-118.9089692263632
 31
0.0
  0
LINE
  5
5B2
330
1E
100
AcDbEntity
  8
0
  6
Continuous
 62
     1
100
AcDbLine
 10
-654.6388733167982
 20
-123.9089692263632
 30
0.0
 11
-656.1388733167982
 21
-123.9089692263632
 31
0.0
  0
LINE
  5
5B3
330
1E
100
AcDbEntity
  8
0
  6
Continuous
 62
     1
100
AcDbLine
 10
-654.6388733167982
 20
-131.5089692263633
 30
0.0
 11
-655.6388733167982
 21
-131.5089692263633
 31
0.0
  0
LINE
  5
5B4
330
1E
100
AcDbEntity
  8
0
  6
Continuous
 62
     1
100
AcDbLine
 10
-656.1388733167982
 20
-131.0089692263632
 30
0.0
 11
-656.1388733167982
 21
-121.4089692263632
 31
0.0
  0
ARC
  5
5B5
330
1E
100
AcDbEntity
  8
0
  6
Continuous
 62
     1
100
AcDbCircle
 10
-655.6388733167982
 20
-131.0089692263632
 30
0.0
 40
0.5
100
AcDbArc
 50
180.0
 51
270.0
  0
LINE
  5
5B6
330
1E
100
AcDbEntity
  8
0
  6
Continuous
 62
     1
100
AcDbLine
 10
-654.6388733167982
 20
-133.3089692263632
 30
0.0
 11
-655.6388733167982
 21
-133.3089692263632
 31
0.0
  0
ARC
  5
5B7
330
1E
100
AcDbEntity
  8
0
  6
Continuous
 62
     1
100
AcDbCircle
 10
-655.6388733167982
 20
-133.8089692263632
 30
0.0
 40
0.5
100
AcDbArc
 50
90.0
 51
180.0
  0
LINE
  5
5B8
330
1E
100
AcDbEntity
  8
0
  6
Continuous
 62
     1
100
AcDbLine
 10
-566.6388733167982
 20
-133.3089692263632
 30
0.0
 11
-565.6388733167982
 21
-133.3089692263632
 31
0.0
  0
ARC
  5
5B9
330
1E
100
AcDbEntity
  8
0
  6
Continuous
 62
     1
100
AcDbCircle
 10
-565.6388733167982
 20
-133.8089692263632
 30
0.0
 40
0.5
100
AcDbArc
 50
0.0
 51
90.0
  0
LINE
  5
5BA
330
1E
100
AcDbEntity
  8
0
  6
Continuous
 62
     1
100
AcDbLine
 10
-566.6388733167982
 20
-131.5089692263633
 30
0.0
 11
-565.6388733167982
 21
-131.5089692263633
 31
0.0
  0
ARC
  5
5BB
330
1E
100
AcDbEntity
  8
0
  6
Continuous
 62
     1
100
AcDbCircle
 10
-565.6388733167982
 20
-131.0089692263632
 30
0.0
 40
0.5
100
AcDbArc
 50
270.0
 51
0.0
  0
LINE
  5
5BC
330
1E
100
AcDbEntity
  8
0
  6
Continuous
 62
     1
100
AcDbLine
 10
-566.6388733167982
 20
-123.9089692263632
 30
0.0
 11
-565.1388733167983
 21
-123.9089692263632
 31
0.0
  0
LINE
  5
5BD
330
1E
100
AcDbEntity
  8
0
  6
Continuous
 62
     1
100
AcDbLine
 10
-566.6388733167982
 20
-118.9089692263632
 30
0.0
 11
-565.1388733167983
 21
-118.9089692263632
 31
0.0
  0
LINE
  5
5BE
330
1E
100
AcDbEntity
  8
0
  6
Continuous
 62
     1
100
AcDbLine
 10
-566.6388733167982
 20
-111.3089692263632
 30
0.0
 11
-565.6388733167982
 21
-111.3089692263632
 31
0.0
  0
LINE
  5
5BF
330
1E
100
AcDbEntity
  8
0
  6
Continuous
 62
     1
100
AcDbLine
 10
-565.1388733167983
 20
-111.8089692263632
 30
0.0
 11
-565.1388733167983
 21
-121.4089692263632
 31
0.0
  0
ARC
  5
5C0
330
1E
100
AcDbEntity
  8
0
  6
Continuous
 62
     1
100
AcDbCircle
 10
-565.6388733167982
 20
-111.8089692263632
 30
0.0
 40
0.5
100
AcDbArc
 50
0.0
 51
90.0
  0
LINE
  5
5C1
330
1E
100
AcDbEntity
  8
0
  6
Continuous
 62
     1
100
AcDbLine
 10
-566.6388733167982
 20
-109.5089692263632
 30
0.0
 11
-565.6388733167982
 21
-109.5089692263632
 31
0.0
  0
ARC
  5
5C2
330
1E
100
AcDbEntity
  8
0
  6
Continuous
 62
     1
100
AcDbCircle
 10
-565.6388733167982
 20
-109.0089692263632
 30
0.0
 40
0.5
100
AcDbArc
 50
270.0
 51
0.0
  0
LINE
  5
5C3
330
1E
100
AcDbEntity
  8
0
  6
Continuous
 62
     1
100
AcDbLine
 10
-628.7988733177982
 20
-218.4089692193632
 30
0.0
 11
-657.7988733177981
 21
-218.4089692193632
 31
0.0
  0
LINE
  5
5C4
330
1E
100
AcDbEntity
  8
0
  6
Continuous
 62
     1
100
AcDbLine
 10
-657.6479841677982
 20
-201.9997742053633
 30
0.0
 11
-657.7988733177981
 21
-218.4089692193632
 31
0.0
  0
LINE
  5
5C5
330
1E
100
AcDbEntity
  8
0
  6
Continuous
 62
     1
100
AcDbLine
 10
-656.6388733177982
 20
-201.0089692193632
 30
0.0
 11
-643.1841994047982
 21
-201.0089692193632
 31
0.0
  0
ARC
  5
5C6
330
1E
100
AcDbEntity
  8
0
  6
Continuous
 62
     1
100
AcDbCircle
 10
-656.6388733177982
 20
-202.0089692193632
 30
0.0
 40
1.0
100
AcDbArc
 50
90.0
 51
180.0
  0
LINE
  5
5C7
330
1E
100
AcDbEntity
  8
0
  6
Continuous
 62
     1
100
AcDbLine
 10
-643.1841994047982
 20
-201.0089692193632
 30
0.0
 11
-643.0258886187982
 21
-178.6019041783633
 31
0.0
  0
ARC
  5
5C8
330
1E
100
AcDbEntity
  8
0
  6
Continuous
 62
     1
100
AcDbCircle
 10
-642.0259135767982
 20
-178.6089692193633
 30
0.0
 40
1.0
100
AcDbArc
 50
90.0
 51
179.5951995979999
  0
LINE
  5
5C9
330
1E
100
AcDbEntity
  8
0
  6
Continuous
 62
     1
100
AcDbLine
 10
-642.0259135767982
 20
-177.6089692193633
 30
0.0
 11
-610.7988733177982
 21
-177.6089692193633
 31
0.0
  0
LINE
  5
5CA
330
1E
100
AcDbEntity
  8
0
  6
Continuous
 62
     1
100
AcDbLine
 10
-579.5718330587982
 20
-177.6089692193633
 30
0.0
 11
-610.7988733177982
 21
-177.6089692193633
 31
0.0
  0
LINE
  5
5CB
330
1E
100
AcDbEntity
  8
0
  6
Continuous
 62
     1
100
AcDbLine
 10
-578.4135472307982
 20
-201.0089692193632
 30
0.0
 11
-578.5718580167981
 21
-178.6019041783633
 31
0.0
  0
LINE
  5
5CC
330
1E
100
AcDbEntity
  8
0
  6
Continuous
 62
     1
100
AcDbLine
 10
-578.4135472307982
 20
-201.0089692193632
 30
0.0
 11
-566.7988733177982
 21
-201.0089692193632
 31
0.0
  0
LINE
  5
5CD
330
1E
100
AcDbEntity
  8
0
  6
Continuous
 62
     1
100
AcDbLine
 10
-563.7988733177982
 20
-218.4089692193632
 30
0.0
 11
-563.9541962477982
 21
-202.0089692193632
 31
0.0
  0
ARC
  5
5CE
330
1E
100
AcDbEntity
  8
0
  6
Continuous
 62
     1
100
AcDbCircle
 10
-564.9541962477981
 20
-202.0089692193632
 30
0.0
 40
1.0
100
AcDbArc
 50
0.0
 51
90.0
  0
ARC
  5
5CF
330
1E
100
AcDbEntity
  8
0
  6
Continuous
 62
     1
100
AcDbCircle
 10
-564.9497201917982
 20
-202.0089692193632
 30
0.0
 40
1.0
100
AcDbArc
 50
0.526842894
 51
90.0
  0
LINE
  5
5D0
330
1E
100
AcDbEntity
  8
0
  6
Continuous
 62
     1
100
AcDbLine
 10
-566.7988733177982
 20
-201.0089692193632
 30
0.0
 11
-564.9497201917982
 21
-201.0089692193632
 31
0.0
  0
LINE
  5
5D1
330
1E
100
AcDbEntity
  8
0
  6
Continuous
 62
     1
100
AcDbLine
 10
-592.7988733177982
 20
-218.4089692203633
 30
0.0
 11
-563.7988733177982
 21
-218.4089692193632
 31
0.0
  0
LINE
  5
5D2
330
1E
100
AcDbEntity
  8
0
  6
Continuous
 62
     1
100
AcDbLine
 10
-563.7988733177982
 20
-218.4089692193632
 30
0.0
 11
-592.7988733177982
 21
-218.4089692193632
 31
0.0
  0
LINE
  5
5D3
330
1E
100
AcDbEntity
  8
0
  6
Continuous
 62
     1
100
AcDbLine
 10
-594.7138733177982
 20
-215.9089692193632
 30
0.0
 11
-592.8738256397982
 21
-217.5657555903633
 31
0.0
  0
LWPOLYLINE
  5
5D4
330
1E
100
AcDbEntity
  8
0
 62
     1
100
AcDbPolyline
 90
        3
 70
     0
 43
0.0
 10
-584.5488733177981
 20
-213.9089692193632
 10
-580.0488733177981
 20
-213.9089692193632
 10
-580.0488733177981
 20
-216.4089692193632
  0
LINE
  5
5D9
330
1E
100
AcDbEntity
  8
0
  6
Continuous
 62
     1
100
AcDbLine
 10
-584.5488733177981
 20
-216.4089692193632
 30
0.0
 11
-584.5488733177981
 21
-213.9089692193632
 31
0.0
  0
LINE
  5
5DA
330
1E
100
AcDbEntity
  8
0
  6
Continuous
 62
     1
100
AcDbLine
 10
-580.0488733177981
 20
-216.4089692193632
 30
0.0
 11
-584.5488733177981
 21
-216.4089692193632
 31
0.0
  0
LWPOLYLINE
  5
5DB
330
1E
100
AcDbEntity
  8
0
 62
     1
100
AcDbPolyline
 90
        4
 70
     1
 43
0.0
 10
-641.5488733177982
 20
-213.9089692193632
 10
-637.0488733177982
 20
-213.9089692193632
 10
-637.0488733177982
 20
-216.4089692193632
 10
-641.5488733177982
 20
-216.4089692193632
  0
LINE
  5
5E1
330
1E
100
AcDbEntity
  8
0
  6
Continuous
 62
     1
100
AcDbLine
 10
-645.4883999007981
 20
-196.0089692193632
 30
0.0
 11
-643.1488733177982
 21
-196.0089692193632
 31
0.0
  0
LINE
  5
5E2
330
1E
100
AcDbEntity
  8
0
  6
Continuous
 62
     1
100
AcDbLine
 10
-647.1488733177982
 20
-196.5089692193632
 30
0.0
 11
-647.1488733177982
 21
-201.0089692193632
 31
0.0
  0
ARC
  5
5E3
330
1E
100
AcDbEntity
  8
0
  6
Continuous
 62
     1
100
AcDbCircle
 10
-646.6488733177982
 20
-196.5089692193632
 30
0.0
 40
0.5
100
AcDbArc
 50
90.0
 51
180.0
  0
LINE
  5
5E4
330
1E
100
AcDbEntity
  8
0
  6
Continuous
 62
     1
100
AcDbLine
 10
-576.1093467347982
 20
-196.0089692193632
 30
0.0
 11
-578.4488733177981
 21
-196.0089692193632
 31
0.0
  0
LINE
  5
5E5
330
1E
100
AcDbEntity
  8
0
  6
Continuous
 62
     1
100
AcDbLine
 10
-578.4488733177981
 20
-196.0089692193632
 30
0.0
 11
-574.9488733177981
 21
-196.0089692193632
 31
0.0
  0
ARC
  5
5E6
330
1E
100
AcDbEntity
  8
0
  6
Continuous
 62
     1
100
AcDbCircle
 10
-574.9488733177981
 20
-196.5089692193632
 30
0.0
 40
0.5
100
AcDbArc
 50
0.0
 51
90.0
  0
LINE
  5
5E7
330
1E
100
AcDbEntity
  8
0
  6
Continuous
 62
     1
100
AcDbLine
 10
-574.4488733177981
 20
-196.5089692193632
 30
0.0
 11
-574.4488733177981
 21
-201.0089692193632
 31
0.0
  0
ARC
  5
5E8
330
1E
100
AcDbEntity
  8
0
  6
Continuous
 62
     1
100
AcDbCircle
 10
-579.5718330587982
 20
-178.6089692193633
 30
0.0
 40
1.0
100
AcDbArc
 50
0.4048004020000001
 51
90.0
  0
TEXT
  5
5E9
330
1E
100
AcDbEntity
  8
0
  6
Continuous
 62
     5
100
AcDbText
 10
-614.7488733177981
 20
-227.8089692203633
 30
0.3
 40
3.0
  1
３５.４
 41
0.6
  7
KANJI0
100
AcDbText
  0
LINE
  5
5EA
330
1E
100
AcDbEntity
  8
0
  6
Continuous
 62
     5
100
AcDbLine
 10
-628.6988733177982
 20
-228.8089692203632
 30
0.3
 11
-626.2840587517981
 21
-228.1619216073632
 31
0.3
  0
LINE
  5
5EB
330
1E
100
AcDbEntity
  8
0
  6
Continuous
 62
     5
100
AcDbLine
 10
-628.6988733177982
 20
-228.8089692203632
 30
0.0
 11
-626.2840587517981
 21
-229.4560168333632
 31
0.0
  0
LINE
  5
5EC
330
1E
100
AcDbEntity
  8
0
  6
Continuous
 62
     5
100
AcDbLine
 10
-592.6988733177982
 20
-228.8089692203632
 30
0.0
 11
-595.1136878837981
 21
-229.4560168333632
 31
0.0
  0
LINE
  5
5ED
330
1E
100
AcDbEntity
  8
0
  6
Continuous
 62
     5
100
AcDbLine
 10
-592.6988733177982
 20
-228.8089692203632
 30
0.0
 11
-595.1136878837981
 21
-228.1619216073632
 31
0.0
  0
LINE
  5
5EE
330
1E
100
AcDbEntity
  8
0
  6
Continuous
 62
     5
100
AcDbLine
 10
-592.6988733177982
 20
-228.8089692203632
 30
0.0
 11
-628.6988733177982
 21
-228.8089692203632
 31
0.0
  0
LINE
  5
5EF
330
1E
100
AcDbEntity
  8
0
  6
Continuous
 62
     5
100
AcDbLine
 10
-592.6988733177982
 20
-220.4089692193632
 30
0.0
 11
-592.6988733177982
 21
-230.8089692203632
 31
0.0
  0
LINE
  5
5F0
330
1E
100
AcDbEntity
  8
0
  6
Continuous
 62
     5
100
AcDbLine
 10
-628.6988733177982
 20
-220.4089692193632
 30
0.0
 11
-628.6988733177982
 21
-230.8089692203632
 31
0.0
  0
LINE
  5
5F1
330
1E
100
AcDbEntity
  8
0
  6
Continuous
 62
     3
100
AcDbLine
 10
-645.2888733167982
 20
-103.2589692263632
 30
0.0
 11
-645.2888733167982
 21
-104.0089692263632
 31
0.0
  0
LINE
  5
5F2
330
1E
100
AcDbEntity
  8
0
  6
Continuous
 62
     3
100
AcDbLine
 10
-645.7888733167982
 20
-111.9589692263632
 30
0.0
 11
-645.7888733167982
 21
-112.7089692263632
 31
0.0
  0
LINE
  5
5F3
330
1E
100
AcDbEntity
  8
0
  6
Continuous
 62
     3
100
AcDbLine
 10
-645.7888733167982
 20
-129.3589692263632
 30
0.0
 11
-645.7888733167982
 21
-130.1089692263632
 31
0.0
  0
LINE
  5
5F4
330
1E
100
AcDbEntity
  8
0
  6
Continuous
 62
     1
100
AcDbLine
 10
-591.7152195277982
 20
-280.4089692193633
 30
0.0
 11
-591.7152195287981
 21
-260.4089692193633
 31
0.0
  0
LINE
  5
5F5
330
1E
100
AcDbEntity
  8
0
  6
Continuous
 62
     1
100
AcDbLine
 10
-594.3312543587982
 20
-259.1589692193632
 30
0.0
 11
-594.3312543587982
 21
-260.4089692193633
 31
0.0
  0
LINE
  5
5F6
330
1E
100
AcDbEntity
  8
0
  6
Continuous
 62
     1
100
AcDbLine
 10
-592.7138733167981
 20
-259.0589692193633
 30
0.0
 11
-592.7138733167981
 21
-247.9589692193632
 31
0.0
  0
LINE
  5
5F7
330
1E
100
AcDbEntity
  8
0
  6
Continuous
 62
     1
100
AcDbLine
 10
-594.3312543577982
 20
-281.6589692193632
 30
0.0
 11
-594.3312543577982
 21
-280.4089692193633
 31
0.0
  0
LINE
  5
5F8
330
1E
100
AcDbEntity
  8
0
  6
Continuous
 62
     1
100
AcDbLine
 10
-592.7138733147982
 20
-281.7589692193632
 30
0.0
 11
-592.7138733147982
 21
-292.8589692193633
 31
0.0
  0
LWPOLYLINE
  5
5F9
330
1E
100
AcDbEntity
  8
0
 62
     1
100
AcDbPolyline
 90
        3
 70
     0
 43
0.0
 10
3.141492651413534E+99
 20
1.269263905633295E+99
 10
3.141492651413534E+99
 20
1.269263905633295E+99
 10
3.141492651413534E+99
 20
1.269263905633295E+99
  0
POINT
  5
5FE
330
1E
100
AcDbEntity
  8
0
  6
Continuous
 62
     1
100
AcDbPoint
 10
-1.470580238991736E+63
 20
-5.941616374145985E+73
 30
0.0
  0
POINT
  5
5FF
330
1E
100
AcDbEntity
  8
0
  6
Continuous
 62
     1
100
AcDbPoint
 10
-1.470580238991736E+63
 20
-5.941616374145985E+73
 30
0.0
  0
POINT
  5
600
330
1E
100
AcDbEntity
  8
0
  6
Continuous
 62
     1
100
AcDbPoint
 10
3.141492651413534E+99
 20
1.269263905633295E+99
 30
0.0
  0
POINT
  5
601
330
1E
100
AcDbEntity
  8
0
  6
Continuous
 62
     1
100
AcDbPoint
 10
3.141492651413534E+99
 20
1.269263905633295E+99
 30
0.0
  0
POINT
  5
602
330
1E
100
AcDbEntity
  8
0
  6
Continuous
 62
     1
100
AcDbPoint
 10
-1.470580238991736E+63
 20
-5.941616374145985E+73
 30
0.0
  0
POINT
  5
603
330
1E
100
AcDbEntity
  8
0
  6
Continuous
 62
     1
100
AcDbPoint
 10
-1.470580238991736E+63
 20
-5.941616374145985E+73
 30
0.0
  0
POINT
  5
604
330
1E
100
AcDbEntity
  8
0
  6
Continuous
 62
     1
100
AcDbPoint
 10
3.141492651413534E+99
 20
1.269263905633295E+99
 30
0.0
  0
POINT
  5
605
330
1E
100
AcDbEntity
  8
0
  6
Continuous
 62
     1
100
AcDbPoint
 10
3.141492651413534E+99
 20
1.269263905633295E+99
 30
0.0
  0
POINT
  5
606
330
1E
100
AcDbEntity
  8
0
  6
Continuous
 62
     1
100
AcDbPoint
 10
-1.470580238991736E+63
 20
-5.941616374145985E+73
 30
0.0
  0
POINT
  5
607
330
1E
100
AcDbEntity
  8
0
  6
Continuous
 62
     1
100
AcDbPoint
 10
-1.470580238991736E+63
 20
-5.941616374145985E+73
 30
0.0
  0
POINT
  5
608
330
1E
100
AcDbEntity
  8
0
  6
Continuous
 62
     1
100
AcDbPoint
 10
3.141492651413534E+99
 20
1.269263905633295E+99
 30
0.0
  0
POINT
  5
609
330
1E
100
AcDbEntity
  8
0
  6
Continuous
 62
     1
100
AcDbPoint
 10
3.141492651413534E+99
 20
1.269263905633295E+99
 30
0.0
  0
POINT
  5
60A
330
1E
100
AcDbEntity
  8
0
  6
Continuous
 62
     1
100
AcDbPoint
 10
-1.470580238991736E+63
 20
-5.941616374145985E+73
 30
0.0
  0
POINT
  5
60B
330
1E
100
AcDbEntity
  8
0
  6
Continuous
 62
     1
100
AcDbPoint
 10
-1.470580238991736E+63
 20
-5.941616374145985E+73
 30
0.0
  0
POINT
  5
60C
330
1E
100
AcDbEntity
  8
0
  6
Continuous
 62
     1
100
AcDbPoint
 10
3.141492651413534E+99
 20
1.269263905633295E+99
 30
0.0
  0
POINT
  5
60D
330
1E
100
AcDbEntity
  8
0
  6
Continuous
 62
     1
100
AcDbPoint
 10
3.141492651413534E+99
 20
1.269263905633295E+99
 30
0.0
  0
POINT
  5
60E
330
1E
100
AcDbEntity
  8
0
  6
Continuous
 62
     1
100
AcDbPoint
 10
-1.470580238991736E+63
 20
-5.941616374145985E+73
 30
0.0
  0
POINT
  5
60F
330
1E
100
AcDbEntity
  8
0
  6
Continuous
 62
     1
100
AcDbPoint
 10
-1.470580238991736E+63
 20
-5.941616374145985E+73
 30
0.0
  0
POINT
  5
610
330
1E
100
AcDbEntity
  8
0
  6
Continuous
 62
     1
100
AcDbPoint
 10
3.141492651413534E+99
 20
1.269263905633295E+99
 30
0.0
  0
POINT
  5
611
330
1E
100
AcDbEntity
  8
0
  6
Continuous
 62
     1
100
AcDbPoint
 10
3.141492651413534E+99
 20
1.269263905633295E+99
 30
0.0
  0
POINT
  5
612
330
1E
100
AcDbEntity
  8
0
  6
Continuous
 62
     1
100
AcDbPoint
 10
-1.470580238991736E+63
 20
-5.941616374145985E+73
 30
0.0
  0
POINT
  5
613
330
1E
100
AcDbEntity
  8
0
  6
Continuous
 62
     1
100
AcDbPoint
 10
-1.470580238991736E+63
 20
-5.941616374145985E+73
 30
0.0
  0
LWPOLYLINE
  5
614
330
1E
100
AcDbEntity
  8
0
 62
     1
100
AcDbPolyline
 90
        3
 70
     0
 43
0.0
 10
3.141492651413534E+99
 20
1.269263905633295E+99
 10
3.141492651413534E+99
 20
1.269263905633295E+99
 10
3.141492651413534E+99
 20
1.269263905633295E+99
  0
POINT
  5
619
330
1E
100
AcDbEntity
  8
0
  6
Continuous
 62
     1
100
AcDbPoint
 10
-1.470580238991736E+63
 20
-5.941616374145985E+73
 30
0.0
  0
POINT
  5
61A
330
1E
100
AcDbEntity
  8
0
  6
Continuous
 62
     1
100
AcDbPoint
 10
-1.470580238991736E+63
 20
-5.941616374145985E+73
 30
0.0
  0
POINT
  5
61B
330
1E
100
AcDbEntity
  8
0
  6
Continuous
 62
     1
100
AcDbPoint
 10
3.141492651413534E+99
 20
1.269263905633295E+99
 30
0.0
  0
POINT
  5
61C
330
1E
100
AcDbEntity
  8
0
  6
Continuous
 62
     1
100
AcDbPoint
 10
3.141492651413534E+99
 20
1.269263905633295E+99
 30
0.0
  0
POINT
  5
61D
330
1E
100
AcDbEntity
  8
0
  6
Continuous
 62
     1
100
AcDbPoint
 10
-1.470580238991736E+63
 20
-5.941616374145985E+73
 30
0.0
  0
POINT
  5
61E
330
1E
100
AcDbEntity
  8
0
  6
Continuous
 62
     1
100
AcDbPoint
 10
-1.470580238991736E+63
 20
-5.941616374145985E+73
 30
0.0
  0
POINT
  5
61F
330
1E
100
AcDbEntity
  8
0
  6
Continuous
 62
     1
100
AcDbPoint
 10
3.141492651413534E+99
 20
1.269263905633295E+99
 30
0.0
  0
POINT
  5
620
330
1E
100
AcDbEntity
  8
0
  6
Continuous
 62
     1
100
AcDbPoint
 10
3.141492651413534E+99
 20
1.269263905633295E+99
 30
0.0
  0
POINT
  5
621
330
1E
100
AcDbEntity
  8
0
  6
Continuous
 62
     1
100
AcDbPoint
 10
-1.470580238991736E+63
 20
-5.941616374145985E+73
 30
0.0
  0
POINT
  5
622
330
1E
100
AcDbEntity
  8
0
  6
Continuous
 62
     1
100
AcDbPoint
 10
-1.470580238991736E+63
 20
-5.941616374145985E+73
 30
0.0
  0
POINT
  5
623
330
1E
100
AcDbEntity
  8
0
  6
Continuous
 62
     1
100
AcDbPoint
 10
3.141492651413534E+99
 20
1.269263905633295E+99
 30
0.0
  0
POINT
  5
624
330
1E
100
AcDbEntity
  8
0
  6
Continuous
 62
     1
100
AcDbPoint
 10
3.141492651413534E+99
 20
1.269263905633295E+99
 30
0.0
  0
POINT
  5
625
330
1E
100
AcDbEntity
  8
0
  6
Continuous
 62
     1
100
AcDbPoint
 10
-1.470580238991736E+63
 20
-5.941616374145985E+73
 30
0.0
  0
POINT
  5
626
330
1E
100
AcDbEntity
  8
0
  6
Continuous
 62
     1
100
AcDbPoint
 10
-1.470580238991736E+63
 20
-5.941616374145985E+73
 30
0.0
  0
POINT
  5
627
330
1E
100
AcDbEntity
  8
0
  6
Continuous
 62
     1
100
AcDbPoint
 10
3.141492651413534E+99
 20
1.269263905633295E+99
 30
0.0
  0
POINT
  5
628
330
1E
100
AcDbEntity
  8
0
  6
Continuous
 62
     1
100
AcDbPoint
 10
3.141492651413534E+99
 20
1.269263905633295E+99
 30
0.0
  0
POINT
  5
629
330
1E
100
AcDbEntity
  8
0
  6
Continuous
 62
     1
100
AcDbPoint
 10
-1.470580238991736E+63
 20
-5.941616374145985E+73
 30
0.0
  0
POINT
  5
62A
330
1E
100
AcDbEntity
  8
0
  6
Continuous
 62
     1
100
AcDbPoint
 10
-1.470580238991736E+63
 20
-5.941616374145985E+73
 30
0.0
  0
POINT
  5
62B
330
1E
100
AcDbEntity
  8
0
  6
Continuous
 62
     1
100
AcDbPoint
 10
3.141492651413534E+99
 20
1.269263905633295E+99
 30
0.0
  0
POINT
  5
62C
330
1E
100
AcDbEntity
  8
0
  6
Continuous
 62
     1
100
AcDbPoint
 10
3.141492651413534E+99
 20
1.269263905633295E+99
 30
0.0
  0
POINT
  5
62D
330
1E
100
AcDbEntity
  8
0
  6
Continuous
 62
     1
100
AcDbPoint
 10
-1.470580238991736E+63
 20
-5.941616374145985E+73
 30
0.0
  0
POINT
  5
62E
330
1E
100
AcDbEntity
  8
0
  6
Continuous
 62
     1
100
AcDbPoint
 10
-1.470580238991736E+63
 20
-5.941616374145985E+73
 30
0.0
  0
LWPOLYLINE
  5
62F
330
1E
100
AcDbEntity
  8
0
 62
     1
100
AcDbPolyline
 90
        3
 70
     0
 43
0.0
 10
3.141492651413534E+99
 20
1.269263905633295E+99
 10
3.141492651413534E+99
 20
1.269263905633295E+99
 10
3.141492651413534E+99
 20
1.269263905633295E+99
  0
POINT
  5
634
330
1E
100
AcDbEntity
  8
0
  6
Continuous
 62
     1
100
AcDbPoint
 10
-1.470580238991736E+63
 20
-5.941616374145985E+73
 30
0.0
  0
POINT
  5
635
330
1E
100
AcDbEntity
  8
0
  6
Continuous
 62
     1
100
AcDbPoint
 10
-1.470580238991736E+63
 20
-5.941616374145985E+73
 30
0.0
  0
POINT
  5
636
330
1E
100
AcDbEntity
  8
0
  6
Continuous
 62
     1
100
AcDbPoint
 10
3.141492651413534E+99
 20
1.269263905633295E+99
 30
0.0
  0
POINT
  5
637
330
1E
100
AcDbEntity
  8
0
  6
Continuous
 62
     1
100
AcDbPoint
 10
3.141492651413534E+99
 20
1.269263905633295E+99
 30
0.0
  0
POINT
  5
638
330
1E
100
AcDbEntity
  8
0
  6
Continuous
 62
     1
100
AcDbPoint
 10
-1.470580238991736E+63
 20
-5.941616374145985E+73
 30
0.0
  0
POINT
  5
639
330
1E
100
AcDbEntity
  8
0
  6
Continuous
 62
     1
100
AcDbPoint
 10
-1.470580238991736E+63
 20
-5.941616374145985E+73
 30
0.0
  0
POINT
  5
63A
330
1E
100
AcDbEntity
  8
0
  6
Continuous
 62
     1
100
AcDbPoint
 10
3.141492651413534E+99
 20
1.269263905633295E+99
 30
0.0
  0
POINT
  5
63B
330
1E
100
AcDbEntity
  8
0
  6
Continuous
 62
     1
100
AcDbPoint
 10
3.141492651413534E+99
 20
1.269263905633295E+99
 30
0.0
  0
POINT
  5
63C
330
1E
100
AcDbEntity
  8
0
  6
Continuous
 62
     1
100
AcDbPoint
 10
-1.470580238991736E+63
 20
-5.941616374145985E+73
 30
0.0
  0
POINT
  5
63D
330
1E
100
AcDbEntity
  8
0
  6
Continuous
 62
     1
100
AcDbPoint
 10
-1.470580238991736E+63
 20
-5.941616374145985E+73
 30
0.0
  0
POINT
  5
63E
330
1E
100
AcDbEntity
  8
0
  6
Continuous
 62
     1
100
AcDbPoint
 10
3.141492651413534E+99
 20
1.269263905633295E+99
 30
0.0
  0
POINT
  5
63F
330
1E
100
AcDbEntity
  8
0
  6
Continuous
 62
     1
100
AcDbPoint
 10
3.141492651413534E+99
 20
1.269263905633295E+99
 30
0.0
  0
POINT
  5
640
330
1E
100
AcDbEntity
  8
0
  6
Continuous
 62
     1
100
AcDbPoint
 10
-1.470580238991736E+63
 20
-5.941616374145985E+73
 30
0.0
  0
POINT
  5
641
330
1E
100
AcDbEntity
  8
0
  6
Continuous
 62
     1
100
AcDbPoint
 10
-1.470580238991736E+63
 20
-5.941616374145985E+73
 30
0.0
  0
POINT
  5
642
330
1E
100
AcDbEntity
  8
0
  6
Continuous
 62
     1
100
AcDbPoint
 10
3.141492651413534E+99
 20
1.269263905633295E+99
 30
0.0
  0
POINT
  5
643
330
1E
100
AcDbEntity
  8
0
  6
Continuous
 62
     1
100
AcDbPoint
 10
3.141492651413534E+99
 20
1.269263905633295E+99
 30
0.0
  0
POINT
  5
644
330
1E
100
AcDbEntity
  8
0
  6
Continuous
 62
     1
100
AcDbPoint
 10
-1.470580238991736E+63
 20
-5.941616374145985E+73
 30
0.0
  0
POINT
  5
645
330
1E
100
AcDbEntity
  8
0
  6
Continuous
 62
     1
100
AcDbPoint
 10
-1.470580238991736E+63
 20
-5.941616374145985E+73
 30
0.0
  0
POINT
  5
646
330
1E
100
AcDbEntity
  8
0
  6
Continuous
 62
     1
100
AcDbPoint
 10
3.141492651413534E+99
 20
1.269263905633295E+99
 30
0.0
  0
POINT
  5
647
330
1E
100
AcDbEntity
  8
0
  6
Continuous
 62
     1
100
AcDbPoint
 10
3.141492651413534E+99
 20
1.269263905633295E+99
 30
0.0
  0
POINT
  5
648
330
1E
100
AcDbEntity
  8
0
  6
Continuous
 62
     1
100
AcDbPoint
 10
-1.470580238991736E+63
 20
-5.941616374145985E+73
 30
0.0
  0
POINT
  5
649
330
1E
100
AcDbEntity
  8
0
  6
Continuous
 62
     1
100
AcDbPoint
 10
-1.470580238991736E+63
 20
-5.941616374145985E+73
 30
0.0
  0
LINE
  5
64A
330
1E
100
AcDbEntity
  8
0
  6
Continuous
 62
     3
100
AcDbLine
 10
-573.3138733147982
 20
-281.6589692183632
 30
0.0
 11
-572.0638733157982
 21
-280.4089692183632
 31
0.0
  0
LWPOLYLINE
  5
64B
330
1E
100
AcDbEntity
  8
0
 62
     3
100
AcDbPolyline
 90
        4
 70
     1
 43
0.0
 10
-613.2258927027982
 20
-281.0961916753632
 10
-606.2258927027982
 20
-281.0961916753632
 10
-606.2258927027982
 20
-260.0961916753632
 10
-613.2258927027982
 20
-260.0961916753632
  0
CIRCLE
  5
651
330
1E
100
AcDbEntity
  8
0
  6
Continuous
 62
     1
100
AcDbCircle
 10
-600.7148733167981
 20
-134.3089692283632
 30
0.0
 40
2.0
  0
CIRCLE
  5
652
330
1E
100
AcDbEntity
  8
0
  6
Continuous
 62
     1
100
AcDbCircle
 10
-593.8148733167982
 20
-134.3089692283632
 30
0.0
 40
2.0
  0
CIRCLE
  5
653
330
1E
100
AcDbEntity
  8
0
  6
Continuous
 62
     1
100
AcDbCircle
 10
-603.2628733167982
 20
-108.5089692283633
 30
0.0
 40
2.0
  0
CIRCLE
  5
654
330
1E
100
AcDbEntity
  8
0
  6
Continuous
 62
     1
100
AcDbCircle
 10
-596.3628733167982
 20
-108.5089692283633
 30
0.0
 40
2.0
  0
LINE
  5
655
330
1E
100
AcDbEntity
  8
0
  6
Continuous
 62
     5
100
AcDbLine
 10
-628.3988733177982
 20
-212.9089692193633
 30
0.0
 11
-628.3988733177982
 21
-206.9089692193633
 31
0.0
  0
LINE
  5
656
330
1E
100
AcDbEntity
  8
0
  6
Continuous
 62
     5
100
AcDbLine
 10
-628.3988733177982
 20
-208.9089692193633
 30
0.0
 11
-625.9840587517982
 21
-209.5560168323633
 31
0.0
  0
LINE
  5
657
330
1E
100
AcDbEntity
  8
0
  6
Continuous
 62
     5
100
AcDbLine
 10
-628.3988733177982
 20
-208.9089692193633
 30
0.0
 11
-625.9840587517982
 21
-208.2619216063632
 31
0.0
  0
LINE
  5
658
330
1E
100
AcDbEntity
  8
0
  6
Continuous
 62
     5
100
AcDbLine
 10
-628.3988733177982
 20
-208.9089692193633
 30
0.0
 11
-593.1988733177981
 21
-208.9089692193633
 31
0.0
  0
LINE
  5
659
330
1E
100
AcDbEntity
  8
0
  6
Continuous
 62
     5
100
AcDbLine
 10
-593.1988733177981
 20
-208.9089692193633
 30
0.0
 11
-595.6136878837981
 21
-208.2619216063632
 31
0.0
  0
LINE
  5
65A
330
1E
100
AcDbEntity
  8
0
  6
Continuous
 62
     5
100
AcDbLine
 10
-593.1988733177981
 20
-208.9089692193633
 30
0.0
 11
-595.6136878837981
 21
-209.5560168323633
 31
0.0
  0
LINE
  5
65B
330
1E
100
AcDbEntity
  8
0
  6
Continuous
 62
     5
100
AcDbLine
 10
-593.1988733177981
 20
-212.9089692193633
 30
0.0
 11
-593.1988733177981
 21
-206.9089692193633
 31
0.0
  0
TEXT
  5
65C
330
1E
100
AcDbEntity
  8
0
  6
Continuous
 62
     5
100
AcDbText
 10
-614.8488733177981
 20
-207.9089692193632
 30
0.3
 40
3.0
  1
３５.２
 41
0.6
  7
KANJI0
100
AcDbText
  0
TEXT
  5
65D
330
1E
100
AcDbEntity
  8
0
  6
Continuous
 62
     5
100
AcDbText
 10
-614.1488733177982
 20
-91.90896922836328
 30
0.1
 40
2.0
  1
６４.５
 41
0.8
  7
KANJI1
100
AcDbText
  0
ENDSEC
  0
SECTION
  2
OBJECTS
  0
DICTIONARY
  5
C
330
0
100
AcDbDictionary
281
     1
  3
ACAD_GROUP
350
D
  3
ACAD_PLOTSTYLENAME
350
E
  3
ACAD_MLINESTYLE
350
16
  3
ACAD_PLOTSETTINGS
350
18
  3
ACAD_LAYOUT
350
19
  0
DICTIONARY
  5
D
102
{ACAD_REACTORS
330
C
102
}
330
C
100
AcDbDictionary
281
     1
  0
ACDBDICTIONARYWDFLT
  5
E
102
{ACAD_REACTORS
330
C
102
}
330
C
100
AcDbDictionary
281
     1
  3
Normal
350
F
100
AcDbDictionaryWithDefault
340
F
  0
DICTIONARY
  5
16
102
{ACAD_REACTORS
330
C
102
}
330
C
100
AcDbDictionary
281
     1
  3
Standard
350
17
  0
DICTIONARY
  5
18
102
{ACAD_REACTORS
330
C
102
}
330
C
100
AcDbDictionary
281
     1
  0
DICTIONARY
  5
19
102
{ACAD_REACTORS
330
C
102
}
330
C
100
AcDbDictionary
281
     1
  3
ﾚｲｱｳﾄ1
350
1D
  3
Model
350
21
  0
ACDBPLACEHOLDER
  5
F
102
{ACAD_REACTORS
330
E
102
}
330
E
  0
MLINESTYLE
  5
17
102
{ACAD_REACTORS
330
16
102
}
330
16
100
AcDbMlineStyle
  2
STANDARD
 70
     0
  3

 62
   256
 51
90.0
 52
90.0
 71
     2
 49
0.5
 62
   256
  6
BYLAYER
 49
-0.5
 62
   256
  6
BYLAYER
  0
LAYOUT
  5
1D
102
{ACAD_REACTORS
330
19
102
}
330
19
100
AcDbPlotSettings
  1

  2
Canon LASER SHOT LBP-880
  4

  6

 40
0.0
 41
0.0
 42
0.0
 43
0.0
 44
0.0
 45
0.0
 46
0.0
 47
0.0
 48
0.0
 49
0.0
140
0.0
141
0.0
142
1.0
143
1.0
 70
   688
 72
     0
 73
     0
 74
     5
  7

 75
    16
147
1.0
148
0.0
149
0.0
100
AcDbLayout
  1
ﾚｲｱｳﾄ1
 70
     1
 71
     1
 10
0.0
 20
0.0
 11
12.0
 21
9.0
 12
0.0
 22
0.0
 32
0.0
 14
1.000000000000000E+20
 24
1.000000000000000E+20
 34
1.000000000000000E+20
 15
-1.000000000000000E+20
 25
-1.000000000000000E+20
 35
-1.000000000000000E+20
146
0.0
 13
0.0
 23
0.0
 33
0.0
 16
1.0
 26
0.0
 36
0.0
 17
0.0
 27
1.0
 37
0.0
 76
     0
330
1A
  0
LAYOUT
  5
21
102
{ACAD_REACTORS
330
19
102
}
330
19
100
AcDbPlotSettings
  1

  2
Canon LASER SHOT LBP-880
  4
A4
  6

 40
5.873749732971191
 41
5.873747825622558
 42
5.958419799804687
 43
5.873748779296875
 44
210.0579986572265
 45
296.9259948730469
 46
0.0
 47
0.0
 48
0.0
 49
0.0
140
0.0
141
0.0
142
1.0
143
39.10276722866301
 70
 11952
 72
     0
 73
     1
 74
     0
  7

 75
     0
147
0.0255736376444218
148
20380.19082829755
149
7641.603421465631
100
AcDbLayout
  1
Model
 70
     1
 71
     0
 10
0.0
 20
0.0
 11
12.0
 21
9.0
 12
0.0
 22
0.0
 32
0.0
 14
0.0
 24
0.0
 34
0.0
 15
0.0
 25
0.0
 35
0.0
146
0.0
 13
0.0
 23
0.0
 33
0.0
 16
1.0
 26
0.0
 36
0.0
 17
0.0
 27
1.0
 37
0.0
 76
     0
330
1E
  0
ENDSEC
  0
EOF
