  0
SECTION
  2
HEADER
  9
$ACADVER
  1
AC1012
  9
$DWGCODEPAGE
  3
ansi_932
  9
$INSBASE
 10
0.0
 20
0.0
 30
0.0
  9
$EXTMIN
 10
-1.838225298739670E+63
 20
-7.427020467682480E+73
 30
0.0
  9
$EXTMAX
 10
3.926865814266915E+99
 20
1.586579882041619E+99
 30
0.0
  9
$LIMMIN
 10
-1.838225298739670E+63
 20
-7.427020467682480E+73
  9
$LIMMAX
 10
3.926865814266915E+99
 20
1.586579882041619E+99
  9
$ORTHOMODE
 70
     0
  9
$REGENMODE
 70
     1
  9
$FILLMODE
 70
     1
  9
$QTEXTMODE
 70
     0
  9
$MIRRTEXT
 70
     1
  9
$DRAGMODE
 70
     2
  9
$LTSCALE
 40
1.0
  9
$OSMODE
 70
    37
  9
$ATTMODE
 70
     1
  9
$TEXTSIZE
 40
0.2
  9
$TRACEWID
 40
0.05
  9
$TEXTSTYLE
  7
STANDARD
  9
$CLAYER
  8
0
  9
$CELTYPE
  6
BYLAYER
  9
$CECOLOR
 62
   256
  9
$CELTSCALE
 40
1.0
  9
$DELOBJ
 70
     1
  9
$DISPSILH
 70
     0
  9
$DIMSCALE
 40
1.0
  9
$DIMASZ
 40
0.18
  9
$DIMEXO
 40
0.0625
  9
$DIMDLI
 40
0.38
  9
$DIMRND
 40
0.0
  9
$DIMDLE
 40
0.0
  9
$DIMEXE
 40
0.18
  9
$DIMTP
 40
0.0
  9
$DIMTM
 40
0.0
  9
$DIMTXT
 40
0.18
  9
$DIMCEN
 40
0.09
  9
$DIMTSZ
 40
0.0
  9
$DIMTOL
 70
     0
  9
$DIMLIM
 70
     0
  9
$DIMTIH
 70
     1
  9
$DIMTOH
 70
     1
  9
$DIMSE1
 70
     0
  9
$DIMSE2
 70
     0
  9
$DIMTAD
 70
     0
  9
$DIMZIN
 70
     0
  9
$DIMBLK
  1

  9
$DIMASO
 70
     1
  9
$DIMSHO
 70
     1
  9
$DIMPOST
  1

  9
$DIMAPOST
  1

  9
$DIMALT
 70
     0
  9
$DIMALTD
 70
     2
  9
$DIMALTF
 40
25.4
  9
$DIMLFAC
 40
1.0
  9
$DIMTOFL
 70
     0
  9
$DIMTVP
 40
0.0
  9
$DIMTIX
 70
     0
  9
$DIMSOXD
 70
     0
  9
$DIMSAH
 70
     0
  9
$DIMBLK1
  1

  9
$DIMBLK2
  1

  9
$DIMSTYLE
  2
STANDARD
  9
$DIMCLRD
 70
     0
  9
$DIMCLRE
 70
     0
  9
$DIMCLRT
 70
     0
  9
$DIMTFAC
 40
1.0
  9
$DIMGAP
 40
0.09
  9
$DIMJUST
 70
     0
  9
$DIMSD1
 70
     0
  9
$DIMSD2
 70
     0
  9
$DIMTOLJ
 70
     1
  9
$DIMTZIN
 70
     0
  9
$DIMALTZ
 70
     0
  9
$DIMALTTZ
 70
     0
  9
$DIMFIT
 70
     3
  9
$DIMUPT
 70
     0
  9
$DIMUNIT
 70
     2
  9
$DIMDEC
 70
     4
  9
$DIMTDEC
 70
     4
  9
$DIMALTU
 70
     2
  9
$DIMALTTD
 70
     2
  9
$DIMTXSTY
  7
STANDARD
  9
$DIMAUNIT
 70
     0
  9
$LUNITS
 70
     2
  9
$LUPREC
 70
     4
  9
$SKETCHINC
 40
0.1
  9
$FILLETRAD
 40
0.5
  9
$AUNITS
 70
     0
  9
$AUPREC
 70
     0
  9
$MENU
  1
.
  9
$ELEVATION
 40
0.0
  9
$PELEVATION
 40
0.0
  9
$THICKNESS
 40
0.0
  9
$LIMCHECK
 70
     0
  9
$CHAMFERA
 40
0.0
  9
$CHAMFERB
 40
0.0
  9
$CHAMFERC
 40
0.0
  9
$CHAMFERD
 40
0.0
  9
$SKPOLY
 70
     0
  9
$TDCREATE
 40
2456813.450239699
  9
$TDUPDATE
 40
2456813.450250208
  9
$TDINDWG
 40
0.0000000116
  9
$TDUSRTIMER
 40
0.0000000116
  9
$USRTIMER
 70
     1
  9
$ANGBASE
 50
0.0
  9
$ANGDIR
 70
     0
  9
$PDMODE
 70
     0
  9
$PDSIZE
 40
0.0
  9
$PLINEWID
 40
0.0
  9
$COORDS
 70
     1
  9
$SPLFRAME
 70
     0
  9
$SPLINETYPE
 70
     6
  9
$SPLINESEGS
 70
     8
  9
$ATTDIA
 70
     0
  9
$ATTREQ
 70
     1
  9
$HANDLING
 70
     1
  9
$HANDSEED
  5
6A7
  9
$SURFTAB1
 70
     6
  9
$SURFTAB2
 70
     6
  9
$SURFTYPE
 70
     6
  9
$SURFU
 70
     6
  9
$SURFV
 70
     6
  9
$UCSNAME
  2

  9
$UCSORG
 10
0.0
 20
0.0
 30
0.0
  9
$UCSXDIR
 10
1.0
 20
0.0
 30
0.0
  9
$UCSYDIR
 10
0.0
 20
1.0
 30
0.0
  9
$PUCSNAME
  2

  9
$PUCSORG
 10
0.0
 20
0.0
 30
0.0
  9
$PUCSXDIR
 10
1.0
 20
0.0
 30
0.0
  9
$PUCSYDIR
 10
0.0
 20
1.0
 30
0.0
  9
$USERI1
 70
     0
  9
$USERI2
 70
     0
  9
$USERI3
 70
     0
  9
$USERI4
 70
     0
  9
$USERI5
 70
     0
  9
$USERR1
 40
0.0
  9
$USERR2
 40
0.0
  9
$USERR3
 40
0.0
  9
$USERR4
 40
0.0
  9
$USERR5
 40
0.0
  9
$WORLDVIEW
 70
     1
  9
$SHADEDGE
 70
     3
  9
$SHADEDIF
 70
    70
  9
$TILEMODE
 70
     1
  9
$MAXACTVP
 70
    64
  9
$PINSBASE
 10
0.0
 20
0.0
 30
0.0
  9
$PLIMCHECK
 70
     0
  9
$PEXTMIN
 10
-9.375
 20
-25.0
 30
0.0
  9
$PEXTMAX
 10
525.0
 20
371.25
 30
0.0
  9
$PLIMMIN
 10
-7.5
 20
-20.0
  9
$PLIMMAX
 10
420.0
 20
297.0
  9
$UNITMODE
 70
     0
  9
$VISRETAIN
 70
     1
  9
$PLINEGEN
 70
     0
  9
$PSLTSCALE
 70
     1
  9
$TREEDEPTH
 70
  3020
  9
$PICKSTYLE
 70
     1
  9
$CMLSTYLE
  2
STANDARD
  9
$CMLJUST
 70
     0
  9
$CMLSCALE
 40
1.0
  9
$SAVEIMAGES
 70
     1
  0
ENDSEC
  0
SECTION
  2
CLASSES
  0
CLASS
  1
ACDBDICTIONARYWDFLT
  2
AcDbDictionaryWithDefault
  3
ObjectDBX Classes
 90
    32768
280
     0
281
     0
  0
CLASS
  1
VISUALSTYLE
  2
AcDbVisualStyle
  3
ObjectDBX Classes
 90
     4095
280
     0
281
     0
  0
CLASS
  1
MATERIAL
  2
AcDbMaterial
  3
ObjectDBX Classes
 90
     1153
280
     0
281
     0
  0
CLASS
  1
SCALE
  2
AcDbScale
  3
ObjectDBX Classes
 90
     1153
280
     0
281
     0
  0
CLASS
  1
SUN
  2
AcDbSun
  3
SCENEOE
 90
     1153
280
     0
281
     0
  0
CLASS
  1
RASTERVARIABLES
  2
AcDbRasterVariables
  3
ISM
 90
    32768
280
     0
281
     0
  0
CLASS
  1
DICTIONARYVAR
  2
AcDbDictionaryVar
  3
ObjectDBX Classes
 90
        0
280
     0
281
     0
  0
CLASS
  1
XRECORD
  2
AcDbXrecord
  3
ObjectDBX Classes
 90
    32768
280
     0
281
     0
  0
CLASS
  1
LWPOLYLINE
  2
AcDbPolyline
  3
ObjectDBX Classes
 90
    32768
280
     0
281
     1
  0
CLASS
  1
HATCH
  2
AcDbHatch
  3
ObjectDBX Classes
 90
    32768
280
     0
281
     1
  0
CLASS
  1
ACDBPLACEHOLDER
  2
AcDbPlaceHolder
  3
ObjectDBX Classes
 90
        0
280
     0
281
     0
  0
CLASS
  1
LAYOUT
  2
AcDbLayout
  3
ObjectDBX Classes
 90
        0
280
     0
281
     0
  0
ENDSEC
  0
SECTION
  2
TABLES
  0
TABLE
  2
VPORT
  5
8
330
0
100
AcDbSymbolTable
 70
     1
  0
VPORT
  5
29
330
8
100
AcDbSymbolTableRecord
100
AcDbViewportTableRecord
  2
*ACTIVE
 70
     0
 10
0.0
 20
0.0
 11
1.0
 21
1.0
 12
1.570746325706766E+99
 22
6.346319528166475E+98
 13
0.0
 23
0.0
 14
0.5
 24
0.5
 15
0.5
 25
0.5
 16
0.0
 26
0.0
 36
1.0
 17
0.0
 27
0.0
 37
0.0
 40
1.332727100914960E+99
 41
2.475050805014498
 42
50.0
 43
0.0
 44
0.0
 50
0.0
 51
0.0
 71
     0
 72
 20000
 73
     1
 74
     3
 75
     0
 76
     0
 77
     0
 78
     0
  0
ENDTAB
  0
TABLE
  2
LTYPE
  5
5
330
0
100
AcDbSymbolTable
 70
     1
  0
LTYPE
  5
14
330
5
100
AcDbSymbolTableRecord
100
AcDbLinetypeTableRecord
  2
BYBLOCK
 70
     0
  3

 72
    65
 73
     0
 40
0.0
  0
LTYPE
  5
15
330
5
100
AcDbSymbolTableRecord
100
AcDbLinetypeTableRecord
  2
BYLAYER
 70
     0
  3

 72
    65
 73
     0
 40
0.0
  0
LTYPE
  5
16
330
5
100
AcDbSymbolTableRecord
100
AcDbLinetypeTableRecord
  2
CONTINUOUS
 70
     0
  3
Solid line
 72
    65
 73
     0
 40
0.0
  0
ENDTAB
  0
TABLE
  2
LAYER
  5
2
330
0
100
AcDbSymbolTable
 70
   129
  0
LAYER
  5
10
330
2
100
AcDbSymbolTableRecord
100
AcDbLayerTableRecord
  2
0
 70
     0
 62
     7
  6
CONTINUOUS
  0
LAYER
  5
6C
330
2
100
AcDbSymbolTableRecord
100
AcDbLayerTableRecord
  2
1
 70
     0
 62
     7
  6
CONTINUOUS
  0
LAYER
  5
6D
330
2
100
AcDbSymbolTableRecord
100
AcDbLayerTableRecord
  2
2
 70
     0
 62
     7
  6
CONTINUOUS
  0
LAYER
  5
6E
330
2
100
AcDbSymbolTableRecord
100
AcDbLayerTableRecord
  2
3
 70
     0
 62
     7
  6
CONTINUOUS
  0
LAYER
  5
6F
330
2
100
AcDbSymbolTableRecord
100
AcDbLayerTableRecord
  2
4
 70
     0
 62
     7
  6
CONTINUOUS
  0
LAYER
  5
70
330
2
100
AcDbSymbolTableRecord
100
AcDbLayerTableRecord
  2
5
 70
     0
 62
     7
  6
CONTINUOUS
  0
LAYER
  5
71
330
2
100
AcDbSymbolTableRecord
100
AcDbLayerTableRecord
  2
6
 70
     0
 62
     7
  6
CONTINUOUS
  0
LAYER
  5
72
330
2
100
AcDbSymbolTableRecord
100
AcDbLayerTableRecord
  2
7
 70
     0
 62
     7
  6
CONTINUOUS
  0
LAYER
  5
73
330
2
100
AcDbSymbolTableRecord
100
AcDbLayerTableRecord
  2
8
 70
     0
 62
     7
  6
CONTINUOUS
  0
LAYER
  5
74
330
2
100
AcDbSymbolTableRecord
100
AcDbLayerTableRecord
  2
9
 70
     0
 62
     7
  6
CONTINUOUS
  0
LAYER
  5
75
330
2
100
AcDbSymbolTableRecord
100
AcDbLayerTableRecord
  2
10
 70
     0
 62
     7
  6
CONTINUOUS
  0
LAYER
  5
76
330
2
100
AcDbSymbolTableRecord
100
AcDbLayerTableRecord
  2
11
 70
     0
 62
     7
  6
CONTINUOUS
  0
LAYER
  5
77
330
2
100
AcDbSymbolTableRecord
100
AcDbLayerTableRecord
  2
12
 70
     0
 62
     7
  6
CONTINUOUS
  0
LAYER
  5
78
330
2
100
AcDbSymbolTableRecord
100
AcDbLayerTableRecord
  2
13
 70
     0
 62
     7
  6
CONTINUOUS
  0
LAYER
  5
79
330
2
100
AcDbSymbolTableRecord
100
AcDbLayerTableRecord
  2
14
 70
     0
 62
     7
  6
CONTINUOUS
  0
LAYER
  5
7A
330
2
100
AcDbSymbolTableRecord
100
AcDbLayerTableRecord
  2
15
 70
     0
 62
     7
  6
CONTINUOUS
  0
LAYER
  5
7B
330
2
100
AcDbSymbolTableRecord
100
AcDbLayerTableRecord
  2
16
 70
     0
 62
     7
  6
CONTINUOUS
  0
LAYER
  5
7C
330
2
100
AcDbSymbolTableRecord
100
AcDbLayerTableRecord
  2
17
 70
     0
 62
     7
  6
CONTINUOUS
  0
LAYER
  5
7D
330
2
100
AcDbSymbolTableRecord
100
AcDbLayerTableRecord
  2
18
 70
     0
 62
     7
  6
CONTINUOUS
  0
LAYER
  5
7E
330
2
100
AcDbSymbolTableRecord
100
AcDbLayerTableRecord
  2
19
 70
     0
 62
     7
  6
CONTINUOUS
  0
LAYER
  5
7F
330
2
100
AcDbSymbolTableRecord
100
AcDbLayerTableRecord
  2
20
 70
     0
 62
     7
  6
CONTINUOUS
  0
LAYER
  5
80
330
2
100
AcDbSymbolTableRecord
100
AcDbLayerTableRecord
  2
21
 70
     0
 62
     7
  6
CONTINUOUS
  0
LAYER
  5
81
330
2
100
AcDbSymbolTableRecord
100
AcDbLayerTableRecord
  2
22
 70
     0
 62
     7
  6
CONTINUOUS
  0
LAYER
  5
82
330
2
100
AcDbSymbolTableRecord
100
AcDbLayerTableRecord
  2
23
 70
     0
 62
     7
  6
CONTINUOUS
  0
LAYER
  5
83
330
2
100
AcDbSymbolTableRecord
100
AcDbLayerTableRecord
  2
24
 70
     0
 62
     7
  6
CONTINUOUS
  0
LAYER
  5
84
330
2
100
AcDbSymbolTableRecord
100
AcDbLayerTableRecord
  2
25
 70
     0
 62
     7
  6
CONTINUOUS
  0
LAYER
  5
85
330
2
100
AcDbSymbolTableRecord
100
AcDbLayerTableRecord
  2
26
 70
     0
 62
     7
  6
CONTINUOUS
  0
LAYER
  5
86
330
2
100
AcDbSymbolTableRecord
100
AcDbLayerTableRecord
  2
27
 70
     0
 62
     7
  6
CONTINUOUS
  0
LAYER
  5
87
330
2
100
AcDbSymbolTableRecord
100
AcDbLayerTableRecord
  2
28
 70
     0
 62
     7
  6
CONTINUOUS
  0
LAYER
  5
88
330
2
100
AcDbSymbolTableRecord
100
AcDbLayerTableRecord
  2
29
 70
     0
 62
     7
  6
CONTINUOUS
  0
LAYER
  5
89
330
2
100
AcDbSymbolTableRecord
100
AcDbLayerTableRecord
  2
30
 70
     0
 62
     7
  6
CONTINUOUS
  0
LAYER
  5
8A
330
2
100
AcDbSymbolTableRecord
100
AcDbLayerTableRecord
  2
31
 70
     0
 62
     7
  6
CONTINUOUS
  0
LAYER
  5
8B
330
2
100
AcDbSymbolTableRecord
100
AcDbLayerTableRecord
  2
32
 70
     0
 62
     7
  6
CONTINUOUS
  0
LAYER
  5
8C
330
2
100
AcDbSymbolTableRecord
100
AcDbLayerTableRecord
  2
33
 70
     0
 62
     7
  6
CONTINUOUS
  0
LAYER
  5
8D
330
2
100
AcDbSymbolTableRecord
100
AcDbLayerTableRecord
  2
34
 70
     0
 62
     7
  6
CONTINUOUS
  0
LAYER
  5
8E
330
2
100
AcDbSymbolTableRecord
100
AcDbLayerTableRecord
  2
35
 70
     0
 62
     7
  6
CONTINUOUS
  0
LAYER
  5
8F
330
2
100
AcDbSymbolTableRecord
100
AcDbLayerTableRecord
  2
36
 70
     0
 62
     7
  6
CONTINUOUS
  0
LAYER
  5
90
330
2
100
AcDbSymbolTableRecord
100
AcDbLayerTableRecord
  2
37
 70
     0
 62
     7
  6
CONTINUOUS
  0
LAYER
  5
91
330
2
100
AcDbSymbolTableRecord
100
AcDbLayerTableRecord
  2
38
 70
     0
 62
     7
  6
CONTINUOUS
  0
LAYER
  5
92
330
2
100
AcDbSymbolTableRecord
100
AcDbLayerTableRecord
  2
39
 70
     0
 62
     7
  6
CONTINUOUS
  0
LAYER
  5
93
330
2
100
AcDbSymbolTableRecord
100
AcDbLayerTableRecord
  2
40
 70
     0
 62
     7
  6
CONTINUOUS
  0
LAYER
  5
94
330
2
100
AcDbSymbolTableRecord
100
AcDbLayerTableRecord
  2
41
 70
     0
 62
     7
  6
CONTINUOUS
  0
LAYER
  5
95
330
2
100
AcDbSymbolTableRecord
100
AcDbLayerTableRecord
  2
42
 70
     0
 62
     7
  6
CONTINUOUS
  0
LAYER
  5
96
330
2
100
AcDbSymbolTableRecord
100
AcDbLayerTableRecord
  2
43
 70
     0
 62
     7
  6
CONTINUOUS
  0
LAYER
  5
97
330
2
100
AcDbSymbolTableRecord
100
AcDbLayerTableRecord
  2
44
 70
     0
 62
     7
  6
CONTINUOUS
  0
LAYER
  5
98
330
2
100
AcDbSymbolTableRecord
100
AcDbLayerTableRecord
  2
45
 70
     0
 62
     7
  6
CONTINUOUS
  0
LAYER
  5
99
330
2
100
AcDbSymbolTableRecord
100
AcDbLayerTableRecord
  2
46
 70
     0
 62
     7
  6
CONTINUOUS
  0
LAYER
  5
9A
330
2
100
AcDbSymbolTableRecord
100
AcDbLayerTableRecord
  2
47
 70
     0
 62
     7
  6
CONTINUOUS
  0
LAYER
  5
9B
330
2
100
AcDbSymbolTableRecord
100
AcDbLayerTableRecord
  2
48
 70
     0
 62
     7
  6
CONTINUOUS
  0
LAYER
  5
9C
330
2
100
AcDbSymbolTableRecord
100
AcDbLayerTableRecord
  2
49
 70
     0
 62
     7
  6
CONTINUOUS
  0
LAYER
  5
9D
330
2
100
AcDbSymbolTableRecord
100
AcDbLayerTableRecord
  2
50
 70
     0
 62
     7
  6
CONTINUOUS
  0
LAYER
  5
9E
330
2
100
AcDbSymbolTableRecord
100
AcDbLayerTableRecord
  2
51
 70
     0
 62
     7
  6
CONTINUOUS
  0
LAYER
  5
9F
330
2
100
AcDbSymbolTableRecord
100
AcDbLayerTableRecord
  2
52
 70
     0
 62
     7
  6
CONTINUOUS
  0
LAYER
  5
A0
330
2
100
AcDbSymbolTableRecord
100
AcDbLayerTableRecord
  2
53
 70
     0
 62
     7
  6
CONTINUOUS
  0
LAYER
  5
A1
330
2
100
AcDbSymbolTableRecord
100
AcDbLayerTableRecord
  2
54
 70
     0
 62
     7
  6
CONTINUOUS
  0
LAYER
  5
A2
330
2
100
AcDbSymbolTableRecord
100
AcDbLayerTableRecord
  2
55
 70
     0
 62
     7
  6
CONTINUOUS
  0
LAYER
  5
A3
330
2
100
AcDbSymbolTableRecord
100
AcDbLayerTableRecord
  2
56
 70
     0
 62
     7
  6
CONTINUOUS
  0
LAYER
  5
A4
330
2
100
AcDbSymbolTableRecord
100
AcDbLayerTableRecord
  2
57
 70
     0
 62
     7
  6
CONTINUOUS
  0
LAYER
  5
A5
330
2
100
AcDbSymbolTableRecord
100
AcDbLayerTableRecord
  2
58
 70
     0
 62
     7
  6
CONTINUOUS
  0
LAYER
  5
A6
330
2
100
AcDbSymbolTableRecord
100
AcDbLayerTableRecord
  2
59
 70
     0
 62
     7
  6
CONTINUOUS
  0
LAYER
  5
A7
330
2
100
AcDbSymbolTableRecord
100
AcDbLayerTableRecord
  2
60
 70
     0
 62
     7
  6
CONTINUOUS
  0
LAYER
  5
A8
330
2
100
AcDbSymbolTableRecord
100
AcDbLayerTableRecord
  2
61
 70
     0
 62
     7
  6
CONTINUOUS
  0
LAYER
  5
A9
330
2
100
AcDbSymbolTableRecord
100
AcDbLayerTableRecord
  2
62
 70
     0
 62
     7
  6
CONTINUOUS
  0
LAYER
  5
AA
330
2
100
AcDbSymbolTableRecord
100
AcDbLayerTableRecord
  2
63
 70
     0
 62
     7
  6
CONTINUOUS
  0
LAYER
  5
AB
330
2
100
AcDbSymbolTableRecord
100
AcDbLayerTableRecord
  2
64
 70
     0
 62
     7
  6
CONTINUOUS
  0
LAYER
  5
AC
330
2
100
AcDbSymbolTableRecord
100
AcDbLayerTableRecord
  2
65
 70
     0
 62
     7
  6
CONTINUOUS
  0
LAYER
  5
AD
330
2
100
AcDbSymbolTableRecord
100
AcDbLayerTableRecord
  2
66
 70
     0
 62
     7
  6
CONTINUOUS
  0
LAYER
  5
AE
330
2
100
AcDbSymbolTableRecord
100
AcDbLayerTableRecord
  2
67
 70
     0
 62
     7
  6
CONTINUOUS
  0
LAYER
  5
AF
330
2
100
AcDbSymbolTableRecord
100
AcDbLayerTableRecord
  2
68
 70
     0
 62
     7
  6
CONTINUOUS
  0
LAYER
  5
B0
330
2
100
AcDbSymbolTableRecord
100
AcDbLayerTableRecord
  2
69
 70
     0
 62
     7
  6
CONTINUOUS
  0
LAYER
  5
B1
330
2
100
AcDbSymbolTableRecord
100
AcDbLayerTableRecord
  2
70
 70
     0
 62
     7
  6
CONTINUOUS
  0
LAYER
  5
B2
330
2
100
AcDbSymbolTableRecord
100
AcDbLayerTableRecord
  2
71
 70
     0
 62
     7
  6
CONTINUOUS
  0
LAYER
  5
B3
330
2
100
AcDbSymbolTableRecord
100
AcDbLayerTableRecord
  2
72
 70
     0
 62
     7
  6
CONTINUOUS
  0
LAYER
  5
B4
330
2
100
AcDbSymbolTableRecord
100
AcDbLayerTableRecord
  2
73
 70
     0
 62
     7
  6
CONTINUOUS
  0
LAYER
  5
B5
330
2
100
AcDbSymbolTableRecord
100
AcDbLayerTableRecord
  2
74
 70
     0
 62
     7
  6
CONTINUOUS
  0
LAYER
  5
B6
330
2
100
AcDbSymbolTableRecord
100
AcDbLayerTableRecord
  2
75
 70
     0
 62
     7
  6
CONTINUOUS
  0
LAYER
  5
B7
330
2
100
AcDbSymbolTableRecord
100
AcDbLayerTableRecord
  2
76
 70
     0
 62
     7
  6
CONTINUOUS
  0
LAYER
  5
B8
330
2
100
AcDbSymbolTableRecord
100
AcDbLayerTableRecord
  2
77
 70
     0
 62
     7
  6
CONTINUOUS
  0
LAYER
  5
B9
330
2
100
AcDbSymbolTableRecord
100
AcDbLayerTableRecord
  2
78
 70
     0
 62
     7
  6
CONTINUOUS
  0
LAYER
  5
BA
330
2
100
AcDbSymbolTableRecord
100
AcDbLayerTableRecord
  2
79
 70
     0
 62
     7
  6
CONTINUOUS
  0
LAYER
  5
BB
330
2
100
AcDbSymbolTableRecord
100
AcDbLayerTableRecord
  2
80
 70
     0
 62
     7
  6
CONTINUOUS
  0
LAYER
  5
BC
330
2
100
AcDbSymbolTableRecord
100
AcDbLayerTableRecord
  2
81
 70
     0
 62
     7
  6
CONTINUOUS
  0
LAYER
  5
BD
330
2
100
AcDbSymbolTableRecord
100
AcDbLayerTableRecord
  2
82
 70
     0
 62
     7
  6
CONTINUOUS
  0
LAYER
  5
BE
330
2
100
AcDbSymbolTableRecord
100
AcDbLayerTableRecord
  2
83
 70
     0
 62
     7
  6
CONTINUOUS
  0
LAYER
  5
BF
330
2
100
AcDbSymbolTableRecord
100
AcDbLayerTableRecord
  2
84
 70
     0
 62
     7
  6
CONTINUOUS
  0
LAYER
  5
C0
330
2
100
AcDbSymbolTableRecord
100
AcDbLayerTableRecord
  2
85
 70
     0
 62
     7
  6
CONTINUOUS
  0
LAYER
  5
C1
330
2
100
AcDbSymbolTableRecord
100
AcDbLayerTableRecord
  2
86
 70
     0
 62
     7
  6
CONTINUOUS
  0
LAYER
  5
C2
330
2
100
AcDbSymbolTableRecord
100
AcDbLayerTableRecord
  2
87
 70
     0
 62
     7
  6
CONTINUOUS
  0
LAYER
  5
C3
330
2
100
AcDbSymbolTableRecord
100
AcDbLayerTableRecord
  2
88
 70
     0
 62
     7
  6
CONTINUOUS
  0
LAYER
  5
C4
330
2
100
AcDbSymbolTableRecord
100
AcDbLayerTableRecord
  2
89
 70
     0
 62
     7
  6
CONTINUOUS
  0
LAYER
  5
C5
330
2
100
AcDbSymbolTableRecord
100
AcDbLayerTableRecord
  2
90
 70
     0
 62
     7
  6
CONTINUOUS
  0
LAYER
  5
C6
330
2
100
AcDbSymbolTableRecord
100
AcDbLayerTableRecord
  2
91
 70
     0
 62
     7
  6
CONTINUOUS
  0
LAYER
  5
C7
330
2
100
AcDbSymbolTableRecord
100
AcDbLayerTableRecord
  2
92
 70
     0
 62
     7
  6
CONTINUOUS
  0
LAYER
  5
C8
330
2
100
AcDbSymbolTableRecord
100
AcDbLayerTableRecord
  2
93
 70
     0
 62
     7
  6
CONTINUOUS
  0
LAYER
  5
C9
330
2
100
AcDbSymbolTableRecord
100
AcDbLayerTableRecord
  2
94
 70
     0
 62
     7
  6
CONTINUOUS
  0
LAYER
  5
CA
330
2
100
AcDbSymbolTableRecord
100
AcDbLayerTableRecord
  2
95
 70
     0
 62
     7
  6
CONTINUOUS
  0
LAYER
  5
CB
330
2
100
AcDbSymbolTableRecord
100
AcDbLayerTableRecord
  2
96
 70
     0
 62
     7
  6
CONTINUOUS
  0
LAYER
  5
CC
330
2
100
AcDbSymbolTableRecord
100
AcDbLayerTableRecord
  2
97
 70
     0
 62
     7
  6
CONTINUOUS
  0
LAYER
  5
CD
330
2
100
AcDbSymbolTableRecord
100
AcDbLayerTableRecord
  2
98
 70
     0
 62
     7
  6
CONTINUOUS
  0
LAYER
  5
CE
330
2
100
AcDbSymbolTableRecord
100
AcDbLayerTableRecord
  2
99
 70
     0
 62
     7
  6
CONTINUOUS
  0
LAYER
  5
CF
330
2
100
AcDbSymbolTableRecord
100
AcDbLayerTableRecord
  2
100
 70
     0
 62
     7
  6
CONTINUOUS
  0
LAYER
  5
D0
330
2
100
AcDbSymbolTableRecord
100
AcDbLayerTableRecord
  2
101
 70
     0
 62
     7
  6
CONTINUOUS
  0
LAYER
  5
D1
330
2
100
AcDbSymbolTableRecord
100
AcDbLayerTableRecord
  2
102
 70
     0
 62
     7
  6
CONTINUOUS
  0
LAYER
  5
D2
330
2
100
AcDbSymbolTableRecord
100
AcDbLayerTableRecord
  2
103
 70
     0
 62
     7
  6
CONTINUOUS
  0
LAYER
  5
D3
330
2
100
AcDbSymbolTableRecord
100
AcDbLayerTableRecord
  2
104
 70
     0
 62
     7
  6
CONTINUOUS
  0
LAYER
  5
D4
330
2
100
AcDbSymbolTableRecord
100
AcDbLayerTableRecord
  2
105
 70
     0
 62
     7
  6
CONTINUOUS
  0
LAYER
  5
D5
330
2
100
AcDbSymbolTableRecord
100
AcDbLayerTableRecord
  2
106
 70
     0
 62
     7
  6
CONTINUOUS
  0
LAYER
  5
D6
330
2
100
AcDbSymbolTableRecord
100
AcDbLayerTableRecord
  2
107
 70
     0
 62
     7
  6
CONTINUOUS
  0
LAYER
  5
D7
330
2
100
AcDbSymbolTableRecord
100
AcDbLayerTableRecord
  2
108
 70
     0
 62
     7
  6
CONTINUOUS
  0
LAYER
  5
D8
330
2
100
AcDbSymbolTableRecord
100
AcDbLayerTableRecord
  2
109
 70
     0
 62
     7
  6
CONTINUOUS
  0
LAYER
  5
D9
330
2
100
AcDbSymbolTableRecord
100
AcDbLayerTableRecord
  2
110
 70
     0
 62
     7
  6
CONTINUOUS
  0
LAYER
  5
DA
330
2
100
AcDbSymbolTableRecord
100
AcDbLayerTableRecord
  2
111
 70
     0
 62
     7
  6
CONTINUOUS
  0
LAYER
  5
DB
330
2
100
AcDbSymbolTableRecord
100
AcDbLayerTableRecord
  2
112
 70
     0
 62
     7
  6
CONTINUOUS
  0
LAYER
  5
DC
330
2
100
AcDbSymbolTableRecord
100
AcDbLayerTableRecord
  2
113
 70
     0
 62
     7
  6
CONTINUOUS
  0
LAYER
  5
DD
330
2
100
AcDbSymbolTableRecord
100
AcDbLayerTableRecord
  2
114
 70
     0
 62
     7
  6
CONTINUOUS
  0
LAYER
  5
DE
330
2
100
AcDbSymbolTableRecord
100
AcDbLayerTableRecord
  2
115
 70
     0
 62
     7
  6
CONTINUOUS
  0
LAYER
  5
DF
330
2
100
AcDbSymbolTableRecord
100
AcDbLayerTableRecord
  2
116
 70
     0
 62
     7
  6
CONTINUOUS
  0
LAYER
  5
E0
330
2
100
AcDbSymbolTableRecord
100
AcDbLayerTableRecord
  2
117
 70
     0
 62
     7
  6
CONTINUOUS
  0
LAYER
  5
E1
330
2
100
AcDbSymbolTableRecord
100
AcDbLayerTableRecord
  2
118
 70
     0
 62
     7
  6
CONTINUOUS
  0
LAYER
  5
E2
330
2
100
AcDbSymbolTableRecord
100
AcDbLayerTableRecord
  2
119
 70
     0
 62
     7
  6
CONTINUOUS
  0
LAYER
  5
E3
330
2
100
AcDbSymbolTableRecord
100
AcDbLayerTableRecord
  2
120
 70
     0
 62
     7
  6
CONTINUOUS
  0
LAYER
  5
E4
330
2
100
AcDbSymbolTableRecord
100
AcDbLayerTableRecord
  2
121
 70
     0
 62
     7
  6
CONTINUOUS
  0
LAYER
  5
E5
330
2
100
AcDbSymbolTableRecord
100
AcDbLayerTableRecord
  2
122
 70
     0
 62
     7
  6
CONTINUOUS
  0
LAYER
  5
E6
330
2
100
AcDbSymbolTableRecord
100
AcDbLayerTableRecord
  2
123
 70
     0
 62
     7
  6
CONTINUOUS
  0
LAYER
  5
E7
330
2
100
AcDbSymbolTableRecord
100
AcDbLayerTableRecord
  2
124
 70
     0
 62
     7
  6
CONTINUOUS
  0
LAYER
  5
E8
330
2
100
AcDbSymbolTableRecord
100
AcDbLayerTableRecord
  2
125
 70
     0
 62
     7
  6
CONTINUOUS
  0
LAYER
  5
E9
330
2
100
AcDbSymbolTableRecord
100
AcDbLayerTableRecord
  2
126
 70
     0
 62
     7
  6
CONTINUOUS
  0
LAYER
  5
EA
330
2
100
AcDbSymbolTableRecord
100
AcDbLayerTableRecord
  2
127
 70
     0
 62
     7
  6
CONTINUOUS
  0
LAYER
  5
EB
330
2
100
AcDbSymbolTableRecord
100
AcDbLayerTableRecord
  2
RCVIEWPORTFRAME
 70
     0
 62
    -7
  6
CONTINUOUS
  0
ENDTAB
  0
TABLE
  2
STYLE
  5
3
330
0
100
AcDbSymbolTable
 70
     4
  0
STYLE
  5
11
330
3
100
AcDbSymbolTableRecord
100
AcDbTextStyleTableRecord
  2
STANDARD
 70
     0
 40
0.0
 41
1.0
 50
0.0
 71
     0
 42
0.2
  3
txt.shx
  4
extfont
  0
STYLE
  5
EC
330
3
100
AcDbSymbolTableRecord
100
AcDbTextStyleTableRecord
  2
MS_PGOTHIC
 70
     0
 40
0.0
 41
1.0
 50
0.0
 71
     0
 42
0.2
  3
MS PGothic.ttf
  4

1001
ACAD
1000
ＭＳ Ｐゴシック
1071
    32818
  0
STYLE
  5
ED
330
3
100
AcDbSymbolTableRecord
100
AcDbTextStyleTableRecord
  2
VERTICAL
 70
     4
 40
0.0
 41
1.0
 50
0.0
 71
     0
 42
0.2
  3
txt.shx
  4
extfont
  0
STYLE
  5
EE
330
3
100
AcDbSymbolTableRecord
100
AcDbTextStyleTableRecord
  2
VERTICAL_MS_PGOTHIC
 70
     0
 40
0.0
 41
1.0
 50
0.0
 71
     0
 42
0.2
  3
MS PGothic.ttf
  4

1001
ACAD
1000
@ＭＳ Ｐゴシック
1071
    32818
  0
ENDTAB
  0
TABLE
  2
VIEW
  5
6
330
0
100
AcDbSymbolTable
 70
     0
  0
ENDTAB
  0
TABLE
  2
UCS
  5
7
330
0
100
AcDbSymbolTable
 70
     0
  0
ENDTAB
  0
TABLE
  2
APPID
  5
9
330
0
100
AcDbSymbolTable
 70
     2
  0
APPID
  5
12
330
9
100
AcDbSymbolTableRecord
100
AcDbRegAppTableRecord
  2
ACAD
 70
     0
  0
APPID
  5
6A
330
9
100
AcDbSymbolTableRecord
100
AcDbRegAppTableRecord
  2
ROOTPRO_CAD
 70
     0
  0
ENDTAB
  0
TABLE
  2
DIMSTYLE
  5
A
330
0
100
AcDbSymbolTable
 70
     1
  0
DIMSTYLE
105
27
330
A
100
AcDbSymbolTableRecord
100
AcDbDimStyleTableRecord
  2
STANDARD
 70
     0
  3

  4

  5

  6

  7

 40
1.0
 41
0.18
 42
0.0625
 43
0.38
 44
0.18
 45
0.0
 46
0.0
 47
0.0
 48
0.0
140
0.18
141
0.09
142
0.0
143
25.4
144
1.0
145
0.0
146
1.0
147
0.09
 71
     0
 72
     0
 73
     1
 74
     1
 75
     0
 76
     0
 77
     0
 78
     0
170
     0
171
     2
172
     0
173
     0
174
     0
175
     0
176
     0
177
     0
178
     0
270
     2
271
     4
272
     4
273
     2
274
     2
340
11
275
     0
280
     0
281
     0
282
     0
283
     1
284
     0
285
     0
286
     0
287
     3
288
     0
  0
ENDTAB
  0
TABLE
  2
BLOCK_RECORD
  5
1
330
0
100
AcDbSymbolTable
 70
     1
  0
BLOCK_RECORD
  5
1F
330
1
100
AcDbSymbolTableRecord
100
AcDbBlockTableRecord
  2
*MODEL_SPACE
  0
BLOCK_RECORD
  5
1B
330
1
100
AcDbSymbolTableRecord
100
AcDbBlockTableRecord
  2
*PAPER_SPACE
  0
ENDTAB
  0
ENDSEC
  0
SECTION
  2
BLOCKS
  0
BLOCK
  5
20
330
1F
100
AcDbEntity
  8
0
100
AcDbBlockBegin
  2
*MODEL_SPACE
 70
     0
 10
0.0
 20
0.0
 30
0.0
  3
*MODEL_SPACE
  1

  0
ENDBLK
  5
21
330
1F
100
AcDbEntity
  8
0
100
AcDbBlockEnd
  0
BLOCK
  5
1C
330
1B
100
AcDbEntity
 67
     1
  8
0
100
AcDbBlockBegin
  2
*PAPER_SPACE
 70
     0
 10
0.0
 20
0.0
 30
0.0
  3
*PAPER_SPACE
  1

  0
ENDBLK
  5
1D
330
1B
100
AcDbEntity
 67
     1
  8
0
100
AcDbBlockEnd
  0
ENDSEC
  0
SECTION
  2
ENTITIES
  0
LINE
  5
EF
330
1F
100
AcDbEntity
  8
0
  6
CONTINUOUS
 62
     3
100
AcDbLine
 10
126.915
 20
95.350000001
 30
0.0
 11
126.915000001
 21
106.450000001
 31
0.0
  0
LINE
  5
F0
330
1F
100
AcDbEntity
  8
0
  6
CONTINUOUS
 62
     3
100
AcDbLine
 10
125.916346212
 20
74.000000001
 30
0.0
 11
125.916346213
 21
94.000000001
 31
0.0
  0
LINE
  5
F1
330
1F
100
AcDbEntity
  8
0
  6
CONTINUOUS
 62
     3
100
AcDbLine
 10
128.5323810419999
 20
72.750000001
 30
0.0
 11
128.5323810419999
 21
74.000000001
 31
0.0
  0
LINE
  5
F2
330
1F
100
AcDbEntity
  8
0
  6
CONTINUOUS
 62
     3
100
AcDbLine
 10
128.5323810429999
 20
95.250000001
 30
0.0
 11
128.5323810429999
 21
94.000000001
 31
0.0
  0
LINE
  5
F3
330
1F
100
AcDbEntity
  8
0
  6
CONTINUOUS
 62
     3
100
AcDbLine
 10
174.700000007
 20
255.1499999979998
 30
0.0
 11
115.300000007
 21
255.1500000009998
 31
0.0
  0
LINE
  5
F4
330
1F
100
AcDbEntity
  8
0
  6
CONTINUOUS
 62
     3
100
AcDbLine
 10
174.7000000049999
 20
210.8499999979999
 30
0.0
 11
174.700000007
 21
255.1499999979998
 31
0.0
  0
LINE
  5
F5
330
1F
100
AcDbEntity
  8
0
  6
CONTINUOUS
 62
     3
100
AcDbLine
 10
115.300000007
 20
255.1500000009998
 30
0.0
 11
115.300000005
 21
215.850000001
 31
0.0
  0
LINE
  5
F6
330
1F
100
AcDbEntity
  8
0
  6
CONTINUOUS
 62
     3
100
AcDbLine
 10
120.300000005
 20
210.8500000009998
 30
0.0
 11
174.7000000049999
 21
210.8499999979999
 31
0.0
  0
LINE
  5
F7
330
1F
100
AcDbEntity
  8
0
  6
CONTINUOUS
 62
     3
100
AcDbLine
 10
114.100000006
 20
232.250366326
 30
0.0
 11
112.600000006
 21
232.2500000009996
 31
0.0
  0
LINE
  5
F8
330
1F
100
AcDbEntity
  8
0
  6
CONTINUOUS
 62
     3
100
AcDbLine
 10
114.100000006
 20
233.854633677
 30
0.0
 11
112.600000006
 21
233.8550000009996
 31
0.0
  0
LINE
  5
F9
330
1F
100
AcDbEntity
  8
0
  6
CONTINUOUS
 62
     3
100
AcDbLine
 10
112.600000006
 20
232.1450000009998
 30
0.0
 11
114.100000006
 21
232.1453663259996
 31
0.0
  0
LINE
  5
FA
330
1F
100
AcDbEntity
  8
0
  6
CONTINUOUS
 62
     3
100
AcDbLine
 10
114.100000006
 20
233.7496336759997
 30
0.0
 11
112.600000006
 21
233.7500000009999
 31
0.0
  0
LINE
  5
FB
330
1F
100
AcDbEntity
  8
0
  6
CONTINUOUS
 62
     3
100
AcDbLine
 10
182.500000007
 20
253.0499999979999
 30
0.0
 11
182.500000007
 21
252.049999998
 31
0.0
  0
LINE
  5
FC
330
1F
100
AcDbEntity
  8
0
  6
CONTINUOUS
 62
     3
100
AcDbLine
 10
182.500000007
 20
252.049999998
 30
0.0
 11
187.500000007
 21
252.049999998
 31
0.0
  0
LINE
  5
FD
330
1F
100
AcDbEntity
  8
0
  6
CONTINUOUS
 62
     3
100
AcDbLine
 10
187.500000007
 20
252.049999998
 30
0.0
 11
187.500000007
 21
253.0499999979999
 31
0.0
  0
LINE
  5
FE
330
1F
100
AcDbEntity
  8
0
  6
CONTINUOUS
 62
     3
100
AcDbLine
 10
182.500000005
 20
213.9499999979999
 30
0.0
 11
182.500000005
 21
212.9499999979999
 31
0.0
  0
LINE
  5
FF
330
1F
100
AcDbEntity
  8
0
  6
CONTINUOUS
 62
     3
100
AcDbLine
 10
187.500000005
 20
213.9499999979999
 30
0.0
 11
182.500000005
 21
213.9499999979999
 31
0.0
  0
LINE
  5
100
330
1F
100
AcDbEntity
  8
0
  6
CONTINUOUS
 62
     3
100
AcDbLine
 10
187.500000005
 20
212.9499999979999
 30
0.0
 11
187.500000005
 21
213.9499999979999
 31
0.0
  0
LINE
  5
101
330
1F
100
AcDbEntity
  8
0
  6
CONTINUOUS
 62
     3
100
AcDbLine
 10
114.100000006
 20
232.1453663259996
 30
0.0
 11
114.100000006
 21
233.854633677
 31
0.0
  0
LINE
  5
102
330
1F
100
AcDbEntity
  8
0
  6
CONTINUOUS
 62
     3
100
AcDbLine
 10
114.100000007
 20
253.145732652
 30
0.0
 11
114.100000007
 21
254.855000002
 31
0.0
  0
LINE
  5
103
330
1F
100
AcDbEntity
  8
0
  6
CONTINUOUS
 62
     3
100
AcDbLine
 10
175.9000000059999
 20
237.249267348
 30
0.0
 11
177.4000000059999
 21
237.249633673
 31
0.0
  0
LINE
  5
104
330
1F
100
AcDbEntity
  8
0
  6
CONTINUOUS
 62
     3
100
AcDbLine
 10
177.4000000059999
 20
237.354633673
 30
0.0
 11
175.9000000059999
 21
237.3542673479998
 31
0.0
  0
LINE
  5
105
330
1F
100
AcDbEntity
  8
0
  6
CONTINUOUS
 62
     3
100
AcDbLine
 10
114.100000007
 20
254.7500000009996
 30
0.0
 11
112.600000007
 21
254.750366327
 31
0.0
  0
LINE
  5
106
330
1F
100
AcDbEntity
  8
0
  6
CONTINUOUS
 62
     3
100
AcDbLine
 10
112.600000007
 20
253.145366327
 30
0.0
 11
114.100000007
 21
253.145732652
 31
0.0
  0
LINE
  5
107
330
1F
100
AcDbEntity
  8
0
  6
CONTINUOUS
 62
     3
100
AcDbLine
 10
114.100000007
 20
254.855000002
 30
0.0
 11
112.600000007
 21
254.855366327
 31
0.0
  0
LINE
  5
108
330
1F
100
AcDbEntity
  8
0
  6
CONTINUOUS
 62
     3
100
AcDbLine
 10
175.9000000059999
 20
235.7499999979999
 30
0.0
 11
177.4000000059999
 21
235.749633673
 31
0.0
  0
LINE
  5
109
330
1F
100
AcDbEntity
  8
0
  6
CONTINUOUS
 62
     3
100
AcDbLine
 10
175.9000000059999
 20
237.3542673479998
 30
0.0
 11
175.9000000059999
 21
235.644999997
 31
0.0
  0
LINE
  5
10A
330
1F
100
AcDbEntity
  8
0
  6
CONTINUOUS
 62
     3
100
AcDbLine
 10
175.9000000059999
 20
230.2492673479999
 30
0.0
 11
177.4000000059999
 21
230.2496336729999
 31
0.0
  0
LINE
  5
10B
330
1F
100
AcDbEntity
  8
0
  6
CONTINUOUS
 62
     3
100
AcDbLine
 10
114.100000007
 20
253.2507326509999
 30
0.0
 11
112.600000007
 21
253.2503663269998
 31
0.0
  0
LINE
  5
10C
330
1F
100
AcDbEntity
  8
0
  6
CONTINUOUS
 62
     3
100
AcDbLine
 10
114.100000007
 20
249.645732652
 30
0.0
 11
114.100000007
 21
251.3550000019999
 31
0.0
  0
LINE
  5
10D
330
1F
100
AcDbEntity
  8
0
  6
CONTINUOUS
 62
     3
100
AcDbLine
 10
114.100000007
 20
251.2500000009999
 30
0.0
 11
112.600000007
 21
251.2503663269999
 31
0.0
  0
LINE
  5
10E
330
1F
100
AcDbEntity
  8
0
  6
CONTINUOUS
 62
     3
100
AcDbLine
 10
177.4000000059999
 20
230.354633673
 30
0.0
 11
175.9000000059999
 21
230.3542673479998
 31
0.0
  0
LINE
  5
10F
330
1F
100
AcDbEntity
  8
0
  6
CONTINUOUS
 62
     3
100
AcDbLine
 10
112.600000007
 20
249.645366327
 30
0.0
 11
114.100000007
 21
249.645732652
 31
0.0
  0
LINE
  5
110
330
1F
100
AcDbEntity
  8
0
  6
CONTINUOUS
 62
     3
100
AcDbLine
 10
114.100000007
 20
251.3550000019999
 30
0.0
 11
112.600000007
 21
251.355366327
 31
0.0
  0
LINE
  5
111
330
1F
100
AcDbEntity
  8
0
  6
CONTINUOUS
 62
     3
100
AcDbLine
 10
114.100000007
 20
249.750732651
 30
0.0
 11
112.600000007
 21
249.7503663269998
 31
0.0
  0
LINE
  5
112
330
1F
100
AcDbEntity
  8
0
  6
CONTINUOUS
 62
     3
100
AcDbLine
 10
114.100000006
 20
246.145732652
 30
0.0
 11
114.100000006
 21
247.8550000019998
 31
0.0
  0
LINE
  5
113
330
1F
100
AcDbEntity
  8
0
  6
CONTINUOUS
 62
     3
100
AcDbLine
 10
114.100000006
 20
247.750000001
 30
0.0
 11
112.600000006
 21
247.7503663269998
 31
0.0
  0
LINE
  5
114
330
1F
100
AcDbEntity
  8
0
  6
CONTINUOUS
 62
     3
100
AcDbLine
 10
175.9000000059999
 20
228.749999998
 30
0.0
 11
177.4000000059999
 21
228.749633673
 31
0.0
  0
LINE
  5
115
330
1F
100
AcDbEntity
  8
0
  6
CONTINUOUS
 62
     3
100
AcDbLine
 10
181.0000000049998
 20
217.4999999979996
 30
0.0
 11
189.000000005
 21
217.4999999979996
 31
0.0
  0
LINE
  5
116
330
1F
100
AcDbEntity
  8
0
  6
CONTINUOUS
 62
     3
100
AcDbLine
 10
120.300000005
 20
210.8500000009998
 30
0.0
 11
115.300000005
 21
215.850000001
 31
0.0
  0
LINE
  5
117
330
1F
100
AcDbEntity
  8
0
  6
CONTINUOUS
 62
     3
100
AcDbLine
 10
175.9000000059999
 20
230.3542673479998
 30
0.0
 11
175.9000000059999
 21
228.644999997
 31
0.0
  0
LINE
  5
118
330
1F
100
AcDbEntity
  8
0
  6
CONTINUOUS
 62
     3
100
AcDbLine
 10
175.9000000059999
 20
240.7492673479999
 30
0.0
 11
177.4000000059999
 21
240.7496336729999
 31
0.0
  0
LINE
  5
119
330
1F
100
AcDbEntity
  8
0
  6
CONTINUOUS
 62
     3
100
AcDbLine
 10
175.9000000059999
 20
239.144999997
 30
0.0
 11
177.4000000059999
 21
239.144633673
 31
0.0
  0
LINE
  5
11A
330
1F
100
AcDbEntity
  8
0
  6
CONTINUOUS
 62
     3
100
AcDbLine
 10
177.4000000059999
 20
240.854633673
 30
0.0
 11
175.9000000059999
 21
240.8542673479998
 31
0.0
  0
LINE
  5
11B
330
1F
100
AcDbEntity
  8
0
  6
CONTINUOUS
 62
     3
100
AcDbLine
 10
175.9000000059999
 20
239.249999998
 30
0.0
 11
177.4000000059999
 21
239.249633673
 31
0.0
  0
LINE
  5
11C
330
1F
100
AcDbEntity
  8
0
  6
CONTINUOUS
 62
     3
100
AcDbLine
 10
102.500000007
 20
253.050000002
 30
0.0
 11
102.500000007
 21
252.050000002
 31
0.0
  0
LINE
  5
11D
330
1F
100
AcDbEntity
  8
0
  6
CONTINUOUS
 62
     3
100
AcDbLine
 10
175.9000000059999
 20
240.8542673479998
 30
0.0
 11
175.9000000059999
 21
239.144999997
 31
0.0
  0
LINE
  5
11E
330
1F
100
AcDbEntity
  8
0
  6
CONTINUOUS
 62
     3
100
AcDbLine
 10
175.9000000059999
 20
244.2492673479996
 30
0.0
 11
177.4000000059999
 21
244.249633673
 31
0.0
  0
LINE
  5
11F
330
1F
100
AcDbEntity
  8
0
  6
CONTINUOUS
 62
     3
100
AcDbLine
 10
112.600000006
 20
246.1453663269999
 30
0.0
 11
114.100000006
 21
246.145732652
 31
0.0
  0
LINE
  5
120
330
1F
100
AcDbEntity
  8
0
  6
CONTINUOUS
 62
     3
100
AcDbLine
 10
114.100000006
 20
247.8550000019998
 30
0.0
 11
112.600000006
 21
247.855366327
 31
0.0
  0
LINE
  5
121
330
1F
100
AcDbEntity
  8
0
  6
CONTINUOUS
 62
     3
100
AcDbLine
 10
114.100000006
 20
246.2507326509999
 30
0.0
 11
112.600000006
 21
246.250366327
 31
0.0
  0
LINE
  5
122
330
1F
100
AcDbEntity
  8
0
  6
CONTINUOUS
 62
     3
100
AcDbLine
 10
175.9000000059999
 20
242.6449999969999
 30
0.0
 11
177.4000000059999
 21
242.6446336729999
 31
0.0
  0
LINE
  5
123
330
1F
100
AcDbEntity
  8
0
  6
CONTINUOUS
 62
     3
100
AcDbLine
 10
177.4000000059999
 20
244.3546336729998
 30
0.0
 11
175.9000000059999
 21
244.3542673479998
 31
0.0
  0
LINE
  5
124
330
1F
100
AcDbEntity
  8
0
  6
CONTINUOUS
 62
     3
100
AcDbLine
 10
175.9000000059999
 20
242.7499999979999
 30
0.0
 11
177.4000000059999
 21
242.7496336729999
 31
0.0
  0
LINE
  5
125
330
1F
100
AcDbEntity
  8
0
  6
CONTINUOUS
 62
     3
100
AcDbLine
 10
114.100000006
 20
242.645732652
 30
0.0
 11
114.100000006
 21
244.355000002
 31
0.0
  0
LINE
  5
126
330
1F
100
AcDbEntity
  8
0
  6
CONTINUOUS
 62
     3
100
AcDbLine
 10
114.100000006
 20
244.2500000009999
 30
0.0
 11
112.600000006
 21
244.250366327
 31
0.0
  0
LINE
  5
127
330
1F
100
AcDbEntity
  8
0
  6
CONTINUOUS
 62
     3
100
AcDbLine
 10
112.600000006
 20
242.645366327
 30
0.0
 11
114.100000006
 21
242.645732652
 31
0.0
  0
LINE
  5
128
330
1F
100
AcDbEntity
  8
0
  6
CONTINUOUS
 62
     3
100
AcDbLine
 10
175.9000000059999
 20
244.3542673479998
 30
0.0
 11
175.9000000059999
 21
242.6449999969999
 31
0.0
  0
LINE
  5
129
330
1F
100
AcDbEntity
  8
0
  6
CONTINUOUS
 62
     3
100
AcDbLine
 10
175.9000000059999
 20
247.749267348
 30
0.0
 11
177.4000000059999
 21
247.749633673
 31
0.0
  0
LINE
  5
12A
330
1F
100
AcDbEntity
  8
0
  6
CONTINUOUS
 62
     3
100
AcDbLine
 10
175.9000000059999
 20
246.144999997
 30
0.0
 11
177.4000000059999
 21
246.1446336729999
 31
0.0
  0
LINE
  5
12B
330
1F
100
AcDbEntity
  8
0
  6
CONTINUOUS
 62
     3
100
AcDbLine
 10
114.100000006
 20
244.355000002
 30
0.0
 11
112.600000006
 21
244.355366327
 31
0.0
  0
LINE
  5
12C
330
1F
100
AcDbEntity
  8
0
  6
CONTINUOUS
 62
     3
100
AcDbLine
 10
189.000000005
 20
217.4999999979996
 30
0.0
 11
189.000000007
 21
248.4999999979996
 31
0.0
  0
LINE
  5
12D
330
1F
100
AcDbEntity
  8
0
  6
CONTINUOUS
 62
     3
100
AcDbLine
 10
114.100000006
 20
242.7507326509999
 30
0.0
 11
112.600000006
 21
242.750366327
 31
0.0
  0
LINE
  5
12E
330
1F
100
AcDbEntity
  8
0
  6
CONTINUOUS
 62
     3
100
AcDbLine
 10
114.100000006
 20
239.145732652
 30
0.0
 11
114.100000006
 21
240.8550000019999
 31
0.0
  0
LINE
  5
12F
330
1F
100
AcDbEntity
  8
0
  6
CONTINUOUS
 62
     3
100
AcDbLine
 10
177.4000000059999
 20
247.854633673
 30
0.0
 11
175.9000000059999
 21
247.8542673479998
 31
0.0
  0
LINE
  5
130
330
1F
100
AcDbEntity
  8
0
  6
CONTINUOUS
 62
     3
100
AcDbLine
 10
175.9000000059999
 20
246.2499999979999
 30
0.0
 11
177.4000000059999
 21
246.249633673
 31
0.0
  0
LINE
  5
131
330
1F
100
AcDbEntity
  8
0
  6
CONTINUOUS
 62
     3
100
AcDbLine
 10
175.9000000059999
 20
247.8542673479998
 30
0.0
 11
175.9000000059999
 21
246.144999997
 31
0.0
  0
LINE
  5
132
330
1F
100
AcDbEntity
  8
0
  6
CONTINUOUS
 62
     3
100
AcDbLine
 10
114.100000006
 20
240.7500000009999
 30
0.0
 11
112.600000006
 21
240.7503663269998
 31
0.0
  0
LINE
  5
133
330
1F
100
AcDbEntity
  8
0
  6
CONTINUOUS
 62
     3
100
AcDbLine
 10
112.600000006
 20
239.145366327
 30
0.0
 11
114.100000006
 21
239.145732652
 31
0.0
  0
LINE
  5
134
330
1F
100
AcDbEntity
  8
0
  6
CONTINUOUS
 62
     3
100
AcDbLine
 10
114.100000006
 20
240.8550000019999
 30
0.0
 11
112.600000006
 21
240.855366327
 31
0.0
  0
LINE
  5
135
330
1F
100
AcDbEntity
  8
0
  6
CONTINUOUS
 62
     3
100
AcDbLine
 10
175.900000007
 20
251.249267348
 30
0.0
 11
177.400000007
 21
251.2496336729999
 31
0.0
  0
LINE
  5
136
330
1F
100
AcDbEntity
  8
0
  6
CONTINUOUS
 62
     3
100
AcDbLine
 10
175.900000007
 20
249.644999997
 30
0.0
 11
177.400000007
 21
249.644633673
 31
0.0
  0
LINE
  5
137
330
1F
100
AcDbEntity
  8
0
  6
CONTINUOUS
 62
     3
100
AcDbLine
 10
177.400000007
 20
251.354633673
 30
0.0
 11
175.900000007
 21
251.3542673479998
 31
0.0
  0
LINE
  5
138
330
1F
100
AcDbEntity
  8
0
  6
CONTINUOUS
 62
     3
100
AcDbLine
 10
114.100000006
 20
239.250732651
 30
0.0
 11
112.600000006
 21
239.2503663269998
 31
0.0
  0
LINE
  5
139
330
1F
100
AcDbEntity
  8
0
  6
CONTINUOUS
 62
     3
100
AcDbLine
 10
114.100000005
 20
211.145732652
 30
0.0
 11
114.100000005
 21
212.855000002
 31
0.0
  0
LINE
  5
13A
330
1F
100
AcDbEntity
  8
0
  6
CONTINUOUS
 62
     3
100
AcDbLine
 10
114.100000005
 20
212.7500000009999
 30
0.0
 11
112.600000005
 21
212.750366327
 31
0.0
  0
LINE
  5
13B
330
1F
100
AcDbEntity
  8
0
  6
CONTINUOUS
 62
     3
100
AcDbLine
 10
175.900000007
 20
249.749999998
 30
0.0
 11
177.400000007
 21
249.749633673
 31
0.0
  0
LINE
  5
13C
330
1F
100
AcDbEntity
  8
0
  6
CONTINUOUS
 62
     3
100
AcDbLine
 10
175.900000007
 20
251.3542673479998
 30
0.0
 11
175.900000007
 21
249.644999997
 31
0.0
  0
LINE
  5
13D
330
1F
100
AcDbEntity
  8
0
  6
CONTINUOUS
 62
     3
100
AcDbLine
 10
175.900000007
 20
254.7492673479996
 30
0.0
 11
177.400000007
 21
254.749633673
 31
0.0
  0
LINE
  5
13E
330
1F
100
AcDbEntity
  8
0
  6
CONTINUOUS
 62
     3
100
AcDbLine
 10
102.500000007
 20
252.050000002
 30
0.0
 11
107.500000007
 21
252.050000002
 31
0.0
  0
LINE
  5
13F
330
1F
100
AcDbEntity
  8
0
  6
CONTINUOUS
 62
     3
100
AcDbLine
 10
107.500000007
 20
252.050000002
 30
0.0
 11
107.500000007
 21
253.050000002
 31
0.0
  0
LINE
  5
140
330
1F
100
AcDbEntity
  8
0
  6
CONTINUOUS
 62
     3
100
AcDbLine
 10
175.9000000059999
 20
235.644999997
 30
0.0
 11
177.4000000059999
 21
235.6446336729999
 31
0.0
  0
LINE
  5
141
330
1F
100
AcDbEntity
  8
0
  6
CONTINUOUS
 62
     3
100
AcDbLine
 10
112.600000005
 20
211.145366327
 30
0.0
 11
114.100000005
 21
211.145732652
 31
0.0
  0
LINE
  5
142
330
1F
100
AcDbEntity
  8
0
  6
CONTINUOUS
 62
     3
100
AcDbLine
 10
107.5000000049999
 20
212.950000002
 30
0.0
 11
107.5000000049999
 21
213.9500000019999
 31
0.0
  0
LINE
  5
143
330
1F
100
AcDbEntity
  8
0
  6
CONTINUOUS
 62
     3
100
AcDbLine
 10
114.100000005
 20
212.855000002
 30
0.0
 11
112.600000005
 21
212.8553663269999
 31
0.0
  0
LINE
  5
144
330
1F
100
AcDbEntity
  8
0
  6
CONTINUOUS
 62
     3
100
AcDbLine
 10
114.100000005
 20
211.2507326509996
 30
0.0
 11
112.600000005
 21
211.250366327
 31
0.0
  0
LINE
  5
145
330
1F
100
AcDbEntity
  8
0
  6
CONTINUOUS
 62
     3
100
AcDbLine
 10
114.100000005
 20
214.645732652
 30
0.0
 11
114.100000005
 21
216.3550000019998
 31
0.0
  0
LINE
  5
146
330
1F
100
AcDbEntity
  8
0
  6
CONTINUOUS
 62
     3
100
AcDbLine
 10
114.100000005
 20
216.250000001
 30
0.0
 11
112.600000005
 21
216.2503663269998
 31
0.0
  0
LINE
  5
147
330
1F
100
AcDbEntity
  8
0
  6
CONTINUOUS
 62
     3
100
AcDbLine
 10
112.600000005
 20
214.6453663269999
 30
0.0
 11
114.100000005
 21
214.645732652
 31
0.0
  0
LINE
  5
148
330
1F
100
AcDbEntity
  8
0
  6
CONTINUOUS
 62
     3
100
AcDbLine
 10
114.100000005
 20
216.3550000019998
 30
0.0
 11
112.600000005
 21
216.355366327
 31
0.0
  0
LINE
  5
149
330
1F
100
AcDbEntity
  8
0
  6
CONTINUOUS
 62
     3
100
AcDbLine
 10
114.100000005
 20
214.7507326509999
 30
0.0
 11
112.600000005
 21
214.750366327
 31
0.0
  0
LINE
  5
14A
330
1F
100
AcDbEntity
  8
0
  6
CONTINUOUS
 62
     3
100
AcDbLine
 10
114.100000005
 20
218.145732652
 30
0.0
 11
114.100000005
 21
219.855000002
 31
0.0
  0
LINE
  5
14B
330
1F
100
AcDbEntity
  8
0
  6
CONTINUOUS
 62
     3
100
AcDbLine
 10
114.100000005
 20
219.7500000009996
 30
0.0
 11
112.600000005
 21
219.750366327
 31
0.0
  0
LINE
  5
14C
330
1F
100
AcDbEntity
  8
0
  6
CONTINUOUS
 62
     3
100
AcDbLine
 10
112.600000005
 20
218.145366327
 30
0.0
 11
114.100000005
 21
218.145732652
 31
0.0
  0
LINE
  5
14D
330
1F
100
AcDbEntity
  8
0
  6
CONTINUOUS
 62
     3
100
AcDbLine
 10
114.100000005
 20
219.855000002
 30
0.0
 11
112.600000005
 21
219.855366327
 31
0.0
  0
LINE
  5
14E
330
1F
100
AcDbEntity
  8
0
  6
CONTINUOUS
 62
     3
100
AcDbLine
 10
114.100000005
 20
218.250732651
 30
0.0
 11
112.600000005
 21
218.2503663269999
 31
0.0
  0
LINE
  5
14F
330
1F
100
AcDbEntity
  8
0
  6
CONTINUOUS
 62
     3
100
AcDbLine
 10
114.100000005
 20
221.645732652
 30
0.0
 11
114.100000005
 21
223.355000002
 31
0.0
  0
LINE
  5
150
330
1F
100
AcDbEntity
  8
0
  6
CONTINUOUS
 62
     3
100
AcDbLine
 10
114.100000005
 20
223.2500000009999
 30
0.0
 11
112.600000005
 21
223.250366327
 31
0.0
  0
LINE
  5
151
330
1F
100
AcDbEntity
  8
0
  6
CONTINUOUS
 62
     3
100
AcDbLine
 10
112.600000005
 20
221.645366327
 30
0.0
 11
114.100000005
 21
221.645732652
 31
0.0
  0
LINE
  5
152
330
1F
100
AcDbEntity
  8
0
  6
CONTINUOUS
 62
     3
100
AcDbLine
 10
114.100000005
 20
223.355000002
 30
0.0
 11
112.600000005
 21
223.355366327
 31
0.0
  0
LINE
  5
153
330
1F
100
AcDbEntity
  8
0
  6
CONTINUOUS
 62
     3
100
AcDbLine
 10
114.100000005
 20
221.7507326509996
 30
0.0
 11
112.600000005
 21
221.750366327
 31
0.0
  0
LINE
  5
154
330
1F
100
AcDbEntity
  8
0
  6
CONTINUOUS
 62
     3
100
AcDbLine
 10
114.100000005
 20
225.145732652
 30
0.0
 11
114.100000005
 21
226.8550000019998
 31
0.0
  0
LINE
  5
155
330
1F
100
AcDbEntity
  8
0
  6
CONTINUOUS
 62
     3
100
AcDbLine
 10
114.100000005
 20
226.750000001
 30
0.0
 11
112.600000005
 21
226.7503663269998
 31
0.0
  0
LINE
  5
156
330
1F
100
AcDbEntity
  8
0
  6
CONTINUOUS
 62
     3
100
AcDbLine
 10
112.600000005
 20
225.1453663269999
 30
0.0
 11
114.100000005
 21
225.145732652
 31
0.0
  0
LINE
  5
157
330
1F
100
AcDbEntity
  8
0
  6
CONTINUOUS
 62
     3
100
AcDbLine
 10
114.100000005
 20
226.8550000019998
 30
0.0
 11
112.600000005
 21
226.855366327
 31
0.0
  0
LINE
  5
158
330
1F
100
AcDbEntity
  8
0
  6
CONTINUOUS
 62
     3
100
AcDbLine
 10
114.100000005
 20
225.2507326509999
 30
0.0
 11
112.600000005
 21
225.250366327
 31
0.0
  0
LINE
  5
159
330
1F
100
AcDbEntity
  8
0
  6
CONTINUOUS
 62
     3
100
AcDbLine
 10
114.100000006
 20
235.645732652
 30
0.0
 11
114.100000006
 21
237.3550000019998
 31
0.0
  0
LINE
  5
15A
330
1F
100
AcDbEntity
  8
0
  6
CONTINUOUS
 62
     3
100
AcDbLine
 10
114.100000006
 20
237.250000001
 30
0.0
 11
112.600000006
 21
237.2503663269998
 31
0.0
  0
LINE
  5
15B
330
1F
100
AcDbEntity
  8
0
  6
CONTINUOUS
 62
     3
100
AcDbLine
 10
112.600000006
 20
235.6453663269999
 30
0.0
 11
114.100000006
 21
235.645732652
 31
0.0
  0
LINE
  5
15C
330
1F
100
AcDbEntity
  8
0
  6
CONTINUOUS
 62
     3
100
AcDbLine
 10
114.100000006
 20
237.3550000019998
 30
0.0
 11
112.600000006
 21
237.355366327
 31
0.0
  0
LINE
  5
15D
330
1F
100
AcDbEntity
  8
0
  6
CONTINUOUS
 62
     3
100
AcDbLine
 10
114.100000006
 20
235.7507326509999
 30
0.0
 11
112.600000006
 21
235.750366327
 31
0.0
  0
LINE
  5
15E
330
1F
100
AcDbEntity
  8
0
  6
CONTINUOUS
 62
     3
100
AcDbLine
 10
114.100000006
 20
228.645732652
 30
0.0
 11
114.100000006
 21
230.3550000019999
 31
0.0
  0
LINE
  5
15F
330
1F
100
AcDbEntity
  8
0
  6
CONTINUOUS
 62
     3
100
AcDbLine
 10
114.100000006
 20
230.2500000009996
 30
0.0
 11
112.600000006
 21
230.250366327
 31
0.0
  0
LINE
  5
160
330
1F
100
AcDbEntity
  8
0
  6
CONTINUOUS
 62
     3
100
AcDbLine
 10
112.600000006
 20
228.645366327
 30
0.0
 11
114.100000006
 21
228.645732652
 31
0.0
  0
LINE
  5
161
330
1F
100
AcDbEntity
  8
0
  6
CONTINUOUS
 62
     3
100
AcDbLine
 10
114.100000006
 20
230.3550000019999
 30
0.0
 11
112.600000006
 21
230.355366327
 31
0.0
  0
LINE
  5
162
330
1F
100
AcDbEntity
  8
0
  6
CONTINUOUS
 62
     3
100
AcDbLine
 10
114.100000006
 20
228.750732651
 30
0.0
 11
112.600000006
 21
228.7503663269998
 31
0.0
  0
LINE
  5
163
330
1F
100
AcDbEntity
  8
0
  6
CONTINUOUS
 62
     3
100
AcDbLine
 10
175.900000007
 20
253.1449999969999
 30
0.0
 11
177.400000007
 21
253.1446336729999
 31
0.0
  0
LINE
  5
164
330
1F
100
AcDbEntity
  8
0
  6
CONTINUOUS
 62
     3
100
AcDbLine
 10
177.400000007
 20
254.8546336729998
 30
0.0
 11
175.900000007
 21
254.8542673479998
 31
0.0
  0
LINE
  5
165
330
1F
100
AcDbEntity
  8
0
  6
CONTINUOUS
 62
     3
100
AcDbLine
 10
175.900000007
 20
253.249999998
 30
0.0
 11
177.400000007
 21
253.2496336729999
 31
0.0
  0
LINE
  5
166
330
1F
100
AcDbEntity
  8
0
  6
CONTINUOUS
 62
     3
100
AcDbLine
 10
175.900000007
 20
254.8542673479998
 30
0.0
 11
175.900000007
 21
253.1449999969999
 31
0.0
  0
LINE
  5
167
330
1F
100
AcDbEntity
  8
0
  6
CONTINUOUS
 62
     3
100
AcDbLine
 10
175.900000005
 20
226.749267348
 30
0.0
 11
177.400000005
 21
226.749633673
 31
0.0
  0
LINE
  5
168
330
1F
100
AcDbEntity
  8
0
  6
CONTINUOUS
 62
     3
100
AcDbLine
 10
175.900000005
 20
225.144999997
 30
0.0
 11
177.400000005
 21
225.1446336729999
 31
0.0
  0
LINE
  5
169
330
1F
100
AcDbEntity
  8
0
  6
CONTINUOUS
 62
     3
100
AcDbLine
 10
177.400000005
 20
226.854633673
 30
0.0
 11
175.900000005
 21
226.8542673479998
 31
0.0
  0
LINE
  5
16A
330
1F
100
AcDbEntity
  8
0
  6
CONTINUOUS
 62
     3
100
AcDbLine
 10
175.900000005
 20
225.2499999979999
 30
0.0
 11
177.400000005
 21
225.249633673
 31
0.0
  0
LINE
  5
16B
330
1F
100
AcDbEntity
  8
0
  6
CONTINUOUS
 62
     3
100
AcDbLine
 10
175.900000005
 20
226.8542673479998
 30
0.0
 11
175.900000005
 21
225.144999997
 31
0.0
  0
LINE
  5
16C
330
1F
100
AcDbEntity
  8
0
  6
CONTINUOUS
 62
     3
100
AcDbLine
 10
175.900000005
 20
223.2492673479999
 30
0.0
 11
177.400000005
 21
223.249633673
 31
0.0
  0
LINE
  5
16D
330
1F
100
AcDbEntity
  8
0
  6
CONTINUOUS
 62
     3
100
AcDbLine
 10
175.900000005
 20
221.644999997
 30
0.0
 11
177.400000005
 21
221.6446336729999
 31
0.0
  0
LINE
  5
16E
330
1F
100
AcDbEntity
  8
0
  6
CONTINUOUS
 62
     3
100
AcDbLine
 10
177.400000005
 20
223.3546336729999
 30
0.0
 11
175.900000005
 21
223.3542673479998
 31
0.0
  0
LINE
  5
16F
330
1F
100
AcDbEntity
  8
0
  6
CONTINUOUS
 62
     3
100
AcDbLine
 10
175.900000005
 20
221.7499999979996
 30
0.0
 11
177.400000005
 21
221.749633673
 31
0.0
  0
LINE
  5
170
330
1F
100
AcDbEntity
  8
0
  6
CONTINUOUS
 62
     3
100
AcDbLine
 10
175.900000005
 20
223.3542673479998
 30
0.0
 11
175.900000005
 21
221.644999997
 31
0.0
  0
LINE
  5
171
330
1F
100
AcDbEntity
  8
0
  6
CONTINUOUS
 62
     3
100
AcDbLine
 10
175.900000005
 20
219.7492673479996
 30
0.0
 11
177.400000005
 21
219.7496336729999
 31
0.0
  0
LINE
  5
172
330
1F
100
AcDbEntity
  8
0
  6
CONTINUOUS
 62
     3
100
AcDbLine
 10
175.900000005
 20
218.144999997
 30
0.0
 11
177.400000005
 21
218.144633673
 31
0.0
  0
LINE
  5
173
330
1F
100
AcDbEntity
  8
0
  6
CONTINUOUS
 62
     3
100
AcDbLine
 10
177.400000005
 20
219.854633673
 30
0.0
 11
175.900000005
 21
219.8542673479998
 31
0.0
  0
LINE
  5
174
330
1F
100
AcDbEntity
  8
0
  6
CONTINUOUS
 62
     3
100
AcDbLine
 10
175.900000005
 20
218.249999998
 30
0.0
 11
177.400000005
 21
218.249633673
 31
0.0
  0
LINE
  5
175
330
1F
100
AcDbEntity
  8
0
  6
CONTINUOUS
 62
     3
100
AcDbLine
 10
175.900000005
 20
219.8542673479998
 30
0.0
 11
175.900000005
 21
218.144999997
 31
0.0
  0
LINE
  5
176
330
1F
100
AcDbEntity
  8
0
  6
CONTINUOUS
 62
     3
100
AcDbLine
 10
175.900000005
 20
216.249267348
 30
0.0
 11
177.400000005
 21
216.249633673
 31
0.0
  0
LINE
  5
177
330
1F
100
AcDbEntity
  8
0
  6
CONTINUOUS
 62
     3
100
AcDbLine
 10
175.900000005
 20
214.644999997
 30
0.0
 11
177.400000005
 21
214.6446336729999
 31
0.0
  0
LINE
  5
178
330
1F
100
AcDbEntity
  8
0
  6
CONTINUOUS
 62
     3
100
AcDbLine
 10
177.400000005
 20
216.354633673
 30
0.0
 11
175.900000005
 21
216.3542673479998
 31
0.0
  0
LINE
  5
179
330
1F
100
AcDbEntity
  8
0
  6
CONTINUOUS
 62
     3
100
AcDbLine
 10
175.900000005
 20
214.7499999979999
 30
0.0
 11
177.400000005
 21
214.749633673
 31
0.0
  0
LINE
  5
17A
330
1F
100
AcDbEntity
  8
0
  6
CONTINUOUS
 62
     3
100
AcDbLine
 10
175.900000005
 20
216.3542673479998
 30
0.0
 11
175.900000005
 21
214.644999997
 31
0.0
  0
LINE
  5
17B
330
1F
100
AcDbEntity
  8
0
  6
CONTINUOUS
 62
     3
100
AcDbLine
 10
175.900000005
 20
212.7492673479999
 30
0.0
 11
177.400000005
 21
212.749633673
 31
0.0
  0
LINE
  5
17C
330
1F
100
AcDbEntity
  8
0
  6
CONTINUOUS
 62
     3
100
AcDbLine
 10
175.900000005
 20
211.144999997
 30
0.0
 11
177.400000005
 21
211.1446336729999
 31
0.0
  0
LINE
  5
17D
330
1F
100
AcDbEntity
  8
0
  6
CONTINUOUS
 62
     3
100
AcDbLine
 10
177.400000005
 20
212.8546336729999
 30
0.0
 11
175.900000005
 21
212.8542673479997
 31
0.0
  0
LINE
  5
17E
330
1F
100
AcDbEntity
  8
0
  6
CONTINUOUS
 62
     3
100
AcDbLine
 10
175.900000005
 20
211.2499999979996
 30
0.0
 11
177.400000005
 21
211.249633673
 31
0.0
  0
LINE
  5
17F
330
1F
100
AcDbEntity
  8
0
  6
CONTINUOUS
 62
     3
100
AcDbLine
 10
175.900000005
 20
212.8542673479997
 30
0.0
 11
175.900000005
 21
211.144999997
 31
0.0
  0
LINE
  5
180
330
1F
100
AcDbEntity
  8
0
  6
CONTINUOUS
 62
     3
100
AcDbLine
 10
175.9000000059999
 20
233.8546336729999
 30
0.0
 11
175.9000000059999
 21
232.1453663229996
 31
0.0
  0
LINE
  5
181
330
1F
100
AcDbEntity
  8
0
  6
CONTINUOUS
 62
     3
100
AcDbLine
 10
175.9000000059999
 20
232.250366324
 30
0.0
 11
177.4000000059999
 21
232.249999999
 31
0.0
  0
LINE
  5
182
330
1F
100
AcDbEntity
  8
0
  6
CONTINUOUS
 62
     3
100
AcDbLine
 10
177.4000000059999
 20
233.854999999
 30
0.0
 11
175.9000000059999
 21
233.8546336729999
 31
0.0
  0
LINE
  5
183
330
1F
100
AcDbEntity
  8
0
  6
CONTINUOUS
 62
     3
100
AcDbLine
 10
175.9000000059999
 20
232.1453663229996
 30
0.0
 11
177.4000000059999
 21
232.144999999
 31
0.0
  0
LINE
  5
184
330
1F
100
AcDbEntity
  8
0
  6
CONTINUOUS
 62
     3
100
AcDbLine
 10
175.9000000059999
 20
233.749633674
 30
0.0
 11
177.4000000059999
 21
233.749999999
 31
0.0
  0
LINE
  5
185
330
1F
100
AcDbEntity
  8
0
  6
CONTINUOUS
 62
     3
100
AcDbLine
 10
107.5000000049999
 20
213.9500000019999
 30
0.0
 11
102.500000005
 21
213.9500000019999
 31
0.0
  0
LINE
  5
186
330
1F
100
AcDbEntity
  8
0
  6
CONTINUOUS
 62
     3
100
AcDbLine
 10
102.500000005
 20
213.9500000019999
 30
0.0
 11
102.500000005
 21
212.950000002
 31
0.0
  0
LINE
  5
187
330
1F
100
AcDbEntity
  8
0
  6
CONTINUOUS
 62
     3
100
AcDbLine
 10
175.9000000059999
 20
228.644999997
 30
0.0
 11
177.4000000059999
 21
228.644633673
 31
0.0
  0
LINE
  5
188
330
1F
100
AcDbEntity
  8
0
  6
CONTINUOUS
 62
     3
100
AcDbLine
 10
101.000000007
 20
248.500000002
 30
0.0
 11
101.000000005
 21
217.500000002
 31
0.0
  0
LINE
  5
189
330
1F
100
AcDbEntity
  8
0
  6
CONTINUOUS
 62
     3
100
AcDbLine
 10
179.9600000059998
 20
248.4999999979996
 30
0.0
 11
179.960000005
 21
217.4999999979996
 31
0.0
  0
LINE
  5
18A
330
1F
100
AcDbEntity
  8
0
  6
CONTINUOUS
 62
     3
100
AcDbLine
 10
182.7600000049999
 20
217.4999999979996
 30
0.0
 11
182.7600000059996
 21
248.4999999979996
 31
0.0
  0
LINE
  5
18B
330
1F
100
AcDbEntity
  8
0
  6
CONTINUOUS
 62
     3
100
AcDbLine
 10
188.3600000059998
 20
248.4999999979996
 30
0.0
 11
188.360000005
 21
217.4999999979996
 31
0.0
  0
LINE
  5
18C
330
1F
100
AcDbEntity
  8
0
  6
CONTINUOUS
 62
     3
100
AcDbLine
 10
190.000000006
 20
248.4999999979996
 30
0.0
 11
190.000000005
 21
217.4999999979996
 31
0.0
  0
LINE
  5
18D
330
1F
100
AcDbEntity
  8
0
  6
CONTINUOUS
 62
     3
100
AcDbLine
 10
190.800000005
 20
217.4999999979996
 30
0.0
 11
190.8000000059998
 21
248.4999999979996
 31
0.0
  0
CIRCLE
  5
18E
330
1F
100
AcDbEntity
  8
0
  6
CONTINUOUS
 62
     3
100
AcDbCircle
 10
185.1600000059999
 20
235.5399999979999
 30
0.0
 40
2.0
  0
CIRCLE
  5
18F
330
1F
100
AcDbEntity
  8
0
  6
CONTINUOUS
 62
     3
100
AcDbCircle
 10
185.1600000059999
 20
235.5399999979999
 30
0.0
 40
1.8
  0
LINE
  5
190
330
1F
100
AcDbEntity
  8
0
  6
CONTINUOUS
 62
     3
100
AcDbLine
 10
185.4100000059996
 20
237.3225543449999
 30
0.0
 11
185.4100000059996
 21
233.757445651
 31
0.0
  0
LINE
  5
191
330
1F
100
AcDbEntity
  8
0
  6
CONTINUOUS
 62
     3
100
AcDbLine
 10
184.9100000059999
 20
237.3225543449999
 30
0.0
 11
184.9100000059999
 21
233.757445651
 31
0.0
  0
CIRCLE
  5
192
330
1F
100
AcDbEntity
  8
0
  6
CONTINUOUS
 62
     3
100
AcDbCircle
 10
185.1600000059999
 20
230.459999998
 30
0.0
 40
2.0
  0
CIRCLE
  5
193
330
1F
100
AcDbEntity
  8
0
  6
CONTINUOUS
 62
     3
100
AcDbCircle
 10
185.1600000059999
 20
230.459999998
 30
0.0
 40
1.8
  0
LINE
  5
194
330
1F
100
AcDbEntity
  8
0
  6
CONTINUOUS
 62
     3
100
AcDbLine
 10
185.4100000059996
 20
232.242554345
 30
0.0
 11
185.4100000059996
 21
228.6774456509998
 31
0.0
  0
LINE
  5
195
330
1F
100
AcDbEntity
  8
0
  6
CONTINUOUS
 62
     3
100
AcDbLine
 10
184.9100000059999
 20
232.242554345
 30
0.0
 11
184.9100000059999
 21
228.6774456509998
 31
0.0
  0
CIRCLE
  5
196
330
1F
100
AcDbEntity
  8
0
  6
CONTINUOUS
 62
     3
100
AcDbCircle
 10
185.160000005
 20
225.379999998
 30
0.0
 40
2.0
  0
CIRCLE
  5
197
330
1F
100
AcDbEntity
  8
0
  6
CONTINUOUS
 62
     3
100
AcDbCircle
 10
185.160000005
 20
225.379999998
 30
0.0
 40
1.8
  0
LINE
  5
198
330
1F
100
AcDbEntity
  8
0
  6
CONTINUOUS
 62
     3
100
AcDbLine
 10
185.4100000059996
 20
227.1625543449999
 30
0.0
 11
185.410000005
 21
223.5974456509999
 31
0.0
  0
LINE
  5
199
330
1F
100
AcDbEntity
  8
0
  6
CONTINUOUS
 62
     3
100
AcDbLine
 10
184.9100000059999
 20
227.1625543449999
 30
0.0
 11
184.9100000049998
 21
223.5974456509999
 31
0.0
  0
CIRCLE
  5
19A
330
1F
100
AcDbEntity
  8
0
  6
CONTINUOUS
 62
     3
100
AcDbCircle
 10
185.160000005
 20
220.299999998
 30
0.0
 40
2.0
  0
CIRCLE
  5
19B
330
1F
100
AcDbEntity
  8
0
  6
CONTINUOUS
 62
     3
100
AcDbCircle
 10
185.160000005
 20
220.299999998
 30
0.0
 40
1.8
  0
LINE
  5
19C
330
1F
100
AcDbEntity
  8
0
  6
CONTINUOUS
 62
     3
100
AcDbLine
 10
185.410000005
 20
222.082554345
 30
0.0
 11
185.410000005
 21
218.5174456509998
 31
0.0
  0
LINE
  5
19D
330
1F
100
AcDbEntity
  8
0
  6
CONTINUOUS
 62
     3
100
AcDbLine
 10
184.9100000049998
 20
222.082554345
 30
0.0
 11
184.9100000049998
 21
218.5174456509998
 31
0.0
  0
CIRCLE
  5
19E
330
1F
100
AcDbEntity
  8
0
  6
CONTINUOUS
 62
     3
100
AcDbCircle
 10
185.1600000059999
 20
240.619999998
 30
0.0
 40
2.0
  0
LINE
  5
19F
330
1F
100
AcDbEntity
  8
0
  6
CONTINUOUS
 62
     3
100
AcDbLine
 10
185.4100000059996
 20
242.4025543449999
 30
0.0
 11
185.4100000059996
 21
238.8374456509999
 31
0.0
  0
LINE
  5
1A0
330
1F
100
AcDbEntity
  8
0
  6
CONTINUOUS
 62
     3
100
AcDbLine
 10
184.9100000059999
 20
242.4025543449999
 30
0.0
 11
184.9100000059999
 21
238.8374456509999
 31
0.0
  0
CIRCLE
  5
1A1
330
1F
100
AcDbEntity
  8
0
  6
CONTINUOUS
 62
     3
100
AcDbCircle
 10
185.1600000059999
 20
240.619999998
 30
0.0
 40
1.8
  0
CIRCLE
  5
1A2
330
1F
100
AcDbEntity
  8
0
  6
CONTINUOUS
 62
     3
100
AcDbCircle
 10
185.1600000059999
 20
245.6999999979999
 30
0.0
 40
2.0
  0
CIRCLE
  5
1A3
330
1F
100
AcDbEntity
  8
0
  6
CONTINUOUS
 62
     3
100
AcDbCircle
 10
185.1600000059999
 20
245.6999999979999
 30
0.0
 40
1.8
  0
LINE
  5
1A4
330
1F
100
AcDbEntity
  8
0
  6
CONTINUOUS
 62
     3
100
AcDbLine
 10
185.4100000059996
 20
247.482554345
 30
0.0
 11
185.4100000059996
 21
243.9174456509996
 31
0.0
  0
LINE
  5
1A5
330
1F
100
AcDbEntity
  8
0
  6
CONTINUOUS
 62
     3
100
AcDbLine
 10
184.9100000059999
 20
247.482554345
 30
0.0
 11
184.9100000059999
 21
243.9174456509996
 31
0.0
  0
LINE
  5
1A6
330
1F
100
AcDbEntity
  8
0
  6
CONTINUOUS
 62
     3
100
AcDbLine
 10
110.040000006
 20
248.500000002
 30
0.0
 11
110.040000005
 21
217.500000002
 31
0.0
  0
LINE
  5
1A7
330
1F
100
AcDbEntity
  8
0
  6
CONTINUOUS
 62
     3
100
AcDbLine
 10
107.240000005
 20
217.500000002
 30
0.0
 11
107.240000006
 21
248.500000002
 31
0.0
  0
LINE
  5
1A8
330
1F
100
AcDbEntity
  8
0
  6
CONTINUOUS
 62
     3
100
AcDbLine
 10
101.640000006
 20
248.500000002
 30
0.0
 11
101.6400000049999
 21
217.500000002
 31
0.0
  0
LINE
  5
1A9
330
1F
100
AcDbEntity
  8
0
  6
CONTINUOUS
 62
     3
100
AcDbLine
 10
100.000000006
 20
248.500000002
 30
0.0
 11
100.000000005
 21
217.500000002
 31
0.0
  0
LINE
  5
1AA
330
1F
100
AcDbEntity
  8
0
  6
CONTINUOUS
 62
     3
100
AcDbLine
 10
99.200000005
 20
217.500000002
 30
0.0
 11
99.20000000600001
 21
248.500000002
 31
0.0
  0
CIRCLE
  5
1AB
330
1F
100
AcDbEntity
  8
0
  6
CONTINUOUS
 62
     3
100
AcDbCircle
 10
104.840000006
 20
230.460000002
 30
0.0
 40
2.0
  0
CIRCLE
  5
1AC
330
1F
100
AcDbEntity
  8
0
  6
CONTINUOUS
 62
     3
100
AcDbCircle
 10
104.840000006
 20
230.460000002
 30
0.0
 40
1.8
  0
LINE
  5
1AD
330
1F
100
AcDbEntity
  8
0
  6
CONTINUOUS
 62
     3
100
AcDbLine
 10
104.590000006
 20
232.242554349
 30
0.0
 11
104.590000006
 21
228.677445655
 31
0.0
  0
LINE
  5
1AE
330
1F
100
AcDbEntity
  8
0
  6
CONTINUOUS
 62
     3
100
AcDbLine
 10
105.0900000059999
 20
232.242554349
 30
0.0
 11
105.0900000059999
 21
228.677445655
 31
0.0
  0
CIRCLE
  5
1AF
330
1F
100
AcDbEntity
  8
0
  6
CONTINUOUS
 62
     3
100
AcDbCircle
 10
104.840000005
 20
225.380000002
 30
0.0
 40
2.0
  0
CIRCLE
  5
1B0
330
1F
100
AcDbEntity
  8
0
  6
CONTINUOUS
 62
     3
100
AcDbCircle
 10
104.840000005
 20
225.380000002
 30
0.0
 40
1.8
  0
LINE
  5
1B1
330
1F
100
AcDbEntity
  8
0
  6
CONTINUOUS
 62
     3
100
AcDbLine
 10
104.590000006
 20
227.1625543489998
 30
0.0
 11
104.590000005
 21
223.597445655
 31
0.0
  0
LINE
  5
1B2
330
1F
100
AcDbEntity
  8
0
  6
CONTINUOUS
 62
     3
100
AcDbLine
 10
105.0900000059999
 20
227.1625543489998
 30
0.0
 11
105.0900000049997
 21
223.597445655
 31
0.0
  0
CIRCLE
  5
1B3
330
1F
100
AcDbEntity
  8
0
  6
CONTINUOUS
 62
     3
100
AcDbCircle
 10
104.840000005
 20
220.300000002
 30
0.0
 40
2.0
  0
CIRCLE
  5
1B4
330
1F
100
AcDbEntity
  8
0
  6
CONTINUOUS
 62
     3
100
AcDbCircle
 10
104.840000005
 20
220.300000002
 30
0.0
 40
1.8
  0
LINE
  5
1B5
330
1F
100
AcDbEntity
  8
0
  6
CONTINUOUS
 62
     3
100
AcDbLine
 10
104.590000005
 20
222.082554349
 30
0.0
 11
104.590000005
 21
218.5174456549999
 31
0.0
  0
LINE
  5
1B6
330
1F
100
AcDbEntity
  8
0
  6
CONTINUOUS
 62
     3
100
AcDbLine
 10
105.0900000049997
 20
222.082554349
 30
0.0
 11
105.0900000049997
 21
218.5174456549999
 31
0.0
  0
CIRCLE
  5
1B7
330
1F
100
AcDbEntity
  8
0
  6
CONTINUOUS
 62
     3
100
AcDbCircle
 10
104.840000006
 20
235.5400000019999
 30
0.0
 40
2.0
  0
CIRCLE
  5
1B8
330
1F
100
AcDbEntity
  8
0
  6
CONTINUOUS
 62
     3
100
AcDbCircle
 10
104.840000006
 20
235.5400000019999
 30
0.0
 40
1.8
  0
LINE
  5
1B9
330
1F
100
AcDbEntity
  8
0
  6
CONTINUOUS
 62
     3
100
AcDbLine
 10
104.590000006
 20
237.322554349
 30
0.0
 11
104.590000006
 21
233.757445655
 31
0.0
  0
LINE
  5
1BA
330
1F
100
AcDbEntity
  8
0
  6
CONTINUOUS
 62
     3
100
AcDbLine
 10
105.0900000059999
 20
237.322554349
 30
0.0
 11
105.0900000059999
 21
233.757445655
 31
0.0
  0
CIRCLE
  5
1BB
330
1F
100
AcDbEntity
  8
0
  6
CONTINUOUS
 62
     3
100
AcDbCircle
 10
104.840000006
 20
240.620000002
 30
0.0
 40
2.0
  0
LINE
  5
1BC
330
1F
100
AcDbEntity
  8
0
  6
CONTINUOUS
 62
     3
100
AcDbLine
 10
104.590000006
 20
242.4025543489999
 30
0.0
 11
104.590000006
 21
238.837445655
 31
0.0
  0
LINE
  5
1BD
330
1F
100
AcDbEntity
  8
0
  6
CONTINUOUS
 62
     3
100
AcDbLine
 10
105.0900000059999
 20
242.4025543489999
 30
0.0
 11
105.0900000059999
 21
238.837445655
 31
0.0
  0
CIRCLE
  5
1BE
330
1F
100
AcDbEntity
  8
0
  6
CONTINUOUS
 62
     3
100
AcDbCircle
 10
104.840000006
 20
240.620000002
 30
0.0
 40
1.8
  0
CIRCLE
  5
1BF
330
1F
100
AcDbEntity
  8
0
  6
CONTINUOUS
 62
     3
100
AcDbCircle
 10
104.840000006
 20
245.7000000019998
 30
0.0
 40
2.0
  0
CIRCLE
  5
1C0
330
1F
100
AcDbEntity
  8
0
  6
CONTINUOUS
 62
     3
100
AcDbCircle
 10
104.840000006
 20
245.7000000019998
 30
0.0
 40
1.8
  0
LINE
  5
1C1
330
1F
100
AcDbEntity
  8
0
  6
CONTINUOUS
 62
     3
100
AcDbLine
 10
104.590000006
 20
247.482554349
 30
0.0
 11
104.590000006
 21
243.9174456549999
 31
0.0
  0
LINE
  5
1C2
330
1F
100
AcDbEntity
  8
0
  6
CONTINUOUS
 62
     3
100
AcDbLine
 10
105.0900000059999
 20
247.482554349
 30
0.0
 11
105.0900000059999
 21
243.9174456549999
 31
0.0
  0
LINE
  5
1C3
330
1F
100
AcDbEntity
  8
0
  6
CONTINUOUS
 62
     3
100
AcDbLine
 10
95.415000005
 20
222.0000026999999
 30
0.0
 11
95.41500000399999
 21
195.000000002
 31
0.0
  0
LINE
  5
1C4
330
1F
100
AcDbEntity
  8
0
  6
CONTINUOUS
 62
     3
100
AcDbLine
 10
95.41500000399999
 20
196.000000002
 30
0.0
 11
97.346851657
 21
195.482361912
 31
0.0
  0
LINE
  5
1C5
330
1F
100
AcDbEntity
  8
0
  6
CONTINUOUS
 62
     3
100
AcDbLine
 10
95.41500000399999
 20
196.000000002
 30
0.0
 11
97.346851657
 21
196.517638092
 31
0.0
  0
LINE
  5
1C6
330
1F
100
AcDbEntity
  8
0
  6
CONTINUOUS
 62
     3
100
AcDbLine
 10
95.41500000399999
 20
196.000000002
 30
0.0
 11
192.000000004
 21
195.9999999979999
 31
0.0
  0
LINE
  5
1C7
330
1F
100
AcDbEntity
  8
0
  6
CONTINUOUS
 62
     3
100
AcDbLine
 10
192.000000004
 20
195.9999999979999
 30
0.0
 11
190.068148352
 21
196.5176380879999
 31
0.0
  0
LINE
  5
1C8
330
1F
100
AcDbEntity
  8
0
  6
CONTINUOUS
 62
     3
100
AcDbLine
 10
192.000000004
 20
195.9999999979999
 30
0.0
 11
190.0681483509996
 21
195.482361908
 31
0.0
  0
LINE
  5
1C9
330
1F
100
AcDbEntity
  8
0
  6
CONTINUOUS
 62
     3
100
AcDbLine
 10
192.000000005
 20
208.000002695
 30
0.0
 11
192.000000004
 21
194.9999999979999
 31
0.0
  0
LINE
  5
1CA
330
1F
100
AcDbEntity
  8
0
  6
CONTINUOUS
 62
     3
100
AcDbLine
 10
192.000000004
 20
202.000002695
 30
0.0
 11
190.068148352
 21
202.517640785
 31
0.0
  0
LINE
  5
1CB
330
1F
100
AcDbEntity
  8
0
  6
CONTINUOUS
 62
     3
100
AcDbLine
 10
192.000000004
 20
202.000002695
 30
0.0
 11
190.068148352
 21
201.4823646049999
 31
0.0
  0
LINE
  5
1CC
330
1F
100
AcDbEntity
  8
0
  6
CONTINUOUS
 62
     3
100
AcDbLine
 10
192.000000004
 20
202.000002695
 30
0.0
 11
98.000000004
 21
202.000002699
 31
0.0
  0
LINE
  5
1CD
330
1F
100
AcDbEntity
  8
0
  6
CONTINUOUS
 62
     3
100
AcDbLine
 10
98.000000004
 20
202.000002699
 30
0.0
 11
99.93185165700001
 21
201.4823646079999
 31
0.0
  0
LINE
  5
1CE
330
1F
100
AcDbEntity
  8
0
  6
CONTINUOUS
 62
     3
100
AcDbLine
 10
98.000000004
 20
202.000002699
 30
0.0
 11
99.93185165700001
 21
202.517640789
 31
0.0
  0
LINE
  5
1CF
330
1F
100
AcDbEntity
  8
0
  6
CONTINUOUS
 62
     3
100
AcDbLine
 10
98.000000005
 20
208.000002699
 30
0.0
 11
98.000000004
 21
201.000002699
 31
0.0
  0
TEXT
  5
1D0
330
1F
100
AcDbEntity
  8
0
  6
CONTINUOUS
 62
     3
100
AcDbText
 10
143.350000004
 20
202.5000221685845
 30
0.0
 40
1.597065976240436
  1
９４
 41
0.8
  7
MS_PGOTHIC
 11
143.350000004
 21
202.1734720847551
 31
0.0
100
AcDbText
 73
     1
  0
LINE
  5
1D1
330
1F
100
AcDbEntity
  8
0
  6
CONTINUOUS
 62
     3
100
AcDbLine
 10
112.600000007
 20
257.500000002
 30
0.0
 11
112.600000007
 21
263.000000002
 31
0.0
  0
LINE
  5
1D2
330
1F
100
AcDbEntity
  8
0
  6
CONTINUOUS
 62
     3
100
AcDbLine
 10
112.600000007
 20
262.000000002
 30
0.0
 11
114.5318516599999
 21
261.482361911
 31
0.0
  0
LINE
  5
1D3
330
1F
100
AcDbEntity
  8
0
  6
CONTINUOUS
 62
     3
100
AcDbLine
 10
112.600000007
 20
262.000000002
 30
0.0
 11
114.5318516599999
 21
262.517638092
 31
0.0
  0
LINE
  5
1D4
330
1F
100
AcDbEntity
  8
0
  6
CONTINUOUS
 62
     3
100
AcDbLine
 10
112.600000007
 20
262.000000002
 30
0.0
 11
177.400000007
 21
261.999999999
 31
0.0
  0
LINE
  5
1D5
330
1F
100
AcDbEntity
  8
0
  6
CONTINUOUS
 62
     3
100
AcDbLine
 10
177.400000007
 20
261.999999999
 30
0.0
 11
175.468148355
 21
262.517638089
 31
0.0
  0
LINE
  5
1D6
330
1F
100
AcDbEntity
  8
0
  6
CONTINUOUS
 62
     3
100
AcDbLine
 10
177.400000007
 20
261.999999999
 30
0.0
 11
175.468148355
 21
261.482361909
 31
0.0
  0
LINE
  5
1D7
330
1F
100
AcDbEntity
  8
0
  6
CONTINUOUS
 62
     3
100
AcDbLine
 10
177.400000007
 20
257.5000038129999
 30
0.0
 11
177.400000007
 21
262.999999999
 31
0.0
  0
TEXT
  5
1D8
330
1F
100
AcDbEntity
  8
0
  6
CONTINUOUS
 62
     3
100
AcDbText
 10
141.650000007
 20
262.5000371343403
 30
0.0
 40
1.814650486709254
  1
６４.８
 41
0.8
  7
MS_PGOTHIC
 11
141.650000007
 21
262.128997817636
 31
0.0
100
AcDbText
 73
     1
  0
LINE
  5
1D9
330
1F
100
AcDbEntity
  8
0
  6
CONTINUOUS
 62
     3
100
AcDbLine
 10
200.000000002
 20
135.9999999979999
 30
0.0
 11
200.517638092
 21
137.9318516499999
 31
0.0
  0
LINE
  5
1DA
330
1F
100
AcDbEntity
  8
0
  6
CONTINUOUS
 62
     3
100
AcDbLine
 10
200.000000002
 20
135.9999999979999
 30
0.0
 11
199.482361912
 21
137.9318516499999
 31
0.0
  0
LINE
  5
1DB
330
1F
100
AcDbEntity
  8
0
  6
CONTINUOUS
 62
     3
100
AcDbLine
 10
200.000000002
 20
135.9999999979999
 30
0.0
 11
200.000000003
 21
175.999926558
 31
0.0
  0
LINE
  5
1DC
330
1F
100
AcDbEntity
  8
0
  6
CONTINUOUS
 62
     3
100
AcDbLine
 10
200.000000003
 20
175.999926558
 30
0.0
 11
199.482361913
 21
174.068074906
 31
0.0
  0
LINE
  5
1DD
330
1F
100
AcDbEntity
  8
0
  6
CONTINUOUS
 62
     3
100
AcDbLine
 10
200.000000003
 20
175.999926558
 30
0.0
 11
200.517638093
 21
174.068074906
 31
0.0
  0
LINE
  5
1DE
330
1F
100
AcDbEntity
  8
0
  6
CONTINUOUS
 62
     3
100
AcDbLine
 10
189.2050857579999
 20
175.999926559
 30
0.0
 11
201.0000000029999
 21
175.999926558
 31
0.0
  0
TEXT
  5
1DF
330
1F
100
AcDbEntity
  8
0
  6
CONTINUOUS
 62
     3
100
AcDbText
 10
199.5000310772056
 20
154.3499632779998
 30
0.0
 40
1.576794167491247
  1
４０
 50
90.0
 41
0.8
  7
MS_PGOTHIC
 11
199.8224362096398
 21
154.3499632779998
 31
0.0
100
AcDbText
 73
     1
  0
LINE
  5
1E0
330
1F
100
AcDbEntity
  8
0
  6
CONTINUOUS
 62
     3
100
AcDbLine
 10
207.000000002
 20
135.9999999979999
 30
0.0
 11
207.5176380919999
 21
137.9318516499999
 31
0.0
  0
LINE
  5
1E1
330
1F
100
AcDbEntity
  8
0
  6
CONTINUOUS
 62
     3
100
AcDbLine
 10
207.000000002
 20
135.9999999979999
 30
0.0
 11
206.482361912
 21
137.9318516499999
 31
0.0
  0
LINE
  5
1E2
330
1F
100
AcDbEntity
  8
0
  6
CONTINUOUS
 62
     3
100
AcDbLine
 10
207.000000002
 20
135.9999999979999
 30
0.0
 11
207.0000000029998
 21
176.7999999979998
 31
0.0
  0
LINE
  5
1E3
330
1F
100
AcDbEntity
  8
0
  6
CONTINUOUS
 62
     3
100
AcDbLine
 10
207.0000000029998
 20
176.7999999979998
 30
0.0
 11
206.482361913
 21
174.868148345
 31
0.0
  0
LINE
  5
1E4
330
1F
100
AcDbEntity
  8
0
  6
CONTINUOUS
 62
     3
100
AcDbLine
 10
207.0000000029998
 20
176.7999999979998
 30
0.0
 11
207.5176380929999
 21
174.868148345
 31
0.0
  0
LINE
  5
1E5
330
1F
100
AcDbEntity
  8
0
  6
CONTINUOUS
 62
     3
100
AcDbLine
 10
178.2167137709998
 20
176.799999999
 30
0.0
 11
208.000000003
 21
176.799999997
 31
0.0
  0
LINE
  5
1E6
330
1F
100
AcDbEntity
  8
0
  6
CONTINUOUS
 62
     3
100
AcDbLine
 10
193.000000002
 20
135.9999999979999
 30
0.0
 11
208.000000002
 21
135.999999997
 31
0.0
  0
LINE
  5
1E7
330
1F
100
AcDbEntity
  8
0
  6
CONTINUOUS
 62
     3
100
AcDbLine
 10
193.0000000009999
 20
107.9999999979998
 30
0.0
 11
202.000000001
 21
107.9999999979998
 31
0.0
  0
LINE
  5
1E8
330
1F
100
AcDbEntity
  8
0
  6
CONTINUOUS
 62
     3
100
AcDbLine
 10
201.0000000009996
 20
107.9999999979998
 30
0.0
 11
200.48236191
 21
106.068148345
 31
0.0
  0
LINE
  5
1E9
330
1F
100
AcDbEntity
  8
0
  6
CONTINUOUS
 62
     3
100
AcDbLine
 10
201.0000000009996
 20
107.9999999979998
 30
0.0
 11
201.5176380909998
 21
106.068148345
 31
0.0
  0
LINE
  5
1EA
330
1F
100
AcDbEntity
  8
0
  6
CONTINUOUS
 62
     3
100
AcDbLine
 10
201.0000000009996
 20
107.9999999979998
 30
0.0
 11
200.999999999
 21
59.99999999799999
 31
0.0
  0
LINE
  5
1EB
330
1F
100
AcDbEntity
  8
0
  6
CONTINUOUS
 62
     3
100
AcDbLine
 10
200.999999999
 20
59.99999999799999
 30
0.0
 11
201.5176380889998
 21
61.93185165
 31
0.0
  0
LINE
  5
1EC
330
1F
100
AcDbEntity
  8
0
  6
CONTINUOUS
 62
     3
100
AcDbLine
 10
200.999999999
 20
59.99999999799999
 30
0.0
 11
200.482361909
 21
61.93185165
 31
0.0
  0
LINE
  5
1ED
330
1F
100
AcDbEntity
  8
0
  6
CONTINUOUS
 62
     3
100
AcDbLine
 10
192.999999999
 20
59.99999999799999
 30
0.0
 11
201.999999999
 21
59.99999999799999
 31
0.0
  0
TEXT
  5
1EE
330
1F
100
AcDbEntity
  8
0
  6
CONTINUOUS
 62
     3
100
AcDbText
 10
200.5000467179024
 20
82.34999999800002
 30
0.0
 40
1.606946586892093
  1
４８
 50
90.0
 41
0.8
  7
MS_PGOTHIC
 11
200.828617077841
 21
82.34999999800002
 31
0.0
100
AcDbText
 73
     1
  0
LINE
  5
1EF
330
1F
100
AcDbEntity
  8
0
  6
CONTINUOUS
 62
     3
100
AcDbLine
 10
94.41500067499999
 20
94.000000003
 30
0.0
 11
89.41500067499999
 21
94.000000003
 31
0.0
  0
LINE
  5
1F0
330
1F
100
AcDbEntity
  8
0
  6
CONTINUOUS
 62
     3
100
AcDbLine
 10
90.41500067500002
 20
94.000000003
 30
0.0
 11
89.89736258399998
 21
92.068148351
 31
0.0
  0
LINE
  5
1F1
330
1F
100
AcDbEntity
  8
0
  6
CONTINUOUS
 62
     3
100
AcDbLine
 10
90.41500067500002
 20
94.000000003
 30
0.0
 11
90.932638765
 21
92.06814835000002
 31
0.0
  0
LINE
  5
1F2
330
1F
100
AcDbEntity
  8
0
  6
CONTINUOUS
 62
     3
100
AcDbLine
 10
90.41500067500002
 20
94.000000003
 30
0.0
 11
90.41500067399998
 21
74.00000000299998
 31
0.0
  0
LINE
  5
1F3
330
1F
100
AcDbEntity
  8
0
  6
CONTINUOUS
 62
     3
100
AcDbLine
 10
90.41500067399998
 20
74.00000000299998
 30
0.0
 11
90.932638764
 21
75.931851656
 31
0.0
  0
LINE
  5
1F4
330
1F
100
AcDbEntity
  8
0
  6
CONTINUOUS
 62
     3
100
AcDbLine
 10
90.41500067399998
 20
74.00000000299998
 30
0.0
 11
89.89736258399998
 21
75.931851656
 31
0.0
  0
LINE
  5
1F5
330
1F
100
AcDbEntity
  8
0
  6
CONTINUOUS
 62
     3
100
AcDbLine
 10
94.41500067399998
 20
74.00000000299998
 30
0.0
 11
89.41500067399998
 21
74.00000000299998
 31
0.0
  0
TEXT
  5
1F6
330
1F
100
AcDbEntity
  8
0
  6
CONTINUOUS
 62
     3
100
AcDbText
 10
89.91504853868422
 20
82.350000003
 30
0.0
 40
1.606941223144531
  1
２０
 50
90.0
 41
0.8
  7
MS_PGOTHIC
 11
90.24361780190405
 21
82.350000003
 31
0.0
100
AcDbText
 73
     1
  0
LINE
  5
1F7
330
1F
100
AcDbEntity
  8
0
  6
CONTINUOUS
 62
     3
100
AcDbLine
 10
84.551119667
 20
211.1628541159998
 30
0.0
 11
84.551119667
 21
212.836481407
 31
0.0
  0
LINE
  5
1F8
330
1F
100
AcDbEntity
  8
0
  6
CONTINUOUS
 62
     3
100
AcDbLine
 10
74.74987841799998
 20
212.749911264
 30
0.0
 11
86.55111966700001
 21
212.8546336769999
 31
0.0
  0
LINE
  5
1F9
330
1F
100
AcDbEntity
  8
0
  6
CONTINUOUS
 62
     3
100
AcDbLine
 10
86.55111966700001
 20
211.145366327
 30
0.0
 11
74.74987841799998
 21
211.2500887409999
 31
0.0
  0
LINE
  5
1FA
330
1F
100
AcDbEntity
  8
0
  6
CONTINUOUS
 62
     3
100
AcDbLine
 10
74.74987841799998
 20
211.250000002
 30
0.0
 11
74.74987841799998
 21
212.7500000019999
 31
0.0
  0
LINE
  5
1FB
330
1F
100
AcDbEntity
  8
0
  6
CONTINUOUS
 62
     3
100
AcDbLine
 10
84.551119667
 20
214.6628541159997
 30
0.0
 11
84.551119667
 21
216.3364814069999
 31
0.0
  0
LINE
  5
1FC
330
1F
100
AcDbEntity
  8
0
  6
CONTINUOUS
 62
     3
100
AcDbLine
 10
74.74987841799998
 20
216.249911264
 30
0.0
 11
86.55111966700001
 21
216.354633677
 31
0.0
  0
LINE
  5
1FD
330
1F
100
AcDbEntity
  8
0
  6
CONTINUOUS
 62
     3
100
AcDbLine
 10
86.55111966700001
 20
214.6453663269999
 30
0.0
 11
74.74987841799998
 21
214.750088741
 31
0.0
  0
LINE
  5
1FE
330
1F
100
AcDbEntity
  8
0
  6
CONTINUOUS
 62
     3
100
AcDbLine
 10
74.74987841799998
 20
214.7500000019999
 30
0.0
 11
74.74987841799998
 21
216.250000002
 31
0.0
  0
LINE
  5
1FF
330
1F
100
AcDbEntity
  8
0
  6
CONTINUOUS
 62
     3
100
AcDbLine
 10
84.551119669
 20
253.1628541159998
 30
0.0
 11
84.551119669
 21
254.836481407
 31
0.0
  0
LINE
  5
200
330
1F
100
AcDbEntity
  8
0
  6
CONTINUOUS
 62
     3
100
AcDbLine
 10
74.74987841899998
 20
254.749911264
 30
0.0
 11
86.55111966899997
 21
254.854633677
 31
0.0
  0
LINE
  5
201
330
1F
100
AcDbEntity
  8
0
  6
CONTINUOUS
 62
     3
100
AcDbLine
 10
86.55111966899997
 20
253.145366327
 30
0.0
 11
74.74987841899998
 21
253.2500887409999
 31
0.0
  0
LINE
  5
202
330
1F
100
AcDbEntity
  8
0
  6
CONTINUOUS
 62
     3
100
AcDbLine
 10
74.74987841899998
 20
253.250000002
 30
0.0
 11
74.74987841899998
 21
254.750000002
 31
0.0
  0
LINE
  5
203
330
1F
100
AcDbEntity
  8
0
  6
CONTINUOUS
 62
     3
100
AcDbLine
 10
84.551119669
 20
249.6628541159997
 30
0.0
 11
84.551119669
 21
251.336481407
 31
0.0
  0
LINE
  5
204
330
1F
100
AcDbEntity
  8
0
  6
CONTINUOUS
 62
     3
100
AcDbLine
 10
74.74987841899998
 20
251.249911264
 30
0.0
 11
86.55111966899997
 21
251.354633677
 31
0.0
  0
LINE
  5
205
330
1F
100
AcDbEntity
  8
0
  6
CONTINUOUS
 62
     3
100
AcDbLine
 10
86.55111966899997
 20
249.645366327
 30
0.0
 11
74.74987841899998
 21
249.7500887409996
 31
0.0
  0
LINE
  5
206
330
1F
100
AcDbEntity
  8
0
  6
CONTINUOUS
 62
     3
100
AcDbLine
 10
74.74987841899998
 20
249.750000002
 30
0.0
 11
74.74987841899998
 21
251.250000002
 31
0.0
  0
LINE
  5
207
330
1F
100
AcDbEntity
  8
0
  6
CONTINUOUS
 62
     3
100
AcDbLine
 10
63.15111966699999
 20
221.260000003
 30
0.0
 11
63.15111966799999
 21
222.7600000029996
 31
0.0
  0
LINE
  5
208
330
1F
100
AcDbEntity
  8
0
  6
CONTINUOUS
 62
     3
100
AcDbLine
 10
63.15111966799999
 20
244.740000003
 30
0.0
 11
63.15111966799999
 21
243.2400000029999
 31
0.0
  0
LINE
  5
209
330
1F
100
AcDbEntity
  8
0
  6
CONTINUOUS
 62
     3
100
AcDbLine
 10
66.651119668
 20
244.740000003
 30
0.0
 11
66.651119669
 21
248.240000003
 31
0.0
  0
LINE
  5
20A
330
1F
100
AcDbEntity
  8
0
  6
CONTINUOUS
 62
     3
100
AcDbLine
 10
66.651119668
 20
222.7600000029996
 30
0.0
 11
66.651119668
 21
243.2400000029999
 31
0.0
  0
LINE
  5
20B
330
1F
100
AcDbEntity
  8
0
  6
CONTINUOUS
 62
     3
100
AcDbLine
 10
66.651119667
 20
217.7600000029999
 30
0.0
 11
66.651119667
 21
221.260000003
 31
0.0
  0
LINE
  5
20C
330
1F
100
AcDbEntity
  8
0
  6
CONTINUOUS
 62
     3
100
AcDbLine
 10
74.301119669
 20
247.2000000019999
 30
0.0
 11
74.301119668
 21
244.200000002
 31
0.0
  0
LINE
  5
20D
330
1F
100
AcDbEntity
  8
0
  6
CONTINUOUS
 62
     3
100
AcDbLine
 10
74.301119668
 20
244.200000002
 30
0.0
 11
77.301119668
 21
244.200000002
 31
0.0
  0
LINE
  5
20E
330
1F
100
AcDbEntity
  8
0
  6
CONTINUOUS
 62
     3
100
AcDbLine
 10
77.301119668
 20
244.200000002
 30
0.0
 11
77.301119669
 21
247.2000000019999
 31
0.0
  0
LINE
  5
20F
330
1F
100
AcDbEntity
  8
0
  6
CONTINUOUS
 62
     3
100
AcDbLine
 10
77.301119669
 20
247.2000000019999
 30
0.0
 11
74.301119669
 21
247.2000000019999
 31
0.0
  0
LINE
  5
210
330
1F
100
AcDbEntity
  8
0
  6
CONTINUOUS
 62
     3
100
AcDbLine
 10
74.301119669
 20
247.2000000019999
 30
0.0
 11
73.051119669
 21
247.7000000019998
 31
0.0
  0
LINE
  5
211
330
1F
100
AcDbEntity
  8
0
  6
CONTINUOUS
 62
     3
100
AcDbLine
 10
73.051119668
 20
243.7000000019998
 30
0.0
 11
74.301119668
 21
244.200000002
 31
0.0
  0
LINE
  5
212
330
1F
100
AcDbEntity
  8
0
  6
CONTINUOUS
 62
     3
100
AcDbLine
 10
77.301119668
 20
244.200000002
 30
0.0
 11
78.551119668
 21
243.7000000019998
 31
0.0
  0
LINE
  5
213
330
1F
100
AcDbEntity
  8
0
  6
CONTINUOUS
 62
     3
100
AcDbLine
 10
77.301119669
 20
247.2000000019999
 30
0.0
 11
78.551119669
 21
247.7000000019998
 31
0.0
  0
LINE
  5
214
330
1F
100
AcDbEntity
  8
0
  6
CONTINUOUS
 62
     3
100
AcDbLine
 10
74.301119668
 20
242.120000002
 30
0.0
 11
74.301119668
 21
239.1200000019999
 31
0.0
  0
LINE
  5
215
330
1F
100
AcDbEntity
  8
0
  6
CONTINUOUS
 62
     3
100
AcDbLine
 10
74.301119668
 20
239.1200000019999
 30
0.0
 11
77.301119668
 21
239.1200000019999
 31
0.0
  0
LINE
  5
216
330
1F
100
AcDbEntity
  8
0
  6
CONTINUOUS
 62
     3
100
AcDbLine
 10
77.301119668
 20
239.1200000019999
 30
0.0
 11
77.301119668
 21
242.120000002
 31
0.0
  0
LINE
  5
217
330
1F
100
AcDbEntity
  8
0
  6
CONTINUOUS
 62
     3
100
AcDbLine
 10
77.301119668
 20
242.120000002
 30
0.0
 11
74.301119668
 21
242.120000002
 31
0.0
  0
LINE
  5
218
330
1F
100
AcDbEntity
  8
0
  6
CONTINUOUS
 62
     3
100
AcDbLine
 10
74.301119668
 20
242.120000002
 30
0.0
 11
73.051119668
 21
242.620000002
 31
0.0
  0
LINE
  5
219
330
1F
100
AcDbEntity
  8
0
  6
CONTINUOUS
 62
     3
100
AcDbLine
 10
73.051119668
 20
238.620000002
 30
0.0
 11
74.301119668
 21
239.1200000019999
 31
0.0
  0
LINE
  5
21A
330
1F
100
AcDbEntity
  8
0
  6
CONTINUOUS
 62
     3
100
AcDbLine
 10
77.301119668
 20
239.1200000019999
 30
0.0
 11
78.551119668
 21
238.620000002
 31
0.0
  0
LINE
  5
21B
330
1F
100
AcDbEntity
  8
0
  6
CONTINUOUS
 62
     3
100
AcDbLine
 10
77.301119668
 20
242.120000002
 30
0.0
 11
78.551119668
 21
242.620000002
 31
0.0
  0
LINE
  5
21C
330
1F
100
AcDbEntity
  8
0
  6
CONTINUOUS
 62
     3
100
AcDbLine
 10
74.301119668
 20
237.040000002
 30
0.0
 11
74.301119668
 21
234.040000002
 31
0.0
  0
LINE
  5
21D
330
1F
100
AcDbEntity
  8
0
  6
CONTINUOUS
 62
     3
100
AcDbLine
 10
74.301119668
 20
234.040000002
 30
0.0
 11
77.301119668
 21
234.040000002
 31
0.0
  0
LINE
  5
21E
330
1F
100
AcDbEntity
  8
0
  6
CONTINUOUS
 62
     3
100
AcDbLine
 10
77.301119668
 20
234.040000002
 30
0.0
 11
77.301119668
 21
237.040000002
 31
0.0
  0
LINE
  5
21F
330
1F
100
AcDbEntity
  8
0
  6
CONTINUOUS
 62
     3
100
AcDbLine
 10
77.301119668
 20
237.040000002
 30
0.0
 11
74.301119668
 21
237.040000002
 31
0.0
  0
LINE
  5
220
330
1F
100
AcDbEntity
  8
0
  6
CONTINUOUS
 62
     3
100
AcDbLine
 10
74.301119668
 20
237.040000002
 30
0.0
 11
73.051119668
 21
237.5400000019999
 31
0.0
  0
LINE
  5
221
330
1F
100
AcDbEntity
  8
0
  6
CONTINUOUS
 62
     3
100
AcDbLine
 10
73.051119668
 20
233.5400000019999
 30
0.0
 11
74.301119668
 21
234.040000002
 31
0.0
  0
LINE
  5
222
330
1F
100
AcDbEntity
  8
0
  6
CONTINUOUS
 62
     3
100
AcDbLine
 10
77.301119668
 20
234.040000002
 30
0.0
 11
78.551119668
 21
233.5400000019999
 31
0.0
  0
LINE
  5
223
330
1F
100
AcDbEntity
  8
0
  6
CONTINUOUS
 62
     3
100
AcDbLine
 10
77.301119668
 20
237.040000002
 30
0.0
 11
78.551119668
 21
237.5400000019999
 31
0.0
  0
LINE
  5
224
330
1F
100
AcDbEntity
  8
0
  6
CONTINUOUS
 62
     3
100
AcDbLine
 10
74.301119667
 20
221.800000002
 30
0.0
 11
74.301119667
 21
218.800000002
 31
0.0
  0
LINE
  5
225
330
1F
100
AcDbEntity
  8
0
  6
CONTINUOUS
 62
     3
100
AcDbLine
 10
74.301119667
 20
218.800000002
 30
0.0
 11
77.301119667
 21
218.800000002
 31
0.0
  0
LINE
  5
226
330
1F
100
AcDbEntity
  8
0
  6
CONTINUOUS
 62
     3
100
AcDbLine
 10
77.301119667
 20
218.800000002
 30
0.0
 11
77.301119667
 21
221.800000002
 31
0.0
  0
LINE
  5
227
330
1F
100
AcDbEntity
  8
0
  6
CONTINUOUS
 62
     3
100
AcDbLine
 10
77.301119667
 20
221.800000002
 30
0.0
 11
74.301119667
 21
221.800000002
 31
0.0
  0
LINE
  5
228
330
1F
100
AcDbEntity
  8
0
  6
CONTINUOUS
 62
     3
100
AcDbLine
 10
74.301119667
 20
221.800000002
 30
0.0
 11
73.051119668
 21
222.300000002
 31
0.0
  0
LINE
  5
229
330
1F
100
AcDbEntity
  8
0
  6
CONTINUOUS
 62
     3
100
AcDbLine
 10
73.051119667
 20
218.300000002
 30
0.0
 11
74.301119667
 21
218.800000002
 31
0.0
  0
LINE
  5
22A
330
1F
100
AcDbEntity
  8
0
  6
CONTINUOUS
 62
     3
100
AcDbLine
 10
77.301119667
 20
218.800000002
 30
0.0
 11
78.551119667
 21
218.300000002
 31
0.0
  0
LINE
  5
22B
330
1F
100
AcDbEntity
  8
0
  6
CONTINUOUS
 62
     3
100
AcDbLine
 10
77.301119667
 20
221.800000002
 30
0.0
 11
78.551119668
 21
222.300000002
 31
0.0
  0
LINE
  5
22C
330
1F
100
AcDbEntity
  8
0
  6
CONTINUOUS
 62
     3
100
AcDbLine
 10
74.301119668
 20
231.960000002
 30
0.0
 11
74.301119668
 21
228.960000002
 31
0.0
  0
LINE
  5
22D
330
1F
100
AcDbEntity
  8
0
  6
CONTINUOUS
 62
     3
100
AcDbLine
 10
74.301119668
 20
228.960000002
 30
0.0
 11
77.301119668
 21
228.960000002
 31
0.0
  0
LINE
  5
22E
330
1F
100
AcDbEntity
  8
0
  6
CONTINUOUS
 62
     3
100
AcDbLine
 10
77.301119668
 20
228.960000002
 30
0.0
 11
77.301119668
 21
231.960000002
 31
0.0
  0
LINE
  5
22F
330
1F
100
AcDbEntity
  8
0
  6
CONTINUOUS
 62
     3
100
AcDbLine
 10
77.301119668
 20
231.960000002
 30
0.0
 11
74.301119668
 21
231.960000002
 31
0.0
  0
LINE
  5
230
330
1F
100
AcDbEntity
  8
0
  6
CONTINUOUS
 62
     3
100
AcDbLine
 10
74.301119668
 20
231.960000002
 30
0.0
 11
73.051119668
 21
232.460000002
 31
0.0
  0
LINE
  5
231
330
1F
100
AcDbEntity
  8
0
  6
CONTINUOUS
 62
     3
100
AcDbLine
 10
73.051119668
 20
228.460000002
 30
0.0
 11
74.301119668
 21
228.960000002
 31
0.0
  0
LINE
  5
232
330
1F
100
AcDbEntity
  8
0
  6
CONTINUOUS
 62
     3
100
AcDbLine
 10
77.301119668
 20
228.960000002
 30
0.0
 11
78.551119668
 21
228.460000002
 31
0.0
  0
LINE
  5
233
330
1F
100
AcDbEntity
  8
0
  6
CONTINUOUS
 62
     3
100
AcDbLine
 10
77.301119668
 20
231.960000002
 30
0.0
 11
78.551119668
 21
232.460000002
 31
0.0
  0
LINE
  5
234
330
1F
100
AcDbEntity
  8
0
  6
CONTINUOUS
 62
     3
100
AcDbLine
 10
74.301119668
 20
226.880000002
 30
0.0
 11
74.301119668
 21
223.8800000019999
 31
0.0
  0
LINE
  5
235
330
1F
100
AcDbEntity
  8
0
  6
CONTINUOUS
 62
     3
100
AcDbLine
 10
74.301119668
 20
223.8800000019999
 30
0.0
 11
77.301119668
 21
223.8800000019999
 31
0.0
  0
LINE
  5
236
330
1F
100
AcDbEntity
  8
0
  6
CONTINUOUS
 62
     3
100
AcDbLine
 10
77.301119668
 20
223.8800000019999
 30
0.0
 11
77.301119668
 21
226.880000002
 31
0.0
  0
LINE
  5
237
330
1F
100
AcDbEntity
  8
0
  6
CONTINUOUS
 62
     3
100
AcDbLine
 10
77.301119668
 20
226.880000002
 30
0.0
 11
74.301119668
 21
226.880000002
 31
0.0
  0
LINE
  5
238
330
1F
100
AcDbEntity
  8
0
  6
CONTINUOUS
 62
     3
100
AcDbLine
 10
74.301119668
 20
226.880000002
 30
0.0
 11
73.051119668
 21
227.380000002
 31
0.0
  0
LINE
  5
239
330
1F
100
AcDbEntity
  8
0
  6
CONTINUOUS
 62
     3
100
AcDbLine
 10
73.051119668
 20
223.380000002
 30
0.0
 11
74.301119668
 21
223.8800000019999
 31
0.0
  0
LINE
  5
23A
330
1F
100
AcDbEntity
  8
0
  6
CONTINUOUS
 62
     3
100
AcDbLine
 10
77.301119668
 20
223.8800000019999
 30
0.0
 11
78.551119668
 21
223.380000002
 31
0.0
  0
LINE
  5
23B
330
1F
100
AcDbEntity
  8
0
  6
CONTINUOUS
 62
     3
100
AcDbLine
 10
77.301119668
 20
226.880000002
 30
0.0
 11
78.551119668
 21
227.380000002
 31
0.0
  0
LINE
  5
23C
330
1F
100
AcDbEntity
  8
0
  6
CONTINUOUS
 62
     3
100
AcDbLine
 10
79.551119669
 20
248.240000002
 30
0.0
 11
79.551119667
 21
217.7600000019999
 31
0.0
  0
LINE
  5
23D
330
1F
100
AcDbEntity
  8
0
  6
CONTINUOUS
 62
     3
100
AcDbLine
 10
86.55111966799998
 20
246.1453663269999
 30
0.0
 11
85.75111966799999
 21
246.155127559
 31
0.0
  0
LINE
  5
23E
330
1F
100
AcDbEntity
  8
0
  6
CONTINUOUS
 62
     3
100
AcDbLine
 10
85.75111966899999
 20
247.844872445
 30
0.0
 11
86.55111966799998
 21
247.854633677
 31
0.0
  0
LINE
  5
23F
330
1F
100
AcDbEntity
  8
0
  6
CONTINUOUS
 62
     3
100
AcDbLine
 10
85.75111966799999
 20
244.344872445
 30
0.0
 11
86.55111966799998
 21
244.354633677
 31
0.0
  0
LINE
  5
240
330
1F
100
AcDbEntity
  8
0
  6
CONTINUOUS
 62
     3
100
AcDbLine
 10
86.55111966799998
 20
242.645366327
 30
0.0
 11
85.75111966799999
 21
242.655127559
 31
0.0
  0
LINE
  5
241
330
1F
100
AcDbEntity
  8
0
  6
CONTINUOUS
 62
     3
100
AcDbLine
 10
85.75111966799999
 20
240.8448724449999
 30
0.0
 11
86.55111966799998
 21
240.854633677
 31
0.0
  0
LINE
  5
242
330
1F
100
AcDbEntity
  8
0
  6
CONTINUOUS
 62
     3
100
AcDbLine
 10
86.55111966799998
 20
239.145366327
 30
0.0
 11
85.75111966799999
 21
239.155127559
 31
0.0
  0
LINE
  5
243
330
1F
100
AcDbEntity
  8
0
  6
CONTINUOUS
 62
     3
100
AcDbLine
 10
85.75111966799999
 20
237.3448724449999
 30
0.0
 11
86.55111966799998
 21
237.354633677
 31
0.0
  0
LINE
  5
244
330
1F
100
AcDbEntity
  8
0
  6
CONTINUOUS
 62
     3
100
AcDbLine
 10
86.55111966799998
 20
235.6453663269999
 30
0.0
 11
85.75111966799999
 21
235.655127559
 31
0.0
  0
LINE
  5
245
330
1F
100
AcDbEntity
  8
0
  6
CONTINUOUS
 62
     3
100
AcDbLine
 10
85.75111966799999
 20
233.844872445
 30
0.0
 11
86.55111966799998
 21
233.854633677
 31
0.0
  0
LINE
  5
246
330
1F
100
AcDbEntity
  8
0
  6
CONTINUOUS
 62
     3
100
AcDbLine
 10
86.55111966799998
 20
232.145366327
 30
0.0
 11
85.75111966799999
 21
232.155127559
 31
0.0
  0
LINE
  5
247
330
1F
100
AcDbEntity
  8
0
  6
CONTINUOUS
 62
     3
100
AcDbLine
 10
85.75111966799999
 20
230.3448724449999
 30
0.0
 11
86.55111966799998
 21
230.354633677
 31
0.0
  0
LINE
  5
248
330
1F
100
AcDbEntity
  8
0
  6
CONTINUOUS
 62
     3
100
AcDbLine
 10
86.55111966799998
 20
228.645366327
 30
0.0
 11
85.75111966799999
 21
228.655127559
 31
0.0
  0
LINE
  5
249
330
1F
100
AcDbEntity
  8
0
  6
CONTINUOUS
 62
     3
100
AcDbLine
 10
85.75111966799999
 20
226.8448724449999
 30
0.0
 11
86.55111966799998
 21
226.854633677
 31
0.0
  0
LINE
  5
24A
330
1F
100
AcDbEntity
  8
0
  6
CONTINUOUS
 62
     3
100
AcDbLine
 10
86.55111966799998
 20
225.1453663269999
 30
0.0
 11
85.75111966799999
 21
225.155127559
 31
0.0
  0
LINE
  5
24B
330
1F
100
AcDbEntity
  8
0
  6
CONTINUOUS
 62
     3
100
AcDbLine
 10
85.75111966799999
 20
223.344872445
 30
0.0
 11
86.55111966799998
 21
223.354633677
 31
0.0
  0
LINE
  5
24C
330
1F
100
AcDbEntity
  8
0
  6
CONTINUOUS
 62
     3
100
AcDbLine
 10
86.55111966799998
 20
221.645366327
 30
0.0
 11
85.75111966699997
 21
221.655127559
 31
0.0
  0
LINE
  5
24D
330
1F
100
AcDbEntity
  8
0
  6
CONTINUOUS
 62
     3
100
AcDbLine
 10
85.75111966699997
 20
219.8448724449999
 30
0.0
 11
86.55111966700001
 21
219.854633677
 31
0.0
  0
LINE
  5
24E
330
1F
100
AcDbEntity
  8
0
  6
CONTINUOUS
 62
     3
100
AcDbLine
 10
86.55111966700001
 20
218.145366327
 30
0.0
 11
85.75111966699997
 21
218.155127559
 31
0.0
  0
LINE
  5
24F
330
1F
100
AcDbEntity
  8
0
  6
CONTINUOUS
 62
     3
100
AcDbLine
 10
83.951119667
 20
217.7600000019999
 30
0.0
 11
83.951119669
 21
248.240000002
 31
0.0
  0
LINE
  5
250
330
1F
100
AcDbEntity
  8
0
  6
CONTINUOUS
 62
     3
100
AcDbLine
 10
83.551119667
 20
218.2600000019998
 30
0.0
 11
83.551119669
 21
247.740000002
 31
0.0
  0
LINE
  5
251
330
1F
100
AcDbEntity
  8
0
  6
CONTINUOUS
 62
     3
100
AcDbLine
 10
83.551119669
 20
247.740000002
 30
0.0
 11
79.551119669
 21
247.740000002
 31
0.0
  0
LINE
  5
252
330
1F
100
AcDbEntity
  8
0
  6
CONTINUOUS
 62
     3
100
AcDbLine
 10
79.551119667
 20
218.2600000019998
 30
0.0
 11
83.551119667
 21
218.2600000019998
 31
0.0
  0
LINE
  5
253
330
1F
100
AcDbEntity
  8
0
  6
CONTINUOUS
 62
     1
100
AcDbLine
 10
112.600000007
 20
256.000000002
 30
0.0
 11
112.600000005
 21
210.000000002
 31
0.0
  0
ARC
  5
254
330
1F
100
AcDbEntity
  8
0
  6
CONTINUOUS
 62
     1
100
AcDbCircle
 10
113.6000000049999
 20
210.000000002
 30
0.0
 40
1.0
100
AcDbArc
 50
180.0
 51
270.0
  0
ARC
  5
255
330
1F
100
AcDbEntity
  8
0
  6
CONTINUOUS
 62
     1
100
AcDbCircle
 10
99.000000005
 20
210.000000002
 30
0.0
 40
1.0
100
AcDbArc
 50
180.0
 51
270.0
  0
ARC
  5
256
330
1F
100
AcDbEntity
  8
0
  6
CONTINUOUS
 62
     1
100
AcDbCircle
 10
96.415000005
 20
224.000000002
 30
0.0
 40
1.0
100
AcDbArc
 50
180.0
 51
270.0
  0
LINE
  5
257
330
1F
100
AcDbEntity
  8
0
  6
CONTINUOUS
 62
     1
100
AcDbLine
 10
96.415000005
 20
223.0000000019999
 30
0.0
 11
98.000000005
 21
223.0000000019999
 31
0.0
  0
LINE
  5
258
330
1F
100
AcDbEntity
  8
0
  6
CONTINUOUS
 62
     1
100
AcDbLine
 10
95.41500000600001
 20
242.0000000019999
 30
0.0
 11
95.415000005
 21
224.000000002
 31
0.0
  0
ARC
  5
259
330
1F
100
AcDbEntity
  8
0
  6
CONTINUOUS
 62
     1
100
AcDbCircle
 10
96.415000006
 20
242.0000000019999
 30
0.0
 40
1.0
100
AcDbArc
 50
90.0
 51
180.0
  0
LINE
  5
25A
330
1F
100
AcDbEntity
  8
0
  6
CONTINUOUS
 62
     1
100
AcDbLine
 10
98.000000006
 20
243.000000002
 30
0.0
 11
96.415000006
 21
243.000000002
 31
0.0
  0
ARC
  5
25B
330
1F
100
AcDbEntity
  8
0
  6
CONTINUOUS
 62
     1
100
AcDbCircle
 10
99.00000000700003
 20
256.000000002
 30
0.0
 40
1.0
100
AcDbArc
 50
90.0
 51
180.0
  0
ARC
  5
25C
330
1F
100
AcDbEntity
  8
0
  6
CONTINUOUS
 62
     1
100
AcDbCircle
 10
191.000000007
 20
255.999999998
 30
0.0
 40
1.0
100
AcDbArc
 50
0.0
 51
90.0
  0
ARC
  5
25D
330
1F
100
AcDbEntity
  8
0
  6
CONTINUOUS
 62
     1
100
AcDbCircle
 10
191.000000005
 20
209.999999998
 30
0.0
 40
1.0
100
AcDbArc
 50
270.0
 51
0.0
  0
ARC
  5
25E
330
1F
100
AcDbEntity
  8
0
  6
CONTINUOUS
 62
     1
100
AcDbCircle
 10
176.400000005
 20
209.999999998
 30
0.0
 40
1.0
100
AcDbArc
 50
270.0
 51
0.0
  0
LINE
  5
25F
330
1F
100
AcDbEntity
  8
0
  6
CONTINUOUS
 62
     1
100
AcDbLine
 10
99.000000005
 20
209.000000002
 30
0.0
 11
191.000000005
 21
208.9999999979996
 31
0.0
  0
LINE
  5
260
330
1F
100
AcDbEntity
  8
0
  6
CONTINUOUS
 62
     1
100
AcDbLine
 10
101.500000007
 20
253.050000002
 30
0.0
 11
101.500000007
 21
251.050000002
 31
0.0
  0
LINE
  5
261
330
1F
100
AcDbEntity
  8
0
  6
CONTINUOUS
 62
     1
100
AcDbLine
 10
108.500000007
 20
253.050000002
 30
0.0
 11
101.500000007
 21
253.050000002
 31
0.0
  0
LINE
  5
262
330
1F
100
AcDbEntity
  8
0
  6
CONTINUOUS
 62
     1
100
AcDbLine
 10
101.500000007
 20
251.050000002
 30
0.0
 11
108.500000007
 21
251.050000002
 31
0.0
  0
LINE
  5
263
330
1F
100
AcDbEntity
  8
0
  6
CONTINUOUS
 62
     1
100
AcDbLine
 10
108.500000007
 20
251.050000002
 30
0.0
 11
108.500000007
 21
253.050000002
 31
0.0
  0
LINE
  5
264
330
1F
100
AcDbEntity
  8
0
  6
CONTINUOUS
 62
     1
100
AcDbLine
 10
109.000000007
 20
248.500000002
 30
0.0
 11
109.000000007
 21
250.000000002
 31
0.0
  0
ARC
  5
265
330
1F
100
AcDbEntity
  8
0
  6
CONTINUOUS
 62
     1
100
AcDbCircle
 10
100.000000007
 20
249.500000002
 30
0.0
 40
0.5
100
AcDbArc
 50
90.0
 51
180.0
  0
LINE
  5
266
330
1F
100
AcDbEntity
  8
0
  6
CONTINUOUS
 62
     1
100
AcDbLine
 10
99.50000000700001
 20
248.500000002
 30
0.0
 11
99.50000000700001
 21
249.500000002
 31
0.0
  0
LINE
  5
267
330
1F
100
AcDbEntity
  8
0
  6
CONTINUOUS
 62
     1
100
AcDbLine
 10
100.000000007
 20
250.000000002
 30
0.0
 11
112.600000007
 21
250.000000002
 31
0.0
  0
ARC
  5
268
330
1F
100
AcDbEntity
  8
0
  6
CONTINUOUS
 62
     1
100
AcDbCircle
 10
100.000000005
 20
216.500000002
 30
0.0
 40
0.5
100
AcDbArc
 50
180.0
 51
270.0
  0
LINE
  5
269
330
1F
100
AcDbEntity
  8
0
  6
CONTINUOUS
 62
     1
100
AcDbLine
 10
100.000000005
 20
216.000000002
 30
0.0
 11
112.600000005
 21
216.000000002
 31
0.0
  0
LINE
  5
26A
330
1F
100
AcDbEntity
  8
0
  6
CONTINUOUS
 62
     1
100
AcDbLine
 10
99.500000005
 20
216.500000002
 30
0.0
 11
99.500000005
 21
217.500000002
 31
0.0
  0
LINE
  5
26B
330
1F
100
AcDbEntity
  8
0
  6
CONTINUOUS
 62
     1
100
AcDbLine
 10
109.000000005
 20
217.500000002
 30
0.0
 11
109.000000005
 21
216.000000002
 31
0.0
  0
LINE
  5
26C
330
1F
100
AcDbEntity
  8
0
  6
CONTINUOUS
 62
     1
100
AcDbLine
 10
108.5000000049999
 20
214.950000002
 30
0.0
 11
101.500000005
 21
214.950000002
 31
0.0
  0
LINE
  5
26D
330
1F
100
AcDbEntity
  8
0
  6
CONTINUOUS
 62
     1
100
AcDbLine
 10
108.5000000049999
 20
212.950000002
 30
0.0
 11
108.5000000049999
 21
214.950000002
 31
0.0
  0
LINE
  5
26E
330
1F
100
AcDbEntity
  8
0
  6
CONTINUOUS
 62
     1
100
AcDbLine
 10
101.500000005
 20
212.950000002
 30
0.0
 11
108.5000000049999
 21
212.950000002
 31
0.0
  0
LINE
  5
26F
330
1F
100
AcDbEntity
  8
0
  6
CONTINUOUS
 62
     1
100
AcDbLine
 10
101.500000005
 20
214.950000002
 30
0.0
 11
101.500000005
 21
212.950000002
 31
0.0
  0
LINE
  5
270
330
1F
100
AcDbEntity
  8
0
  6
CONTINUOUS
 62
     1
100
AcDbLine
 10
111.040000006
 20
248.500000002
 30
0.0
 11
111.040000005
 21
217.500000002
 31
0.0
  0
LINE
  5
271
330
1F
100
AcDbEntity
  8
0
  6
CONTINUOUS
 62
     1
100
AcDbLine
 10
101.000000005
 20
217.500000002
 30
0.0
 11
109.000000005
 21
217.500000002
 31
0.0
  0
LINE
  5
272
330
1F
100
AcDbEntity
  8
0
  6
CONTINUOUS
 62
     1
100
AcDbLine
 10
111.040000005
 20
217.500000002
 30
0.0
 11
98.20000000500002
 21
217.500000002
 31
0.0
  0
LINE
  5
273
330
1F
100
AcDbEntity
  8
0
  6
CONTINUOUS
 62
     1
100
AcDbLine
 10
109.000000007
 20
248.500000002
 30
0.0
 11
101.000000007
 21
248.500000002
 31
0.0
  0
LINE
  5
274
330
1F
100
AcDbEntity
  8
0
  6
CONTINUOUS
 62
     1
100
AcDbLine
 10
98.20000000600002
 20
248.500000002
 30
0.0
 11
111.040000006
 21
248.500000002
 31
0.0
  0
LINE
  5
275
330
1F
100
AcDbEntity
  8
0
  6
CONTINUOUS
 62
     1
100
AcDbLine
 10
98.20000000500002
 20
217.500000002
 30
0.0
 11
98.20000000600002
 21
248.500000002
 31
0.0
  0
LINE
  5
276
330
1F
100
AcDbEntity
  8
0
  6
CONTINUOUS
 62
     1
100
AcDbLine
 10
98.00000000700003
 20
256.000000002
 30
0.0
 11
98.000000005
 21
210.000000002
 31
0.0
  0
LINE
  5
277
330
1F
100
AcDbEntity
  8
0
  6
CONTINUOUS
 62
     1
100
AcDbLine
 10
181.500000007
 20
251.0499999979999
 30
0.0
 11
188.500000007
 21
251.0499999979999
 31
0.0
  0
LINE
  5
278
330
1F
100
AcDbEntity
  8
0
  6
CONTINUOUS
 62
     1
100
AcDbLine
 10
181.500000007
 20
253.0499999979999
 30
0.0
 11
181.500000007
 21
251.0499999979999
 31
0.0
  0
LINE
  5
279
330
1F
100
AcDbEntity
  8
0
  6
CONTINUOUS
 62
     1
100
AcDbLine
 10
188.500000007
 20
251.0499999979999
 30
0.0
 11
188.500000007
 21
253.0499999979999
 31
0.0
  0
LINE
  5
27A
330
1F
100
AcDbEntity
  8
0
  6
CONTINUOUS
 62
     1
100
AcDbLine
 10
188.500000007
 20
253.0499999979999
 30
0.0
 11
181.500000007
 21
253.0499999979999
 31
0.0
  0
ARC
  5
27B
330
1F
100
AcDbEntity
  8
0
  6
CONTINUOUS
 62
     1
100
AcDbCircle
 10
176.400000007
 20
255.999999998
 30
0.0
 40
1.0
100
AcDbArc
 50
0.0
 51
90.0
  0
LINE
  5
27C
330
1F
100
AcDbEntity
  8
0
  6
CONTINUOUS
 62
     1
100
AcDbLine
 10
177.400000005
 20
209.999999998
 30
0.0
 11
177.400000007
 21
255.999999998
 31
0.0
  0
LINE
  5
27D
330
1F
100
AcDbEntity
  8
0
  6
CONTINUOUS
 62
     1
100
AcDbLine
 10
181.500000005
 20
212.9499999979999
 30
0.0
 11
188.5000000049998
 21
212.9499999979999
 31
0.0
  0
LINE
  5
27E
330
1F
100
AcDbEntity
  8
0
  6
CONTINUOUS
 62
     1
100
AcDbLine
 10
181.500000005
 20
214.9499999979999
 30
0.0
 11
181.500000005
 21
212.9499999979999
 31
0.0
  0
LINE
  5
27F
330
1F
100
AcDbEntity
  8
0
  6
CONTINUOUS
 62
     1
100
AcDbLine
 10
188.5000000049998
 20
212.9499999979999
 30
0.0
 11
188.5000000049998
 21
214.9499999979999
 31
0.0
  0
LINE
  5
280
330
1F
100
AcDbEntity
  8
0
  6
CONTINUOUS
 62
     1
100
AcDbLine
 10
188.5000000049998
 20
214.9499999979999
 30
0.0
 11
181.500000005
 21
214.9499999979999
 31
0.0
  0
ARC
  5
281
330
1F
100
AcDbEntity
  8
0
  6
CONTINUOUS
 62
     1
100
AcDbCircle
 10
190.000000005
 20
216.499999998
 30
0.0
 40
0.5
100
AcDbArc
 50
270.0
 51
0.0
  0
LINE
  5
282
330
1F
100
AcDbEntity
  8
0
  6
CONTINUOUS
 62
     1
100
AcDbLine
 10
190.000000005
 20
215.999999998
 30
0.0
 11
177.400000005
 21
215.999999998
 31
0.0
  0
LINE
  5
283
330
1F
100
AcDbEntity
  8
0
  6
CONTINUOUS
 62
     1
100
AcDbLine
 10
190.500000005
 20
217.4999999979996
 30
0.0
 11
190.500000005
 21
216.499999998
 31
0.0
  0
LINE
  5
284
330
1F
100
AcDbEntity
  8
0
  6
CONTINUOUS
 62
     1
100
AcDbLine
 10
181.0000000049998
 20
217.4999999979996
 30
0.0
 11
181.0000000049998
 21
215.999999998
 31
0.0
  0
LINE
  5
285
330
1F
100
AcDbEntity
  8
0
  6
CONTINUOUS
 62
     1
100
AcDbLine
 10
178.9600000059998
 20
248.4999999979996
 30
0.0
 11
178.960000005
 21
217.4999999979996
 31
0.0
  0
LINE
  5
286
330
1F
100
AcDbEntity
  8
0
  6
CONTINUOUS
 62
     1
100
AcDbLine
 10
178.960000005
 20
217.4999999979996
 30
0.0
 11
191.8000000049999
 21
217.4999999979996
 31
0.0
  0
LINE
  5
287
330
1F
100
AcDbEntity
  8
0
  6
CONTINUOUS
 62
     1
100
AcDbLine
 10
189.000000007
 20
248.4999999979996
 30
0.0
 11
181.0000000069998
 21
248.4999999979996
 31
0.0
  0
LINE
  5
288
330
1F
100
AcDbEntity
  8
0
  6
CONTINUOUS
 62
     1
100
AcDbLine
 10
191.8000000059998
 20
248.4999999979996
 30
0.0
 11
178.9600000059998
 21
248.4999999979996
 31
0.0
  0
ARC
  5
289
330
1F
100
AcDbEntity
  8
0
  6
CONTINUOUS
 62
     1
100
AcDbCircle
 10
190.000000007
 20
249.499999998
 30
0.0
 40
0.5
100
AcDbArc
 50
0.0
 51
90.0
  0
LINE
  5
28A
330
1F
100
AcDbEntity
  8
0
  6
CONTINUOUS
 62
     1
100
AcDbLine
 10
190.000000007
 20
249.9999999979999
 30
0.0
 11
177.400000007
 21
249.9999999979999
 31
0.0
  0
LINE
  5
28B
330
1F
100
AcDbEntity
  8
0
  6
CONTINUOUS
 62
     1
100
AcDbLine
 10
190.500000007
 20
249.499999998
 30
0.0
 11
190.500000007
 21
248.4999999979996
 31
0.0
  0
LINE
  5
28C
330
1F
100
AcDbEntity
  8
0
  6
CONTINUOUS
 62
     1
100
AcDbLine
 10
181.0000000069998
 20
248.4999999979996
 30
0.0
 11
181.0000000069998
 21
249.9999999979999
 31
0.0
  0
LINE
  5
28D
330
1F
100
AcDbEntity
  8
0
  6
CONTINUOUS
 62
     1
100
AcDbLine
 10
191.8000000049999
 20
217.4999999979996
 30
0.0
 11
191.8000000059998
 21
248.4999999979996
 31
0.0
  0
LINE
  5
28E
330
1F
100
AcDbEntity
  8
0
  6
CONTINUOUS
 62
     1
100
AcDbLine
 10
192.000000005
 20
209.999999998
 30
0.0
 11
192.000000007
 21
255.999999998
 31
0.0
  0
ARC
  5
28F
330
1F
100
AcDbEntity
  8
0
  6
CONTINUOUS
 62
     1
100
AcDbCircle
 10
113.600000007
 20
256.000000002
 30
0.0
 40
1.0
100
AcDbArc
 50
90.0
 51
180.0
  0
LINE
  5
290
330
1F
100
AcDbEntity
  8
0
  6
CONTINUOUS
 62
     1
100
AcDbLine
 10
191.000000007
 20
256.9999999979996
 30
0.0
 11
99.00000000700003
 21
257.000000002
 31
0.0
  0
LINE
  5
291
330
1F
100
AcDbEntity
  8
0
  6
CONTINUOUS
 62
     1
100
AcDbLine
 10
45.75111966899999
 20
257.0000000029998
 30
0.0
 11
45.75111966699997
 21
209.0000000029998
 31
0.0
  0
LINE
  5
292
330
1F
100
AcDbEntity
  8
0
  6
CONTINUOUS
 62
     1
100
AcDbLine
 10
50.251119668
 20
243.2000000029999
 30
0.0
 11
45.751119668
 21
243.2000000029999
 31
0.0
  0
LINE
  5
293
330
1F
100
AcDbEntity
  8
0
  6
CONTINUOUS
 62
     1
100
AcDbLine
 10
50.251119668
 20
222.8000000029997
 30
0.0
 11
50.251119668
 21
243.2000000029999
 31
0.0
  0
LINE
  5
294
330
1F
100
AcDbEntity
  8
0
  6
CONTINUOUS
 62
     1
100
AcDbLine
 10
45.751119668
 20
222.8000000029997
 30
0.0
 11
50.251119668
 21
222.8000000029997
 31
0.0
  0
LINE
  5
295
330
1F
100
AcDbEntity
  8
0
  6
CONTINUOUS
 62
     1
100
AcDbLine
 10
45.75111966699997
 20
209.0000000029998
 30
0.0
 11
85.551119667
 21
209.000000002
 31
0.0
  0
ARC
  5
296
330
1F
100
AcDbEntity
  8
0
  6
CONTINUOUS
 62
     1
100
AcDbCircle
 10
62.151119669
 20
256.0000000029999
 30
0.0
 40
1.0
100
AcDbArc
 50
0.0
 51
90.0
  0
LINE
  5
297
330
1F
100
AcDbEntity
  8
0
  6
CONTINUOUS
 62
     1
100
AcDbLine
 10
86.55111966700001
 20
210.000000002
 30
0.0
 11
86.55111966899997
 21
256.000000002
 31
0.0
  0
ARC
  5
298
330
1F
100
AcDbEntity
  8
0
  6
CONTINUOUS
 62
     1
100
AcDbCircle
 10
85.551119669
 20
256.000000002
 30
0.0
 40
1.0
100
AcDbArc
 50
0.0
 51
90.0
  0
LINE
  5
299
330
1F
100
AcDbEntity
  8
0
  6
CONTINUOUS
 62
     1
100
AcDbLine
 10
85.551119669
 20
257.000000002
 30
0.0
 11
45.75111966899999
 21
257.0000000029998
 31
0.0
  0
ARC
  5
29A
330
1F
100
AcDbEntity
  8
0
  6
CONTINUOUS
 62
     1
100
AcDbCircle
 10
85.551119667
 20
210.000000002
 30
0.0
 40
1.0
100
AcDbArc
 50
270.0
 51
0.0
  0
LINE
  5
29B
330
1F
100
AcDbEntity
  8
0
  6
CONTINUOUS
 62
     1
100
AcDbLine
 10
79.551119667
 20
217.7600000019999
 30
0.0
 11
85.75111966699997
 21
217.7600000019999
 31
0.0
  0
LINE
  5
29C
330
1F
100
AcDbEntity
  8
0
  6
CONTINUOUS
 62
     1
100
AcDbLine
 10
85.75111966699997
 20
217.7600000019999
 30
0.0
 11
85.75111966899999
 21
248.240000002
 31
0.0
  0
LINE
  5
29D
330
1F
100
AcDbEntity
  8
0
  6
CONTINUOUS
 62
     1
100
AcDbLine
 10
68.151119667
 20
217.7600000029999
 30
0.0
 11
72.051119667
 21
217.7600000019999
 31
0.0
  0
LINE
  5
29E
330
1F
100
AcDbEntity
  8
0
  6
CONTINUOUS
 62
     1
100
AcDbLine
 10
72.051119667
 20
217.7600000019999
 30
0.0
 11
79.551119667
 21
217.7600000019999
 31
0.0
  0
LINE
  5
29F
330
1F
100
AcDbEntity
  8
0
  6
CONTINUOUS
 62
     1
100
AcDbLine
 10
72.051119669
 20
248.240000002
 30
0.0
 11
72.051119667
 21
217.7600000019999
 31
0.0
  0
LINE
  5
2A0
330
1F
100
AcDbEntity
  8
0
  6
CONTINUOUS
 62
     1
100
AcDbLine
 10
85.75111966899999
 20
248.240000002
 30
0.0
 11
68.151119669
 21
248.240000003
 31
0.0
  0
ARC
  5
2A1
330
1F
100
AcDbEntity
  8
0
  6
CONTINUOUS
 62
     1
100
AcDbCircle
 10
62.151119667
 20
210.000000003
 30
0.0
 40
1.0
100
AcDbArc
 50
270.0
 51
0.0
  0
LINE
  5
2A2
330
1F
100
AcDbEntity
  8
0
  6
CONTINUOUS
 62
     1
100
AcDbLine
 10
63.15111966699999
 20
210.000000003
 30
0.0
 11
63.15111966899999
 21
256.0000000029999
 31
0.0
  0
LINE
  5
2A3
330
1F
100
AcDbEntity
  8
0
  6
CONTINUOUS
 62
     1
100
AcDbLine
 10
63.15111966699999
 20
216.000000003
 30
0.0
 11
67.651119667
 21
216.000000003
 31
0.0
  0
ARC
  5
2A4
330
1F
100
AcDbEntity
  8
0
  6
CONTINUOUS
 62
     1
100
AcDbCircle
 10
67.651119667
 20
216.500000003
 30
0.0
 40
0.5
100
AcDbArc
 50
270.0
 51
0.0
  0
LINE
  5
2A5
330
1F
100
AcDbEntity
  8
0
  6
CONTINUOUS
 62
     1
100
AcDbLine
 10
68.151119667
 20
216.500000003
 30
0.0
 11
68.151119667
 21
217.7600000029999
 31
0.0
  0
ARC
  5
2A6
330
1F
100
AcDbEntity
  8
0
  6
CONTINUOUS
 62
     1
100
AcDbCircle
 10
64.651119667
 20
216.500000003
 30
0.0
 40
0.5
100
AcDbArc
 50
270.0
 51
0.0
  0
LINE
  5
2A7
330
1F
100
AcDbEntity
  8
0
  6
CONTINUOUS
 62
     1
100
AcDbLine
 10
68.151119667
 20
217.7600000029999
 30
0.0
 11
65.151119667
 21
217.7600000029999
 31
0.0
  0
ARC
  5
2A8
330
1F
100
AcDbEntity
  8
0
  6
CONTINUOUS
 62
     1
100
AcDbCircle
 10
64.651119668
 20
220.6000000029999
 30
0.0
 40
0.5
100
AcDbArc
 50
0.0
 51
90.0
  0
LINE
  5
2A9
330
1F
100
AcDbEntity
  8
0
  6
CONTINUOUS
 62
     1
100
AcDbLine
 10
64.651119668
 20
221.1000000029996
 30
0.0
 11
63.15111966799999
 21
221.1000000029996
 31
0.0
  0
LINE
  5
2AA
330
1F
100
AcDbEntity
  8
0
  6
CONTINUOUS
 62
     1
100
AcDbLine
 10
68.151119667
 20
221.260000003
 30
0.0
 11
63.15111966699999
 21
221.260000003
 31
0.0
  0
LINE
  5
2AB
330
1F
100
AcDbEntity
  8
0
  6
CONTINUOUS
 62
     1
100
AcDbLine
 10
68.151119669
 20
248.240000003
 30
0.0
 11
68.151119667
 21
217.7600000029999
 31
0.0
  0
LINE
  5
2AC
330
1F
100
AcDbEntity
  8
0
  6
CONTINUOUS
 62
     1
100
AcDbLine
 10
63.15111966799999
 20
222.900000003
 30
0.0
 11
64.651119668
 21
222.900000003
 31
0.0
  0
LINE
  5
2AD
330
1F
100
AcDbEntity
  8
0
  6
CONTINUOUS
 62
     1
100
AcDbLine
 10
63.15111966799999
 20
222.7600000029996
 30
0.0
 11
68.151119668
 21
222.7600000029996
 31
0.0
  0
LINE
  5
2AE
330
1F
100
AcDbEntity
  8
0
  6
CONTINUOUS
 62
     1
100
AcDbLine
 10
64.351119668
 20
230.500000003
 30
0.0
 11
64.351119668
 21
235.5000000029999
 31
0.0
  0
LINE
  5
2AF
330
1F
100
AcDbEntity
  8
0
  6
CONTINUOUS
 62
     1
100
AcDbLine
 10
65.151119668
 20
230.500000003
 30
0.0
 11
64.351119668
 21
230.500000003
 31
0.0
  0
LINE
  5
2B0
330
1F
100
AcDbEntity
  8
0
  6
CONTINUOUS
 62
     1
100
AcDbLine
 10
64.351119668
 20
235.5000000029999
 30
0.0
 11
65.151119668
 21
235.5000000029999
 31
0.0
  0
LINE
  5
2B1
330
1F
100
AcDbEntity
  8
0
  6
CONTINUOUS
 62
     1
100
AcDbLine
 10
67.651119669
 20
250.5000000029999
 30
0.0
 11
63.15111966899999
 21
250.5000000029999
 31
0.0
  0
ARC
  5
2B2
330
1F
100
AcDbEntity
  8
0
  6
CONTINUOUS
 62
     1
100
AcDbCircle
 10
67.651119669
 20
250.000000003
 30
0.0
 40
0.5
100
AcDbArc
 50
0.0
 51
90.0
  0
LINE
  5
2B3
330
1F
100
AcDbEntity
  8
0
  6
CONTINUOUS
 62
     1
100
AcDbLine
 10
68.151119668
 20
248.240000003
 30
0.0
 11
68.151119669
 21
250.000000003
 31
0.0
  0
LINE
  5
2B4
330
1F
100
AcDbEntity
  8
0
  6
CONTINUOUS
 62
     1
100
AcDbLine
 10
65.151119669
 20
248.240000003
 30
0.0
 11
68.151119669
 21
248.240000003
 31
0.0
  0
ARC
  5
2B5
330
1F
100
AcDbEntity
  8
0
  6
CONTINUOUS
 62
     1
100
AcDbCircle
 10
64.651119669
 20
250.000000003
 30
0.0
 40
0.5
100
AcDbArc
 50
0.0
 51
90.0
  0
ARC
  5
2B6
330
1F
100
AcDbEntity
  8
0
  6
CONTINUOUS
 62
     1
100
AcDbCircle
 10
64.651119668
 20
245.400000003
 30
0.0
 40
0.5
100
AcDbArc
 50
270.0
 51
0.0
  0
LINE
  5
2B7
330
1F
100
AcDbEntity
  8
0
  6
CONTINUOUS
 62
     1
100
AcDbLine
 10
65.151119668
 20
244.740000003
 30
0.0
 11
65.151119669
 21
248.240000003
 31
0.0
  0
LINE
  5
2B8
330
1F
100
AcDbEntity
  8
0
  6
CONTINUOUS
 62
     1
100
AcDbLine
 10
65.151119668
 20
245.400000003
 30
0.0
 11
65.151119669
 21
250.000000003
 31
0.0
  0
LINE
  5
2B9
330
1F
100
AcDbEntity
  8
0
  6
CONTINUOUS
 62
     1
100
AcDbLine
 10
63.15111966799999
 20
244.900000003
 30
0.0
 11
64.651119668
 21
244.900000003
 31
0.0
  0
LINE
  5
2BA
330
1F
100
AcDbEntity
  8
0
  6
CONTINUOUS
 62
     1
100
AcDbLine
 10
68.151119668
 20
244.740000003
 30
0.0
 11
63.15111966799999
 21
244.740000003
 31
0.0
  0
LINE
  5
2BB
330
1F
100
AcDbEntity
  8
0
  6
CONTINUOUS
 62
     1
100
AcDbLine
 10
65.151119668
 20
235.5000000029999
 30
0.0
 11
65.151119668
 21
242.600000003
 31
0.0
  0
LINE
  5
2BC
330
1F
100
AcDbEntity
  8
0
  6
CONTINUOUS
 62
     1
100
AcDbLine
 10
64.651119668
 20
243.100000003
 30
0.0
 11
63.15111966799999
 21
243.100000003
 31
0.0
  0
ARC
  5
2BD
330
1F
100
AcDbEntity
  8
0
  6
CONTINUOUS
 62
     1
100
AcDbCircle
 10
64.651119668
 20
242.600000003
 30
0.0
 40
0.5
100
AcDbArc
 50
0.0
 51
90.0
  0
LINE
  5
2BE
330
1F
100
AcDbEntity
  8
0
  6
CONTINUOUS
 62
     1
100
AcDbLine
 10
63.15111966799999
 20
243.2400000029999
 30
0.0
 11
68.151119668
 21
243.2400000029999
 31
0.0
  0
LINE
  5
2BF
330
1F
100
AcDbEntity
  8
0
  6
CONTINUOUS
 62
     1
100
AcDbLine
 10
65.151119668
 20
223.4000000029999
 30
0.0
 11
65.151119668
 21
230.500000003
 31
0.0
  0
ARC
  5
2C0
330
1F
100
AcDbEntity
  8
0
  6
CONTINUOUS
 62
     1
100
AcDbCircle
 10
64.651119668
 20
223.4000000029999
 30
0.0
 40
0.5
100
AcDbArc
 50
270.0
 51
0.0
  0
LINE
  5
2C1
330
1F
100
AcDbEntity
  8
0
  6
CONTINUOUS
 62
     1
100
AcDbLine
 10
65.151119668
 20
222.7600000029996
 30
0.0
 11
65.151119668
 21
243.2400000029999
 31
0.0
  0
LINE
  5
2C2
330
1F
100
AcDbEntity
  8
0
  6
CONTINUOUS
 62
     1
100
AcDbLine
 10
65.151119667
 20
217.7600000029999
 30
0.0
 11
65.151119667
 21
221.260000003
 31
0.0
  0
LINE
  5
2C3
330
1F
100
AcDbEntity
  8
0
  6
CONTINUOUS
 62
     1
100
AcDbLine
 10
65.151119667
 20
216.500000003
 30
0.0
 11
65.151119668
 21
220.6000000029999
 31
0.0
  0
LINE
  5
2C4
330
1F
100
AcDbEntity
  8
0
  6
CONTINUOUS
 62
     1
100
AcDbLine
 10
73.051119669
 20
247.7000000019998
 30
0.0
 11
73.051119668
 21
243.7000000019998
 31
0.0
  0
LINE
  5
2C5
330
1F
100
AcDbEntity
  8
0
  6
CONTINUOUS
 62
     1
100
AcDbLine
 10
73.051119668
 20
243.7000000019998
 30
0.0
 11
78.551119668
 21
243.7000000019998
 31
0.0
  0
LINE
  5
2C6
330
1F
100
AcDbEntity
  8
0
  6
CONTINUOUS
 62
     1
100
AcDbLine
 10
78.551119668
 20
242.620000002
 30
0.0
 11
73.051119668
 21
242.620000002
 31
0.0
  0
LINE
  5
2C7
330
1F
100
AcDbEntity
  8
0
  6
CONTINUOUS
 62
     1
100
AcDbLine
 10
78.551119668
 20
243.7000000019998
 30
0.0
 11
78.551119669
 21
247.7000000019998
 31
0.0
  0
LINE
  5
2C8
330
1F
100
AcDbEntity
  8
0
  6
CONTINUOUS
 62
     1
100
AcDbLine
 10
78.551119669
 20
247.7000000019998
 30
0.0
 11
73.051119669
 21
247.7000000019998
 31
0.0
  0
LINE
  5
2C9
330
1F
100
AcDbEntity
  8
0
  6
CONTINUOUS
 62
     1
100
AcDbLine
 10
78.551119668
 20
238.620000002
 30
0.0
 11
78.551119668
 21
242.620000002
 31
0.0
  0
LINE
  5
2CA
330
1F
100
AcDbEntity
  8
0
  6
CONTINUOUS
 62
     1
100
AcDbLine
 10
73.051119668
 20
238.620000002
 30
0.0
 11
78.551119668
 21
238.620000002
 31
0.0
  0
LINE
  5
2CB
330
1F
100
AcDbEntity
  8
0
  6
CONTINUOUS
 62
     1
100
AcDbLine
 10
73.051119668
 20
242.620000002
 30
0.0
 11
73.051119668
 21
238.620000002
 31
0.0
  0
LINE
  5
2CC
330
1F
100
AcDbEntity
  8
0
  6
CONTINUOUS
 62
     1
100
AcDbLine
 10
73.051119668
 20
237.5400000019999
 30
0.0
 11
73.051119668
 21
233.5400000019999
 31
0.0
  0
LINE
  5
2CD
330
1F
100
AcDbEntity
  8
0
  6
CONTINUOUS
 62
     1
100
AcDbLine
 10
78.551119668
 20
237.5400000019999
 30
0.0
 11
73.051119668
 21
237.5400000019999
 31
0.0
  0
LINE
  5
2CE
330
1F
100
AcDbEntity
  8
0
  6
CONTINUOUS
 62
     1
100
AcDbLine
 10
78.551119668
 20
233.5400000019999
 30
0.0
 11
78.551119668
 21
237.5400000019999
 31
0.0
  0
LINE
  5
2CF
330
1F
100
AcDbEntity
  8
0
  6
CONTINUOUS
 62
     1
100
AcDbLine
 10
73.051119668
 20
233.5400000019999
 30
0.0
 11
78.551119668
 21
233.5400000019999
 31
0.0
  0
LINE
  5
2D0
330
1F
100
AcDbEntity
  8
0
  6
CONTINUOUS
 62
     1
100
AcDbLine
 10
78.551119668
 20
232.460000002
 30
0.0
 11
73.051119668
 21
232.460000002
 31
0.0
  0
LINE
  5
2D1
330
1F
100
AcDbEntity
  8
0
  6
CONTINUOUS
 62
     1
100
AcDbLine
 10
73.051119668
 20
232.460000002
 30
0.0
 11
73.051119668
 21
228.460000002
 31
0.0
  0
LINE
  5
2D2
330
1F
100
AcDbEntity
  8
0
  6
CONTINUOUS
 62
     1
100
AcDbLine
 10
78.551119668
 20
228.460000002
 30
0.0
 11
78.551119668
 21
232.460000002
 31
0.0
  0
LINE
  5
2D3
330
1F
100
AcDbEntity
  8
0
  6
CONTINUOUS
 62
     1
100
AcDbLine
 10
73.051119668
 20
228.460000002
 30
0.0
 11
78.551119668
 21
228.460000002
 31
0.0
  0
LINE
  5
2D4
330
1F
100
AcDbEntity
  8
0
  6
CONTINUOUS
 62
     1
100
AcDbLine
 10
78.551119668
 20
227.380000002
 30
0.0
 11
73.051119668
 21
227.380000002
 31
0.0
  0
LINE
  5
2D5
330
1F
100
AcDbEntity
  8
0
  6
CONTINUOUS
 62
     1
100
AcDbLine
 10
78.551119668
 20
223.380000002
 30
0.0
 11
78.551119668
 21
227.380000002
 31
0.0
  0
LINE
  5
2D6
330
1F
100
AcDbEntity
  8
0
  6
CONTINUOUS
 62
     1
100
AcDbLine
 10
73.051119668
 20
227.380000002
 30
0.0
 11
73.051119668
 21
223.380000002
 31
0.0
  0
LINE
  5
2D7
330
1F
100
AcDbEntity
  8
0
  6
CONTINUOUS
 62
     1
100
AcDbLine
 10
78.551119668
 20
222.300000002
 30
0.0
 11
73.051119668
 21
222.300000002
 31
0.0
  0
LINE
  5
2D8
330
1F
100
AcDbEntity
  8
0
  6
CONTINUOUS
 62
     1
100
AcDbLine
 10
73.051119668
 20
223.380000002
 30
0.0
 11
78.551119668
 21
223.380000002
 31
0.0
  0
LINE
  5
2D9
330
1F
100
AcDbEntity
  8
0
  6
CONTINUOUS
 62
     1
100
AcDbLine
 10
78.551119667
 20
218.300000002
 30
0.0
 11
78.551119668
 21
222.300000002
 31
0.0
  0
LINE
  5
2DA
330
1F
100
AcDbEntity
  8
0
  6
CONTINUOUS
 62
     1
100
AcDbLine
 10
73.051119667
 20
218.300000002
 30
0.0
 11
78.551119667
 21
218.300000002
 31
0.0
  0
LINE
  5
2DB
330
1F
100
AcDbEntity
  8
0
  6
CONTINUOUS
 62
     1
100
AcDbLine
 10
73.051119668
 20
222.300000002
 30
0.0
 11
73.051119667
 21
218.300000002
 31
0.0
  0
TEXT
  5
2DC
330
1F
100
AcDbEntity
  8
0
  6
CONTINUOUS
 62
     1
100
AcDbText
 10
80.01341429671724
 20
246.510000002
 30
0.0
 40
2.241094962237778
  1
７
 50
270.0
  7
MS_PGOTHIC
 11
79.55518041115718
 21
246.510000002
 31
0.0
100
AcDbText
 73
     1
  0
TEXT
  5
2DD
330
1F
100
AcDbEntity
  8
0
  6
CONTINUOUS
 62
     1
100
AcDbText
 10
80.03864381649136
 20
241.430000002
 30
0.0
 40
2.240335111079172
  1
８
 50
270.0
  7
MS_PGOTHIC
 11
79.58056529674789
 21
241.430000002
 31
0.0
100
AcDbText
 73
     1
  0
TEXT
  5
2DE
330
1F
100
AcDbEntity
  8
0
  6
CONTINUOUS
 62
     1
100
AcDbText
 10
80.0418623753018
 20
236.3500000019999
 30
0.0
 40
2.239391421401361
  1
９
 50
270.0
  7
MS_PGOTHIC
 11
79.58397681060714
 21
236.3500000019999
 31
0.0
100
AcDbText
 73
     1
  0
TEXT
  5
2DF
330
1F
100
AcDbEntity
  8
0
  6
CONTINUOUS
 62
     1
100
AcDbText
 10
80.18882045725687
 20
226.9400000000001
 30
0.0
 40
2.240147572083232
  1
11
 50
270.0
  7
MS_PGOTHIC
 11
79.73078028337747
 21
226.9400000000001
 31
0.0
100
AcDbText
 73
     1
  0
TEXT
  5
2E0
330
1F
100
AcDbEntity
  8
0
  6
CONTINUOUS
 62
     1
100
AcDbText
 10
80.1743025889243
 20
232.0200000000001
 30
0.0
 40
2.2392578125
  1
10
 50
270.0
  7
MS_PGOTHIC
 11
79.7164443430747
 21
232.0200000000001
 31
0.0
100
AcDbText
 73
     1
  0
TEXT
  5
2E1
330
1F
100
AcDbEntity
  8
0
  6
CONTINUOUS
 62
     1
100
AcDbText
 10
80.16098513787186
 20
222.06
 30
0.0
 40
2.239758927548136
  1
12
 50
270.0
  7
MS_PGOTHIC
 11
79.70302442965476
 21
222.06
 31
0.0
100
AcDbText
 73
     1
  0
LINE
  5
2E2
330
1F
100
AcDbEntity
  8
0
  6
CONTINUOUS
 62
     1
100
AcDbLine
 10
177.216711864
 20
175.799999999
 30
0.0
 11
177.310909061
 21
165.008758749
 31
0.0
  0
ARC
  5
2E3
330
1F
100
AcDbEntity
  8
0
  6
CONTINUOUS
 62
     1
100
AcDbCircle
 10
176.216711864
 20
175.799999999
 30
0.0
 40
1.0
100
AcDbArc
 50
0.0
 51
90.0
  0
LINE
  5
2E4
330
1F
100
AcDbEntity
  8
0
  6
CONTINUOUS
 62
     1
100
AcDbLine
 10
177.310909061
 20
165.008758749
 30
0.0
 11
177.400000002
 21
153.3999999989999
 31
0.0
  0
LINE
  5
2E5
330
1F
100
AcDbEntity
  8
0
  6
CONTINUOUS
 62
     1
100
AcDbLine
 10
181.0000000029999
 20
158.3999999989998
 30
0.0
 11
177.361627704
 21
158.3999999989998
 31
0.0
  0
LINE
  5
2E6
330
1F
100
AcDbEntity
  8
0
  6
CONTINUOUS
 62
     1
100
AcDbLine
 10
192.000000002
 20
135.9999999979999
 30
0.0
 11
191.8452637849999
 21
152.399999998
 31
0.0
  0
ARC
  5
2E7
330
1F
100
AcDbEntity
  8
0
  6
CONTINUOUS
 62
     1
100
AcDbCircle
 10
190.8452637849999
 20
152.399999998
 30
0.0
 40
1.0
100
AcDbArc
 50
0.0
 51
90.0
  0
LINE
  5
2E8
330
1F
100
AcDbEntity
  8
0
  6
CONTINUOUS
 62
     1
100
AcDbLine
 10
190.500000002
 20
153.3999999979998
 30
0.0
 11
190.500000002
 21
154.8999999979998
 31
0.0
  0
LINE
  5
2E9
330
1F
100
AcDbEntity
  8
0
  6
CONTINUOUS
 62
     1
100
AcDbLine
 10
190.8452637849999
 20
153.3999999979998
 30
0.0
 11
177.400000002
 21
153.3999999989999
 31
0.0
  0
ARC
  5
2EA
330
1F
100
AcDbEntity
  8
0
  6
CONTINUOUS
 62
     1
100
AcDbCircle
 10
190.000000002
 20
154.8999999979998
 30
0.0
 40
0.5
100
AcDbArc
 50
0.0
 51
90.0
  0
LINE
  5
2EB
330
1F
100
AcDbEntity
  8
0
  6
CONTINUOUS
 62
     1
100
AcDbLine
 10
190.000000002
 20
155.399999998
 30
0.0
 11
181.000000002
 21
155.3999999989999
 31
0.0
  0
LINE
  5
2EC
330
1F
100
AcDbEntity
  8
0
  6
CONTINUOUS
 62
     1
100
AcDbLine
 10
191.3950857579999
 20
155.5999265589998
 30
0.0
 11
190.500000002
 21
154.406478885
 31
0.0
  0
LINE
  5
2ED
330
1F
100
AcDbEntity
  8
0
  6
CONTINUOUS
 62
     1
100
AcDbLine
 10
191.6450857579999
 20
162.299926559
 30
0.0
 11
190.6450857579999
 21
162.299926559
 31
0.0
  0
LINE
  5
2EE
330
1F
100
AcDbEntity
  8
0
  6
CONTINUOUS
 62
     1
100
AcDbLine
 10
191.6450857579999
 20
158.5999265589999
 30
0.0
 11
191.6450857579999
 21
162.299926559
 31
0.0
  0
LINE
  5
2EF
330
1F
100
AcDbEntity
  8
0
  6
CONTINUOUS
 62
     1
100
AcDbLine
 10
191.3950857579999
 20
158.5999265589999
 30
0.0
 11
191.3950857579999
 21
155.5999265589998
 31
0.0
  0
LINE
  5
2F0
330
1F
100
AcDbEntity
  8
0
  6
CONTINUOUS
 62
     1
100
AcDbLine
 10
188.1450857579999
 20
156.899926559
 30
0.0
 11
188.1450857579999
 21
155.3999265589999
 31
0.0
  0
LINE
  5
2F1
330
1F
100
AcDbEntity
  8
0
  6
CONTINUOUS
 62
     1
100
AcDbLine
 10
189.8450857579999
 20
155.3999265589999
 30
0.0
 11
189.8450857579999
 21
156.899926559
 31
0.0
  0
LINE
  5
2F2
330
1F
100
AcDbEntity
  8
0
  6
CONTINUOUS
 62
     1
100
AcDbLine
 10
188.1450857579999
 20
156.899926559
 30
0.0
 11
188.3450857579999
 21
158.3999265589999
 31
0.0
  0
LINE
  5
2F3
330
1F
100
AcDbEntity
  8
0
  6
CONTINUOUS
 62
     1
100
AcDbLine
 10
189.3450857579999
 20
158.3999265589999
 30
0.0
 11
189.8450857579999
 21
156.899926559
 31
0.0
  0
LINE
  5
2F4
330
1F
100
AcDbEntity
  8
0
  6
CONTINUOUS
 62
     1
100
AcDbLine
 10
189.895085758
 20
158.5999999979998
 30
0.0
 11
189.895085758
 21
155.3999265589999
 31
0.0
  0
LINE
  5
2F5
330
1F
100
AcDbEntity
  8
0
  6
CONTINUOUS
 62
     1
100
AcDbLine
 10
187.9844976929998
 20
158.5999999979998
 30
0.0
 11
187.9844976929998
 21
155.399999998
 31
0.0
  0
LINE
  5
2F6
330
1F
100
AcDbEntity
  8
0
  6
CONTINUOUS
 62
     1
100
AcDbLine
 10
189.3450857579999
 20
158.3999265589999
 30
0.0
 11
188.3450857579999
 21
158.3999265589999
 31
0.0
  0
LINE
  5
2F7
330
1F
100
AcDbEntity
  8
0
  6
CONTINUOUS
 62
     1
100
AcDbLine
 10
191.644497693
 20
158.5999999979998
 30
0.0
 11
187.9844976929998
 21
158.5999999979998
 31
0.0
  0
LINE
  5
2F8
330
1F
100
AcDbEntity
  8
0
  6
CONTINUOUS
 62
     1
100
AcDbLine
 10
181.2044976929998
 20
158.3999999989998
 30
0.0
 11
182.9044976929999
 21
158.399999998
 31
0.0
  0
LINE
  5
2F9
330
1F
100
AcDbEntity
  8
0
  6
CONTINUOUS
 62
     1
100
AcDbLine
 10
182.9044976929999
 20
158.399999998
 30
0.0
 11
182.9044976929999
 21
155.399999998
 31
0.0
  0
LINE
  5
2FA
330
1F
100
AcDbEntity
  8
0
  6
CONTINUOUS
 62
     1
100
AcDbLine
 10
178.804497693
 20
158.599999999
 30
0.0
 11
183.004497693
 21
158.5999999979998
 31
0.0
  0
LINE
  5
2FB
330
1F
100
AcDbEntity
  8
0
  6
CONTINUOUS
 62
     1
100
AcDbLine
 10
183.004497693
 20
158.5999999979998
 30
0.0
 11
183.004497693
 21
155.399999998
 31
0.0
  0
LINE
  5
2FC
330
1F
100
AcDbEntity
  8
0
  6
CONTINUOUS
 62
     1
100
AcDbLine
 10
181.2044976929998
 20
155.3999999989999
 30
0.0
 11
181.2044976929998
 21
158.3999999989998
 31
0.0
  0
LINE
  5
2FD
330
1F
100
AcDbEntity
  8
0
  6
CONTINUOUS
 62
     1
100
AcDbLine
 10
181.000000002
 20
155.3999999989999
 30
0.0
 11
181.0000000029999
 21
158.3999999989998
 31
0.0
  0
LINE
  5
2FE
330
1F
100
AcDbEntity
  8
0
  6
CONTINUOUS
 62
     1
100
AcDbLine
 10
188.2050857579999
 20
174.199926559
 30
0.0
 11
189.8450857579999
 21
169.799926559
 31
0.0
  0
LINE
  5
2FF
330
1F
100
AcDbEntity
  8
0
  6
CONTINUOUS
 62
     1
100
AcDbLine
 10
190.6450857579999
 20
169.799926559
 30
0.0
 11
190.6450857579999
 21
162.299926559
 31
0.0
  0
LINE
  5
300
330
1F
100
AcDbEntity
  8
0
  6
CONTINUOUS
 62
     1
100
AcDbLine
 10
189.8450857579999
 20
169.799926559
 30
0.0
 11
190.6450857579999
 21
169.799926559
 31
0.0
  0
LINE
  5
301
330
1F
100
AcDbEntity
  8
0
  6
CONTINUOUS
 62
     1
100
AcDbLine
 10
179.8050857579999
 20
162.299926559
 30
0.0
 11
178.805085758
 21
162.299926559
 31
0.0
  0
LINE
  5
302
330
1F
100
AcDbEntity
  8
0
  6
CONTINUOUS
 62
     1
100
AcDbLine
 10
178.805085758
 20
162.299926559
 30
0.0
 11
178.805085758
 21
158.5999265589999
 31
0.0
  0
LINE
  5
303
330
1F
100
AcDbEntity
  8
0
  6
CONTINUOUS
 62
     1
100
AcDbLine
 10
179.8050857579999
 20
175.799926559
 30
0.0
 11
179.8050857579999
 21
162.299926559
 31
0.0
  0
LINE
  5
304
330
1F
100
AcDbEntity
  8
0
  6
CONTINUOUS
 62
     1
100
AcDbLine
 10
182.605085758
 20
175.999926559
 30
0.0
 11
182.605085758
 21
175.799926559
 31
0.0
  0
LINE
  5
305
330
1F
100
AcDbEntity
  8
0
  6
CONTINUOUS
 62
     1
100
AcDbLine
 10
188.2050857579999
 20
175.999926559
 30
0.0
 11
182.605085758
 21
175.999926559
 31
0.0
  0
LINE
  5
306
330
1F
100
AcDbEntity
  8
0
  6
CONTINUOUS
 62
     1
100
AcDbLine
 10
188.2050857579999
 20
175.999926559
 30
0.0
 11
188.2050857579999
 21
174.199926559
 31
0.0
  0
LINE
  5
307
330
1F
100
AcDbEntity
  8
0
  6
CONTINUOUS
 62
     1
100
AcDbLine
 10
182.605085758
 20
175.799926559
 30
0.0
 11
179.8050857579999
 21
175.799926559
 31
0.0
  0
LINE
  5
308
330
1F
100
AcDbEntity
  8
0
  6
CONTINUOUS
 62
     1
100
AcDbLine
 10
171.250000002
 20
140.4999999989998
 30
0.0
 11
175.750000002
 21
140.4999999989998
 31
0.0
  0
LINE
  5
309
330
1F
100
AcDbEntity
  8
0
  6
CONTINUOUS
 62
     1
100
AcDbLine
 10
171.250000002
 20
137.9999999989999
 30
0.0
 11
171.250000002
 21
140.4999999989998
 31
0.0
  0
LINE
  5
30A
330
1F
100
AcDbEntity
  8
0
  6
CONTINUOUS
 62
     1
100
AcDbLine
 10
175.750000002
 20
137.9999999989999
 30
0.0
 11
171.250000002
 21
137.9999999989999
 31
0.0
  0
LINE
  5
30B
330
1F
100
AcDbEntity
  8
0
  6
CONTINUOUS
 62
     1
100
AcDbLine
 10
175.750000002
 20
140.4999999989998
 30
0.0
 11
175.750000002
 21
137.9999999989999
 31
0.0
  0
LINE
  5
30C
330
1F
100
AcDbEntity
  8
0
  6
CONTINUOUS
 62
     1
100
AcDbLine
 10
127.400000002
 20
140.500000001
 30
0.0
 11
162.600000002
 21
140.4999999989998
 31
0.0
  0
LINE
  5
30D
330
1F
100
AcDbEntity
  8
0
  6
CONTINUOUS
 62
     1
100
AcDbLine
 10
114.250000002
 20
140.500000001
 30
0.0
 11
114.250000002
 21
138.000000001
 31
0.0
  0
LINE
  5
30E
330
1F
100
AcDbEntity
  8
0
  6
CONTINUOUS
 62
     1
100
AcDbLine
 10
114.250000002
 20
138.000000001
 30
0.0
 11
118.750000002
 21
138.000000001
 31
0.0
  0
LINE
  5
30F
330
1F
100
AcDbEntity
  8
0
  6
CONTINUOUS
 62
     1
100
AcDbLine
 10
118.750000002
 20
138.000000001
 30
0.0
 11
118.750000002
 21
140.500000001
 31
0.0
  0
LINE
  5
310
330
1F
100
AcDbEntity
  8
0
  6
CONTINUOUS
 62
     1
100
AcDbLine
 10
118.750000002
 20
140.500000001
 30
0.0
 11
114.250000002
 21
140.500000001
 31
0.0
  0
LINE
  5
311
330
1F
100
AcDbEntity
  8
0
  6
CONTINUOUS
 62
     1
100
AcDbLine
 10
128.915000002
 20
138.5
 30
0.0
 11
127.0749523239999
 21
136.84321363
 31
0.0
  0
LINE
  5
312
330
1F
100
AcDbEntity
  8
0
  6
CONTINUOUS
 62
     1
100
AcDbLine
 10
128.915000002
 20
138.5
 30
0.0
 11
128.915000002
 21
139.0
 31
0.0
  0
LINE
  5
313
330
1F
100
AcDbEntity
  8
0
  6
CONTINUOUS
 62
     1
100
AcDbLine
 10
127.415000002
 20
139.1999999999999
 30
0.0
 11
127.415000002
 21
140.3
 31
0.0
  0
LINE
  5
314
330
1F
100
AcDbEntity
  8
0
  6
CONTINUOUS
 62
     1
100
AcDbLine
 10
128.915000002
 20
139.0
 30
0.0
 11
127.415000002
 21
139.1999999999999
 31
0.0
  0
LINE
  5
315
330
1F
100
AcDbEntity
  8
0
  6
CONTINUOUS
 62
     1
100
AcDbLine
 10
98.000000002
 20
136.000000002
 30
0.0
 11
98.155322932
 21
152.400000002
 31
0.0
  0
LINE
  5
316
330
1F
100
AcDbEntity
  8
0
  6
CONTINUOUS
 62
     1
100
AcDbLine
 10
95.415000002
 20
136.000000002
 30
0.0
 11
98.000000002
 21
136.000000002
 31
0.0
  0
LINE
  5
317
330
1F
100
AcDbEntity
  8
0
  6
CONTINUOUS
 62
     1
100
AcDbLine
 10
98.000000002
 20
140.300000002
 30
0.0
 11
95.415000002
 21
140.300000002
 31
0.0
  0
LINE
  5
318
330
1F
100
AcDbEntity
  8
0
  6
CONTINUOUS
 62
     1
100
AcDbLine
 10
95.415000002
 20
136.000000002
 30
0.0
 11
95.415000002
 21
140.300000002
 31
0.0
  0
LINE
  5
319
330
1F
100
AcDbEntity
  8
0
  6
CONTINUOUS
 62
     1
100
AcDbLine
 10
99.155322932
 20
153.400000002
 30
0.0
 11
112.600000002
 21
153.4000000009999
 31
0.0
  0
ARC
  5
31A
330
1F
100
AcDbEntity
  8
0
  6
CONTINUOUS
 62
     1
100
AcDbCircle
 10
99.155322932
 20
152.400000002
 30
0.0
 40
1.0
100
AcDbArc
 50
90.0
 51
180.0
  0
ARC
  5
31B
330
1F
100
AcDbEntity
  8
0
  6
CONTINUOUS
 62
     1
100
AcDbCircle
 10
100.000000002
 20
154.900000002
 30
0.0
 40
0.5
100
AcDbArc
 50
90.0
 51
180.0
  0
LINE
  5
31C
330
1F
100
AcDbEntity
  8
0
  6
CONTINUOUS
 62
     1
100
AcDbLine
 10
99.50000000200001
 20
153.400000002
 30
0.0
 11
99.50000000200001
 21
154.900000002
 31
0.0
  0
ARC
  5
31D
330
1F
100
AcDbEntity
  8
0
  6
CONTINUOUS
 62
     1
100
AcDbCircle
 10
100.000000002
 20
154.900000002
 30
0.0
 40
0.5
100
AcDbArc
 50
90.0
 51
180.0
  0
LINE
  5
31E
330
1F
100
AcDbEntity
  8
0
  6
CONTINUOUS
 62
     1
100
AcDbLine
 10
108.795502312
 20
155.400000001
 30
0.0
 11
108.795502312
 21
158.400000001
 31
0.0
  0
LINE
  5
31F
330
1F
100
AcDbEntity
  8
0
  6
CONTINUOUS
 62
     1
100
AcDbLine
 10
108.795502312
 20
158.400000001
 30
0.0
 11
107.095502312
 21
158.400000001
 31
0.0
  0
LINE
  5
320
330
1F
100
AcDbEntity
  8
0
  6
CONTINUOUS
 62
     1
100
AcDbLine
 10
107.095502312
 20
158.400000001
 30
0.0
 11
107.095502312
 21
155.400000001
 31
0.0
  0
LINE
  5
321
330
1F
100
AcDbEntity
  8
0
  6
CONTINUOUS
 62
     1
100
AcDbLine
 10
106.995502312
 20
158.600000001
 30
0.0
 11
106.995502312
 21
155.400000001
 31
0.0
  0
LINE
  5
322
330
1F
100
AcDbEntity
  8
0
  6
CONTINUOUS
 62
     1
100
AcDbLine
 10
102.015502312
 20
158.600000002
 30
0.0
 11
102.015502312
 21
155.400000002
 31
0.0
  0
LINE
  5
323
330
1F
100
AcDbEntity
  8
0
  6
CONTINUOUS
 62
     1
100
AcDbLine
 10
98.35550231200001
 20
158.600000002
 30
0.0
 11
102.015502312
 21
158.600000002
 31
0.0
  0
LINE
  5
324
330
1F
100
AcDbEntity
  8
0
  6
CONTINUOUS
 62
     1
100
AcDbLine
 10
101.854914247
 20
156.899926562
 30
0.0
 11
101.854914247
 21
155.399926562
 31
0.0
  0
LINE
  5
325
330
1F
100
AcDbEntity
  8
0
  6
CONTINUOUS
 62
     1
100
AcDbLine
 10
100.154914247
 20
155.399926562
 30
0.0
 11
100.154914247
 21
156.899926562
 31
0.0
  0
LINE
  5
326
330
1F
100
AcDbEntity
  8
0
  6
CONTINUOUS
 62
     1
100
AcDbLine
 10
100.654914247
 20
158.399926562
 30
0.0
 11
101.654914247
 21
158.399926562
 31
0.0
  0
LINE
  5
327
330
1F
100
AcDbEntity
  8
0
  6
CONTINUOUS
 62
     1
100
AcDbLine
 10
101.854914247
 20
156.899926562
 30
0.0
 11
101.654914247
 21
158.399926562
 31
0.0
  0
LINE
  5
328
330
1F
100
AcDbEntity
  8
0
  6
CONTINUOUS
 62
     1
100
AcDbLine
 10
100.654914247
 20
158.399926562
 30
0.0
 11
100.154914247
 21
156.899926562
 31
0.0
  0
LINE
  5
329
330
1F
100
AcDbEntity
  8
0
  6
CONTINUOUS
 62
     1
100
AcDbLine
 10
98.60491424700001
 20
158.599926562
 30
0.0
 11
98.60491424700001
 21
155.599926562
 31
0.0
  0
LINE
  5
32A
330
1F
100
AcDbEntity
  8
0
  6
CONTINUOUS
 62
     1
100
AcDbLine
 10
98.60491424700001
 20
155.599926562
 30
0.0
 11
99.50000000200001
 21
154.406478889
 31
0.0
  0
LINE
  5
32B
330
1F
100
AcDbEntity
  8
0
  6
CONTINUOUS
 62
     1
100
AcDbLine
 10
100.104914247
 20
158.600000002
 30
0.0
 11
100.104914247
 21
155.399926562
 31
0.0
  0
LINE
  5
32C
330
1F
100
AcDbEntity
  8
0
  6
CONTINUOUS
 62
     1
100
AcDbLine
 10
98.35491424700002
 20
158.599926562
 30
0.0
 11
98.35491424799999
 21
162.299926562
 31
0.0
  0
LINE
  5
32D
330
1F
100
AcDbEntity
  8
0
  6
CONTINUOUS
 62
     1
100
AcDbLine
 10
112.6890909549999
 20
165.008758752
 30
0.0
 11
112.600000002
 21
153.4000000009999
 31
0.0
  0
LINE
  5
32E
330
1F
100
AcDbEntity
  8
0
  6
CONTINUOUS
 62
     1
100
AcDbLine
 10
110.1949142479998
 20
162.299926562
 30
0.0
 11
111.1949142479998
 21
162.299926562
 31
0.0
  0
LINE
  5
32F
330
1F
100
AcDbEntity
  8
0
  6
CONTINUOUS
 62
     1
100
AcDbLine
 10
111.1949142479998
 20
162.299926562
 30
0.0
 11
111.194914247
 21
158.599926562
 31
0.0
  0
LINE
  5
330
330
1F
100
AcDbEntity
  8
0
  6
CONTINUOUS
 62
     1
100
AcDbLine
 10
110.1949142479998
 20
175.799926562
 30
0.0
 11
110.1949142479998
 21
162.299926562
 31
0.0
  0
LINE
  5
331
330
1F
100
AcDbEntity
  8
0
  6
CONTINUOUS
 62
     1
100
AcDbLine
 10
109.000000003
 20
158.400000001
 30
0.0
 11
112.638372301
 21
158.400000001
 31
0.0
  0
LINE
  5
332
330
1F
100
AcDbEntity
  8
0
  6
CONTINUOUS
 62
     1
100
AcDbLine
 10
100.000000002
 20
155.400000002
 30
0.0
 11
109.000000002
 21
155.400000001
 31
0.0
  0
LINE
  5
333
330
1F
100
AcDbEntity
  8
0
  6
CONTINUOUS
 62
     1
100
AcDbLine
 10
109.000000002
 20
155.400000001
 30
0.0
 11
109.000000003
 21
158.400000001
 31
0.0
  0
LINE
  5
334
330
1F
100
AcDbEntity
  8
0
  6
CONTINUOUS
 62
     1
100
AcDbLine
 10
111.1955023119999
 20
158.600000001
 30
0.0
 11
106.995502312
 21
158.600000001
 31
0.0
  0
LINE
  5
335
330
1F
100
AcDbEntity
  8
0
  6
CONTINUOUS
 62
     1
100
AcDbLine
 10
114.3443523009999
 20
176.8000000009998
 30
0.0
 11
113.783288143
 21
176.8000000009998
 31
0.0
  0
ARC
  5
336
330
1F
100
AcDbEntity
  8
0
  6
CONTINUOUS
 62
     1
100
AcDbCircle
 10
113.783288143
 20
175.8000000009998
 30
0.0
 40
1.0
100
AcDbArc
 50
90.0
 51
180.0
  0
LINE
  5
337
330
1F
100
AcDbEntity
  8
0
  6
CONTINUOUS
 62
     1
100
AcDbLine
 10
113.783288143
 20
176.8000000009998
 30
0.0
 11
176.216711864
 21
176.799999999
 31
0.0
  0
LINE
  5
338
330
1F
100
AcDbEntity
  8
0
  6
CONTINUOUS
 62
     1
100
AcDbLine
 10
112.783288143
 20
175.8000000009998
 30
0.0
 11
112.6890909549999
 21
165.008758752
 31
0.0
  0
LINE
  5
339
330
1F
100
AcDbEntity
  8
0
  6
CONTINUOUS
 62
     1
100
AcDbLine
 10
107.3949142479998
 20
175.999926562
 30
0.0
 11
107.3949142479998
 21
175.799926562
 31
0.0
  0
LINE
  5
33A
330
1F
100
AcDbEntity
  8
0
  6
CONTINUOUS
 62
     1
100
AcDbLine
 10
107.3949142479998
 20
175.799926562
 30
0.0
 11
110.1949142479998
 21
175.799926562
 31
0.0
  0
LINE
  5
33B
330
1F
100
AcDbEntity
  8
0
  6
CONTINUOUS
 62
     1
100
AcDbLine
 10
101.794914248
 20
175.999926562
 30
0.0
 11
107.3949142479998
 21
175.999926562
 31
0.0
  0
LINE
  5
33C
330
1F
100
AcDbEntity
  8
0
  6
CONTINUOUS
 62
     1
100
AcDbLine
 10
101.794914248
 20
175.999926562
 30
0.0
 11
101.794914248
 21
174.199926562
 31
0.0
  0
LINE
  5
33D
330
1F
100
AcDbEntity
  8
0
  6
CONTINUOUS
 62
     1
100
AcDbLine
 10
98.35491424799999
 20
162.299926562
 30
0.0
 11
99.35491424799999
 21
162.299926562
 31
0.0
  0
LINE
  5
33E
330
1F
100
AcDbEntity
  8
0
  6
CONTINUOUS
 62
     1
100
AcDbLine
 10
100.154914248
 20
169.799926562
 30
0.0
 11
99.35491424799999
 21
169.799926562
 31
0.0
  0
LINE
  5
33F
330
1F
100
AcDbEntity
  8
0
  6
CONTINUOUS
 62
     1
100
AcDbLine
 10
101.794914248
 20
174.199926562
 30
0.0
 11
100.154914248
 21
169.799926562
 31
0.0
  0
LINE
  5
340
330
1F
100
AcDbEntity
  8
0
  6
CONTINUOUS
 62
     1
100
AcDbLine
 10
99.35491424799999
 20
169.799926562
 30
0.0
 11
99.35491424799999
 21
162.299926562
 31
0.0
  0
ARC
  5
341
330
1F
100
AcDbEntity
  8
0
  6
CONTINUOUS
 62
     1
100
AcDbCircle
 10
191.0000000009999
 20
106.999999998
 30
0.0
 40
1.0
100
AcDbArc
 50
0.0
 51
89.99999999899997
  0
LINE
  5
342
330
1F
100
AcDbEntity
  8
0
  6
CONTINUOUS
 62
     1
100
AcDbLine
 10
192.0000000009999
 20
106.999999998
 30
0.0
 11
191.999999999
 21
60.999999998
 31
0.0
  0
ARC
  5
343
330
1F
100
AcDbEntity
  8
0
  6
CONTINUOUS
 62
     1
100
AcDbCircle
 10
190.999999999
 20
60.999999998
 30
0.0
 40
1.0
100
AcDbArc
 50
270.0
 51
0.000000001
  0
LINE
  5
344
330
1F
100
AcDbEntity
  8
0
  6
CONTINUOUS
 62
     1
100
AcDbLine
 10
170.4999999989999
 20
61.54999999899999
 30
0.0
 11
170.4999999989999
 21
62.54999999899999
 31
0.0
  0
LINE
  5
345
330
1F
100
AcDbEntity
  8
0
  6
CONTINUOUS
 62
     1
100
AcDbLine
 10
170.4999999989999
 20
62.54999999899999
 30
0.0
 11
176.499999999
 21
62.54999999899999
 31
0.0
  0
LINE
  5
346
330
1F
100
AcDbEntity
  8
0
  6
CONTINUOUS
 62
     1
100
AcDbLine
 10
176.499999999
 20
62.54999999899999
 30
0.0
 11
176.499999999
 21
61.54999999899999
 31
0.0
  0
ARC
  5
347
330
1F
100
AcDbEntity
  8
0
  6
CONTINUOUS
 62
     1
100
AcDbCircle
 10
189.334999999
 20
62.549999998
 30
0.0
 40
1.0
100
AcDbArc
 50
270.0
 51
0.0
  0
LINE
  5
348
330
1F
100
AcDbEntity
  8
0
  6
CONTINUOUS
 62
     1
100
AcDbLine
 10
190.335000001
 20
105.4499999979997
 30
0.0
 11
190.334999999
 21
62.549999998
 31
0.0
  0
LINE
  5
349
330
1F
100
AcDbEntity
  8
0
  6
CONTINUOUS
 62
     1
100
AcDbLine
 10
190.499999999
 20
61.499999998
 30
0.0
 11
190.500000001
 21
106.4999999979998
 31
0.0
  0
LINE
  5
34A
330
1F
100
AcDbEntity
  8
0
  6
CONTINUOUS
 62
     1
100
AcDbLine
 10
100.665000001
 20
106.4500000029999
 30
0.0
 11
189.335000001
 21
106.449999998
 31
0.0
  0
ARC
  5
34B
330
1F
100
AcDbEntity
  8
0
  6
CONTINUOUS
 62
     1
100
AcDbCircle
 10
189.335000001
 20
105.4499999979997
 30
0.0
 40
1.0
100
AcDbArc
 50
0.000000001
 51
90.0
  0
LINE
  5
34C
330
1F
100
AcDbEntity
  8
0
  6
CONTINUOUS
 62
     1
100
AcDbLine
 10
190.500000001
 20
106.4999999979998
 30
0.0
 11
99.500000001
 21
106.5000000029999
 31
0.0
  0
LINE
  5
34D
330
1F
100
AcDbEntity
  8
0
  6
CONTINUOUS
 62
     1
100
AcDbLine
 10
176.5000000009996
 20
106.449999999
 30
0.0
 11
176.5000000009996
 21
105.4499999989999
 31
0.0
  0
LINE
  5
34E
330
1F
100
AcDbEntity
  8
0
  6
CONTINUOUS
 62
     1
100
AcDbLine
 10
176.5000000009996
 20
105.4499999989999
 30
0.0
 11
170.500000001
 21
105.4499999989999
 31
0.0
  0
LINE
  5
34F
330
1F
100
AcDbEntity
  8
0
  6
CONTINUOUS
 62
     1
100
AcDbLine
 10
170.500000001
 20
105.4499999989999
 30
0.0
 11
170.500000001
 21
106.449999999
 31
0.0
  0
LINE
  5
350
330
1F
100
AcDbEntity
  8
0
  6
CONTINUOUS
 62
     1
100
AcDbLine
 10
162.5850000009999
 20
103.7
 30
0.0
 11
160.9850000009998
 21
103.7
 31
0.0
  0
LINE
  5
351
330
1F
100
AcDbEntity
  8
0
  6
CONTINUOUS
 62
     1
100
AcDbLine
 10
160.985
 20
95.7
 30
0.0
 11
162.5849999999998
 21
95.7
 31
0.0
  0
LINE
  5
352
330
1F
100
AcDbEntity
  8
0
  6
CONTINUOUS
 62
     1
100
AcDbLine
 10
160.485000001
 20
104.2
 30
0.0
 11
162.5850000009999
 21
104.2
 31
0.0
  0
LINE
  5
353
330
1F
100
AcDbEntity
  8
0
  6
CONTINUOUS
 62
     1
100
AcDbLine
 10
160.485
 20
95.20000000000002
 30
0.0
 11
162.5849999999998
 21
95.20000000000002
 31
0.0
  0
LINE
  5
354
330
1F
100
AcDbEntity
  8
0
  6
CONTINUOUS
 62
     1
100
AcDbLine
 10
160.9850000009998
 20
103.7
 30
0.0
 11
160.985
 21
95.7
 31
0.0
  0
LINE
  5
355
330
1F
100
AcDbEntity
  8
0
  6
CONTINUOUS
 62
     1
100
AcDbLine
 10
160.485
 20
95.20000000000002
 30
0.0
 11
160.485000001
 21
104.2
 31
0.0
  0
LINE
  5
356
330
1F
100
AcDbEntity
  8
0
  6
CONTINUOUS
 62
     1
100
AcDbLine
 10
160.485
 20
89.74999999999999
 30
0.0
 11
160.485
 21
93.25000000000001
 31
0.0
  0
LINE
  5
357
330
1F
100
AcDbEntity
  8
0
  6
CONTINUOUS
 62
     1
100
AcDbLine
 10
160.485
 20
93.25000000000001
 30
0.0
 11
158.585
 21
93.25000000000001
 31
0.0
  0
LINE
  5
358
330
1F
100
AcDbEntity
  8
0
  6
CONTINUOUS
 62
     1
100
AcDbLine
 10
158.585
 20
93.25000000000001
 30
0.0
 11
158.585
 21
89.74999999999999
 31
0.0
  0
LINE
  5
359
330
1F
100
AcDbEntity
  8
0
  6
CONTINUOUS
 62
     1
100
AcDbLine
 10
158.585
 20
89.74999999999999
 30
0.0
 11
160.485
 21
89.74999999999999
 31
0.0
  0
LINE
  5
35A
330
1F
100
AcDbEntity
  8
0
  6
CONTINUOUS
 62
     1
100
AcDbLine
 10
160.485
 20
78.25
 30
0.0
 11
160.4849999989999
 21
74.75
 31
0.0
  0
LINE
  5
35B
330
1F
100
AcDbEntity
  8
0
  6
CONTINUOUS
 62
     1
100
AcDbLine
 10
160.4849999989999
 20
74.75
 30
0.0
 11
158.5849999989999
 21
74.75
 31
0.0
  0
LINE
  5
35C
330
1F
100
AcDbEntity
  8
0
  6
CONTINUOUS
 62
     1
100
AcDbLine
 10
158.5849999989999
 20
74.75
 30
0.0
 11
158.585
 21
78.25
 31
0.0
  0
LINE
  5
35D
330
1F
100
AcDbEntity
  8
0
  6
CONTINUOUS
 62
     1
100
AcDbLine
 10
158.585
 20
78.25
 30
0.0
 11
160.485
 21
78.25
 31
0.0
  0
LINE
  5
35E
330
1F
100
AcDbEntity
  8
0
  6
CONTINUOUS
 62
     1
100
AcDbLine
 10
160.9849999989999
 20
64.29999999999998
 30
0.0
 11
160.9849999989999
 21
72.29999999999998
 31
0.0
  0
LINE
  5
35F
330
1F
100
AcDbEntity
  8
0
  6
CONTINUOUS
 62
     1
100
AcDbLine
 10
160.9849999989999
 20
72.29999999999998
 30
0.0
 11
162.5849999989999
 21
72.29999999999998
 31
0.0
  0
LINE
  5
360
330
1F
100
AcDbEntity
  8
0
  6
CONTINUOUS
 62
     1
100
AcDbLine
 10
160.4849999989999
 20
63.79999999999999
 30
0.0
 11
160.4849999989999
 21
72.79999999999998
 31
0.0
  0
LINE
  5
361
330
1F
100
AcDbEntity
  8
0
  6
CONTINUOUS
 62
     1
100
AcDbLine
 10
160.4849999989999
 20
72.79999999999998
 30
0.0
 11
162.5849999989999
 21
72.79999999999998
 31
0.0
  0
LINE
  5
362
330
1F
100
AcDbEntity
  8
0
  6
CONTINUOUS
 62
     1
100
AcDbLine
 10
162.5849999989999
 20
64.29999999999998
 30
0.0
 11
160.9849999989999
 21
64.29999999999998
 31
0.0
  0
LINE
  5
363
330
1F
100
AcDbEntity
  8
0
  6
CONTINUOUS
 62
     1
100
AcDbLine
 10
160.4849999989999
 20
63.79999999999999
 30
0.0
 11
162.5849999989999
 21
63.79999999999999
 31
0.0
  0
LINE
  5
364
330
1F
100
AcDbEntity
  8
0
  6
CONTINUOUS
 62
     1
100
AcDbLine
 10
162.5850000009999
 20
106.45
 30
0.0
 11
162.5849999989999
 21
61.55
 31
0.0
  0
ARC
  5
365
330
1F
100
AcDbEntity
  8
0
  6
CONTINUOUS
 62
     1
100
AcDbCircle
 10
120.165
 20
83.00000000199998
 30
0.0
 40
2.0
100
AcDbArc
 50
179.9999999989998
 51
270.0
  0
LINE
  5
366
330
1F
100
AcDbEntity
  8
0
  6
CONTINUOUS
 62
     1
100
AcDbLine
 10
120.165
 20
81.000000002
 30
0.0
 11
122.915
 21
81.000000002
 31
0.0
  0
ARC
  5
367
330
1F
100
AcDbEntity
  8
0
  6
CONTINUOUS
 62
     1
100
AcDbCircle
 10
122.915
 20
83.00000000199998
 30
0.0
 40
2.0
100
AcDbArc
 50
270.0
 51
336.153311249
  0
LINE
  5
368
330
1F
100
AcDbEntity
  8
0
  6
CONTINUOUS
 62
     1
100
AcDbLine
 10
124.9149999999999
 20
83.500000001
 30
0.0
 11
124.9149999999999
 21
84.50000000100002
 31
0.0
  0
ARC
  5
369
330
1F
100
AcDbEntity
  8
0
  6
CONTINUOUS
 62
     1
100
AcDbCircle
 10
119.815
 20
83.500000002
 30
0.0
 40
5.099999999999996
100
AcDbArc
 50
270.0
 51
0.0
  0
ARC
  5
36A
330
1F
100
AcDbEntity
  8
0
  6
CONTINUOUS
 62
     1
100
AcDbCircle
 10
119.815
 20
84.500000002
 30
0.0
 40
5.099999999999996
100
AcDbArc
 50
0.0
 51
90.0
  0
ARC
  5
36B
330
1F
100
AcDbEntity
  8
0
  6
CONTINUOUS
 62
     1
100
AcDbCircle
 10
115.015
 20
83.500000002
 30
0.0
 40
5.099999999999996
100
AcDbArc
 50
180.0
 51
270.0
  0
ARC
  5
36C
330
1F
100
AcDbEntity
  8
0
  6
CONTINUOUS
 62
     1
100
AcDbCircle
 10
114.665
 20
83.00000000199998
 30
0.0
 40
2.0
100
AcDbArc
 50
270.0
 51
0.0
  0
LINE
  5
36D
330
1F
100
AcDbEntity
  8
0
  6
CONTINUOUS
 62
     1
100
AcDbLine
 10
114.665
 20
81.000000002
 30
0.0
 11
111.915
 21
81.000000002
 31
0.0
  0
ARC
  5
36E
330
1F
100
AcDbEntity
  8
0
  6
CONTINUOUS
 62
     1
100
AcDbCircle
 10
111.915
 20
83.00000000199998
 30
0.0
 40
2.0
100
AcDbArc
 50
203.8466887509999
 51
270.0
  0
LINE
  5
36F
330
1F
100
AcDbEntity
  8
0
  6
CONTINUOUS
 62
     1
100
AcDbLine
 10
115.014999999
 20
78.40000000199998
 30
0.0
 11
119.815
 21
78.40000000199998
 31
0.0
  0
LINE
  5
370
330
1F
100
AcDbEntity
  8
0
  6
CONTINUOUS
 62
     1
100
AcDbLine
 10
109.915
 20
83.500000002
 30
0.0
 11
109.915
 21
84.500000002
 31
0.0
  0
ARC
  5
371
330
1F
100
AcDbEntity
  8
0
  6
CONTINUOUS
 62
     1
100
AcDbCircle
 10
115.015
 20
84.500000002
 30
0.0
 40
5.099999999999996
100
AcDbArc
 50
90.0
 51
180.0
  0
LINE
  5
372
330
1F
100
AcDbEntity
  8
0
  6
CONTINUOUS
 62
     1
100
AcDbLine
 10
118.565
 20
88.050000002
 30
0.0
 11
118.565
 21
87.050000002
 31
0.0
  0
LINE
  5
373
330
1F
100
AcDbEntity
  8
0
  6
CONTINUOUS
 62
     1
100
AcDbLine
 10
116.2649999999999
 20
88.050000002
 30
0.0
 11
116.2649999999999
 21
87.050000002
 31
0.0
  0
ARC
  5
374
330
1F
100
AcDbEntity
  8
0
  6
CONTINUOUS
 62
     1
100
AcDbCircle
 10
117.415
 20
87.550000002
 30
0.0
 40
1.1
100
AcDbArc
 50
312.98588608
 51
227.01411392
  0
ARC
  5
375
330
1F
100
AcDbEntity
  8
0
  6
CONTINUOUS
 62
     1
100
AcDbCircle
 10
117.415
 20
87.050000002
 30
0.0
 40
1.149999999999999
100
AcDbArc
 50
310.705706831
 51
0.0
  0
ARC
  5
376
330
1F
100
AcDbEntity
  8
0
  6
CONTINUOUS
 62
     1
100
AcDbCircle
 10
117.415
 20
87.050000002
 30
0.0
 40
1.149999999999999
100
AcDbArc
 50
180.0
 51
229.294293169
  0
LINE
  5
377
330
1F
100
AcDbEntity
  8
0
  6
CONTINUOUS
 62
     1
100
AcDbLine
 10
118.165
 20
83.00000000199998
 30
0.0
 11
118.165
 21
86.745326155
 31
0.0
  0
LINE
  5
378
330
1F
100
AcDbEntity
  8
0
  6
CONTINUOUS
 62
     1
100
AcDbLine
 10
116.665
 20
86.745326155
 30
0.0
 11
116.665
 21
83.00000000199998
 31
0.0
  0
LINE
  5
379
330
1F
100
AcDbEntity
  8
0
  6
CONTINUOUS
 62
     1
100
AcDbLine
 10
119.815
 20
89.600000002
 30
0.0
 11
115.015
 21
89.600000002
 31
0.0
  0
ARC
  5
37A
330
1F
100
AcDbEntity
  8
0
  6
CONTINUOUS
 62
     1
100
AcDbCircle
 10
117.415
 20
88.050000002
 30
0.0
 40
1.149999999999999
100
AcDbArc
 50
0.0
 51
180.0
  0
LINE
  5
37B
330
1F
100
AcDbEntity
  8
0
  6
CONTINUOUS
 62
     1
100
AcDbLine
 10
113.499999999
 20
61.550000002
 30
0.0
 11
113.499999999
 21
62.55000000199999
 31
0.0
  0
LINE
  5
37C
330
1F
100
AcDbEntity
  8
0
  6
CONTINUOUS
 62
     1
100
AcDbLine
 10
113.499999999
 20
62.55000000199999
 30
0.0
 11
119.499999999
 21
62.55000000199999
 31
0.0
  0
LINE
  5
37D
330
1F
100
AcDbEntity
  8
0
  6
CONTINUOUS
 62
     1
100
AcDbLine
 10
119.499999999
 20
62.55000000199999
 30
0.0
 11
119.499999999
 21
61.550000002
 31
0.0
  0
ARC
  5
37E
330
1F
100
AcDbEntity
  8
0
  6
CONTINUOUS
 62
     1
100
AcDbCircle
 10
100.664999999
 20
62.550000003
 30
0.0
 40
1.0
100
AcDbArc
 50
180.0
 51
270.0
  0
ARC
  5
37F
330
1F
100
AcDbEntity
  8
0
  6
CONTINUOUS
 62
     1
100
AcDbCircle
 10
98.999999999
 20
61.000000003
 30
0.0
 40
1.0
100
AcDbArc
 50
180.0
 51
270.0
  0
LINE
  5
380
330
1F
100
AcDbEntity
  8
0
  6
CONTINUOUS
 62
     1
100
AcDbLine
 10
99.66499999900002
 20
62.550000003
 30
0.0
 11
99.66499999900002
 21
74.00000000299998
 31
0.0
  0
LINE
  5
381
330
1F
100
AcDbEntity
  8
0
  6
CONTINUOUS
 62
     1
100
AcDbLine
 10
99.49999999900001
 20
74.00000000299998
 30
0.0
 11
99.49999999900001
 21
61.500000003
 31
0.0
  0
LINE
  5
382
330
1F
100
AcDbEntity
  8
0
  6
CONTINUOUS
 62
     1
100
AcDbLine
 10
97.999999999
 20
61.000000003
 30
0.0
 11
97.999999999
 21
74.00000000299998
 31
0.0
  0
LINE
  5
383
330
1F
100
AcDbEntity
  8
0
  6
CONTINUOUS
 62
     1
100
AcDbLine
 10
190.999999999
 20
59.99999999799999
 30
0.0
 11
98.999999999
 21
60.000000003
 31
0.0
  0
LINE
  5
384
330
1F
100
AcDbEntity
  8
0
  6
CONTINUOUS
 62
     1
100
AcDbLine
 10
189.334999999
 20
61.54999999800001
 30
0.0
 11
100.664999999
 21
61.550000003
 31
0.0
  0
LINE
  5
385
330
1F
100
AcDbEntity
  8
0
  6
CONTINUOUS
 62
     1
100
AcDbLine
 10
99.49999999900001
 20
61.500000003
 30
0.0
 11
190.499999999
 21
61.499999998
 31
0.0
  0
LINE
  5
386
330
1F
100
AcDbEntity
  8
0
  6
CONTINUOUS
 62
     1
100
AcDbLine
 10
128.914999999
 20
72.750000001
 30
0.0
 11
128.915
 21
95.250000001
 31
0.0
  0
LINE
  5
387
330
1F
100
AcDbEntity
  8
0
  6
CONTINUOUS
 62
     3
100
AcDbLine
 10
126.9149999989999
 20
72.65000000100001
 30
0.0
 11
126.9149999989999
 21
61.550000001
 31
0.0
  0
LINE
  5
388
330
1F
100
AcDbEntity
  8
0
  6
CONTINUOUS
 62
     1
100
AcDbLine
 10
127.414999999
 20
72.65000000100001
 30
0.0
 11
126.414999999
 21
72.65000000100001
 31
0.0
  0
LINE
  5
389
330
1F
100
AcDbEntity
  8
0
  6
CONTINUOUS
 62
     1
100
AcDbLine
 10
128.914999999
 20
72.750000001
 30
0.0
 11
126.414999999
 21
72.750000001
 31
0.0
  0
LINE
  5
38A
330
1F
100
AcDbEntity
  8
0
  6
CONTINUOUS
 62
     1
100
AcDbLine
 10
127.414999999
 20
72.65000000100001
 30
0.0
 11
127.414999999
 21
61.550000001
 31
0.0
  0
LINE
  5
38B
330
1F
100
AcDbEntity
  8
0
  6
CONTINUOUS
 62
     1
100
AcDbLine
 10
126.414999999
 20
72.65000000100001
 30
0.0
 11
126.414999999
 21
73.90000000100001
 31
0.0
  0
LINE
  5
38C
330
1F
100
AcDbEntity
  8
0
  6
CONTINUOUS
 62
     1
100
AcDbLine
 10
127.415000001
 20
106.450000001
 30
0.0
 11
127.415
 21
95.350000001
 31
0.0
  0
LINE
  5
38D
330
1F
100
AcDbEntity
  8
0
  6
CONTINUOUS
 62
     1
100
AcDbLine
 10
107.515
 20
94.100000002
 30
0.0
 11
126.415
 21
94.100000001
 31
0.0
  0
LINE
  5
38E
330
1F
100
AcDbEntity
  8
0
  6
CONTINUOUS
 62
     1
100
AcDbLine
 10
127.415
 20
95.350000001
 30
0.0
 11
126.415
 21
95.350000001
 31
0.0
  0
LINE
  5
38F
330
1F
100
AcDbEntity
  8
0
  6
CONTINUOUS
 62
     1
100
AcDbLine
 10
128.915
 20
95.250000001
 30
0.0
 11
126.415
 21
95.250000001
 31
0.0
  0
LINE
  5
390
330
1F
100
AcDbEntity
  8
0
  6
CONTINUOUS
 62
     1
100
AcDbLine
 10
126.415
 20
95.350000001
 30
0.0
 11
126.415
 21
94.100000001
 31
0.0
  0
LINE
  5
391
330
1F
100
AcDbEntity
  8
0
  6
CONTINUOUS
 62
     1
100
AcDbLine
 10
113.500000001
 20
106.450000002
 30
0.0
 11
113.500000001
 21
105.450000002
 31
0.0
  0
LINE
  5
392
330
1F
100
AcDbEntity
  8
0
  6
CONTINUOUS
 62
     1
100
AcDbLine
 10
113.500000001
 20
105.450000002
 30
0.0
 11
119.500000001
 21
105.450000002
 31
0.0
  0
LINE
  5
393
330
1F
100
AcDbEntity
  8
0
  6
CONTINUOUS
 62
     1
100
AcDbLine
 10
119.500000001
 20
105.450000002
 30
0.0
 11
119.500000001
 21
106.450000002
 31
0.0
  0
ARC
  5
394
330
1F
100
AcDbEntity
  8
0
  6
CONTINUOUS
 62
     1
100
AcDbCircle
 10
100.665000001
 20
105.4500000029999
 30
0.0
 40
1.0
100
AcDbArc
 50
90.0
 51
180.0
  0
LINE
  5
395
330
1F
100
AcDbEntity
  8
0
  6
CONTINUOUS
 62
     1
100
AcDbLine
 10
99.665
 20
94.000000003
 30
0.0
 11
99.66500000100001
 21
105.4500000029999
 31
0.0
  0
LINE
  5
396
330
1F
100
AcDbEntity
  8
0
  6
CONTINUOUS
 62
     1
100
AcDbLine
 10
99.500000001
 20
106.5000000029999
 30
0.0
 11
99.50000000000001
 21
94.000000003
 31
0.0
  0
LINE
  5
397
330
1F
100
AcDbEntity
  8
0
  6
CONTINUOUS
 62
     1
100
AcDbLine
 10
103.515
 20
95.350000002
 30
0.0
 11
102.265000004
 21
94.100000003
 31
0.0
  0
LINE
  5
398
330
1F
100
AcDbEntity
  8
0
  6
CONTINUOUS
 62
     1
100
AcDbLine
 10
107.515
 20
95.350000002
 30
0.0
 11
103.515
 21
95.350000002
 31
0.0
  0
LINE
  5
399
330
1F
100
AcDbEntity
  8
0
  6
CONTINUOUS
 62
     1
100
AcDbLine
 10
107.515
 20
95.350000002
 30
0.0
 11
107.515
 21
94.100000002
 31
0.0
  0
LINE
  5
39A
330
1F
100
AcDbEntity
  8
0
  6
CONTINUOUS
 62
     1
100
AcDbLine
 10
99.665
 20
94.100000003
 30
0.0
 11
102.265000004
 21
94.100000003
 31
0.0
  0
LINE
  5
39B
330
1F
100
AcDbEntity
  8
0
  6
CONTINUOUS
 62
     1
100
AcDbLine
 10
128.5323810429999
 20
94.000000001
 30
0.0
 11
98.0
 21
94.000000003
 31
0.0
  0
LINE
  5
39C
330
1F
100
AcDbEntity
  8
0
  6
CONTINUOUS
 62
     1
100
AcDbLine
 10
103.514999999
 20
72.650000002
 30
0.0
 11
102.265000003
 21
73.900000003
 31
0.0
  0
LINE
  5
39D
330
1F
100
AcDbEntity
  8
0
  6
CONTINUOUS
 62
     1
100
AcDbLine
 10
99.66499999900002
 20
73.900000003
 30
0.0
 11
102.265000003
 21
73.900000003
 31
0.0
  0
LINE
  5
39E
330
1F
100
AcDbEntity
  8
0
  6
CONTINUOUS
 62
     1
100
AcDbLine
 10
107.514999999
 20
72.650000002
 30
0.0
 11
103.514999999
 21
72.650000002
 31
0.0
  0
LINE
  5
39F
330
1F
100
AcDbEntity
  8
0
  6
CONTINUOUS
 62
     1
100
AcDbLine
 10
107.514999999
 20
72.650000002
 30
0.0
 11
107.514999999
 21
73.900000002
 31
0.0
  0
LINE
  5
3A0
330
1F
100
AcDbEntity
  8
0
  6
CONTINUOUS
 62
     1
100
AcDbLine
 10
107.514999999
 20
73.900000002
 30
0.0
 11
126.414999999
 21
73.90000000100001
 31
0.0
  0
LINE
  5
3A1
330
1F
100
AcDbEntity
  8
0
  6
CONTINUOUS
 62
     1
100
AcDbLine
 10
97.999999999
 20
74.00000000299998
 30
0.0
 11
128.5323810419999
 21
74.000000001
 31
0.0
  0
ARC
  5
3A2
330
1F
100
AcDbEntity
  8
0
  6
CONTINUOUS
 62
     1
100
AcDbCircle
 10
96.414999999
 20
75.00000000299998
 30
0.0
 40
1.0
100
AcDbArc
 50
180.0
 51
270.0
  0
LINE
  5
3A3
330
1F
100
AcDbEntity
  8
0
  6
CONTINUOUS
 62
     1
100
AcDbLine
 10
95.415
 20
93.000000003
 30
0.0
 11
95.414999999
 21
75.00000000299998
 31
0.0
  0
ARC
  5
3A4
330
1F
100
AcDbEntity
  8
0
  6
CONTINUOUS
 62
     1
100
AcDbCircle
 10
96.415
 20
93.000000003
 30
0.0
 40
1.0
100
AcDbArc
 50
90.0
 51
180.0
  0
LINE
  5
3A5
330
1F
100
AcDbEntity
  8
0
  6
CONTINUOUS
 62
     1
100
AcDbLine
 10
98.0
 20
94.000000003
 30
0.0
 11
96.415
 21
94.000000003
 31
0.0
  0
LINE
  5
3A6
330
1F
100
AcDbEntity
  8
0
  6
CONTINUOUS
 62
     1
100
AcDbLine
 10
96.414999999
 20
74.00000000299998
 30
0.0
 11
97.999999999
 21
74.00000000299998
 31
0.0
  0
LINE
  5
3A7
330
1F
100
AcDbEntity
  8
0
  6
CONTINUOUS
 62
     1
100
AcDbLine
 10
98.0
 20
94.000000003
 30
0.0
 11
98.000000001
 21
107.000000003
 31
0.0
  0
ARC
  5
3A8
330
1F
100
AcDbEntity
  8
0
  6
CONTINUOUS
 62
     1
100
AcDbCircle
 10
99.000000001
 20
107.000000003
 30
0.0
 40
1.0
100
AcDbArc
 50
90.0
 51
180.0
  0
LINE
  5
3A9
330
1F
100
AcDbEntity
  8
0
  6
CONTINUOUS
 62
     1
100
AcDbLine
 10
99.000000001
 20
108.000000003
 30
0.0
 11
191.0000000009999
 21
107.9999999979998
 31
0.0
  0
LINE
  5
3AA
330
1F
100
AcDbEntity
  8
0
  6
CONTINUOUS
 62
     3
100
AcDbLine
 10
107.514999999
 20
72.750000002
 30
0.0
 11
106.264999999
 21
74.000000002
 31
0.0
  0
LINE
  5
3AB
330
1F
100
AcDbEntity
  8
0
  6
CONTINUOUS
 62
     3
100
AcDbLine
 10
107.515
 20
95.250000002
 30
0.0
 11
106.265
 21
94.000000002
 31
0.0
  0
LINE
  5
3AC
330
1F
100
AcDbEntity
  8
0
  6
CONTINUOUS
 62
     3
100
AcDbLine
 10
180.8050857579999
 20
161.299926559
 30
0.0
 11
180.8050857579999
 21
160.5999265589999
 31
0.0
  0
LINE
  5
3AD
330
1F
100
AcDbEntity
  8
0
  6
CONTINUOUS
 62
     3
100
AcDbLine
 10
180.8050857579999
 20
160.5999265589999
 30
0.0
 11
179.8050857579999
 21
160.5999265589999
 31
0.0
  0
LINE
  5
3AE
330
1F
100
AcDbEntity
  8
0
  6
CONTINUOUS
 62
     3
100
AcDbLine
 10
179.8050857579999
 20
160.5999265589999
 30
0.0
 11
179.8050857579999
 21
162.299926559
 31
0.0
  0
LINE
  5
3AF
330
1F
100
AcDbEntity
  8
0
  6
CONTINUOUS
 62
     3
100
AcDbLine
 10
190.6450857579999
 20
162.299926559
 30
0.0
 11
190.6450857579999
 21
160.5999265589999
 31
0.0
  0
LINE
  5
3B0
330
1F
100
AcDbEntity
  8
0
  6
CONTINUOUS
 62
     3
100
AcDbLine
 10
190.6450857579999
 20
160.5999265589999
 30
0.0
 11
189.6450857579999
 21
160.5999265589999
 31
0.0
  0
LINE
  5
3B1
330
1F
100
AcDbEntity
  8
0
  6
CONTINUOUS
 62
     3
100
AcDbLine
 10
189.6450857579999
 20
160.5999265589999
 30
0.0
 11
189.6450857579999
 21
161.299926559
 31
0.0
  0
LINE
  5
3B2
330
1F
100
AcDbEntity
  8
0
  6
CONTINUOUS
 62
     3
100
AcDbLine
 10
189.6450857579999
 20
161.299926559
 30
0.0
 11
180.8050857579999
 21
161.299926559
 31
0.0
  0
LINE
  5
3B3
330
1F
100
AcDbEntity
  8
0
  6
CONTINUOUS
 62
     3
100
AcDbLine
 10
109.1949142479998
 20
161.299926562
 30
0.0
 11
109.1949142479998
 21
160.599926562
 31
0.0
  0
LINE
  5
3B4
330
1F
100
AcDbEntity
  8
0
  6
CONTINUOUS
 62
     3
100
AcDbLine
 10
109.1949142479998
 20
160.599926562
 30
0.0
 11
110.1949142479998
 21
160.599926562
 31
0.0
  0
LINE
  5
3B5
330
1F
100
AcDbEntity
  8
0
  6
CONTINUOUS
 62
     3
100
AcDbLine
 10
110.1949142479998
 20
160.599926562
 30
0.0
 11
110.1949142479998
 21
162.299926562
 31
0.0
  0
LINE
  5
3B6
330
1F
100
AcDbEntity
  8
0
  6
CONTINUOUS
 62
     3
100
AcDbLine
 10
99.35491424799999
 20
162.299926562
 30
0.0
 11
99.35491424799999
 21
160.599926562
 31
0.0
  0
LINE
  5
3B7
330
1F
100
AcDbEntity
  8
0
  6
CONTINUOUS
 62
     3
100
AcDbLine
 10
99.35491424799999
 20
160.599926562
 30
0.0
 11
100.3549142479998
 21
160.599926562
 31
0.0
  0
LINE
  5
3B8
330
1F
100
AcDbEntity
  8
0
  6
CONTINUOUS
 62
     3
100
AcDbLine
 10
100.3549142479998
 20
160.599926562
 30
0.0
 11
100.3549142479998
 21
161.299926562
 31
0.0
  0
LINE
  5
3B9
330
1F
100
AcDbEntity
  8
0
  6
CONTINUOUS
 62
     3
100
AcDbLine
 10
100.3549142479998
 20
161.299926562
 30
0.0
 11
109.1949142479998
 21
161.299926562
 31
0.0
  0
ARC
  5
3BA
330
1F
100
AcDbEntity
  8
0
  6
CONTINUOUS
 62
     3
100
AcDbCircle
 10
159.100000002
 20
140.4999999989998
 30
0.0
 40
0.5
100
AcDbArc
 50
180.0
 51
270.0
  0
LINE
  5
3BB
330
1F
100
AcDbEntity
  8
0
  6
CONTINUOUS
 62
     3
100
AcDbLine
 10
159.100000002
 20
139.9999999989999
 30
0.0
 11
160.600000002
 21
140.4999999989998
 31
0.0
  0
LINE
  5
3BC
330
1F
100
AcDbEntity
  8
0
  6
CONTINUOUS
 62
     1
100
AcDbLine
 10
161.000000002
 20
139.299999999
 30
0.0
 11
162.6104734189999
 21
139.299999999
 31
0.0
  0
LINE
  5
3BD
330
1F
100
AcDbEntity
  8
0
  6
CONTINUOUS
 62
     1
100
AcDbLine
 10
162.6104734189999
 20
139.299999999
 30
0.0
 11
162.600000002
 21
140.4999999989998
 31
0.0
  0
LINE
  5
3BE
330
1F
100
AcDbEntity
  8
0
  6
CONTINUOUS
 62
     1
100
AcDbLine
 10
161.000000002
 20
137.7999999989999
 30
0.0
 11
161.000000002
 21
139.299999999
 31
0.0
  0
LINE
  5
3BF
330
1F
100
AcDbEntity
  8
0
  6
CONTINUOUS
 62
     1
100
AcDbLine
 10
162.637525533
 20
136.199999999
 30
0.0
 11
162.982222224
 21
136.199999999
 31
0.0
  0
LINE
  5
3C0
330
1F
100
AcDbEntity
  8
0
  6
CONTINUOUS
 62
     1
100
AcDbLine
 10
162.637525533
 20
136.199999999
 30
0.0
 11
161.000000002
 21
137.7999999989999
 31
0.0
  0
LINE
  5
3C1
330
1F
100
AcDbEntity
  8
0
  6
CONTINUOUS
 62
     3
100
AcDbLine
 10
162.6104734189999
 20
139.299999999
 30
0.0
 11
162.637525533
 21
136.199999999
 31
0.0
  0
POINT
  5
3C2
330
1F
100
AcDbEntity
  8
0
  6
CONTINUOUS
 62
     1
100
AcDbPoint
 10
3.141492651413532E+99
 20
1.269263905633295E+99
 30
0.0
  0
POINT
  5
3C3
330
1F
100
AcDbEntity
  8
0
  6
CONTINUOUS
 62
     1
100
AcDbPoint
 10
3.141492651413532E+99
 20
1.269263905633295E+99
 30
0.0
  0
POINT
  5
3C4
330
1F
100
AcDbEntity
  8
0
  6
CONTINUOUS
 62
     1
100
AcDbPoint
 10
-1.470580238991736E+63
 20
-5.941616374145984E+73
 30
0.0
  0
POINT
  5
3C5
330
1F
100
AcDbEntity
  8
0
  6
CONTINUOUS
 62
     1
100
AcDbPoint
 10
-1.470580238991736E+63
 20
-5.941616374145984E+73
 30
0.0
  0
POINT
  5
3C6
330
1F
100
AcDbEntity
  8
0
  6
CONTINUOUS
 62
     1
100
AcDbPoint
 10
3.141492651413532E+99
 20
1.269263905633295E+99
 30
0.0
  0
POINT
  5
3C7
330
1F
100
AcDbEntity
  8
0
  6
CONTINUOUS
 62
     1
100
AcDbPoint
 10
3.141492651413532E+99
 20
1.269263905633295E+99
 30
0.0
  0
POINT
  5
3C8
330
1F
100
AcDbEntity
  8
0
  6
CONTINUOUS
 62
     1
100
AcDbPoint
 10
-1.470580238991736E+63
 20
-5.941616374145984E+73
 30
0.0
  0
POINT
  5
3C9
330
1F
100
AcDbEntity
  8
0
  6
CONTINUOUS
 62
     1
100
AcDbPoint
 10
-1.470580238991736E+63
 20
-5.941616374145984E+73
 30
0.0
  0
POINT
  5
3CA
330
1F
100
AcDbEntity
  8
0
  6
CONTINUOUS
 62
     1
100
AcDbPoint
 10
3.141492651413532E+99
 20
1.269263905633295E+99
 30
0.0
  0
POINT
  5
3CB
330
1F
100
AcDbEntity
  8
0
  6
CONTINUOUS
 62
     1
100
AcDbPoint
 10
3.141492651413532E+99
 20
1.269263905633295E+99
 30
0.0
  0
POINT
  5
3CC
330
1F
100
AcDbEntity
  8
0
  6
CONTINUOUS
 62
     1
100
AcDbPoint
 10
-1.470580238991736E+63
 20
-5.941616374145984E+73
 30
0.0
  0
POINT
  5
3CD
330
1F
100
AcDbEntity
  8
0
  6
CONTINUOUS
 62
     1
100
AcDbPoint
 10
-1.470580238991736E+63
 20
-5.941616374145984E+73
 30
0.0
  0
POINT
  5
3CE
330
1F
100
AcDbEntity
  8
0
  6
CONTINUOUS
 62
     1
100
AcDbPoint
 10
3.141492651413532E+99
 20
1.269263905633295E+99
 30
0.0
  0
POINT
  5
3CF
330
1F
100
AcDbEntity
  8
0
  6
CONTINUOUS
 62
     1
100
AcDbPoint
 10
3.141492651413532E+99
 20
1.269263905633295E+99
 30
0.0
  0
POINT
  5
3D0
330
1F
100
AcDbEntity
  8
0
  6
CONTINUOUS
 62
     1
100
AcDbPoint
 10
-1.470580238991736E+63
 20
-5.941616374145984E+73
 30
0.0
  0
POINT
  5
3D1
330
1F
100
AcDbEntity
  8
0
  6
CONTINUOUS
 62
     1
100
AcDbPoint
 10
-1.470580238991736E+63
 20
-5.941616374145984E+73
 30
0.0
  0
POINT
  5
3D2
330
1F
100
AcDbEntity
  8
0
  6
CONTINUOUS
 62
     1
100
AcDbPoint
 10
3.141492651413532E+99
 20
1.269263905633295E+99
 30
0.0
  0
POINT
  5
3D3
330
1F
100
AcDbEntity
  8
0
  6
CONTINUOUS
 62
     1
100
AcDbPoint
 10
3.141492651413532E+99
 20
1.269263905633295E+99
 30
0.0
  0
POINT
  5
3D4
330
1F
100
AcDbEntity
  8
0
  6
CONTINUOUS
 62
     1
100
AcDbPoint
 10
-1.470580238991736E+63
 20
-5.941616374145984E+73
 30
0.0
  0
POINT
  5
3D5
330
1F
100
AcDbEntity
  8
0
  6
CONTINUOUS
 62
     1
100
AcDbPoint
 10
-1.470580238991736E+63
 20
-5.941616374145984E+73
 30
0.0
  0
POINT
  5
3D6
330
1F
100
AcDbEntity
  8
0
  6
CONTINUOUS
 62
     1
100
AcDbPoint
 10
3.141492651413532E+99
 20
1.269263905633295E+99
 30
0.0
  0
POINT
  5
3D7
330
1F
100
AcDbEntity
  8
0
  6
CONTINUOUS
 62
     1
100
AcDbPoint
 10
3.141492651413532E+99
 20
1.269263905633295E+99
 30
0.0
  0
POINT
  5
3D8
330
1F
100
AcDbEntity
  8
0
  6
CONTINUOUS
 62
     1
100
AcDbPoint
 10
-1.470580238991736E+63
 20
-5.941616374145984E+73
 30
0.0
  0
POINT
  5
3D9
330
1F
100
AcDbEntity
  8
0
  6
CONTINUOUS
 62
     1
100
AcDbPoint
 10
-1.470580238991736E+63
 20
-5.941616374145984E+73
 30
0.0
  0
LINE
  5
3DA
330
1F
100
AcDbEntity
  8
0
  6
CONTINUOUS
 62
     3
100
AcDbLine
 10
307.191111114
 20
138.15
 30
0.0
 11
308.532381045
 21
138.15
 31
0.0
  0
LINE
  5
3DB
330
1F
100
AcDbEntity
  8
0
  6
CONTINUOUS
 62
     3
100
AcDbLine
 10
387.0000000019998
 20
135.999999996
 30
0.0
 11
387.517638093
 21
137.9318516479999
 31
0.0
  0
LINE
  5
3DC
330
1F
100
AcDbEntity
  8
0
  6
CONTINUOUS
 62
     3
100
AcDbLine
 10
387.0000000019998
 20
135.999999996
 30
0.0
 11
386.482361912
 21
137.9318516479999
 31
0.0
  0
LINE
  5
3DD
330
1F
100
AcDbEntity
  8
0
  6
CONTINUOUS
 62
     3
100
AcDbLine
 10
387.0000000019998
 20
135.999999996
 30
0.0
 11
387.000000005
 21
176.7999999959999
 31
0.0
  0
LINE
  5
3DE
330
1F
100
AcDbEntity
  8
0
  6
CONTINUOUS
 62
     3
100
AcDbLine
 10
387.000000005
 20
176.7999999959999
 30
0.0
 11
386.482361915
 21
174.8681483429996
 31
0.0
  0
LINE
  5
3DF
330
1F
100
AcDbEntity
  8
0
  6
CONTINUOUS
 62
     3
100
AcDbLine
 10
387.000000005
 20
176.7999999959999
 30
0.0
 11
387.517638095
 21
174.8681483429996
 31
0.0
  0
LINE
  5
3E0
330
1F
100
AcDbEntity
  8
0
  6
CONTINUOUS
 62
     3
100
AcDbLine
 10
358.216713773
 20
176.799999997
 30
0.0
 11
388.000000005
 21
176.7999999959999
 31
0.0
  0
LINE
  5
3E1
330
1F
100
AcDbEntity
  8
0
  6
CONTINUOUS
 62
     3
100
AcDbLine
 10
373.0000000019998
 20
135.999999997
 30
0.0
 11
388.0000000019998
 21
135.999999996
 31
0.0
  0
LINE
  5
3E2
330
1F
100
AcDbEntity
  8
0
  6
CONTINUOUS
 62
     1
100
AcDbLine
 10
357.2167118649998
 20
175.799999997
 30
0.0
 11
357.3109090619999
 21
165.0087587479999
 31
0.0
  0
ARC
  5
3E3
330
1F
100
AcDbEntity
  8
0
  6
CONTINUOUS
 62
     1
100
AcDbCircle
 10
356.2167118649998
 20
175.799999998
 30
0.0
 40
1.0
100
AcDbArc
 50
0.0
 51
90.0
  0
LINE
  5
3E4
330
1F
100
AcDbEntity
  8
0
  6
CONTINUOUS
 62
     1
100
AcDbLine
 10
357.3109090619999
 20
165.0087587479999
 30
0.0
 11
357.4000000039997
 21
153.3999999969999
 31
0.0
  0
LINE
  5
3E5
330
1F
100
AcDbEntity
  8
0
  6
CONTINUOUS
 62
     1
100
AcDbLine
 10
372.0000000019998
 20
135.999999997
 30
0.0
 11
371.845263786
 21
152.399999997
 31
0.0
  0
ARC
  5
3E6
330
1F
100
AcDbEntity
  8
0
  6
CONTINUOUS
 62
     1
100
AcDbCircle
 10
370.8452637859999
 20
152.399999997
 30
0.0
 40
1.0
100
AcDbArc
 50
0.0
 51
90.0
  0
LINE
  5
3E7
330
1F
100
AcDbEntity
  8
0
  6
CONTINUOUS
 62
     1
100
AcDbLine
 10
370.500000004
 20
153.3999999969999
 30
0.0
 11
370.500000004
 21
154.899999997
 31
0.0
  0
LINE
  5
3E8
330
1F
100
AcDbEntity
  8
0
  6
CONTINUOUS
 62
     1
100
AcDbLine
 10
370.8452637859999
 20
153.3999999969999
 30
0.0
 11
357.4000000039997
 21
153.3999999969999
 31
0.0
  0
LINE
  5
3E9
330
1F
100
AcDbEntity
  8
0
  6
CONTINUOUS
 62
     1
100
AcDbLine
 10
371.395085759
 20
155.599926557
 30
0.0
 11
370.500000004
 21
154.406478884
 31
0.0
  0
LINE
  5
3EA
330
1F
100
AcDbEntity
  8
0
  6
CONTINUOUS
 62
     1
100
AcDbLine
 10
371.395085759
 20
158.599926557
 30
0.0
 11
371.395085759
 21
155.599926557
 31
0.0
  0
LINE
  5
3EB
330
1F
100
AcDbEntity
  8
0
  6
CONTINUOUS
 62
     1
100
AcDbLine
 10
358.805085759
 20
162.2999265579998
 30
0.0
 11
358.805085759
 21
158.5999265579999
 31
0.0
  0
LINE
  5
3EC
330
1F
100
AcDbEntity
  8
0
  6
CONTINUOUS
 62
     1
100
AcDbLine
 10
351.250000003
 20
140.499999998
 30
0.0
 11
355.750000003
 21
140.499999998
 31
0.0
  0
LINE
  5
3ED
330
1F
100
AcDbEntity
  8
0
  6
CONTINUOUS
 62
     1
100
AcDbLine
 10
351.250000003
 20
137.9999999979999
 30
0.0
 11
351.250000003
 21
140.499999998
 31
0.0
  0
LINE
  5
3EE
330
1F
100
AcDbEntity
  8
0
  6
CONTINUOUS
 62
     1
100
AcDbLine
 10
355.750000003
 20
137.9999999979999
 30
0.0
 11
351.250000003
 21
137.9999999979999
 31
0.0
  0
LINE
  5
3EF
330
1F
100
AcDbEntity
  8
0
  6
CONTINUOUS
 62
     1
100
AcDbLine
 10
355.750000003
 20
140.499999998
 30
0.0
 11
355.750000003
 21
137.9999999979999
 31
0.0
  0
LINE
  5
3F0
330
1F
100
AcDbEntity
  8
0
  6
CONTINUOUS
 62
     1
100
AcDbLine
 10
307.400000003
 20
140.5
 30
0.0
 11
342.600000003
 21
140.499999998
 31
0.0
  0
LINE
  5
3F1
330
1F
100
AcDbEntity
  8
0
  6
CONTINUOUS
 62
     1
100
AcDbLine
 10
294.2500000029998
 20
140.500000001
 30
0.0
 11
294.2500000029998
 21
138.000000001
 31
0.0
  0
LINE
  5
3F2
330
1F
100
AcDbEntity
  8
0
  6
CONTINUOUS
 62
     1
100
AcDbLine
 10
294.2500000029998
 20
138.000000001
 30
0.0
 11
298.7500000029998
 21
138.000000001
 31
0.0
  0
LINE
  5
3F3
330
1F
100
AcDbEntity
  8
0
  6
CONTINUOUS
 62
     1
100
AcDbLine
 10
298.7500000029998
 20
138.000000001
 30
0.0
 11
298.7500000029998
 21
140.500000001
 31
0.0
  0
LINE
  5
3F4
330
1F
100
AcDbEntity
  8
0
  6
CONTINUOUS
 62
     1
100
AcDbLine
 10
298.7500000029998
 20
140.500000001
 30
0.0
 11
294.2500000029998
 21
140.500000001
 31
0.0
  0
LINE
  5
3F5
330
1F
100
AcDbEntity
  8
0
  6
CONTINUOUS
 62
     1
100
AcDbLine
 10
308.915000003
 20
138.5
 30
0.0
 11
307.074952325
 21
136.8432136289999
 31
0.0
  0
LINE
  5
3F6
330
1F
100
AcDbEntity
  8
0
  6
CONTINUOUS
 62
     1
100
AcDbLine
 10
308.915000003
 20
138.5
 30
0.0
 11
308.915000003
 21
139.0
 31
0.0
  0
LINE
  5
3F7
330
1F
100
AcDbEntity
  8
0
  6
CONTINUOUS
 62
     1
100
AcDbLine
 10
307.4150000029998
 20
139.1999999999999
 30
0.0
 11
307.4150000029998
 21
140.3
 31
0.0
  0
LINE
  5
3F8
330
1F
100
AcDbEntity
  8
0
  6
CONTINUOUS
 62
     1
100
AcDbLine
 10
307.000000002
 20
136.0
 30
0.0
 11
307.400000003
 21
140.5
 31
0.0
  0
LINE
  5
3F9
330
1F
100
AcDbEntity
  8
0
  6
CONTINUOUS
 62
     1
100
AcDbLine
 10
308.915000003
 20
139.0
 30
0.0
 11
307.4150000029998
 21
139.1999999999999
 31
0.0
  0
LINE
  5
3FA
330
1F
100
AcDbEntity
  8
0
  6
CONTINUOUS
 62
     1
100
AcDbLine
 10
278.000000002
 20
136.000000002
 30
0.0
 11
278.155322933
 21
152.400000002
 31
0.0
  0
LINE
  5
3FB
330
1F
100
AcDbEntity
  8
0
  6
CONTINUOUS
 62
     1
100
AcDbLine
 10
275.415000003
 20
136.000000002
 30
0.0
 11
278.000000002
 21
136.000000002
 31
0.0
  0
LINE
  5
3FC
330
1F
100
AcDbEntity
  8
0
  6
CONTINUOUS
 62
     1
100
AcDbLine
 10
278.0000000029999
 20
140.300000002
 30
0.0
 11
275.415000003
 21
140.300000002
 31
0.0
  0
LINE
  5
3FD
330
1F
100
AcDbEntity
  8
0
  6
CONTINUOUS
 62
     1
100
AcDbLine
 10
275.415000003
 20
136.000000002
 30
0.0
 11
275.415000003
 21
140.300000002
 31
0.0
  0
LINE
  5
3FE
330
1F
100
AcDbEntity
  8
0
  6
CONTINUOUS
 62
     1
100
AcDbLine
 10
307.000000002
 20
136.0
 30
0.0
 11
278.000000002
 21
136.000000002
 31
0.0
  0
LINE
  5
3FF
330
1F
100
AcDbEntity
  8
0
  6
CONTINUOUS
 62
     1
100
AcDbLine
 10
279.1553229329999
 20
153.400000002
 30
0.0
 11
292.600000004
 21
153.4000000009999
 31
0.0
  0
ARC
  5
400
330
1F
100
AcDbEntity
  8
0
  6
CONTINUOUS
 62
     1
100
AcDbCircle
 10
279.1553229329999
 20
152.400000002
 30
0.0
 40
1.0
100
AcDbArc
 50
90.0
 51
180.0
  0
LINE
  5
401
330
1F
100
AcDbEntity
  8
0
  6
CONTINUOUS
 62
     1
100
AcDbLine
 10
279.500000004
 20
153.400000002
 30
0.0
 11
279.500000004
 21
154.900000002
 31
0.0
  0
LINE
  5
402
330
1F
100
AcDbEntity
  8
0
  6
CONTINUOUS
 62
     1
100
AcDbLine
 10
292.6890909559998
 20
165.008758752
 30
0.0
 11
292.600000004
 21
153.4000000009999
 31
0.0
  0
LINE
  5
403
330
1F
100
AcDbEntity
  8
0
  6
CONTINUOUS
 62
     1
100
AcDbLine
 10
291.194914249
 20
162.299926562
 30
0.0
 11
291.194914249
 21
158.599926562
 31
0.0
  0
LINE
  5
404
330
1F
100
AcDbEntity
  8
0
  6
CONTINUOUS
 62
     1
100
AcDbLine
 10
294.344352303
 20
176.8000000009998
 30
0.0
 11
293.7832881449998
 21
176.8000000009998
 31
0.0
  0
ARC
  5
405
330
1F
100
AcDbEntity
  8
0
  6
CONTINUOUS
 62
     1
100
AcDbCircle
 10
293.783288144
 20
175.8000000009998
 30
0.0
 40
1.0
100
AcDbArc
 50
90.0
 51
180.0
  0
LINE
  5
406
330
1F
100
AcDbEntity
  8
0
  6
CONTINUOUS
 62
     1
100
AcDbLine
 10
293.7832881449998
 20
176.8000000009998
 30
0.0
 11
356.2167118649998
 21
176.7999999979998
 31
0.0
  0
LINE
  5
407
330
1F
100
AcDbEntity
  8
0
  6
CONTINUOUS
 62
     1
100
AcDbLine
 10
292.783288144
 20
175.8000000009998
 30
0.0
 11
292.6890909559998
 21
165.008758752
 31
0.0
  0
ARC
  5
408
330
1F
100
AcDbEntity
  8
0
  6
CONTINUOUS
 62
     3
100
AcDbCircle
 10
339.100000003
 20
140.4999999989998
 30
0.0
 40
0.5
100
AcDbArc
 50
180.0
 51
270.0
  0
LINE
  5
409
330
1F
100
AcDbEntity
  8
0
  6
CONTINUOUS
 62
     3
100
AcDbLine
 10
339.100000003
 20
139.9999999989999
 30
0.0
 11
340.600000003
 21
140.499999998
 31
0.0
  0
LINE
  5
40A
330
1F
100
AcDbEntity
  8
0
  6
CONTINUOUS
 62
     1
100
AcDbLine
 10
341.0000000029998
 20
139.299999998
 30
0.0
 11
342.6104734199999
 21
139.299999998
 31
0.0
  0
LINE
  5
40B
330
1F
100
AcDbEntity
  8
0
  6
CONTINUOUS
 62
     1
100
AcDbLine
 10
342.6104734199999
 20
139.299999998
 30
0.0
 11
342.600000003
 21
140.499999998
 31
0.0
  0
LINE
  5
40C
330
1F
100
AcDbEntity
  8
0
  6
CONTINUOUS
 62
     1
100
AcDbLine
 10
341.0000000029998
 20
137.799999998
 30
0.0
 11
341.0000000029998
 21
139.299999998
 31
0.0
  0
LINE
  5
40D
330
1F
100
AcDbEntity
  8
0
  6
CONTINUOUS
 62
     1
100
AcDbLine
 10
343.000000002
 20
135.9999999979999
 30
0.0
 11
372.0000000019998
 21
135.999999997
 31
0.0
  0
LINE
  5
40E
330
1F
100
AcDbEntity
  8
0
  6
CONTINUOUS
 62
     1
100
AcDbLine
 10
342.637525534
 20
136.1999999979998
 30
0.0
 11
342.9822222249998
 21
136.1999999979998
 31
0.0
  0
LINE
  5
40F
330
1F
100
AcDbEntity
  8
0
  6
CONTINUOUS
 62
     1
100
AcDbLine
 10
342.600000003
 20
140.499999998
 30
0.0
 11
343.000000002
 21
135.9999999979999
 31
0.0
  0
LINE
  5
410
330
1F
100
AcDbEntity
  8
0
  6
CONTINUOUS
 62
     1
100
AcDbLine
 10
342.637525534
 20
136.1999999979998
 30
0.0
 11
341.0000000029998
 21
137.799999998
 31
0.0
  0
LINE
  5
411
330
1F
100
AcDbEntity
  8
0
  6
CONTINUOUS
 62
     3
100
AcDbLine
 10
342.6104734199999
 20
139.299999998
 30
0.0
 11
342.637525534
 21
136.1999999979998
 31
0.0
  0
LINE
  5
412
330
1F
100
AcDbEntity
  8
0
  6
CONTINUOUS
 62
     1
100
AcDbLine
 10
290.250000004
 20
162.299926562
 30
0.0
 11
291.194914249
 21
162.299926562
 31
0.0
  0
LINE
  5
413
330
1F
100
AcDbEntity
  8
0
  6
CONTINUOUS
 62
     1
100
AcDbLine
 10
290.250000004
 20
158.400000001
 30
0.0
 11
292.6383723029998
 21
158.400000001
 31
0.0
  0
LINE
  5
414
330
1F
100
AcDbEntity
  8
0
  6
CONTINUOUS
 62
     1
100
AcDbLine
 10
291.195502313
 20
158.600000001
 30
0.0
 11
290.250000004
 21
158.600000001
 31
0.0
  0
ARC
  5
415
330
1F
100
AcDbEntity
  8
0
  6
CONTINUOUS
 62
     1
100
AcDbCircle
 10
280.000000004
 20
154.900000002
 30
0.0
 40
0.5
100
AcDbArc
 50
120.0000000089999
 51
180.0
  0
ARC
  5
416
330
1F
100
AcDbEntity
  8
0
  6
CONTINUOUS
 62
     1
100
AcDbCircle
 10
280.000000004
 20
154.900000002
 30
0.0
 40
0.5
100
AcDbArc
 50
120.0000000089999
 51
180.0
  0
LINE
  5
417
330
1F
100
AcDbEntity
  8
0
  6
CONTINUOUS
 62
     1
100
AcDbLine
 10
280.009234964
 20
177.9547493479998
 30
0.0
 11
290.250000004
 21
178.400000002
 31
0.0
  0
ARC
  5
418
330
1F
100
AcDbEntity
  8
0
  6
CONTINUOUS
 62
     1
100
AcDbCircle
 10
280.0743908
 20
176.456165111
 30
0.0
 40
1.5
100
AcDbArc
 50
92.48955292199999
 51
177.954591512
  0
LINE
  5
419
330
1F
100
AcDbEntity
  8
0
  6
CONTINUOUS
 62
     1
100
AcDbLine
 10
278.375000004
 20
170.900000002
 30
0.0
 11
278.5753465179999
 21
176.5097024059998
 31
0.0
  0
LINE
  5
41A
330
1F
100
AcDbEntity
  8
0
  6
CONTINUOUS
 62
     1
100
AcDbLine
 10
290.250000004
 20
153.400000002
 30
0.0
 11
290.250000004
 21
178.400000002
 31
0.0
  0
LINE
  5
41B
330
1F
100
AcDbEntity
  8
0
  6
CONTINUOUS
 62
     1
100
AcDbLine
 10
278.604914249
 20
158.5999265629998
 30
0.0
 11
278.604914249
 21
155.5999265629998
 31
0.0
  0
LINE
  5
41C
330
1F
100
AcDbEntity
  8
0
  6
CONTINUOUS
 62
     1
100
AcDbLine
 10
278.604914249
 20
155.5999265629998
 30
0.0
 11
279.500000004
 21
154.406478889
 31
0.0
  0
LINE
  5
41D
330
1F
100
AcDbEntity
  8
0
  6
CONTINUOUS
 62
     1
100
AcDbLine
 10
279.750000004
 20
153.400000002
 30
0.0
 11
279.750000004
 21
159.4031926059996
 31
0.0
  0
LINE
  5
41E
330
1F
100
AcDbEntity
  8
0
  6
CONTINUOUS
 62
     1
100
AcDbLine
 10
279.750000004
 20
159.4031926059996
 30
0.0
 11
278.375000004
 21
159.4031926059996
 31
0.0
  0
LINE
  5
41F
330
1F
100
AcDbEntity
  8
0
  6
CONTINUOUS
 62
     1
100
AcDbLine
 10
278.3555023129998
 20
158.600000002
 30
0.0
 11
279.750000004
 21
158.600000002
 31
0.0
  0
LINE
  5
420
330
1F
100
AcDbEntity
  8
0
  6
CONTINUOUS
 62
     1
100
AcDbLine
 10
278.354914249
 20
158.5999265629998
 30
0.0
 11
278.354914249
 21
159.4031926059996
 31
0.0
  0
LINE
  5
421
330
1F
100
AcDbEntity
  8
0
  6
CONTINUOUS
 62
     1
100
AcDbLine
 10
278.375000004
 20
159.4031926059996
 30
0.0
 11
278.375000004
 21
170.778192606
 31
0.0
  0
LINE
  5
422
330
1F
100
AcDbEntity
  8
0
  6
CONTINUOUS
 62
     1
100
AcDbLine
 10
369.9907650459999
 20
177.9547493459998
 30
0.0
 11
359.750000006
 21
178.4000000009999
 31
0.0
  0
ARC
  5
423
330
1F
100
AcDbEntity
  8
0
  6
CONTINUOUS
 62
     1
100
AcDbCircle
 10
369.92560921
 20
176.456165109
 30
0.0
 40
1.5
100
AcDbArc
 50
2.045408488
 51
87.510447078
  0
LINE
  5
424
330
1F
100
AcDbEntity
  8
0
  6
CONTINUOUS
 62
     1
100
AcDbLine
 10
371.625000006
 20
170.9
 30
0.0
 11
371.4246534909999
 21
176.509702405
 31
0.0
  0
LINE
  5
425
330
1F
100
AcDbEntity
  8
0
  6
CONTINUOUS
 62
     1
100
AcDbLine
 10
359.750000005
 20
153.4000000009999
 30
0.0
 11
359.750000006
 21
178.4000000009999
 31
0.0
  0
LINE
  5
426
330
1F
100
AcDbEntity
  8
0
  6
CONTINUOUS
 62
     1
100
AcDbLine
 10
371.625000006
 20
159.4031926049999
 30
0.0
 11
371.625000006
 21
170.778192605
 31
0.0
  0
LINE
  5
427
330
1F
100
AcDbEntity
  8
0
  6
CONTINUOUS
 62
     1
100
AcDbLine
 10
370.250000005
 20
153.3999999999998
 30
0.0
 11
370.250000006
 21
159.4031926049999
 31
0.0
  0
LINE
  5
428
330
1F
100
AcDbEntity
  8
0
  6
CONTINUOUS
 62
     1
100
AcDbLine
 10
370.250000006
 20
159.4031926049999
 30
0.0
 11
371.625000006
 21
159.4031926049999
 31
0.0
  0
LINE
  5
429
330
1F
100
AcDbEntity
  8
0
  6
CONTINUOUS
 62
     1
100
AcDbLine
 10
371.644497694
 20
158.599999997
 30
0.0
 11
370.250000005
 21
158.599999997
 31
0.0
  0
LINE
  5
42A
330
1F
100
AcDbEntity
  8
0
  6
CONTINUOUS
 62
     1
100
AcDbLine
 10
371.645085759
 20
158.599926557
 30
0.0
 11
371.645085759
 21
159.4031926049999
 31
0.0
  0
ARC
  5
42B
330
1F
100
AcDbEntity
  8
0
  6
CONTINUOUS
 62
     1
100
AcDbCircle
 10
370.000000004
 20
154.899999997
 30
0.0
 40
0.5
100
AcDbArc
 50
0.0
 51
59.999999763
  0
LINE
  5
42C
330
1F
100
AcDbEntity
  8
0
  6
CONTINUOUS
 62
     1
100
AcDbLine
 10
358.804497694
 20
158.599999997
 30
0.0
 11
359.750000005
 21
158.599999997
 31
0.0
  0
LINE
  5
42D
330
1F
100
AcDbEntity
  8
0
  6
CONTINUOUS
 62
     1
100
AcDbLine
 10
359.750000005
 20
158.399999997
 30
0.0
 11
357.361627705
 21
158.399999997
 31
0.0
  0
LINE
  5
42E
330
1F
100
AcDbEntity
  8
0
  6
CONTINUOUS
 62
     1
100
AcDbLine
 10
359.750000006
 20
162.2999265579998
 30
0.0
 11
358.805085759
 21
162.2999265579998
 31
0.0
  0
LINE
  5
42F
330
1F
100
AcDbEntity
  8
0
  6
CONTINUOUS
 62
     3
100
AcDbLine
 10
380.0000000019998
 20
135.999999996
 30
0.0
 11
380.517638093
 21
137.9318516479999
 31
0.0
  0
LINE
  5
430
330
1F
100
AcDbEntity
  8
0
  6
CONTINUOUS
 62
     3
100
AcDbLine
 10
380.0000000019998
 20
135.999999996
 30
0.0
 11
379.4823619119998
 21
137.9318516479999
 31
0.0
  0
LINE
  5
431
330
1F
100
AcDbEntity
  8
0
  6
CONTINUOUS
 62
     3
100
AcDbLine
 10
380.0000000019998
 20
135.999999996
 30
0.0
 11
380.000000003
 21
178.3999999999998
 31
0.0
  0
LINE
  5
432
330
1F
100
AcDbEntity
  8
0
  6
CONTINUOUS
 62
     3
100
AcDbLine
 10
380.000000003
 20
178.3999999999998
 30
0.0
 11
379.482361913
 21
176.4681483479996
 31
0.0
  0
LINE
  5
433
330
1F
100
AcDbEntity
  8
0
  6
CONTINUOUS
 62
     3
100
AcDbLine
 10
380.000000003
 20
178.3999999999998
 30
0.0
 11
380.517638093
 21
176.4681483479996
 31
0.0
  0
LINE
  5
434
330
1F
100
AcDbEntity
  8
0
  6
CONTINUOUS
 62
     3
100
AcDbLine
 10
360.7500000059999
 20
178.3999999999998
 30
0.0
 11
381.000000003
 21
178.3999999999998
 31
0.0
  0
LINE
  5
435
330
1F
100
AcDbEntity
  8
0
  6
CONTINUOUS
 62
     3
100
AcDbLine
 10
354.70000001
 20
106.149999991
 30
0.0
 11
295.30000001
 21
106.149999995
 31
0.0
  0
LINE
  5
436
330
1F
100
AcDbEntity
  8
0
  6
CONTINUOUS
 62
     3
100
AcDbLine
 10
354.7000000069999
 20
61.849999991
 30
0.0
 11
354.70000001
 21
106.149999991
 31
0.0
  0
LINE
  5
437
330
1F
100
AcDbEntity
  8
0
  6
CONTINUOUS
 62
     3
100
AcDbLine
 10
295.30000001
 20
106.149999995
 30
0.0
 11
295.3000000069998
 21
66.849999995
 31
0.0
  0
LINE
  5
438
330
1F
100
AcDbEntity
  8
0
  6
CONTINUOUS
 62
     3
100
AcDbLine
 10
300.300000007
 20
61.84999999399999
 30
0.0
 11
354.7000000069999
 21
61.849999991
 31
0.0
  0
LINE
  5
439
330
1F
100
AcDbEntity
  8
0
  6
CONTINUOUS
 62
     3
100
AcDbLine
 10
294.1000000079998
 20
83.25036631899997
 30
0.0
 11
292.600000008
 21
83.24999999399999
 31
0.0
  0
LINE
  5
43A
330
1F
100
AcDbEntity
  8
0
  6
CONTINUOUS
 62
     3
100
AcDbLine
 10
294.100000009
 20
84.85463366999998
 30
0.0
 11
292.600000009
 21
84.85499999399998
 31
0.0
  0
LINE
  5
43B
330
1F
100
AcDbEntity
  8
0
  6
CONTINUOUS
 62
     3
100
AcDbLine
 10
292.600000008
 20
83.144999994
 30
0.0
 11
294.1000000079998
 21
83.14536631999997
 31
0.0
  0
LINE
  5
43C
330
1F
100
AcDbEntity
  8
0
  6
CONTINUOUS
 62
     3
100
AcDbLine
 10
294.100000009
 20
84.74963366899999
 30
0.0
 11
292.600000009
 21
84.74999999399999
 31
0.0
  0
LINE
  5
43D
330
1F
100
AcDbEntity
  8
0
  6
CONTINUOUS
 62
     3
100
AcDbLine
 10
362.50000001
 20
104.0499999899999
 30
0.0
 11
362.50000001
 21
103.0499999899999
 31
0.0
  0
LINE
  5
43E
330
1F
100
AcDbEntity
  8
0
  6
CONTINUOUS
 62
     3
100
AcDbLine
 10
362.50000001
 20
103.0499999899999
 30
0.0
 11
367.50000001
 21
103.0499999899999
 31
0.0
  0
LINE
  5
43F
330
1F
100
AcDbEntity
  8
0
  6
CONTINUOUS
 62
     3
100
AcDbLine
 10
367.50000001
 20
103.0499999899999
 30
0.0
 11
367.50000001
 21
104.0499999899999
 31
0.0
  0
LINE
  5
440
330
1F
100
AcDbEntity
  8
0
  6
CONTINUOUS
 62
     3
100
AcDbLine
 10
362.500000007
 20
64.94999999
 30
0.0
 11
362.500000007
 21
63.94999999
 31
0.0
  0
LINE
  5
441
330
1F
100
AcDbEntity
  8
0
  6
CONTINUOUS
 62
     3
100
AcDbLine
 10
367.5000000069998
 20
64.94999999
 30
0.0
 11
362.500000007
 21
64.94999999
 31
0.0
  0
LINE
  5
442
330
1F
100
AcDbEntity
  8
0
  6
CONTINUOUS
 62
     3
100
AcDbLine
 10
367.5000000069998
 20
63.94999999
 30
0.0
 11
367.5000000069998
 21
64.94999999
 31
0.0
  0
LINE
  5
443
330
1F
100
AcDbEntity
  8
0
  6
CONTINUOUS
 62
     3
100
AcDbLine
 10
294.1000000079998
 20
83.14536631999997
 30
0.0
 11
294.100000009
 21
84.85463366999998
 31
0.0
  0
LINE
  5
444
330
1F
100
AcDbEntity
  8
0
  6
CONTINUOUS
 62
     3
100
AcDbLine
 10
294.1000000099998
 20
104.1457326459999
 30
0.0
 11
294.1000000099998
 21
105.854999996
 31
0.0
  0
LINE
  5
445
330
1F
100
AcDbEntity
  8
0
  6
CONTINUOUS
 62
     3
100
AcDbLine
 10
355.900000009
 20
88.249267341
 30
0.0
 11
357.4000000089997
 21
88.249633665
 31
0.0
  0
LINE
  5
446
330
1F
100
AcDbEntity
  8
0
  6
CONTINUOUS
 62
     3
100
AcDbLine
 10
357.4000000089997
 20
88.354633665
 30
0.0
 11
355.900000009
 21
88.35426734
 31
0.0
  0
LINE
  5
447
330
1F
100
AcDbEntity
  8
0
  6
CONTINUOUS
 62
     3
100
AcDbLine
 10
294.1000000099998
 20
105.7499999949999
 30
0.0
 11
292.6000000099998
 21
105.7503663199997
 31
0.0
  0
LINE
  5
448
330
1F
100
AcDbEntity
  8
0
  6
CONTINUOUS
 62
     3
100
AcDbLine
 10
292.6000000099998
 20
104.1453663199996
 30
0.0
 11
294.1000000099998
 21
104.1457326459999
 31
0.0
  0
LINE
  5
449
330
1F
100
AcDbEntity
  8
0
  6
CONTINUOUS
 62
     3
100
AcDbLine
 10
294.1000000099998
 20
105.854999996
 30
0.0
 11
292.6000000099998
 21
105.85536632
 31
0.0
  0
LINE
  5
44A
330
1F
100
AcDbEntity
  8
0
  6
CONTINUOUS
 62
     3
100
AcDbLine
 10
355.900000009
 20
86.74999999099998
 30
0.0
 11
357.4000000089997
 21
86.749633665
 31
0.0
  0
LINE
  5
44B
330
1F
100
AcDbEntity
  8
0
  6
CONTINUOUS
 62
     3
100
AcDbLine
 10
355.900000009
 20
88.35426734
 30
0.0
 11
355.900000009
 21
86.64499999
 31
0.0
  0
LINE
  5
44C
330
1F
100
AcDbEntity
  8
0
  6
CONTINUOUS
 62
     3
100
AcDbLine
 10
355.900000008
 20
81.249267341
 30
0.0
 11
357.400000008
 21
81.24963366500002
 31
0.0
  0
LINE
  5
44D
330
1F
100
AcDbEntity
  8
0
  6
CONTINUOUS
 62
     3
100
AcDbLine
 10
294.1000000099998
 20
104.2507326449999
 30
0.0
 11
292.6000000099998
 21
104.2503663199999
 31
0.0
  0
LINE
  5
44E
330
1F
100
AcDbEntity
  8
0
  6
CONTINUOUS
 62
     3
100
AcDbLine
 10
294.1000000099998
 20
100.645732646
 30
0.0
 11
294.1000000099998
 21
102.3549999959999
 31
0.0
  0
LINE
  5
44F
330
1F
100
AcDbEntity
  8
0
  6
CONTINUOUS
 62
     3
100
AcDbLine
 10
294.1000000099998
 20
102.2499999949999
 30
0.0
 11
292.6000000099998
 21
102.2503663199999
 31
0.0
  0
LINE
  5
450
330
1F
100
AcDbEntity
  8
0
  6
CONTINUOUS
 62
     3
100
AcDbLine
 10
357.400000008
 20
81.35463366499998
 30
0.0
 11
355.900000008
 21
81.35426734000002
 31
0.0
  0
LINE
  5
451
330
1F
100
AcDbEntity
  8
0
  6
CONTINUOUS
 62
     3
100
AcDbLine
 10
292.6000000099998
 20
100.6453663199998
 30
0.0
 11
294.1000000099998
 21
100.645732646
 31
0.0
  0
LINE
  5
452
330
1F
100
AcDbEntity
  8
0
  6
CONTINUOUS
 62
     3
100
AcDbLine
 10
294.1000000099998
 20
102.3549999959999
 30
0.0
 11
292.6000000099998
 21
102.3553663199999
 31
0.0
  0
LINE
  5
453
330
1F
100
AcDbEntity
  8
0
  6
CONTINUOUS
 62
     3
100
AcDbLine
 10
294.1000000099998
 20
100.750732645
 30
0.0
 11
292.6000000099998
 21
100.75036632
 31
0.0
  0
LINE
  5
454
330
1F
100
AcDbEntity
  8
0
  6
CONTINUOUS
 62
     3
100
AcDbLine
 10
294.100000009
 20
97.14573264600006
 30
0.0
 11
294.1000000099998
 21
98.854999996
 31
0.0
  0
LINE
  5
455
330
1F
100
AcDbEntity
  8
0
  6
CONTINUOUS
 62
     3
100
AcDbLine
 10
294.1000000099998
 20
98.749999995
 30
0.0
 11
292.6000000099998
 21
98.75036632
 31
0.0
  0
LINE
  5
456
330
1F
100
AcDbEntity
  8
0
  6
CONTINUOUS
 62
     3
100
AcDbLine
 10
355.900000008
 20
79.74999999100001
 30
0.0
 11
357.400000008
 21
79.749633665
 31
0.0
  0
LINE
  5
457
330
1F
100
AcDbEntity
  8
0
  6
CONTINUOUS
 62
     3
100
AcDbLine
 10
300.300000007
 20
61.84999999399999
 30
0.0
 11
295.3000000069998
 21
66.849999995
 31
0.0
  0
LINE
  5
458
330
1F
100
AcDbEntity
  8
0
  6
CONTINUOUS
 62
     3
100
AcDbLine
 10
355.900000008
 20
81.35426734000002
 30
0.0
 11
355.900000008
 21
79.64499999
 31
0.0
  0
LINE
  5
459
330
1F
100
AcDbEntity
  8
0
  6
CONTINUOUS
 62
     3
100
AcDbLine
 10
355.900000009
 20
91.749267341
 30
0.0
 11
357.4000000089997
 21
91.749633665
 31
0.0
  0
LINE
  5
45A
330
1F
100
AcDbEntity
  8
0
  6
CONTINUOUS
 62
     3
100
AcDbLine
 10
355.900000009
 20
90.14499998999999
 30
0.0
 11
357.4000000089997
 21
90.14463366500001
 31
0.0
  0
LINE
  5
45B
330
1F
100
AcDbEntity
  8
0
  6
CONTINUOUS
 62
     3
100
AcDbLine
 10
357.4000000089997
 20
91.854633665
 30
0.0
 11
355.900000009
 21
91.85426734
 31
0.0
  0
LINE
  5
45C
330
1F
100
AcDbEntity
  8
0
  6
CONTINUOUS
 62
     3
100
AcDbLine
 10
355.900000009
 20
90.24999999100002
 30
0.0
 11
357.4000000089997
 21
90.249633665
 31
0.0
  0
LINE
  5
45D
330
1F
100
AcDbEntity
  8
0
  6
CONTINUOUS
 62
     3
100
AcDbLine
 10
355.900000009
 20
91.85426734
 30
0.0
 11
355.900000009
 21
90.14499998999999
 31
0.0
  0
LINE
  5
45E
330
1F
100
AcDbEntity
  8
0
  6
CONTINUOUS
 62
     3
100
AcDbLine
 10
355.900000009
 20
95.249267341
 30
0.0
 11
357.4000000089997
 21
95.249633665
 31
0.0
  0
LINE
  5
45F
330
1F
100
AcDbEntity
  8
0
  6
CONTINUOUS
 62
     3
100
AcDbLine
 10
292.600000009
 20
97.14536632
 30
0.0
 11
294.100000009
 21
97.14573264600006
 31
0.0
  0
LINE
  5
460
330
1F
100
AcDbEntity
  8
0
  6
CONTINUOUS
 62
     3
100
AcDbLine
 10
294.1000000099998
 20
98.854999996
 30
0.0
 11
292.6000000099998
 21
98.85536632
 31
0.0
  0
LINE
  5
461
330
1F
100
AcDbEntity
  8
0
  6
CONTINUOUS
 62
     3
100
AcDbLine
 10
294.100000009
 20
97.250732645
 30
0.0
 11
292.600000009
 21
97.25036632
 31
0.0
  0
LINE
  5
462
330
1F
100
AcDbEntity
  8
0
  6
CONTINUOUS
 62
     3
100
AcDbLine
 10
355.900000009
 20
93.64499999000002
 30
0.0
 11
357.4000000089997
 21
93.644633665
 31
0.0
  0
LINE
  5
463
330
1F
100
AcDbEntity
  8
0
  6
CONTINUOUS
 62
     3
100
AcDbLine
 10
357.4000000089997
 20
95.354633665
 30
0.0
 11
355.900000009
 21
95.35426734
 31
0.0
  0
LINE
  5
464
330
1F
100
AcDbEntity
  8
0
  6
CONTINUOUS
 62
     3
100
AcDbLine
 10
355.900000009
 20
93.74999999100001
 30
0.0
 11
357.4000000089997
 21
93.749633665
 31
0.0
  0
LINE
  5
465
330
1F
100
AcDbEntity
  8
0
  6
CONTINUOUS
 62
     3
100
AcDbLine
 10
294.100000009
 20
93.645732646
 30
0.0
 11
294.100000009
 21
95.354999996
 31
0.0
  0
LINE
  5
466
330
1F
100
AcDbEntity
  8
0
  6
CONTINUOUS
 62
     3
100
AcDbLine
 10
294.100000009
 20
95.249999995
 30
0.0
 11
292.600000009
 21
95.25036632
 31
0.0
  0
LINE
  5
467
330
1F
100
AcDbEntity
  8
0
  6
CONTINUOUS
 62
     3
100
AcDbLine
 10
292.600000009
 20
93.64536632
 30
0.0
 11
294.100000009
 21
93.645732646
 31
0.0
  0
LINE
  5
468
330
1F
100
AcDbEntity
  8
0
  6
CONTINUOUS
 62
     3
100
AcDbLine
 10
355.900000009
 20
95.35426734
 30
0.0
 11
355.900000009
 21
93.64499999000002
 31
0.0
  0
LINE
  5
469
330
1F
100
AcDbEntity
  8
0
  6
CONTINUOUS
 62
     3
100
AcDbLine
 10
355.9000000099998
 20
98.749267341
 30
0.0
 11
357.4000000099998
 21
98.749633665
 31
0.0
  0
LINE
  5
46A
330
1F
100
AcDbEntity
  8
0
  6
CONTINUOUS
 62
     3
100
AcDbLine
 10
355.900000009
 20
97.14499999
 30
0.0
 11
357.4000000089997
 21
97.144633665
 31
0.0
  0
LINE
  5
46B
330
1F
100
AcDbEntity
  8
0
  6
CONTINUOUS
 62
     3
100
AcDbLine
 10
294.100000009
 20
95.354999996
 30
0.0
 11
292.600000009
 21
95.35536632000002
 31
0.0
  0
LINE
  5
46C
330
1F
100
AcDbEntity
  8
0
  6
CONTINUOUS
 62
     3
100
AcDbLine
 10
294.100000009
 20
93.75073264500001
 30
0.0
 11
292.600000009
 21
93.75036632
 31
0.0
  0
LINE
  5
46D
330
1F
100
AcDbEntity
  8
0
  6
CONTINUOUS
 62
     3
100
AcDbLine
 10
294.100000009
 20
90.145732646
 30
0.0
 11
294.100000009
 21
91.854999996
 31
0.0
  0
LINE
  5
46E
330
1F
100
AcDbEntity
  8
0
  6
CONTINUOUS
 62
     3
100
AcDbLine
 10
357.4000000099998
 20
98.854633665
 30
0.0
 11
355.9000000099998
 21
98.85426734
 31
0.0
  0
LINE
  5
46F
330
1F
100
AcDbEntity
  8
0
  6
CONTINUOUS
 62
     3
100
AcDbLine
 10
355.900000009
 20
97.24999999100001
 30
0.0
 11
357.4000000089997
 21
97.249633665
 31
0.0
  0
LINE
  5
470
330
1F
100
AcDbEntity
  8
0
  6
CONTINUOUS
 62
     3
100
AcDbLine
 10
355.9000000099998
 20
98.85426734
 30
0.0
 11
355.900000009
 21
97.14499999
 31
0.0
  0
LINE
  5
471
330
1F
100
AcDbEntity
  8
0
  6
CONTINUOUS
 62
     3
100
AcDbLine
 10
294.100000009
 20
91.749999995
 30
0.0
 11
292.600000009
 21
91.75036631999998
 31
0.0
  0
LINE
  5
472
330
1F
100
AcDbEntity
  8
0
  6
CONTINUOUS
 62
     3
100
AcDbLine
 10
292.600000009
 20
90.14536632
 30
0.0
 11
294.100000009
 21
90.145732646
 31
0.0
  0
LINE
  5
473
330
1F
100
AcDbEntity
  8
0
  6
CONTINUOUS
 62
     3
100
AcDbLine
 10
294.100000009
 20
91.854999996
 30
0.0
 11
292.600000009
 21
91.85536631999999
 31
0.0
  0
LINE
  5
474
330
1F
100
AcDbEntity
  8
0
  6
CONTINUOUS
 62
     3
100
AcDbLine
 10
355.9000000099998
 20
102.249267341
 30
0.0
 11
357.4000000099998
 21
102.249633665
 31
0.0
  0
LINE
  5
475
330
1F
100
AcDbEntity
  8
0
  6
CONTINUOUS
 62
     3
100
AcDbLine
 10
355.9000000099998
 20
100.64499999
 30
0.0
 11
357.4000000099998
 21
100.644633665
 31
0.0
  0
LINE
  5
476
330
1F
100
AcDbEntity
  8
0
  6
CONTINUOUS
 62
     3
100
AcDbLine
 10
357.4000000099998
 20
102.3546336649997
 30
0.0
 11
355.9000000099998
 21
102.35426734
 31
0.0
  0
LINE
  5
477
330
1F
100
AcDbEntity
  8
0
  6
CONTINUOUS
 62
     3
100
AcDbLine
 10
294.100000009
 20
90.25073264499999
 30
0.0
 11
292.600000009
 21
90.25036632
 31
0.0
  0
LINE
  5
478
330
1F
100
AcDbEntity
  8
0
  6
CONTINUOUS
 62
     3
100
AcDbLine
 10
294.100000007
 20
62.14573264600001
 30
0.0
 11
294.100000007
 21
63.854999996
 31
0.0
  0
LINE
  5
479
330
1F
100
AcDbEntity
  8
0
  6
CONTINUOUS
 62
     3
100
AcDbLine
 10
294.100000007
 20
63.749999995
 30
0.0
 11
292.600000007
 21
63.75036632
 31
0.0
  0
LINE
  5
47A
330
1F
100
AcDbEntity
  8
0
  6
CONTINUOUS
 62
     3
100
AcDbLine
 10
355.9000000099998
 20
100.749999991
 30
0.0
 11
357.4000000099998
 21
100.749633665
 31
0.0
  0
LINE
  5
47B
330
1F
100
AcDbEntity
  8
0
  6
CONTINUOUS
 62
     3
100
AcDbLine
 10
355.9000000099998
 20
102.35426734
 30
0.0
 11
355.9000000099998
 21
100.64499999
 31
0.0
  0
LINE
  5
47C
330
1F
100
AcDbEntity
  8
0
  6
CONTINUOUS
 62
     3
100
AcDbLine
 10
355.9000000099998
 20
105.749267341
 30
0.0
 11
357.4000000099998
 21
105.749633665
 31
0.0
  0
LINE
  5
47D
330
1F
100
AcDbEntity
  8
0
  6
CONTINUOUS
 62
     3
100
AcDbLine
 10
355.900000009
 20
86.64499999
 30
0.0
 11
357.4000000089997
 21
86.64463366499999
 31
0.0
  0
LINE
  5
47E
330
1F
100
AcDbEntity
  8
0
  6
CONTINUOUS
 62
     3
100
AcDbLine
 10
292.600000007
 20
62.14536632
 30
0.0
 11
294.100000007
 21
62.14573264600001
 31
0.0
  0
LINE
  5
47F
330
1F
100
AcDbEntity
  8
0
  6
CONTINUOUS
 62
     3
100
AcDbLine
 10
294.100000007
 20
63.854999996
 30
0.0
 11
292.600000007
 21
63.85536632
 31
0.0
  0
LINE
  5
480
330
1F
100
AcDbEntity
  8
0
  6
CONTINUOUS
 62
     3
100
AcDbLine
 10
294.100000007
 20
62.250732645
 30
0.0
 11
292.600000007
 21
62.25036632
 31
0.0
  0
LINE
  5
481
330
1F
100
AcDbEntity
  8
0
  6
CONTINUOUS
 62
     3
100
AcDbLine
 10
294.100000007
 20
65.64573264599998
 30
0.0
 11
294.100000007
 21
67.354999996
 31
0.0
  0
LINE
  5
482
330
1F
100
AcDbEntity
  8
0
  6
CONTINUOUS
 62
     3
100
AcDbLine
 10
294.100000007
 20
67.249999995
 30
0.0
 11
292.600000007
 21
67.25036632
 31
0.0
  0
LINE
  5
483
330
1F
100
AcDbEntity
  8
0
  6
CONTINUOUS
 62
     3
100
AcDbLine
 10
292.600000007
 20
65.64536632
 30
0.0
 11
294.100000007
 21
65.64573264599998
 31
0.0
  0
LINE
  5
484
330
1F
100
AcDbEntity
  8
0
  6
CONTINUOUS
 62
     3
100
AcDbLine
 10
294.100000007
 20
67.354999996
 30
0.0
 11
292.600000007
 21
67.35536632
 31
0.0
  0
LINE
  5
485
330
1F
100
AcDbEntity
  8
0
  6
CONTINUOUS
 62
     3
100
AcDbLine
 10
294.100000007
 20
65.750732645
 30
0.0
 11
292.600000007
 21
65.75036631999998
 31
0.0
  0
LINE
  5
486
330
1F
100
AcDbEntity
  8
0
  6
CONTINUOUS
 62
     3
100
AcDbLine
 10
294.100000007
 20
69.145732646
 30
0.0
 11
294.1000000079998
 21
70.854999996
 31
0.0
  0
LINE
  5
487
330
1F
100
AcDbEntity
  8
0
  6
CONTINUOUS
 62
     3
100
AcDbLine
 10
294.1000000079998
 20
70.749999995
 30
0.0
 11
292.600000008
 21
70.75036631999998
 31
0.0
  0
LINE
  5
488
330
1F
100
AcDbEntity
  8
0
  6
CONTINUOUS
 62
     3
100
AcDbLine
 10
292.600000007
 20
69.14536632
 30
0.0
 11
294.100000007
 21
69.145732646
 31
0.0
  0
LINE
  5
489
330
1F
100
AcDbEntity
  8
0
  6
CONTINUOUS
 62
     3
100
AcDbLine
 10
294.1000000079998
 20
70.854999996
 30
0.0
 11
292.600000008
 21
70.85536632
 31
0.0
  0
LINE
  5
48A
330
1F
100
AcDbEntity
  8
0
  6
CONTINUOUS
 62
     3
100
AcDbLine
 10
294.100000007
 20
69.25073264499999
 30
0.0
 11
292.600000007
 21
69.25036632
 31
0.0
  0
LINE
  5
48B
330
1F
100
AcDbEntity
  8
0
  6
CONTINUOUS
 62
     3
100
AcDbLine
 10
294.1000000079998
 20
72.645732646
 30
0.0
 11
294.1000000079998
 21
74.354999996
 31
0.0
  0
LINE
  5
48C
330
1F
100
AcDbEntity
  8
0
  6
CONTINUOUS
 62
     3
100
AcDbLine
 10
294.1000000079998
 20
74.24999999499998
 30
0.0
 11
292.600000008
 21
74.25036632
 31
0.0
  0
LINE
  5
48D
330
1F
100
AcDbEntity
  8
0
  6
CONTINUOUS
 62
     3
100
AcDbLine
 10
292.600000008
 20
72.64536631999998
 30
0.0
 11
294.1000000079998
 21
72.645732646
 31
0.0
  0
LINE
  5
48E
330
1F
100
AcDbEntity
  8
0
  6
CONTINUOUS
 62
     3
100
AcDbLine
 10
294.1000000079998
 20
74.354999996
 30
0.0
 11
292.600000008
 21
74.35536632
 31
0.0
  0
LINE
  5
48F
330
1F
100
AcDbEntity
  8
0
  6
CONTINUOUS
 62
     3
100
AcDbLine
 10
294.1000000079998
 20
72.750732645
 30
0.0
 11
292.600000008
 21
72.75036631999998
 31
0.0
  0
LINE
  5
490
330
1F
100
AcDbEntity
  8
0
  6
CONTINUOUS
 62
     3
100
AcDbLine
 10
294.1000000079998
 20
76.145732646
 30
0.0
 11
294.1000000079998
 21
77.854999996
 31
0.0
  0
LINE
  5
491
330
1F
100
AcDbEntity
  8
0
  6
CONTINUOUS
 62
     3
100
AcDbLine
 10
294.1000000079998
 20
77.74999999499998
 30
0.0
 11
292.600000008
 21
77.75036631999998
 31
0.0
  0
LINE
  5
492
330
1F
100
AcDbEntity
  8
0
  6
CONTINUOUS
 62
     3
100
AcDbLine
 10
292.600000008
 20
76.14536631999998
 30
0.0
 11
294.1000000079998
 21
76.145732646
 31
0.0
  0
LINE
  5
493
330
1F
100
AcDbEntity
  8
0
  6
CONTINUOUS
 62
     3
100
AcDbLine
 10
294.1000000079998
 20
77.854999996
 30
0.0
 11
292.600000008
 21
77.85536632
 31
0.0
  0
LINE
  5
494
330
1F
100
AcDbEntity
  8
0
  6
CONTINUOUS
 62
     3
100
AcDbLine
 10
294.1000000079998
 20
76.250732645
 30
0.0
 11
292.600000008
 21
76.25036632
 31
0.0
  0
LINE
  5
495
330
1F
100
AcDbEntity
  8
0
  6
CONTINUOUS
 62
     3
100
AcDbLine
 10
294.100000009
 20
86.64573264599998
 30
0.0
 11
294.100000009
 21
88.354999996
 31
0.0
  0
LINE
  5
496
330
1F
100
AcDbEntity
  8
0
  6
CONTINUOUS
 62
     3
100
AcDbLine
 10
294.100000009
 20
88.249999995
 30
0.0
 11
292.600000009
 21
88.25036631999996
 31
0.0
  0
LINE
  5
497
330
1F
100
AcDbEntity
  8
0
  6
CONTINUOUS
 62
     3
100
AcDbLine
 10
292.600000009
 20
86.64536632
 30
0.0
 11
294.100000009
 21
86.64573264599998
 31
0.0
  0
LINE
  5
498
330
1F
100
AcDbEntity
  8
0
  6
CONTINUOUS
 62
     3
100
AcDbLine
 10
294.100000009
 20
88.354999996
 30
0.0
 11
292.600000009
 21
88.35536632
 31
0.0
  0
LINE
  5
499
330
1F
100
AcDbEntity
  8
0
  6
CONTINUOUS
 62
     3
100
AcDbLine
 10
294.100000009
 20
86.75073264499999
 30
0.0
 11
292.600000009
 21
86.75036631999998
 31
0.0
  0
LINE
  5
49A
330
1F
100
AcDbEntity
  8
0
  6
CONTINUOUS
 62
     3
100
AcDbLine
 10
294.1000000079998
 20
79.645732646
 30
0.0
 11
294.1000000079998
 21
81.354999996
 31
0.0
  0
LINE
  5
49B
330
1F
100
AcDbEntity
  8
0
  6
CONTINUOUS
 62
     3
100
AcDbLine
 10
294.1000000079998
 20
81.24999999499998
 30
0.0
 11
292.600000008
 21
81.25036632
 31
0.0
  0
LINE
  5
49C
330
1F
100
AcDbEntity
  8
0
  6
CONTINUOUS
 62
     3
100
AcDbLine
 10
292.600000008
 20
79.64536631999997
 30
0.0
 11
294.1000000079998
 21
79.645732646
 31
0.0
  0
LINE
  5
49D
330
1F
100
AcDbEntity
  8
0
  6
CONTINUOUS
 62
     3
100
AcDbLine
 10
294.1000000079998
 20
81.354999996
 30
0.0
 11
292.600000008
 21
81.35536632
 31
0.0
  0
LINE
  5
49E
330
1F
100
AcDbEntity
  8
0
  6
CONTINUOUS
 62
     3
100
AcDbLine
 10
294.1000000079998
 20
79.750732645
 30
0.0
 11
292.600000008
 21
79.75036632
 31
0.0
  0
LINE
  5
49F
330
1F
100
AcDbEntity
  8
0
  6
CONTINUOUS
 62
     3
100
AcDbLine
 10
355.9000000099998
 20
104.1449999899999
 30
0.0
 11
357.4000000099998
 21
104.1446336649999
 31
0.0
  0
LINE
  5
4A0
330
1F
100
AcDbEntity
  8
0
  6
CONTINUOUS
 62
     3
100
AcDbLine
 10
357.4000000099998
 20
105.8546336649996
 30
0.0
 11
355.9000000099998
 21
105.85426734
 31
0.0
  0
LINE
  5
4A1
330
1F
100
AcDbEntity
  8
0
  6
CONTINUOUS
 62
     3
100
AcDbLine
 10
355.9000000099998
 20
104.249999991
 30
0.0
 11
357.4000000099998
 21
104.2496336649999
 31
0.0
  0
LINE
  5
4A2
330
1F
100
AcDbEntity
  8
0
  6
CONTINUOUS
 62
     3
100
AcDbLine
 10
355.9000000099998
 20
105.85426734
 30
0.0
 11
355.9000000099998
 21
104.1449999899999
 31
0.0
  0
LINE
  5
4A3
330
1F
100
AcDbEntity
  8
0
  6
CONTINUOUS
 62
     3
100
AcDbLine
 10
355.900000008
 20
77.749267341
 30
0.0
 11
357.400000008
 21
77.749633665
 31
0.0
  0
LINE
  5
4A4
330
1F
100
AcDbEntity
  8
0
  6
CONTINUOUS
 62
     3
100
AcDbLine
 10
355.900000008
 20
76.14499999
 30
0.0
 11
357.400000008
 21
76.144633665
 31
0.0
  0
LINE
  5
4A5
330
1F
100
AcDbEntity
  8
0
  6
CONTINUOUS
 62
     3
100
AcDbLine
 10
357.400000008
 20
77.85463366499998
 30
0.0
 11
355.900000008
 21
77.85426734000002
 31
0.0
  0
LINE
  5
4A6
330
1F
100
AcDbEntity
  8
0
  6
CONTINUOUS
 62
     3
100
AcDbLine
 10
355.900000008
 20
76.24999999100001
 30
0.0
 11
357.400000008
 21
76.24963366500002
 31
0.0
  0
LINE
  5
4A7
330
1F
100
AcDbEntity
  8
0
  6
CONTINUOUS
 62
     3
100
AcDbLine
 10
355.900000008
 20
77.85426734000002
 30
0.0
 11
355.900000008
 21
76.14499999
 31
0.0
  0
LINE
  5
4A8
330
1F
100
AcDbEntity
  8
0
  6
CONTINUOUS
 62
     3
100
AcDbLine
 10
355.900000008
 20
74.249267341
 30
0.0
 11
357.400000008
 21
74.249633665
 31
0.0
  0
LINE
  5
4A9
330
1F
100
AcDbEntity
  8
0
  6
CONTINUOUS
 62
     3
100
AcDbLine
 10
355.900000008
 20
72.64499999
 30
0.0
 11
357.400000008
 21
72.644633665
 31
0.0
  0
LINE
  5
4AA
330
1F
100
AcDbEntity
  8
0
  6
CONTINUOUS
 62
     3
100
AcDbLine
 10
357.400000008
 20
74.35463366499998
 30
0.0
 11
355.900000008
 21
74.35426734
 31
0.0
  0
LINE
  5
4AB
330
1F
100
AcDbEntity
  8
0
  6
CONTINUOUS
 62
     3
100
AcDbLine
 10
355.900000008
 20
72.74999999100001
 30
0.0
 11
357.400000008
 21
72.749633665
 31
0.0
  0
LINE
  5
4AC
330
1F
100
AcDbEntity
  8
0
  6
CONTINUOUS
 62
     3
100
AcDbLine
 10
355.900000008
 20
74.35426734
 30
0.0
 11
355.900000008
 21
72.64499999
 31
0.0
  0
LINE
  5
4AD
330
1F
100
AcDbEntity
  8
0
  6
CONTINUOUS
 62
     3
100
AcDbLine
 10
355.900000008
 20
70.749267341
 30
0.0
 11
357.400000008
 21
70.74963366500002
 31
0.0
  0
LINE
  5
4AE
330
1F
100
AcDbEntity
  8
0
  6
CONTINUOUS
 62
     3
100
AcDbLine
 10
355.9000000069999
 20
69.14499999
 30
0.0
 11
357.4000000069996
 21
69.144633665
 31
0.0
  0
LINE
  5
4AF
330
1F
100
AcDbEntity
  8
0
  6
CONTINUOUS
 62
     3
100
AcDbLine
 10
357.400000008
 20
70.85463366499998
 30
0.0
 11
355.900000008
 21
70.85426734000002
 31
0.0
  0
LINE
  5
4B0
330
1F
100
AcDbEntity
  8
0
  6
CONTINUOUS
 62
     3
100
AcDbLine
 10
355.9000000069999
 20
69.24999999100001
 30
0.0
 11
357.4000000069996
 21
69.249633665
 31
0.0
  0
LINE
  5
4B1
330
1F
100
AcDbEntity
  8
0
  6
CONTINUOUS
 62
     3
100
AcDbLine
 10
355.900000008
 20
70.85426734000002
 30
0.0
 11
355.9000000069999
 21
69.14499999
 31
0.0
  0
LINE
  5
4B2
330
1F
100
AcDbEntity
  8
0
  6
CONTINUOUS
 62
     3
100
AcDbLine
 10
355.9000000069999
 20
67.249267341
 30
0.0
 11
357.4000000069996
 21
67.249633665
 31
0.0
  0
LINE
  5
4B3
330
1F
100
AcDbEntity
  8
0
  6
CONTINUOUS
 62
     3
100
AcDbLine
 10
355.9000000069999
 20
65.64499999
 30
0.0
 11
357.4000000069996
 21
65.644633665
 31
0.0
  0
LINE
  5
4B4
330
1F
100
AcDbEntity
  8
0
  6
CONTINUOUS
 62
     3
100
AcDbLine
 10
357.4000000069996
 20
67.354633665
 30
0.0
 11
355.9000000069999
 21
67.35426734
 31
0.0
  0
LINE
  5
4B5
330
1F
100
AcDbEntity
  8
0
  6
CONTINUOUS
 62
     3
100
AcDbLine
 10
355.9000000069999
 20
65.749999991
 30
0.0
 11
357.4000000069996
 21
65.749633665
 31
0.0
  0
LINE
  5
4B6
330
1F
100
AcDbEntity
  8
0
  6
CONTINUOUS
 62
     3
100
AcDbLine
 10
355.9000000069999
 20
67.35426734
 30
0.0
 11
355.9000000069999
 21
65.64499999
 31
0.0
  0
LINE
  5
4B7
330
1F
100
AcDbEntity
  8
0
  6
CONTINUOUS
 62
     3
100
AcDbLine
 10
355.9000000069999
 20
63.749267341
 30
0.0
 11
357.4000000069996
 21
63.749633665
 31
0.0
  0
LINE
  5
4B8
330
1F
100
AcDbEntity
  8
0
  6
CONTINUOUS
 62
     3
100
AcDbLine
 10
355.9000000069999
 20
62.14499999
 30
0.0
 11
357.4000000069996
 21
62.144633665
 31
0.0
  0
LINE
  5
4B9
330
1F
100
AcDbEntity
  8
0
  6
CONTINUOUS
 62
     3
100
AcDbLine
 10
357.4000000069996
 20
63.854633665
 30
0.0
 11
355.9000000069999
 21
63.85426734
 31
0.0
  0
LINE
  5
4BA
330
1F
100
AcDbEntity
  8
0
  6
CONTINUOUS
 62
     3
100
AcDbLine
 10
355.9000000069999
 20
62.249999991
 30
0.0
 11
357.4000000069996
 21
62.24963366499999
 31
0.0
  0
LINE
  5
4BB
330
1F
100
AcDbEntity
  8
0
  6
CONTINUOUS
 62
     3
100
AcDbLine
 10
355.9000000069999
 20
63.85426734
 30
0.0
 11
355.9000000069999
 21
62.14499999
 31
0.0
  0
LINE
  5
4BC
330
1F
100
AcDbEntity
  8
0
  6
CONTINUOUS
 62
     3
100
AcDbLine
 10
355.900000009
 20
84.85463366599998
 30
0.0
 11
355.900000008
 21
83.14536631600001
 31
0.0
  0
LINE
  5
4BD
330
1F
100
AcDbEntity
  8
0
  6
CONTINUOUS
 62
     3
100
AcDbLine
 10
355.900000008
 20
83.25036631699999
 30
0.0
 11
357.400000008
 21
83.249999991
 31
0.0
  0
LINE
  5
4BE
330
1F
100
AcDbEntity
  8
0
  6
CONTINUOUS
 62
     3
100
AcDbLine
 10
357.4000000089997
 20
84.85499999099999
 30
0.0
 11
355.900000009
 21
84.85463366599998
 31
0.0
  0
LINE
  5
4BF
330
1F
100
AcDbEntity
  8
0
  6
CONTINUOUS
 62
     3
100
AcDbLine
 10
355.900000008
 20
83.14536631600001
 30
0.0
 11
357.400000008
 21
83.144999991
 31
0.0
  0
LINE
  5
4C0
330
1F
100
AcDbEntity
  8
0
  6
CONTINUOUS
 62
     3
100
AcDbLine
 10
355.900000009
 20
84.749633667
 30
0.0
 11
357.4000000089997
 21
84.74999999100001
 31
0.0
  0
LINE
  5
4C1
330
1F
100
AcDbEntity
  8
0
  6
CONTINUOUS
 62
     3
100
AcDbLine
 10
355.900000008
 20
79.64499999
 30
0.0
 11
357.400000008
 21
79.644633665
 31
0.0
  0
LINE
  5
4C2
330
1F
100
AcDbEntity
  8
0
  6
CONTINUOUS
 62
     3
100
AcDbLine
 10
275.415000008
 20
73.000002694
 30
0.0
 11
275.4150000059999
 21
45.999999996
 31
0.0
  0
LINE
  5
4C3
330
1F
100
AcDbEntity
  8
0
  6
CONTINUOUS
 62
     3
100
AcDbLine
 10
275.4150000059999
 20
46.99999999600001
 30
0.0
 11
277.346851659
 21
46.48236190499999
 31
0.0
  0
LINE
  5
4C4
330
1F
100
AcDbEntity
  8
0
  6
CONTINUOUS
 62
     3
100
AcDbLine
 10
275.4150000059999
 20
46.99999999600001
 30
0.0
 11
277.346851659
 21
47.517638086
 31
0.0
  0
LINE
  5
4C5
330
1F
100
AcDbEntity
  8
0
  6
CONTINUOUS
 62
     3
100
AcDbLine
 10
275.4150000059999
 20
46.99999999600001
 30
0.0
 11
372.000000006
 21
46.99999999
 31
0.0
  0
LINE
  5
4C6
330
1F
100
AcDbEntity
  8
0
  6
CONTINUOUS
 62
     3
100
AcDbLine
 10
372.000000006
 20
46.99999999
 30
0.0
 11
370.068148354
 21
47.51763807999998
 31
0.0
  0
LINE
  5
4C7
330
1F
100
AcDbEntity
  8
0
  6
CONTINUOUS
 62
     3
100
AcDbLine
 10
372.000000006
 20
46.99999999
 30
0.0
 11
370.068148353
 21
46.4823619
 31
0.0
  0
LINE
  5
4C8
330
1F
100
AcDbEntity
  8
0
  6
CONTINUOUS
 62
     3
100
AcDbLine
 10
372.0000000069998
 20
59.000002687
 30
0.0
 11
372.000000006
 21
45.99999999
 31
0.0
  0
LINE
  5
4C9
330
1F
100
AcDbEntity
  8
0
  6
CONTINUOUS
 62
     3
100
AcDbLine
 10
372.000000006
 20
53.00000268699999
 30
0.0
 11
370.068148354
 21
53.517640777
 31
0.0
  0
LINE
  5
4CA
330
1F
100
AcDbEntity
  8
0
  6
CONTINUOUS
 62
     3
100
AcDbLine
 10
372.000000006
 20
53.00000268699999
 30
0.0
 11
370.068148354
 21
52.482364597
 31
0.0
  0
LINE
  5
4CB
330
1F
100
AcDbEntity
  8
0
  6
CONTINUOUS
 62
     3
100
AcDbLine
 10
372.000000006
 20
53.00000268699999
 30
0.0
 11
278.0000000059997
 21
53.00000269199999
 31
0.0
  0
LINE
  5
4CC
330
1F
100
AcDbEntity
  8
0
  6
CONTINUOUS
 62
     3
100
AcDbLine
 10
278.0000000059997
 20
53.00000269199999
 30
0.0
 11
279.931851659
 21
52.482364602
 31
0.0
  0
LINE
  5
4CD
330
1F
100
AcDbEntity
  8
0
  6
CONTINUOUS
 62
     3
100
AcDbLine
 10
278.0000000059997
 20
53.00000269199999
 30
0.0
 11
279.931851659
 21
53.517640783
 31
0.0
  0
LINE
  5
4CE
330
1F
100
AcDbEntity
  8
0
  6
CONTINUOUS
 62
     3
100
AcDbLine
 10
278.0000000069998
 20
59.00000269199999
 30
0.0
 11
278.0000000059997
 21
52.000002692
 31
0.0
  0
TEXT
  5
4CF
330
1F
100
AcDbEntity
  8
0
  6
CONTINUOUS
 62
     3
100
AcDbText
 10
323.3500000059996
 20
53.50002434153528
 30
0.0
 40
1.597076637775555
  1
９４
 41
0.8
  7
MS_PGOTHIC
 11
323.3500000059996
 21
53.17347207775511
 31
0.0
100
AcDbText
 73
     1
  0
LINE
  5
4D0
330
1F
100
AcDbEntity
  8
0
  6
CONTINUOUS
 62
     3
100
AcDbLine
 10
292.6000000099998
 20
108.4999999949999
 30
0.0
 11
292.6000000109998
 21
113.9999999949999
 31
0.0
  0
LINE
  5
4D1
330
1F
100
AcDbEntity
  8
0
  6
CONTINUOUS
 62
     3
100
AcDbLine
 10
292.6000000099998
 20
112.9999999949999
 30
0.0
 11
294.5318516629999
 21
112.482361905
 31
0.0
  0
LINE
  5
4D2
330
1F
100
AcDbEntity
  8
0
  6
CONTINUOUS
 62
     3
100
AcDbLine
 10
292.6000000099998
 20
112.9999999949999
 30
0.0
 11
294.5318516629999
 21
113.5176380849999
 31
0.0
  0
LINE
  5
4D3
330
1F
100
AcDbEntity
  8
0
  6
CONTINUOUS
 62
     3
100
AcDbLine
 10
292.6000000099998
 20
112.9999999949999
 30
0.0
 11
357.4000000099998
 21
112.999999991
 31
0.0
  0
LINE
  5
4D4
330
1F
100
AcDbEntity
  8
0
  6
CONTINUOUS
 62
     3
100
AcDbLine
 10
357.4000000099998
 20
112.999999991
 30
0.0
 11
355.468148358
 21
113.5176380809999
 31
0.0
  0
LINE
  5
4D5
330
1F
100
AcDbEntity
  8
0
  6
CONTINUOUS
 62
     3
100
AcDbLine
 10
357.4000000099998
 20
112.999999991
 30
0.0
 11
355.468148358
 21
112.482361901
 31
0.0
  0
LINE
  5
4D6
330
1F
100
AcDbEntity
  8
0
  6
CONTINUOUS
 62
     3
100
AcDbLine
 10
357.4000000099998
 20
108.500003805
 30
0.0
 11
357.4000000109999
 21
113.999999991
 31
0.0
  0
LINE
  5
4D7
330
1F
100
AcDbEntity
  8
0
  6
CONTINUOUS
 62
     3
100
AcDbLine
 10
264.551119669
 20
62.16285411
 30
0.0
 11
264.5511196699998
 21
63.836481401
 31
0.0
  0
LINE
  5
4D8
330
1F
100
AcDbEntity
  8
0
  6
CONTINUOUS
 62
     3
100
AcDbLine
 10
254.74987842
 20
63.74991125800001
 30
0.0
 11
266.5511196699998
 21
63.854633671
 31
0.0
  0
LINE
  5
4D9
330
1F
100
AcDbEntity
  8
0
  6
CONTINUOUS
 62
     3
100
AcDbLine
 10
266.551119669
 20
62.145366321
 30
0.0
 11
254.74987842
 21
62.250088735
 31
0.0
  0
LINE
  5
4DA
330
1F
100
AcDbEntity
  8
0
  6
CONTINUOUS
 62
     3
100
AcDbLine
 10
254.74987842
 20
62.24999999699999
 30
0.0
 11
254.74987842
 21
63.74999999699999
 31
0.0
  0
LINE
  5
4DB
330
1F
100
AcDbEntity
  8
0
  6
CONTINUOUS
 62
     3
100
AcDbLine
 10
264.551119672
 20
104.1628541099999
 30
0.0
 11
264.551119672
 21
105.8364814009999
 31
0.0
  0
LINE
  5
4DC
330
1F
100
AcDbEntity
  8
0
  6
CONTINUOUS
 62
     3
100
AcDbLine
 10
254.749878423
 20
105.7499112579999
 30
0.0
 11
266.551119672
 21
105.854633671
 31
0.0
  0
LINE
  5
4DD
330
1F
100
AcDbEntity
  8
0
  6
CONTINUOUS
 62
     3
100
AcDbLine
 10
266.551119672
 20
104.1453663209999
 30
0.0
 11
254.749878422
 21
104.250088735
 31
0.0
  0
LINE
  5
4DE
330
1F
100
AcDbEntity
  8
0
  6
CONTINUOUS
 62
     3
100
AcDbLine
 10
254.749878422
 20
104.2499999969999
 30
0.0
 11
254.749878423
 21
105.749999997
 31
0.0
  0
LINE
  5
4DF
330
1F
100
AcDbEntity
  8
0
  6
CONTINUOUS
 62
     3
100
AcDbLine
 10
243.15111967
 20
72.259999997
 30
0.0
 11
243.15111967
 21
73.759999997
 31
0.0
  0
LINE
  5
4E0
330
1F
100
AcDbEntity
  8
0
  6
CONTINUOUS
 62
     3
100
AcDbLine
 10
243.1511196709998
 20
95.73999999700001
 30
0.0
 11
243.1511196709998
 21
94.23999999700001
 31
0.0
  0
LINE
  5
4E1
330
1F
100
AcDbEntity
  8
0
  6
CONTINUOUS
 62
     3
100
AcDbLine
 10
246.6511196709998
 20
95.73999999700001
 30
0.0
 11
246.651119672
 21
99.23999999700001
 31
0.0
  0
LINE
  5
4E2
330
1F
100
AcDbEntity
  8
0
  6
CONTINUOUS
 62
     3
100
AcDbLine
 10
246.65111967
 20
73.759999997
 30
0.0
 11
246.6511196709998
 21
94.23999999700001
 31
0.0
  0
LINE
  5
4E3
330
1F
100
AcDbEntity
  8
0
  6
CONTINUOUS
 62
     3
100
AcDbLine
 10
246.65111967
 20
68.759999997
 30
0.0
 11
246.65111967
 21
72.259999997
 31
0.0
  0
LINE
  5
4E4
330
1F
100
AcDbEntity
  8
0
  6
CONTINUOUS
 62
     3
100
AcDbLine
 10
254.301119672
 20
98.19999999700002
 30
0.0
 11
254.3011196709996
 21
95.199999997
 31
0.0
  0
LINE
  5
4E5
330
1F
100
AcDbEntity
  8
0
  6
CONTINUOUS
 62
     3
100
AcDbLine
 10
254.3011196709996
 20
95.199999997
 30
0.0
 11
257.301119671
 21
95.19999999600002
 31
0.0
  0
LINE
  5
4E6
330
1F
100
AcDbEntity
  8
0
  6
CONTINUOUS
 62
     3
100
AcDbLine
 10
257.301119671
 20
95.19999999600002
 30
0.0
 11
257.301119672
 21
98.199999996
 31
0.0
  0
LINE
  5
4E7
330
1F
100
AcDbEntity
  8
0
  6
CONTINUOUS
 62
     3
100
AcDbLine
 10
257.301119672
 20
98.199999996
 30
0.0
 11
254.301119672
 21
98.19999999700002
 31
0.0
  0
LINE
  5
4E8
330
1F
100
AcDbEntity
  8
0
  6
CONTINUOUS
 62
     3
100
AcDbLine
 10
254.301119672
 20
98.19999999700002
 30
0.0
 11
253.051119672
 21
98.699999997
 31
0.0
  0
LINE
  5
4E9
330
1F
100
AcDbEntity
  8
0
  6
CONTINUOUS
 62
     3
100
AcDbLine
 10
253.051119671
 20
94.699999997
 30
0.0
 11
254.3011196709996
 21
95.199999997
 31
0.0
  0
LINE
  5
4EA
330
1F
100
AcDbEntity
  8
0
  6
CONTINUOUS
 62
     3
100
AcDbLine
 10
257.301119671
 20
95.19999999600002
 30
0.0
 11
258.5511196709999
 21
94.699999996
 31
0.0
  0
LINE
  5
4EB
330
1F
100
AcDbEntity
  8
0
  6
CONTINUOUS
 62
     3
100
AcDbLine
 10
257.301119672
 20
98.199999996
 30
0.0
 11
258.551119672
 21
98.699999996
 31
0.0
  0
LINE
  5
4EC
330
1F
100
AcDbEntity
  8
0
  6
CONTINUOUS
 62
     3
100
AcDbLine
 10
254.3011196709996
 20
93.11999999700001
 30
0.0
 11
254.3011196709996
 21
90.119999997
 31
0.0
  0
LINE
  5
4ED
330
1F
100
AcDbEntity
  8
0
  6
CONTINUOUS
 62
     3
100
AcDbLine
 10
254.3011196709996
 20
90.119999997
 30
0.0
 11
257.301119671
 21
90.119999996
 31
0.0
  0
LINE
  5
4EE
330
1F
100
AcDbEntity
  8
0
  6
CONTINUOUS
 62
     3
100
AcDbLine
 10
257.301119671
 20
90.119999996
 30
0.0
 11
257.301119671
 21
93.119999996
 31
0.0
  0
LINE
  5
4EF
330
1F
100
AcDbEntity
  8
0
  6
CONTINUOUS
 62
     3
100
AcDbLine
 10
257.301119671
 20
93.119999996
 30
0.0
 11
254.3011196709996
 21
93.11999999700001
 31
0.0
  0
LINE
  5
4F0
330
1F
100
AcDbEntity
  8
0
  6
CONTINUOUS
 62
     3
100
AcDbLine
 10
254.3011196709996
 20
93.11999999700001
 30
0.0
 11
253.051119671
 21
93.61999999700001
 31
0.0
  0
LINE
  5
4F1
330
1F
100
AcDbEntity
  8
0
  6
CONTINUOUS
 62
     3
100
AcDbLine
 10
253.051119671
 20
89.61999999700001
 30
0.0
 11
254.3011196709996
 21
90.119999997
 31
0.0
  0
LINE
  5
4F2
330
1F
100
AcDbEntity
  8
0
  6
CONTINUOUS
 62
     3
100
AcDbLine
 10
257.301119671
 20
90.119999996
 30
0.0
 11
258.5511196709999
 21
89.619999996
 31
0.0
  0
LINE
  5
4F3
330
1F
100
AcDbEntity
  8
0
  6
CONTINUOUS
 62
     3
100
AcDbLine
 10
257.301119671
 20
93.119999996
 30
0.0
 11
258.5511196709999
 21
93.619999996
 31
0.0
  0
LINE
  5
4F4
330
1F
100
AcDbEntity
  8
0
  6
CONTINUOUS
 62
     3
100
AcDbLine
 10
254.3011196709996
 20
88.03999999700002
 30
0.0
 11
254.3011196709996
 21
85.039999997
 31
0.0
  0
LINE
  5
4F5
330
1F
100
AcDbEntity
  8
0
  6
CONTINUOUS
 62
     3
100
AcDbLine
 10
254.3011196709996
 20
85.039999997
 30
0.0
 11
257.301119671
 21
85.03999999600003
 31
0.0
  0
LINE
  5
4F6
330
1F
100
AcDbEntity
  8
0
  6
CONTINUOUS
 62
     3
100
AcDbLine
 10
257.301119671
 20
85.03999999600003
 30
0.0
 11
257.301119671
 21
88.039999996
 31
0.0
  0
LINE
  5
4F7
330
1F
100
AcDbEntity
  8
0
  6
CONTINUOUS
 62
     3
100
AcDbLine
 10
257.301119671
 20
88.039999996
 30
0.0
 11
254.3011196709996
 21
88.03999999700002
 31
0.0
  0
LINE
  5
4F8
330
1F
100
AcDbEntity
  8
0
  6
CONTINUOUS
 62
     3
100
AcDbLine
 10
254.3011196709996
 20
88.03999999700002
 30
0.0
 11
253.051119671
 21
88.539999997
 31
0.0
  0
LINE
  5
4F9
330
1F
100
AcDbEntity
  8
0
  6
CONTINUOUS
 62
     3
100
AcDbLine
 10
253.051119671
 20
84.539999997
 30
0.0
 11
254.3011196709996
 21
85.039999997
 31
0.0
  0
LINE
  5
4FA
330
1F
100
AcDbEntity
  8
0
  6
CONTINUOUS
 62
     3
100
AcDbLine
 10
257.301119671
 20
85.03999999600003
 30
0.0
 11
258.5511196709999
 21
84.539999996
 31
0.0
  0
LINE
  5
4FB
330
1F
100
AcDbEntity
  8
0
  6
CONTINUOUS
 62
     3
100
AcDbLine
 10
257.301119671
 20
88.039999996
 30
0.0
 11
258.5511196709999
 21
88.539999996
 31
0.0
  0
LINE
  5
4FC
330
1F
100
AcDbEntity
  8
0
  6
CONTINUOUS
 62
     3
100
AcDbLine
 10
254.3011196699999
 20
72.799999997
 30
0.0
 11
254.3011196699999
 21
69.799999997
 31
0.0
  0
LINE
  5
4FD
330
1F
100
AcDbEntity
  8
0
  6
CONTINUOUS
 62
     3
100
AcDbLine
 10
254.3011196699999
 20
69.799999997
 30
0.0
 11
257.30111967
 21
69.799999996
 31
0.0
  0
LINE
  5
4FE
330
1F
100
AcDbEntity
  8
0
  6
CONTINUOUS
 62
     3
100
AcDbLine
 10
257.30111967
 20
69.799999996
 30
0.0
 11
257.30111967
 21
72.79999999599998
 31
0.0
  0
LINE
  5
4FF
330
1F
100
AcDbEntity
  8
0
  6
CONTINUOUS
 62
     3
100
AcDbLine
 10
257.30111967
 20
72.79999999599998
 30
0.0
 11
254.3011196699999
 21
72.799999997
 31
0.0
  0
LINE
  5
500
330
1F
100
AcDbEntity
  8
0
  6
CONTINUOUS
 62
     3
100
AcDbLine
 10
254.3011196699999
 20
72.799999997
 30
0.0
 11
253.05111967
 21
73.299999997
 31
0.0
  0
LINE
  5
501
330
1F
100
AcDbEntity
  8
0
  6
CONTINUOUS
 62
     3
100
AcDbLine
 10
253.05111967
 20
69.299999997
 30
0.0
 11
254.3011196699999
 21
69.799999997
 31
0.0
  0
LINE
  5
502
330
1F
100
AcDbEntity
  8
0
  6
CONTINUOUS
 62
     3
100
AcDbLine
 10
257.30111967
 20
69.799999996
 30
0.0
 11
258.55111967
 21
69.299999996
 31
0.0
  0
LINE
  5
503
330
1F
100
AcDbEntity
  8
0
  6
CONTINUOUS
 62
     3
100
AcDbLine
 10
257.30111967
 20
72.79999999599998
 30
0.0
 11
258.55111967
 21
73.29999999599998
 31
0.0
  0
LINE
  5
504
330
1F
100
AcDbEntity
  8
0
  6
CONTINUOUS
 62
     3
100
AcDbLine
 10
254.3011196709996
 20
82.959999997
 30
0.0
 11
254.3011196699999
 21
79.95999999699998
 31
0.0
  0
LINE
  5
505
330
1F
100
AcDbEntity
  8
0
  6
CONTINUOUS
 62
     3
100
AcDbLine
 10
254.3011196699999
 20
79.95999999699998
 30
0.0
 11
257.30111967
 21
79.95999999600001
 31
0.0
  0
LINE
  5
506
330
1F
100
AcDbEntity
  8
0
  6
CONTINUOUS
 62
     3
100
AcDbLine
 10
257.30111967
 20
79.95999999600001
 30
0.0
 11
257.301119671
 21
82.95999999600001
 31
0.0
  0
LINE
  5
507
330
1F
100
AcDbEntity
  8
0
  6
CONTINUOUS
 62
     3
100
AcDbLine
 10
257.301119671
 20
82.95999999600001
 30
0.0
 11
254.3011196709996
 21
82.959999997
 31
0.0
  0
LINE
  5
508
330
1F
100
AcDbEntity
  8
0
  6
CONTINUOUS
 62
     3
100
AcDbLine
 10
254.3011196709996
 20
82.959999997
 30
0.0
 11
253.051119671
 21
83.45999999699998
 31
0.0
  0
LINE
  5
509
330
1F
100
AcDbEntity
  8
0
  6
CONTINUOUS
 62
     3
100
AcDbLine
 10
253.05111967
 20
79.45999999699998
 30
0.0
 11
254.3011196699999
 21
79.95999999699998
 31
0.0
  0
LINE
  5
50A
330
1F
100
AcDbEntity
  8
0
  6
CONTINUOUS
 62
     3
100
AcDbLine
 10
257.30111967
 20
79.95999999600001
 30
0.0
 11
258.55111967
 21
79.45999999600001
 31
0.0
  0
LINE
  5
50B
330
1F
100
AcDbEntity
  8
0
  6
CONTINUOUS
 62
     3
100
AcDbLine
 10
257.301119671
 20
82.95999999600001
 30
0.0
 11
258.5511196709999
 21
83.45999999600001
 31
0.0
  0
LINE
  5
50C
330
1F
100
AcDbEntity
  8
0
  6
CONTINUOUS
 62
     3
100
AcDbLine
 10
254.3011196699999
 20
77.879999997
 30
0.0
 11
254.3011196699999
 21
74.879999997
 31
0.0
  0
LINE
  5
50D
330
1F
100
AcDbEntity
  8
0
  6
CONTINUOUS
 62
     3
100
AcDbLine
 10
254.3011196699999
 20
74.879999997
 30
0.0
 11
257.30111967
 21
74.87999999600001
 31
0.0
  0
LINE
  5
50E
330
1F
100
AcDbEntity
  8
0
  6
CONTINUOUS
 62
     3
100
AcDbLine
 10
257.30111967
 20
74.87999999600001
 30
0.0
 11
257.30111967
 21
77.87999999600001
 31
0.0
  0
LINE
  5
50F
330
1F
100
AcDbEntity
  8
0
  6
CONTINUOUS
 62
     3
100
AcDbLine
 10
257.30111967
 20
77.87999999600001
 30
0.0
 11
254.3011196699999
 21
77.879999997
 31
0.0
  0
LINE
  5
510
330
1F
100
AcDbEntity
  8
0
  6
CONTINUOUS
 62
     3
100
AcDbLine
 10
254.3011196699999
 20
77.879999997
 30
0.0
 11
253.05111967
 21
78.379999997
 31
0.0
  0
LINE
  5
511
330
1F
100
AcDbEntity
  8
0
  6
CONTINUOUS
 62
     3
100
AcDbLine
 10
253.05111967
 20
74.379999997
 30
0.0
 11
254.3011196699999
 21
74.879999997
 31
0.0
  0
LINE
  5
512
330
1F
100
AcDbEntity
  8
0
  6
CONTINUOUS
 62
     3
100
AcDbLine
 10
257.30111967
 20
74.87999999600001
 30
0.0
 11
258.55111967
 21
74.37999999600001
 31
0.0
  0
LINE
  5
513
330
1F
100
AcDbEntity
  8
0
  6
CONTINUOUS
 62
     3
100
AcDbLine
 10
257.30111967
 20
77.87999999600001
 30
0.0
 11
258.55111967
 21
78.37999999599998
 31
0.0
  0
LINE
  5
514
330
1F
100
AcDbEntity
  8
0
  6
CONTINUOUS
 62
     3
100
AcDbLine
 10
259.551119672
 20
99.23999999600004
 30
0.0
 11
259.5511196699998
 21
68.759999996
 31
0.0
  0
LINE
  5
515
330
1F
100
AcDbEntity
  8
0
  6
CONTINUOUS
 62
     1
100
AcDbLine
 10
292.6000000099998
 20
106.999999995
 30
0.0
 11
292.600000007
 21
60.999999995
 31
0.0
  0
ARC
  5
516
330
1F
100
AcDbEntity
  8
0
  6
CONTINUOUS
 62
     1
100
AcDbCircle
 10
293.6000000069999
 20
60.999999995
 30
0.0
 40
1.0
100
AcDbArc
 50
180.0
 51
270.0
  0
ARC
  5
517
330
1F
100
AcDbEntity
  8
0
  6
CONTINUOUS
 62
     1
100
AcDbCircle
 10
279.000000007
 20
60.99999999600001
 30
0.0
 40
1.0
100
AcDbArc
 50
180.0
 51
270.0
  0
ARC
  5
518
330
1F
100
AcDbEntity
  8
0
  6
CONTINUOUS
 62
     1
100
AcDbCircle
 10
276.4150000079999
 20
74.99999999599999
 30
0.0
 40
1.0
100
AcDbArc
 50
180.0
 51
270.0
  0
LINE
  5
519
330
1F
100
AcDbEntity
  8
0
  6
CONTINUOUS
 62
     1
100
AcDbLine
 10
276.4150000079999
 20
73.999999996
 30
0.0
 11
278.0000000079999
 21
73.999999996
 31
0.0
  0
LINE
  5
51A
330
1F
100
AcDbEntity
  8
0
  6
CONTINUOUS
 62
     1
100
AcDbLine
 10
275.415000009
 20
92.999999996
 30
0.0
 11
275.415000008
 21
74.99999999599999
 31
0.0
  0
ARC
  5
51B
330
1F
100
AcDbEntity
  8
0
  6
CONTINUOUS
 62
     1
100
AcDbCircle
 10
276.415000009
 20
92.999999996
 30
0.0
 40
1.0
100
AcDbArc
 50
90.0
 51
180.0
  0
LINE
  5
51C
330
1F
100
AcDbEntity
  8
0
  6
CONTINUOUS
 62
     1
100
AcDbLine
 10
278.000000009
 20
93.999999996
 30
0.0
 11
276.415000009
 21
93.999999996
 31
0.0
  0
ARC
  5
51D
330
1F
100
AcDbEntity
  8
0
  6
CONTINUOUS
 62
     1
100
AcDbCircle
 10
279.00000001
 20
106.999999996
 30
0.0
 40
1.0
100
AcDbArc
 50
90.0
 51
180.0
  0
ARC
  5
51E
330
1F
100
AcDbEntity
  8
0
  6
CONTINUOUS
 62
     1
100
AcDbCircle
 10
371.0000000099998
 20
106.99999999
 30
0.0
 40
1.0
100
AcDbArc
 50
0.0
 51
90.0
  0
ARC
  5
51F
330
1F
100
AcDbEntity
  8
0
  6
CONTINUOUS
 62
     1
100
AcDbCircle
 10
371.0000000069998
 20
60.99999999
 30
0.0
 40
1.0
100
AcDbArc
 50
270.0
 51
0.0
  0
ARC
  5
520
330
1F
100
AcDbEntity
  8
0
  6
CONTINUOUS
 62
     1
100
AcDbCircle
 10
356.4000000069999
 20
60.999999991
 30
0.0
 40
1.0
100
AcDbArc
 50
270.0
 51
0.0
  0
LINE
  5
521
330
1F
100
AcDbEntity
  8
0
  6
CONTINUOUS
 62
     1
100
AcDbLine
 10
279.000000007
 20
59.999999996
 30
0.0
 11
371.0000000069998
 21
59.99999998999999
 31
0.0
  0
LINE
  5
522
330
1F
100
AcDbEntity
  8
0
  6
CONTINUOUS
 62
     1
100
AcDbLine
 10
278.00000001
 20
106.999999996
 30
0.0
 11
278.0000000069998
 21
60.99999999600001
 31
0.0
  0
LINE
  5
523
330
1F
100
AcDbEntity
  8
0
  6
CONTINUOUS
 62
     1
100
AcDbLine
 10
368.50000001
 20
104.0499999899999
 30
0.0
 11
361.50000001
 21
104.0499999899999
 31
0.0
  0
ARC
  5
524
330
1F
100
AcDbEntity
  8
0
  6
CONTINUOUS
 62
     1
100
AcDbCircle
 10
356.40000001
 20
106.999999991
 30
0.0
 40
1.0
100
AcDbArc
 50
0.0
 51
90.0
  0
LINE
  5
525
330
1F
100
AcDbEntity
  8
0
  6
CONTINUOUS
 62
     1
100
AcDbLine
 10
357.4000000069996
 20
60.99999999
 30
0.0
 11
357.4000000099998
 21
106.99999999
 31
0.0
  0
LINE
  5
526
330
1F
100
AcDbEntity
  8
0
  6
CONTINUOUS
 62
     1
100
AcDbLine
 10
361.5000000069998
 20
63.94999999
 30
0.0
 11
368.500000007
 21
63.94999999
 31
0.0
  0
LINE
  5
527
330
1F
100
AcDbEntity
  8
0
  6
CONTINUOUS
 62
     1
100
AcDbLine
 10
358.9600000089999
 20
99.49999999
 30
0.0
 11
358.960000008
 21
68.49999999
 31
0.0
  0
LINE
  5
528
330
1F
100
AcDbEntity
  8
0
  6
CONTINUOUS
 62
     1
100
AcDbLine
 10
371.800000008
 20
68.499999989
 30
0.0
 11
371.800000009
 21
99.499999989
 31
0.0
  0
LINE
  5
529
330
1F
100
AcDbEntity
  8
0
  6
CONTINUOUS
 62
     1
100
AcDbLine
 10
372.0000000069998
 20
60.99999998899999
 30
0.0
 11
372.00000001
 21
106.999999989
 31
0.0
  0
ARC
  5
52A
330
1F
100
AcDbEntity
  8
0
  6
CONTINUOUS
 62
     1
100
AcDbCircle
 10
293.6000000099998
 20
106.999999995
 30
0.0
 40
1.0
100
AcDbArc
 50
90.0
 51
180.0
  0
LINE
  5
52B
330
1F
100
AcDbEntity
  8
0
  6
CONTINUOUS
 62
     1
100
AcDbLine
 10
371.0000000099998
 20
107.99999999
 30
0.0
 11
279.00000001
 21
107.999999996
 31
0.0
  0
LINE
  5
52C
330
1F
100
AcDbEntity
  8
0
  6
CONTINUOUS
 62
     1
100
AcDbLine
 10
225.751119672
 20
107.9999999979998
 30
0.0
 11
225.751119669
 21
59.99999999799999
 31
0.0
  0
LINE
  5
52D
330
1F
100
AcDbEntity
  8
0
  6
CONTINUOUS
 62
     1
100
AcDbLine
 10
230.2511196709999
 20
94.199999998
 30
0.0
 11
225.7511196709999
 21
94.199999998
 31
0.0
  0
LINE
  5
52E
330
1F
100
AcDbEntity
  8
0
  6
CONTINUOUS
 62
     1
100
AcDbLine
 10
230.25111967
 20
73.799999998
 30
0.0
 11
230.2511196709999
 21
94.199999998
 31
0.0
  0
LINE
  5
52F
330
1F
100
AcDbEntity
  8
0
  6
CONTINUOUS
 62
     1
100
AcDbLine
 10
225.75111967
 20
73.799999998
 30
0.0
 11
230.25111967
 21
73.799999998
 31
0.0
  0
LINE
  5
530
330
1F
100
AcDbEntity
  8
0
  6
CONTINUOUS
 62
     1
100
AcDbLine
 10
225.751119669
 20
59.99999999799999
 30
0.0
 11
265.551119669
 21
59.999999996
 31
0.0
  0
ARC
  5
531
330
1F
100
AcDbEntity
  8
0
  6
CONTINUOUS
 62
     1
100
AcDbCircle
 10
242.151119672
 20
106.999999997
 30
0.0
 40
1.0
100
AcDbArc
 50
0.0
 51
90.0
  0
ARC
  5
532
330
1F
100
AcDbEntity
  8
0
  6
CONTINUOUS
 62
     1
100
AcDbCircle
 10
265.551119672
 20
106.999999996
 30
0.0
 40
1.0
100
AcDbArc
 50
0.0
 51
90.0
  0
LINE
  5
533
330
1F
100
AcDbEntity
  8
0
  6
CONTINUOUS
 62
     1
100
AcDbLine
 10
265.551119672
 20
107.999999996
 30
0.0
 11
225.751119672
 21
107.9999999979998
 31
0.0
  0
ARC
  5
534
330
1F
100
AcDbEntity
  8
0
  6
CONTINUOUS
 62
     1
100
AcDbCircle
 10
265.551119669
 20
60.99999999600001
 30
0.0
 40
1.0
100
AcDbArc
 50
270.0
 51
0.0
  0
LINE
  5
535
330
1F
100
AcDbEntity
  8
0
  6
CONTINUOUS
 62
     1
100
AcDbLine
 10
248.15111967
 20
68.759999997
 30
0.0
 11
252.0511196699999
 21
68.759999997
 31
0.0
  0
LINE
  5
536
330
1F
100
AcDbEntity
  8
0
  6
CONTINUOUS
 62
     1
100
AcDbLine
 10
252.0511196699999
 20
68.759999997
 30
0.0
 11
259.5511196699998
 21
68.759999996
 31
0.0
  0
LINE
  5
537
330
1F
100
AcDbEntity
  8
0
  6
CONTINUOUS
 62
     1
100
AcDbLine
 10
252.051119672
 20
99.23999999700001
 30
0.0
 11
252.0511196699999
 21
68.759999997
 31
0.0
  0
ARC
  5
538
330
1F
100
AcDbEntity
  8
0
  6
CONTINUOUS
 62
     1
100
AcDbCircle
 10
242.151119669
 20
60.99999999699999
 30
0.0
 40
1.0
100
AcDbArc
 50
270.0
 51
0.0
  0
LINE
  5
539
330
1F
100
AcDbEntity
  8
0
  6
CONTINUOUS
 62
     1
100
AcDbLine
 10
243.151119669
 20
60.99999999699999
 30
0.0
 11
243.151119672
 21
106.999999997
 31
0.0
  0
LINE
  5
53A
330
1F
100
AcDbEntity
  8
0
  6
CONTINUOUS
 62
     1
100
AcDbLine
 10
243.15111967
 20
66.999999997
 30
0.0
 11
247.65111967
 21
66.999999997
 31
0.0
  0
ARC
  5
53B
330
1F
100
AcDbEntity
  8
0
  6
CONTINUOUS
 62
     1
100
AcDbCircle
 10
247.65111967
 20
67.499999997
 30
0.0
 40
0.5
100
AcDbArc
 50
270.0
 51
0.0
  0
LINE
  5
53C
330
1F
100
AcDbEntity
  8
0
  6
CONTINUOUS
 62
     1
100
AcDbLine
 10
248.15111967
 20
67.499999997
 30
0.0
 11
248.15111967
 21
68.759999997
 31
0.0
  0
ARC
  5
53D
330
1F
100
AcDbEntity
  8
0
  6
CONTINUOUS
 62
     1
100
AcDbCircle
 10
244.65111967
 20
67.499999997
 30
0.0
 40
0.5
100
AcDbArc
 50
270.0
 51
0.0
  0
LINE
  5
53E
330
1F
100
AcDbEntity
  8
0
  6
CONTINUOUS
 62
     1
100
AcDbLine
 10
248.15111967
 20
68.759999997
 30
0.0
 11
245.15111967
 21
68.759999997
 31
0.0
  0
ARC
  5
53F
330
1F
100
AcDbEntity
  8
0
  6
CONTINUOUS
 62
     1
100
AcDbCircle
 10
244.65111967
 20
71.599999997
 30
0.0
 40
0.5
100
AcDbArc
 50
0.0
 51
90.0
  0
LINE
  5
540
330
1F
100
AcDbEntity
  8
0
  6
CONTINUOUS
 62
     1
100
AcDbLine
 10
244.65111967
 20
72.09999999699998
 30
0.0
 11
243.15111967
 21
72.09999999699998
 31
0.0
  0
LINE
  5
541
330
1F
100
AcDbEntity
  8
0
  6
CONTINUOUS
 62
     1
100
AcDbLine
 10
248.15111967
 20
72.259999997
 30
0.0
 11
243.15111967
 21
72.259999997
 31
0.0
  0
LINE
  5
542
330
1F
100
AcDbEntity
  8
0
  6
CONTINUOUS
 62
     1
100
AcDbLine
 10
248.151119672
 20
99.23999999700001
 30
0.0
 11
248.15111967
 21
68.759999997
 31
0.0
  0
LINE
  5
543
330
1F
100
AcDbEntity
  8
0
  6
CONTINUOUS
 62
     1
100
AcDbLine
 10
243.15111967
 20
73.899999997
 30
0.0
 11
244.65111967
 21
73.899999997
 31
0.0
  0
LINE
  5
544
330
1F
100
AcDbEntity
  8
0
  6
CONTINUOUS
 62
     1
100
AcDbLine
 10
243.15111967
 20
73.759999997
 30
0.0
 11
248.15111967
 21
73.759999997
 31
0.0
  0
LINE
  5
545
330
1F
100
AcDbEntity
  8
0
  6
CONTINUOUS
 62
     1
100
AcDbLine
 10
244.3511196709996
 20
81.499999997
 30
0.0
 11
244.3511196709996
 21
86.499999997
 31
0.0
  0
LINE
  5
546
330
1F
100
AcDbEntity
  8
0
  6
CONTINUOUS
 62
     1
100
AcDbLine
 10
245.1511196709998
 20
81.499999997
 30
0.0
 11
244.3511196709996
 21
81.499999997
 31
0.0
  0
LINE
  5
547
330
1F
100
AcDbEntity
  8
0
  6
CONTINUOUS
 62
     1
100
AcDbLine
 10
244.3511196709996
 20
86.499999997
 30
0.0
 11
245.1511196709998
 21
86.499999997
 31
0.0
  0
LINE
  5
548
330
1F
100
AcDbEntity
  8
0
  6
CONTINUOUS
 62
     1
100
AcDbLine
 10
247.651119672
 20
101.499999997
 30
0.0
 11
243.151119672
 21
101.499999997
 31
0.0
  0
ARC
  5
549
330
1F
100
AcDbEntity
  8
0
  6
CONTINUOUS
 62
     1
100
AcDbCircle
 10
247.651119672
 20
100.999999997
 30
0.0
 40
0.5
100
AcDbArc
 50
0.0
 51
90.0
  0
LINE
  5
54A
330
1F
100
AcDbEntity
  8
0
  6
CONTINUOUS
 62
     1
100
AcDbLine
 10
248.151119672
 20
99.23999999700001
 30
0.0
 11
248.151119672
 21
100.999999997
 31
0.0
  0
LINE
  5
54B
330
1F
100
AcDbEntity
  8
0
  6
CONTINUOUS
 62
     1
100
AcDbLine
 10
245.151119672
 20
99.23999999700001
 30
0.0
 11
248.151119672
 21
99.23999999700001
 31
0.0
  0
ARC
  5
54C
330
1F
100
AcDbEntity
  8
0
  6
CONTINUOUS
 62
     1
100
AcDbCircle
 10
244.651119672
 20
100.999999997
 30
0.0
 40
0.5
100
AcDbArc
 50
0.0
 51
90.0
  0
ARC
  5
54D
330
1F
100
AcDbEntity
  8
0
  6
CONTINUOUS
 62
     1
100
AcDbCircle
 10
244.6511196709998
 20
96.39999999700002
 30
0.0
 40
0.5
100
AcDbArc
 50
270.0
 51
0.0
  0
LINE
  5
54E
330
1F
100
AcDbEntity
  8
0
  6
CONTINUOUS
 62
     1
100
AcDbLine
 10
245.1511196709998
 20
95.73999999700001
 30
0.0
 11
245.151119672
 21
99.23999999700001
 31
0.0
  0
LINE
  5
54F
330
1F
100
AcDbEntity
  8
0
  6
CONTINUOUS
 62
     1
100
AcDbLine
 10
245.1511196709998
 20
96.39999999700002
 30
0.0
 11
245.151119672
 21
100.999999997
 31
0.0
  0
LINE
  5
550
330
1F
100
AcDbEntity
  8
0
  6
CONTINUOUS
 62
     1
100
AcDbLine
 10
243.1511196709998
 20
95.89999999700001
 30
0.0
 11
244.6511196709998
 21
95.89999999700001
 31
0.0
  0
LINE
  5
551
330
1F
100
AcDbEntity
  8
0
  6
CONTINUOUS
 62
     1
100
AcDbLine
 10
248.1511196709998
 20
95.73999999700001
 30
0.0
 11
243.1511196709998
 21
95.73999999700001
 31
0.0
  0
LINE
  5
552
330
1F
100
AcDbEntity
  8
0
  6
CONTINUOUS
 62
     1
100
AcDbLine
 10
245.1511196709998
 20
86.499999997
 30
0.0
 11
245.1511196709998
 21
93.59999999700001
 31
0.0
  0
LINE
  5
553
330
1F
100
AcDbEntity
  8
0
  6
CONTINUOUS
 62
     1
100
AcDbLine
 10
244.6511196709998
 20
94.09999999700001
 30
0.0
 11
243.1511196709998
 21
94.09999999700001
 31
0.0
  0
ARC
  5
554
330
1F
100
AcDbEntity
  8
0
  6
CONTINUOUS
 62
     1
100
AcDbCircle
 10
244.6511196709998
 20
93.59999999700001
 30
0.0
 40
0.5
100
AcDbArc
 50
0.0
 51
90.0
  0
LINE
  5
555
330
1F
100
AcDbEntity
  8
0
  6
CONTINUOUS
 62
     1
100
AcDbLine
 10
243.1511196709998
 20
94.23999999700001
 30
0.0
 11
248.1511196709998
 21
94.23999999700001
 31
0.0
  0
LINE
  5
556
330
1F
100
AcDbEntity
  8
0
  6
CONTINUOUS
 62
     1
100
AcDbLine
 10
245.15111967
 20
74.399999997
 30
0.0
 11
245.1511196709998
 21
81.499999997
 31
0.0
  0
ARC
  5
557
330
1F
100
AcDbEntity
  8
0
  6
CONTINUOUS
 62
     1
100
AcDbCircle
 10
244.65111967
 20
74.399999997
 30
0.0
 40
0.5
100
AcDbArc
 50
270.0
 51
0.0
  0
LINE
  5
558
330
1F
100
AcDbEntity
  8
0
  6
CONTINUOUS
 62
     1
100
AcDbLine
 10
245.15111967
 20
73.759999997
 30
0.0
 11
245.1511196709998
 21
94.23999999700001
 31
0.0
  0
LINE
  5
559
330
1F
100
AcDbEntity
  8
0
  6
CONTINUOUS
 62
     1
100
AcDbLine
 10
245.15111967
 20
68.759999997
 30
0.0
 11
245.15111967
 21
72.259999997
 31
0.0
  0
LINE
  5
55A
330
1F
100
AcDbEntity
  8
0
  6
CONTINUOUS
 62
     1
100
AcDbLine
 10
245.15111967
 20
67.499999997
 30
0.0
 11
245.15111967
 21
71.599999997
 31
0.0
  0
LINE
  5
55B
330
1F
100
AcDbEntity
  8
0
  6
CONTINUOUS
 62
     1
100
AcDbLine
 10
253.051119672
 20
98.699999997
 30
0.0
 11
253.051119671
 21
94.699999997
 31
0.0
  0
LINE
  5
55C
330
1F
100
AcDbEntity
  8
0
  6
CONTINUOUS
 62
     1
100
AcDbLine
 10
253.051119671
 20
94.699999997
 30
0.0
 11
258.5511196709999
 21
94.699999996
 31
0.0
  0
LINE
  5
55D
330
1F
100
AcDbEntity
  8
0
  6
CONTINUOUS
 62
     1
100
AcDbLine
 10
258.5511196709999
 20
93.619999996
 30
0.0
 11
253.051119671
 21
93.61999999700001
 31
0.0
  0
LINE
  5
55E
330
1F
100
AcDbEntity
  8
0
  6
CONTINUOUS
 62
     1
100
AcDbLine
 10
258.5511196709999
 20
94.699999996
 30
0.0
 11
258.551119672
 21
98.699999996
 31
0.0
  0
LINE
  5
55F
330
1F
100
AcDbEntity
  8
0
  6
CONTINUOUS
 62
     1
100
AcDbLine
 10
258.551119672
 20
98.699999996
 30
0.0
 11
253.051119672
 21
98.699999997
 31
0.0
  0
LINE
  5
560
330
1F
100
AcDbEntity
  8
0
  6
CONTINUOUS
 62
     1
100
AcDbLine
 10
258.5511196709999
 20
89.619999996
 30
0.0
 11
258.5511196709999
 21
93.619999996
 31
0.0
  0
LINE
  5
561
330
1F
100
AcDbEntity
  8
0
  6
CONTINUOUS
 62
     1
100
AcDbLine
 10
253.051119671
 20
89.61999999700001
 30
0.0
 11
258.5511196709999
 21
89.619999996
 31
0.0
  0
LINE
  5
562
330
1F
100
AcDbEntity
  8
0
  6
CONTINUOUS
 62
     1
100
AcDbLine
 10
253.051119671
 20
93.61999999700001
 30
0.0
 11
253.051119671
 21
89.61999999700001
 31
0.0
  0
LINE
  5
563
330
1F
100
AcDbEntity
  8
0
  6
CONTINUOUS
 62
     1
100
AcDbLine
 10
253.051119671
 20
88.539999997
 30
0.0
 11
253.051119671
 21
84.539999997
 31
0.0
  0
LINE
  5
564
330
1F
100
AcDbEntity
  8
0
  6
CONTINUOUS
 62
     1
100
AcDbLine
 10
258.5511196709999
 20
88.539999996
 30
0.0
 11
253.051119671
 21
88.539999997
 31
0.0
  0
LINE
  5
565
330
1F
100
AcDbEntity
  8
0
  6
CONTINUOUS
 62
     1
100
AcDbLine
 10
258.5511196709999
 20
84.539999996
 30
0.0
 11
258.5511196709999
 21
88.539999996
 31
0.0
  0
LINE
  5
566
330
1F
100
AcDbEntity
  8
0
  6
CONTINUOUS
 62
     1
100
AcDbLine
 10
253.051119671
 20
84.539999997
 30
0.0
 11
258.5511196709999
 21
84.539999996
 31
0.0
  0
LINE
  5
567
330
1F
100
AcDbEntity
  8
0
  6
CONTINUOUS
 62
     1
100
AcDbLine
 10
258.5511196709999
 20
83.45999999600001
 30
0.0
 11
253.051119671
 21
83.45999999699998
 31
0.0
  0
LINE
  5
568
330
1F
100
AcDbEntity
  8
0
  6
CONTINUOUS
 62
     1
100
AcDbLine
 10
253.051119671
 20
83.45999999699998
 30
0.0
 11
253.05111967
 21
79.45999999699998
 31
0.0
  0
LINE
  5
569
330
1F
100
AcDbEntity
  8
0
  6
CONTINUOUS
 62
     1
100
AcDbLine
 10
258.55111967
 20
79.45999999600001
 30
0.0
 11
258.5511196709999
 21
83.45999999600001
 31
0.0
  0
LINE
  5
56A
330
1F
100
AcDbEntity
  8
0
  6
CONTINUOUS
 62
     1
100
AcDbLine
 10
253.05111967
 20
79.45999999699998
 30
0.0
 11
258.55111967
 21
79.45999999600001
 31
0.0
  0
LINE
  5
56B
330
1F
100
AcDbEntity
  8
0
  6
CONTINUOUS
 62
     1
100
AcDbLine
 10
258.55111967
 20
78.37999999599998
 30
0.0
 11
253.05111967
 21
78.379999997
 31
0.0
  0
LINE
  5
56C
330
1F
100
AcDbEntity
  8
0
  6
CONTINUOUS
 62
     1
100
AcDbLine
 10
258.55111967
 20
74.37999999600001
 30
0.0
 11
258.55111967
 21
78.37999999599998
 31
0.0
  0
LINE
  5
56D
330
1F
100
AcDbEntity
  8
0
  6
CONTINUOUS
 62
     1
100
AcDbLine
 10
253.05111967
 20
78.379999997
 30
0.0
 11
253.05111967
 21
74.379999997
 31
0.0
  0
LINE
  5
56E
330
1F
100
AcDbEntity
  8
0
  6
CONTINUOUS
 62
     1
100
AcDbLine
 10
258.55111967
 20
73.29999999599998
 30
0.0
 11
253.05111967
 21
73.299999997
 31
0.0
  0
LINE
  5
56F
330
1F
100
AcDbEntity
  8
0
  6
CONTINUOUS
 62
     1
100
AcDbLine
 10
253.05111967
 20
74.379999997
 30
0.0
 11
258.55111967
 21
74.37999999600001
 31
0.0
  0
LINE
  5
570
330
1F
100
AcDbEntity
  8
0
  6
CONTINUOUS
 62
     1
100
AcDbLine
 10
258.55111967
 20
69.299999996
 30
0.0
 11
258.55111967
 21
73.29999999599998
 31
0.0
  0
LINE
  5
571
330
1F
100
AcDbEntity
  8
0
  6
CONTINUOUS
 62
     1
100
AcDbLine
 10
253.05111967
 20
69.299999997
 30
0.0
 11
258.55111967
 21
69.299999996
 31
0.0
  0
LINE
  5
572
330
1F
100
AcDbEntity
  8
0
  6
CONTINUOUS
 62
     1
100
AcDbLine
 10
253.05111967
 20
73.299999997
 30
0.0
 11
253.05111967
 21
69.299999997
 31
0.0
  0
LINE
  5
573
330
1F
100
AcDbEntity
  8
0
  6
CONTINUOUS
 62
     1
100
AcDbLine
 10
359.910000009
 20
100.99999999
 30
0.0
 11
357.4000000099998
 21
100.99999999
 31
0.0
  0
LINE
  5
574
330
1F
100
AcDbEntity
  8
0
  6
CONTINUOUS
 62
     1
100
AcDbLine
 10
368.50000001
 20
102.8765217289999
 30
0.0
 11
368.50000001
 21
104.0499999899999
 31
0.0
  0
LINE
  5
575
330
1F
100
AcDbEntity
  8
0
  6
CONTINUOUS
 62
     1
100
AcDbLine
 10
361.50000001
 20
104.0499999899999
 30
0.0
 11
361.50000001
 21
103.180869555
 31
0.0
  0
LINE
  5
576
330
1F
100
AcDbEntity
  8
0
  6
CONTINUOUS
 62
     1
100
AcDbLine
 10
359.910000009
 20
99.49999999
 30
0.0
 11
358.9600000089999
 21
99.49999999
 31
0.0
  0
LINE
  5
577
330
1F
100
AcDbEntity
  8
0
  6
CONTINUOUS
 62
     1
100
AcDbLine
 10
358.960000008
 20
68.49999999
 30
0.0
 11
359.910000008
 21
68.49999999
 31
0.0
  0
LINE
  5
578
330
1F
100
AcDbEntity
  8
0
  6
CONTINUOUS
 62
     1
100
AcDbLine
 10
359.910000008
 20
66.99999999
 30
0.0
 11
357.4000000069996
 21
66.99999999
 31
0.0
  0
LINE
  5
579
330
1F
100
AcDbEntity
  8
0
  6
CONTINUOUS
 62
     1
100
AcDbLine
 10
361.5000000069998
 20
64.819130424
 30
0.0
 11
361.5000000069998
 21
63.94999999
 31
0.0
  0
LINE
  5
57A
330
1F
100
AcDbEntity
  8
0
  6
CONTINUOUS
 62
     1
100
AcDbLine
 10
368.500000007
 20
63.94999999
 30
0.0
 11
368.500000007
 21
65.12347825
 31
0.0
  0
LINE
  5
57B
330
1F
100
AcDbEntity
  8
0
  6
CONTINUOUS
 62
     1
100
AcDbLine
 10
371.410000008
 20
68.499999989
 30
0.0
 11
371.800000008
 21
68.499999989
 31
0.0
  0
LINE
  5
57C
330
1F
100
AcDbEntity
  8
0
  6
CONTINUOUS
 62
     1
100
AcDbLine
 10
371.800000009
 20
99.499999989
 30
0.0
 11
371.410000009
 21
99.499999989
 31
0.0
  0
LINE
  5
57D
330
1F
100
AcDbEntity
  8
0
  6
CONTINUOUS
 62
     3
100
AcDbLine
 10
287.50000001
 20
104.049999992
 30
0.0
 11
287.50000001
 21
103.049999992
 31
0.0
  0
LINE
  5
57E
330
1F
100
AcDbEntity
  8
0
  6
CONTINUOUS
 62
     3
100
AcDbLine
 10
287.50000001
 20
103.049999992
 30
0.0
 11
282.50000001
 21
103.049999991
 31
0.0
  0
LINE
  5
57F
330
1F
100
AcDbEntity
  8
0
  6
CONTINUOUS
 62
     3
100
AcDbLine
 10
282.50000001
 20
103.049999991
 30
0.0
 11
282.50000001
 21
104.049999991
 31
0.0
  0
LINE
  5
580
330
1F
100
AcDbEntity
  8
0
  6
CONTINUOUS
 62
     3
100
AcDbLine
 10
287.500000011
 20
64.949999992
 30
0.0
 11
287.500000011
 21
63.94999999199999
 31
0.0
  0
LINE
  5
581
330
1F
100
AcDbEntity
  8
0
  6
CONTINUOUS
 62
     3
100
AcDbLine
 10
282.500000011
 20
64.949999991
 30
0.0
 11
287.500000011
 21
64.949999992
 31
0.0
  0
LINE
  5
582
330
1F
100
AcDbEntity
  8
0
  6
CONTINUOUS
 62
     3
100
AcDbLine
 10
282.500000011
 20
63.94999999100001
 30
0.0
 11
282.500000011
 21
64.949999991
 31
0.0
  0
LINE
  5
583
330
1F
100
AcDbEntity
  8
0
  6
CONTINUOUS
 62
     1
100
AcDbLine
 10
281.5000000099999
 20
104.049999991
 30
0.0
 11
288.50000001
 21
104.049999992
 31
0.0
  0
LINE
  5
584
330
1F
100
AcDbEntity
  8
0
  6
CONTINUOUS
 62
     1
100
AcDbLine
 10
288.500000011
 20
63.94999999199999
 30
0.0
 11
281.500000011
 21
63.94999999100001
 31
0.0
  0
LINE
  5
585
330
1F
100
AcDbEntity
  8
0
  6
CONTINUOUS
 62
     1
100
AcDbLine
 10
291.0400000109996
 20
99.49999999200001
 30
0.0
 11
291.0400000109996
 21
68.499999992
 31
0.0
  0
LINE
  5
586
330
1F
100
AcDbEntity
  8
0
  6
CONTINUOUS
 62
     1
100
AcDbLine
 10
278.200000011
 20
68.49999999100001
 30
0.0
 11
278.200000011
 21
99.499999991
 31
0.0
  0
LINE
  5
587
330
1F
100
AcDbEntity
  8
0
  6
CONTINUOUS
 62
     1
100
AcDbLine
 10
290.0900000109998
 20
100.999999992
 30
0.0
 11
292.6000000099998
 21
100.999999992
 31
0.0
  0
LINE
  5
588
330
1F
100
AcDbEntity
  8
0
  6
CONTINUOUS
 62
     1
100
AcDbLine
 10
281.5000000099999
 20
102.8765217299997
 30
0.0
 11
281.5000000099999
 21
104.049999991
 31
0.0
  0
LINE
  5
589
330
1F
100
AcDbEntity
  8
0
  6
CONTINUOUS
 62
     1
100
AcDbLine
 10
288.50000001
 20
104.049999992
 30
0.0
 11
288.50000001
 21
103.180869556
 31
0.0
  0
LINE
  5
58A
330
1F
100
AcDbEntity
  8
0
  6
CONTINUOUS
 62
     1
100
AcDbLine
 10
290.0900000109998
 20
99.49999999200001
 30
0.0
 11
291.0400000109996
 21
99.49999999200001
 31
0.0
  0
LINE
  5
58B
330
1F
100
AcDbEntity
  8
0
  6
CONTINUOUS
 62
     1
100
AcDbLine
 10
291.0400000109996
 20
68.499999992
 30
0.0
 11
290.0900000109998
 21
68.499999992
 31
0.0
  0
LINE
  5
58C
330
1F
100
AcDbEntity
  8
0
  6
CONTINUOUS
 62
     1
100
AcDbLine
 10
290.0900000109998
 20
66.999999992
 30
0.0
 11
292.6000000109998
 21
66.999999992
 31
0.0
  0
LINE
  5
58D
330
1F
100
AcDbEntity
  8
0
  6
CONTINUOUS
 62
     1
100
AcDbLine
 10
288.500000011
 20
64.819130426
 30
0.0
 11
288.500000011
 21
63.94999999199999
 31
0.0
  0
LINE
  5
58E
330
1F
100
AcDbEntity
  8
0
  6
CONTINUOUS
 62
     1
100
AcDbLine
 10
281.500000011
 20
63.94999999100001
 30
0.0
 11
281.500000011
 21
65.12347825199998
 31
0.0
  0
LINE
  5
58F
330
1F
100
AcDbEntity
  8
0
  6
CONTINUOUS
 62
     1
100
AcDbLine
 10
278.5900000109999
 20
68.49999999100001
 30
0.0
 11
278.200000011
 21
68.49999999100001
 31
0.0
  0
LINE
  5
590
330
1F
100
AcDbEntity
  8
0
  6
CONTINUOUS
 62
     1
100
AcDbLine
 10
278.200000011
 20
99.499999991
 30
0.0
 11
278.5900000109999
 21
99.499999991
 31
0.0
  0
LINE
  5
591
330
1F
100
AcDbEntity
  8
0
  6
CONTINUOUS
 62
     1
100
AcDbLine
 10
290.0900000109998
 20
64.74999999100001
 30
0.0
 11
280.0248441739999
 21
65.187615462
 31
0.0
  0
LINE
  5
592
330
1F
100
AcDbEntity
  8
0
  6
CONTINUOUS
 62
     1
100
AcDbLine
 10
290.0900000109998
 20
103.249999991
 30
0.0
 11
290.0900000109998
 21
64.74999999100001
 31
0.0
  0
LINE
  5
593
330
1F
100
AcDbEntity
  8
0
  6
CONTINUOUS
 62
     1
100
AcDbLine
 10
278.5900000109999
 20
101.3138002829998
 30
0.0
 11
278.5900000109999
 21
66.6861997
 31
0.0
  0
ARC
  5
594
330
1F
100
AcDbEntity
  8
0
  6
CONTINUOUS
 62
     1
100
AcDbCircle
 10
280.0900000109999
 20
66.6861997
 30
0.0
 40
1.5
100
AcDbArc
 50
180.0
 51
267.510447079
  0
LINE
  5
595
330
1F
100
AcDbEntity
  8
0
  6
CONTINUOUS
 62
     1
100
AcDbLine
 10
290.0900000109998
 20
103.249999991
 30
0.0
 11
280.0248441749999
 21
102.8123845199999
 31
0.0
  0
ARC
  5
596
330
1F
100
AcDbEntity
  8
0
  6
CONTINUOUS
 62
     1
100
AcDbCircle
 10
280.0900000109999
 20
101.3138002829998
 30
0.0
 40
1.5
100
AcDbArc
 50
92.48955292199999
 51
180.0
  0
LINE
  5
597
330
1F
100
AcDbEntity
  8
0
  6
CONTINUOUS
 62
     1
100
AcDbLine
 10
359.910000009
 20
103.24999999
 30
0.0
 11
369.975155845
 21
102.8123845179998
 31
0.0
  0
ARC
  5
598
330
1F
100
AcDbEntity
  8
0
  6
CONTINUOUS
 62
     1
100
AcDbCircle
 10
369.910000009
 20
101.313800281
 30
0.0
 40
1.5
100
AcDbArc
 50
0.0
 51
87.510447078
  0
LINE
  5
599
330
1F
100
AcDbEntity
  8
0
  6
CONTINUOUS
 62
     1
100
AcDbLine
 10
359.910000009
 20
103.24999999
 30
0.0
 11
359.910000008
 21
64.74999999
 31
0.0
  0
LINE
  5
59A
330
1F
100
AcDbEntity
  8
0
  6
CONTINUOUS
 62
     1
100
AcDbLine
 10
371.410000009
 20
101.313800281
 30
0.0
 11
371.410000008
 21
66.686199698
 31
0.0
  0
LINE
  5
59B
330
1F
100
AcDbEntity
  8
0
  6
CONTINUOUS
 62
     1
100
AcDbLine
 10
359.910000008
 20
64.74999999
 30
0.0
 11
369.975155844
 21
65.18761546100001
 31
0.0
  0
ARC
  5
59C
330
1F
100
AcDbEntity
  8
0
  6
CONTINUOUS
 62
     1
100
AcDbCircle
 10
369.910000008
 20
66.686199698
 30
0.0
 40
1.5
100
AcDbArc
 50
272.4895529209999
 51
0.0
  0
LINE
  5
59D
330
1F
100
AcDbEntity
  8
0
  6
CONTINUOUS
 62
     3
100
AcDbLine
 10
267.65111967
 20
66.749999996
 30
0.0
 11
267.6511196709999
 21
83.94999999600002
 31
0.0
  0
ARC
  5
59E
330
1F
100
AcDbEntity
  8
0
  6
CONTINUOUS
 62
     3
100
AcDbCircle
 10
266.15111967
 20
66.749999996
 30
0.0
 40
1.5
100
AcDbArc
 50
270.0
 51
0.0
  0
LINE
  5
59F
330
1F
100
AcDbEntity
  8
0
  6
CONTINUOUS
 62
     3
100
AcDbLine
 10
267.6511196709999
 20
101.249998647
 30
0.0
 11
267.6511196709999
 21
84.049999996
 31
0.0
  0
ARC
  5
5A0
330
1F
100
AcDbEntity
  8
0
  6
CONTINUOUS
 62
     3
100
AcDbCircle
 10
266.151119671
 20
101.2499999959999
 30
0.0
 40
1.5
100
AcDbArc
 50
359.999948484
 51
90.0
  0
LINE
  5
5A1
330
1F
100
AcDbEntity
  8
0
  6
CONTINUOUS
 62
     3
100
AcDbLine
 10
243.15111967
 20
65.249999996
 30
0.0
 11
266.15111967
 21
65.249999996
 31
0.0
  0
ARC
  5
5A2
330
1F
100
AcDbEntity
  8
0
  6
CONTINUOUS
 62
     3
100
AcDbCircle
 10
266.151119671
 20
101.2499999959999
 30
0.0
 40
1.5
100
AcDbArc
 50
359.999948484
 51
90.0
  0
LINE
  5
5A3
330
1F
100
AcDbEntity
  8
0
  6
CONTINUOUS
 62
     3
100
AcDbLine
 10
243.151119672
 20
102.749999996
 30
0.0
 11
266.151119671
 21
102.749999996
 31
0.0
  0
LINE
  5
5A4
330
1F
100
AcDbEntity
  8
0
  6
CONTINUOUS
 62
     1
100
AcDbLine
 10
259.5511196699998
 20
68.759999996
 30
0.0
 11
260.646055578
 21
68.759999996
 31
0.0
  0
LINE
  5
5A5
330
1F
100
AcDbEntity
  8
0
  6
CONTINUOUS
 62
     3
100
AcDbLine
 10
259.5511196699998
 20
69.259999996
 30
0.0
 11
260.65111967
 21
69.259999996
 31
0.0
  0
LINE
  5
5A6
330
1F
100
AcDbEntity
  8
0
  6
CONTINUOUS
 62
     3
100
AcDbLine
 10
260.651119671
 20
98.73999999600002
 30
0.0
 11
259.551119672
 21
98.73999999600002
 31
0.0
  0
LINE
  5
5A7
330
1F
100
AcDbEntity
  8
0
  6
CONTINUOUS
 62
     1
100
AcDbLine
 10
260.651119671
 20
99.23999999600004
 30
0.0
 11
248.151119672
 21
99.23999999700001
 31
0.0
  0
LINE
  5
5A8
330
1F
100
AcDbEntity
  8
0
  6
CONTINUOUS
 62
     1
100
AcDbLine
 10
266.551119672
 20
103.186491669
 30
0.0
 11
266.551119672
 21
106.999999996
 31
0.0
  0
LINE
  5
5A9
330
1F
100
AcDbEntity
  8
0
  6
CONTINUOUS
 62
     1
100
AcDbLine
 10
266.551119669
 20
60.99999999600001
 30
0.0
 11
266.5511196699998
 21
64.81350832300001
 31
0.0
  0
LINE
  5
5AA
330
1F
100
AcDbEntity
  8
0
  6
CONTINUOUS
 62
     1
100
AcDbLine
 10
243.15111967
 20
64.749999996
 30
0.0
 11
266.0511196699999
 21
64.749999996
 31
0.0
  0
LINE
  5
5AB
330
1F
100
AcDbEntity
  8
0
  6
CONTINUOUS
 62
     1
100
AcDbLine
 10
249.15111967
 20
66.310982018
 30
0.0
 11
249.15111967
 21
65.249999996
 31
0.0
  0
LINE
  5
5AC
330
1F
100
AcDbEntity
  8
0
  6
CONTINUOUS
 62
     1
100
AcDbLine
 10
243.15111967
 20
66.24999999599999
 30
0.0
 11
249.15111967
 21
66.24999999599999
 31
0.0
  0
ARC
  5
5AD
330
1F
100
AcDbEntity
  8
0
  6
CONTINUOUS
 62
     1
100
AcDbCircle
 10
249.65111967
 20
66.310982018
 30
0.0
 40
0.5
100
AcDbArc
 50
97.43140797100004
 51
180.0
  0
ARC
  5
5AE
330
1F
100
AcDbEntity
  8
0
  6
CONTINUOUS
 62
     1
100
AcDbCircle
 10
266.0511196699999
 20
66.749999996
 30
0.0
 40
2.0
100
AcDbArc
 50
270.0
 51
0.0
  0
LINE
  5
5AF
330
1F
100
AcDbEntity
  8
0
  6
CONTINUOUS
 62
     1
100
AcDbLine
 10
268.0511196699999
 20
66.749999996
 30
0.0
 11
268.0511196709999
 21
83.99226694499998
 31
0.0
  0
LINE
  5
5B0
330
1F
100
AcDbEntity
  8
0
  6
CONTINUOUS
 62
     1
100
AcDbLine
 10
260.65111967
 20
68.689017974
 30
0.0
 11
260.651119671
 21
83.999999996
 31
0.0
  0
ARC
  5
5B1
330
1F
100
AcDbEntity
  8
0
  6
CONTINUOUS
 62
     1
100
AcDbCircle
 10
260.15111967
 20
68.689017974
 30
0.0
 40
0.5
100
AcDbArc
 50
277.4314079709997
 51
0.0
  0
LINE
  5
5B2
330
1F
100
AcDbEntity
  8
0
  6
CONTINUOUS
 62
     1
100
AcDbLine
 10
260.2157892619998
 20
68.193217769
 30
0.0
 11
249.5864500779999
 21
66.806782223
 31
0.0
  0
LINE
  5
5B3
330
1F
100
AcDbEntity
  8
0
  6
CONTINUOUS
 62
     1
100
AcDbLine
 10
260.651119671
 20
99.31098085000002
 30
0.0
 11
260.651119671
 21
83.999999996
 31
0.0
  0
LINE
  5
5B4
330
1F
100
AcDbEntity
  8
0
  6
CONTINUOUS
 62
     1
100
AcDbLine
 10
268.0511196709999
 20
101.249999042
 30
0.0
 11
268.0511196709999
 21
84.00773304700002
 31
0.0
  0
LINE
  5
5B5
330
1F
100
AcDbEntity
  8
0
  6
CONTINUOUS
 62
     1
100
AcDbLine
 10
260.2157892629999
 20
99.80678222299998
 30
0.0
 11
249.586450079
 21
101.193217769
 31
0.0
  0
ARC
  5
5B6
330
1F
100
AcDbEntity
  8
0
  6
CONTINUOUS
 62
     1
100
AcDbCircle
 10
260.151119671
 20
99.31098201799999
 30
0.0
 40
0.5
100
AcDbArc
 50
359.999866156
 51
82.56859202900003
  0
ARC
  5
5B7
330
1F
100
AcDbEntity
  8
0
  6
CONTINUOUS
 62
     1
100
AcDbCircle
 10
266.0511196709999
 20
101.2499999959999
 30
0.0
 40
2.0
100
AcDbArc
 50
359.99997268
 51
90.0
  0
ARC
  5
5B8
330
1F
100
AcDbEntity
  8
0
  6
CONTINUOUS
 62
     1
100
AcDbCircle
 10
266.0511196709999
 20
101.2499999959999
 30
0.0
 40
2.0
100
AcDbArc
 50
359.99997268
 51
90.0
  0
LINE
  5
5B9
330
1F
100
AcDbEntity
  8
0
  6
CONTINUOUS
 62
     1
100
AcDbLine
 10
243.1511196709998
 20
103.2499999959999
 30
0.0
 11
266.0511196709999
 21
103.2499999959999
 31
0.0
  0
LINE
  5
5BA
330
1F
100
AcDbEntity
  8
0
  6
CONTINUOUS
 62
     1
100
AcDbLine
 10
249.1511196709998
 20
101.689017975
 30
0.0
 11
249.1511196709998
 21
102.749999996
 31
0.0
  0
ARC
  5
5BB
330
1F
100
AcDbEntity
  8
0
  6
CONTINUOUS
 62
     1
100
AcDbCircle
 10
249.6511196709997
 20
101.689017975
 30
0.0
 40
0.5
100
AcDbArc
 50
180.0
 51
262.568592029
  0
LINE
  5
5BC
330
1F
100
AcDbEntity
  8
0
  6
CONTINUOUS
 62
     1
100
AcDbLine
 10
243.151119672
 20
101.749999996
 30
0.0
 11
249.1511196709998
 21
101.749999996
 31
0.0
  0
LINE
  5
5BD
330
1F
100
AcDbEntity
  8
0
  6
CONTINUOUS
 62
     3
100
AcDbLine
 10
205.4490011239998
 20
254.837145884
 30
0.0
 11
205.4490011239998
 21
253.1635185929999
 31
0.0
  0
LINE
  5
5BE
330
1F
100
AcDbEntity
  8
0
  6
CONTINUOUS
 62
     3
100
AcDbLine
 10
215.250242373
 20
253.2500887359999
 30
0.0
 11
203.4490011239998
 21
253.1453663229999
 31
0.0
  0
LINE
  5
5BF
330
1F
100
AcDbEntity
  8
0
  6
CONTINUOUS
 62
     3
100
AcDbLine
 10
203.4490011239998
 20
254.8546336729998
 30
0.0
 11
215.250242373
 21
254.749911259
 31
0.0
  0
LINE
  5
5C0
330
1F
100
AcDbEntity
  8
0
  6
CONTINUOUS
 62
     3
100
AcDbLine
 10
215.250242373
 20
254.7499999969998
 30
0.0
 11
215.250242373
 21
253.249999997
 31
0.0
  0
LINE
  5
5C1
330
1F
100
AcDbEntity
  8
0
  6
CONTINUOUS
 62
     3
100
AcDbLine
 10
205.4490011239998
 20
251.337145884
 30
0.0
 11
205.4490011239998
 21
249.6635185929999
 31
0.0
  0
LINE
  5
5C2
330
1F
100
AcDbEntity
  8
0
  6
CONTINUOUS
 62
     3
100
AcDbLine
 10
215.250242373
 20
249.7500887359996
 30
0.0
 11
203.4490011239998
 21
249.645366323
 31
0.0
  0
LINE
  5
5C3
330
1F
100
AcDbEntity
  8
0
  6
CONTINUOUS
 62
     3
100
AcDbLine
 10
203.4490011239998
 20
251.354633673
 30
0.0
 11
215.250242373
 21
251.249911259
 31
0.0
  0
LINE
  5
5C4
330
1F
100
AcDbEntity
  8
0
  6
CONTINUOUS
 62
     3
100
AcDbLine
 10
215.250242373
 20
251.249999997
 30
0.0
 11
215.250242373
 21
249.749999997
 31
0.0
  0
LINE
  5
5C5
330
1F
100
AcDbEntity
  8
0
  6
CONTINUOUS
 62
     3
100
AcDbLine
 10
205.4490011219999
 20
212.837145884
 30
0.0
 11
205.4490011219999
 21
211.1635185929999
 31
0.0
  0
LINE
  5
5C6
330
1F
100
AcDbEntity
  8
0
  6
CONTINUOUS
 62
     3
100
AcDbLine
 10
215.250242372
 20
211.2500887359999
 30
0.0
 11
203.4490011219999
 21
211.1453663229996
 31
0.0
  0
LINE
  5
5C7
330
1F
100
AcDbEntity
  8
0
  6
CONTINUOUS
 62
     3
100
AcDbLine
 10
203.4490011219999
 20
212.8546336729999
 30
0.0
 11
215.250242372
 21
212.749911259
 31
0.0
  0
LINE
  5
5C8
330
1F
100
AcDbEntity
  8
0
  6
CONTINUOUS
 62
     3
100
AcDbLine
 10
215.250242372
 20
212.7499999969999
 30
0.0
 11
215.250242372
 21
211.249999997
 31
0.0
  0
LINE
  5
5C9
330
1F
100
AcDbEntity
  8
0
  6
CONTINUOUS
 62
     3
100
AcDbLine
 10
205.4490011219999
 20
216.337145884
 30
0.0
 11
205.4490011219999
 21
214.663518593
 31
0.0
  0
LINE
  5
5CA
330
1F
100
AcDbEntity
  8
0
  6
CONTINUOUS
 62
     3
100
AcDbLine
 10
215.250242372
 20
214.7500887359999
 30
0.0
 11
203.4490011219999
 21
214.6453663229999
 31
0.0
  0
LINE
  5
5CB
330
1F
100
AcDbEntity
  8
0
  6
CONTINUOUS
 62
     3
100
AcDbLine
 10
203.4490011219999
 20
216.354633673
 30
0.0
 11
215.250242372
 21
216.249911259
 31
0.0
  0
LINE
  5
5CC
330
1F
100
AcDbEntity
  8
0
  6
CONTINUOUS
 62
     3
100
AcDbLine
 10
215.250242372
 20
216.249999997
 30
0.0
 11
215.250242372
 21
214.7499999969999
 31
0.0
  0
LINE
  5
5CD
330
1F
100
AcDbEntity
  8
0
  6
CONTINUOUS
 62
     3
100
AcDbLine
 10
226.849001124
 20
244.739999997
 30
0.0
 11
226.849001124
 21
243.239999997
 31
0.0
  0
LINE
  5
5CE
330
1F
100
AcDbEntity
  8
0
  6
CONTINUOUS
 62
     3
100
AcDbLine
 10
226.8490011229999
 20
221.259999997
 30
0.0
 11
226.8490011229999
 21
222.7599999969998
 31
0.0
  0
LINE
  5
5CF
330
1F
100
AcDbEntity
  8
0
  6
CONTINUOUS
 62
     3
100
AcDbLine
 10
223.3490011229999
 20
221.259999997
 30
0.0
 11
223.349001122
 21
217.7599999969998
 31
0.0
  0
LINE
  5
5D0
330
1F
100
AcDbEntity
  8
0
  6
CONTINUOUS
 62
     3
100
AcDbLine
 10
223.349001124
 20
243.239999997
 30
0.0
 11
223.3490011229999
 21
222.7599999969998
 31
0.0
  0
LINE
  5
5D1
330
1F
100
AcDbEntity
  8
0
  6
CONTINUOUS
 62
     3
100
AcDbLine
 10
223.349001124
 20
248.239999997
 30
0.0
 11
223.349001124
 21
244.739999997
 31
0.0
  0
LINE
  5
5D2
330
1F
100
AcDbEntity
  8
0
  6
CONTINUOUS
 62
     3
100
AcDbLine
 10
215.699001122
 20
218.799999997
 30
0.0
 11
215.699001123
 21
221.799999997
 31
0.0
  0
LINE
  5
5D3
330
1F
100
AcDbEntity
  8
0
  6
CONTINUOUS
 62
     3
100
AcDbLine
 10
215.699001123
 20
221.799999997
 30
0.0
 11
212.6990011229996
 21
221.799999997
 31
0.0
  0
LINE
  5
5D4
330
1F
100
AcDbEntity
  8
0
  6
CONTINUOUS
 62
     3
100
AcDbLine
 10
212.6990011229996
 20
221.799999997
 30
0.0
 11
212.699001122
 21
218.799999997
 31
0.0
  0
LINE
  5
5D5
330
1F
100
AcDbEntity
  8
0
  6
CONTINUOUS
 62
     3
100
AcDbLine
 10
212.699001122
 20
218.799999997
 30
0.0
 11
215.699001122
 21
218.799999997
 31
0.0
  0
LINE
  5
5D6
330
1F
100
AcDbEntity
  8
0
  6
CONTINUOUS
 62
     3
100
AcDbLine
 10
215.699001122
 20
218.799999997
 30
0.0
 11
216.949001122
 21
218.299999997
 31
0.0
  0
LINE
  5
5D7
330
1F
100
AcDbEntity
  8
0
  6
CONTINUOUS
 62
     3
100
AcDbLine
 10
216.9490011229999
 20
222.299999997
 30
0.0
 11
215.699001123
 21
221.799999997
 31
0.0
  0
LINE
  5
5D8
330
1F
100
AcDbEntity
  8
0
  6
CONTINUOUS
 62
     3
100
AcDbLine
 10
212.6990011229996
 20
221.799999997
 30
0.0
 11
211.449001123
 21
222.299999997
 31
0.0
  0
LINE
  5
5D9
330
1F
100
AcDbEntity
  8
0
  6
CONTINUOUS
 62
     3
100
AcDbLine
 10
212.699001122
 20
218.799999997
 30
0.0
 11
211.449001122
 21
218.299999997
 31
0.0
  0
LINE
  5
5DA
330
1F
100
AcDbEntity
  8
0
  6
CONTINUOUS
 62
     3
100
AcDbLine
 10
215.699001123
 20
223.8799999969999
 30
0.0
 11
215.699001123
 21
226.879999997
 31
0.0
  0
LINE
  5
5DB
330
1F
100
AcDbEntity
  8
0
  6
CONTINUOUS
 62
     3
100
AcDbLine
 10
215.699001123
 20
226.879999997
 30
0.0
 11
212.6990011229996
 21
226.879999997
 31
0.0
  0
LINE
  5
5DC
330
1F
100
AcDbEntity
  8
0
  6
CONTINUOUS
 62
     3
100
AcDbLine
 10
212.6990011229996
 20
226.879999997
 30
0.0
 11
212.6990011229996
 21
223.8799999969999
 31
0.0
  0
LINE
  5
5DD
330
1F
100
AcDbEntity
  8
0
  6
CONTINUOUS
 62
     3
100
AcDbLine
 10
212.6990011229996
 20
223.8799999969999
 30
0.0
 11
215.699001123
 21
223.8799999969999
 31
0.0
  0
LINE
  5
5DE
330
1F
100
AcDbEntity
  8
0
  6
CONTINUOUS
 62
     3
100
AcDbLine
 10
215.699001123
 20
223.8799999969999
 30
0.0
 11
216.9490011229999
 21
223.379999997
 31
0.0
  0
LINE
  5
5DF
330
1F
100
AcDbEntity
  8
0
  6
CONTINUOUS
 62
     3
100
AcDbLine
 10
216.9490011229999
 20
227.379999997
 30
0.0
 11
215.699001123
 21
226.879999997
 31
0.0
  0
LINE
  5
5E0
330
1F
100
AcDbEntity
  8
0
  6
CONTINUOUS
 62
     3
100
AcDbLine
 10
212.6990011229996
 20
226.879999997
 30
0.0
 11
211.449001123
 21
227.379999997
 31
0.0
  0
LINE
  5
5E1
330
1F
100
AcDbEntity
  8
0
  6
CONTINUOUS
 62
     3
100
AcDbLine
 10
212.6990011229996
 20
223.8799999969999
 30
0.0
 11
211.449001123
 21
223.379999997
 31
0.0
  0
LINE
  5
5E2
330
1F
100
AcDbEntity
  8
0
  6
CONTINUOUS
 62
     3
100
AcDbLine
 10
215.699001123
 20
228.959999997
 30
0.0
 11
215.699001123
 21
231.959999997
 31
0.0
  0
LINE
  5
5E3
330
1F
100
AcDbEntity
  8
0
  6
CONTINUOUS
 62
     3
100
AcDbLine
 10
215.699001123
 20
231.959999997
 30
0.0
 11
212.6990011229996
 21
231.959999997
 31
0.0
  0
LINE
  5
5E4
330
1F
100
AcDbEntity
  8
0
  6
CONTINUOUS
 62
     3
100
AcDbLine
 10
212.6990011229996
 20
231.959999997
 30
0.0
 11
212.6990011229996
 21
228.959999997
 31
0.0
  0
LINE
  5
5E5
330
1F
100
AcDbEntity
  8
0
  6
CONTINUOUS
 62
     3
100
AcDbLine
 10
212.6990011229996
 20
228.959999997
 30
0.0
 11
215.699001123
 21
228.959999997
 31
0.0
  0
LINE
  5
5E6
330
1F
100
AcDbEntity
  8
0
  6
CONTINUOUS
 62
     3
100
AcDbLine
 10
215.699001123
 20
228.959999997
 30
0.0
 11
216.9490011229999
 21
228.459999997
 31
0.0
  0
LINE
  5
5E7
330
1F
100
AcDbEntity
  8
0
  6
CONTINUOUS
 62
     3
100
AcDbLine
 10
216.9490011229999
 20
232.459999997
 30
0.0
 11
215.699001123
 21
231.959999997
 31
0.0
  0
LINE
  5
5E8
330
1F
100
AcDbEntity
  8
0
  6
CONTINUOUS
 62
     3
100
AcDbLine
 10
212.6990011229996
 20
231.959999997
 30
0.0
 11
211.449001123
 21
232.459999997
 31
0.0
  0
LINE
  5
5E9
330
1F
100
AcDbEntity
  8
0
  6
CONTINUOUS
 62
     3
100
AcDbLine
 10
212.6990011229996
 20
228.959999997
 30
0.0
 11
211.449001123
 21
228.459999997
 31
0.0
  0
LINE
  5
5EA
330
1F
100
AcDbEntity
  8
0
  6
CONTINUOUS
 62
     3
100
AcDbLine
 10
215.699001124
 20
244.199999997
 30
0.0
 11
215.699001124
 21
247.199999997
 31
0.0
  0
LINE
  5
5EB
330
1F
100
AcDbEntity
  8
0
  6
CONTINUOUS
 62
     3
100
AcDbLine
 10
215.699001124
 20
247.199999997
 30
0.0
 11
212.699001124
 21
247.199999997
 31
0.0
  0
LINE
  5
5EC
330
1F
100
AcDbEntity
  8
0
  6
CONTINUOUS
 62
     3
100
AcDbLine
 10
212.699001124
 20
247.199999997
 30
0.0
 11
212.699001124
 21
244.199999997
 31
0.0
  0
LINE
  5
5ED
330
1F
100
AcDbEntity
  8
0
  6
CONTINUOUS
 62
     3
100
AcDbLine
 10
212.699001124
 20
244.199999997
 30
0.0
 11
215.699001124
 21
244.199999997
 31
0.0
  0
LINE
  5
5EE
330
1F
100
AcDbEntity
  8
0
  6
CONTINUOUS
 62
     3
100
AcDbLine
 10
215.699001124
 20
244.199999997
 30
0.0
 11
216.949001124
 21
243.699999997
 31
0.0
  0
LINE
  5
5EF
330
1F
100
AcDbEntity
  8
0
  6
CONTINUOUS
 62
     3
100
AcDbLine
 10
216.949001124
 20
247.699999997
 30
0.0
 11
215.699001124
 21
247.199999997
 31
0.0
  0
LINE
  5
5F0
330
1F
100
AcDbEntity
  8
0
  6
CONTINUOUS
 62
     3
100
AcDbLine
 10
212.699001124
 20
247.199999997
 30
0.0
 11
211.449001124
 21
247.699999997
 31
0.0
  0
LINE
  5
5F1
330
1F
100
AcDbEntity
  8
0
  6
CONTINUOUS
 62
     3
100
AcDbLine
 10
212.699001124
 20
244.199999997
 30
0.0
 11
211.449001124
 21
243.699999997
 31
0.0
  0
LINE
  5
5F2
330
1F
100
AcDbEntity
  8
0
  6
CONTINUOUS
 62
     3
100
AcDbLine
 10
215.699001123
 20
234.0399999969998
 30
0.0
 11
215.699001123
 21
237.039999997
 31
0.0
  0
LINE
  5
5F3
330
1F
100
AcDbEntity
  8
0
  6
CONTINUOUS
 62
     3
100
AcDbLine
 10
215.699001123
 20
237.039999997
 30
0.0
 11
212.6990011229996
 21
237.039999997
 31
0.0
  0
LINE
  5
5F4
330
1F
100
AcDbEntity
  8
0
  6
CONTINUOUS
 62
     3
100
AcDbLine
 10
212.6990011229996
 20
237.039999997
 30
0.0
 11
212.6990011229996
 21
234.0399999969998
 31
0.0
  0
LINE
  5
5F5
330
1F
100
AcDbEntity
  8
0
  6
CONTINUOUS
 62
     3
100
AcDbLine
 10
212.6990011229996
 20
234.0399999969998
 30
0.0
 11
215.699001123
 21
234.0399999969998
 31
0.0
  0
LINE
  5
5F6
330
1F
100
AcDbEntity
  8
0
  6
CONTINUOUS
 62
     3
100
AcDbLine
 10
215.699001123
 20
234.0399999969998
 30
0.0
 11
216.9490011229999
 21
233.5399999969999
 31
0.0
  0
LINE
  5
5F7
330
1F
100
AcDbEntity
  8
0
  6
CONTINUOUS
 62
     3
100
AcDbLine
 10
216.9490011229999
 20
237.5399999969999
 30
0.0
 11
215.699001123
 21
237.039999997
 31
0.0
  0
LINE
  5
5F8
330
1F
100
AcDbEntity
  8
0
  6
CONTINUOUS
 62
     3
100
AcDbLine
 10
212.6990011229996
 20
237.039999997
 30
0.0
 11
211.449001123
 21
237.5399999969999
 31
0.0
  0
LINE
  5
5F9
330
1F
100
AcDbEntity
  8
0
  6
CONTINUOUS
 62
     3
100
AcDbLine
 10
212.6990011229996
 20
234.0399999969998
 30
0.0
 11
211.449001123
 21
233.5399999969999
 31
0.0
  0
LINE
  5
5FA
330
1F
100
AcDbEntity
  8
0
  6
CONTINUOUS
 62
     3
100
AcDbLine
 10
215.699001123
 20
239.1199999969999
 30
0.0
 11
215.699001124
 21
242.119999997
 31
0.0
  0
LINE
  5
5FB
330
1F
100
AcDbEntity
  8
0
  6
CONTINUOUS
 62
     3
100
AcDbLine
 10
215.699001124
 20
242.119999997
 30
0.0
 11
212.699001124
 21
242.119999997
 31
0.0
  0
LINE
  5
5FC
330
1F
100
AcDbEntity
  8
0
  6
CONTINUOUS
 62
     3
100
AcDbLine
 10
212.699001124
 20
242.119999997
 30
0.0
 11
212.6990011229996
 21
239.1199999969999
 31
0.0
  0
LINE
  5
5FD
330
1F
100
AcDbEntity
  8
0
  6
CONTINUOUS
 62
     3
100
AcDbLine
 10
212.6990011229996
 20
239.1199999969999
 30
0.0
 11
215.699001123
 21
239.1199999969999
 31
0.0
  0
LINE
  5
5FE
330
1F
100
AcDbEntity
  8
0
  6
CONTINUOUS
 62
     3
100
AcDbLine
 10
215.699001123
 20
239.1199999969999
 30
0.0
 11
216.9490011229999
 21
238.619999997
 31
0.0
  0
LINE
  5
5FF
330
1F
100
AcDbEntity
  8
0
  6
CONTINUOUS
 62
     3
100
AcDbLine
 10
216.949001124
 20
242.619999997
 30
0.0
 11
215.699001124
 21
242.119999997
 31
0.0
  0
LINE
  5
600
330
1F
100
AcDbEntity
  8
0
  6
CONTINUOUS
 62
     3
100
AcDbLine
 10
212.699001124
 20
242.119999997
 30
0.0
 11
211.449001124
 21
242.619999997
 31
0.0
  0
LINE
  5
601
330
1F
100
AcDbEntity
  8
0
  6
CONTINUOUS
 62
     3
100
AcDbLine
 10
212.6990011229996
 20
239.1199999969999
 30
0.0
 11
211.449001123
 21
238.619999997
 31
0.0
  0
LINE
  5
602
330
1F
100
AcDbEntity
  8
0
  6
CONTINUOUS
 62
     3
100
AcDbLine
 10
210.449001122
 20
217.7599999969998
 30
0.0
 11
210.449001124
 21
248.239999997
 31
0.0
  0
LINE
  5
603
330
1F
100
AcDbEntity
  8
0
  6
CONTINUOUS
 62
     3
100
AcDbLine
 10
203.4490011229999
 20
219.854633673
 30
0.0
 11
204.2490011229999
 21
219.8448724409998
 31
0.0
  0
LINE
  5
604
330
1F
100
AcDbEntity
  8
0
  6
CONTINUOUS
 62
     3
100
AcDbLine
 10
204.2490011219999
 20
218.1551275549999
 30
0.0
 11
203.4490011229999
 21
218.145366323
 31
0.0
  0
LINE
  5
605
330
1F
100
AcDbEntity
  8
0
  6
CONTINUOUS
 62
     3
100
AcDbLine
 10
204.2490011229999
 20
221.655127555
 30
0.0
 11
203.4490011229999
 21
221.6453663229996
 31
0.0
  0
LINE
  5
606
330
1F
100
AcDbEntity
  8
0
  6
CONTINUOUS
 62
     3
100
AcDbLine
 10
203.4490011229999
 20
223.3546336729999
 30
0.0
 11
204.2490011229999
 21
223.3448724409998
 31
0.0
  0
LINE
  5
607
330
1F
100
AcDbEntity
  8
0
  6
CONTINUOUS
 62
     3
100
AcDbLine
 10
204.2490011229999
 20
225.155127555
 30
0.0
 11
203.4490011229999
 21
225.1453663229999
 31
0.0
  0
LINE
  5
608
330
1F
100
AcDbEntity
  8
0
  6
CONTINUOUS
 62
     3
100
AcDbLine
 10
203.4490011229999
 20
226.854633673
 30
0.0
 11
204.2490011229999
 21
226.8448724409998
 31
0.0
  0
LINE
  5
609
330
1F
100
AcDbEntity
  8
0
  6
CONTINUOUS
 62
     3
100
AcDbLine
 10
204.2490011229999
 20
228.6551275549999
 30
0.0
 11
203.4490011229999
 21
228.645366323
 31
0.0
  0
LINE
  5
60A
330
1F
100
AcDbEntity
  8
0
  6
CONTINUOUS
 62
     3
100
AcDbLine
 10
203.4490011229999
 20
230.354633673
 30
0.0
 11
204.2490011229999
 21
230.3448724409998
 31
0.0
  0
LINE
  5
60B
330
1F
100
AcDbEntity
  8
0
  6
CONTINUOUS
 62
     3
100
AcDbLine
 10
204.2490011229999
 20
232.155127555
 30
0.0
 11
203.4490011229999
 21
232.1453663229996
 31
0.0
  0
LINE
  5
60C
330
1F
100
AcDbEntity
  8
0
  6
CONTINUOUS
 62
     3
100
AcDbLine
 10
203.4490011229999
 20
233.8546336729999
 30
0.0
 11
204.2490011229999
 21
233.8448724409998
 31
0.0
  0
LINE
  5
60D
330
1F
100
AcDbEntity
  8
0
  6
CONTINUOUS
 62
     3
100
AcDbLine
 10
204.2490011229999
 20
235.655127555
 30
0.0
 11
203.4490011229999
 21
235.6453663229999
 31
0.0
  0
LINE
  5
60E
330
1F
100
AcDbEntity
  8
0
  6
CONTINUOUS
 62
     3
100
AcDbLine
 10
203.4490011229999
 20
237.354633673
 30
0.0
 11
204.2490011229999
 21
237.3448724409996
 31
0.0
  0
LINE
  5
60F
330
1F
100
AcDbEntity
  8
0
  6
CONTINUOUS
 62
     3
100
AcDbLine
 10
204.2490011229999
 20
239.1551275549999
 30
0.0
 11
203.4490011229999
 21
239.145366323
 31
0.0
  0
LINE
  5
610
330
1F
100
AcDbEntity
  8
0
  6
CONTINUOUS
 62
     3
100
AcDbLine
 10
203.4490011239998
 20
240.854633673
 30
0.0
 11
204.249001124
 21
240.8448724409998
 31
0.0
  0
LINE
  5
611
330
1F
100
AcDbEntity
  8
0
  6
CONTINUOUS
 62
     3
100
AcDbLine
 10
204.249001124
 20
242.655127555
 30
0.0
 11
203.4490011239998
 21
242.6453663229996
 31
0.0
  0
LINE
  5
612
330
1F
100
AcDbEntity
  8
0
  6
CONTINUOUS
 62
     3
100
AcDbLine
 10
203.4490011239998
 20
244.3546336729998
 30
0.0
 11
204.249001124
 21
244.344872441
 31
0.0
  0
LINE
  5
613
330
1F
100
AcDbEntity
  8
0
  6
CONTINUOUS
 62
     3
100
AcDbLine
 10
204.249001124
 20
246.155127555
 30
0.0
 11
203.4490011239998
 21
246.1453663229999
 31
0.0
  0
LINE
  5
614
330
1F
100
AcDbEntity
  8
0
  6
CONTINUOUS
 62
     3
100
AcDbLine
 10
203.4490011239998
 20
247.854633673
 30
0.0
 11
204.249001124
 21
247.8448724409996
 31
0.0
  0
LINE
  5
615
330
1F
100
AcDbEntity
  8
0
  6
CONTINUOUS
 62
     3
100
AcDbLine
 10
206.049001124
 20
248.239999998
 30
0.0
 11
206.049001122
 21
217.7599999979999
 31
0.0
  0
LINE
  5
616
330
1F
100
AcDbEntity
  8
0
  6
CONTINUOUS
 62
     3
100
AcDbLine
 10
206.449001124
 20
247.739999998
 30
0.0
 11
206.449001122
 21
218.2599999979999
 31
0.0
  0
LINE
  5
617
330
1F
100
AcDbEntity
  8
0
  6
CONTINUOUS
 62
     3
100
AcDbLine
 10
206.449001122
 20
218.2599999979999
 30
0.0
 11
210.449001122
 21
218.2599999969998
 31
0.0
  0
LINE
  5
618
330
1F
100
AcDbEntity
  8
0
  6
CONTINUOUS
 62
     3
100
AcDbLine
 10
210.449001124
 20
247.739999997
 30
0.0
 11
206.449001124
 21
247.739999998
 31
0.0
  0
LINE
  5
619
330
1F
100
AcDbEntity
  8
0
  6
CONTINUOUS
 62
     1
100
AcDbLine
 10
244.249001122
 20
208.9999999959996
 30
0.0
 11
244.249001124
 21
256.9999999959998
 31
0.0
  0
LINE
  5
61A
330
1F
100
AcDbEntity
  8
0
  6
CONTINUOUS
 62
     1
100
AcDbLine
 10
244.249001124
 20
256.9999999959998
 30
0.0
 11
204.449001124
 21
256.9999999979996
 31
0.0
  0
ARC
  5
61B
330
1F
100
AcDbEntity
  8
0
  6
CONTINUOUS
 62
     1
100
AcDbCircle
 10
227.849001122
 20
209.999999997
 30
0.0
 40
1.0
100
AcDbArc
 50
180.0
 51
270.0
  0
LINE
  5
61C
330
1F
100
AcDbEntity
  8
0
  6
CONTINUOUS
 62
     1
100
AcDbLine
 10
203.4490011239998
 20
255.999999998
 30
0.0
 11
203.4490011219999
 21
209.999999998
 31
0.0
  0
ARC
  5
61D
330
1F
100
AcDbEntity
  8
0
  6
CONTINUOUS
 62
     1
100
AcDbCircle
 10
204.449001122
 20
209.999999998
 30
0.0
 40
1.0
100
AcDbArc
 50
180.0
 51
270.0
  0
LINE
  5
61E
330
1F
100
AcDbEntity
  8
0
  6
CONTINUOUS
 62
     1
100
AcDbLine
 10
204.449001122
 20
208.9999999979996
 30
0.0
 11
244.249001122
 21
208.9999999959996
 31
0.0
  0
ARC
  5
61F
330
1F
100
AcDbEntity
  8
0
  6
CONTINUOUS
 62
     1
100
AcDbCircle
 10
204.449001124
 20
255.999999998
 30
0.0
 40
1.0
100
AcDbArc
 50
90.0
 51
180.0
  0
LINE
  5
620
330
1F
100
AcDbEntity
  8
0
  6
CONTINUOUS
 62
     1
100
AcDbLine
 10
210.449001124
 20
248.239999997
 30
0.0
 11
204.249001124
 21
248.239999998
 31
0.0
  0
LINE
  5
621
330
1F
100
AcDbEntity
  8
0
  6
CONTINUOUS
 62
     1
100
AcDbLine
 10
204.249001124
 20
248.239999998
 30
0.0
 11
204.2490011219999
 21
217.7599999979999
 31
0.0
  0
LINE
  5
622
330
1F
100
AcDbEntity
  8
0
  6
CONTINUOUS
 62
     1
100
AcDbLine
 10
221.849001124
 20
248.239999997
 30
0.0
 11
217.9490011239998
 21
248.239999997
 31
0.0
  0
LINE
  5
623
330
1F
100
AcDbEntity
  8
0
  6
CONTINUOUS
 62
     1
100
AcDbLine
 10
217.9490011239998
 20
248.239999997
 30
0.0
 11
210.449001124
 21
248.239999997
 31
0.0
  0
LINE
  5
624
330
1F
100
AcDbEntity
  8
0
  6
CONTINUOUS
 62
     1
100
AcDbLine
 10
217.9490011219999
 20
217.7599999969998
 30
0.0
 11
217.9490011239998
 21
248.239999997
 31
0.0
  0
LINE
  5
625
330
1F
100
AcDbEntity
  8
0
  6
CONTINUOUS
 62
     1
100
AcDbLine
 10
204.2490011219999
 20
217.7599999979999
 30
0.0
 11
221.849001122
 21
217.7599999969998
 31
0.0
  0
ARC
  5
626
330
1F
100
AcDbEntity
  8
0
  6
CONTINUOUS
 62
     1
100
AcDbCircle
 10
227.849001124
 20
255.999999997
 30
0.0
 40
1.0
100
AcDbArc
 50
90.0
 51
180.0
  0
LINE
  5
627
330
1F
100
AcDbEntity
  8
0
  6
CONTINUOUS
 62
     1
100
AcDbLine
 10
226.849001124
 20
255.999999997
 30
0.0
 11
226.8490011219999
 21
209.999999997
 31
0.0
  0
LINE
  5
628
330
1F
100
AcDbEntity
  8
0
  6
CONTINUOUS
 62
     1
100
AcDbLine
 10
226.849001124
 20
249.9999999969999
 30
0.0
 11
222.349001124
 21
249.9999999969999
 31
0.0
  0
ARC
  5
629
330
1F
100
AcDbEntity
  8
0
  6
CONTINUOUS
 62
     1
100
AcDbCircle
 10
222.349001124
 20
249.499999997
 30
0.0
 40
0.5
100
AcDbArc
 50
90.0
 51
180.0
  0
LINE
  5
62A
330
1F
100
AcDbEntity
  8
0
  6
CONTINUOUS
 62
     1
100
AcDbLine
 10
221.849001124
 20
249.499999997
 30
0.0
 11
221.849001124
 21
248.239999997
 31
0.0
  0
ARC
  5
62B
330
1F
100
AcDbEntity
  8
0
  6
CONTINUOUS
 62
     1
100
AcDbCircle
 10
225.349001124
 20
249.499999997
 30
0.0
 40
0.5
100
AcDbArc
 50
90.0
 51
180.0
  0
LINE
  5
62C
330
1F
100
AcDbEntity
  8
0
  6
CONTINUOUS
 62
     1
100
AcDbLine
 10
221.849001124
 20
248.239999997
 30
0.0
 11
224.849001124
 21
248.239999997
 31
0.0
  0
ARC
  5
62D
330
1F
100
AcDbEntity
  8
0
  6
CONTINUOUS
 62
     1
100
AcDbCircle
 10
225.349001124
 20
245.399999997
 30
0.0
 40
0.5
100
AcDbArc
 50
180.0
 51
270.0
  0
LINE
  5
62E
330
1F
100
AcDbEntity
  8
0
  6
CONTINUOUS
 62
     1
100
AcDbLine
 10
225.349001124
 20
244.899999997
 30
0.0
 11
226.849001124
 21
244.899999997
 31
0.0
  0
LINE
  5
62F
330
1F
100
AcDbEntity
  8
0
  6
CONTINUOUS
 62
     1
100
AcDbLine
 10
221.849001124
 20
244.739999997
 30
0.0
 11
226.849001124
 21
244.739999997
 31
0.0
  0
LINE
  5
630
330
1F
100
AcDbEntity
  8
0
  6
CONTINUOUS
 62
     1
100
AcDbLine
 10
221.849001122
 20
217.7599999969998
 30
0.0
 11
221.849001124
 21
248.239999997
 31
0.0
  0
LINE
  5
631
330
1F
100
AcDbEntity
  8
0
  6
CONTINUOUS
 62
     1
100
AcDbLine
 10
226.849001124
 20
243.099999997
 30
0.0
 11
225.349001124
 21
243.099999997
 31
0.0
  0
LINE
  5
632
330
1F
100
AcDbEntity
  8
0
  6
CONTINUOUS
 62
     1
100
AcDbLine
 10
226.849001124
 20
243.239999997
 30
0.0
 11
221.849001124
 21
243.239999997
 31
0.0
  0
LINE
  5
633
330
1F
100
AcDbEntity
  8
0
  6
CONTINUOUS
 62
     1
100
AcDbLine
 10
225.6490011229999
 20
235.4999999969999
 30
0.0
 11
225.6490011229999
 21
230.499999997
 31
0.0
  0
LINE
  5
634
330
1F
100
AcDbEntity
  8
0
  6
CONTINUOUS
 62
     1
100
AcDbLine
 10
224.8490011229999
 20
235.4999999969999
 30
0.0
 11
225.6490011229999
 21
235.4999999969999
 31
0.0
  0
LINE
  5
635
330
1F
100
AcDbEntity
  8
0
  6
CONTINUOUS
 62
     1
100
AcDbLine
 10
225.6490011229999
 20
230.499999997
 30
0.0
 11
224.8490011229999
 21
230.499999997
 31
0.0
  0
LINE
  5
636
330
1F
100
AcDbEntity
  8
0
  6
CONTINUOUS
 62
     1
100
AcDbLine
 10
222.349001122
 20
215.499999997
 30
0.0
 11
226.8490011219999
 21
215.499999997
 31
0.0
  0
ARC
  5
637
330
1F
100
AcDbEntity
  8
0
  6
CONTINUOUS
 62
     1
100
AcDbCircle
 10
222.349001122
 20
215.999999997
 30
0.0
 40
0.5
100
AcDbArc
 50
180.0
 51
270.0
  0
LINE
  5
638
330
1F
100
AcDbEntity
  8
0
  6
CONTINUOUS
 62
     1
100
AcDbLine
 10
221.849001123
 20
217.7599999969998
 30
0.0
 11
221.849001122
 21
215.999999997
 31
0.0
  0
LINE
  5
639
330
1F
100
AcDbEntity
  8
0
  6
CONTINUOUS
 62
     1
100
AcDbLine
 10
224.8490011219999
 20
217.7599999969998
 30
0.0
 11
221.849001122
 21
217.7599999969998
 31
0.0
  0
ARC
  5
63A
330
1F
100
AcDbEntity
  8
0
  6
CONTINUOUS
 62
     1
100
AcDbCircle
 10
225.349001122
 20
215.999999997
 30
0.0
 40
0.5
100
AcDbArc
 50
180.0
 51
270.0
  0
ARC
  5
63B
330
1F
100
AcDbEntity
  8
0
  6
CONTINUOUS
 62
     1
100
AcDbCircle
 10
225.3490011229996
 20
220.5999999969999
 30
0.0
 40
0.5
100
AcDbArc
 50
90.0
 51
180.0
  0
LINE
  5
63C
330
1F
100
AcDbEntity
  8
0
  6
CONTINUOUS
 62
     1
100
AcDbLine
 10
224.8490011229999
 20
221.259999997
 30
0.0
 11
224.8490011219999
 21
217.7599999969998
 31
0.0
  0
LINE
  5
63D
330
1F
100
AcDbEntity
  8
0
  6
CONTINUOUS
 62
     1
100
AcDbLine
 10
224.8490011229999
 20
220.5999999969999
 30
0.0
 11
224.8490011219999
 21
215.999999997
 31
0.0
  0
LINE
  5
63E
330
1F
100
AcDbEntity
  8
0
  6
CONTINUOUS
 62
     1
100
AcDbLine
 10
226.8490011229999
 20
221.0999999969998
 30
0.0
 11
225.3490011229996
 21
221.0999999969998
 31
0.0
  0
LINE
  5
63F
330
1F
100
AcDbEntity
  8
0
  6
CONTINUOUS
 62
     1
100
AcDbLine
 10
221.849001123
 20
221.259999997
 30
0.0
 11
226.8490011229999
 21
221.259999997
 31
0.0
  0
LINE
  5
640
330
1F
100
AcDbEntity
  8
0
  6
CONTINUOUS
 62
     1
100
AcDbLine
 10
224.8490011229999
 20
230.499999997
 30
0.0
 11
224.8490011229999
 21
223.3999999969999
 31
0.0
  0
LINE
  5
641
330
1F
100
AcDbEntity
  8
0
  6
CONTINUOUS
 62
     1
100
AcDbLine
 10
225.3490011229996
 20
222.899999997
 30
0.0
 11
226.8490011229999
 21
222.899999997
 31
0.0
  0
ARC
  5
642
330
1F
100
AcDbEntity
  8
0
  6
CONTINUOUS
 62
     1
100
AcDbCircle
 10
225.3490011229996
 20
223.3999999969999
 30
0.0
 40
0.5
100
AcDbArc
 50
180.0
 51
270.0
  0
LINE
  5
643
330
1F
100
AcDbEntity
  8
0
  6
CONTINUOUS
 62
     1
100
AcDbLine
 10
226.8490011229999
 20
222.7599999969998
 30
0.0
 11
221.849001123
 21
222.7599999969998
 31
0.0
  0
LINE
  5
644
330
1F
100
AcDbEntity
  8
0
  6
CONTINUOUS
 62
     1
100
AcDbLine
 10
224.849001124
 20
242.599999997
 30
0.0
 11
224.8490011229999
 21
235.4999999969999
 31
0.0
  0
ARC
  5
645
330
1F
100
AcDbEntity
  8
0
  6
CONTINUOUS
 62
     1
100
AcDbCircle
 10
225.349001124
 20
242.599999997
 30
0.0
 40
0.5
100
AcDbArc
 50
90.0
 51
180.0
  0
LINE
  5
646
330
1F
100
AcDbEntity
  8
0
  6
CONTINUOUS
 62
     1
100
AcDbLine
 10
224.849001124
 20
243.239999997
 30
0.0
 11
224.8490011229999
 21
222.7599999969998
 31
0.0
  0
LINE
  5
647
330
1F
100
AcDbEntity
  8
0
  6
CONTINUOUS
 62
     1
100
AcDbLine
 10
224.849001124
 20
248.239999997
 30
0.0
 11
224.849001124
 21
244.739999997
 31
0.0
  0
LINE
  5
648
330
1F
100
AcDbEntity
  8
0
  6
CONTINUOUS
 62
     1
100
AcDbLine
 10
224.849001124
 20
249.499999997
 30
0.0
 11
224.849001124
 21
245.399999997
 31
0.0
  0
LINE
  5
649
330
1F
100
AcDbEntity
  8
0
  6
CONTINUOUS
 62
     1
100
AcDbLine
 10
216.949001122
 20
218.299999997
 30
0.0
 11
216.9490011229999
 21
222.299999997
 31
0.0
  0
LINE
  5
64A
330
1F
100
AcDbEntity
  8
0
  6
CONTINUOUS
 62
     1
100
AcDbLine
 10
216.9490011229999
 20
222.299999997
 30
0.0
 11
211.449001123
 21
222.299999997
 31
0.0
  0
LINE
  5
64B
330
1F
100
AcDbEntity
  8
0
  6
CONTINUOUS
 62
     1
100
AcDbLine
 10
211.449001123
 20
223.379999997
 30
0.0
 11
216.9490011229999
 21
223.379999997
 31
0.0
  0
LINE
  5
64C
330
1F
100
AcDbEntity
  8
0
  6
CONTINUOUS
 62
     1
100
AcDbLine
 10
211.449001123
 20
222.299999997
 30
0.0
 11
211.449001122
 21
218.299999997
 31
0.0
  0
LINE
  5
64D
330
1F
100
AcDbEntity
  8
0
  6
CONTINUOUS
 62
     1
100
AcDbLine
 10
211.449001122
 20
218.299999997
 30
0.0
 11
216.949001122
 21
218.299999997
 31
0.0
  0
LINE
  5
64E
330
1F
100
AcDbEntity
  8
0
  6
CONTINUOUS
 62
     1
100
AcDbLine
 10
211.449001123
 20
227.379999997
 30
0.0
 11
211.449001123
 21
223.379999997
 31
0.0
  0
LINE
  5
64F
330
1F
100
AcDbEntity
  8
0
  6
CONTINUOUS
 62
     1
100
AcDbLine
 10
216.9490011229999
 20
227.379999997
 30
0.0
 11
211.449001123
 21
227.379999997
 31
0.0
  0
LINE
  5
650
330
1F
100
AcDbEntity
  8
0
  6
CONTINUOUS
 62
     1
100
AcDbLine
 10
216.9490011229999
 20
223.379999997
 30
0.0
 11
216.9490011229999
 21
227.379999997
 31
0.0
  0
LINE
  5
651
330
1F
100
AcDbEntity
  8
0
  6
CONTINUOUS
 62
     1
100
AcDbLine
 10
216.9490011229999
 20
228.459999997
 30
0.0
 11
216.9490011229999
 21
232.459999997
 31
0.0
  0
LINE
  5
652
330
1F
100
AcDbEntity
  8
0
  6
CONTINUOUS
 62
     1
100
AcDbLine
 10
211.449001123
 20
228.459999997
 30
0.0
 11
216.9490011229999
 21
228.459999997
 31
0.0
  0
LINE
  5
653
330
1F
100
AcDbEntity
  8
0
  6
CONTINUOUS
 62
     1
100
AcDbLine
 10
211.449001123
 20
232.459999997
 30
0.0
 11
211.449001123
 21
228.459999997
 31
0.0
  0
LINE
  5
654
330
1F
100
AcDbEntity
  8
0
  6
CONTINUOUS
 62
     1
100
AcDbLine
 10
216.9490011229999
 20
232.459999997
 30
0.0
 11
211.449001123
 21
232.459999997
 31
0.0
  0
LINE
  5
655
330
1F
100
AcDbEntity
  8
0
  6
CONTINUOUS
 62
     1
100
AcDbLine
 10
211.449001123
 20
233.5399999969999
 30
0.0
 11
216.9490011229999
 21
233.5399999969999
 31
0.0
  0
LINE
  5
656
330
1F
100
AcDbEntity
  8
0
  6
CONTINUOUS
 62
     1
100
AcDbLine
 10
216.9490011229999
 20
233.5399999969999
 30
0.0
 11
216.9490011229999
 21
237.5399999969999
 31
0.0
  0
LINE
  5
657
330
1F
100
AcDbEntity
  8
0
  6
CONTINUOUS
 62
     1
100
AcDbLine
 10
211.449001123
 20
237.5399999969999
 30
0.0
 11
211.449001123
 21
233.5399999969999
 31
0.0
  0
LINE
  5
658
330
1F
100
AcDbEntity
  8
0
  6
CONTINUOUS
 62
     1
100
AcDbLine
 10
216.9490011229999
 20
237.5399999969999
 30
0.0
 11
211.449001123
 21
237.5399999969999
 31
0.0
  0
LINE
  5
659
330
1F
100
AcDbEntity
  8
0
  6
CONTINUOUS
 62
     1
100
AcDbLine
 10
211.449001123
 20
238.619999997
 30
0.0
 11
216.9490011229999
 21
238.619999997
 31
0.0
  0
LINE
  5
65A
330
1F
100
AcDbEntity
  8
0
  6
CONTINUOUS
 62
     1
100
AcDbLine
 10
211.449001124
 20
242.619999997
 30
0.0
 11
211.449001123
 21
238.619999997
 31
0.0
  0
LINE
  5
65B
330
1F
100
AcDbEntity
  8
0
  6
CONTINUOUS
 62
     1
100
AcDbLine
 10
216.9490011229999
 20
238.619999997
 30
0.0
 11
216.949001124
 21
242.619999997
 31
0.0
  0
LINE
  5
65C
330
1F
100
AcDbEntity
  8
0
  6
CONTINUOUS
 62
     1
100
AcDbLine
 10
211.449001124
 20
243.699999997
 30
0.0
 11
216.949001124
 21
243.699999997
 31
0.0
  0
LINE
  5
65D
330
1F
100
AcDbEntity
  8
0
  6
CONTINUOUS
 62
     1
100
AcDbLine
 10
216.949001124
 20
242.619999997
 30
0.0
 11
211.449001124
 21
242.619999997
 31
0.0
  0
LINE
  5
65E
330
1F
100
AcDbEntity
  8
0
  6
CONTINUOUS
 62
     1
100
AcDbLine
 10
211.449001124
 20
247.699999997
 30
0.0
 11
211.449001124
 21
243.699999997
 31
0.0
  0
LINE
  5
65F
330
1F
100
AcDbEntity
  8
0
  6
CONTINUOUS
 62
     1
100
AcDbLine
 10
216.949001124
 20
247.699999997
 30
0.0
 11
211.449001124
 21
247.699999997
 31
0.0
  0
LINE
  5
660
330
1F
100
AcDbEntity
  8
0
  6
CONTINUOUS
 62
     1
100
AcDbLine
 10
216.949001124
 20
243.699999997
 30
0.0
 11
216.949001124
 21
247.699999997
 31
0.0
  0
LINE
  5
661
330
1F
100
AcDbEntity
  8
0
  6
CONTINUOUS
 62
     3
100
AcDbLine
 10
274.9150000029998
 20
136.000000002
 30
0.0
 11
269.0
 21
136.000000002
 31
0.0
  0
LINE
  5
662
330
1F
100
AcDbEntity
  8
0
  6
CONTINUOUS
 62
     3
100
AcDbLine
 10
270.0
 20
136.000000002
 30
0.0
 11
269.48236191
 21
134.06814835
 31
0.0
  0
LINE
  5
663
330
1F
100
AcDbEntity
  8
0
  6
CONTINUOUS
 62
     3
100
AcDbLine
 10
270.0
 20
136.000000002
 30
0.0
 11
270.5176380899998
 21
134.06814835
 31
0.0
  0
LINE
  5
664
330
1F
100
AcDbEntity
  8
0
  6
CONTINUOUS
 62
     3
100
AcDbLine
 10
270.0
 20
133.000000002
 30
0.0
 11
270.0
 21
136.000000002
 31
0.0
  0
LINE
  5
665
330
1F
100
AcDbEntity
  8
0
  6
CONTINUOUS
 62
     3
100
AcDbLine
 10
270.0
 20
136.000000002
 30
0.0
 11
270.0
 21
140.300000002
 31
0.0
  0
LINE
  5
666
330
1F
100
AcDbEntity
  8
0
  6
CONTINUOUS
 62
     3
100
AcDbLine
 10
270.0
 20
140.300000002
 30
0.0
 11
270.0
 21
149.300000002
 31
0.0
  0
LINE
  5
667
330
1F
100
AcDbEntity
  8
0
  6
CONTINUOUS
 62
     3
100
AcDbLine
 10
270.0
 20
140.300000002
 30
0.0
 11
270.5176380899998
 21
142.231851655
 31
0.0
  0
LINE
  5
668
330
1F
100
AcDbEntity
  8
0
  6
CONTINUOUS
 62
     3
100
AcDbLine
 10
270.0
 20
140.300000002
 30
0.0
 11
269.48236191
 21
142.231851655
 31
0.0
  0
LINE
  5
669
330
1F
100
AcDbEntity
  8
0
  6
CONTINUOUS
 62
     3
100
AcDbLine
 10
274.9150000029998
 20
140.300000002
 30
0.0
 11
269.0
 21
140.300000002
 31
0.0
  0
TEXT
  5
66A
330
1F
100
AcDbEntity
  8
0
  6
CONTINUOUS
 62
     1
100
AcDbText
 10
209.9544941595833
 20
218.739999998
 30
0.0
 40
2.241361944168961
  1
６
 50
90.0
  7
MS_PGOTHIC
 11
210.4127826346051
 21
218.739999998
 31
0.0
100
AcDbText
 73
     1
  0
TEXT
  5
66B
330
1F
100
AcDbEntity
  8
0
  6
CONTINUOUS
 62
     1
100
AcDbText
 10
209.9544941605831
 20
223.8199999979999
 30
0.0
 40
2.241361944168961
  1
５
 50
90.0
  7
MS_PGOTHIC
 11
210.4127826356049
 21
223.8199999979999
 31
0.0
100
AcDbText
 73
     1
  0
TEXT
  5
66C
330
1F
100
AcDbEntity
  8
0
  6
CONTINUOUS
 62
     1
100
AcDbText
 10
209.9324293763012
 20
228.899999998
 30
0.0
 40
2.24063666583282
  1
４
 50
90.0
  7
MS_PGOTHIC
 11
210.3905695545682
 21
228.899999998
 31
0.0
100
AcDbText
 73
     1
  0
TEXT
  5
66D
330
1F
100
AcDbEntity
  8
0
  6
CONTINUOUS
 62
     1
100
AcDbText
 10
209.9614769742584
 20
233.9799999979999
 30
0.0
 40
2.240335111079172
  1
３
 50
90.0
  7
MS_PGOTHIC
 11
210.4195554940019
 21
233.9799999979999
 31
0.0
100
AcDbText
 73
     1
  0
TEXT
  5
66E
330
1F
100
AcDbEntity
  8
0
  6
CONTINUOUS
 62
     1
100
AcDbText
 10
209.9589555990961
 20
239.059999998
 30
0.0
 40
2.252666458350444
  1
２
 50
90.0
  7
MS_PGOTHIC
 11
210.419555494002
 21
239.059999998
 31
0.0
100
AcDbText
 73
     1
  0
ARC
  5
66F
330
1F
100
AcDbEntity
  8
0
  6
CONTINUOUS
 62
     1
100
AcDbCircle
 10
220.0
 20
198.0
 30
0.0
 40
2.0
100
AcDbArc
 50
90.0
 51
180.0000000009999
  0
LINE
  5
670
330
1F
100
AcDbEntity
  8
0
  6
CONTINUOUS
 62
     1
100
AcDbLine
 10
218.0
 20
198.0
 30
0.0
 11
218.0
 21
42.0
 31
0.0
  0
ARC
  5
671
330
1F
100
AcDbEntity
  8
0
  6
CONTINUOUS
 62
     1
100
AcDbCircle
 10
220.0
 20
42.0
 30
0.0
 40
2.0
100
AcDbArc
 50
180.0000000009999
 51
270.0
  0
LINE
  5
672
330
1F
100
AcDbEntity
  8
0
  6
CONTINUOUS
 62
     1
100
AcDbLine
 10
220.0
 20
40.0
 30
0.0
 11
394.0
 21
40.0
 31
0.0
  0
ARC
  5
673
330
1F
100
AcDbEntity
  8
0
  6
CONTINUOUS
 62
     1
100
AcDbCircle
 10
394.0
 20
42.0
 30
0.0
 40
2.0
100
AcDbArc
 50
270.0
 51
0.0
  0
LINE
  5
674
330
1F
100
AcDbEntity
  8
0
  6
CONTINUOUS
 62
     1
100
AcDbLine
 10
394.0
 20
200.0
 30
0.0
 11
220.0
 21
200.0
 31
0.0
  0
LINE
  5
675
330
1F
100
AcDbEntity
  8
0
  6
CONTINUOUS
 62
     1
100
AcDbLine
 10
396.0
 20
42.0
 30
0.0
 11
396.0
 21
198.0
 31
0.0
  0
ARC
  5
676
330
1F
100
AcDbEntity
  8
0
  6
CONTINUOUS
 62
     1
100
AcDbCircle
 10
394.0
 20
198.0
 30
0.0
 40
2.0
100
AcDbArc
 50
0.0
 51
90.0
  0
TEXT
  5
677
330
1F
100
AcDbEntity
  8
0
  6
CONTINUOUS
 62
     1
100
AcDbText
 10
234.0
 20
164.0000166327059
 30
0.0
 40
2.946938115580396
  1
端子カバー付
 41
0.8
  7
MS_PGOTHIC
 11
234.0
 21
163.3974598798858
 31
0.0
100
AcDbText
 73
     1
  0
TEXT
  5
678
330
1F
100
AcDbEntity
  8
0
  6
CONTINUOUS
 62
     3
100
AcDbText
 10
138.1575000039999
 20
196.4999880405203
 30
0.0
 40
1.484526337670098
  1
９６～９８スライド
 41
0.8
  7
MS_PGOTHIC
 11
138.1575000039999
 21
196.1964487959148
 31
0.0
100
AcDbText
 73
     1
  0
TEXT
  5
679
330
1F
100
AcDbEntity
  8
0
  6
CONTINUOUS
 62
     3
100
AcDbText
 10
206.5000399687722
 20
154.549999998
 30
0.0
 40
1.869863240506636
  1
４１
 50
90.0
 41
0.8
  7
MS_PGOTHIC
 11
206.8823685682295
 21
154.549999998
 31
0.0
100
AcDbText
 73
     1
  0
LINE
  5
67A
330
1F
100
AcDbEntity
  8
0
  6
CONTINUOUS
 62
     3
100
AcDbLine
 10
127.400000002
 20
141.500000001
 30
0.0
 11
127.400000002
 21
145.5499999979998
 31
0.0
  0
LINE
  5
67B
330
1F
100
AcDbEntity
  8
0
  6
CONTINUOUS
 62
     3
100
AcDbLine
 10
127.400000002
 20
143.549999998
 30
0.0
 11
129.814814568
 21
142.9029523849998
 31
0.0
  0
LINE
  5
67C
330
1F
100
AcDbEntity
  8
0
  6
CONTINUOUS
 62
     3
100
AcDbLine
 10
127.400000002
 20
143.549999998
 30
0.0
 11
129.814814568
 21
144.19704761
 31
0.0
  0
LINE
  5
67D
330
1F
100
AcDbEntity
  8
0
  6
CONTINUOUS
 62
     3
100
AcDbLine
 10
127.400000002
 20
143.549999998
 30
0.0
 11
162.600000002
 21
143.549999998
 31
0.0
  0
LINE
  5
67E
330
1F
100
AcDbEntity
  8
0
  6
CONTINUOUS
 62
     3
100
AcDbLine
 10
162.600000002
 20
143.549999998
 30
0.0
 11
160.185185436
 21
144.19704761
 31
0.0
  0
LINE
  5
67F
330
1F
100
AcDbEntity
  8
0
  6
CONTINUOUS
 62
     3
100
AcDbLine
 10
162.600000002
 20
143.549999998
 30
0.0
 11
160.185185436
 21
142.9029523849998
 31
0.0
  0
LINE
  5
680
330
1F
100
AcDbEntity
  8
0
  6
CONTINUOUS
 62
     3
100
AcDbLine
 10
162.600000002
 20
141.4999999989998
 30
0.0
 11
162.600000002
 21
145.5499999979998
 31
0.0
  0
LINE
  5
681
330
1F
100
AcDbEntity
  8
0
  6
CONTINUOUS
 62
     3
100
AcDbLine
 10
127.000000002
 20
136.000000001
 30
0.0
 11
127.400000002
 21
140.500000001
 31
0.0
  0
LINE
  5
682
330
1F
100
AcDbEntity
  8
0
  6
CONTINUOUS
 62
     3
100
AcDbLine
 10
127.000000002
 20
136.000000001
 30
0.0
 11
98.000000002
 21
136.000000002
 31
0.0
  0
LINE
  5
683
330
1F
100
AcDbEntity
  8
0
  6
CONTINUOUS
 62
     3
100
AcDbLine
 10
163.000000002
 20
135.9999999989998
 30
0.0
 11
192.000000002
 21
135.9999999979999
 31
0.0
  0
LINE
  5
684
330
1F
100
AcDbEntity
  8
0
  6
CONTINUOUS
 62
     3
100
AcDbLine
 10
162.600000002
 20
140.4999999989998
 30
0.0
 11
163.000000002
 21
135.9999999989998
 31
0.0
  0
LINE
  5
685
330
1F
100
AcDbEntity
  8
0
  6
CONTINUOUS
 62
     3
100
AcDbLine
 10
127.000000002
 20
135.000000001
 30
0.0
 11
127.000000002
 21
129.15
 31
0.0
  0
LINE
  5
686
330
1F
100
AcDbEntity
  8
0
  6
CONTINUOUS
 62
     3
100
AcDbLine
 10
127.000000002
 20
131.15
 30
0.0
 11
129.414814567
 21
130.5029523879998
 31
0.0
  0
LINE
  5
687
330
1F
100
AcDbEntity
  8
0
  6
CONTINUOUS
 62
     3
100
AcDbLine
 10
127.000000002
 20
131.15
 30
0.0
 11
129.414814567
 21
131.7970476129999
 31
0.0
  0
LINE
  5
688
330
1F
100
AcDbEntity
  8
0
  6
CONTINUOUS
 62
     3
100
AcDbLine
 10
127.000000002
 20
131.15
 30
0.0
 11
163.000000002
 21
131.15
 31
0.0
  0
LINE
  5
689
330
1F
100
AcDbEntity
  8
0
  6
CONTINUOUS
 62
     3
100
AcDbLine
 10
163.000000002
 20
131.15
 30
0.0
 11
160.585185436
 21
131.7970476129999
 31
0.0
  0
LINE
  5
68A
330
1F
100
AcDbEntity
  8
0
  6
CONTINUOUS
 62
     3
100
AcDbLine
 10
163.000000002
 20
131.15
 30
0.0
 11
160.585185436
 21
130.5029523879998
 31
0.0
  0
LINE
  5
68B
330
1F
100
AcDbEntity
  8
0
  6
CONTINUOUS
 62
     3
100
AcDbLine
 10
163.000000002
 20
134.9999999989998
 30
0.0
 11
163.000000002
 21
129.15
 31
0.0
  0
TEXT
  5
68C
330
1F
100
AcDbEntity
  8
0
  6
CONTINUOUS
 62
     3
100
AcDbText
 10
269.499901969898
 20
143.300000002
 30
0.0
 40
2.284974374606376
  1
４.５
 50
90.0
 41
0.8
  7
MS_PGOTHIC
 11
269.9671078240558
 21
143.300000002
 31
0.0
100
AcDbText
 73
     1
  0
TEXT
  5
68D
330
1F
100
AcDbEntity
  8
0
  6
CONTINUOUS
 62
     3
100
AcDbText
 10
321.6500000099998
 20
113.5000829179455
 30
0.0
 40
1.808129043703969
  1
６４.５
 41
0.8
  7
MS_PGOTHIC
 11
321.6500000099998
 21
113.1303770325406
 31
0.0
100
AcDbText
 73
     1
  0
TEXT
  5
68E
330
1F
100
AcDbEntity
  8
0
  6
CONTINUOUS
 62
     3
100
AcDbText
 10
317.657500004
 20
47.49998804052026
 30
0.0
 40
1.484526337670098
  1
９６～９８スライド
 41
0.8
  7
MS_PGOTHIC
 11
317.657500004
 21
47.19644879591478
 31
0.0
100
AcDbText
 73
     1
  0
TEXT
  5
68F
330
1F
100
AcDbEntity
  8
0
  6
CONTINUOUS
 62
     3
100
AcDbText
 10
141.850000004
 20
144.500045456836
 30
0.0
 40
1.804578619741684
  1
３５.２
 41
0.8
  7
MS_PGOTHIC
 11
141.850000004
 21
144.1310655221807
 31
0.0
100
AcDbText
 73
     1
  0
TEXT
  5
690
330
1F
100
AcDbEntity
  8
0
  6
CONTINUOUS
 62
     3
100
AcDbText
 10
141.850000004
 20
132.0000496384238
 30
0.0
 40
1.794611811250584
  1
３５.４
 41
0.8
  7
MS_PGOTHIC
 11
141.850000004
 21
131.6331076046422
 31
0.0
100
AcDbText
 73
     1
  0
LINE
  5
691
330
1F
100
AcDbEntity
  8
0
  6
CONTINUOUS
 62
     6
100
AcDbLine
 10
94.849664944
 20
595.856822211
 30
0.0
 11
276.449664944
 21
595.8568222
 31
0.0
  0
LINE
  5
692
330
1F
100
AcDbEntity
  8
0
  6
CONTINUOUS
 62
     1
100
AcDbLine
 10
78.864664944
 20
595.856822212
 30
0.0
 11
94.864664944
 21
595.856822211
 31
0.0
  0
TEXT
  5
693
330
1F
100
AcDbEntity
  8
0
  6
CONTINUOUS
 62
     3
100
AcDbText
 10
386.5000374174609
 20
153.0499999959999
 30
0.0
 40
1.869875723154757
  1
４１
 50
90.0
 41
0.8
  7
MS_PGOTHIC
 11
386.8823685692297
 21
153.0499999959999
 31
0.0
100
AcDbText
 73
     1
  0
TEXT
  5
694
330
1F
100
AcDbEntity
  8
0
  6
CONTINUOUS
 62
     3
100
AcDbText
 10
379.4999422829518
 20
153.1999999979998
 30
0.0
 40
2.243260116527575
  1
４２.５
 50
90.0
 41
0.8
  7
MS_PGOTHIC
 11
379.958618874903
 21
153.1999999979998
 31
0.0
100
AcDbText
 73
     1
  0
TEXT
  5
695
330
1F
100
AcDbEntity
  8
0
  6
CONTINUOUS
 62
     1
100
AcDbText
 10
209.9594274323975
 20
244.1399999980001
 30
0.0
 40
2.250358857304217
  1
１
 50
90.0
  7
MS_PGOTHIC
 11
210.419555495002
 21
244.1399999980001
 31
0.0
100
AcDbText
 73
     1
  0
VIEWPORT
  5
696
330
1B
100
AcDbEntity
 67
     1
  8
0
100
AcDbViewport
 68
     1
 10
0.0
 20
0.0
 30
0.0
 40
436.05
 41
323.34
 68
     1
 69
     1
1001
ACAD
1000
MVIEW
1002
{
1070
    16
1010
0.0
1020
0.0
1030
0.0
1010
0.0
1020
0.0
1030
1.0
1040
0.0
1040
323.34
1040
206.25
1040
138.5
1040
50.0
1040
0.0
1040
0.0
1070
     0
1070
   100
1070
     0
1070
     3
1070
     0
1070
     0
1070
     0
1070
     0
1040
0.0
1040
0.0
1040
0.0
1040
0.5
1040
0.5
1040
0.5
1040
0.5
1070
     0
1002
{
1002
}
1002
}
  0
ENDSEC
  0
SECTION
  2
OBJECTS
  0
DICTIONARY
  5
C
330
0
100
AcDbDictionary
  3
ACAD_GROUP
350
D
  3
ACAD_IMAGE_VARS
350
6B
  3
ACAD_LAYOUT
350
1A
  3
ACAD_MATERIAL
350
43
  3
ACAD_MLEADERSTYLE
350
69A
  3
ACAD_MLINESTYLE
350
17
  3
ACAD_PLOTSETTINGS
350
19
  3
ACAD_SCALELIST
350
47
  3
ACAD_VISUALSTYLE
350
2A
  3
ACDBVARIABLEDICTIONARY
350
698
1001
ACAD
1000
TREAT_AS_HARD
1070
     0
  0
DICTIONARY
  5
D
102
{ACAD_REACTORS
330
C
102
}
330
C
100
AcDbDictionary
1001
ACAD
1000
TREAT_AS_HARD
1070
     0
  0
RASTERVARIABLES
  5
6B
102
{ACAD_REACTORS
330
C
102
}
330
C
100
AcDbRasterVariables
 90
        0
 70
     0
 71
     1
 72
     0
  0
DICTIONARY
  5
1A
102
{ACAD_REACTORS
330
C
102
}
330
C
100
AcDbDictionary
1001
ACAD
1000
TREAT_AS_HARD
1070
     0
  0
DICTIONARY
  5
43
102
{ACAD_REACTORS
330
C
102
}
330
C
100
AcDbDictionary
  3
BYBLOCK
350
45
  3
BYLAYER
350
44
  3
GLOBAL
350
46
1001
ACAD
1000
TREAT_AS_HARD
1070
     0
  0
DICTIONARY
  5
69A
102
{ACAD_REACTORS
330
C
102
}
330
C
100
AcDbDictionary
1001
ACAD
1000
TREAT_AS_HARD
1070
     0
  0
DICTIONARY
  5
17
102
{ACAD_REACTORS
330
C
102
}
330
C
100
AcDbDictionary
  3
STANDARD
350
18
1001
ACAD
1000
TREAT_AS_HARD
1070
     0
  0
DICTIONARY
  5
19
102
{ACAD_REACTORS
330
C
102
}
330
C
100
AcDbDictionary
1001
ACAD
1000
TREAT_AS_HARD
1070
     0
  0
DICTIONARY
  5
47
102
{ACAD_REACTORS
330
C
102
}
330
C
100
AcDbDictionary
  3
A0
350
48
  3
A1
350
49
  3
A2
350
4A
  3
A3
350
4B
  3
A4
350
4C
  3
A5
350
4D
  3
A6
350
4E
  3
A7
350
4F
  3
A8
350
50
  3
A9
350
51
  3
B0
350
52
  3
B1
350
53
  3
B2
350
54
  3
B3
350
55
  3
B4
350
56
  3
B5
350
57
  3
B6
350
58
  3
B7
350
59
  3
B8
350
5A
  3
B9
350
5B
  3
C0
350
5C
  3
C1
350
5D
  3
C2
350
5E
  3
C3
350
5F
  3
C4
350
60
  3
C5
350
61
  3
C6
350
62
  3
C7
350
63
  3
C8
350
64
  3
C9
350
65
  3
D0
350
66
  3
D1
350
67
  3
D2
350
68
1001
ACAD
1000
TREAT_AS_HARD
1070
     0
  0
DICTIONARY
  5
2A
102
{ACAD_REACTORS
330
C
102
}
330
C
100
AcDbDictionary
  3
2DWIREFRAME
350
2F
  3
BASIC
350
32
  3
BRIGHTEN
350
36
  3
COLORCHANGE
350
3A
  3
CONCEPTUAL
350
34
  3
DIM
350
35
  3
EDGECOLOROFF
350
3D
  3
FACEPATTERN
350
39
  3
FLAT
350
2B
  3
FLATWITHEDGES
350
2C
  3
GOURAUD
350
2D
  3
GOURAUDWITHEDGES
350
2E
  3
HIDDEN
350
31
  3
JITTEROFF
350
3B
  3
LINEPATTERN
350
38
  3
OVERHANGOFF
350
3C
  3
REALISTIC
350
33
  3
SHADED
350
42
  3
SHADED_WITH_EDGES
350
41
  3
SHADES_OF_GRAY
350
3E
  3
SKETCHY
350
3F
  3
THICKEN
350
37
  3
WIREFRAME
350
30
  3
X-RAY
350
40
1001
ACAD
1000
TREAT_AS_HARD
1070
     0
  0
DICTIONARY
  5
698
102
{ACAD_REACTORS
330
C
102
}
330
C
100
AcDbDictionary
  3
CANNOSCALE
350
69F
  3
DIMASSOC
350
69D
  3
HIDETEXT
350
69E
  3
MSLTSCALE
350
6A0
1001
ACAD
1000
TREAT_AS_HARD
1070
     0
  0
MATERIAL
  5
45
102
{ACAD_REACTORS
330
43
102
}
102
{ACAD_XDICTIONARY
360
6A3
102
}
330
43
100
AcDbMaterial
  1
BYBLOCK
  0
MATERIAL
  5
44
102
{ACAD_REACTORS
330
43
102
}
102
{ACAD_XDICTIONARY
360
6A1
102
}
330
43
100
AcDbMaterial
  1
BYLAYER
  0
MATERIAL
  5
46
102
{ACAD_REACTORS
330
43
102
}
102
{ACAD_XDICTIONARY
360
6A5
102
}
330
43
100
AcDbMaterial
  1
GLOBAL
  0
MLINESTYLE
  5
18
102
{ACAD_REACTORS
330
17
102
}
330
17
100
AcDbMlineStyle
  2
Standard
 70
     0
  3

 62
   256
 51
90.0
 52
90.0
 71
     2
 49
0.5
 62
   256
  6
BYLAYER
 49
-0.5
 62
   256
  6
BYLAYER
  0
ACAD_PROXY_OBJECT
  5
48
102
{ACAD_REACTORS
330
47
102
}
330
47
100
AcDbZombieObject
 90
      499
 91
      503
 93
       41
310
903313A31580
  0
ACAD_PROXY_OBJECT
  5
49
102
{ACAD_REACTORS
330
47
102
}
330
47
100
AcDbZombieObject
 90
      499
 91
      503
 93
      105
310
903313A324000000000000004000
  0
ACAD_PROXY_OBJECT
  5
4A
102
{ACAD_REACTORS
330
47
102
}
330
47
100
AcDbZombieObject
 90
      499
 91
      503
 93
      105
310
903313A344000000000000104000
  0
ACAD_PROXY_OBJECT
  5
4B
102
{ACAD_REACTORS
330
47
102
}
330
47
100
AcDbZombieObject
 90
      499
 91
      503
 93
      105
310
903313A354000000000000144000
  0
ACAD_PROXY_OBJECT
  5
4C
102
{ACAD_REACTORS
330
47
102
}
330
47
100
AcDbZombieObject
 90
      499
 91
      503
 93
      105
310
903313A384000000000000204000
  0
ACAD_PROXY_OBJECT
  5
4D
102
{ACAD_REACTORS
330
47
102
}
330
47
100
AcDbZombieObject
 90
      499
 91
      503
 93
      113
310
904313A31304000000000000244000
  0
ACAD_PROXY_OBJECT
  5
4E
102
{ACAD_REACTORS
330
47
102
}
330
47
100
AcDbZombieObject
 90
      499
 91
      503
 93
      113
310
904313A31364000000000000304000
  0
ACAD_PROXY_OBJECT
  5
4F
102
{ACAD_REACTORS
330
47
102
}
330
47
100
AcDbZombieObject
 90
      499
 91
      503
 93
      113
310
904313A32304000000000000344000
  0
ACAD_PROXY_OBJECT
  5
50
102
{ACAD_REACTORS
330
47
102
}
330
47
100
AcDbZombieObject
 90
      499
 91
      503
 93
      113
310
904313A333040000000000003E4000
  0
ACAD_PROXY_OBJECT
  5
51
102
{ACAD_REACTORS
330
47
102
}
330
47
100
AcDbZombieObject
 90
      499
 91
      503
 93
      113
310
904313A34304000000000000444000
  0
ACAD_PROXY_OBJECT
  5
52
102
{ACAD_REACTORS
330
47
102
}
330
47
100
AcDbZombieObject
 90
      499
 91
      503
 93
      113
310
904313A35304000000000000494000
  0
ACAD_PROXY_OBJECT
  5
53
102
{ACAD_REACTORS
330
47
102
}
330
47
100
AcDbZombieObject
 90
      499
 91
      503
 93
      121
310
905313A3130304000000000000594000
  0
ACAD_PROXY_OBJECT
  5
54
102
{ACAD_REACTORS
330
47
102
}
330
47
100
AcDbZombieObject
 90
      499
 91
      503
 93
      105
310
903323A310000000000000010100
  0
ACAD_PROXY_OBJECT
  5
55
102
{ACAD_REACTORS
330
47
102
}
330
47
100
AcDbZombieObject
 90
      499
 91
      503
 93
      105
310
903343A310000000000000410100
  0
ACAD_PROXY_OBJECT
  5
56
102
{ACAD_REACTORS
330
47
102
}
330
47
100
AcDbZombieObject
 90
      499
 91
      503
 93
      105
310
903383A310000000000000810100
  0
ACAD_PROXY_OBJECT
  5
57
102
{ACAD_REACTORS
330
47
102
}
330
47
100
AcDbZombieObject
 90
      499
 91
      503
 93
      113
310
90431303A310000000000000910100
  0
ACAD_PROXY_OBJECT
  5
58
102
{ACAD_REACTORS
330
47
102
}
330
47
100
AcDbZombieObject
 90
      499
 91
      503
 93
      121
310
9053130303A310000000000001650100
  0
ACAD_PROXY_OBJECT
  5
59
102
{ACAD_REACTORS
330
47
102
}
330
47
100
AcDbZombieObject
 90
      499
 91
      503
 93
      257
310
90E312F31323822203D2031272D3022000000000000200FC000000000000284000
  0
ACAD_PROXY_OBJECT
  5
5A
102
{ACAD_REACTORS
330
47
102
}
330
47
100
AcDbZombieObject
 90
      499
 91
      503
 93
      249
310
90D312F363422203D2031272D3022000000000000240FC000000000000284000
  0
ACAD_PROXY_OBJECT
  5
5B
102
{ACAD_REACTORS
330
47
102
}
330
47
100
AcDbZombieObject
 90
      499
 91
      503
 93
      249
310
90D312F333222203D2031272D3022000000000000280FC000000000000284000
  0
ACAD_PROXY_OBJECT
  5
5C
102
{ACAD_REACTORS
330
47
102
}
330
47
100
AcDbZombieObject
 90
      499
 91
      503
 93
      249
310
90D312F313622203D2031272D30220000000000002C0FC000000000000284000
  0
ACAD_PROXY_OBJECT
  5
5D
102
{ACAD_REACTORS
330
47
102
}
330
47
100
AcDbZombieObject
 90
      499
 91
      503
 93
      249
310
90D332F333222203D2031272D30220000000000002E0FC000000000000284000
  0
ACAD_PROXY_OBJECT
  5
5E
102
{ACAD_REACTORS
330
47
102
}
330
47
100
AcDbZombieObject
 90
      499
 91
      503
 93
      241
310
90C312F3822203D2031272D3022000000000000300FC000000000000284000
  0
ACAD_PROXY_OBJECT
  5
5F
102
{ACAD_REACTORS
330
47
102
}
330
47
100
AcDbZombieObject
 90
      499
 91
      503
 93
      249
310
90D332F313622203D2031272D3022000000000000320FC000000000000284000
  0
ACAD_PROXY_OBJECT
  5
60
102
{ACAD_REACTORS
330
47
102
}
330
47
100
AcDbZombieObject
 90
      499
 91
      503
 93
      241
310
90C312F3422203D2031272D3022000000000000340FC000000000000284000
  0
ACAD_PROXY_OBJECT
  5
61
102
{ACAD_REACTORS
330
47
102
}
330
47
100
AcDbZombieObject
 90
      499
 91
      503
 93
      241
310
90C332F3822203D2031272D3022000000000000360FC000000000000284000
  0
ACAD_PROXY_OBJECT
  5
62
102
{ACAD_REACTORS
330
47
102
}
330
47
100
AcDbZombieObject
 90
      499
 91
      503
 93
      241
310
90C312F3222203D2031272D3022000000000000380FC000000000000284000
  0
ACAD_PROXY_OBJECT
  5
63
102
{ACAD_REACTORS
330
47
102
}
330
47
100
AcDbZombieObject
 90
      499
 91
      503
 93
      241
310
90C332F3422203D2031272D30220000000000003A0FC000000000000284000
  0
ACAD_PROXY_OBJECT
  5
64
102
{ACAD_REACTORS
330
47
102
}
330
47
100
AcDbZombieObject
 90
      499
 91
      503
 93
      161
310
90A3122203D2031272D30224000000000000284000
  0
ACAD_PROXY_OBJECT
  5
65
102
{ACAD_REACTORS
330
47
102
}
330
47
100
AcDbZombieObject
 90
      499
 91
      503
 93
      257
310
90E312D312F3222203D2031272D30220000000000003E0FC000000000000284000
  0
ACAD_PROXY_OBJECT
  5
66
102
{ACAD_REACTORS
330
47
102
}
330
47
100
AcDbZombieObject
 90
      499
 91
      503
 93
      225
310
90A3322203D2031272D302200000000000002100000000000000284000
  0
ACAD_PROXY_OBJECT
  5
67
102
{ACAD_REACTORS
330
47
102
}
330
47
100
AcDbZombieObject
 90
      499
 91
      503
 93
      225
310
90A3622203D2031272D302200000000000006100000000000000284000
  0
ACAD_PROXY_OBJECT
  5
68
102
{ACAD_REACTORS
330
47
102
}
330
47
100
AcDbZombieObject
 90
      499
 91
      503
 93
      249
310
90D31272D3022203D2031272D30220000000000000A100000000000000284000
  0
ACAD_PROXY_OBJECT
  5
2F
102
{ACAD_REACTORS
330
2A
102
}
330
2A
100
AcDbZombieObject
 90
      499
 91
      501
 93
      436
310
42CC9915DA5C99599C985B595049028333333333333E33F0000000000000F90107901411070040501600405405064090741402480A0340
1001
ACAD
1000
AcDbSavedByObjectVersion
1070
     0
  0
ACAD_PROXY_OBJECT
  5
32
102
{ACAD_REACTORS
330
2A
102
}
330
2A
100
AcDbZombieObject
 90
      499
 91
      501
 93
      388
310
4150985CDA58D07406404333333333333E33F0000000000000F90107A41107004050150841D405064090741402480A0350
1001
ACAD
1000
AcDbSavedByObjectVersion
1070
     0
  0
ACAD_PROXY_OBJECT
  5
36
102
{ACAD_REACTORS
330
2A
102
}
330
2A
100
AcDbZombieObject
 90
      499
 91
      501
 93
      428
310
42109C9A59DA1D195B90C409028333333333333E33F0000000000000F9010790141107004050150841D405064090741402480A029950
1001
ACAD
1000
AcDbSavedByObjectVersion
1070
     0
  0
ACAD_PROXY_OBJECT
  5
3A
102
{ACAD_REACTORS
330
2A
102
}
330
2A
100
AcDbZombieObject
 90
      499
 91
      501
 93
      452
310
42D0DBDB1BDC90DA185B99D95104090240C333333333333E33F0000000000000F90108901411070040501508421405064090741402480A0350
1001
ACAD
1000
AcDbSavedByObjectVersion
1070
     0
  0
ACAD_PROXY_OBJECT
  5
34
102
{ACAD_REACTORS
330
2A
102
}
330
2A
100
AcDbZombieObject
 90
      499
 91
      501
 93
      500
310
4290DBDB98D95C1D1D585B10940D028333333333333E33F0000000000000F90107902409070040501000000000018199010841D405064090740C02480A0340
1001
ACAD
1000
AcDbSavedByObjectVersion
1070
     0
  0
ACAD_PROXY_OBJECT
  5
35
102
{ACAD_REACTORS
330
2A
102
}
330
2A
100
AcDbZombieObject
 90
      499
 91
      501
 93
      412
310
40D11A5B50B409028333333333333E33F0000000000000F9010790141107004050150841D405064090741402480A02677FFFFFD0
1001
ACAD
1000
AcDbSavedByObjectVersion
1070
     0
  0
ACAD_PROXY_OBJECT
  5
3D
102
{ACAD_REACTORS
330
2A
102
}
330
2A
100
AcDbZombieObject
 90
      499
 91
      501
 93
      452
310
43115919D950DBDB1BDC93D999916409028333333333333E33F0000000000000F9010790141107004050150841D405064090741402480A0350
1001
ACAD
1000
AcDbSavedByObjectVersion
1070
     0
  0
ACAD_PROXY_OBJECT
  5
39
102
{ACAD_REACTORS
330
2A
102
}
330
2A
100
AcDbZombieObject
 90
      499
 91
      501
 93
      444
310
42D19858D95C185D1D195C9B90F409028333333333333E33F0000000000000F9010790141107004050150841D405064090741402480A0350
1001
ACAD
1000
AcDbSavedByObjectVersion
1070
     0
  0
ACAD_PROXY_OBJECT
  5
2B
102
{ACAD_REACTORS
330
2A
102
}
330
2A
100
AcDbZombieObject
 90
      499
 91
      501
 93
      380
310
41119B185D240901404333333333333E33F0000000000000F9010740A907004050150841D405064090741402480A1B50
1001
ACAD
1000
AcDbSavedByObjectVersion
1070
     0
  0
ACAD_PROXY_OBJECT
  5
2C
102
{ACAD_REACTORS
330
2A
102
}
330
2A
100
AcDbZombieObject
 90
      499
 91
      501
 93
      468
310
43519B185D15DA5D1A115919D95CD0140901404333333333333E33F0000000000000F90107409019070040501600405405064090741402480A1B50
1001
ACAD
1000
AcDbSavedByObjectVersion
1070
     0
  0
ACAD_PROXY_OBJECT
  5
2D
102
{ACAD_REACTORS
330
2A
102
}
330
2A
100
AcDbZombieObject
 90
      499
 91
      501
 93
      404
310
41D1DBDD5C985D5910240902404333333333333E33F0000000000000F9010740A9070040501641D405064090741402480A1B50
1001
ACAD
1000
AcDbSavedByObjectVersion
1070
     0
  0
ACAD_PROXY_OBJECT
  5
2E
102
{ACAD_REACTORS
330
2A
102
}
330
2A
100
AcDbZombieObject
 90
      499
 91
      501
 93
      492
310
4411DBDD5C985D5915DA5D1A115919D95CD0340902404333333333333E33F0000000000000F90107409019070040501600405405064090741402480A1B50
1001
ACAD
1000
AcDbSavedByObjectVersion
1070
     0
  0
ACAD_PROXY_OBJECT
  5
31
102
{ACAD_REACTORS
330
2A
102
}
330
2A
100
AcDbZombieObject
 90
      499
 91
      501
 93
      476
310
41921A5919195B90640502408333333333333E33F0000000000000F901079024090700405020000000000001110200405405064090740C02480A0340
1001
ACAD
1000
AcDbSavedByObjectVersion
1070
     0
  0
ACAD_PROXY_OBJECT
  5
3B
102
{ACAD_REACTORS
330
2A
102
}
330
2A
100
AcDbZombieObject
 90
      499
 91
      501
 93
      428
310
42529A5D1D195C93D999914409028333333333333E33F0000000000000F9010790141107004050150A41D405064090741402480A0350
1001
ACAD
1000
AcDbSavedByObjectVersion
1070
     0
  0
ACAD_PROXY_OBJECT
  5
38
102
{ACAD_REACTORS
330
2A
102
}
330
2A
100
AcDbZombieObject
 90
      499
 91
      501
 93
      444
310
42D31A5B995C185D1D195C9B90E409028333333333333E33F0000000000000F9010790141107004050750841D405064090741402483A0350
1001
ACAD
1000
AcDbSavedByObjectVersion
1070
     0
  0
ACAD_PROXY_OBJECT
  5
3C
102
{ACAD_REACTORS
330
2A
102
}
330
2A
100
AcDbZombieObject
 90
      499
 91
      501
 93
      444
310
42D3DD995C9A185B99D3D999915409028333333333333E33F0000000000000F9010790141107004050150941D405064090741402480A0350
1001
ACAD
1000
AcDbSavedByObjectVersion
1070
     0
  0
ACAD_PROXY_OBJECT
  5
33
102
{ACAD_REACTORS
330
2A
102
}
330
2A
100
AcDbZombieObject
 90
      499
 91
      501
 93
      428
310
425499585B1A5CDD1A58D08409038333333333333E33F0000000000000F9010740A907004050150800405405064090740C02480A1B40
1001
ACAD
1000
AcDbSavedByObjectVersion
1070
     0
  0
ACAD_PROXY_OBJECT
  5
42
102
{ACAD_REACTORS
330
2A
102
}
330
2A
100
AcDbZombieObject
 90
      499
 91
      501
 93
      420
310
4194DA1859195911B40902404333333333333E33F0000000000000F9010740A41107004050150800405405064090840C02480A0B40
1001
ACAD
1000
AcDbSavedByObjectVersion
1070
     0
  0
ACAD_PROXY_OBJECT
  5
41
102
{ACAD_REACTORS
330
2A
102
}
330
2A
100
AcDbZombieObject
 90
      499
 91
      501
 93
      516
310
4454DA18591959081DDA5D1A08195919D95CD1A40902404333333333333E33F0000000000000F901074090142907004050250800405405064090740C02480A0B40
1001
ACAD
1000
AcDbSavedByObjectVersion
1070
     0
  0
ACAD_PROXY_OBJECT
  5
3E
102
{ACAD_REACTORS
330
2A
102
}
330
2A
100
AcDbZombieObject
 90
      499
 91
      501
 93
      532
310
4394DA1859195CC81BD98811DC985E5174090240C333333333333E33F0000000000000F901079024090741D01000000000000111010841D405064090740C02480A0340
1001
ACAD
1000
AcDbSavedByObjectVersion
1070
     0
  0
ACAD_PROXY_OBJECT
  5
3F
102
{ACAD_REACTORS
330
2A
102
}
330
2A
100
AcDbZombieObject
 90
      499
 91
      501
 93
      476
310
41D4DAD95D18DA1E51840502408333333333333E33F0000000000000F901079024090741D01000000000000111010B41D405064090741802480A0340
1001
ACAD
1000
AcDbSavedByObjectVersion
1070
     0
  0
ACAD_PROXY_OBJECT
  5
37
102
{ACAD_REACTORS
330
2A
102
}
330
2A
100
AcDbZombieObject
 90
      499
 91
      501
 93
      412
310
41D51A1A58DAD95B90D409028333333333333E33F0000000000000F9010790141107004050150C41D405064090741402480A0350
1001
ACAD
1000
AcDbSavedByObjectVersion
1070
     0
  0
ACAD_PROXY_OBJECT
  5
30
102
{ACAD_REACTORS
330
2A
102
}
330
2A
100
AcDbZombieObject
 90
      499
 91
      501
 93
      420
310
4255DA5C99599C985B595059028333333333333E33F0000000000000F90107901411070040501600405405064090740C02480A0340
1001
ACAD
1000
AcDbSavedByObjectVersion
1070
     0
  0
ACAD_PROXY_OBJECT
  5
40
102
{ACAD_REACTORS
330
2A
102
}
330
2A
100
AcDbZombieObject
 90
      499
 91
      501
 93
      404
310
41560B54985E51940902404000000000000E03F0000000000000F9010740501907004050150841D405064090740C02480A1B40
1001
ACAD
1000
AcDbSavedByObjectVersion
1070
     0
  0
DICTIONARYVAR
  5
69F
102
{ACAD_REACTORS
330
698
102
}
330
698
100
DictionaryVariables
280
     0
  1
1:1
  0
DICTIONARYVAR
  5
69D
102
{ACAD_REACTORS
330
698
102
}
330
698
100
DictionaryVariables
280
     0
  1
2
  0
DICTIONARYVAR
  5
69E
102
{ACAD_REACTORS
330
698
102
}
330
698
100
DictionaryVariables
280
     0
  1
1
  0
DICTIONARYVAR
  5
6A0
102
{ACAD_REACTORS
330
698
102
}
330
698
100
DictionaryVariables
280
     0
  1
1
  0
DICTIONARY
  5
6A3
330
45
100
AcDbDictionary
  3
ACAD_XREC_ROUNDTRIP
360
6A4
1001
ACAD
1000
TREAT_AS_HARD
1070
     1
  0
DICTIONARY
  5
6A1
330
44
100
AcDbDictionary
  3
ACAD_XREC_ROUNDTRIP
360
6A2
1001
ACAD
1000
TREAT_AS_HARD
1070
     1
  0
DICTIONARY
  5
6A5
330
46
100
AcDbDictionary
  3
ACAD_XREC_ROUNDTRIP
360
6A6
1001
ACAD
1000
TREAT_AS_HARD
1070
     1
  0
XRECORD
  5
6A4
102
{ACAD_REACTORS
330
6A3
102
}
330
6A3
100
AcDbXrecord
102
MATERIAL
148
0.0
149
0.0
149
0.0
 93
        0
 94
      127
282
     0
 72
     1
 77
     1
171
     1
175
     1
179
     1
273
     0
  0
XRECORD
  5
6A2
102
{ACAD_REACTORS
330
6A1
102
}
330
6A1
100
AcDbXrecord
102
MATERIAL
148
0.0
149
0.0
149
0.0
 93
        0
 94
      127
282
     0
 72
     1
 77
     1
171
     1
175
     1
179
     1
273
     0
  0
XRECORD
  5
6A6
102
{ACAD_REACTORS
330
6A5
102
}
330
6A5
100
AcDbXrecord
102
MATERIAL
148
0.0
149
0.0
149
0.0
 93
        0
 94
      127
282
     0
 72
     1
 77
     1
171
     1
175
     1
179
     1
273
     0
  0
ENDSEC
  0
EOF
