  0
SECTION
  2
HEADER
  9
$EXTMIN
 10
0.0
 20
0.0
 30
0.0
  9
$EXTMAX
 10
420.0
 20
297.0
 30
0.0
  9
$LIMMIN
 10
0.0
 20
0.0
  9
$LIMMAX
 10
420.0
 20
297.0
  9
$LTSCALE
 40
1.0
  9
$PDMODE
 70
     0
  0
ENDSEC
  0
SECTION
  2
TABLES
  0
TABLE
  2
LTYPE
 70
     2
  0
LTYPE
  2
CONTINUOUS
 70
    64
  3
Solid line
 72
    65
 73
     0
 40
0.0
  0
LTYPE
  2
LTYPE1
 70
    64
  3
CENTER
 72
    65
 73
     4
 40
15.0
 49
10.5
 49
-1.5
 49
1.5
 49
-1.5
  0
ENDTAB
  0
TABLE
  2
LAYER
 70
   128
  0
LAYER
  2
0
 70
     0
 62
     7
  6
CONTINUOUS
  0
LAYER
  2
1
 70
     0
 62
     7
  6
CONTINUOUS
  0
LAYER
  2
2
 70
     0
 62
     7
  6
CONTINUOUS
  0
LAYER
  2
3
 70
     0
 62
     7
  6
CONTINUOUS
  0
LAYER
  2
4
 70
     0
 62
     7
  6
CONTINUOUS
  0
LAYER
  2
5
 70
     0
 62
     7
  6
CONTINUOUS
  0
LAYER
  2
6
 70
     0
 62
     7
  6
CONTINUOUS
  0
LAYER
  2
7
 70
     0
 62
     7
  6
CONTINUOUS
  0
LAYER
  2
8
 70
     0
 62
     7
  6
CONTINUOUS
  0
LAYER
  2
9
 70
     0
 62
     7
  6
CONTINUOUS
  0
LAYER
  2
10
 70
     0
 62
     7
  6
CONTINUOUS
  0
LAYER
  2
11
 70
     0
 62
     7
  6
CONTINUOUS
  0
LAYER
  2
12
 70
     0
 62
     7
  6
CONTINUOUS
  0
LAYER
  2
13
 70
     0
 62
     7
  6
CONTINUOUS
  0
LAYER
  2
14
 70
     0
 62
     7
  6
CONTINUOUS
  0
LAYER
  2
15
 70
     0
 62
     7
  6
CONTINUOUS
  0
LAYER
  2
16
 70
     0
 62
     7
  6
CONTINUOUS
  0
LAYER
  2
17
 70
     0
 62
     7
  6
CONTINUOUS
  0
LAYER
  2
18
 70
     0
 62
     7
  6
CONTINUOUS
  0
LAYER
  2
19
 70
     0
 62
     7
  6
CONTINUOUS
  0
LAYER
  2
20
 70
     0
 62
     7
  6
CONTINUOUS
  0
LAYER
  2
21
 70
     0
 62
     7
  6
CONTINUOUS
  0
LAYER
  2
22
 70
     0
 62
     7
  6
CONTINUOUS
  0
LAYER
  2
23
 70
     0
 62
     7
  6
CONTINUOUS
  0
LAYER
  2
24
 70
     0
 62
     7
  6
CONTINUOUS
  0
LAYER
  2
25
 70
     0
 62
     7
  6
CONTINUOUS
  0
LAYER
  2
26
 70
     0
 62
     7
  6
CONTINUOUS
  0
LAYER
  2
27
 70
     0
 62
     7
  6
CONTINUOUS
  0
LAYER
  2
28
 70
     0
 62
     7
  6
CONTINUOUS
  0
LAYER
  2
29
 70
     0
 62
     7
  6
CONTINUOUS
  0
LAYER
  2
30
 70
     0
 62
     7
  6
CONTINUOUS
  0
LAYER
  2
31
 70
     0
 62
     7
  6
CONTINUOUS
  0
LAYER
  2
32
 70
     0
 62
     7
  6
CONTINUOUS
  0
LAYER
  2
33
 70
     0
 62
     7
  6
CONTINUOUS
  0
LAYER
  2
34
 70
     0
 62
     7
  6
CONTINUOUS
  0
LAYER
  2
35
 70
     0
 62
     7
  6
CONTINUOUS
  0
LAYER
  2
36
 70
     0
 62
     7
  6
CONTINUOUS
  0
LAYER
  2
37
 70
     0
 62
     7
  6
CONTINUOUS
  0
LAYER
  2
38
 70
     0
 62
     7
  6
CONTINUOUS
  0
LAYER
  2
39
 70
     0
 62
     7
  6
CONTINUOUS
  0
LAYER
  2
40
 70
     0
 62
     7
  6
CONTINUOUS
  0
LAYER
  2
41
 70
     0
 62
     7
  6
CONTINUOUS
  0
LAYER
  2
42
 70
     0
 62
     7
  6
CONTINUOUS
  0
LAYER
  2
43
 70
     0
 62
     7
  6
CONTINUOUS
  0
LAYER
  2
44
 70
     0
 62
     7
  6
CONTINUOUS
  0
LAYER
  2
45
 70
     0
 62
     7
  6
CONTINUOUS
  0
LAYER
  2
46
 70
     0
 62
     7
  6
CONTINUOUS
  0
LAYER
  2
47
 70
     0
 62
     7
  6
CONTINUOUS
  0
LAYER
  2
48
 70
     0
 62
     7
  6
CONTINUOUS
  0
LAYER
  2
49
 70
     0
 62
     7
  6
CONTINUOUS
  0
LAYER
  2
50
 70
     0
 62
     7
  6
CONTINUOUS
  0
LAYER
  2
51
 70
     0
 62
     7
  6
CONTINUOUS
  0
LAYER
  2
52
 70
     0
 62
     7
  6
CONTINUOUS
  0
LAYER
  2
53
 70
     0
 62
     7
  6
CONTINUOUS
  0
LAYER
  2
54
 70
     0
 62
     7
  6
CONTINUOUS
  0
LAYER
  2
55
 70
     0
 62
     7
  6
CONTINUOUS
  0
LAYER
  2
56
 70
     0
 62
     7
  6
CONTINUOUS
  0
LAYER
  2
57
 70
     0
 62
     7
  6
CONTINUOUS
  0
LAYER
  2
58
 70
     0
 62
     7
  6
CONTINUOUS
  0
LAYER
  2
59
 70
     0
 62
     7
  6
CONTINUOUS
  0
LAYER
  2
60
 70
     0
 62
     7
  6
CONTINUOUS
  0
LAYER
  2
61
 70
     0
 62
     7
  6
CONTINUOUS
  0
LAYER
  2
62
 70
     0
 62
     7
  6
CONTINUOUS
  0
LAYER
  2
63
 70
     0
 62
     7
  6
CONTINUOUS
  0
LAYER
  2
64
 70
     0
 62
     7
  6
CONTINUOUS
  0
LAYER
  2
65
 70
     0
 62
     7
  6
CONTINUOUS
  0
LAYER
  2
66
 70
     0
 62
     7
  6
CONTINUOUS
  0
LAYER
  2
67
 70
     0
 62
     7
  6
CONTINUOUS
  0
LAYER
  2
68
 70
     0
 62
     7
  6
CONTINUOUS
  0
LAYER
  2
69
 70
     0
 62
     7
  6
CONTINUOUS
  0
LAYER
  2
70
 70
     0
 62
     7
  6
CONTINUOUS
  0
LAYER
  2
71
 70
     0
 62
     7
  6
CONTINUOUS
  0
LAYER
  2
72
 70
     0
 62
     7
  6
CONTINUOUS
  0
LAYER
  2
73
 70
     0
 62
     7
  6
CONTINUOUS
  0
LAYER
  2
74
 70
     0
 62
     7
  6
CONTINUOUS
  0
LAYER
  2
75
 70
     0
 62
     7
  6
CONTINUOUS
  0
LAYER
  2
76
 70
     0
 62
     7
  6
CONTINUOUS
  0
LAYER
  2
77
 70
     0
 62
     7
  6
CONTINUOUS
  0
LAYER
  2
78
 70
     0
 62
     7
  6
CONTINUOUS
  0
LAYER
  2
79
 70
     0
 62
     7
  6
CONTINUOUS
  0
LAYER
  2
80
 70
     0
 62
     7
  6
CONTINUOUS
  0
LAYER
  2
81
 70
     0
 62
     7
  6
CONTINUOUS
  0
LAYER
  2
82
 70
     0
 62
     7
  6
CONTINUOUS
  0
LAYER
  2
83
 70
     0
 62
     7
  6
CONTINUOUS
  0
LAYER
  2
84
 70
     0
 62
     7
  6
CONTINUOUS
  0
LAYER
  2
85
 70
     0
 62
     7
  6
CONTINUOUS
  0
LAYER
  2
86
 70
     0
 62
     7
  6
CONTINUOUS
  0
LAYER
  2
87
 70
     0
 62
     7
  6
CONTINUOUS
  0
LAYER
  2
88
 70
     0
 62
     7
  6
CONTINUOUS
  0
LAYER
  2
89
 70
     0
 62
     7
  6
CONTINUOUS
  0
LAYER
  2
90
 70
     0
 62
     7
  6
CONTINUOUS
  0
LAYER
  2
91
 70
     0
 62
     7
  6
CONTINUOUS
  0
LAYER
  2
92
 70
     0
 62
     7
  6
CONTINUOUS
  0
LAYER
  2
93
 70
     0
 62
     7
  6
CONTINUOUS
  0
LAYER
  2
94
 70
     0
 62
     7
  6
CONTINUOUS
  0
LAYER
  2
95
 70
     0
 62
     7
  6
CONTINUOUS
  0
LAYER
  2
96
 70
     0
 62
     7
  6
CONTINUOUS
  0
LAYER
  2
97
 70
     0
 62
     7
  6
CONTINUOUS
  0
LAYER
  2
98
 70
     0
 62
     7
  6
CONTINUOUS
  0
LAYER
  2
99
 70
     0
 62
     7
  6
CONTINUOUS
  0
LAYER
  2
100
 70
     0
 62
     7
  6
CONTINUOUS
  0
LAYER
  2
101
 70
     0
 62
     7
  6
CONTINUOUS
  0
LAYER
  2
102
 70
     0
 62
     7
  6
CONTINUOUS
  0
LAYER
  2
103
 70
     0
 62
     7
  6
CONTINUOUS
  0
LAYER
  2
104
 70
     0
 62
     7
  6
CONTINUOUS
  0
LAYER
  2
105
 70
     0
 62
     7
  6
CONTINUOUS
  0
LAYER
  2
106
 70
     0
 62
     7
  6
CONTINUOUS
  0
LAYER
  2
107
 70
     0
 62
     7
  6
CONTINUOUS
  0
LAYER
  2
108
 70
     0
 62
     7
  6
CONTINUOUS
  0
LAYER
  2
109
 70
     0
 62
     7
  6
CONTINUOUS
  0
LAYER
  2
110
 70
     0
 62
     7
  6
CONTINUOUS
  0
LAYER
  2
111
 70
     0
 62
     7
  6
CONTINUOUS
  0
LAYER
  2
112
 70
     0
 62
     7
  6
CONTINUOUS
  0
LAYER
  2
113
 70
     0
 62
     7
  6
CONTINUOUS
  0
LAYER
  2
114
 70
     0
 62
     7
  6
CONTINUOUS
  0
LAYER
  2
115
 70
     0
 62
     7
  6
CONTINUOUS
  0
LAYER
  2
116
 70
     0
 62
     7
  6
CONTINUOUS
  0
LAYER
  2
117
 70
     0
 62
     7
  6
CONTINUOUS
  0
LAYER
  2
118
 70
     0
 62
     7
  6
CONTINUOUS
  0
LAYER
  2
119
 70
     0
 62
     7
  6
CONTINUOUS
  0
LAYER
  2
120
 70
     0
 62
     7
  6
CONTINUOUS
  0
LAYER
  2
121
 70
     0
 62
     7
  6
CONTINUOUS
  0
LAYER
  2
122
 70
     0
 62
     7
  6
CONTINUOUS
  0
LAYER
  2
123
 70
     0
 62
     7
  6
CONTINUOUS
  0
LAYER
  2
124
 70
     0
 62
     7
  6
CONTINUOUS
  0
LAYER
  2
125
 70
     0
 62
     7
  6
CONTINUOUS
  0
LAYER
  2
126
 70
     0
 62
     7
  6
CONTINUOUS
  0
LAYER
  2
127
 70
     0
 62
     7
  6
CONTINUOUS
  0
ENDTAB
  0
TABLE
  2
STYLE
 70
     2
  0
STYLE
  2
STANDARD
 70
     0
 40
0.0
 41
1.0
 50
0.0
 71
     0
 42
0.2
  3
txt
  4

  0
STYLE
  2
KANJI0
 70
     0
 40
2.0
 41
0.8
 50
0.0
 71
     0
 42
2.0
  3

  4
bigfont
  0
ENDTAB
  0
TABLE
  2
VIEW
 70
     0
  0
ENDTAB
  0
ENDSEC
  0
SECTION
  2
BLOCKS
  0
ENDSEC
  0
SECTION
  2
ENTITIES
  0
POLYLINE
  8
0
  6
CONTINUOUS
 62
     1
 66
     1
 70
     1
  0
VERTEX
  8
0
  6
CONTINUOUS
 62
     1
 10
3141492651413536400000000000000000000000000000000000000000000000000000000000000000000000000000000000000000000000000000000000000000000000000000000000000000000000000000000000000000000000000000000000000000000000000000000000000.0
 20
126926390563329640000000000000000000000000000000000000000000000000000000000000000000000000000000000000000000000000000000000000000000000000000000000000000000000000000000000000000000000000000000000000000000000000000000000000000000000000.0
  0
VERTEX
  8
0
  6
CONTINUOUS
 62
     1
 10
3141492651413536400000000000000000000000000000000000000000000000000000000000000000000000000000000000000000000000000000000000000000000000000000000000000000000000000000000000000000000000000000000000000000000000000000000000000.0
 20
126926390563329640000000000000000000000000000000000000000000000000000000000000000000000000000000000000000000000000000000000000000000000000000000000000000000000000000000000000000000000000000000000000000000000000000000000000000000000000.0
  0
SEQEND
  0
POINT
  8
0
  6
CONTINUOUS
 62
     1
 10
-1470580238991735500000000000000000000000000000000000000000000000.0
 20
-59416163741459895000000000000000000000000000000000000000000000000000000000.0
  0
POINT
  8
0
  6
CONTINUOUS
 62
     1
 10
-1470580238991735500000000000000000000000000000000000000000000000.0
 20
-59416163741459895000000000000000000000000000000000000000000000000000000000.0
  0
POINT
  8
0
  6
CONTINUOUS
 62
     1
 10
3141492651413536400000000000000000000000000000000000000000000000000000000000000000000000000000000000000000000000000000000000000000000000000000000000000000000000000000000000000000000000000000000000000000000000000000000000000.0
 20
126926390563329640000000000000000000000000000000000000000000000000000000000000000000000000000000000000000000000000000000000000000000000000000000000000000000000000000000000000000000000000000000000000000000000000000000000000000000000000.0
  0
POINT
  8
0
  6
CONTINUOUS
 62
     1
 10
3141492651413536400000000000000000000000000000000000000000000000000000000000000000000000000000000000000000000000000000000000000000000000000000000000000000000000000000000000000000000000000000000000000000000000000000000000000.0
 20
126926390563329640000000000000000000000000000000000000000000000000000000000000000000000000000000000000000000000000000000000000000000000000000000000000000000000000000000000000000000000000000000000000000000000000000000000000000000000000.0
  0
POINT
  8
0
  6
CONTINUOUS
 62
     1
 10
-1470580238991735500000000000000000000000000000000000000000000000.0
 20
-59416163741459895000000000000000000000000000000000000000000000000000000000.0
  0
POINT
  8
0
  6
CONTINUOUS
 62
     1
 10
-1470580238991735500000000000000000000000000000000000000000000000.0
 20
-59416163741459895000000000000000000000000000000000000000000000000000000000.0
  0
POINT
  8
0
  6
CONTINUOUS
 62
     1
 10
3141492651413536400000000000000000000000000000000000000000000000000000000000000000000000000000000000000000000000000000000000000000000000000000000000000000000000000000000000000000000000000000000000000000000000000000000000000.0
 20
126926390563329640000000000000000000000000000000000000000000000000000000000000000000000000000000000000000000000000000000000000000000000000000000000000000000000000000000000000000000000000000000000000000000000000000000000000000000000000.0
  0
POINT
  8
0
  6
CONTINUOUS
 62
     1
 10
3141492651413536400000000000000000000000000000000000000000000000000000000000000000000000000000000000000000000000000000000000000000000000000000000000000000000000000000000000000000000000000000000000000000000000000000000000000.0
 20
126926390563329640000000000000000000000000000000000000000000000000000000000000000000000000000000000000000000000000000000000000000000000000000000000000000000000000000000000000000000000000000000000000000000000000000000000000000000000000.0
  0
POINT
  8
0
  6
CONTINUOUS
 62
     1
 10
-1470580238991735500000000000000000000000000000000000000000000000.0
 20
-59416163741459895000000000000000000000000000000000000000000000000000000000.0
  0
POINT
  8
0
  6
CONTINUOUS
 62
     1
 10
-1470580238991735500000000000000000000000000000000000000000000000.0
 20
-59416163741459895000000000000000000000000000000000000000000000000000000000.0
  0
POINT
  8
0
  6
CONTINUOUS
 62
     1
 10
3141492651413536400000000000000000000000000000000000000000000000000000000000000000000000000000000000000000000000000000000000000000000000000000000000000000000000000000000000000000000000000000000000000000000000000000000000000.0
 20
126926390563329640000000000000000000000000000000000000000000000000000000000000000000000000000000000000000000000000000000000000000000000000000000000000000000000000000000000000000000000000000000000000000000000000000000000000000000000000.0
  0
POINT
  8
0
  6
CONTINUOUS
 62
     1
 10
3141492651413536400000000000000000000000000000000000000000000000000000000000000000000000000000000000000000000000000000000000000000000000000000000000000000000000000000000000000000000000000000000000000000000000000000000000000.0
 20
126926390563329640000000000000000000000000000000000000000000000000000000000000000000000000000000000000000000000000000000000000000000000000000000000000000000000000000000000000000000000000000000000000000000000000000000000000000000000000.0
  0
POINT
  8
0
  6
CONTINUOUS
 62
     1
 10
-1470580238991735500000000000000000000000000000000000000000000000.0
 20
-59416163741459895000000000000000000000000000000000000000000000000000000000.0
  0
POINT
  8
0
  6
CONTINUOUS
 62
     1
 10
-1470580238991735500000000000000000000000000000000000000000000000.0
 20
-59416163741459895000000000000000000000000000000000000000000000000000000000.0
  0
POINT
  8
0
  6
CONTINUOUS
 62
     1
 10
3141492651413536400000000000000000000000000000000000000000000000000000000000000000000000000000000000000000000000000000000000000000000000000000000000000000000000000000000000000000000000000000000000000000000000000000000000000.0
 20
126926390563329640000000000000000000000000000000000000000000000000000000000000000000000000000000000000000000000000000000000000000000000000000000000000000000000000000000000000000000000000000000000000000000000000000000000000000000000000.0
  0
POINT
  8
0
  6
CONTINUOUS
 62
     1
 10
3141492651413536400000000000000000000000000000000000000000000000000000000000000000000000000000000000000000000000000000000000000000000000000000000000000000000000000000000000000000000000000000000000000000000000000000000000000.0
 20
126926390563329640000000000000000000000000000000000000000000000000000000000000000000000000000000000000000000000000000000000000000000000000000000000000000000000000000000000000000000000000000000000000000000000000000000000000000000000000.0
  0
POINT
  8
0
  6
CONTINUOUS
 62
     1
 10
-1470580238991735500000000000000000000000000000000000000000000000.0
 20
-59416163741459895000000000000000000000000000000000000000000000000000000000.0
  0
POINT
  8
0
  6
CONTINUOUS
 62
     1
 10
-1470580238991735500000000000000000000000000000000000000000000000.0
 20
-59416163741459895000000000000000000000000000000000000000000000000000000000.0
  0
POINT
  8
0
  6
CONTINUOUS
 62
     1
 10
3141492651413536400000000000000000000000000000000000000000000000000000000000000000000000000000000000000000000000000000000000000000000000000000000000000000000000000000000000000000000000000000000000000000000000000000000000000.0
 20
126926390563329640000000000000000000000000000000000000000000000000000000000000000000000000000000000000000000000000000000000000000000000000000000000000000000000000000000000000000000000000000000000000000000000000000000000000000000000000.0
  0
POINT
  8
0
  6
CONTINUOUS
 62
     1
 10
3141492651413536400000000000000000000000000000000000000000000000000000000000000000000000000000000000000000000000000000000000000000000000000000000000000000000000000000000000000000000000000000000000000000000000000000000000000.0
 20
126926390563329640000000000000000000000000000000000000000000000000000000000000000000000000000000000000000000000000000000000000000000000000000000000000000000000000000000000000000000000000000000000000000000000000000000000000000000000000.0
  0
POINT
  8
0
  6
CONTINUOUS
 62
     1
 10
-1470580238991735500000000000000000000000000000000000000000000000.0
 20
-59416163741459895000000000000000000000000000000000000000000000000000000000.0
  0
POINT
  8
0
  6
CONTINUOUS
 62
     1
 10
-1470580238991735500000000000000000000000000000000000000000000000.0
 20
-59416163741459895000000000000000000000000000000000000000000000000000000000.0
  0
LINE
  8
0
  6
CONTINUOUS
 62
     5
 10
148.000000005
 20
208.000002699
 11
148.000000004
 21
195.000002699
  0
LINE
  8
0
  6
CONTINUOUS
 62
     5
 10
148.000000004
 20
196.000002699
 11
149.931851657
 21
195.482364608
  0
LINE
  8
0
  6
CONTINUOUS
 62
     5
 10
148.000000004
 20
196.000002699
 11
149.931851657
 21
196.517640789
  0
LINE
  8
0
  6
CONTINUOUS
 62
     3
 10
111.915000003
 20
233.78518788
 11
111.915000003
 21
232.21481751
  0
LINE
  8
0
  6
CONTINUOUS
 62
     3
 10
111.915000003
 20
230.28518788
 11
111.915000003
 21
228.71481751
  0
LINE
  8
0
  6
CONTINUOUS
 62
     3
 10
111.915000003
 20
226.78518788
 11
111.915000003
 21
225.21481751
  0
LINE
  8
0
  6
CONTINUOUS
 62
     3
 10
111.915000003
 20
223.28518788
 11
111.915000003
 21
221.71481751
  0
LINE
  8
0
  6
CONTINUOUS
 62
     3
 10
111.915000003
 20
219.78518788
 11
111.915000003
 21
218.21481751
  0
LINE
  8
0
  6
CONTINUOUS
 62
     3
 10
111.915000003
 20
216.28518788
 11
111.915000003
 21
214.71481751
  0
LINE
  8
0
  6
CONTINUOUS
 62
     3
 10
102.115000003
 20
214.750002695
 11
113.915000003
 21
214.650002695
  0
LINE
  8
0
  6
CONTINUOUS
 62
     3
 10
111.915000003
 20
212.78518788
 11
111.915000003
 21
211.21481751
  0
LINE
  8
0
  6
CONTINUOUS
 62
     3
 10
102.115000003
 20
212.000002695
 11
102.115000003
 21
212.750002695
  0
LINE
  8
0
  6
CONTINUOUS
 62
     3
 10
102.115000003
 20
212.750002695
 11
113.915000003
 21
212.850002695
  0
LINE
  8
0
  6
CONTINUOUS
 62
     3
 10
102.115000003
 20
212.000002695
 11
102.115000003
 21
211.250002695
  0
LINE
  8
0
  6
CONTINUOUS
 62
     3
 10
102.115000003
 20
211.250002695
 11
113.915000003
 21
211.150002695
  0
LINE
  8
0
  6
CONTINUOUS
 62
     3
 10
111.915000003
 20
235.71481751
 11
111.915000003
 21
237.28518788
  0
LINE
  8
0
  6
CONTINUOUS
 62
     3
 10
111.915000003
 20
239.21481751
 11
111.915000003
 21
240.78518788
  0
LINE
  8
0
  6
CONTINUOUS
 62
     3
 10
111.915000003
 20
242.71481751
 11
111.915000003
 21
244.28518788
  0
LINE
  8
0
  6
CONTINUOUS
 62
     3
 10
111.915000003
 20
246.21481751
 11
111.915000003
 21
247.78518788
  0
LINE
  8
0
  6
CONTINUOUS
 62
     3
 10
111.915000003
 20
249.71481751
 11
111.915000003
 21
251.28518788
  0
LINE
  8
0
  6
CONTINUOUS
 62
     3
 10
102.115000003
 20
251.250002695
 11
113.915000003
 21
251.350002695
  0
LINE
  8
0
  6
CONTINUOUS
 62
     3
 10
111.915000003
 20
253.21481751
 11
111.915000003
 21
254.78518788
  0
LINE
  8
0
  6
CONTINUOUS
 62
     3
 10
102.115000003
 20
254.000002695
 11
102.115000003
 21
253.250002695
  0
LINE
  8
0
  6
CONTINUOUS
 62
     3
 10
102.115000003
 20
253.250002695
 11
113.915000003
 21
253.150002695
  0
LINE
  8
0
  6
CONTINUOUS
 62
     3
 10
102.115000003
 20
254.000002695
 11
102.115000003
 21
254.750002695
  0
LINE
  8
0
  6
CONTINUOUS
 62
     3
 10
102.115000003
 20
254.750002695
 11
113.915000003
 21
254.850002695
  0
LINE
  8
0
  6
CONTINUOUS
 62
     1
 10
91.715000003
 20
233.000002695
 11
91.715000003
 21
235.500002695
  0
LINE
  8
0
  6
CONTINUOUS
 62
     1
 10
91.715000003
 20
235.500002695
 11
92.515000003
 21
235.500002695
  0
LINE
  8
0
  6
CONTINUOUS
 62
     1
 10
73.115000003
 20
257.000002695
 11
73.115000003
 21
233.000002695
  0
LINE
  8
0
  6
CONTINUOUS
 62
     1
 10
92.015000003
 20
243.100002695
 11
90.515000003
 21
243.100002695
  0
ARC
  8
0
  6
CONTINUOUS
 62
     1
 10
92.015000003
 20
242.600002695
 40
0.5
 50
0.0
 51
90.0
  0
LINE
  8
0
  6
CONTINUOUS
 62
     1
 10
92.015000003
 20
244.900002695
 11
90.515000003
 21
244.900002695
  0
ARC
  8
0
  6
CONTINUOUS
 62
     1
 10
92.015000003
 20
245.400002695
 40
0.5
 50
270.0
 51
0.0
  0
LINE
  8
0
  6
CONTINUOUS
 62
     1
 10
92.515000003
 20
235.500002695
 11
92.515000003
 21
242.600002695
  0
LINE
  8
0
  6
CONTINUOUS
 62
     1
 10
90.515000003
 20
233.000002695
 11
90.515000003
 21
256.000002695
  0
LINE
  8
0
  6
CONTINUOUS
 62
     1
 10
89.515000003
 20
257.000002695
 11
73.115000003
 21
257.000002695
  0
ARC
  8
0
  6
CONTINUOUS
 62
     1
 10
89.515000003
 20
256.000002695
 40
1.0
 50
0.0
 51
90.0
  0
LINE
  8
0
  6
CONTINUOUS
 62
     1
 10
112.915000003
 20
257.000002695
 11
89.315000003
 21
257.000002695
  0
POLYLINE
  8
0
  6
CONTINUOUS
 62
     1
 66
     1
  0
VERTEX
  8
0
  6
CONTINUOUS
 62
     1
 10
91.715000003
 20
233.000002695
  0
VERTEX
  8
0
  6
CONTINUOUS
 62
     1
 10
91.715000003
 20
230.500002695
  0
VERTEX
  8
0
  6
CONTINUOUS
 62
     1
 10
92.515000003
 20
230.500002695
  0
SEQEND
  0
LINE
  8
0
  6
CONTINUOUS
 62
     1
 10
92.015000003
 20
222.900002695
 11
90.515000003
 21
222.900002695
  0
ARC
  8
0
  6
CONTINUOUS
 62
     1
 10
92.015000003
 20
223.400002695
 40
0.5
 50
270.0
 51
0.0
  0
LINE
  8
0
  6
CONTINUOUS
 62
     1
 10
92.015000003
 20
221.100002695
 11
90.515000003
 21
221.100002695
  0
ARC
  8
0
  6
CONTINUOUS
 62
     1
 10
92.015000003
 20
220.600002695
 40
0.5
 50
0.0
 51
90.0
  0
LINE
  8
0
  6
CONTINUOUS
 62
     1
 10
92.515000003
 20
230.500002695
 11
92.515000003
 21
223.400002695
  0
LINE
  8
0
  6
CONTINUOUS
 62
     1
 10
90.515000003
 20
233.000002695
 11
90.515000003
 21
210.000002695
  0
ARC
  8
0
  6
CONTINUOUS
 62
     1
 10
89.515000003
 20
210.000002695
 40
1.0
 50
270.0
 51
0.0
  0
LINE
  8
0
  6
CONTINUOUS
 62
     1
 10
112.915000003
 20
209.000002695
 11
89.315000003
 21
209.000002695
  0
LINE
  8
0
  6
CONTINUOUS
 62
     1
 10
73.115000003
 20
209.000002695
 11
73.115000003
 21
233.000002695
  0
LINE
  8
0
  6
CONTINUOUS
 62
     1
 10
89.515000003
 20
209.000002695
 11
73.115000003
 21
209.000002695
  0
LINE
  8
0
  6
CONTINUOUS
 62
     1
 10
92.515000003
 20
220.600002695
 11
92.515000003
 21
216.500002695
  0
LINE
  8
0
  6
CONTINUOUS
 62
     1
 10
92.515000003
 20
245.400002695
 11
92.515000003
 21
249.500002695
  0
LINE
  8
0
  6
CONTINUOUS
 62
     1
 10
92.085000003
 20
253.050002695
 11
94.963110738
 21
253.050002695
  0
LINE
  8
0
  6
CONTINUOUS
 62
     1
 10
90.515000003
 20
253.050002695
 11
92.015000003
 21
253.050002695
  0
ARC
  8
0
  6
CONTINUOUS
 62
     1
 10
92.015000003
 20
252.550002695
 40
0.5
 50
0.0
 51
90.0
  0
ARC
  8
0
  6
CONTINUOUS
 62
     1
 10
94.963110738
 20
213.450002695
 40
0.5
 50
270.0
 51
359.819825187
  0
LINE
  8
0
  6
CONTINUOUS
 62
     1
 10
90.515000003
 20
212.950002695
 11
92.015000003
 21
212.950002695
  0
ARC
  8
0
  6
CONTINUOUS
 62
     1
 10
92.015000003
 20
213.450002695
 40
0.5
 50
270.0
 51
0.0
  0
LINE
  8
0
  6
CONTINUOUS
 62
     1
 10
91.905000003
 20
212.950002695
 11
94.963110738
 21
212.950002695
  0
LINE
  8
0
  6
CONTINUOUS
 62
     1
 10
92.515000003
 20
249.500002695
 11
92.515000003
 21
252.550002695
  0
LINE
  8
0
  6
CONTINUOUS
 62
     1
 10
92.515000003
 20
216.500002695
 11
92.515000003
 21
213.450002695
  0
LINE
  8
0
  6
CONTINUOUS
 62
     1
 10
92.515000003
 20
251.450002695
 11
95.463108266
 21
251.450002695
  0
LINE
  8
0
  6
CONTINUOUS
 62
     1
 10
92.515000003
 20
214.550002695
 11
95.463108266
 21
214.550002695
  0
LINE
  8
0
  6
CONTINUOUS
 62
     1
 10
113.915000003
 20
233.000002695
 11
113.915000003
 21
210.000002695
  0
ARC
  8
0
  6
CONTINUOUS
 62
     1
 10
112.915000003
 20
210.000002695
 40
1.0
 50
270.0
 51
0.0
  0
LINE
  8
0
  6
CONTINUOUS
 62
     1
 10
113.915000003
 20
233.000002695
 11
113.915000003
 21
256.000002695
  0
ARC
  8
0
  6
CONTINUOUS
 62
     1
 10
112.915000003
 20
256.000002695
 40
1.0
 50
0.0
 51
90.0
  0
LINE
  8
0
  6
CONTINUOUS
 62
     1
 10
73.115000003
 20
209.000002695
 11
73.115000003
 21
233.000002695
  0
LINE
  8
0
  6
CONTINUOUS
 62
     3
 10
99.915000003
 20
249.650002695
 11
93.215000003
 21
249.650002695
  0
LINE
  8
0
  6
CONTINUOUS
 62
     3
 10
93.215000003
 20
242.450002695
 11
101.215000003
 21
242.450002695
  0
LINE
  8
0
  6
CONTINUOUS
 62
     3
 10
93.215000003
 20
249.650002695
 11
93.215000003
 21
242.450002695
  0
LINE
  8
0
  6
CONTINUOUS
 62
     3
 10
93.715000003
 20
249.650002695
 11
93.715000003
 21
242.450002695
  0
LINE
  8
0
  6
CONTINUOUS
 62
     3
 10
93.215000003
 20
248.650002695
 11
93.715000003
 21
248.650002695
  0
LINE
  8
0
  6
CONTINUOUS
 62
     3
 10
93.215000003
 20
243.450002695
 11
93.715000003
 21
243.450002695
  0
LINE
  8
0
  6
CONTINUOUS
 62
     3
 10
93.715000003
 20
246.550002695
 11
94.715000003
 21
246.550002695
  0
LINE
  8
0
  6
CONTINUOUS
 62
     3
 10
94.715000003
 20
246.550002695
 11
93.715000003
 21
249.050002695
  0
LINE
  8
0
  6
CONTINUOUS
 62
     3
 10
93.715000003
 20
249.050002695
 11
95.715000003
 21
249.050002695
  0
LINE
  8
0
  6
CONTINUOUS
 62
     3
 10
95.715000003
 20
249.050002695
 11
95.715000003
 21
246.050002695
  0
LINE
  8
0
  6
CONTINUOUS
 62
     3
 10
95.215000003
 20
246.050002695
 11
95.215000003
 21
247.050002695
  0
LINE
  8
0
  6
CONTINUOUS
 62
     3
 10
95.215000003
 20
247.050002695
 11
95.715000003
 21
247.050002695
  0
LINE
  8
0
  6
CONTINUOUS
 62
     3
 10
93.215000003
 20
243.450002695
 11
93.715000003
 21
243.450002695
  0
LINE
  8
0
  6
CONTINUOUS
 62
     3
 10
93.715000003
 20
245.550002695
 11
94.715000003
 21
245.550002695
  0
LINE
  8
0
  6
CONTINUOUS
 62
     3
 10
94.715000003
 20
245.550002695
 11
93.715000003
 21
243.050002695
  0
LINE
  8
0
  6
CONTINUOUS
 62
     3
 10
93.715000003
 20
243.050002695
 11
95.715000003
 21
243.050002695
  0
LINE
  8
0
  6
CONTINUOUS
 62
     3
 10
95.715000003
 20
243.050002695
 11
95.715000003
 21
246.050002695
  0
LINE
  8
0
  6
CONTINUOUS
 62
     3
 10
95.215000003
 20
246.050002695
 11
95.215000003
 21
245.050002695
  0
LINE
  8
0
  6
CONTINUOUS
 62
     3
 10
95.215000003
 20
245.050002695
 11
95.715000003
 21
245.050002695
  0
LINE
  8
0
  6
CONTINUOUS
 62
     3
 10
95.715000003
 20
246.050002695
 11
95.715000003
 21
248.850002695
  0
LINE
  8
0
  6
CONTINUOUS
 62
     3
 10
95.715000003
 20
248.850002695
 11
97.715000003
 21
248.850002695
  0
LINE
  8
0
  6
CONTINUOUS
 62
     3
 10
97.915000003
 20
246.050002695
 11
97.915000003
 21
246.650002695
  0
LINE
  8
0
  6
CONTINUOUS
 62
     3
 10
97.915000003
 20
246.650002695
 11
97.715000003
 21
248.850002695
  0
LINE
  8
0
  6
CONTINUOUS
 62
     3
 10
95.715000003
 20
243.050002695
 11
95.715000003
 21
246.050002695
  0
LINE
  8
0
  6
CONTINUOUS
 62
     3
 10
95.715000003
 20
246.050002695
 11
95.715000003
 21
243.250002695
  0
LINE
  8
0
  6
CONTINUOUS
 62
     3
 10
95.715000003
 20
243.250002695
 11
97.715000003
 21
243.250002695
  0
LINE
  8
0
  6
CONTINUOUS
 62
     3
 10
97.915000003
 20
246.050002695
 11
97.915000003
 21
245.450002695
  0
LINE
  8
0
  6
CONTINUOUS
 62
     3
 10
97.915000003
 20
245.450002695
 11
97.715000003
 21
243.250002695
  0
LINE
  8
0
  6
CONTINUOUS
 62
     3
 10
101.215000003
 20
240.950002695
 11
93.215000003
 21
240.950002695
  0
LINE
  8
0
  6
CONTINUOUS
 62
     3
 10
101.215000003
 20
240.950002695
 11
93.215000003
 21
240.950002695
  0
LINE
  8
0
  6
CONTINUOUS
 62
     3
 10
93.215000003
 20
240.950002695
 11
93.215000003
 21
233.750002695
  0
LINE
  8
0
  6
CONTINUOUS
 62
     3
 10
93.215000003
 20
233.750002695
 11
101.215000003
 21
233.750002695
  0
LINE
  8
0
  6
CONTINUOUS
 62
     3
 10
93.715000003
 20
240.950002695
 11
93.715000003
 21
233.750002695
  0
LINE
  8
0
  6
CONTINUOUS
 62
     3
 10
93.215000003
 20
239.950002695
 11
93.715000003
 21
239.950002695
  0
LINE
  8
0
  6
CONTINUOUS
 62
     3
 10
93.215000003
 20
234.750002695
 11
93.715000003
 21
234.750002695
  0
LINE
  8
0
  6
CONTINUOUS
 62
     3
 10
93.715000003
 20
237.850002695
 11
94.715000003
 21
237.850002695
  0
LINE
  8
0
  6
CONTINUOUS
 62
     3
 10
94.715000003
 20
237.850002695
 11
93.715000003
 21
240.350002695
  0
LINE
  8
0
  6
CONTINUOUS
 62
     3
 10
93.715000003
 20
240.350002695
 11
95.715000003
 21
240.350002695
  0
LINE
  8
0
  6
CONTINUOUS
 62
     3
 10
95.715000003
 20
240.350002695
 11
95.715000003
 21
237.350002695
  0
LINE
  8
0
  6
CONTINUOUS
 62
     3
 10
95.215000003
 20
237.350002695
 11
95.215000003
 21
238.350002695
  0
LINE
  8
0
  6
CONTINUOUS
 62
     3
 10
95.215000003
 20
238.350002695
 11
95.715000003
 21
238.350002695
  0
LINE
  8
0
  6
CONTINUOUS
 62
     3
 10
93.215000003
 20
234.750002695
 11
93.715000003
 21
234.750002695
  0
LINE
  8
0
  6
CONTINUOUS
 62
     3
 10
93.715000003
 20
236.850002695
 11
94.715000003
 21
236.850002695
  0
LINE
  8
0
  6
CONTINUOUS
 62
     3
 10
94.715000003
 20
236.850002695
 11
93.715000003
 21
234.350002695
  0
LINE
  8
0
  6
CONTINUOUS
 62
     3
 10
93.715000003
 20
234.350002695
 11
95.715000003
 21
234.350002695
  0
LINE
  8
0
  6
CONTINUOUS
 62
     3
 10
95.715000003
 20
234.350002695
 11
95.715000003
 21
237.350002695
  0
LINE
  8
0
  6
CONTINUOUS
 62
     3
 10
95.215000003
 20
237.350002695
 11
95.215000003
 21
236.350002695
  0
LINE
  8
0
  6
CONTINUOUS
 62
     3
 10
95.215000003
 20
236.350002695
 11
95.715000003
 21
236.350002695
  0
LINE
  8
0
  6
CONTINUOUS
 62
     3
 10
95.715000003
 20
237.350002695
 11
95.715000003
 21
240.150002695
  0
LINE
  8
0
  6
CONTINUOUS
 62
     3
 10
95.715000003
 20
240.150002695
 11
97.715000003
 21
240.150002695
  0
LINE
  8
0
  6
CONTINUOUS
 62
     3
 10
97.915000003
 20
237.350002695
 11
97.915000003
 21
237.950002695
  0
LINE
  8
0
  6
CONTINUOUS
 62
     3
 10
97.915000003
 20
237.950002695
 11
97.715000003
 21
240.150002695
  0
LINE
  8
0
  6
CONTINUOUS
 62
     3
 10
95.715000003
 20
234.350002695
 11
95.715000003
 21
237.350002695
  0
LINE
  8
0
  6
CONTINUOUS
 62
     3
 10
95.715000003
 20
237.350002695
 11
95.715000003
 21
234.550002695
  0
LINE
  8
0
  6
CONTINUOUS
 62
     3
 10
95.715000003
 20
234.550002695
 11
97.715000003
 21
234.550002695
  0
LINE
  8
0
  6
CONTINUOUS
 62
     3
 10
97.915000003
 20
237.350002695
 11
97.915000003
 21
236.750002695
  0
LINE
  8
0
  6
CONTINUOUS
 62
     3
 10
97.915000003
 20
236.750002695
 11
97.715000003
 21
234.550002695
  0
LINE
  8
0
  6
CONTINUOUS
 62
     3
 10
99.915000003
 20
233.750002695
 11
98.115000003
 21
233.750002695
  0
LINE
  8
0
  6
CONTINUOUS
 62
     3
 10
101.215000003
 20
232.250002695
 11
93.215000003
 21
232.250002695
  0
LINE
  8
0
  6
CONTINUOUS
 62
     3
 10
93.215000003
 20
232.250002695
 11
93.215000003
 21
225.050002695
  0
LINE
  8
0
  6
CONTINUOUS
 62
     3
 10
93.215000003
 20
225.050002695
 11
99.915000003
 21
225.050002695
  0
LINE
  8
0
  6
CONTINUOUS
 62
     3
 10
93.715000003
 20
232.250002695
 11
93.715000003
 21
225.050002695
  0
LINE
  8
0
  6
CONTINUOUS
 62
     3
 10
93.215000003
 20
231.250002695
 11
93.715000003
 21
231.250002695
  0
LINE
  8
0
  6
CONTINUOUS
 62
     3
 10
93.215000003
 20
226.050002695
 11
93.715000003
 21
226.050002695
  0
LINE
  8
0
  6
CONTINUOUS
 62
     3
 10
93.715000003
 20
229.150002695
 11
94.715000003
 21
229.150002695
  0
LINE
  8
0
  6
CONTINUOUS
 62
     3
 10
94.715000003
 20
229.150002695
 11
93.715000003
 21
231.650002695
  0
LINE
  8
0
  6
CONTINUOUS
 62
     3
 10
93.715000003
 20
231.650002695
 11
95.715000003
 21
231.650002695
  0
LINE
  8
0
  6
CONTINUOUS
 62
     3
 10
95.715000003
 20
231.650002695
 11
95.715000003
 21
228.650002695
  0
LINE
  8
0
  6
CONTINUOUS
 62
     3
 10
95.215000003
 20
228.650002695
 11
95.215000003
 21
229.650002695
  0
LINE
  8
0
  6
CONTINUOUS
 62
     3
 10
95.215000003
 20
229.650002695
 11
95.715000003
 21
229.650002695
  0
LINE
  8
0
  6
CONTINUOUS
 62
     3
 10
93.215000003
 20
226.050002695
 11
93.715000003
 21
226.050002695
  0
LINE
  8
0
  6
CONTINUOUS
 62
     3
 10
93.715000003
 20
228.150002695
 11
94.715000003
 21
228.150002695
  0
LINE
  8
0
  6
CONTINUOUS
 62
     3
 10
94.715000003
 20
228.150002695
 11
93.715000003
 21
225.650002695
  0
LINE
  8
0
  6
CONTINUOUS
 62
     3
 10
93.715000003
 20
225.650002695
 11
95.715000003
 21
225.650002695
  0
LINE
  8
0
  6
CONTINUOUS
 62
     3
 10
95.715000003
 20
225.650002695
 11
95.715000003
 21
228.650002695
  0
LINE
  8
0
  6
CONTINUOUS
 62
     3
 10
95.215000003
 20
228.650002695
 11
95.215000003
 21
227.650002695
  0
LINE
  8
0
  6
CONTINUOUS
 62
     3
 10
95.215000003
 20
227.650002695
 11
95.715000003
 21
227.650002695
  0
LINE
  8
0
  6
CONTINUOUS
 62
     3
 10
95.715000003
 20
228.650002695
 11
95.715000003
 21
231.450002695
  0
LINE
  8
0
  6
CONTINUOUS
 62
     3
 10
95.715000003
 20
231.450002695
 11
97.715000003
 21
231.450002695
  0
LINE
  8
0
  6
CONTINUOUS
 62
     3
 10
97.915000003
 20
228.650002695
 11
97.915000003
 21
229.250002695
  0
LINE
  8
0
  6
CONTINUOUS
 62
     3
 10
97.915000003
 20
229.250002695
 11
97.715000003
 21
231.450002695
  0
LINE
  8
0
  6
CONTINUOUS
 62
     3
 10
95.715000003
 20
225.650002695
 11
95.715000003
 21
228.650002695
  0
LINE
  8
0
  6
CONTINUOUS
 62
     3
 10
95.715000003
 20
228.650002695
 11
95.715000003
 21
225.850002695
  0
LINE
  8
0
  6
CONTINUOUS
 62
     3
 10
95.715000003
 20
225.850002695
 11
97.715000003
 21
225.850002695
  0
LINE
  8
0
  6
CONTINUOUS
 62
     3
 10
97.915000003
 20
228.650002695
 11
97.915000003
 21
228.050002695
  0
LINE
  8
0
  6
CONTINUOUS
 62
     3
 10
97.915000003
 20
228.050002695
 11
97.715000003
 21
225.850002695
  0
LINE
  8
0
  6
CONTINUOUS
 62
     3
 10
99.915000003
 20
223.550002695
 11
93.215000003
 21
223.550002695
  0
LINE
  8
0
  6
CONTINUOUS
 62
     3
 10
93.215000003
 20
216.350002695
 11
101.215000003
 21
216.350002695
  0
LINE
  8
0
  6
CONTINUOUS
 62
     3
 10
93.715000003
 20
223.550002695
 11
93.715000003
 21
216.350002695
  0
LINE
  8
0
  6
CONTINUOUS
 62
     3
 10
93.215000003
 20
223.550002695
 11
93.215000003
 21
216.350002695
  0
LINE
  8
0
  6
CONTINUOUS
 62
     3
 10
93.215000003
 20
216.350002695
 11
99.915000003
 21
216.350002695
  0
LINE
  8
0
  6
CONTINUOUS
 62
     3
 10
93.715000003
 20
223.550002695
 11
93.715000003
 21
216.350002695
  0
LINE
  8
0
  6
CONTINUOUS
 62
     3
 10
93.215000003
 20
222.550002695
 11
93.715000003
 21
222.550002695
  0
LINE
  8
0
  6
CONTINUOUS
 62
     3
 10
93.215000003
 20
217.350002695
 11
93.715000003
 21
217.350002695
  0
LINE
  8
0
  6
CONTINUOUS
 62
     3
 10
93.715000003
 20
220.450002695
 11
94.715000003
 21
220.450002695
  0
LINE
  8
0
  6
CONTINUOUS
 62
     3
 10
94.715000003
 20
220.450002695
 11
93.715000003
 21
222.950002695
  0
LINE
  8
0
  6
CONTINUOUS
 62
     3
 10
93.715000003
 20
222.950002695
 11
95.715000003
 21
222.950002695
  0
LINE
  8
0
  6
CONTINUOUS
 62
     3
 10
95.715000003
 20
222.950002695
 11
95.715000003
 21
219.950002695
  0
LINE
  8
0
  6
CONTINUOUS
 62
     3
 10
95.215000003
 20
219.950002695
 11
95.215000003
 21
220.950002695
  0
LINE
  8
0
  6
CONTINUOUS
 62
     3
 10
95.215000003
 20
220.950002695
 11
95.715000003
 21
220.950002695
  0
LINE
  8
0
  6
CONTINUOUS
 62
     3
 10
93.215000003
 20
217.350002695
 11
93.715000003
 21
217.350002695
  0
LINE
  8
0
  6
CONTINUOUS
 62
     3
 10
93.715000003
 20
219.450002695
 11
94.715000003
 21
219.450002695
  0
LINE
  8
0
  6
CONTINUOUS
 62
     3
 10
94.715000003
 20
219.450002695
 11
93.715000003
 21
216.950002695
  0
LINE
  8
0
  6
CONTINUOUS
 62
     3
 10
93.715000003
 20
216.950002695
 11
95.715000003
 21
216.950002695
  0
LINE
  8
0
  6
CONTINUOUS
 62
     3
 10
95.715000003
 20
216.950002695
 11
95.715000003
 21
219.950002695
  0
LINE
  8
0
  6
CONTINUOUS
 62
     3
 10
95.215000003
 20
219.950002695
 11
95.215000003
 21
218.950002695
  0
LINE
  8
0
  6
CONTINUOUS
 62
     3
 10
95.215000003
 20
218.950002695
 11
95.715000003
 21
218.950002695
  0
LINE
  8
0
  6
CONTINUOUS
 62
     3
 10
95.715000003
 20
219.950002695
 11
95.715000003
 21
222.750002695
  0
LINE
  8
0
  6
CONTINUOUS
 62
     3
 10
95.715000003
 20
222.750002695
 11
97.715000003
 21
222.750002695
  0
LINE
  8
0
  6
CONTINUOUS
 62
     3
 10
97.915000003
 20
219.950002695
 11
97.915000003
 21
220.550002695
  0
LINE
  8
0
  6
CONTINUOUS
 62
     3
 10
97.915000003
 20
220.550002695
 11
97.715000003
 21
222.750002695
  0
LINE
  8
0
  6
CONTINUOUS
 62
     3
 10
95.715000003
 20
216.950002695
 11
95.715000003
 21
219.950002695
  0
LINE
  8
0
  6
CONTINUOUS
 62
     3
 10
95.715000003
 20
219.950002695
 11
95.715000003
 21
217.150002695
  0
LINE
  8
0
  6
CONTINUOUS
 62
     3
 10
95.715000003
 20
217.150002695
 11
97.715000003
 21
217.150002695
  0
LINE
  8
0
  6
CONTINUOUS
 62
     3
 10
97.915000003
 20
219.950002695
 11
97.915000003
 21
219.350002695
  0
LINE
  8
0
  6
CONTINUOUS
 62
     3
 10
97.915000003
 20
219.350002695
 11
97.715000003
 21
217.150002695
  0
LINE
  8
0
  6
CONTINUOUS
 62
     3
 10
99.915000003
 20
216.350002695
 11
98.115000003
 21
216.350002695
  0
LINE
  8
0
  6
CONTINUOUS
 62
     3
 10
101.215000003
 20
242.450002695
 11
101.215000003
 21
240.950002695
  0
LINE
  8
0
  6
CONTINUOUS
 62
     3
 10
99.915000003
 20
240.950002695
 11
99.915000003
 21
242.450002695
  0
LINE
  8
0
  6
CONTINUOUS
 62
     3
 10
101.215000003
 20
233.750002695
 11
101.215000003
 21
232.250002695
  0
LINE
  8
0
  6
CONTINUOUS
 62
     3
 10
99.915000003
 20
232.250002695
 11
99.915000003
 21
233.750002695
  0
LINE
  8
0
  6
CONTINUOUS
 62
     3
 10
98.115000003
 20
233.750002695
 11
98.115000003
 21
232.250002695
  0
LINE
  8
0
  6
CONTINUOUS
 62
     3
 10
99.915000003
 20
225.050002695
 11
99.915000003
 21
223.550002695
  0
LINE
  8
0
  6
CONTINUOUS
 62
     3
 10
99.915000003
 20
251.150002695
 11
99.915000003
 21
249.650002695
  0
LINE
  8
0
  6
LTYPE1
 62
     3
 10
97.915000003
 20
214.850002695
 11
102.915000003
 21
214.850002695
  0
LINE
  8
0
  6
CONTINUOUS
 62
     3
 10
101.215000003
 20
216.350002695
 11
101.215000003
 21
214.850002695
  0
LINE
  8
0
  6
CONTINUOUS
 62
     3
 10
99.915000003
 20
214.850002695
 11
99.915000003
 21
216.350002695
  0
LINE
  8
0
  6
LTYPE1
 62
     3
 10
102.915000003
 20
251.150002695
 11
102.915000003
 21
214.850002695
  0
LINE
  8
0
  6
CONTINUOUS
 62
     3
 10
99.915000003
 20
214.850002695
 11
99.915000003
 21
216.350002695
  0
LINE
  8
0
  6
CONTINUOUS
 62
     3
 10
93.215000003
 20
223.550002695
 11
93.215000003
 21
216.350002695
  0
LINE
  8
0
  6
LTYPE1
 62
     3
 10
97.915000003
 20
214.850002695
 11
97.915000003
 21
251.150002695
  0
ARC
  8
0
  6
CONTINUOUS
 62
     1
 10
94.963110738
 20
252.550002695
 40
0.5
 50
344.213321256
 51
90.0
  0
LINE
  8
0
  6
CONTINUOUS
 62
     1
 10
95.463108266
 20
251.150002695
 11
95.463108266
 21
252.551575014
  0
LINE
  8
0
  6
CONTINUOUS
 62
     1
 10
95.463108266
 20
213.448430376
 11
95.463108266
 21
214.850002695
  0
LINE
  8
0
  6
CONTINUOUS
 62
     3
 10
92.515000003
 20
214.850002695
 11
101.215000003
 21
214.850002695
  0
LINE
  8
0
  6
LTYPE1
 62
     3
 10
102.915000003
 20
251.150002695
 11
92.515000003
 21
251.150002695
  0
LINE
  8
0
  6
CONTINUOUS
 62
     3
 10
102.915000003
 20
216.256782356
 11
113.915000003
 21
216.350002695
  0
LINE
  8
0
  6
CONTINUOUS
 62
     3
 10
102.915000003
 20
218.243223034
 11
113.915000003
 21
218.150002695
  0
LINE
  8
0
  6
CONTINUOUS
 62
     3
 10
102.915000003
 20
219.756782356
 11
113.915000003
 21
219.850002695
  0
LINE
  8
0
  6
CONTINUOUS
 62
     3
 10
102.915000003
 20
221.743223034
 11
113.915000003
 21
221.650002695
  0
LINE
  8
0
  6
CONTINUOUS
 62
     3
 10
102.915000003
 20
223.256782356
 11
113.915000003
 21
223.350002695
  0
LINE
  8
0
  6
CONTINUOUS
 62
     3
 10
102.915000003
 20
225.243223034
 11
113.915000003
 21
225.150002695
  0
LINE
  8
0
  6
CONTINUOUS
 62
     3
 10
102.915000003
 20
226.756782356
 11
113.915000003
 21
226.850002695
  0
LINE
  8
0
  6
CONTINUOUS
 62
     3
 10
102.915000003
 20
228.743223034
 11
113.915000003
 21
228.650002695
  0
LINE
  8
0
  6
CONTINUOUS
 62
     3
 10
102.915000003
 20
230.256782356
 11
113.915000003
 21
230.350002695
  0
LINE
  8
0
  6
CONTINUOUS
 62
     3
 10
102.915000003
 20
232.243223034
 11
113.915000003
 21
232.150002695
  0
LINE
  8
0
  6
CONTINUOUS
 62
     3
 10
102.915000003
 20
233.756782356
 11
113.915000003
 21
233.850002695
  0
LINE
  8
0
  6
CONTINUOUS
 62
     3
 10
102.915000003
 20
235.743223034
 11
113.915000003
 21
235.650002695
  0
LINE
  8
0
  6
CONTINUOUS
 62
     3
 10
102.915000003
 20
237.256782356
 11
113.915000003
 21
237.350002695
  0
LINE
  8
0
  6
CONTINUOUS
 62
     3
 10
102.915000003
 20
239.243223034
 11
113.915000003
 21
239.150002695
  0
LINE
  8
0
  6
CONTINUOUS
 62
     3
 10
102.915000003
 20
240.756782356
 11
113.915000003
 21
240.850002695
  0
LINE
  8
0
  6
CONTINUOUS
 62
     3
 10
102.915000003
 20
242.743223034
 11
113.915000003
 21
242.650002695
  0
LINE
  8
0
  6
CONTINUOUS
 62
     3
 10
102.915000003
 20
244.256782356
 11
113.915000003
 21
244.350002695
  0
LINE
  8
0
  6
CONTINUOUS
 62
     3
 10
102.915000003
 20
246.243223034
 11
113.915000003
 21
246.150002695
  0
LINE
  8
0
  6
CONTINUOUS
 62
     3
 10
102.915000003
 20
247.756782356
 11
113.915000003
 21
247.850002695
  0
LINE
  8
0
  6
CONTINUOUS
 62
     3
 10
102.915000003
 20
249.743223034
 11
113.915000003
 21
249.650002695
  0
LINE
  8
0
  6
CONTINUOUS
 62
     3
 10
162.810000005
 20
228.650002695
 11
164.610000005
 21
228.650002695
  0
LINE
  8
0
  6
CONTINUOUS
 62
     3
 10
164.610000005
 20
230.350002695
 11
162.810000005
 21
230.350002695
  0
LINE
  8
0
  6
CONTINUOUS
 62
     3
 10
162.810000005
 20
225.150002695
 11
164.610000005
 21
225.150002695
  0
LINE
  8
0
  6
CONTINUOUS
 62
     3
 10
164.610000005
 20
226.850002695
 11
162.810000005
 21
226.850002695
  0
LINE
  8
0
  6
CONTINUOUS
 62
     3
 10
162.810000005
 20
221.650002695
 11
164.610000005
 21
221.650002695
  0
LINE
  8
0
  6
CONTINUOUS
 62
     3
 10
164.610000005
 20
223.350002695
 11
162.810000005
 21
223.350002695
  0
LINE
  8
0
  6
CONTINUOUS
 62
     3
 10
162.810000005
 20
232.150002695
 11
164.610000005
 21
232.150002695
  0
LINE
  8
0
  6
CONTINUOUS
 62
     3
 10
164.610000005
 20
233.850002695
 11
162.810000005
 21
233.850002695
  0
LINE
  8
0
  6
CONTINUOUS
 62
     3
 10
164.610000005
 20
235.650002695
 11
162.810000005
 21
235.650002695
  0
LINE
  8
0
  6
CONTINUOUS
 62
     3
 10
162.810000005
 20
237.350002695
 11
164.610000005
 21
237.350002695
  0
LINE
  8
0
  6
CONTINUOUS
 62
     3
 10
162.810000005
 20
240.850002695
 11
164.610000005
 21
240.850002695
  0
LINE
  8
0
  6
CONTINUOUS
 62
     3
 10
164.610000005
 20
239.150002695
 11
162.810000005
 21
239.150002695
  0
LINE
  8
0
  6
CONTINUOUS
 62
     3
 10
162.810000005
 20
244.350002695
 11
164.610000005
 21
244.350002695
  0
LINE
  8
0
  6
CONTINUOUS
 62
     3
 10
164.610000005
 20
242.650002695
 11
162.810000005
 21
242.650002695
  0
LINE
  8
0
  6
CONTINUOUS
 62
     3
 10
162.810000005
 20
247.850002695
 11
164.610000005
 21
247.850002695
  0
LINE
  8
0
  6
CONTINUOUS
 62
     3
 10
164.610000005
 20
246.150002695
 11
162.810000005
 21
246.150002695
  0
LINE
  8
0
  6
CONTINUOUS
 62
     3
 10
162.810000005
 20
211.150002695
 11
164.610000005
 21
211.150002695
  0
LINE
  8
0
  6
CONTINUOUS
 62
     3
 10
164.610000005
 20
212.850002695
 11
162.810000005
 21
212.850002695
  0
LINE
  8
0
  6
CONTINUOUS
 62
     3
 10
162.810000005
 20
214.650002695
 11
164.610000005
 21
214.650002695
  0
LINE
  8
0
  6
CONTINUOUS
 62
     3
 10
162.810000005
 20
218.150002695
 11
164.610000005
 21
218.150002695
  0
LINE
  8
0
  6
CONTINUOUS
 62
     3
 10
164.610000005
 20
216.350002695
 11
162.810000005
 21
216.350002695
  0
LINE
  8
0
  6
CONTINUOUS
 62
     3
 10
164.610000005
 20
219.850002695
 11
162.810000005
 21
219.850002695
  0
LINE
  8
0
  6
CONTINUOUS
 62
     3
 10
164.610000005
 20
211.150002695
 11
164.610000005
 21
212.850002695
  0
LINE
  8
0
  6
CONTINUOUS
 62
     3
 10
164.610000005
 20
214.650002695
 11
164.610000005
 21
216.350002695
  0
LINE
  8
0
  6
CONTINUOUS
 62
     3
 10
164.610000005
 20
228.650002695
 11
164.610000005
 21
230.350002695
  0
LINE
  8
0
  6
CONTINUOUS
 62
     3
 10
164.610000005
 20
225.150002695
 11
164.610000005
 21
226.850002695
  0
LINE
  8
0
  6
CONTINUOUS
 62
     3
 10
164.610000005
 20
221.650002695
 11
164.610000005
 21
223.350002695
  0
LINE
  8
0
  6
CONTINUOUS
 62
     3
 10
164.610000005
 20
218.150002695
 11
164.610000005
 21
219.850002695
  0
LINE
  8
0
  6
CONTINUOUS
 62
     3
 10
164.610000005
 20
232.150002695
 11
164.610000005
 21
233.850002695
  0
LINE
  8
0
  6
CONTINUOUS
 62
     3
 10
164.610000005
 20
237.350002695
 11
164.610000005
 21
235.650002695
  0
LINE
  8
0
  6
CONTINUOUS
 62
     3
 10
164.610000005
 20
240.850002695
 11
164.610000005
 21
239.150002695
  0
LINE
  8
0
  6
CONTINUOUS
 62
     3
 10
164.610000005
 20
244.350002695
 11
164.610000005
 21
242.650002695
  0
LINE
  8
0
  6
CONTINUOUS
 62
     3
 10
164.610000005
 20
247.850002695
 11
164.610000005
 21
246.150002695
  0
LINE
  8
0
  6
CONTINUOUS
 62
     3
 10
227.510000005
 20
228.650002695
 11
225.710000005
 21
228.650002695
  0
LINE
  8
0
  6
CONTINUOUS
 62
     3
 10
225.710000005
 20
230.350002695
 11
227.510000005
 21
230.350002695
  0
LINE
  8
0
  6
CONTINUOUS
 62
     3
 10
227.510000005
 20
225.150002695
 11
225.710000005
 21
225.150002695
  0
LINE
  8
0
  6
CONTINUOUS
 62
     3
 10
227.510000005
 20
221.650002695
 11
225.710000005
 21
221.650002695
  0
LINE
  8
0
  6
CONTINUOUS
 62
     3
 10
225.710000005
 20
223.350002695
 11
227.510000005
 21
223.350002695
  0
LINE
  8
0
  6
CONTINUOUS
 62
     3
 10
227.510000005
 20
232.150002695
 11
225.710000005
 21
232.150002695
  0
LINE
  8
0
  6
CONTINUOUS
 62
     3
 10
225.710000005
 20
233.850002695
 11
227.510000005
 21
233.850002695
  0
LINE
  8
0
  6
CONTINUOUS
 62
     3
 10
225.710000005
 20
235.650002695
 11
227.510000005
 21
235.650002695
  0
LINE
  8
0
  6
CONTINUOUS
 62
     3
 10
227.510000005
 20
237.350002695
 11
225.710000005
 21
237.350002695
  0
LINE
  8
0
  6
CONTINUOUS
 62
     3
 10
227.510000005
 20
240.850002695
 11
225.710000005
 21
240.850002695
  0
LINE
  8
0
  6
CONTINUOUS
 62
     3
 10
225.710000005
 20
239.150002695
 11
227.510000005
 21
239.150002695
  0
LINE
  8
0
  6
CONTINUOUS
 62
     3
 10
227.510000005
 20
244.350002695
 11
225.710000005
 21
244.350002695
  0
LINE
  8
0
  6
CONTINUOUS
 62
     3
 10
225.710000005
 20
242.650002695
 11
227.510000005
 21
242.650002695
  0
LINE
  8
0
  6
CONTINUOUS
 62
     3
 10
227.510000005
 20
247.850002695
 11
225.710000005
 21
247.850002695
  0
LINE
  8
0
  6
CONTINUOUS
 62
     3
 10
225.710000005
 20
246.150002695
 11
227.510000005
 21
246.150002695
  0
LINE
  8
0
  6
CONTINUOUS
 62
     3
 10
227.510000005
 20
211.150002695
 11
225.710000005
 21
211.150002695
  0
LINE
  8
0
  6
CONTINUOUS
 62
     3
 10
225.710000005
 20
212.850002695
 11
227.510000005
 21
212.850002695
  0
LINE
  8
0
  6
CONTINUOUS
 62
     3
 10
227.510000005
 20
214.650002695
 11
225.710000005
 21
214.650002695
  0
LINE
  8
0
  6
CONTINUOUS
 62
     3
 10
227.510000005
 20
218.150002695
 11
225.710000005
 21
218.150002695
  0
LINE
  8
0
  6
CONTINUOUS
 62
     3
 10
225.710000005
 20
216.350002695
 11
227.510000005
 21
216.350002695
  0
LINE
  8
0
  6
CONTINUOUS
 62
     3
 10
225.710000005
 20
219.850002695
 11
227.510000005
 21
219.850002695
  0
LINE
  8
0
  6
CONTINUOUS
 62
     3
 10
225.710000005
 20
211.150002695
 11
225.710000005
 21
212.850002695
  0
LINE
  8
0
  6
CONTINUOUS
 62
     3
 10
225.710000005
 20
214.650002695
 11
225.710000005
 21
216.350002695
  0
LINE
  8
0
  6
CONTINUOUS
 62
     3
 10
225.710000005
 20
228.650002695
 11
225.710000005
 21
230.350002695
  0
LINE
  8
0
  6
CONTINUOUS
 62
     3
 10
225.710000005
 20
225.150002695
 11
225.710000005
 21
226.850002695
  0
LINE
  8
0
  6
CONTINUOUS
 62
     3
 10
225.710000005
 20
221.650002695
 11
225.710000005
 21
223.350002695
  0
LINE
  8
0
  6
CONTINUOUS
 62
     3
 10
225.710000005
 20
218.150002695
 11
225.710000005
 21
219.850002695
  0
LINE
  8
0
  6
CONTINUOUS
 62
     3
 10
225.710000005
 20
232.150002695
 11
225.710000005
 21
233.850002695
  0
LINE
  8
0
  6
CONTINUOUS
 62
     3
 10
225.710000005
 20
237.350002695
 11
225.710000005
 21
235.650002695
  0
LINE
  8
0
  6
CONTINUOUS
 62
     3
 10
225.710000005
 20
240.850002695
 11
225.710000005
 21
239.150002695
  0
LINE
  8
0
  6
CONTINUOUS
 62
     3
 10
225.710000005
 20
244.350002695
 11
225.710000005
 21
242.650002695
  0
LINE
  8
0
  6
CONTINUOUS
 62
     3
 10
225.710000005
 20
247.850002695
 11
225.710000005
 21
246.150002695
  0
LINE
  8
0
  6
CONTINUOUS
 62
     3
 10
162.810000005
 20
251.350002695
 11
164.610000005
 21
251.350002695
  0
LINE
  8
0
  6
CONTINUOUS
 62
     3
 10
164.610000005
 20
249.650002695
 11
162.810000005
 21
249.650002695
  0
LINE
  8
0
  6
CONTINUOUS
 62
     3
 10
162.810000005
 20
254.850002695
 11
164.610000005
 21
254.850002695
  0
LINE
  8
0
  6
CONTINUOUS
 62
     3
 10
164.610000005
 20
253.150002695
 11
162.810000005
 21
253.150002695
  0
LINE
  8
0
  6
CONTINUOUS
 62
     3
 10
164.610000005
 20
251.350002695
 11
164.610000005
 21
249.650002695
  0
LINE
  8
0
  6
CONTINUOUS
 62
     3
 10
164.610000005
 20
254.850002695
 11
164.610000005
 21
253.150002695
  0
LINE
  8
0
  6
CONTINUOUS
 62
     3
 10
227.510000005
 20
251.350002695
 11
225.710000005
 21
251.350002695
  0
LINE
  8
0
  6
CONTINUOUS
 62
     3
 10
225.710000005
 20
249.650002695
 11
227.510000005
 21
249.650002695
  0
LINE
  8
0
  6
CONTINUOUS
 62
     3
 10
227.510000005
 20
254.850002695
 11
225.710000005
 21
254.850002695
  0
LINE
  8
0
  6
CONTINUOUS
 62
     3
 10
225.710000005
 20
253.150002695
 11
227.510000005
 21
253.150002695
  0
LINE
  8
0
  6
CONTINUOUS
 62
     3
 10
225.710000005
 20
251.350002695
 11
225.710000005
 21
249.650002695
  0
LINE
  8
0
  6
CONTINUOUS
 62
     3
 10
225.710000005
 20
254.850002695
 11
225.710000005
 21
253.150002695
  0
ARC
  8
0
  6
CONTINUOUS
 62
     3
 10
165.960000005
 20
254.650002695
 40
0.5
 50
90.0
 51
180.0
  0
ARC
  8
0
  6
CONTINUOUS
 62
     3
 10
165.960000005
 20
211.350002695
 40
0.5
 50
180.0
 51
270.0
  0
LINE
  8
0
  6
CONTINUOUS
 62
     3
 10
165.460000005
 20
254.650002695
 11
165.460000005
 21
211.350002695
  0
ARC
  8
0
  6
CONTINUOUS
 62
     3
 10
224.360000005
 20
211.350002695
 40
0.5
 50
270.0
 51
0.0
  0
LINE
  8
0
  6
CONTINUOUS
 62
     3
 10
165.960000005
 20
210.850002695
 11
224.360000005
 21
210.850002695
  0
LINE
  8
0
  6
CONTINUOUS
 62
     3
 10
224.860000005
 20
250.150002695
 11
224.860000005
 21
211.350002695
  0
LINE
  8
0
  6
CONTINUOUS
 62
     3
 10
219.860000005
 20
255.150002695
 11
165.960000005
 21
255.150002695
  0
LINE
  8
0
  6
CONTINUOUS
 62
     3
 10
240.660000005
 20
223.400002695
 11
240.660000005
 21
233.000002695
  0
LINE
  8
0
  6
CONTINUOUS
 62
     3
 10
237.660000005
 20
253.050002695
 11
237.660000005
 21
252.050002695
  0
LINE
  8
0
  6
CONTINUOUS
 62
     3
 10
237.660000005
 20
252.050002695
 11
235.160000005
 21
252.050002695
  0
LINE
  8
0
  6
CONTINUOUS
 62
     3
 10
231.660000005
 20
253.050002695
 11
231.660000005
 21
251.550002695
  0
LINE
  8
0
  6
CONTINUOUS
 62
     3
 10
232.660000005
 20
253.050002695
 11
232.660000005
 21
252.050002695
  0
LINE
  8
0
  6
CONTINUOUS
 62
     3
 10
232.660000005
 20
252.050002695
 11
235.160000005
 21
252.050002695
  0
LINE
  8
0
  6
CONTINUOUS
 62
     3
 10
237.660000005
 20
212.950002695
 11
237.660000005
 21
213.950002695
  0
LINE
  8
0
  6
CONTINUOUS
 62
     3
 10
237.660000005
 20
213.950002695
 11
235.160000005
 21
213.950002695
  0
LINE
  8
0
  6
CONTINUOUS
 62
     3
 10
232.660000005
 20
212.950002695
 11
232.660000005
 21
213.950002695
  0
LINE
  8
0
  6
CONTINUOUS
 62
     3
 10
232.660000005
 20
213.950002695
 11
235.160000005
 21
213.950002695
  0
POINT
  8
0
  6
CONTINUOUS
 62
     3
 10
237.660000005
 20
212.950002695
  0
LINE
  8
0
  6
CONTINUOUS
 62
     3
 10
237.660000005
 20
212.950002695
 11
237.660000005
 21
213.950002695
  0
LINE
  8
0
  6
CONTINUOUS
 62
     3
 10
237.660000005
 20
213.950002695
 11
232.660000005
 21
213.950002695
  0
LINE
  8
0
  6
CONTINUOUS
 62
     3
 10
232.660000005
 20
213.950002695
 11
232.660000005
 21
212.950002695
  0
LINE
  8
0
  6
CONTINUOUS
 62
     3
 10
232.660000005
 20
212.950002695
 11
231.660000005
 21
212.950002695
  0
LINE
  8
0
  6
CONTINUOUS
 62
     3
 10
238.660000005
 20
212.950002695
 11
232.660000005
 21
212.950002695
  0
POINT
  8
0
  6
CONTINUOUS
 62
     3
 10
237.660000005
 20
253.050002695
  0
LINE
  8
0
  6
CONTINUOUS
 62
     3
 10
237.660000005
 20
253.050002695
 11
237.660000005
 21
252.050002695
  0
LINE
  8
0
  6
CONTINUOUS
 62
     3
 10
237.660000005
 20
252.050002695
 11
232.660000005
 21
252.050002695
  0
LINE
  8
0
  6
CONTINUOUS
 62
     3
 10
232.660000005
 20
252.050002695
 11
232.660000005
 21
253.050002695
  0
LINE
  8
0
  6
CONTINUOUS
 62
     3
 10
232.660000005
 20
253.050002695
 11
231.660000005
 21
253.050002695
  0
LINE
  8
0
  6
CONTINUOUS
 62
     3
 10
238.660000005
 20
253.050002695
 11
232.660000005
 21
253.050002695
  0
LINE
  8
0
  6
CONTINUOUS
 62
     3
 10
231.660000005
 20
253.050002695
 11
231.660000005
 21
251.450002695
  0
LINE
  8
0
  6
CONTINUOUS
 62
     3
 10
229.310000005
 20
251.450002695
 11
231.660000005
 21
251.450002695
  0
LINE
  8
0
  6
CONTINUOUS
 62
     3
 10
239.160000005
 20
243.100002695
 11
239.660000005
 21
243.100002695
  0
LINE
  8
0
  6
CONTINUOUS
 62
     3
 10
239.160000005
 20
222.900002695
 11
239.660000005
 21
222.900002695
  0
LINE
  8
0
  6
CONTINUOUS
 62
     3
 10
225.710000005
 20
226.850002695
 11
227.510000005
 21
226.850002695
  0
LINE
  8
0
  6
CONTINUOUS
 62
     3
 10
238.610000005
 20
214.850002695
 11
229.310000005
 21
214.850002695
  0
LINE
  8
0
  6
CONTINUOUS
 62
     3
 10
229.310000005
 20
214.850002695
 11
229.310000005
 21
251.150002695
  0
LINE
  8
0
  6
CONTINUOUS
 62
     3
 10
229.310000005
 20
251.150002695
 11
238.610000005
 21
251.150002695
  0
LINE
  8
0
  6
CONTINUOUS
 62
     3
 10
238.610000005
 20
214.850002695
 11
239.210000005
 21
214.850002695
  0
LINE
  8
0
  6
CONTINUOUS
 62
     3
 10
229.310000005
 20
214.850002695
 11
230.510000005
 21
214.850002695
  0
LINE
  8
0
  6
CONTINUOUS
 62
     3
 10
239.210000005
 20
214.850002695
 11
239.210000005
 21
233.750002695
  0
LINE
  8
0
  6
CONTINUOUS
 62
     3
 10
239.210000005
 20
249.650002695
 11
239.210000005
 21
251.150002695
  0
LINE
  8
0
  6
CONTINUOUS
 62
     3
 10
239.210000005
 20
240.950002695
 11
239.210000005
 21
242.450002695
  0
LINE
  8
0
  6
CONTINUOUS
 62
     3
 10
239.210000005
 20
251.150002695
 11
238.610000005
 21
251.150002695
  0
LINE
  8
0
  6
CONTINUOUS
 62
     3
 10
230.810000005
 20
219.950002695
 11
230.810000005
 21
216.950002695
  0
LINE
  8
0
  6
CONTINUOUS
 62
     3
 10
230.810000005
 20
222.950002695
 11
230.810000005
 21
219.450002695
  0
CIRCLE
  8
0
  6
CONTINUOUS
 62
     3
 10
233.810000005
 20
219.950002695
 40
2.9
  0
LINE
  8
0
  6
CONTINUOUS
 62
     3
 10
238.610000005
 20
214.850002695
 11
238.610000005
 21
251.150002695
  0
LINE
  8
0
  6
CONTINUOUS
 62
     3
 10
229.310000005
 20
214.850002695
 11
230.310000005
 21
214.850002695
  0
LINE
  8
0
  6
CONTINUOUS
 62
     3
 10
239.210000005
 20
223.550002695
 11
230.310000005
 21
223.550002695
  0
LINE
  8
0
  6
CONTINUOUS
 62
     3
 10
239.210000005
 20
225.050002695
 11
230.310000005
 21
225.050002695
  0
LINE
  8
0
  6
CONTINUOUS
 62
     3
 10
239.210000005
 20
232.250002695
 11
230.310000005
 21
232.250002695
  0
LINE
  8
0
  6
CONTINUOUS
 62
     3
 10
239.210000005
 20
233.750002695
 11
230.310000005
 21
233.750002695
  0
LINE
  8
0
  6
CONTINUOUS
 62
     3
 10
239.210000005
 20
240.950002695
 11
230.310000005
 21
240.950002695
  0
LINE
  8
0
  6
CONTINUOUS
 62
     3
 10
239.210000005
 20
242.450002695
 11
230.310000005
 21
242.450002695
  0
LINE
  8
0
  6
CONTINUOUS
 62
     3
 10
239.210000005
 20
249.650002695
 11
230.310000005
 21
249.650002695
  0
LINE
  8
0
  6
CONTINUOUS
 62
     3
 10
230.810000005
 20
216.950002695
 11
237.310000005
 21
216.950002695
  0
LINE
  8
0
  6
CONTINUOUS
 62
     3
 10
237.310000005
 20
222.950002695
 11
230.810000005
 21
222.950002695
  0
LINE
  8
0
  6
CONTINUOUS
 62
     3
 10
237.310000005
 20
216.950002695
 11
237.310000005
 21
222.950002695
  0
LINE
  8
0
  6
CONTINUOUS
 62
     3
 10
239.210000005
 20
216.350002695
 11
230.310000005
 21
216.350002695
  0
LINE
  8
0
  6
CONTINUOUS
 62
     3
 10
230.310000005
 20
216.350002695
 11
230.310000005
 21
249.650002695
  0
CIRCLE
  8
0
  6
CONTINUOUS
 62
     3
 10
233.810000005
 20
219.950002695
 40
2.9
  0
LINE
  8
0
  6
CONTINUOUS
 62
     3
 10
233.102893223
 20
219.950002695
 11
232.042233052
 21
218.889342523
  0
LINE
  8
0
  6
CONTINUOUS
 62
     3
 10
232.042233052
 20
218.889342523
 11
232.749339833
 21
218.182235742
  0
LINE
  8
0
  6
CONTINUOUS
 62
     3
 10
232.749339833
 20
218.182235742
 11
233.810000005
 21
219.242895914
  0
LINE
  8
0
  6
CONTINUOUS
 62
     3
 10
234.517106786
 20
219.950002695
 11
235.577766958
 21
221.010662867
  0
LINE
  8
0
  6
CONTINUOUS
 62
     3
 10
235.577766958
 20
221.010662867
 11
234.870660176
 21
221.717769648
  0
LINE
  8
0
  6
CONTINUOUS
 62
     3
 10
234.870660176
 20
221.717769648
 11
233.810000005
 21
220.657109476
  0
LINE
  8
0
  6
CONTINUOUS
 62
     3
 10
233.810000005
 20
219.242895914
 11
235.436345601
 21
217.616550317
  0
LINE
  8
0
  6
CONTINUOUS
 62
     3
 10
231.476547627
 20
221.576348292
 11
233.102893223
 21
219.950002695
  0
LINE
  8
0
  6
CONTINUOUS
 62
     3
 10
233.810000005
 20
220.657109476
 11
232.183654408
 21
222.283455073
  0
LINE
  8
0
  6
CONTINUOUS
 62
     3
 10
236.143452382
 20
218.323657098
 11
234.517106786
 21
219.950002695
  0
LINE
  8
0
  6
CONTINUOUS
 62
     3
 10
235.577766958
 20
218.889342523
 11
234.870660176
 21
218.182235742
  0
LINE
  8
0
  6
CONTINUOUS
 62
     3
 10
232.042233052
 20
221.010662867
 11
232.749339833
 21
221.717769648
  0
LINE
  8
0
  6
CONTINUOUS
 62
     3
 10
230.810000005
 20
228.650002695
 11
230.810000005
 21
225.650002695
  0
LINE
  8
0
  6
CONTINUOUS
 62
     3
 10
230.810000005
 20
231.650002695
 11
230.810000005
 21
228.150002695
  0
CIRCLE
  8
0
  6
CONTINUOUS
 62
     3
 10
233.810000005
 20
228.650002695
 40
2.9
  0
LINE
  8
0
  6
CONTINUOUS
 62
     3
 10
230.810000005
 20
225.650002695
 11
237.310000005
 21
225.650002695
  0
LINE
  8
0
  6
CONTINUOUS
 62
     3
 10
237.310000005
 20
231.650002695
 11
230.810000005
 21
231.650002695
  0
LINE
  8
0
  6
CONTINUOUS
 62
     3
 10
237.310000005
 20
225.650002695
 11
237.310000005
 21
231.650002695
  0
CIRCLE
  8
0
  6
CONTINUOUS
 62
     3
 10
233.810000005
 20
228.650002695
 40
2.9
  0
LINE
  8
0
  6
CONTINUOUS
 62
     3
 10
233.102893223
 20
228.650002695
 11
232.042233052
 21
227.589342523
  0
LINE
  8
0
  6
CONTINUOUS
 62
     3
 10
232.042233052
 20
227.589342523
 11
232.749339833
 21
226.882235742
  0
LINE
  8
0
  6
CONTINUOUS
 62
     3
 10
232.749339833
 20
226.882235742
 11
233.810000005
 21
227.942895914
  0
LINE
  8
0
  6
CONTINUOUS
 62
     3
 10
234.517106786
 20
228.650002695
 11
235.577766958
 21
229.710662867
  0
LINE
  8
0
  6
CONTINUOUS
 62
     3
 10
235.577766958
 20
229.710662867
 11
234.870660176
 21
230.417769648
  0
LINE
  8
0
  6
CONTINUOUS
 62
     3
 10
234.870660176
 20
230.417769648
 11
233.810000005
 21
229.357109476
  0
LINE
  8
0
  6
CONTINUOUS
 62
     3
 10
233.810000005
 20
227.942895914
 11
235.436345601
 21
226.316550317
  0
LINE
  8
0
  6
CONTINUOUS
 62
     3
 10
231.476547627
 20
230.276348292
 11
233.102893223
 21
228.650002695
  0
LINE
  8
0
  6
CONTINUOUS
 62
     3
 10
233.810000005
 20
229.357109476
 11
232.183654408
 21
230.983455073
  0
LINE
  8
0
  6
CONTINUOUS
 62
     3
 10
236.143452382
 20
227.023657098
 11
234.517106786
 21
228.650002695
  0
LINE
  8
0
  6
CONTINUOUS
 62
     3
 10
235.577766958
 20
227.589342523
 11
234.870660176
 21
226.882235742
  0
LINE
  8
0
  6
CONTINUOUS
 62
     3
 10
232.042233052
 20
229.710662867
 11
232.749339833
 21
230.417769648
  0
LINE
  8
0
  6
CONTINUOUS
 62
     3
 10
230.810000005
 20
237.350002695
 11
230.810000005
 21
234.350002695
  0
LINE
  8
0
  6
CONTINUOUS
 62
     3
 10
230.810000005
 20
240.350002695
 11
230.810000005
 21
236.850002695
  0
CIRCLE
  8
0
  6
CONTINUOUS
 62
     3
 10
233.810000005
 20
237.350002695
 40
2.9
  0
LINE
  8
0
  6
CONTINUOUS
 62
     3
 10
230.810000005
 20
234.350002695
 11
237.310000005
 21
234.350002695
  0
LINE
  8
0
  6
CONTINUOUS
 62
     3
 10
237.310000005
 20
240.350002695
 11
230.810000005
 21
240.350002695
  0
LINE
  8
0
  6
CONTINUOUS
 62
     3
 10
237.310000005
 20
234.350002695
 11
237.310000005
 21
240.350002695
  0
CIRCLE
  8
0
  6
CONTINUOUS
 62
     3
 10
233.810000005
 20
237.350002695
 40
2.9
  0
LINE
  8
0
  6
CONTINUOUS
 62
     3
 10
233.102893223
 20
237.350002695
 11
232.042233052
 21
236.289342523
  0
LINE
  8
0
  6
CONTINUOUS
 62
     3
 10
232.042233052
 20
236.289342523
 11
232.749339833
 21
235.582235742
  0
LINE
  8
0
  6
CONTINUOUS
 62
     3
 10
232.749339833
 20
235.582235742
 11
233.810000005
 21
236.642895914
  0
LINE
  8
0
  6
CONTINUOUS
 62
     3
 10
234.517106786
 20
237.350002695
 11
235.577766958
 21
238.410662867
  0
LINE
  8
0
  6
CONTINUOUS
 62
     3
 10
235.577766958
 20
238.410662867
 11
234.870660176
 21
239.117769648
  0
LINE
  8
0
  6
CONTINUOUS
 62
     3
 10
234.870660176
 20
239.117769648
 11
233.810000005
 21
238.057109476
  0
LINE
  8
0
  6
CONTINUOUS
 62
     3
 10
233.810000005
 20
236.642895914
 11
235.436345601
 21
235.016550317
  0
LINE
  8
0
  6
CONTINUOUS
 62
     3
 10
231.476547627
 20
238.976348292
 11
233.102893223
 21
237.350002695
  0
LINE
  8
0
  6
CONTINUOUS
 62
     3
 10
233.810000005
 20
238.057109476
 11
232.183654408
 21
239.683455073
  0
LINE
  8
0
  6
CONTINUOUS
 62
     3
 10
236.143452382
 20
235.723657098
 11
234.517106786
 21
237.350002695
  0
LINE
  8
0
  6
CONTINUOUS
 62
     3
 10
235.577766958
 20
236.289342523
 11
234.870660176
 21
235.582235742
  0
LINE
  8
0
  6
CONTINUOUS
 62
     3
 10
232.042233052
 20
238.410662867
 11
232.749339833
 21
239.117769648
  0
LINE
  8
0
  6
CONTINUOUS
 62
     3
 10
230.810000005
 20
246.050002695
 11
230.810000005
 21
243.050002695
  0
LINE
  8
0
  6
CONTINUOUS
 62
     3
 10
230.810000005
 20
249.050002695
 11
230.810000005
 21
245.550002695
  0
CIRCLE
  8
0
  6
CONTINUOUS
 62
     3
 10
233.810000005
 20
246.050002695
 40
2.9
  0
LINE
  8
0
  6
CONTINUOUS
 62
     3
 10
230.810000005
 20
243.050002695
 11
237.310000005
 21
243.050002695
  0
LINE
  8
0
  6
CONTINUOUS
 62
     3
 10
237.310000005
 20
249.050002695
 11
230.810000005
 21
249.050002695
  0
LINE
  8
0
  6
CONTINUOUS
 62
     3
 10
237.310000005
 20
243.050002695
 11
237.310000005
 21
249.050002695
  0
CIRCLE
  8
0
  6
CONTINUOUS
 62
     3
 10
233.810000005
 20
246.050002695
 40
2.9
  0
LINE
  8
0
  6
CONTINUOUS
 62
     3
 10
233.102893223
 20
246.050002695
 11
232.042233052
 21
244.989342523
  0
LINE
  8
0
  6
CONTINUOUS
 62
     3
 10
232.042233052
 20
244.989342523
 11
232.749339833
 21
244.282235742
  0
LINE
  8
0
  6
CONTINUOUS
 62
     3
 10
232.749339833
 20
244.282235742
 11
233.810000005
 21
245.342895914
  0
LINE
  8
0
  6
CONTINUOUS
 62
     3
 10
234.517106786
 20
246.050002695
 11
235.577766958
 21
247.110662867
  0
LINE
  8
0
  6
CONTINUOUS
 62
     3
 10
235.577766958
 20
247.110662867
 11
234.870660176
 21
247.817769648
  0
LINE
  8
0
  6
CONTINUOUS
 62
     3
 10
234.870660176
 20
247.817769648
 11
233.810000005
 21
246.757109476
  0
LINE
  8
0
  6
CONTINUOUS
 62
     3
 10
233.810000005
 20
245.342895914
 11
235.436345601
 21
243.716550317
  0
LINE
  8
0
  6
CONTINUOUS
 62
     3
 10
231.476547627
 20
247.676348292
 11
233.102893223
 21
246.050002695
  0
LINE
  8
0
  6
CONTINUOUS
 62
     3
 10
233.810000005
 20
246.757109476
 11
232.183654408
 21
248.383455073
  0
LINE
  8
0
  6
CONTINUOUS
 62
     3
 10
236.143452382
 20
244.423657098
 11
234.517106786
 21
246.050002695
  0
LINE
  8
0
  6
CONTINUOUS
 62
     3
 10
235.577766958
 20
244.989342523
 11
234.870660176
 21
244.282235742
  0
LINE
  8
0
  6
CONTINUOUS
 62
     3
 10
232.042233052
 20
247.110662867
 11
232.749339833
 21
247.817769648
  0
LINE
  8
0
  6
LTYPE1
 62
     3
 10
229.810000005
 20
214.850002695
 11
229.810000005
 21
251.150002695
  0
LINE
  8
0
  6
LTYPE1
 62
     3
 10
238.610000005
 20
251.150002695
 11
239.610000005
 21
251.150002695
  0
LINE
  8
0
  6
LTYPE1
 62
     3
 10
239.610000005
 20
251.150002695
 11
239.610000005
 21
214.850002695
  0
LINE
  8
0
  6
LTYPE1
 62
     3
 10
239.610000005
 20
214.850002695
 11
229.810000005
 21
214.850002695
  0
POINT
  8
0
  6
CONTINUOUS
 62
     3
 10
152.660000005
 20
253.050002695
  0
LINE
  8
0
  6
CONTINUOUS
 62
     3
 10
152.660000005
 20
253.050002695
 11
152.660000005
 21
252.050002695
  0
LINE
  8
0
  6
CONTINUOUS
 62
     3
 10
152.660000005
 20
252.050002695
 11
157.660000005
 21
252.050002695
  0
LINE
  8
0
  6
CONTINUOUS
 62
     3
 10
157.660000005
 20
252.050002695
 11
157.660000005
 21
253.050002695
  0
LINE
  8
0
  6
CONTINUOUS
 62
     3
 10
157.660000005
 20
253.050002695
 11
158.660000005
 21
253.050002695
  0
POINT
  8
0
  6
CONTINUOUS
 62
     3
 10
152.660000005
 20
212.950002695
  0
LINE
  8
0
  6
CONTINUOUS
 62
     3
 10
152.660000005
 20
212.950002695
 11
152.660000005
 21
213.950002695
  0
LINE
  8
0
  6
CONTINUOUS
 62
     3
 10
152.660000005
 20
213.950002695
 11
157.660000005
 21
213.950002695
  0
LINE
  8
0
  6
CONTINUOUS
 62
     3
 10
157.660000005
 20
213.950002695
 11
157.660000005
 21
212.950002695
  0
LINE
  8
0
  6
CONTINUOUS
 62
     3
 10
157.660000005
 20
212.950002695
 11
158.660000005
 21
212.950002695
  0
LINE
  8
0
  6
CONTINUOUS
 62
     3
 10
151.660000005
 20
212.950002695
 11
157.660000005
 21
212.950002695
  0
LINE
  8
0
  6
CONTINUOUS
 62
     3
 10
158.660000005
 20
212.950002695
 11
158.660000005
 21
214.550002695
  0
LINE
  8
0
  6
CONTINUOUS
 62
     3
 10
151.160000005
 20
222.900002695
 11
150.660000005
 21
222.900002695
  0
LINE
  8
0
  6
CONTINUOUS
 62
     3
 10
151.160000005
 20
243.100002695
 11
150.660000005
 21
243.100002695
  0
LINE
  8
0
  6
CONTINUOUS
 62
     3
 10
151.710000005
 20
251.150002695
 11
161.010000005
 21
251.150002695
  0
LINE
  8
0
  6
CONTINUOUS
 62
     3
 10
161.010000005
 20
251.150002695
 11
161.010000005
 21
214.850002695
  0
LINE
  8
0
  6
CONTINUOUS
 62
     3
 10
161.010000005
 20
214.850002695
 11
151.710000005
 21
214.850002695
  0
LINE
  8
0
  6
CONTINUOUS
 62
     3
 10
151.710000005
 20
251.150002695
 11
151.110000005
 21
251.150002695
  0
LINE
  8
0
  6
CONTINUOUS
 62
     3
 10
161.010000005
 20
251.150002695
 11
159.810000005
 21
251.150002695
  0
LINE
  8
0
  6
CONTINUOUS
 62
     3
 10
151.110000005
 20
251.150002695
 11
151.110000005
 21
232.250002695
  0
LINE
  8
0
  6
CONTINUOUS
 62
     3
 10
151.110000005
 20
216.350002695
 11
151.110000005
 21
214.850002695
  0
LINE
  8
0
  6
CONTINUOUS
 62
     3
 10
151.110000005
 20
225.050002695
 11
151.110000005
 21
223.550002695
  0
LINE
  8
0
  6
CONTINUOUS
 62
     3
 10
151.110000005
 20
214.850002695
 11
151.710000005
 21
214.850002695
  0
LINE
  8
0
  6
CONTINUOUS
 62
     3
 10
159.510000005
 20
246.050002695
 11
159.510000005
 21
249.050002695
  0
LINE
  8
0
  6
CONTINUOUS
 62
     3
 10
159.510000005
 20
243.050002695
 11
159.510000005
 21
246.550002695
  0
CIRCLE
  8
0
  6
CONTINUOUS
 62
     3
 10
156.510000005
 20
246.050002695
 40
2.9
  0
LINE
  8
0
  6
CONTINUOUS
 62
     3
 10
151.710000005
 20
251.150002695
 11
151.710000005
 21
214.850002695
  0
LINE
  8
0
  6
CONTINUOUS
 62
     3
 10
161.010000005
 20
251.150002695
 11
160.010000005
 21
251.150002695
  0
LINE
  8
0
  6
CONTINUOUS
 62
     3
 10
151.110000005
 20
242.450002695
 11
160.010000005
 21
242.450002695
  0
LINE
  8
0
  6
CONTINUOUS
 62
     3
 10
151.110000005
 20
240.950002695
 11
160.010000005
 21
240.950002695
  0
LINE
  8
0
  6
CONTINUOUS
 62
     3
 10
151.110000005
 20
233.750002695
 11
160.010000005
 21
233.750002695
  0
LINE
  8
0
  6
CONTINUOUS
 62
     3
 10
151.110000005
 20
232.250002695
 11
160.010000005
 21
232.250002695
  0
LINE
  8
0
  6
CONTINUOUS
 62
     3
 10
151.110000005
 20
225.050002695
 11
160.010000005
 21
225.050002695
  0
LINE
  8
0
  6
CONTINUOUS
 62
     3
 10
151.110000005
 20
223.550002695
 11
160.010000005
 21
223.550002695
  0
LINE
  8
0
  6
CONTINUOUS
 62
     3
 10
151.110000005
 20
216.350002695
 11
160.010000005
 21
216.350002695
  0
LINE
  8
0
  6
CONTINUOUS
 62
     3
 10
159.510000005
 20
249.050002695
 11
153.010000005
 21
249.050002695
  0
LINE
  8
0
  6
CONTINUOUS
 62
     3
 10
153.010000005
 20
243.050002695
 11
159.510000005
 21
243.050002695
  0
LINE
  8
0
  6
CONTINUOUS
 62
     3
 10
153.010000005
 20
249.050002695
 11
153.010000005
 21
243.050002695
  0
LINE
  8
0
  6
CONTINUOUS
 62
     3
 10
151.110000005
 20
249.650002695
 11
160.010000005
 21
249.650002695
  0
LINE
  8
0
  6
CONTINUOUS
 62
     3
 10
160.010000005
 20
249.650002695
 11
160.010000005
 21
216.350002695
  0
CIRCLE
  8
0
  6
CONTINUOUS
 62
     3
 10
156.510000005
 20
246.050002695
 40
2.9
  0
LINE
  8
0
  6
CONTINUOUS
 62
     3
 10
157.217106786
 20
246.050002695
 11
158.277766958
 21
247.110662867
  0
LINE
  8
0
  6
CONTINUOUS
 62
     3
 10
158.277766958
 20
247.110662867
 11
157.570660176
 21
247.817769648
  0
LINE
  8
0
  6
CONTINUOUS
 62
     3
 10
157.570660176
 20
247.817769648
 11
156.510000005
 21
246.757109476
  0
LINE
  8
0
  6
CONTINUOUS
 62
     3
 10
155.802893223
 20
246.050002695
 11
154.742233052
 21
244.989342523
  0
LINE
  8
0
  6
CONTINUOUS
 62
     3
 10
154.742233052
 20
244.989342523
 11
155.449339833
 21
244.282235742
  0
LINE
  8
0
  6
CONTINUOUS
 62
     3
 10
155.449339833
 20
244.282235742
 11
156.510000005
 21
245.342895914
  0
LINE
  8
0
  6
CONTINUOUS
 62
     3
 10
156.510000005
 20
246.757109476
 11
154.883654408
 21
248.383455073
  0
LINE
  8
0
  6
CONTINUOUS
 62
     3
 10
158.843452382
 20
244.423657098
 11
157.217106786
 21
246.050002695
  0
LINE
  8
0
  6
CONTINUOUS
 62
     3
 10
156.510000005
 20
245.342895914
 11
158.136345601
 21
243.716550317
  0
LINE
  8
0
  6
CONTINUOUS
 62
     3
 10
154.176547627
 20
247.676348292
 11
155.802893223
 21
246.050002695
  0
LINE
  8
0
  6
CONTINUOUS
 62
     3
 10
154.742233052
 20
247.110662867
 11
155.449339833
 21
247.817769648
  0
LINE
  8
0
  6
CONTINUOUS
 62
     3
 10
158.277766958
 20
244.989342523
 11
157.570660176
 21
244.282235742
  0
LINE
  8
0
  6
CONTINUOUS
 62
     3
 10
159.510000005
 20
237.350002695
 11
159.510000005
 21
240.350002695
  0
LINE
  8
0
  6
CONTINUOUS
 62
     3
 10
159.510000005
 20
234.350002695
 11
159.510000005
 21
237.850002695
  0
CIRCLE
  8
0
  6
CONTINUOUS
 62
     3
 10
156.510000005
 20
237.350002695
 40
2.9
  0
LINE
  8
0
  6
CONTINUOUS
 62
     3
 10
159.510000005
 20
240.350002695
 11
153.010000005
 21
240.350002695
  0
LINE
  8
0
  6
CONTINUOUS
 62
     3
 10
153.010000005
 20
234.350002695
 11
159.510000005
 21
234.350002695
  0
LINE
  8
0
  6
CONTINUOUS
 62
     3
 10
153.010000005
 20
240.350002695
 11
153.010000005
 21
234.350002695
  0
CIRCLE
  8
0
  6
CONTINUOUS
 62
     3
 10
156.510000005
 20
237.350002695
 40
2.9
  0
LINE
  8
0
  6
CONTINUOUS
 62
     3
 10
157.217106786
 20
237.350002695
 11
158.277766958
 21
238.410662867
  0
LINE
  8
0
  6
CONTINUOUS
 62
     3
 10
158.277766958
 20
238.410662867
 11
157.570660176
 21
239.117769648
  0
LINE
  8
0
  6
CONTINUOUS
 62
     3
 10
157.570660176
 20
239.117769648
 11
156.510000005
 21
238.057109476
  0
LINE
  8
0
  6
CONTINUOUS
 62
     3
 10
155.802893223
 20
237.350002695
 11
154.742233052
 21
236.289342523
  0
LINE
  8
0
  6
CONTINUOUS
 62
     3
 10
154.742233052
 20
236.289342523
 11
155.449339833
 21
235.582235742
  0
LINE
  8
0
  6
CONTINUOUS
 62
     3
 10
155.449339833
 20
235.582235742
 11
156.510000005
 21
236.642895914
  0
LINE
  8
0
  6
CONTINUOUS
 62
     3
 10
156.510000005
 20
238.057109476
 11
154.883654408
 21
239.683455073
  0
LINE
  8
0
  6
CONTINUOUS
 62
     3
 10
158.843452382
 20
235.723657098
 11
157.217106786
 21
237.350002695
  0
LINE
  8
0
  6
CONTINUOUS
 62
     3
 10
156.510000005
 20
236.642895914
 11
158.136345601
 21
235.016550317
  0
LINE
  8
0
  6
CONTINUOUS
 62
     3
 10
154.176547627
 20
238.976348292
 11
155.802893223
 21
237.350002695
  0
LINE
  8
0
  6
CONTINUOUS
 62
     3
 10
154.742233052
 20
238.410662867
 11
155.449339833
 21
239.117769648
  0
LINE
  8
0
  6
CONTINUOUS
 62
     3
 10
158.277766958
 20
236.289342523
 11
157.570660176
 21
235.582235742
  0
LINE
  8
0
  6
CONTINUOUS
 62
     3
 10
159.510000005
 20
228.650002695
 11
159.510000005
 21
231.650002695
  0
LINE
  8
0
  6
CONTINUOUS
 62
     3
 10
159.510000005
 20
225.650002695
 11
159.510000005
 21
229.150002695
  0
CIRCLE
  8
0
  6
CONTINUOUS
 62
     3
 10
156.510000005
 20
228.650002695
 40
2.9
  0
LINE
  8
0
  6
CONTINUOUS
 62
     3
 10
159.510000005
 20
231.650002695
 11
153.010000005
 21
231.650002695
  0
LINE
  8
0
  6
CONTINUOUS
 62
     3
 10
153.010000005
 20
225.650002695
 11
159.510000005
 21
225.650002695
  0
LINE
  8
0
  6
CONTINUOUS
 62
     3
 10
153.010000005
 20
231.650002695
 11
153.010000005
 21
225.650002695
  0
CIRCLE
  8
0
  6
CONTINUOUS
 62
     3
 10
156.510000005
 20
228.650002695
 40
2.9
  0
LINE
  8
0
  6
CONTINUOUS
 62
     3
 10
157.217106786
 20
228.650002695
 11
158.277766958
 21
229.710662867
  0
LINE
  8
0
  6
CONTINUOUS
 62
     3
 10
158.277766958
 20
229.710662867
 11
157.570660176
 21
230.417769648
  0
LINE
  8
0
  6
CONTINUOUS
 62
     3
 10
157.570660176
 20
230.417769648
 11
156.510000005
 21
229.357109476
  0
LINE
  8
0
  6
CONTINUOUS
 62
     3
 10
155.802893223
 20
228.650002695
 11
154.742233052
 21
227.589342523
  0
LINE
  8
0
  6
CONTINUOUS
 62
     3
 10
154.742233052
 20
227.589342523
 11
155.449339833
 21
226.882235742
  0
LINE
  8
0
  6
CONTINUOUS
 62
     3
 10
155.449339833
 20
226.882235742
 11
156.510000005
 21
227.942895914
  0
LINE
  8
0
  6
CONTINUOUS
 62
     3
 10
156.510000005
 20
229.357109476
 11
154.883654408
 21
230.983455073
  0
LINE
  8
0
  6
CONTINUOUS
 62
     3
 10
158.843452382
 20
227.023657098
 11
157.217106786
 21
228.650002695
  0
LINE
  8
0
  6
CONTINUOUS
 62
     3
 10
156.510000005
 20
227.942895914
 11
158.136345601
 21
226.316550317
  0
LINE
  8
0
  6
CONTINUOUS
 62
     3
 10
154.176547627
 20
230.276348292
 11
155.802893223
 21
228.650002695
  0
LINE
  8
0
  6
CONTINUOUS
 62
     3
 10
154.742233052
 20
229.710662867
 11
155.449339833
 21
230.417769648
  0
LINE
  8
0
  6
CONTINUOUS
 62
     3
 10
158.277766958
 20
227.589342523
 11
157.570660176
 21
226.882235742
  0
LINE
  8
0
  6
CONTINUOUS
 62
     3
 10
159.510000005
 20
219.950002695
 11
159.510000005
 21
222.950002695
  0
LINE
  8
0
  6
CONTINUOUS
 62
     3
 10
159.510000005
 20
216.950002695
 11
159.510000005
 21
220.450002695
  0
CIRCLE
  8
0
  6
CONTINUOUS
 62
     3
 10
156.510000005
 20
219.950002695
 40
2.9
  0
LINE
  8
0
  6
CONTINUOUS
 62
     3
 10
159.510000005
 20
222.950002695
 11
153.010000005
 21
222.950002695
  0
LINE
  8
0
  6
CONTINUOUS
 62
     3
 10
153.010000005
 20
216.950002695
 11
159.510000005
 21
216.950002695
  0
LINE
  8
0
  6
CONTINUOUS
 62
     3
 10
153.010000005
 20
222.950002695
 11
153.010000005
 21
216.950002695
  0
CIRCLE
  8
0
  6
CONTINUOUS
 62
     3
 10
156.510000005
 20
219.950002695
 40
2.9
  0
LINE
  8
0
  6
CONTINUOUS
 62
     3
 10
157.217106786
 20
219.950002695
 11
158.277766958
 21
221.010662867
  0
LINE
  8
0
  6
CONTINUOUS
 62
     3
 10
158.277766958
 20
221.010662867
 11
157.570660176
 21
221.717769648
  0
LINE
  8
0
  6
CONTINUOUS
 62
     3
 10
157.570660176
 20
221.717769648
 11
156.510000005
 21
220.657109476
  0
LINE
  8
0
  6
CONTINUOUS
 62
     3
 10
155.802893223
 20
219.950002695
 11
154.742233052
 21
218.889342523
  0
LINE
  8
0
  6
CONTINUOUS
 62
     3
 10
154.742233052
 20
218.889342523
 11
155.449339833
 21
218.182235742
  0
LINE
  8
0
  6
CONTINUOUS
 62
     3
 10
155.449339833
 20
218.182235742
 11
156.510000005
 21
219.242895914
  0
LINE
  8
0
  6
CONTINUOUS
 62
     3
 10
156.510000005
 20
220.657109476
 11
154.883654408
 21
222.283455073
  0
LINE
  8
0
  6
CONTINUOUS
 62
     3
 10
158.843452382
 20
218.323657098
 11
157.217106786
 21
219.950002695
  0
LINE
  8
0
  6
CONTINUOUS
 62
     3
 10
156.510000005
 20
219.242895914
 11
158.136345601
 21
217.616550317
  0
LINE
  8
0
  6
CONTINUOUS
 62
     3
 10
154.176547627
 20
221.576348292
 11
155.802893223
 21
219.950002695
  0
LINE
  8
0
  6
CONTINUOUS
 62
     3
 10
154.742233052
 20
221.010662867
 11
155.449339833
 21
221.717769648
  0
LINE
  8
0
  6
CONTINUOUS
 62
     3
 10
158.277766958
 20
218.889342523
 11
157.570660176
 21
218.182235742
  0
LINE
  8
0
  6
LTYPE1
 62
     3
 10
160.510000005
 20
251.150002695
 11
160.510000005
 21
214.850002695
  0
LINE
  8
0
  6
LTYPE1
 62
     3
 10
151.710000005
 20
214.850002695
 11
150.710000005
 21
214.850002695
  0
LINE
  8
0
  6
LTYPE1
 62
     3
 10
150.710000005
 20
214.850002695
 11
150.710000005
 21
251.150002695
  0
LINE
  8
0
  6
LTYPE1
 62
     3
 10
150.710000005
 20
251.150002695
 11
160.510000005
 21
251.150002695
  0
LINE
  8
0
  6
CONTINUOUS
 62
     5
 10
242.000000004
 20
202.000002695
 11
240.068148352
 21
202.517640785
  0
LINE
  8
0
  6
CONTINUOUS
 62
     5
 10
242.000000004
 20
202.000002695
 11
240.068148352
 21
201.482364605
  0
LINE
  8
0
  6
CONTINUOUS
 62
     5
 10
242.000000004
 20
202.000002695
 11
148.000000004
 21
202.000002699
  0
LINE
  8
0
  6
CONTINUOUS
 62
     5
 10
148.000000004
 20
202.000002699
 11
149.931851657
 21
201.482364608
  0
LINE
  8
0
  6
CONTINUOUS
 62
     5
 10
148.000000004
 20
202.000002699
 11
149.931851657
 21
202.517640789
  0
TEXT
  8
0
  6
CONTINUOUS
 62
     5
 10
193.350000004
 20
202.500002697
 30
0.1
 40
2.0
  1
９４
 50
0.0
 41
0.8
 51
0.0
  7
KANJI0
  0
LINE
  8
0
  6
CONTINUOUS
 62
     5
 10
242.000000005
 20
208.000002695
 11
242.000000004
 21
201.000002695
  0
LINE
  8
0
  6
CONTINUOUS
 62
     5
 10
148.000000005
 20
208.000002699
 11
148.000000004
 21
195.000002699
  0
LINE
  8
0
  6
CONTINUOUS
 62
     5
 10
148.000000004
 20
196.000002699
 11
149.931851657
 21
195.482364608
  0
LINE
  8
0
  6
CONTINUOUS
 62
     5
 10
148.000000004
 20
196.000002699
 11
149.931851657
 21
196.517640789
  0
LINE
  8
0
  6
CONTINUOUS
 62
     5
 10
148.000000004
 20
196.000002699
 11
244.585000004
 21
196.000002695
  0
LINE
  8
0
  6
CONTINUOUS
 62
     5
 10
244.585000004
 20
196.000002695
 11
242.653148351
 21
196.517640785
  0
LINE
  8
0
  6
CONTINUOUS
 62
     5
 10
244.585000004
 20
196.000002695
 11
242.653148351
 21
195.482364605
  0
TEXT
  8
0
  6
CONTINUOUS
 62
     5
 10
190.242500004
 20
196.500002697
 30
0.1
 40
2.0
  1
９６～９８スライド
 50
0.0
 41
0.8
 51
0.0
  7
KANJI0
  0
ARC
  8
0
  6
CONTINUOUS
 62
     1
 10
243.585000004
 20
224.000002695
 40
1.0
 50
270.0
 51
0.0
  0
LINE
  8
0
  6
CONTINUOUS
 62
     1
 10
243.585000004
 20
223.000002695
 11
242.000000004
 21
223.000002695
  0
LINE
  8
0
  6
CONTINUOUS
 62
     1
 10
244.585000003
 20
242.000002695
 11
244.585000004
 21
224.000002695
  0
ARC
  8
0
  6
CONTINUOUS
 62
     1
 10
243.585000003
 20
242.000002695
 40
1.0
 50
0.0
 51
90.0
  0
LINE
  8
0
  6
CONTINUOUS
 62
     1
 10
242.000000003
 20
243.000002695
 11
243.585000003
 21
243.000002695
  0
LINE
  8
0
  6
CONTINUOUS
 62
     1
 10
242.000000002
 20
256.000002695
 11
242.000000005
 21
210.000002695
  0
LINE
  8
0
  6
CONTINUOUS
 62
     1
 10
227.210000005
 20
257.000002695
 11
241.000000005
 21
257.000002695
  0
LINE
  8
0
  6
CONTINUOUS
 62
     1
 10
242.000000005
 20
256.000002695
 11
242.000000005
 21
210.000002695
  0
ARC
  8
0
  6
CONTINUOUS
 62
     1
 10
241.000000005
 20
256.000002695
 40
1.0
 50
0.0
 51
90.0
  0
LINE
  8
0
  6
CONTINUOUS
 62
     1
 10
163.810000005
 20
257.000002695
 11
226.510000005
 21
257.000002695
  0
ARC
  8
0
  6
CONTINUOUS
 62
     1
 10
226.510000005
 20
256.000002695
 40
1.0
 50
0.0
 51
89.999999999
  0
LINE
  8
0
  6
CONTINUOUS
 62
     1
 10
227.510000005
 20
210.000002695
 11
227.510000005
 21
256.000002695
  0
LINE
  8
0
  6
CONTINUOUS
 62
     1
 10
241.000000005
 20
209.000002695
 11
227.110000005
 21
209.000002695
  0
ARC
  8
0
  6
CONTINUOUS
 62
     1
 10
241.000000005
 20
210.000002695
 40
1.0
 50
270.0
 51
0.0
  0
LINE
  8
0
  6
CONTINUOUS
 62
     1
 10
226.510000005
 20
209.000002695
 11
163.810000005
 21
209.000002695
  0
ARC
  8
0
  6
CONTINUOUS
 62
     1
 10
226.510000005
 20
210.000002695
 40
1.0
 50
270.0
 51
0.000000001
  0
LINE
  8
0
  6
CONTINUOUS
 62
     1
 10
163.110000005
 20
209.000002695
 11
149.320000005
 21
209.000002695
  0
LINE
  8
0
  6
CONTINUOUS
 62
     1
 10
162.810000005
 20
210.000002695
 11
162.810000005
 21
256.000002695
  0
ARC
  8
0
  6
CONTINUOUS
 62
     1
 10
163.810000005
 20
210.000002695
 40
1.0
 50
180.0
 51
270.0
  0
LINE
  8
0
  6
CONTINUOUS
 62
     1
 10
148.320000005
 20
210.000002695
 11
148.320000005
 21
256.000002695
  0
ARC
  8
0
  6
CONTINUOUS
 62
     1
 10
149.320000005
 20
210.000002695
 40
1.0
 50
180.0
 51
270.0
  0
LINE
  8
0
  6
CONTINUOUS
 62
     1
 10
149.320000005
 20
257.000002695
 11
163.210000005
 21
257.000002695
  0
ARC
  8
0
  6
CONTINUOUS
 62
     1
 10
149.320000005
 20
256.000002695
 40
1.0
 50
90.0
 51
180.0
  0
ARC
  8
0
  6
CONTINUOUS
 62
     1
 10
163.810000005
 20
256.000002695
 40
1.0
 50
90.0
 51
180.0
  0
LINE
  8
0
  6
CONTINUOUS
 62
     1
 10
235.160000005
 20
253.050002695
 11
231.660000005
 21
253.050002695
  0
LINE
  8
0
  6
CONTINUOUS
 62
     1
 10
227.510000005
 20
253.050002695
 11
231.660000005
 21
253.050002695
  0
LINE
  8
0
  6
CONTINUOUS
 62
     1
 10
235.160000005
 20
253.050002695
 11
238.660000005
 21
253.050002695
  0
LINE
  8
0
  6
CONTINUOUS
 62
     1
 10
240.660000005
 20
213.450002695
 11
240.660000005
 21
252.550002695
  0
ARC
  8
0
  6
CONTINUOUS
 62
     1
 10
240.160000005
 20
252.550002695
 40
0.5
 50
0.0
 51
90.0
  0
LINE
  8
0
  6
CONTINUOUS
 62
     1
 10
240.160000005
 20
253.050002695
 11
238.341000005
 21
253.050002695
  0
LINE
  8
0
  6
CONTINUOUS
 62
     1
 10
238.660000005
 20
212.950002695
 11
240.160000005
 21
212.950002695
  0
ARC
  8
0
  6
CONTINUOUS
 62
     1
 10
240.160000005
 20
213.450002695
 40
0.5
 50
270.0
 51
0.0
  0
LINE
  8
0
  6
CONTINUOUS
 62
     1
 10
235.160000005
 20
212.950002695
 11
238.660000005
 21
212.950002695
  0
LINE
  8
0
  6
CONTINUOUS
 62
     1
 10
235.160000005
 20
212.950002695
 11
231.660000005
 21
212.950002695
  0
LINE
  8
0
  6
CONTINUOUS
 62
     1
 10
231.660000005
 20
212.950002695
 11
231.660000005
 21
214.450002695
  0
LINE
  8
0
  6
CONTINUOUS
 62
     1
 10
231.660000005
 20
212.950002695
 11
227.510000005
 21
212.950002695
  0
LINE
  8
0
  6
CONTINUOUS
 62
     1
 10
229.310000005
 20
214.550002695
 11
231.660000005
 21
214.550002695
  0
LINE
  8
0
  6
CONTINUOUS
 62
     1
 10
231.660000005
 20
212.950002695
 11
231.660000005
 21
214.550002695
  0
LINE
  8
0
  6
CONTINUOUS
 62
     1
 10
229.310000005
 20
251.450002695
 11
229.310000005
 21
214.550002695
  0
LINE
  8
0
  6
CONTINUOUS
 62
     1
 10
158.660000005
 20
253.050002695
 11
162.810000005
 21
253.050002695
  0
LINE
  8
0
  6
CONTINUOUS
 62
     1
 10
155.160000005
 20
253.050002695
 11
158.660000005
 21
253.050002695
  0
LINE
  8
0
  6
CONTINUOUS
 62
     1
 10
155.160000005
 20
253.050002695
 11
151.660000005
 21
253.050002695
  0
LINE
  8
0
  6
CONTINUOUS
 62
     1
 10
151.660000005
 20
253.050002695
 11
157.660000005
 21
253.050002695
  0
LINE
  8
0
  6
CONTINUOUS
 62
     1
 10
151.660000005
 20
253.050002695
 11
150.160000005
 21
253.050002695
  0
ARC
  8
0
  6
CONTINUOUS
 62
     1
 10
150.160000005
 20
252.550002695
 40
0.5
 50
90.0
 51
180.0
  0
LINE
  8
0
  6
CONTINUOUS
 62
     1
 10
149.660000005
 20
252.550002695
 11
149.660000005
 21
213.450002695
  0
ARC
  8
0
  6
CONTINUOUS
 62
     1
 10
150.160000005
 20
213.450002695
 40
0.5
 50
180.0
 51
270.0
  0
LINE
  8
0
  6
CONTINUOUS
 62
     1
 10
150.160000005
 20
212.950002695
 11
151.979000005
 21
212.950002695
  0
LINE
  8
0
  6
CONTINUOUS
 62
     1
 10
155.160000005
 20
212.950002695
 11
151.660000005
 21
212.950002695
  0
LINE
  8
0
  6
CONTINUOUS
 62
     1
 10
155.160000005
 20
212.950002695
 11
158.660000005
 21
212.950002695
  0
LINE
  8
0
  6
CONTINUOUS
 62
     1
 10
162.810000005
 20
212.950002695
 11
158.660000005
 21
212.950002695
  0
LINE
  8
0
  6
CONTINUOUS
 62
     1
 10
158.660000005
 20
212.950002695
 11
158.660000005
 21
214.450002695
  0
LINE
  8
0
  6
CONTINUOUS
 62
     1
 10
161.010000005
 20
214.550002695
 11
158.660000005
 21
214.550002695
  0
LINE
  8
0
  6
CONTINUOUS
 62
     1
 10
161.010000005
 20
214.550002695
 11
161.010000005
 21
251.450002695
  0
LINE
  8
0
  6
CONTINUOUS
 62
     1
 10
158.660000005
 20
253.050002695
 11
158.660000005
 21
251.550002695
  0
LINE
  8
0
  6
CONTINUOUS
 62
     1
 10
157.660000005
 20
253.050002695
 11
157.660000005
 21
252.050002695
  0
LINE
  8
0
  6
CONTINUOUS
 62
     1
 10
157.660000005
 20
252.050002695
 11
155.160000005
 21
252.050002695
  0
LINE
  8
0
  6
CONTINUOUS
 62
     1
 10
152.660000005
 20
252.050002695
 11
155.160000005
 21
252.050002695
  0
LINE
  8
0
  6
CONTINUOUS
 62
     1
 10
152.660000005
 20
253.050002695
 11
152.660000005
 21
252.050002695
  0
LINE
  8
0
  6
CONTINUOUS
 62
     1
 10
161.010000005
 20
251.450002695
 11
158.660000005
 21
251.450002695
  0
LINE
  8
0
  6
CONTINUOUS
 62
     1
 10
158.660000005
 20
253.050002695
 11
158.660000005
 21
251.450002695
  0
LINE
  8
0
  6
CONTINUOUS
 62
     1
 10
157.660000005
 20
212.950002695
 11
157.660000005
 21
213.950002695
  0
LINE
  8
0
  6
CONTINUOUS
 62
     1
 10
157.660000005
 20
213.950002695
 11
155.160000005
 21
213.950002695
  0
LINE
  8
0
  6
CONTINUOUS
 62
     1
 10
152.660000005
 20
213.950002695
 11
155.160000005
 21
213.950002695
  0
LINE
  8
0
  6
CONTINUOUS
 62
     1
 10
152.660000005
 20
212.950002695
 11
152.660000005
 21
213.950002695
  0
LINE
  8
0
  6
CONTINUOUS
 62
     1
 10
151.160000005
 20
244.900002695
 11
150.160000005
 21
244.900002695
  0
ARC
  8
0
  6
CONTINUOUS
 62
     1
 10
150.160000005
 20
245.400002695
 40
0.5
 50
180.0
 51
270.0
  0
LINE
  8
0
  6
CONTINUOUS
 62
     1
 10
151.160000005
 20
243.100002695
 11
150.160000005
 21
243.100002695
  0
LINE
  8
0
  6
CONTINUOUS
 62
     1
 10
149.660000005
 20
242.600002695
 11
149.660000005
 21
233.000002695
  0
ARC
  8
0
  6
CONTINUOUS
 62
     1
 10
150.160000005
 20
242.600002695
 40
0.5
 50
90.0
 51
180.0
  0
LINE
  8
0
  6
CONTINUOUS
 62
     1
 10
151.160000005
 20
235.500002695
 11
149.660000005
 21
235.500002695
  0
LINE
  8
0
  6
CONTINUOUS
 62
     1
 10
151.160000005
 20
230.500002695
 11
149.660000005
 21
230.500002695
  0
LINE
  8
0
  6
CONTINUOUS
 62
     1
 10
151.160000005
 20
222.900002695
 11
150.160000005
 21
222.900002695
  0
LINE
  8
0
  6
CONTINUOUS
 62
     1
 10
149.660000005
 20
223.400002695
 11
149.660000005
 21
233.000002695
  0
ARC
  8
0
  6
CONTINUOUS
 62
     1
 10
150.160000005
 20
223.400002695
 40
0.5
 50
180.0
 51
270.0
  0
LINE
  8
0
  6
CONTINUOUS
 62
     1
 10
151.160000005
 20
221.100002695
 11
150.160000005
 21
221.100002695
  0
ARC
  8
0
  6
CONTINUOUS
 62
     1
 10
150.160000005
 20
220.600002695
 40
0.5
 50
90.0
 51
180.0
  0
LINE
  8
0
  6
CONTINUOUS
 62
     1
 10
239.160000005
 20
221.100002695
 11
240.160000005
 21
221.100002695
  0
ARC
  8
0
  6
CONTINUOUS
 62
     1
 10
240.160000005
 20
220.600002695
 40
0.5
 50
0.0
 51
90.0
  0
LINE
  8
0
  6
CONTINUOUS
 62
     1
 10
239.160000005
 20
222.900002695
 11
240.160000005
 21
222.900002695
  0
ARC
  8
0
  6
CONTINUOUS
 62
     1
 10
240.160000005
 20
223.400002695
 40
0.5
 50
270.0
 51
0.0
  0
LINE
  8
0
  6
CONTINUOUS
 62
     1
 10
239.160000005
 20
230.500002695
 11
240.660000005
 21
230.500002695
  0
LINE
  8
0
  6
CONTINUOUS
 62
     1
 10
239.160000005
 20
235.500002695
 11
240.660000005
 21
235.500002695
  0
LINE
  8
0
  6
CONTINUOUS
 62
     1
 10
239.160000005
 20
243.100002695
 11
240.160000005
 21
243.100002695
  0
LINE
  8
0
  6
CONTINUOUS
 62
     1
 10
240.660000005
 20
242.600002695
 11
240.660000005
 21
233.000002695
  0
ARC
  8
0
  6
CONTINUOUS
 62
     1
 10
240.160000005
 20
242.600002695
 40
0.5
 50
0.0
 51
90.0
  0
LINE
  8
0
  6
CONTINUOUS
 62
     1
 10
239.160000005
 20
244.900002695
 11
240.160000005
 21
244.900002695
  0
ARC
  8
0
  6
CONTINUOUS
 62
     1
 10
240.160000005
 20
245.400002695
 40
0.5
 50
270.0
 51
0.0
  0
LINE
  8
0
  6
CONTINUOUS
 62
     3
 10
160.510000005
 20
251.150002695
 11
160.510000005
 21
250.400002695
  0
LINE
  8
0
  6
CONTINUOUS
 62
     3
 10
160.010000005
 20
242.450002695
 11
160.010000005
 21
241.700002695
  0
LINE
  8
0
  6
CONTINUOUS
 62
     3
 10
160.010000005
 20
225.050002695
 11
160.010000005
 21
224.300002695
  0
POLYLINE
  8
0
  6
CONTINUOUS
 62
     1
 66
     1
 70
     1
  0
VERTEX
  8
0
  6
CONTINUOUS
 62
     1
 10
3141492651413536400000000000000000000000000000000000000000000000000000000000000000000000000000000000000000000000000000000000000000000000000000000000000000000000000000000000000000000000000000000000000000000000000000000000000.0
 20
126926390563329640000000000000000000000000000000000000000000000000000000000000000000000000000000000000000000000000000000000000000000000000000000000000000000000000000000000000000000000000000000000000000000000000000000000000000000000000.0
  0
VERTEX
  8
0
  6
CONTINUOUS
 62
     1
 10
3141492651413536400000000000000000000000000000000000000000000000000000000000000000000000000000000000000000000000000000000000000000000000000000000000000000000000000000000000000000000000000000000000000000000000000000000000000.0
 20
126926390563329640000000000000000000000000000000000000000000000000000000000000000000000000000000000000000000000000000000000000000000000000000000000000000000000000000000000000000000000000000000000000000000000000000000000000000000000000.0
  0
SEQEND
  0
POINT
  8
0
  6
CONTINUOUS
 62
     1
 10
-1470580238991735500000000000000000000000000000000000000000000000.0
 20
-59416163741459895000000000000000000000000000000000000000000000000000000000.0
  0
POINT
  8
0
  6
CONTINUOUS
 62
     1
 10
-1470580238991735500000000000000000000000000000000000000000000000.0
 20
-59416163741459895000000000000000000000000000000000000000000000000000000000.0
  0
POINT
  8
0
  6
CONTINUOUS
 62
     1
 10
3141492651413536400000000000000000000000000000000000000000000000000000000000000000000000000000000000000000000000000000000000000000000000000000000000000000000000000000000000000000000000000000000000000000000000000000000000000.0
 20
126926390563329640000000000000000000000000000000000000000000000000000000000000000000000000000000000000000000000000000000000000000000000000000000000000000000000000000000000000000000000000000000000000000000000000000000000000000000000000.0
  0
POINT
  8
0
  6
CONTINUOUS
 62
     1
 10
3141492651413536400000000000000000000000000000000000000000000000000000000000000000000000000000000000000000000000000000000000000000000000000000000000000000000000000000000000000000000000000000000000000000000000000000000000000.0
 20
126926390563329640000000000000000000000000000000000000000000000000000000000000000000000000000000000000000000000000000000000000000000000000000000000000000000000000000000000000000000000000000000000000000000000000000000000000000000000000.0
  0
POINT
  8
0
  6
CONTINUOUS
 62
     1
 10
-1470580238991735500000000000000000000000000000000000000000000000.0
 20
-59416163741459895000000000000000000000000000000000000000000000000000000000.0
  0
POINT
  8
0
  6
CONTINUOUS
 62
     1
 10
-1470580238991735500000000000000000000000000000000000000000000000.0
 20
-59416163741459895000000000000000000000000000000000000000000000000000000000.0
  0
POINT
  8
0
  6
CONTINUOUS
 62
     1
 10
3141492651413536400000000000000000000000000000000000000000000000000000000000000000000000000000000000000000000000000000000000000000000000000000000000000000000000000000000000000000000000000000000000000000000000000000000000000.0
 20
126926390563329640000000000000000000000000000000000000000000000000000000000000000000000000000000000000000000000000000000000000000000000000000000000000000000000000000000000000000000000000000000000000000000000000000000000000000000000000.0
  0
POINT
  8
0
  6
CONTINUOUS
 62
     1
 10
3141492651413536400000000000000000000000000000000000000000000000000000000000000000000000000000000000000000000000000000000000000000000000000000000000000000000000000000000000000000000000000000000000000000000000000000000000000.0
 20
126926390563329640000000000000000000000000000000000000000000000000000000000000000000000000000000000000000000000000000000000000000000000000000000000000000000000000000000000000000000000000000000000000000000000000000000000000000000000000.0
  0
POINT
  8
0
  6
CONTINUOUS
 62
     1
 10
-1470580238991735500000000000000000000000000000000000000000000000.0
 20
-59416163741459895000000000000000000000000000000000000000000000000000000000.0
  0
POINT
  8
0
  6
CONTINUOUS
 62
     1
 10
-1470580238991735500000000000000000000000000000000000000000000000.0
 20
-59416163741459895000000000000000000000000000000000000000000000000000000000.0
  0
POINT
  8
0
  6
CONTINUOUS
 62
     1
 10
3141492651413536400000000000000000000000000000000000000000000000000000000000000000000000000000000000000000000000000000000000000000000000000000000000000000000000000000000000000000000000000000000000000000000000000000000000000.0
 20
126926390563329640000000000000000000000000000000000000000000000000000000000000000000000000000000000000000000000000000000000000000000000000000000000000000000000000000000000000000000000000000000000000000000000000000000000000000000000000.0
  0
POINT
  8
0
  6
CONTINUOUS
 62
     1
 10
3141492651413536400000000000000000000000000000000000000000000000000000000000000000000000000000000000000000000000000000000000000000000000000000000000000000000000000000000000000000000000000000000000000000000000000000000000000.0
 20
126926390563329640000000000000000000000000000000000000000000000000000000000000000000000000000000000000000000000000000000000000000000000000000000000000000000000000000000000000000000000000000000000000000000000000000000000000000000000000.0
  0
POINT
  8
0
  6
CONTINUOUS
 62
     1
 10
-1470580238991735500000000000000000000000000000000000000000000000.0
 20
-59416163741459895000000000000000000000000000000000000000000000000000000000.0
  0
POINT
  8
0
  6
CONTINUOUS
 62
     1
 10
-1470580238991735500000000000000000000000000000000000000000000000.0
 20
-59416163741459895000000000000000000000000000000000000000000000000000000000.0
  0
POINT
  8
0
  6
CONTINUOUS
 62
     1
 10
3141492651413536400000000000000000000000000000000000000000000000000000000000000000000000000000000000000000000000000000000000000000000000000000000000000000000000000000000000000000000000000000000000000000000000000000000000000.0
 20
126926390563329640000000000000000000000000000000000000000000000000000000000000000000000000000000000000000000000000000000000000000000000000000000000000000000000000000000000000000000000000000000000000000000000000000000000000000000000000.0
  0
POINT
  8
0
  6
CONTINUOUS
 62
     1
 10
3141492651413536400000000000000000000000000000000000000000000000000000000000000000000000000000000000000000000000000000000000000000000000000000000000000000000000000000000000000000000000000000000000000000000000000000000000000.0
 20
126926390563329640000000000000000000000000000000000000000000000000000000000000000000000000000000000000000000000000000000000000000000000000000000000000000000000000000000000000000000000000000000000000000000000000000000000000000000000000.0
  0
POINT
  8
0
  6
CONTINUOUS
 62
     1
 10
-1470580238991735500000000000000000000000000000000000000000000000.0
 20
-59416163741459895000000000000000000000000000000000000000000000000000000000.0
  0
POINT
  8
0
  6
CONTINUOUS
 62
     1
 10
-1470580238991735500000000000000000000000000000000000000000000000.0
 20
-59416163741459895000000000000000000000000000000000000000000000000000000000.0
  0
POINT
  8
0
  6
CONTINUOUS
 62
     1
 10
3141492651413536400000000000000000000000000000000000000000000000000000000000000000000000000000000000000000000000000000000000000000000000000000000000000000000000000000000000000000000000000000000000000000000000000000000000000.0
 20
126926390563329640000000000000000000000000000000000000000000000000000000000000000000000000000000000000000000000000000000000000000000000000000000000000000000000000000000000000000000000000000000000000000000000000000000000000000000000000.0
  0
POINT
  8
0
  6
CONTINUOUS
 62
     1
 10
3141492651413536400000000000000000000000000000000000000000000000000000000000000000000000000000000000000000000000000000000000000000000000000000000000000000000000000000000000000000000000000000000000000000000000000000000000000.0
 20
126926390563329640000000000000000000000000000000000000000000000000000000000000000000000000000000000000000000000000000000000000000000000000000000000000000000000000000000000000000000000000000000000000000000000000000000000000000000000000.0
  0
POINT
  8
0
  6
CONTINUOUS
 62
     1
 10
-1470580238991735500000000000000000000000000000000000000000000000.0
 20
-59416163741459895000000000000000000000000000000000000000000000000000000000.0
  0
POINT
  8
0
  6
CONTINUOUS
 62
     1
 10
-1470580238991735500000000000000000000000000000000000000000000000.0
 20
-59416163741459895000000000000000000000000000000000000000000000000000000000.0
  0
POLYLINE
  8
0
  6
CONTINUOUS
 62
     1
 66
     1
 70
     1
  0
VERTEX
  8
0
  6
CONTINUOUS
 62
     1
 10
3141492651413536400000000000000000000000000000000000000000000000000000000000000000000000000000000000000000000000000000000000000000000000000000000000000000000000000000000000000000000000000000000000000000000000000000000000000.0
 20
126926390563329640000000000000000000000000000000000000000000000000000000000000000000000000000000000000000000000000000000000000000000000000000000000000000000000000000000000000000000000000000000000000000000000000000000000000000000000000.0
  0
VERTEX
  8
0
  6
CONTINUOUS
 62
     1
 10
3141492651413536400000000000000000000000000000000000000000000000000000000000000000000000000000000000000000000000000000000000000000000000000000000000000000000000000000000000000000000000000000000000000000000000000000000000000.0
 20
126926390563329640000000000000000000000000000000000000000000000000000000000000000000000000000000000000000000000000000000000000000000000000000000000000000000000000000000000000000000000000000000000000000000000000000000000000000000000000.0
  0
SEQEND
  0
POINT
  8
0
  6
CONTINUOUS
 62
     1
 10
-1470580238991735500000000000000000000000000000000000000000000000.0
 20
-59416163741459895000000000000000000000000000000000000000000000000000000000.0
  0
POINT
  8
0
  6
CONTINUOUS
 62
     1
 10
-1470580238991735500000000000000000000000000000000000000000000000.0
 20
-59416163741459895000000000000000000000000000000000000000000000000000000000.0
  0
POINT
  8
0
  6
CONTINUOUS
 62
     1
 10
3141492651413536400000000000000000000000000000000000000000000000000000000000000000000000000000000000000000000000000000000000000000000000000000000000000000000000000000000000000000000000000000000000000000000000000000000000000.0
 20
126926390563329640000000000000000000000000000000000000000000000000000000000000000000000000000000000000000000000000000000000000000000000000000000000000000000000000000000000000000000000000000000000000000000000000000000000000000000000000.0
  0
POINT
  8
0
  6
CONTINUOUS
 62
     1
 10
3141492651413536400000000000000000000000000000000000000000000000000000000000000000000000000000000000000000000000000000000000000000000000000000000000000000000000000000000000000000000000000000000000000000000000000000000000000.0
 20
126926390563329640000000000000000000000000000000000000000000000000000000000000000000000000000000000000000000000000000000000000000000000000000000000000000000000000000000000000000000000000000000000000000000000000000000000000000000000000.0
  0
POINT
  8
0
  6
CONTINUOUS
 62
     1
 10
-1470580238991735500000000000000000000000000000000000000000000000.0
 20
-59416163741459895000000000000000000000000000000000000000000000000000000000.0
  0
POINT
  8
0
  6
CONTINUOUS
 62
     1
 10
-1470580238991735500000000000000000000000000000000000000000000000.0
 20
-59416163741459895000000000000000000000000000000000000000000000000000000000.0
  0
POINT
  8
0
  6
CONTINUOUS
 62
     1
 10
3141492651413536400000000000000000000000000000000000000000000000000000000000000000000000000000000000000000000000000000000000000000000000000000000000000000000000000000000000000000000000000000000000000000000000000000000000000.0
 20
126926390563329640000000000000000000000000000000000000000000000000000000000000000000000000000000000000000000000000000000000000000000000000000000000000000000000000000000000000000000000000000000000000000000000000000000000000000000000000.0
  0
POINT
  8
0
  6
CONTINUOUS
 62
     1
 10
3141492651413536400000000000000000000000000000000000000000000000000000000000000000000000000000000000000000000000000000000000000000000000000000000000000000000000000000000000000000000000000000000000000000000000000000000000000.0
 20
126926390563329640000000000000000000000000000000000000000000000000000000000000000000000000000000000000000000000000000000000000000000000000000000000000000000000000000000000000000000000000000000000000000000000000000000000000000000000000.0
  0
POINT
  8
0
  6
CONTINUOUS
 62
     1
 10
-1470580238991735500000000000000000000000000000000000000000000000.0
 20
-59416163741459895000000000000000000000000000000000000000000000000000000000.0
  0
POINT
  8
0
  6
CONTINUOUS
 62
     1
 10
-1470580238991735500000000000000000000000000000000000000000000000.0
 20
-59416163741459895000000000000000000000000000000000000000000000000000000000.0
  0
POINT
  8
0
  6
CONTINUOUS
 62
     1
 10
3141492651413536400000000000000000000000000000000000000000000000000000000000000000000000000000000000000000000000000000000000000000000000000000000000000000000000000000000000000000000000000000000000000000000000000000000000000.0
 20
126926390563329640000000000000000000000000000000000000000000000000000000000000000000000000000000000000000000000000000000000000000000000000000000000000000000000000000000000000000000000000000000000000000000000000000000000000000000000000.0
  0
POINT
  8
0
  6
CONTINUOUS
 62
     1
 10
3141492651413536400000000000000000000000000000000000000000000000000000000000000000000000000000000000000000000000000000000000000000000000000000000000000000000000000000000000000000000000000000000000000000000000000000000000000.0
 20
126926390563329640000000000000000000000000000000000000000000000000000000000000000000000000000000000000000000000000000000000000000000000000000000000000000000000000000000000000000000000000000000000000000000000000000000000000000000000000.0
  0
POINT
  8
0
  6
CONTINUOUS
 62
     1
 10
-1470580238991735500000000000000000000000000000000000000000000000.0
 20
-59416163741459895000000000000000000000000000000000000000000000000000000000.0
  0
POINT
  8
0
  6
CONTINUOUS
 62
     1
 10
-1470580238991735500000000000000000000000000000000000000000000000.0
 20
-59416163741459895000000000000000000000000000000000000000000000000000000000.0
  0
POINT
  8
0
  6
CONTINUOUS
 62
     1
 10
3141492651413536400000000000000000000000000000000000000000000000000000000000000000000000000000000000000000000000000000000000000000000000000000000000000000000000000000000000000000000000000000000000000000000000000000000000000.0
 20
126926390563329640000000000000000000000000000000000000000000000000000000000000000000000000000000000000000000000000000000000000000000000000000000000000000000000000000000000000000000000000000000000000000000000000000000000000000000000000.0
  0
POINT
  8
0
  6
CONTINUOUS
 62
     1
 10
3141492651413536400000000000000000000000000000000000000000000000000000000000000000000000000000000000000000000000000000000000000000000000000000000000000000000000000000000000000000000000000000000000000000000000000000000000000.0
 20
126926390563329640000000000000000000000000000000000000000000000000000000000000000000000000000000000000000000000000000000000000000000000000000000000000000000000000000000000000000000000000000000000000000000000000000000000000000000000000.0
  0
POINT
  8
0
  6
CONTINUOUS
 62
     1
 10
-1470580238991735500000000000000000000000000000000000000000000000.0
 20
-59416163741459895000000000000000000000000000000000000000000000000000000000.0
  0
POINT
  8
0
  6
CONTINUOUS
 62
     1
 10
-1470580238991735500000000000000000000000000000000000000000000000.0
 20
-59416163741459895000000000000000000000000000000000000000000000000000000000.0
  0
POINT
  8
0
  6
CONTINUOUS
 62
     1
 10
3141492651413536400000000000000000000000000000000000000000000000000000000000000000000000000000000000000000000000000000000000000000000000000000000000000000000000000000000000000000000000000000000000000000000000000000000000000.0
 20
126926390563329640000000000000000000000000000000000000000000000000000000000000000000000000000000000000000000000000000000000000000000000000000000000000000000000000000000000000000000000000000000000000000000000000000000000000000000000000.0
  0
POINT
  8
0
  6
CONTINUOUS
 62
     1
 10
3141492651413536400000000000000000000000000000000000000000000000000000000000000000000000000000000000000000000000000000000000000000000000000000000000000000000000000000000000000000000000000000000000000000000000000000000000000.0
 20
126926390563329640000000000000000000000000000000000000000000000000000000000000000000000000000000000000000000000000000000000000000000000000000000000000000000000000000000000000000000000000000000000000000000000000000000000000000000000000.0
  0
POINT
  8
0
  6
CONTINUOUS
 62
     1
 10
-1470580238991735500000000000000000000000000000000000000000000000.0
 20
-59416163741459895000000000000000000000000000000000000000000000000000000000.0
  0
POINT
  8
0
  6
CONTINUOUS
 62
     1
 10
-1470580238991735500000000000000000000000000000000000000000000000.0
 20
-59416163741459895000000000000000000000000000000000000000000000000000000000.0
  0
LINE
  8
0
  6
CONTINUOUS
 62
     3
 10
224.860000005
 20
250.150002695
 11
219.860000005
 21
255.150002695
  0
LINE
  8
0
  6
CONTINUOUS
 62
     3
 10
219.360000005
 20
255.150002695
 11
165.560000005
 21
255.150002695
  0
LINE
  8
0
  6
CONTINUOUS
 62
     1
 10
172.924625005
 20
238.191502695
 11
184.595375005
 21
238.191502695
  0
LINE
  8
0
  6
CONTINUOUS
 62
     1
 10
172.924625005
 20
239.538127695
 11
184.595375005
 21
239.538127695
  0
LINE
  8
0
  6
CONTINUOUS
 62
     1
 10
172.924625005
 20
246.720127695
 11
184.595375005
 21
246.720127695
  0
LINE
  8
0
  6
CONTINUOUS
 62
     1
 10
172.924625005
 20
248.066752695
 11
184.595375005
 21
248.066752695
  0
CIRCLE
  8
0
  6
CONTINUOUS
 62
     1
 10
178.760000005
 20
243.129127695
 40
2.69325
  0
ARC
  8
0
  6
CONTINUOUS
 62
     1
 10
177.490389779
 20
243.129127695
 40
0.448875
 50
315.0
 51
45.0
  0
ARC
  8
0
  6
CONTINUOUS
 62
     1
 10
178.760000005
 20
244.398737921
 40
0.448875
 50
225.0
 51
315.0
  0
ARC
  8
0
  6
CONTINUOUS
 62
     1
 10
180.029610231
 20
243.129127695
 40
0.448875
 50
135.0
 51
225.0
  0
ARC
  8
0
  6
CONTINUOUS
 62
     1
 10
178.760000005
 20
241.859517469
 40
0.448875
 50
45.0
 51
135.0
  0
LINE
  8
0
  6
CONTINUOUS
 62
     1
 10
180.347012787
 20
242.176920026
 11
179.712207674
 21
241.542114913
  0
LINE
  8
0
  6
CONTINUOUS
 62
     1
 10
177.807792336
 20
244.716140477
 11
177.172987223
 21
244.081335364
  0
LINE
  8
0
  6
CONTINUOUS
 62
     1
 10
177.807792336
 20
241.542114913
 11
177.172987223
 21
242.176920026
  0
LINE
  8
0
  6
CONTINUOUS
 62
     1
 10
180.347012787
 20
244.081335364
 11
179.712207674
 21
244.716140477
  0
LINE
  8
0
  6
CONTINUOUS
 62
     1
 10
177.807792336
 20
243.446530251
 11
177.172987223
 21
244.081335364
  0
LINE
  8
0
  6
CONTINUOUS
 62
     1
 10
177.807792336
 20
244.716140477
 11
178.442597449
 21
244.081335364
  0
LINE
  8
0
  6
CONTINUOUS
 62
     1
 10
179.712207674
 20
242.811725139
 11
180.347012787
 21
242.176920026
  0
LINE
  8
0
  6
CONTINUOUS
 62
     1
 10
179.712207674
 20
241.542114913
 11
179.077402561
 21
242.176920026
  0
LINE
  8
0
  6
CONTINUOUS
 62
     1
 10
177.199623714
 20
240.933946292
 11
178.442597449
 21
242.176920026
  0
LINE
  8
0
  6
CONTINUOUS
 62
     1
 10
176.564818602
 20
241.568751404
 11
177.807792336
 21
242.811725139
  0
LINE
  8
0
  6
CONTINUOUS
 62
     1
 10
179.077402561
 20
244.081335364
 11
180.320376296
 21
245.324309098
  0
LINE
  8
0
  6
CONTINUOUS
 62
     1
 10
180.955181409
 20
244.689503986
 11
179.712207674
 21
243.446530251
  0
LINE
  8
0
  6
CONTINUOUS
 62
     1
 10
184.595375005
 20
253.767465195
 11
172.924625005
 21
253.767465195
  0
LINE
  8
0
  6
CONTINUOUS
 62
     1
 10
172.924625005
 20
232.221465195
 11
184.595375005
 21
232.221465195
  0
LINE
  8
0
  6
CONTINUOUS
 62
     1
 10
172.924625005
 20
253.767465195
 11
172.924625005
 21
232.221465195
  0
LINE
  8
0
  6
CONTINUOUS
 62
     1
 10
184.595375005
 20
232.221465195
 11
184.595375005
 21
253.767465195
  0
CIRCLE
  8
0
  6
CONTINUOUS
 62
     1
 10
178.760000005
 20
235.498252695
 40
1.5710625
  0
CIRCLE
  8
0
  6
CONTINUOUS
 62
     1
 10
178.760000005
 20
250.760002695
 40
1.5710625
  0
LINE
  8
0
  6
CONTINUOUS
 62
     5
 10
227.400000004
 20
266.500002694
 11
225.468148352
 21
265.982364604
  0
LINE
  8
0
  6
CONTINUOUS
 62
     5
 10
227.400000004
 20
266.500002694
 11
225.468148352
 21
267.017640784
  0
LINE
  8
0
  6
CONTINUOUS
 62
     5
 10
227.400000004
 20
266.500002694
 11
162.600000004
 21
266.500002692
  0
LINE
  8
0
  6
CONTINUOUS
 62
     5
 10
162.600000004
 20
266.500002692
 11
164.531851657
 21
267.017640782
  0
LINE
  8
0
  6
CONTINUOUS
 62
     5
 10
162.600000004
 20
266.500002692
 11
164.531851657
 21
265.982364602
  0
TEXT
  8
0
  6
CONTINUOUS
 62
     5
 10
191.650000004
 20
267.000002693
 30
0.1
 40
2.0
  1
６４．５
 50
0.0
 41
0.8
 51
0.0
  7
KANJI0
  0
LINE
  8
0
  6
CONTINUOUS
 62
     5
 10
172.924625005
 20
254.767465195
 11
172.924625005
 21
263.167465195
  0
LINE
  8
0
  6
CONTINUOUS
 62
     5
 10
172.924625005
 20
261.167465195
 11
184.595375005
 21
261.167465195
  0
LINE
  8
0
  6
CONTINUOUS
 62
     5
 10
184.595375005
 20
254.767465195
 11
184.595375005
 21
263.167465195
  0
LINE
  8
0
  6
CONTINUOUS
 62
     5
 10
182.400000005
 20
239.600002695
 11
182.400000005
 21
239.540002695
  0
LINE
  8
0
  6
CONTINUOUS
 62
     1
 10
182.400000005
 20
242.900002695
 11
182.400000005
 21
239.600002695
  0
LINE
  8
0
  6
CONTINUOUS
 62
     1
 10
182.400000005
 20
242.900002695
 11
182.400000005
 21
246.710002695
  0
LINE
  8
0
  6
CONTINUOUS
 62
     1
 10
175.070000005
 20
243.150002695
 11
175.070000005
 21
246.720002695
  0
LINE
  8
0
  6
CONTINUOUS
 62
     1
 10
175.070000005
 20
243.150002695
 11
175.070000005
 21
239.530002695
  0
LINE
  8
0
  6
CONTINUOUS
 62
     1
 10
179.800000005
 20
236.618252695
 11
177.770000005
 21
234.308252695
  0
LINE
  8
0
  6
CONTINUOUS
 62
     1
 10
177.700000005
 20
236.618252695
 11
179.800000005
 21
234.318252695
  0
LINE
  8
0
  6
CONTINUOUS
 62
     1
 10
179.790000005
 20
251.900002695
 11
177.760000005
 21
249.590002695
  0
LINE
  8
0
  6
CONTINUOUS
 62
     1
 10
177.690000005
 20
251.900002695
 11
179.790000005
 21
249.600002695
  0
LINE
  8
0
  6
CONTINUOUS
 62
     3
 10
289.355000003
 20
231.70481751
 11
289.355000003
 21
233.27518788
  0
LINE
  8
0
  6
CONTINUOUS
 62
     3
 10
289.355000003
 20
235.20481751
 11
289.355000003
 21
236.77518788
  0
LINE
  8
0
  6
CONTINUOUS
 62
     3
 10
289.355000003
 20
238.70481751
 11
289.355000003
 21
240.27518788
  0
LINE
  8
0
  6
CONTINUOUS
 62
     3
 10
289.355000003
 20
242.20481751
 11
289.355000003
 21
243.77518788
  0
LINE
  8
0
  6
CONTINUOUS
 62
     3
 10
289.355000003
 20
245.70481751
 11
289.355000003
 21
247.27518788
  0
LINE
  8
0
  6
CONTINUOUS
 62
     3
 10
289.355000003
 20
249.20481751
 11
289.355000003
 21
250.77518788
  0
LINE
  8
0
  6
CONTINUOUS
 62
     3
 10
299.155000003
 20
250.740002695
 11
287.355000003
 21
250.840002695
  0
LINE
  8
0
  6
CONTINUOUS
 62
     3
 10
289.355000003
 20
252.70481751
 11
289.355000003
 21
254.27518788
  0
LINE
  8
0
  6
CONTINUOUS
 62
     3
 10
299.155000003
 20
253.490002695
 11
299.155000003
 21
252.740002695
  0
LINE
  8
0
  6
CONTINUOUS
 62
     3
 10
299.155000003
 20
252.740002695
 11
287.355000003
 21
252.640002695
  0
LINE
  8
0
  6
CONTINUOUS
 62
     3
 10
299.155000003
 20
253.490002695
 11
299.155000003
 21
254.240002695
  0
LINE
  8
0
  6
CONTINUOUS
 62
     3
 10
299.155000003
 20
254.240002695
 11
287.355000003
 21
254.340002695
  0
LINE
  8
0
  6
CONTINUOUS
 62
     3
 10
289.355000003
 20
229.77518788
 11
289.355000003
 21
228.20481751
  0
LINE
  8
0
  6
CONTINUOUS
 62
     3
 10
289.355000003
 20
226.27518788
 11
289.355000003
 21
224.70481751
  0
LINE
  8
0
  6
CONTINUOUS
 62
     3
 10
289.355000003
 20
222.77518788
 11
289.355000003
 21
221.20481751
  0
LINE
  8
0
  6
CONTINUOUS
 62
     3
 10
289.355000003
 20
219.27518788
 11
289.355000003
 21
217.70481751
  0
LINE
  8
0
  6
CONTINUOUS
 62
     3
 10
289.355000003
 20
215.77518788
 11
289.355000003
 21
214.20481751
  0
LINE
  8
0
  6
CONTINUOUS
 62
     3
 10
299.155000003
 20
214.240002695
 11
287.355000003
 21
214.140002695
  0
LINE
  8
0
  6
CONTINUOUS
 62
     3
 10
289.355000003
 20
212.27518788
 11
289.355000003
 21
210.70481751
  0
LINE
  8
0
  6
CONTINUOUS
 62
     3
 10
299.155000003
 20
211.490002695
 11
299.155000003
 21
212.240002695
  0
LINE
  8
0
  6
CONTINUOUS
 62
     3
 10
299.155000003
 20
212.240002695
 11
287.355000003
 21
212.340002695
  0
LINE
  8
0
  6
CONTINUOUS
 62
     3
 10
299.155000003
 20
211.490002695
 11
299.155000003
 21
210.740002695
  0
LINE
  8
0
  6
CONTINUOUS
 62
     3
 10
299.155000003
 20
210.740002695
 11
287.355000003
 21
210.640002695
  0
LINE
  8
0
  6
CONTINUOUS
 62
     1
 10
309.555000003
 20
232.490002695
 11
309.555000003
 21
229.990002695
  0
LINE
  8
0
  6
CONTINUOUS
 62
     1
 10
309.555000003
 20
229.990002695
 11
308.755000003
 21
229.990002695
  0
LINE
  8
0
  6
CONTINUOUS
 62
     1
 10
328.155000003
 20
208.490002695
 11
328.155000003
 21
232.490002695
  0
LINE
  8
0
  6
CONTINUOUS
 62
     1
 10
309.255000003
 20
222.390002695
 11
310.755000003
 21
222.390002695
  0
ARC
  8
0
  6
CONTINUOUS
 62
     1
 10
309.255000003
 20
222.890002695
 40
0.5
 50
180.0
 51
270.0
  0
LINE
  8
0
  6
CONTINUOUS
 62
     1
 10
309.255000003
 20
220.590002695
 11
310.755000003
 21
220.590002695
  0
ARC
  8
0
  6
CONTINUOUS
 62
     1
 10
309.255000003
 20
220.090002695
 40
0.5
 50
90.0
 51
180.0
  0
LINE
  8
0
  6
CONTINUOUS
 62
     1
 10
308.755000003
 20
229.990002695
 11
308.755000003
 21
222.890002695
  0
LINE
  8
0
  6
CONTINUOUS
 62
     1
 10
310.755000003
 20
232.490002695
 11
310.755000003
 21
209.490002695
  0
LINE
  8
0
  6
CONTINUOUS
 62
     1
 10
311.755000003
 20
208.490002695
 11
328.155000003
 21
208.490002695
  0
ARC
  8
0
  6
CONTINUOUS
 62
     1
 10
311.755000003
 20
209.490002695
 40
1.0
 50
180.0
 51
270.0
  0
LINE
  8
0
  6
CONTINUOUS
 62
     1
 10
288.355000003
 20
208.490002695
 11
311.955000003
 21
208.490002695
  0
POLYLINE
  8
0
  6
CONTINUOUS
 62
     1
 66
     1
  0
VERTEX
  8
0
  6
CONTINUOUS
 62
     1
 10
309.555000003
 20
232.490002695
  0
VERTEX
  8
0
  6
CONTINUOUS
 62
     1
 10
309.555000003
 20
234.990002695
  0
VERTEX
  8
0
  6
CONTINUOUS
 62
     1
 10
308.755000003
 20
234.990002695
  0
SEQEND
  0
LINE
  8
0
  6
CONTINUOUS
 62
     1
 10
309.255000003
 20
242.590002695
 11
310.755000003
 21
242.590002695
  0
ARC
  8
0
  6
CONTINUOUS
 62
     1
 10
309.255000003
 20
242.090002695
 40
0.5
 50
90.0
 51
180.0
  0
LINE
  8
0
  6
CONTINUOUS
 62
     1
 10
309.255000003
 20
244.390002695
 11
310.755000003
 21
244.390002695
  0
ARC
  8
0
  6
CONTINUOUS
 62
     1
 10
309.255000003
 20
244.890002695
 40
0.5
 50
180.0
 51
270.0
  0
LINE
  8
0
  6
CONTINUOUS
 62
     1
 10
308.755000003
 20
234.990002695
 11
308.755000003
 21
242.090002695
  0
LINE
  8
0
  6
CONTINUOUS
 62
     1
 10
310.755000003
 20
232.490002695
 11
310.755000003
 21
255.490002695
  0
ARC
  8
0
  6
CONTINUOUS
 62
     1
 10
311.755000003
 20
255.490002695
 40
1.0
 50
90.0
 51
180.0
  0
LINE
  8
0
  6
CONTINUOUS
 62
     1
 10
288.355000003
 20
256.490002695
 11
311.955000003
 21
256.490002695
  0
LINE
  8
0
  6
CONTINUOUS
 62
     1
 10
328.155000003
 20
222.290002695
 11
323.655000003
 21
222.290002695
  0
LINE
  8
0
  6
CONTINUOUS
 62
     1
 10
323.655000003
 20
222.290002695
 11
323.655000003
 21
232.490002695
  0
LINE
  8
0
  6
CONTINUOUS
 62
     1
 10
328.155000003
 20
242.690002695
 11
323.655000003
 21
242.690002695
  0
LINE
  8
0
  6
CONTINUOUS
 62
     1
 10
323.655000003
 20
242.690002695
 11
323.655000003
 21
232.490002695
  0
LINE
  8
0
  6
CONTINUOUS
 62
     1
 10
328.155000003
 20
256.490002695
 11
328.155000003
 21
232.490002695
  0
LINE
  8
0
  6
CONTINUOUS
 62
     1
 10
311.755000003
 20
256.490002695
 11
328.155000003
 21
256.490002695
  0
LINE
  8
0
  6
CONTINUOUS
 62
     1
 10
308.755000003
 20
244.890002695
 11
308.755000003
 21
248.990002695
  0
LINE
  8
0
  6
CONTINUOUS
 62
     1
 10
308.755000003
 20
220.090002695
 11
308.755000003
 21
215.990002695
  0
LINE
  8
0
  6
CONTINUOUS
 62
     1
 10
309.185000003
 20
212.440002695
 11
306.306889268
 21
212.440002695
  0
LINE
  8
0
  6
CONTINUOUS
 62
     1
 10
310.755000003
 20
212.440002695
 11
309.255000003
 21
212.440002695
  0
ARC
  8
0
  6
CONTINUOUS
 62
     1
 10
309.255000003
 20
212.940002695
 40
0.5
 50
180.0
 51
270.0
  0
ARC
  8
0
  6
CONTINUOUS
 62
     1
 10
306.306889268
 20
252.040002695
 40
0.5
 50
90.0
 51
179.819825187
  0
LINE
  8
0
  6
CONTINUOUS
 62
     1
 10
310.755000003
 20
252.540002695
 11
309.255000003
 21
252.540002695
  0
ARC
  8
0
  6
CONTINUOUS
 62
     1
 10
309.255000003
 20
252.040002695
 40
0.5
 50
90.0
 51
180.0
  0
LINE
  8
0
  6
CONTINUOUS
 62
     1
 10
309.365000003
 20
252.540002695
 11
306.306889268
 21
252.540002695
  0
LINE
  8
0
  6
CONTINUOUS
 62
     1
 10
308.755000003
 20
215.990002695
 11
308.755000003
 21
212.940002695
  0
LINE
  8
0
  6
CONTINUOUS
 62
     1
 10
308.755000003
 20
248.990002695
 11
308.755000003
 21
252.040002695
  0
LINE
  8
0
  6
CONTINUOUS
 62
     1
 10
308.755000003
 20
214.040002695
 11
305.80689174
 21
214.040002695
  0
LINE
  8
0
  6
CONTINUOUS
 62
     1
 10
308.755000003
 20
250.940002695
 11
305.80689174
 21
250.940002695
  0
LINE
  8
0
  6
CONTINUOUS
 62
     1
 10
287.355000003
 20
232.490002695
 11
287.355000003
 21
255.490002695
  0
ARC
  8
0
  6
CONTINUOUS
 62
     1
 10
288.355000003
 20
255.490002695
 40
1.0
 50
90.0
 51
180.0
  0
LINE
  8
0
  6
CONTINUOUS
 62
     1
 10
287.355000003
 20
232.490002695
 11
287.355000003
 21
209.490002695
  0
ARC
  8
0
  6
CONTINUOUS
 62
     1
 10
288.355000003
 20
209.490002695
 40
1.0
 50
180.0
 51
270.0
  0
LINE
  8
0
  6
CONTINUOUS
 62
     1
 10
328.155000003
 20
256.490002695
 11
328.155000003
 21
232.490002695
  0
LINE
  8
0
  6
CONTINUOUS
 62
     3
 10
301.355000003
 20
215.840002695
 11
308.055000003
 21
215.840002695
  0
LINE
  8
0
  6
CONTINUOUS
 62
     3
 10
308.055000003
 20
223.040002695
 11
300.055000003
 21
223.040002695
  0
LINE
  8
0
  6
CONTINUOUS
 62
     3
 10
308.055000003
 20
215.840002695
 11
308.055000003
 21
223.040002695
  0
LINE
  8
0
  6
CONTINUOUS
 62
     3
 10
307.555000003
 20
215.840002695
 11
307.555000003
 21
223.040002695
  0
LINE
  8
0
  6
CONTINUOUS
 62
     3
 10
308.055000003
 20
216.840002695
 11
307.555000003
 21
216.840002695
  0
LINE
  8
0
  6
CONTINUOUS
 62
     3
 10
308.055000003
 20
222.040002695
 11
307.555000003
 21
222.040002695
  0
LINE
  8
0
  6
CONTINUOUS
 62
     3
 10
307.555000003
 20
218.940002695
 11
306.555000003
 21
218.940002695
  0
LINE
  8
0
  6
CONTINUOUS
 62
     3
 10
306.555000003
 20
218.940002695
 11
307.555000003
 21
216.440002695
  0
LINE
  8
0
  6
CONTINUOUS
 62
     3
 10
307.555000003
 20
216.440002695
 11
305.555000003
 21
216.440002695
  0
LINE
  8
0
  6
CONTINUOUS
 62
     3
 10
305.555000003
 20
216.440002695
 11
305.555000003
 21
219.440002695
  0
LINE
  8
0
  6
CONTINUOUS
 62
     3
 10
306.055000003
 20
219.440002695
 11
306.055000003
 21
218.440002695
  0
LINE
  8
0
  6
CONTINUOUS
 62
     3
 10
306.055000003
 20
218.440002695
 11
305.555000003
 21
218.440002695
  0
LINE
  8
0
  6
CONTINUOUS
 62
     3
 10
308.055000003
 20
222.040002695
 11
307.555000003
 21
222.040002695
  0
LINE
  8
0
  6
CONTINUOUS
 62
     3
 10
307.555000003
 20
219.940002695
 11
306.555000003
 21
219.940002695
  0
LINE
  8
0
  6
CONTINUOUS
 62
     3
 10
306.555000003
 20
219.940002695
 11
307.555000003
 21
222.440002695
  0
LINE
  8
0
  6
CONTINUOUS
 62
     3
 10
307.555000003
 20
222.440002695
 11
305.555000003
 21
222.440002695
  0
LINE
  8
0
  6
CONTINUOUS
 62
     3
 10
305.555000003
 20
222.440002695
 11
305.555000003
 21
219.440002695
  0
LINE
  8
0
  6
CONTINUOUS
 62
     3
 10
306.055000003
 20
219.440002695
 11
306.055000003
 21
220.440002695
  0
LINE
  8
0
  6
CONTINUOUS
 62
     3
 10
306.055000003
 20
220.440002695
 11
305.555000003
 21
220.440002695
  0
LINE
  8
0
  6
CONTINUOUS
 62
     3
 10
305.555000003
 20
219.440002695
 11
305.555000003
 21
216.640002695
  0
LINE
  8
0
  6
CONTINUOUS
 62
     3
 10
305.555000003
 20
216.640002695
 11
303.555000003
 21
216.640002695
  0
LINE
  8
0
  6
CONTINUOUS
 62
     3
 10
303.355000003
 20
219.440002695
 11
303.355000003
 21
218.840002695
  0
LINE
  8
0
  6
CONTINUOUS
 62
     3
 10
303.355000003
 20
218.840002695
 11
303.555000003
 21
216.640002695
  0
LINE
  8
0
  6
CONTINUOUS
 62
     3
 10
305.555000003
 20
222.440002695
 11
305.555000003
 21
219.440002695
  0
LINE
  8
0
  6
CONTINUOUS
 62
     3
 10
305.555000003
 20
219.440002695
 11
305.555000003
 21
222.240002695
  0
LINE
  8
0
  6
CONTINUOUS
 62
     3
 10
305.555000003
 20
222.240002695
 11
303.555000003
 21
222.240002695
  0
LINE
  8
0
  6
CONTINUOUS
 62
     3
 10
303.355000003
 20
219.440002695
 11
303.355000003
 21
220.040002695
  0
LINE
  8
0
  6
CONTINUOUS
 62
     3
 10
303.355000003
 20
220.040002695
 11
303.555000003
 21
222.240002695
  0
LINE
  8
0
  6
CONTINUOUS
 62
     3
 10
300.055000003
 20
224.540002695
 11
308.055000003
 21
224.540002695
  0
LINE
  8
0
  6
CONTINUOUS
 62
     3
 10
300.055000003
 20
224.540002695
 11
308.055000003
 21
224.540002695
  0
LINE
  8
0
  6
CONTINUOUS
 62
     3
 10
308.055000003
 20
224.540002695
 11
308.055000003
 21
231.740002695
  0
LINE
  8
0
  6
CONTINUOUS
 62
     3
 10
308.055000003
 20
231.740002695
 11
300.055000003
 21
231.740002695
  0
LINE
  8
0
  6
CONTINUOUS
 62
     3
 10
307.555000003
 20
224.540002695
 11
307.555000003
 21
231.740002695
  0
LINE
  8
0
  6
CONTINUOUS
 62
     3
 10
308.055000003
 20
225.540002695
 11
307.555000003
 21
225.540002695
  0
LINE
  8
0
  6
CONTINUOUS
 62
     3
 10
308.055000003
 20
230.740002695
 11
307.555000003
 21
230.740002695
  0
LINE
  8
0
  6
CONTINUOUS
 62
     3
 10
307.555000003
 20
227.640002695
 11
306.555000003
 21
227.640002695
  0
LINE
  8
0
  6
CONTINUOUS
 62
     3
 10
306.555000003
 20
227.640002695
 11
307.555000003
 21
225.140002695
  0
LINE
  8
0
  6
CONTINUOUS
 62
     3
 10
307.555000003
 20
225.140002695
 11
305.555000003
 21
225.140002695
  0
LINE
  8
0
  6
CONTINUOUS
 62
     3
 10
305.555000003
 20
225.140002695
 11
305.555000003
 21
228.140002695
  0
LINE
  8
0
  6
CONTINUOUS
 62
     3
 10
306.055000003
 20
228.140002695
 11
306.055000003
 21
227.140002695
  0
LINE
  8
0
  6
CONTINUOUS
 62
     3
 10
306.055000003
 20
227.140002695
 11
305.555000003
 21
227.140002695
  0
LINE
  8
0
  6
CONTINUOUS
 62
     3
 10
308.055000003
 20
230.740002695
 11
307.555000003
 21
230.740002695
  0
LINE
  8
0
  6
CONTINUOUS
 62
     3
 10
307.555000003
 20
228.640002695
 11
306.555000003
 21
228.640002695
  0
LINE
  8
0
  6
CONTINUOUS
 62
     3
 10
306.555000003
 20
228.640002695
 11
307.555000003
 21
231.140002695
  0
LINE
  8
0
  6
CONTINUOUS
 62
     3
 10
307.555000003
 20
231.140002695
 11
305.555000003
 21
231.140002695
  0
LINE
  8
0
  6
CONTINUOUS
 62
     3
 10
305.555000003
 20
231.140002695
 11
305.555000003
 21
228.140002695
  0
LINE
  8
0
  6
CONTINUOUS
 62
     3
 10
306.055000003
 20
228.140002695
 11
306.055000003
 21
229.140002695
  0
LINE
  8
0
  6
CONTINUOUS
 62
     3
 10
306.055000003
 20
229.140002695
 11
305.555000003
 21
229.140002695
  0
LINE
  8
0
  6
CONTINUOUS
 62
     3
 10
305.555000003
 20
228.140002695
 11
305.555000003
 21
225.340002695
  0
LINE
  8
0
  6
CONTINUOUS
 62
     3
 10
305.555000003
 20
225.340002695
 11
303.555000003
 21
225.340002695
  0
LINE
  8
0
  6
CONTINUOUS
 62
     3
 10
303.355000003
 20
228.140002695
 11
303.355000003
 21
227.540002695
  0
LINE
  8
0
  6
CONTINUOUS
 62
     3
 10
303.355000003
 20
227.540002695
 11
303.555000003
 21
225.340002695
  0
LINE
  8
0
  6
CONTINUOUS
 62
     3
 10
305.555000003
 20
231.140002695
 11
305.555000003
 21
228.140002695
  0
LINE
  8
0
  6
CONTINUOUS
 62
     3
 10
305.555000003
 20
228.140002695
 11
305.555000003
 21
230.940002695
  0
LINE
  8
0
  6
CONTINUOUS
 62
     3
 10
305.555000003
 20
230.940002695
 11
303.555000003
 21
230.940002695
  0
LINE
  8
0
  6
CONTINUOUS
 62
     3
 10
303.355000003
 20
228.140002695
 11
303.355000003
 21
228.740002695
  0
LINE
  8
0
  6
CONTINUOUS
 62
     3
 10
303.355000003
 20
228.740002695
 11
303.555000003
 21
230.940002695
  0
LINE
  8
0
  6
CONTINUOUS
 62
     3
 10
301.355000003
 20
231.740002695
 11
303.155000003
 21
231.740002695
  0
LINE
  8
0
  6
CONTINUOUS
 62
     3
 10
300.055000003
 20
233.240002695
 11
308.055000003
 21
233.240002695
  0
LINE
  8
0
  6
CONTINUOUS
 62
     3
 10
308.055000003
 20
233.240002695
 11
308.055000003
 21
240.440002695
  0
LINE
  8
0
  6
CONTINUOUS
 62
     3
 10
308.055000003
 20
240.440002695
 11
301.355000003
 21
240.440002695
  0
LINE
  8
0
  6
CONTINUOUS
 62
     3
 10
307.555000003
 20
233.240002695
 11
307.555000003
 21
240.440002695
  0
LINE
  8
0
  6
CONTINUOUS
 62
     3
 10
308.055000003
 20
234.240002695
 11
307.555000003
 21
234.240002695
  0
LINE
  8
0
  6
CONTINUOUS
 62
     3
 10
308.055000003
 20
239.440002695
 11
307.555000003
 21
239.440002695
  0
LINE
  8
0
  6
CONTINUOUS
 62
     3
 10
307.555000003
 20
236.340002695
 11
306.555000003
 21
236.340002695
  0
LINE
  8
0
  6
CONTINUOUS
 62
     3
 10
306.555000003
 20
236.340002695
 11
307.555000003
 21
233.840002695
  0
LINE
  8
0
  6
CONTINUOUS
 62
     3
 10
307.555000003
 20
233.840002695
 11
305.555000003
 21
233.840002695
  0
LINE
  8
0
  6
CONTINUOUS
 62
     3
 10
305.555000003
 20
233.840002695
 11
305.555000003
 21
236.840002695
  0
LINE
  8
0
  6
CONTINUOUS
 62
     3
 10
306.055000003
 20
236.840002695
 11
306.055000003
 21
235.840002695
  0
LINE
  8
0
  6
CONTINUOUS
 62
     3
 10
306.055000003
 20
235.840002695
 11
305.555000003
 21
235.840002695
  0
LINE
  8
0
  6
CONTINUOUS
 62
     3
 10
308.055000003
 20
239.440002695
 11
307.555000003
 21
239.440002695
  0
LINE
  8
0
  6
CONTINUOUS
 62
     3
 10
307.555000003
 20
237.340002695
 11
306.555000003
 21
237.340002695
  0
LINE
  8
0
  6
CONTINUOUS
 62
     3
 10
306.555000003
 20
237.340002695
 11
307.555000003
 21
239.840002695
  0
LINE
  8
0
  6
CONTINUOUS
 62
     3
 10
307.555000003
 20
239.840002695
 11
305.555000003
 21
239.840002695
  0
LINE
  8
0
  6
CONTINUOUS
 62
     3
 10
305.555000003
 20
239.840002695
 11
305.555000003
 21
236.840002695
  0
LINE
  8
0
  6
CONTINUOUS
 62
     3
 10
306.055000003
 20
236.840002695
 11
306.055000003
 21
237.840002695
  0
LINE
  8
0
  6
CONTINUOUS
 62
     3
 10
306.055000003
 20
237.840002695
 11
305.555000003
 21
237.840002695
  0
LINE
  8
0
  6
CONTINUOUS
 62
     3
 10
305.555000003
 20
236.840002695
 11
305.555000003
 21
234.040002695
  0
LINE
  8
0
  6
CONTINUOUS
 62
     3
 10
305.555000003
 20
234.040002695
 11
303.555000003
 21
234.040002695
  0
LINE
  8
0
  6
CONTINUOUS
 62
     3
 10
303.355000003
 20
236.840002695
 11
303.355000003
 21
236.240002695
  0
LINE
  8
0
  6
CONTINUOUS
 62
     3
 10
303.355000003
 20
236.240002695
 11
303.555000003
 21
234.040002695
  0
LINE
  8
0
  6
CONTINUOUS
 62
     3
 10
305.555000003
 20
239.840002695
 11
305.555000003
 21
236.840002695
  0
LINE
  8
0
  6
CONTINUOUS
 62
     3
 10
305.555000003
 20
236.840002695
 11
305.555000003
 21
239.640002695
  0
LINE
  8
0
  6
CONTINUOUS
 62
     3
 10
305.555000003
 20
239.640002695
 11
303.555000003
 21
239.640002695
  0
LINE
  8
0
  6
CONTINUOUS
 62
     3
 10
303.355000003
 20
236.840002695
 11
303.355000003
 21
237.440002695
  0
LINE
  8
0
  6
CONTINUOUS
 62
     3
 10
303.355000003
 20
237.440002695
 11
303.555000003
 21
239.640002695
  0
LINE
  8
0
  6
CONTINUOUS
 62
     3
 10
301.355000003
 20
241.940002695
 11
308.055000003
 21
241.940002695
  0
LINE
  8
0
  6
CONTINUOUS
 62
     3
 10
308.055000003
 20
249.140002695
 11
300.055000003
 21
249.140002695
  0
LINE
  8
0
  6
CONTINUOUS
 62
     3
 10
307.555000003
 20
241.940002695
 11
307.555000003
 21
249.140002695
  0
LINE
  8
0
  6
CONTINUOUS
 62
     3
 10
308.055000003
 20
241.940002695
 11
308.055000003
 21
249.140002695
  0
LINE
  8
0
  6
CONTINUOUS
 62
     3
 10
308.055000003
 20
249.140002695
 11
301.355000003
 21
249.140002695
  0
LINE
  8
0
  6
CONTINUOUS
 62
     3
 10
307.555000003
 20
241.940002695
 11
307.555000003
 21
249.140002695
  0
LINE
  8
0
  6
CONTINUOUS
 62
     3
 10
308.055000003
 20
242.940002695
 11
307.555000003
 21
242.940002695
  0
LINE
  8
0
  6
CONTINUOUS
 62
     3
 10
308.055000003
 20
248.140002695
 11
307.555000003
 21
248.140002695
  0
LINE
  8
0
  6
CONTINUOUS
 62
     3
 10
307.555000003
 20
245.040002695
 11
306.555000003
 21
245.040002695
  0
LINE
  8
0
  6
CONTINUOUS
 62
     3
 10
306.555000003
 20
245.040002695
 11
307.555000003
 21
242.540002695
  0
LINE
  8
0
  6
CONTINUOUS
 62
     3
 10
307.555000003
 20
242.540002695
 11
305.555000003
 21
242.540002695
  0
LINE
  8
0
  6
CONTINUOUS
 62
     3
 10
305.555000003
 20
242.540002695
 11
305.555000003
 21
245.540002695
  0
LINE
  8
0
  6
CONTINUOUS
 62
     3
 10
306.055000003
 20
245.540002695
 11
306.055000003
 21
244.540002695
  0
LINE
  8
0
  6
CONTINUOUS
 62
     3
 10
306.055000003
 20
244.540002695
 11
305.555000003
 21
244.540002695
  0
LINE
  8
0
  6
CONTINUOUS
 62
     3
 10
308.055000003
 20
248.140002695
 11
307.555000003
 21
248.140002695
  0
LINE
  8
0
  6
CONTINUOUS
 62
     3
 10
307.555000003
 20
246.040002695
 11
306.555000003
 21
246.040002695
  0
LINE
  8
0
  6
CONTINUOUS
 62
     3
 10
306.555000003
 20
246.040002695
 11
307.555000003
 21
248.540002695
  0
LINE
  8
0
  6
CONTINUOUS
 62
     3
 10
307.555000003
 20
248.540002695
 11
305.555000003
 21
248.540002695
  0
LINE
  8
0
  6
CONTINUOUS
 62
     3
 10
305.555000003
 20
248.540002695
 11
305.555000003
 21
245.540002695
  0
LINE
  8
0
  6
CONTINUOUS
 62
     3
 10
306.055000003
 20
245.540002695
 11
306.055000003
 21
246.540002695
  0
LINE
  8
0
  6
CONTINUOUS
 62
     3
 10
306.055000003
 20
246.540002695
 11
305.555000003
 21
246.540002695
  0
LINE
  8
0
  6
CONTINUOUS
 62
     3
 10
305.555000003
 20
245.540002695
 11
305.555000003
 21
242.740002695
  0
LINE
  8
0
  6
CONTINUOUS
 62
     3
 10
305.555000003
 20
242.740002695
 11
303.555000003
 21
242.740002695
  0
LINE
  8
0
  6
CONTINUOUS
 62
     3
 10
303.355000003
 20
245.540002695
 11
303.355000003
 21
244.940002695
  0
LINE
  8
0
  6
CONTINUOUS
 62
     3
 10
303.355000003
 20
244.940002695
 11
303.555000003
 21
242.740002695
  0
LINE
  8
0
  6
CONTINUOUS
 62
     3
 10
305.555000003
 20
248.540002695
 11
305.555000003
 21
245.540002695
  0
LINE
  8
0
  6
CONTINUOUS
 62
     3
 10
305.555000003
 20
245.540002695
 11
305.555000003
 21
248.340002695
  0
LINE
  8
0
  6
CONTINUOUS
 62
     3
 10
305.555000003
 20
248.340002695
 11
303.555000003
 21
248.340002695
  0
LINE
  8
0
  6
CONTINUOUS
 62
     3
 10
303.355000003
 20
245.540002695
 11
303.355000003
 21
246.140002695
  0
LINE
  8
0
  6
CONTINUOUS
 62
     3
 10
303.355000003
 20
246.140002695
 11
303.555000003
 21
248.340002695
  0
LINE
  8
0
  6
CONTINUOUS
 62
     3
 10
301.355000003
 20
249.140002695
 11
303.155000003
 21
249.140002695
  0
LINE
  8
0
  6
CONTINUOUS
 62
     3
 10
300.055000003
 20
223.040002695
 11
300.055000003
 21
224.540002695
  0
LINE
  8
0
  6
CONTINUOUS
 62
     3
 10
301.355000003
 20
224.540002695
 11
301.355000003
 21
223.040002695
  0
LINE
  8
0
  6
CONTINUOUS
 62
     3
 10
300.055000003
 20
231.740002695
 11
300.055000003
 21
233.240002695
  0
LINE
  8
0
  6
CONTINUOUS
 62
     3
 10
301.355000003
 20
233.240002695
 11
301.355000003
 21
231.740002695
  0
LINE
  8
0
  6
CONTINUOUS
 62
     3
 10
303.155000003
 20
231.740002695
 11
303.155000003
 21
233.240002695
  0
LINE
  8
0
  6
CONTINUOUS
 62
     3
 10
301.355000003
 20
240.440002695
 11
301.355000003
 21
241.940002695
  0
LINE
  8
0
  6
CONTINUOUS
 62
     3
 10
301.355000003
 20
214.340002695
 11
301.355000003
 21
215.840002695
  0
LINE
  8
0
  6
LTYPE1
 62
     3
 10
303.355000003
 20
250.640002695
 11
298.355000003
 21
250.640002695
  0
LINE
  8
0
  6
CONTINUOUS
 62
     3
 10
300.055000003
 20
249.140002695
 11
300.055000003
 21
250.640002695
  0
LINE
  8
0
  6
CONTINUOUS
 62
     3
 10
301.355000003
 20
250.640002695
 11
301.355000003
 21
249.140002695
  0
LINE
  8
0
  6
LTYPE1
 62
     3
 10
298.355000003
 20
214.340002695
 11
298.355000003
 21
250.640002695
  0
LINE
  8
0
  6
CONTINUOUS
 62
     3
 10
301.355000003
 20
250.640002695
 11
301.355000003
 21
249.140002695
  0
LINE
  8
0
  6
CONTINUOUS
 62
     3
 10
308.055000003
 20
241.940002695
 11
308.055000003
 21
249.140002695
  0
LINE
  8
0
  6
LTYPE1
 62
     3
 10
303.355000003
 20
250.640002695
 11
303.355000003
 21
214.340002695
  0
ARC
  8
0
  6
CONTINUOUS
 62
     1
 10
306.306889268
 20
212.940002695
 40
0.5
 50
164.213321256
 51
270.0
  0
LINE
  8
0
  6
CONTINUOUS
 62
     1
 10
305.80689174
 20
214.340002695
 11
305.80689174
 21
212.938430376
  0
LINE
  8
0
  6
CONTINUOUS
 62
     1
 10
305.80689174
 20
252.041575014
 11
305.80689174
 21
250.640002695
  0
LINE
  8
0
  6
CONTINUOUS
 62
     3
 10
308.755000003
 20
250.640002695
 11
300.055000003
 21
250.640002695
  0
LINE
  8
0
  6
LTYPE1
 62
     3
 10
298.355000003
 20
214.340002695
 11
308.755000003
 21
214.340002695
  0
LINE
  8
0
  6
CONTINUOUS
 62
     3
 10
298.355000003
 20
249.233223034
 11
287.355000003
 21
249.140002695
  0
LINE
  8
0
  6
CONTINUOUS
 62
     3
 10
298.355000003
 20
247.246782356
 11
287.355000003
 21
247.340002695
  0
LINE
  8
0
  6
CONTINUOUS
 62
     3
 10
298.355000003
 20
245.733223034
 11
287.355000003
 21
245.640002695
  0
LINE
  8
0
  6
CONTINUOUS
 62
     3
 10
298.355000003
 20
243.746782356
 11
287.355000003
 21
243.840002695
  0
LINE
  8
0
  6
CONTINUOUS
 62
     3
 10
298.355000003
 20
242.233223034
 11
287.355000003
 21
242.140002695
  0
LINE
  8
0
  6
CONTINUOUS
 62
     3
 10
298.355000003
 20
240.246782356
 11
287.355000003
 21
240.340002695
  0
LINE
  8
0
  6
CONTINUOUS
 62
     3
 10
298.355000003
 20
238.733223034
 11
287.355000003
 21
238.640002695
  0
LINE
  8
0
  6
CONTINUOUS
 62
     3
 10
298.355000003
 20
236.746782356
 11
287.355000003
 21
236.840002695
  0
LINE
  8
0
  6
CONTINUOUS
 62
     3
 10
298.355000003
 20
235.233223034
 11
287.355000003
 21
235.140002695
  0
LINE
  8
0
  6
CONTINUOUS
 62
     3
 10
298.355000003
 20
233.246782356
 11
287.355000003
 21
233.340002695
  0
LINE
  8
0
  6
CONTINUOUS
 62
     3
 10
298.355000003
 20
231.733223034
 11
287.355000003
 21
231.640002695
  0
LINE
  8
0
  6
CONTINUOUS
 62
     3
 10
298.355000003
 20
229.746782356
 11
287.355000003
 21
229.840002695
  0
LINE
  8
0
  6
CONTINUOUS
 62
     3
 10
298.355000003
 20
228.233223034
 11
287.355000003
 21
228.140002695
  0
LINE
  8
0
  6
CONTINUOUS
 62
     3
 10
298.355000003
 20
226.246782356
 11
287.355000003
 21
226.340002695
  0
LINE
  8
0
  6
CONTINUOUS
 62
     3
 10
298.355000003
 20
224.733223034
 11
287.355000003
 21
224.640002695
  0
LINE
  8
0
  6
CONTINUOUS
 62
     3
 10
298.355000003
 20
222.746782356
 11
287.355000003
 21
222.840002695
  0
LINE
  8
0
  6
CONTINUOUS
 62
     3
 10
298.355000003
 20
221.233223034
 11
287.355000003
 21
221.140002695
  0
LINE
  8
0
  6
CONTINUOUS
 62
     3
 10
298.355000003
 20
219.246782356
 11
287.355000003
 21
219.340002695
  0
LINE
  8
0
  6
CONTINUOUS
 62
     3
 10
298.355000003
 20
217.733223034
 11
287.355000003
 21
217.640002695
  0
LINE
  8
0
  6
CONTINUOUS
 62
     3
 10
298.355000003
 20
215.746782356
 11
287.355000003
 21
215.840002695
  0
LINE
  8
0
  6
CONTINUOUS
 62
     5
 10
260.000000002
 20
208.990002695
 11
260.517638092
 21
210.921854348
  0
LINE
  8
0
  6
CONTINUOUS
 62
     5
 10
260.000000002
 20
208.990002695
 11
259.482361911
 21
210.921854348
  0
LINE
  8
0
  6
CONTINUOUS
 62
     5
 10
260.000000002
 20
208.990002695
 11
260.000000002
 21
256.990002695
  0
LINE
  8
0
  6
CONTINUOUS
 62
     5
 10
260.000000002
 20
256.990002695
 11
259.482361911
 21
255.058151042
  0
LINE
  8
0
  6
CONTINUOUS
 62
     5
 10
260.000000002
 20
256.990002695
 11
260.517638092
 21
255.058151042
  0
LINE
  8
0
  6
CONTINUOUS
 62
     5
 10
172.924625005
 20
261.167465195
 11
174.856476658
 21
261.685103285
  0
LINE
  8
0
  6
CONTINUOUS
 62
     5
 10
172.924625005
 20
261.167465195
 11
174.856476658
 21
260.649827105
  0
LINE
  8
0
  6
CONTINUOUS
 62
     5
 10
184.595375005
 20
261.167465195
 11
182.663523352
 21
260.649827105
  0
LINE
  8
0
  6
CONTINUOUS
 62
     5
 10
184.595375005
 20
261.167465195
 11
182.663523352
 21
261.685103285
  0
TEXT
  8
0
  6
CONTINUOUS
 62
     5
 10
174.680000004
 20
261.560002693
 30
0.1
 40
2.0
  1
　１３
 50
0.0
 41
0.8
 51
0.0
  7
KANJI0
  0
TEXT
  8
0
  6
CONTINUOUS
 62
     5
 10
258.962837507
 20
229.282090194
 30
0.1
 40
2.0
  1
　４８
 50
90.0
 41
0.8
 51
0.0
  7
KANJI0
  0
LINE
  8
0
  6
CONTINUOUS
 62
     1
 10
113.915000003
 20
253.000002695
 11
117.915000003
 21
253.000002695
  0
LINE
  8
0
  6
CONTINUOUS
 62
     1
 10
122.715000003
 20
235.500002695
 11
117.915000003
 21
235.500002695
  0
LINE
  8
0
  6
CONTINUOUS
 62
     1
 10
122.715000003
 20
237.000002695
 11
117.915000003
 21
237.000002695
  0
LINE
  8
0
  6
CONTINUOUS
 62
     1
 10
122.715000003
 20
245.000002695
 11
117.915000003
 21
245.000002695
  0
LINE
  8
0
  6
CONTINUOUS
 62
     1
 10
122.715000003
 20
246.500002695
 11
117.915000003
 21
246.500002695
  0
LINE
  8
0
  6
CONTINUOUS
 62
     1
 10
117.915000003
 20
246.500002695
 11
117.915000003
 21
252.000002695
  0
LINE
  8
0
  6
CONTINUOUS
 62
     1
 10
117.915000003
 20
237.000002695
 11
117.915000003
 21
245.000002695
  0
LINE
  8
0
  6
CONTINUOUS
 62
     1
 10
117.915000003
 20
230.000002695
 11
117.915000003
 21
235.500002695
  0
ARC
  8
0
  6
CONTINUOUS
 62
     1
 10
118.415000003
 20
241.000002695
 40
2.5
 50
270.0
 51
90.0
  0
LINE
  8
0
  6
CONTINUOUS
 62
     1
 10
118.415000003
 20
237.500002695
 11
117.915000003
 21
237.500002695
  0
LINE
  8
0
  6
CONTINUOUS
 62
     1
 10
117.915000003
 20
244.500002695
 11
118.415000003
 21
244.500002695
  0
LINE
  8
0
  6
CONTINUOUS
 62
     1
 10
118.415000003
 20
244.500002695
 11
118.415000003
 21
237.500002695
  0
LINE
  8
0
  6
CONTINUOUS
 62
     1
 10
117.915000003
 20
235.000002695
 11
117.915000003
 21
230.000002695
  0
LINE
  8
0
  6
CONTINUOUS
 62
     1
 10
125.915000003
 20
237.000002695
 11
125.915000003
 21
235.500002695
  0
LINE
  8
0
  6
CONTINUOUS
 62
     1
 10
125.915000003
 20
245.000002695
 11
125.915000003
 21
246.500002695
  0
LINE
  8
0
  6
CONTINUOUS
 62
     1
 10
121.315000003
 20
245.000002695
 11
125.915000003
 21
245.000002695
  0
LINE
  8
0
  6
CONTINUOUS
 62
     1
 10
125.915000003
 20
246.500002695
 11
121.315000003
 21
246.500002695
  0
LINE
  8
0
  6
CONTINUOUS
 62
     1
 10
122.715000003
 20
237.000002695
 11
125.915000003
 21
237.000002695
  0
LINE
  8
0
  6
CONTINUOUS
 62
     1
 10
120.865000003
 20
235.500002695
 11
125.915000003
 21
235.500002695
  0
LINE
  8
0
  6
CONTINUOUS
 62
     1
 10
117.915000003
 20
252.000002695
 11
117.915000003
 21
253.000002695
  0
LINE
  8
0
  6
CONTINUOUS
 62
     1
 10
117.915000003
 20
253.000002695
 11
113.915000003
 21
253.000002695
  0
LINE
  8
0
  6
CONTINUOUS
 62
     1
 10
117.915000003
 20
229.100002695
 11
117.915000003
 21
230.100002695
  0
LINE
  8
0
  6
CONTINUOUS
 62
     1
 10
113.915000003
 20
229.000002695
 11
117.915000003
 21
229.000002695
  0
LINE
  8
0
  6
CONTINUOUS
 62
     1
 10
117.915000003
 20
229.000002695
 11
117.915000003
 21
229.400002695
  0
LINE
  8
0
  6
CONTINUOUS
 62
     1
 10
117.915000003
 20
235.000002695
 11
127.875000003
 21
235.000002695
  0
LINE
  8
0
  6
CONTINUOUS
 62
     1
 10
127.875000003
 20
235.000002695
 11
127.875000003
 21
229.500002695
  0
LINE
  8
0
  6
CONTINUOUS
 62
     1
 10
127.875000003
 20
229.500002695
 11
117.915000003
 21
229.500002695
  0
LINE
  8
0
  6
CONTINUOUS
 62
     1
 10
127.875000003
 20
235.000002695
 11
127.875000003
 21
230.550002695
  0
LINE
  8
0
  6
CONTINUOUS
 62
     1
 10
127.875000003
 20
230.550002695
 11
127.875000003
 21
229.070002695
  0
LINE
  8
0
  6
CONTINUOUS
 62
     1
 10
127.875000003
 20
229.070002695
 11
128.875000003
 21
229.070002695
  0
LINE
  8
0
  6
CONTINUOUS
 62
     1
 10
128.875000003
 20
229.070002695
 11
128.875000003
 21
253.070002695
  0
LINE
  8
0
  6
CONTINUOUS
 62
     1
 10
127.875000003
 20
253.070002695
 11
127.875000003
 21
235.000002695
  0
LINE
  8
0
  6
CONTINUOUS
 62
     1
 10
128.875000003
 20
253.070002695
 11
127.875000003
 21
253.070002695
  0
LINE
  8
0
  6
CONTINUOUS
 62
     1
 10
117.915000003
 20
247.000002695
 11
127.915000003
 21
247.000002695
  0
LINE
  8
0
  6
CONTINUOUS
 62
     1
 10
128.885000003
 20
248.560002695
 11
128.885000003
 21
253.060002695
  0
ARC
  8
0
  6
CONTINUOUS
 62
     1
 10
131.265000003
 20
250.310002695
 40
1.75
 50
0.0
 51
180.0
  0
LINE
  8
0
  6
CONTINUOUS
 62
     1
 10
129.990000004
 20
251.510002692
 11
128.870000004
 21
251.510002692
  0
LINE
  8
0
  6
CONTINUOUS
 62
     1
 10
127.875000003
 20
252.470002695
 11
117.915000003
 21
252.470002695
  0
LINE
  8
0
  6
CONTINUOUS
 62
     1
 10
129.990000004
 20
247.960002692
 11
128.870000004
 21
247.960002692
  0
ARC
  8
0
  6
CONTINUOUS
 62
     1
 10
131.250000004
 20
249.240002692
 40
1.75
 50
180.0
 51
0.0
  0
LINE
  8
0
  6
CONTINUOUS
 62
     1
 10
129.515000003
 20
250.310002695
 11
129.500000004
 21
249.240002692
  0
LINE
  8
0
  6
CONTINUOUS
 62
     1
 10
133.015000003
 20
250.310002695
 11
133.000000004
 21
249.240002692
  0
ARC
  8
0
  6
CONTINUOUS
 62
     1
 10
131.265000003
 20
232.840002695
 40
1.75
 50
0.0
 51
180.0
  0
LINE
  8
0
  6
CONTINUOUS
 62
     1
 10
129.990000004
 20
234.040002692
 11
128.870000004
 21
234.040002692
  0
LINE
  8
0
  6
CONTINUOUS
 62
     1
 10
129.990000004
 20
230.490002692
 11
128.870000004
 21
230.490002692
  0
ARC
  8
0
  6
CONTINUOUS
 62
     1
 10
131.250000004
 20
231.770002692
 40
1.75
 50
180.0
 51
0.0
  0
LINE
  8
0
  6
CONTINUOUS
 62
     1
 10
129.515000003
 20
232.840002695
 11
129.500000004
 21
231.770002692
  0
LINE
  8
0
  6
CONTINUOUS
 62
     1
 10
133.015000003
 20
232.840002695
 11
133.000000004
 21
231.770002692
  0
LINE
  8
0
  6
CONTINUOUS
 62
     1
 10
244.585000004
 20
125.700002703
 11
242.000000004
 21
125.700002702
  0
LINE
  8
0
  6
CONTINUOUS
 62
     1
 10
242.000000004
 20
130.000002702
 11
244.585000004
 21
130.000002703
  0
LINE
  8
0
  6
CONTINUOUS
 62
     1
 10
244.585000004
 20
125.700002703
 11
244.585000004
 21
130.000002703
  0
ARC
  8
0
  6
CONTINUOUS
 62
     1
 10
149.000000005
 20
96.700002699
 40
1.0
 50
90.000000001
 51
180.0
  0
LINE
  8
0
  6
CONTINUOUS
 62
     1
 10
148.000000005
 20
96.700002699
 11
148.000000007
 21
50.700002699
  0
ARC
  8
0
  6
CONTINUOUS
 62
     1
 10
149.000000007
 20
50.700002699
 40
1.0
 50
179.999999999
 51
270.0
  0
LINE
  8
0
  6
CONTINUOUS
 62
     1
 10
169.500000007
 20
51.2500027
 11
169.500000007
 21
52.2500027
  0
LINE
  8
0
  6
CONTINUOUS
 62
     1
 10
169.500000007
 20
52.2500027
 11
163.500000007
 21
52.2500027
  0
LINE
  8
0
  6
CONTINUOUS
 62
     1
 10
163.500000007
 20
52.2500027
 11
163.500000007
 21
51.2500027
  0
ARC
  8
0
  6
CONTINUOUS
 62
     1
 10
150.665000007
 20
52.250002699
 40
1.0
 50
180.0
 51
270.0
  0
LINE
  8
0
  6
CONTINUOUS
 62
     1
 10
149.665000005
 20
95.150002699
 11
149.665000007
 21
52.250002699
  0
LINE
  8
0
  6
CONTINUOUS
 62
     1
 10
149.500000007
 20
51.200002699
 11
149.500000005
 21
96.200002699
  0
LINE
  8
0
  6
CONTINUOUS
 62
     1
 10
239.335000005
 20
96.150002703
 11
150.665000005
 21
96.150002699
  0
ARC
  8
0
  6
CONTINUOUS
 62
     1
 10
150.665000005
 20
95.150002699
 40
1.0
 50
90.0
 51
179.999999999
  0
LINE
  8
0
  6
CONTINUOUS
 62
     1
 10
149.500000005
 20
96.200002699
 11
240.500000005
 21
96.200002703
  0
LINE
  8
0
  6
CONTINUOUS
 62
     1
 10
163.500000005
 20
96.1500027
 11
163.500000005
 21
95.1500027
  0
LINE
  8
0
  6
CONTINUOUS
 62
     1
 10
163.500000005
 20
95.1500027
 11
169.500000005
 21
95.1500027
  0
LINE
  8
0
  6
CONTINUOUS
 62
     1
 10
169.500000005
 20
95.1500027
 11
169.500000005
 21
96.1500027
  0
LINE
  8
0
  6
CONTINUOUS
 62
     1
 10
177.415000005
 20
93.4000027
 11
179.015000005
 21
93.4000027
  0
LINE
  8
0
  6
CONTINUOUS
 62
     1
 10
179.015000005
 20
85.4000027
 11
177.415000005
 21
85.4000027
  0
LINE
  8
0
  6
CONTINUOUS
 62
     1
 10
179.515000005
 20
93.9000027
 11
177.415000005
 21
93.9000027
  0
LINE
  8
0
  6
CONTINUOUS
 62
     1
 10
179.515000005
 20
84.9000027
 11
177.415000005
 21
84.9000027
  0
LINE
  8
0
  6
CONTINUOUS
 62
     1
 10
179.015000005
 20
93.4000027
 11
179.015000005
 21
85.4000027
  0
LINE
  8
0
  6
CONTINUOUS
 62
     1
 10
179.515000005
 20
84.9000027
 11
179.515000005
 21
93.9000027
  0
LINE
  8
0
  6
CONTINUOUS
 62
     1
 10
179.515000006
 20
79.4500027
 11
179.515000005
 21
82.9500027
  0
LINE
  8
0
  6
CONTINUOUS
 62
     1
 10
179.515000005
 20
82.9500027
 11
181.415000005
 21
82.9500027
  0
LINE
  8
0
  6
CONTINUOUS
 62
     1
 10
181.415000005
 20
82.9500027
 11
181.415000006
 21
79.4500027
  0
LINE
  8
0
  6
CONTINUOUS
 62
     1
 10
181.415000006
 20
79.4500027
 11
179.515000006
 21
79.4500027
  0
LINE
  8
0
  6
CONTINUOUS
 62
     1
 10
179.515000006
 20
67.9500027
 11
179.515000006
 21
64.4500027
  0
LINE
  8
0
  6
CONTINUOUS
 62
     1
 10
179.515000006
 20
64.4500027
 11
181.415000006
 21
64.4500027
  0
LINE
  8
0
  6
CONTINUOUS
 62
     1
 10
181.415000006
 20
64.4500027
 11
181.415000006
 21
67.9500027
  0
LINE
  8
0
  6
CONTINUOUS
 62
     1
 10
181.415000006
 20
67.9500027
 11
179.515000006
 21
67.9500027
  0
LINE
  8
0
  6
CONTINUOUS
 62
     1
 10
179.015000007
 20
54.0000027
 11
179.015000006
 21
62.0000027
  0
LINE
  8
0
  6
CONTINUOUS
 62
     1
 10
179.015000006
 20
62.0000027
 11
177.415000006
 21
62.0000027
  0
LINE
  8
0
  6
CONTINUOUS
 62
     1
 10
179.515000007
 20
53.5000027
 11
179.515000006
 21
62.5000027
  0
LINE
  8
0
  6
CONTINUOUS
 62
     1
 10
179.515000006
 20
62.5000027
 11
177.415000006
 21
62.5000027
  0
LINE
  8
0
  6
CONTINUOUS
 62
     1
 10
177.415000007
 20
54.0000027
 11
179.015000007
 21
54.0000027
  0
LINE
  8
0
  6
CONTINUOUS
 62
     1
 10
179.515000007
 20
53.5000027
 11
177.415000007
 21
53.5000027
  0
LINE
  8
0
  6
CONTINUOUS
 62
     1
 10
177.415000005
 20
96.1500027
 11
177.415000007
 21
51.2500027
  0
LINE
  8
0
  6
CONTINUOUS
 62
     1
 10
226.500000007
 20
51.250002703
 11
226.500000007
 21
52.250002703
  0
LINE
  8
0
  6
CONTINUOUS
 62
     1
 10
226.500000007
 20
52.250002703
 11
220.500000007
 21
52.250002702
  0
LINE
  8
0
  6
CONTINUOUS
 62
     1
 10
220.500000007
 20
52.250002702
 11
220.500000007
 21
51.250002702
  0
ARC
  8
0
  6
CONTINUOUS
 62
     1
 10
239.335000007
 20
52.250002703
 40
1.0
 50
270.0
 51
0.0
  0
ARC
  8
0
  6
CONTINUOUS
 62
     1
 10
241.000000007
 20
50.700002703
 40
1.0
 50
270.0
 51
0.0
  0
LINE
  8
0
  6
CONTINUOUS
 62
     1
 10
240.335000007
 20
52.250002703
 11
240.335000006
 21
63.700002703
  0
LINE
  8
0
  6
CONTINUOUS
 62
     1
 10
240.500000006
 20
63.700002703
 11
240.500000007
 21
51.200002703
  0
LINE
  8
0
  6
CONTINUOUS
 62
     1
 10
242.000000007
 20
50.700002703
 11
242.000000006
 21
63.700002703
  0
LINE
  8
0
  6
CONTINUOUS
 62
     1
 10
149.000000007
 20
49.700002699
 11
241.000000007
 21
49.700002703
  0
LINE
  8
0
  6
CONTINUOUS
 62
     1
 10
150.665000007
 20
51.250002699
 11
239.335000007
 21
51.250002703
  0
LINE
  8
0
  6
CONTINUOUS
 62
     1
 10
240.500000007
 20
51.200002703
 11
149.500000007
 21
51.200002699
  0
LINE
  8
0
  6
CONTINUOUS
 62
     1
 10
211.085000006
 20
62.450002702
 11
211.085000005
 21
84.950002702
  0
LINE
  8
0
  6
CONTINUOUS
 62
     1
 10
212.585000006
 20
62.350002702
 11
213.585000006
 21
62.350002702
  0
LINE
  8
0
  6
CONTINUOUS
 62
     1
 10
211.085000006
 20
62.450002702
 11
213.585000006
 21
62.450002702
  0
LINE
  8
0
  6
CONTINUOUS
 62
     1
 10
212.585000006
 20
62.350002702
 11
212.585000007
 21
51.250002702
  0
LINE
  8
0
  6
CONTINUOUS
 62
     1
 10
213.585000006
 20
62.350002702
 11
213.585000006
 21
63.600002702
  0
LINE
  8
0
  6
CONTINUOUS
 62
     1
 10
212.585000005
 20
96.150002702
 11
212.585000005
 21
85.050002702
  0
LINE
  8
0
  6
CONTINUOUS
 62
     1
 10
232.485000005
 20
83.800002703
 11
213.585000005
 21
83.800002702
  0
LINE
  8
0
  6
CONTINUOUS
 62
     1
 10
212.585000005
 20
85.050002702
 11
213.585000005
 21
85.050002702
  0
LINE
  8
0
  6
CONTINUOUS
 62
     1
 10
211.085000005
 20
84.950002702
 11
213.585000005
 21
84.950002702
  0
LINE
  8
0
  6
CONTINUOUS
 62
     1
 10
213.585000005
 20
85.050002702
 11
213.585000005
 21
83.800002702
  0
LINE
  8
0
  6
CONTINUOUS
 62
     1
 10
226.500000005
 20
96.150002703
 11
226.500000005
 21
95.150002703
  0
LINE
  8
0
  6
CONTINUOUS
 62
     1
 10
226.500000005
 20
95.150002703
 11
220.500000005
 21
95.150002702
  0
LINE
  8
0
  6
CONTINUOUS
 62
     1
 10
220.500000005
 20
95.150002702
 11
220.500000005
 21
96.150002702
  0
ARC
  8
0
  6
CONTINUOUS
 62
     1
 10
239.335000005
 20
95.150002703
 40
1.0
 50
0.0
 51
90.0
  0
LINE
  8
0
  6
CONTINUOUS
 62
     1
 10
240.335000005
 20
83.700002703
 11
240.335000005
 21
95.150002703
  0
LINE
  8
0
  6
CONTINUOUS
 62
     1
 10
240.500000005
 20
96.200002703
 11
240.500000005
 21
83.700002703
  0
LINE
  8
0
  6
CONTINUOUS
 62
     1
 10
236.485000005
 20
85.050002703
 11
237.735000002
 21
83.800002703
  0
LINE
  8
0
  6
CONTINUOUS
 62
     1
 10
232.485000005
 20
85.050002703
 11
236.485000005
 21
85.050002703
  0
LINE
  8
0
  6
CONTINUOUS
 62
     1
 10
232.485000005
 20
85.050002703
 11
232.485000005
 21
83.800002703
  0
LINE
  8
0
  6
CONTINUOUS
 62
     1
 10
240.335000005
 20
83.800002703
 11
237.735000002
 21
83.800002703
  0
LINE
  8
0
  6
CONTINUOUS
 62
     1
 10
211.467618963
 20
83.700002702
 11
242.000000005
 21
83.700002703
  0
LINE
  8
0
  6
CONTINUOUS
 62
     1
 10
236.485000006
 20
62.350002703
 11
237.735000003
 21
63.600002703
  0
LINE
  8
0
  6
CONTINUOUS
 62
     1
 10
240.335000006
 20
63.600002703
 11
237.735000003
 21
63.600002703
  0
LINE
  8
0
  6
CONTINUOUS
 62
     1
 10
232.485000006
 20
62.350002703
 11
236.485000006
 21
62.350002703
  0
LINE
  8
0
  6
CONTINUOUS
 62
     1
 10
232.485000006
 20
62.350002703
 11
232.485000006
 21
63.600002703
  0
LINE
  8
0
  6
CONTINUOUS
 62
     1
 10
232.485000006
 20
63.600002703
 11
213.585000006
 21
63.600002702
  0
LINE
  8
0
  6
CONTINUOUS
 62
     1
 10
242.000000006
 20
63.700002703
 11
211.467618964
 21
63.700002702
  0
ARC
  8
0
  6
CONTINUOUS
 62
     1
 10
243.585000006
 20
64.700002703
 40
1.0
 50
270.0
 51
0.0
  0
LINE
  8
0
  6
CONTINUOUS
 62
     1
 10
244.585000005
 20
82.700002704
 11
244.585000006
 21
64.700002704
  0
ARC
  8
0
  6
CONTINUOUS
 62
     1
 10
243.585000005
 20
82.700002703
 40
1.0
 50
0.0
 51
90.0
  0
LINE
  8
0
  6
CONTINUOUS
 62
     1
 10
242.000000005
 20
83.700002703
 11
243.585000005
 21
83.700002703
  0
LINE
  8
0
  6
CONTINUOUS
 62
     1
 10
243.585000006
 20
63.700002703
 11
242.000000006
 21
63.700002703
  0
LINE
  8
0
  6
CONTINUOUS
 62
     1
 10
242.000000005
 20
83.700002703
 11
242.000000005
 21
96.700002703
  0
ARC
  8
0
  6
CONTINUOUS
 62
     1
 10
241.000000005
 20
96.700002703
 40
1.0
 50
0.0
 51
90.0
  0
LINE
  8
0
  6
CONTINUOUS
 62
     1
 10
241.000000005
 20
97.700002703
 11
149.000000005
 21
97.700002699
  0
LINE
  8
0
  6
CONTINUOUS
 62
     3
 10
232.485000005
 20
84.950002703
 11
233.735000005
 21
83.700002703
  0
ARC
  8
0
  6
CONTINUOUS
 62
     1
 10
219.835000006
 20
74.700002698
 40
2.0
 50
359.999999999
 51
90.0
  0
LINE
  8
0
  6
CONTINUOUS
 62
     1
 10
219.835000006
 20
76.700002698
 11
217.085000006
 21
76.700002699
  0
ARC
  8
0
  6
CONTINUOUS
 62
     1
 10
217.085000006
 20
74.700002699
 40
2.0
 50
90.0
 51
156.153311249
  0
LINE
  8
0
  6
CONTINUOUS
 62
     1
 10
215.085000006
 20
74.200002699
 11
215.085000006
 21
73.200002699
  0
ARC
  8
0
  6
CONTINUOUS
 62
     1
 10
220.185000006
 20
74.200002698
 40
5.1
 50
90.0
 51
180.0
  0
ARC
  8
0
  6
CONTINUOUS
 62
     1
 10
220.185000006
 20
73.200002699
 40
5.1
 50
180.0
 51
270.0
  0
ARC
  8
0
  6
CONTINUOUS
 62
     1
 10
224.985000006
 20
74.200002698
 40
5.1
 50
0.0
 51
90.0
  0
ARC
  8
0
  6
CONTINUOUS
 62
     1
 10
225.335000006
 20
74.700002698
 40
2.0
 50
90.0
 51
180.0
  0
LINE
  8
0
  6
CONTINUOUS
 62
     1
 10
225.335000006
 20
76.700002698
 11
228.085000006
 21
76.700002698
  0
ARC
  8
0
  6
CONTINUOUS
 62
     1
 10
228.085000006
 20
74.700002698
 40
2.0
 50
23.846688751
 51
90.0
  0
LINE
  8
0
  6
CONTINUOUS
 62
     1
 10
224.985000006
 20
79.300002698
 11
220.185000006
 21
79.300002698
  0
LINE
  8
0
  6
CONTINUOUS
 62
     1
 10
230.085000006
 20
74.200002698
 11
230.085000006
 21
73.200002698
  0
ARC
  8
0
  6
CONTINUOUS
 62
     1
 10
224.985000006
 20
73.200002698
 40
5.1
 50
270.0
 51
0.0
  0
LINE
  8
0
  6
CONTINUOUS
 62
     1
 10
221.435000006
 20
69.650002698
 11
221.435000006
 21
70.650002698
  0
LINE
  8
0
  6
CONTINUOUS
 62
     1
 10
223.735000006
 20
69.650002698
 11
223.735000006
 21
70.650002698
  0
ARC
  8
0
  6
CONTINUOUS
 62
     1
 10
222.585000006
 20
70.150002698
 40
1.1
 50
132.98588608
 51
47.01411392
  0
ARC
  8
0
  6
CONTINUOUS
 62
     1
 10
222.585000006
 20
70.650002698
 40
1.15
 50
130.705706831
 51
180.0
  0
ARC
  8
0
  6
CONTINUOUS
 62
     1
 10
222.585000006
 20
70.650002698
 40
1.15
 50
0.0
 51
49.294293169
  0
LINE
  8
0
  6
CONTINUOUS
 62
     1
 10
221.835000006
 20
74.700002698
 11
221.835000006
 21
70.954676545
  0
LINE
  8
0
  6
CONTINUOUS
 62
     1
 10
223.335000006
 20
70.954676545
 11
223.335000006
 21
74.700002698
  0
LINE
  8
0
  6
CONTINUOUS
 62
     1
 10
220.185000006
 20
68.100002699
 11
224.985000006
 21
68.100002698
  0
ARC
  8
0
  6
CONTINUOUS
 62
     1
 10
222.585000006
 20
69.650002698
 40
1.15
 50
180.0
 51
0.0
  0
LINE
  8
0
  6
CONTINUOUS
 62
     5
 10
250.000000004
 20
125.700002703
 11
249.482361914
 21
123.76815105
  0
LINE
  8
0
  6
CONTINUOUS
 62
     5
 10
250.000000004
 20
125.700002703
 11
250.517638094
 21
123.76815105
  0
LINE
  8
0
  6
CONTINUOUS
 62
     5
 10
250.000000004
 20
122.700002703
 11
250.000000004
 21
125.700002703
  0
LINE
  8
0
  6
CONTINUOUS
 62
     5
 10
250.000000004
 20
125.700002703
 11
250.000000004
 21
130.000002703
  0
LINE
  8
0
  6
CONTINUOUS
 62
     5
 10
250.000000004
 20
130.000002703
 11
250.000000004
 21
139.000002703
  0
LINE
  8
0
  6
CONTINUOUS
 62
     5
 10
250.000000004
 20
130.000002703
 11
250.517638094
 21
131.931854355
  0
LINE
  8
0
  6
CONTINUOUS
 62
     5
 10
250.000000004
 20
130.000002703
 11
249.482361914
 21
131.931854355
  0
LINE
  8
0
  6
CONTINUOUS
 62
     5
 10
260.000000004
 20
125.700002703
 11
260.517638094
 21
127.631854355
  0
LINE
  8
0
  6
CONTINUOUS
 62
     5
 10
260.000000004
 20
125.700002703
 11
259.482361914
 21
127.631854355
  0
LINE
  8
0
  6
CONTINUOUS
 62
     5
 10
260.000000004
 20
125.700002703
 11
260.000000004
 21
166.500002702
  0
LINE
  8
0
  6
CONTINUOUS
 62
     5
 10
260.000000004
 20
166.500002702
 11
259.482361914
 21
164.568151049
  0
LINE
  8
0
  6
CONTINUOUS
 62
     5
 10
260.000000004
 20
166.500002702
 11
260.517638094
 21
164.568151049
  0
LINE
  8
0
  6
CONTINUOUS
 62
     5
 10
255.000000004
 20
63.700002703
 11
255.517638094
 21
65.631854356
  0
LINE
  8
0
  6
CONTINUOUS
 62
     5
 10
255.000000004
 20
63.700002703
 11
254.482361914
 21
65.631854356
  0
LINE
  8
0
  6
CONTINUOUS
 62
     5
 10
255.000000004
 20
63.700002703
 11
255.000000004
 21
83.700002703
  0
LINE
  8
0
  6
CONTINUOUS
 62
     5
 10
255.000000004
 20
83.700002703
 11
254.482361914
 21
81.768151051
  0
LINE
  8
0
  6
CONTINUOUS
 62
     5
 10
255.000000004
 20
83.700002703
 11
255.517638094
 21
81.768151051
  0
LINE
  8
0
  6
CONTINUOUS
 62
     5
 10
260.000000004
 20
49.700002703
 11
260.517638094
 21
51.631854356
  0
LINE
  8
0
  6
CONTINUOUS
 62
     5
 10
260.000000004
 20
49.700002703
 11
259.482361914
 21
51.631854356
  0
LINE
  8
0
  6
CONTINUOUS
 62
     5
 10
260.000000004
 20
49.700002703
 11
260.000000004
 21
97.700002703
  0
LINE
  8
0
  6
CONTINUOUS
 62
     5
 10
260.000000004
 20
97.700002703
 11
259.482361914
 21
95.768151051
  0
LINE
  8
0
  6
CONTINUOUS
 62
     5
 10
260.000000004
 20
97.700002703
 11
260.517638094
 21
95.768151051
  0
POINT
  8
0
  6
CONTINUOUS
 62
     3
 10
239.000000004
 20
145.100002702
  0
LINE
  8
0
  6
CONTINUOUS
 62
     3
 10
241.849110854
 20
142.109197716
 11
242.000000004
 21
125.700002702
  0
ARC
  8
0
  6
CONTINUOUS
 62
     3
 10
149.150846879
 20
142.100002702
 40
1.0
 50
90.0
 51
179.473157106
  0
LINE
  8
0
  6
CONTINUOUS
 62
     3
 10
177.400000004
 20
130.200002702
 11
177.000000004
 21
125.700002702
  0
LINE
  8
0
  6
CONTINUOUS
 62
     3
 10
212.600000004
 20
130.200002702
 11
213.000000004
 21
125.700002702
  0
LINE
  8
0
  6
CONTINUOUS
 62
     3
 10
212.600000004
 20
130.200002702
 11
177.400000004
 21
130.200002702
  0
LINE
  8
0
  6
CONTINUOUS
 62
     3
 10
149.500000004
 20
144.600002702
 11
149.500000004
 21
143.100002702
  0
ARC
  8
0
  6
CONTINUOUS
 62
     3
 10
150.000000004
 20
144.600002702
 40
0.5
 50
89.999890717
 51
180.0
  0
LINE
  8
0
  6
LTYPE1
 62
     1
 10
195.000000004
 20
124.221774135
 11
195.000000004
 21
123.070002702
  0
LINE
  8
0
  6
CONTINUOUS
 62
     3
 10
240.500000004
 20
143.100002702
 11
240.500000004
 21
144.600002702
  0
ARC
  8
0
  6
CONTINUOUS
 62
     3
 10
240.000000004
 20
144.600002702
 40
0.5
 50
0.0
 51
90.0
  0
LINE
  8
0
  6
CONTINUOUS
 62
     3
 10
239.000000004
 20
145.100002702
 11
239.000000004
 21
143.100002702
  0
LINE
  8
0
  6
CONTINUOUS
 62
     3
 10
240.000000004
 20
145.100002702
 11
239.000000004
 21
145.100002702
  0
POINT
  8
0
  6
CONTINUOUS
 62
     3
 10
151.000000004
 20
145.100002702
  0
LINE
  8
0
  6
CONTINUOUS
 62
     3
 10
151.000000004
 20
145.100002702
 11
151.000000004
 21
143.100002702
  0
LINE
  8
0
  6
CONTINUOUS
 62
     3
 10
150.000000004
 20
145.100002702
 11
151.000000004
 21
145.100002702
  0
LINE
  8
0
  6
CONTINUOUS
 62
     1
 10
212.600000004
 20
130.200002702
 11
177.400000004
 21
130.200002701
  0
LINE
  8
0
  6
CONTINUOUS
 62
     1
 10
211.085000004
 20
128.200002702
 11
211.085000004
 21
128.700002702
  0
LINE
  8
0
  6
CONTINUOUS
 62
     1
 10
212.585000004
 20
128.900002702
 11
212.585000004
 21
130.000002702
  0
LINE
  8
0
  6
CONTINUOUS
 62
     1
 10
213.000000004
 20
125.700002702
 11
212.600000004
 21
130.200002702
  0
LINE
  8
0
  6
CONTINUOUS
 62
     1
 10
211.085000004
 20
128.700002702
 11
212.585000004
 21
128.900002702
  0
LINE
  8
0
  6
CONTINUOUS
 62
     1
 10
179.000000004
 20
129.000002701
 11
177.389526587
 21
129.000002701
  0
LINE
  8
0
  6
CONTINUOUS
 62
     1
 10
177.389526587
 20
129.000002701
 11
177.400000004
 21
130.200002701
  0
LINE
  8
0
  6
CONTINUOUS
 62
     1
 10
179.000000004
 20
127.500002701
 11
179.000000004
 21
129.000002701
  0
LINE
  8
0
  6
CONTINUOUS
 62
     1
 10
177.362474472
 20
125.900002701
 11
177.017777782
 21
125.900002701
  0
LINE
  8
0
  6
CONTINUOUS
 62
     1
 10
177.400000004
 20
130.200002701
 11
177.000000004
 21
125.700002701
  0
LINE
  8
0
  6
CONTINUOUS
 62
     1
 10
177.362474472
 20
125.900002701
 11
179.000000004
 21
127.500002701
  0
LINE
  8
0
  6
LTYPE1
 62
     1
 10
195.000000004
 20
168.891774135
 11
195.000000004
 21
133.510002702
  0
LINE
  8
0
  6
CONTINUOUS
 62
     3
 10
238.989526587
 20
150.600002701
 11
239.989526587
 21
150.600002701
  0
LINE
  8
0
  6
CONTINUOUS
 62
     3
 10
229.689526587
 20
152.400002701
 11
239.989526587
 21
152.400002701
  0
LINE
  8
0
  6
CONTINUOUS
 62
     3
 10
238.989526587
 20
145.700002701
 11
236.489526587
 21
145.700002701
  0
LINE
  8
0
  6
CONTINUOUS
 62
     3
 10
231.189526587
 20
152.400002701
 11
231.189526587
 21
153.700002701
  0
LINE
  8
0
  6
CONTINUOUS
 62
     3
 10
231.189526587
 20
153.700002701
 11
232.189526587
 21
153.700002701
  0
LINE
  8
0
  6
CONTINUOUS
 62
     3
 10
232.189526587
 20
153.700002701
 11
232.189526587
 21
152.400002701
  0
LINE
  8
0
  6
CONTINUOUS
 62
     3
 10
239.989526587
 20
150.600002701
 11
239.989526587
 21
152.400002701
  0
LINE
  8
0
  6
LTYPE1
 62
     3
 10
230.189526587
 20
152.400002701
 11
230.189526587
 21
155.400002701
  0
LINE
  8
0
  6
LTYPE1
 62
     3
 10
230.189526587
 20
155.400002701
 11
239.989526587
 21
155.400002701
  0
LINE
  8
0
  6
LTYPE1
 62
     3
 10
239.989526587
 20
155.400002701
 11
240.989526587
 21
155.100002701
  0
LINE
  8
0
  6
LTYPE1
 62
     3
 10
240.989526587
 20
150.400002701
 11
240.989526587
 21
155.100002701
  0
LINE
  8
0
  6
LTYPE1
 62
     3
 10
238.989526587
 20
150.400002701
 11
240.989526587
 21
150.400002701
  0
LINE
  8
0
  6
CONTINUOUS
 62
     3
 10
231.689526587
 20
145.700002701
 11
231.689526587
 21
143.100002702
  0
LINE
  8
0
  6
CONTINUOUS
 62
     3
 10
236.489526587
 20
145.700002701
 11
236.489526587
 21
143.100002702
  0
LINE
  8
0
  6
CONTINUOUS
 62
     3
 10
238.989526587
 20
143.100002702
 11
238.989526587
 21
150.600002701
  0
LINE
  8
0
  6
CONTINUOUS
 62
     3
 10
229.689526587
 20
152.400002701
 11
229.689526587
 21
148.100002702
  0
LINE
  8
0
  6
CONTINUOUS
 62
     3
 10
238.989526587
 20
145.700002701
 11
231.350000004
 21
145.700002701
  0
LINE
  8
0
  6
CONTINUOUS
 62
     3
 10
230.689526587
 20
152.400002701
 11
230.689526587
 21
148.100002702
  0
ARC
  8
0
  6
CONTINUOUS
 62
     1
 10
149.155322934
 20
142.100002702
 40
1.0
 50
90.0
 51
180.0
  0
POINT
  8
0
  6
CONTINUOUS
 62
     3
 10
151.000000004
 20
145.100002702
  0
ARC
  8
0
  6
CONTINUOUS
 62
     3
 10
149.150846879
 20
142.100002702
 40
1.0
 50
90.0
 51
179.473157106
  0
LINE
  8
0
  6
CONTINUOUS
 62
     3
 10
149.500000004
 20
143.100002702
 11
149.500000004
 21
144.600002702
  0
ARC
  8
0
  6
CONTINUOUS
 62
     3
 10
150.000000004
 20
144.600002702
 40
0.5
 50
90.0
 51
180.0
  0
LINE
  8
0
  6
CONTINUOUS
 62
     3
 10
151.000000004
 20
145.100002702
 11
151.000000004
 21
143.100002702
  0
LINE
  8
0
  6
CONTINUOUS
 62
     3
 10
150.000000004
 20
145.100002702
 11
151.000000004
 21
145.100002702
  0
LINE
  8
0
  6
CONTINUOUS
 62
     3
 10
151.010473421
 20
150.600002701
 11
150.010473421
 21
150.600002701
  0
LINE
  8
0
  6
CONTINUOUS
 62
     3
 10
160.310473421
 20
152.400002701
 11
150.010473421
 21
152.400002701
  0
LINE
  8
0
  6
CONTINUOUS
 62
     3
 10
151.010473421
 20
145.700002701
 11
153.510473421
 21
145.700002701
  0
LINE
  8
0
  6
CONTINUOUS
 62
     3
 10
158.810473421
 20
152.400002701
 11
158.810473421
 21
153.700002701
  0
LINE
  8
0
  6
CONTINUOUS
 62
     3
 10
158.810473421
 20
153.700002701
 11
157.810473421
 21
153.700002701
  0
LINE
  8
0
  6
CONTINUOUS
 62
     3
 10
157.810473421
 20
153.700002701
 11
157.810473421
 21
152.400002701
  0
LINE
  8
0
  6
CONTINUOUS
 62
     3
 10
150.010473421
 20
150.600002701
 11
150.010473421
 21
152.400002701
  0
LINE
  8
0
  6
LTYPE1
 62
     3
 10
159.810473421
 20
152.400002701
 11
159.810473421
 21
155.400002701
  0
LINE
  8
0
  6
LTYPE1
 62
     3
 10
159.810473421
 20
155.400002701
 11
150.010473421
 21
155.400002701
  0
LINE
  8
0
  6
LTYPE1
 62
     3
 10
150.010473421
 20
155.400002701
 11
149.010473421
 21
155.100002701
  0
LINE
  8
0
  6
LTYPE1
 62
     3
 10
149.010473421
 20
150.400002701
 11
149.010473421
 21
155.100002701
  0
LINE
  8
0
  6
LTYPE1
 62
     3
 10
151.010473421
 20
150.400002701
 11
149.010473421
 21
150.400002701
  0
LINE
  8
0
  6
CONTINUOUS
 62
     3
 10
151.000000004
 20
143.100002702
 11
149.150846879
 21
143.100002702
  0
LINE
  8
0
  6
CONTINUOUS
 62
     3
 10
162.614673917
 20
143.100002702
 11
151.000000004
 21
143.100002702
  0
LINE
  8
0
  6
CONTINUOUS
 62
     3
 10
158.310473421
 20
145.700002701
 11
158.310473421
 21
143.100002702
  0
LINE
  8
0
  6
CONTINUOUS
 62
     3
 10
153.510473421
 20
145.700002701
 11
153.510473421
 21
143.100002702
  0
LINE
  8
0
  6
CONTINUOUS
 62
     3
 10
151.010473421
 20
143.100002702
 11
151.010473421
 21
150.600002701
  0
LINE
  8
0
  6
CONTINUOUS
 62
     3
 10
160.310473421
 20
152.400002701
 11
160.310473421
 21
148.100002702
  0
LINE
  8
0
  6
CONTINUOUS
 62
     3
 10
151.010473421
 20
145.700002701
 11
158.650000004
 21
145.700002701
  0
LINE
  8
0
  6
CONTINUOUS
 62
     3
 10
159.310473421
 20
152.400002701
 11
159.310473421
 21
148.100002702
  0
LINE
  8
0
  6
CONTINUOUS
 62
     3
 10
162.650000004
 20
148.100002702
 11
159.150000004
 21
148.100002702
  0
LINE
  8
0
  6
CONTINUOUS
 62
     1
 10
177.000000004
 20
125.700002702
 11
148.000000004
 21
125.700002702
  0
LINE
  8
0
  6
CONTINUOUS
 62
     1
 10
148.150889154
 20
142.109197716
 11
148.000000004
 21
125.700002702
  0
LINE
  8
0
  6
CONTINUOUS
 62
     1
 10
149.160000004
 20
143.100002702
 11
162.614673917
 21
143.100002702
  0
ARC
  8
0
  6
CONTINUOUS
 62
     1
 10
149.160000004
 20
142.100002702
 40
1.0
 50
90.0
 51
180.0
  0
LINE
  8
0
  6
CONTINUOUS
 62
     1
 10
162.614673917
 20
143.100002702
 11
162.772984703
 21
165.507067744
  0
ARC
  8
0
  6
CONTINUOUS
 62
     1
 10
163.772959745
 20
165.500002702
 40
1.0
 50
90.0
 51
179.595199598
  0
LINE
  8
0
  6
CONTINUOUS
 62
     1
 10
163.772959745
 20
166.500002702
 11
195.000000004
 21
166.500002702
  0
LINE
  8
0
  6
CONTINUOUS
 62
     1
 10
226.227040263
 20
166.500002702
 11
195.000000004
 21
166.500002702
  0
LINE
  8
0
  6
CONTINUOUS
 62
     1
 10
227.385326091
 20
143.100002702
 11
227.227015305
 21
165.507067744
  0
LINE
  8
0
  6
CONTINUOUS
 62
     1
 10
227.385326091
 20
143.100002702
 11
239.000000004
 21
143.100002702
  0
LINE
  8
0
  6
CONTINUOUS
 62
     1
 10
242.000000004
 20
125.700002702
 11
241.844677074
 21
142.100002702
  0
ARC
  8
0
  6
CONTINUOUS
 62
     1
 10
240.844677074
 20
142.100002702
 40
1.0
 50
0.0
 51
90.0
  0
ARC
  8
0
  6
CONTINUOUS
 62
     1
 10
240.84915313
 20
142.100002702
 40
1.0
 50
0.526842894
 51
90.0
  0
LINE
  8
0
  6
CONTINUOUS
 62
     1
 10
239.000000004
 20
143.100002702
 11
240.84915313
 21
143.100002702
  0
LINE
  8
0
  6
CONTINUOUS
 62
     1
 10
213.000000004
 20
125.700002701
 11
242.000000004
 21
125.700002702
  0
LINE
  8
0
  6
CONTINUOUS
 62
     1
 10
242.000000004
 20
125.700002702
 11
213.000000004
 21
125.700002702
  0
LINE
  8
0
  6
CONTINUOUS
 62
     1
 10
211.085000004
 20
128.200002702
 11
212.925047681
 21
126.543216331
  0
POLYLINE
  8
0
  6
CONTINUOUS
 62
     1
 66
     1
  0
VERTEX
  8
0
  6
CONTINUOUS
 62
     1
 10
221.250000004
 20
130.200002702
  0
VERTEX
  8
0
  6
CONTINUOUS
 62
     1
 10
225.750000004
 20
130.200002702
  0
VERTEX
  8
0
  6
CONTINUOUS
 62
     1
 10
225.750000004
 20
127.700002702
  0
SEQEND
  0
LINE
  8
0
  6
CONTINUOUS
 62
     1
 10
221.250000004
 20
127.700002702
 11
221.250000004
 21
130.200002702
  0
LINE
  8
0
  6
CONTINUOUS
 62
     1
 10
225.750000004
 20
127.700002702
 11
221.250000004
 21
127.700002702
  0
POLYLINE
  8
0
  6
CONTINUOUS
 62
     1
 66
     1
 70
     1
  0
VERTEX
  8
0
  6
CONTINUOUS
 62
     1
 10
164.250000004
 20
130.200002702
  0
VERTEX
  8
0
  6
CONTINUOUS
 62
     1
 10
168.750000004
 20
130.200002702
  0
VERTEX
  8
0
  6
CONTINUOUS
 62
     1
 10
168.750000004
 20
127.700002702
  0
VERTEX
  8
0
  6
CONTINUOUS
 62
     1
 10
164.250000004
 20
127.700002702
  0
SEQEND
  0
LINE
  8
0
  6
CONTINUOUS
 62
     1
 10
160.310473421
 20
148.100002702
 11
162.650000004
 21
148.100002702
  0
LINE
  8
0
  6
CONTINUOUS
 62
     1
 10
158.650000004
 20
147.600002702
 11
158.650000004
 21
143.100002702
  0
ARC
  8
0
  6
CONTINUOUS
 62
     1
 10
159.150000004
 20
147.600002702
 40
0.5
 50
90.0
 51
180.0
  0
LINE
  8
0
  6
CONTINUOUS
 62
     1
 10
229.689526587
 20
148.100002702
 11
227.350000004
 21
148.100002702
  0
LINE
  8
0
  6
CONTINUOUS
 62
     1
 10
227.350000004
 20
148.100002702
 11
230.850000004
 21
148.100002702
  0
ARC
  8
0
  6
CONTINUOUS
 62
     1
 10
230.850000004
 20
147.600002702
 40
0.5
 50
0.0
 51
90.0
  0
LINE
  8
0
  6
CONTINUOUS
 62
     1
 10
231.350000004
 20
147.600002702
 11
231.350000004
 21
143.100002702
  0
LINE
  8
0
  6
LTYPE1
 62
     1
 10
195.000000004
 20
133.510002702
 11
195.000000004
 21
124.221774135
  0
ARC
  8
0
  6
CONTINUOUS
 62
     1
 10
226.227040263
 20
165.500002702
 40
1.0
 50
0.404800402
 51
90.0
  0
LINE
  8
0
  6
CONTINUOUS
 62
     1
 10
195.000000004
 20
172.791774135
 11
195.000000004
 21
169.961774135
  0
LINE
  8
0
  6
CONTINUOUS
 62
     5
 10
177.100000004
 20
115.300002701
 11
179.51481457
 21
115.947050314
  0
LINE
  8
0
  6
CONTINUOUS
 62
     5
 10
177.100000004
 20
115.300002701
 11
179.51481457
 21
114.652955089
  0
LINE
  8
0
  6
CONTINUOUS
 62
     5
 10
213.100000004
 20
115.300002701
 11
210.685185438
 21
114.652955089
  0
LINE
  8
0
  6
CONTINUOUS
 62
     5
 10
213.100000004
 20
115.300002701
 11
210.685185438
 21
115.947050314
  0
LINE
  8
0
  6
CONTINUOUS
 62
     5
 10
213.100000004
 20
115.300002701
 11
177.100000004
 21
115.300002701
  0
LINE
  8
0
  6
CONTINUOUS
 62
     5
 10
213.100000004
 20
123.700002702
 11
213.100000004
 21
113.300002701
  0
LINE
  8
0
  6
CONTINUOUS
 62
     5
 10
177.100000004
 20
123.700002702
 11
177.100000004
 21
113.300002701
  0
LINE
  8
0
  6
CONTINUOUS
 62
     1
 10
214.083653794
 20
63.700002702
 11
214.083653793
 21
83.700002702
  0
LINE
  8
0
  6
CONTINUOUS
 62
     1
 10
211.467618963
 20
84.950002702
 11
211.467618963
 21
83.700002702
  0
LINE
  8
0
  6
CONTINUOUS
 62
     1
 10
213.085000005
 20
85.050002702
 11
213.085000005
 21
96.150002702
  0
LINE
  8
0
  6
CONTINUOUS
 62
     1
 10
232.485000006
 20
62.450002703
 11
233.735000006
 21
63.700002703
  0
LINE
  8
0
  6
CONTINUOUS
 62
     1
 10
211.467618964
 20
62.450002702
 11
211.467618964
 21
63.700002702
  0
LINE
  8
0
  6
CONTINUOUS
 62
     1
 10
213.085000006
 20
62.350002702
 11
213.085000007
 21
51.250002702
  0
TEXT
  8
0
  6
CONTINUOUS
 62
     5
 10
258.900000004
 20
142.580002702
 30
0.1
 40
2.0
  1
　４１
 50
90.0
 41
0.8
 51
0.0
  7
KANJI0
  0
TEXT
  8
0
  6
CONTINUOUS
 62
     5
 10
249.230000004
 20
131.480002703
 30
0.1
 40
2.0
  1
　４．５
 50
90.0
 41
0.8
 51
0.0
  7
KANJI0
  0
TEXT
  8
0
  6
CONTINUOUS
 62
     5
 10
258.580000004
 20
70.360002702
 30
0.1
 40
2.0
  1
　４８
 50
90.0
 41
0.8
 51
0.0
  7
KANJI0
  0
TEXT
  8
0
  6
CONTINUOUS
 62
     5
 10
253.590000004
 20
70.310002702
 30
0.1
 40
2.0
  1
　２０
 50
90.0
 41
0.8
 51
0.0
  7
KANJI0
  0
LINE
  8
0
  6
CONTINUOUS
 62
     1
 10
172.804080523
 20
171.500002695
 11
172.804080523
 21
167.500002695
  0
LINE
  8
0
  6
CONTINUOUS
 62
     1
 10
172.804080523
 20
179.500002695
 11
172.804080523
 21
171.500002695
  0
LINE
  8
0
  6
CONTINUOUS
 62
     1
 10
172.804080523
 20
171.500002695
 11
185.804080523
 21
171.500002695
  0
LINE
  8
0
  6
CONTINUOUS
 62
     1
 10
172.804080523
 20
171.500002695
 11
185.804080523
 21
171.500002695
  0
LINE
  8
0
  6
CONTINUOUS
 62
     1
 10
185.804080523
 20
171.500002695
 11
185.804080523
 21
167.400002695
  0
LINE
  8
0
  6
CONTINUOUS
 62
     1
 10
185.804080523
 20
171.500002695
 11
185.804080523
 21
179.500002695
  0
LINE
  8
0
  6
CONTINUOUS
 62
     1
 10
185.804080523
 20
179.500002695
 11
172.804080523
 21
179.500002695
  0
LINE
  8
0
  6
CONTINUOUS
 62
     1
 10
164.227040263
 20
167.500002702
 11
226.227040263
 21
167.500002702
  0
LINE
  8
0
  6
CONTINUOUS
 62
     1
 10
179.304080523
 20
179.500002695
 11
176.554080523
 21
179.500002695
  0
LINE
  8
0
  6
CONTINUOUS
 62
     1
 10
176.554080523
 20
179.500002695
 11
176.554080523
 21
181.500002695
  0
LINE
  8
0
  6
CONTINUOUS
 62
     1
 10
182.054080523
 20
181.500002695
 11
182.054080523
 21
179.500002695
  0
LINE
  8
0
  6
CONTINUOUS
 62
     1
 10
182.054080523
 20
181.500002695
 11
185.704080523
 21
181.500002695
  0
LINE
  8
0
  6
CONTINUOUS
 62
     1
 10
172.804080523
 20
181.500002695
 11
182.054080523
 21
181.500002695
  0
LINE
  8
0
  6
CONTINUOUS
 62
     1
 10
185.704080523
 20
181.500002695
 11
185.704080523
 21
182.500002695
  0
LINE
  8
0
  6
CONTINUOUS
 62
     1
 10
185.704080523
 20
182.500002695
 11
172.704080523
 21
182.500002695
  0
LINE
  8
0
  6
CONTINUOUS
 62
     1
 10
172.704080523
 20
182.500002695
 11
172.704080523
 21
181.500002695
  0
LINE
  8
0
  6
CONTINUOUS
 62
     1
 10
180.309080521
 20
183.150002695
 11
179.239080518
 21
183.165002694
  0
ARC
  8
0
  6
CONTINUOUS
 62
     1
 10
179.779080521
 20
184.900002695
 40
1.75
 50
270.0
 51
90.0
  0
ARC
  8
0
  6
CONTINUOUS
 62
     1
 10
178.709080518
 20
184.915002694
 40
1.75
 50
90.0
 51
270.0
  0
LINE
  8
0
  6
CONTINUOUS
 62
     1
 10
179.779080521
 20
186.650002695
 11
178.709080518
 21
186.665002694
  0
LINE
  8
0
  6
CONTINUOUS
 62
     1
 10
178.709080518
 20
183.165002694
 11
179.239080518
 21
183.165002694
  0
LINE
  8
0
  6
CONTINUOUS
 62
     1
 10
178.779080521
 20
186.650002695
 11
179.779080521
 21
186.650002695
  0
LINE
  8
0
  6
CONTINUOUS
 62
     1
 10
176.554080523
 20
179.500002695
 11
176.584080523
 21
167.440002695
  0
LINE
  8
0
  6
CONTINUOUS
 62
     1
 10
182.054080523
 20
179.500002695
 11
182.054080523
 21
167.570002695
  0
LINE
  8
0
  6
CONTINUOUS
 62
     1
 10
176.554080523
 20
181.500002695
 11
179.334080523
 21
180.830002695
  0
LINE
  8
0
  6
CONTINUOUS
 62
     1
 10
179.334080523
 20
180.830002695
 11
182.054080523
 21
181.500002695
  0
LINE
  8
0
  6
CONTINUOUS
 62
     1
 10
179.334080523
 20
180.830002695
 11
179.334080523
 21
168.370002695
  0
LINE
  8
0
  6
CONTINUOUS
 62
     1
 10
176.584080523
 20
167.440002695
 11
179.334080523
 21
168.370002695
  0
LINE
  8
0
  6
CONTINUOUS
 62
     1
 10
179.334080523
 20
168.370002695
 11
182.054080523
 21
167.570002695
  0
LINE
  8
0
  6
CONTINUOUS
 62
     1
 10
226.227040263
 20
167.500002702
 11
226.227040263
 21
166.500002702
  0
LINE
  8
0
  6
CONTINUOUS
 62
     1
 10
164.227040263
 20
167.500002702
 11
164.227040263
 21
166.560002702
  0
LINE
  8
0
  6
CONTINUOUS
 62
     1
 10
181.471851657
 20
184.787640789
 11
181.531851657
 21
182.467640789
  0
LINE
  8
0
  6
CONTINUOUS
 62
     1
 10
176.891851657
 20
184.787640789
 11
176.891851657
 21
182.537640789
  0
TEXT
  8
0
  6
CONTINUOUS
 62
     5
 10
191.050000004
 20
116.300002701
 30
0.1
 40
2.0
  1
３５．４
 50
0.0
 41
0.8
 51
0.0
  7
KANJI0
  0
LINE
  8
0
  6
CONTINUOUS
 62
     5
 10
182.414999998
 20
186.619999993
 11
275.66
 21
186.619999993
  0
POLYLINE
  8
0
  6
CONTINUOUS
 62
     5
 66
     1
  0
VERTEX
  8
0
  6
CONTINUOUS
 62
     5
 10
273.06
 20
125.67
  0
VERTEX
  8
0
  6
CONTINUOUS
 62
     5
 10
273.06
 20
186.619999993
  0
VERTEX
  8
0
  6
CONTINUOUS
 62
     5
 10
272.412952387
 20
184.205185427
  0
SEQEND
  0
LINE
  8
0
  6
CONTINUOUS
 62
     5
 10
273.06
 20
186.619999993
 11
273.707047613
 21
184.205185427
  0
TEXT
  8
0
  6
CONTINUOUS
 62
     5
 10
271.039999999
 20
145.91
 30
0.1
 40
2.0
  1
　　　　　　６１
 50
90.0
 41
0.8
 51
0.0
  7
KANJI0
  0
LINE
  8
0
  6
CONTINUOUS
 62
     5
 10
273.06
 20
125.67
 11
273.57763809
 21
127.601851653
  0
LINE
  8
0
  6
CONTINUOUS
 62
     5
 10
273.06
 20
125.67
 11
272.54236191
 21
127.601851653
  0
LINE
  8
0
  6
CONTINUOUS
 62
     5
 10
273.06
 20
186.619999993
 11
272.54236191
 21
184.68814834
  0
LINE
  8
0
  6
CONTINUOUS
 62
     5
 10
273.06
 20
186.619999993
 11
273.57763809
 21
184.68814834
  0
LINE
  8
0
  6
CONTINUOUS
 62
     5
 10
244.585000004
 20
195.000002695
 11
244.585000004
 21
222.000002695
  0
LINE
  8
0
  6
CONTINUOUS
 62
     5
 10
244.585000004
 20
195.000002695
 11
244.585000004
 21
222.000002695
  0
LINE
  8
0
  6
CONTINUOUS
 62
     5
 10
244.585000004
 20
195.000002695
 11
244.585000004
 21
222.000002695
  0
LINE
  8
0
  6
CONTINUOUS
 62
     5
 10
243.000000002
 20
256.990002695
 11
261.000000002
 21
256.990002695
  0
LINE
  8
0
  6
CONTINUOUS
 62
     5
 10
243.000000005
 20
208.990002695
 11
261.000000002
 21
208.990002695
  0
LINE
  8
0
  6
CONTINUOUS
 62
     5
 10
162.600000005
 20
259.200006506
 11
162.600000004
 21
267.500002692
  0
LINE
  8
0
  6
CONTINUOUS
 62
     5
 10
227.400000005
 20
259.000002695
 11
227.400000004
 21
267.500002694
  0
LINE
  8
0
  6
CONTINUOUS
 62
     5
 10
246.585000004
 20
125.700002703
 11
251.000000004
 21
125.700002703
  0
LINE
  8
0
  6
CONTINUOUS
 62
     5
 10
246.585000004
 20
125.700002703
 11
256.000000004
 21
125.700002703
  0
LINE
  8
0
  6
CONTINUOUS
 62
     5
 10
246.585000004
 20
125.700002703
 11
261.000000004
 21
125.700002703
  0
LINE
  8
0
  6
CONTINUOUS
 62
     5
 10
247.845000004
 20
125.700002703
 11
277.190000005
 21
125.700002703
  0
LINE
  8
0
  6
CONTINUOUS
 62
     5
 10
246.785000004
 20
130.000002703
 11
251.000000004
 21
130.000002703
  0
LINE
  8
0
  6
CONTINUOUS
 62
     5
 10
228.655647704
 20
166.500002702
 11
261.000000004
 21
166.500002702
  0
LINE
  8
0
  6
CONTINUOUS
 62
     5
 10
243.000000007
 20
49.700002703
 11
261.000000004
 21
49.700002703
  0
LINE
  8
0
  6
CONTINUOUS
 62
     5
 10
245.585000006
 20
63.700002703
 11
256.000000004
 21
63.700002703
  0
LINE
  8
0
  6
CONTINUOUS
 62
     5
 10
245.585000005
 20
83.700002703
 11
256.000000004
 21
83.700002703
  0
LINE
  8
0
  6
CONTINUOUS
 62
     5
 10
243.000000005
 20
97.700002703
 11
261.000000004
 21
97.700002703
  0
ENDSEC
  0
EOF
